  0
SECTION
  2
HEADER
  9
$ACADVER
  1
AC1015
  9
$ACADMAINTVER
 70
     6
  9
$DWGCODEPAGE
  3
ANSI_1252
  9
$INSBASE
 10
0.0
 20
0.0
 30
0.0
  9
$EXTMIN
 10
-34.486168
 20
72.380699
 30
0.0
  9
$EXTMAX
 10
503.315918
 20
383.816315
 30
0.0
  9
$LIMMIN
 10
-34.486168
 20
72.380699
  9
$LIMMAX
 10
503.315918
 20
383.816315
  9
$ORTHOMODE
 70
     0
  9
$REGENMODE
 70
     1
  9
$FILLMODE
 70
     1
  9
$QTEXTMODE
 70
     0
  9
$MIRRTEXT
 70
     1
  9
$LTSCALE
 40
1.0
  9
$ATTMODE
 70
     1
  9
$TEXTSIZE
 40
2.5
  9
$TRACEWID
 40
1.0
  9
$TEXTSTYLE
  7
Standard
  9
$CLAYER
  8
0
  9
$CELTYPE
  6
ByLayer
  9
$CECOLOR
 62
   256
  9
$CELTSCALE
 40
1.0
  9
$DISPSILH
 70
     0
  9
$DIMSCALE
 40
1.0
  9
$DIMASZ
 40
2.5
  9
$DIMEXO
 40
0.625
  9
$DIMDLI
 40
3.75
  9
$DIMRND
 40
0.0
  9
$DIMDLE
 40
0.0
  9
$DIMEXE
 40
1.25
  9
$DIMTP
 40
0.0
  9
$DIMTM
 40
0.0
  9
$DIMTXT
 40
2.5
  9
$DIMCEN
 40
2.5
  9
$DIMTSZ
 40
0.0
  9
$DIMTOL
 70
     0
  9
$DIMLIM
 70
     0
  9
$DIMTIH
 70
     0
  9
$DIMTOH
 70
     0
  9
$DIMSE1
 70
     0
  9
$DIMSE2
 70
     0
  9
$DIMTAD
 70
     1
  9
$DIMZIN
 70
     8
  9
$DIMBLK
  1

  9
$DIMASO
 70
     1
  9
$DIMSHO
 70
     1
  9
$DIMPOST
  1

  9
$DIMAPOST
  1

  9
$DIMALT
 70
     0
  9
$DIMALTD
 70
     3
  9
$DIMALTF
 40
0.03937
  9
$DIMLFAC
 40
1.0
  9
$DIMTOFL
 70
     1
  9
$DIMTVP
 40
0.0
  9
$DIMTIX
 70
     0
  9
$DIMSOXD
 70
     0
  9
$DIMSAH
 70
     0
  9
$DIMBLK1
  1

  9
$DIMBLK2
  1

  9
$DIMSTYLE
  2
ISO-25
  9
$DIMCLRD
 70
     0
  9
$DIMCLRE
 70
     0
  9
$DIMCLRT
 70
     0
  9
$DIMTFAC
 40
1.0
  9
$DIMGAP
 40
0.625
  9
$DIMJUST
 70
     0
  9
$DIMSD1
 70
     0
  9
$DIMSD2
 70
     0
  9
$DIMTOLJ
 70
     0
  9
$DIMTZIN
 70
     8
  9
$DIMALTZ
 70
     0
  9
$DIMALTTZ
 70
     0
  9
$DIMUPT
 70
     0
  9
$DIMDEC
 70
     2
  9
$DIMTDEC
 70
     2
  9
$DIMALTU
 70
     2
  9
$DIMALTTD
 70
     3
  9
$DIMTXSTY
  7
Standard
  9
$DIMAUNIT
 70
     0
  9
$DIMADEC
 70
     0
  9
$DIMALTRND
 40
0.0
  9
$DIMAZIN
 70
     0
  9
$DIMDSEP
 70
    44
  9
$DIMATFIT
 70
     3
  9
$DIMFRAC
 70
     0
  9
$DIMLDRBLK
  1

  9
$DIMLUNIT
 70
     2
  9
$DIMLWD
 70
    -2
  9
$DIMLWE
 70
    -2
  9
$DIMTMOVE
 70
     0
  9
$LUNITS
 70
     2
  9
$LUPREC
 70
     4
  9
$SKETCHINC
 40
1.0
  9
$FILLETRAD
 40
10.0
  9
$AUNITS
 70
     0
  9
$AUPREC
 70
     0
  9
$MENU
  1
.
  9
$ELEVATION
 40
0.0
  9
$PELEVATION
 40
0.0
  9
$THICKNESS
 40
0.0
  9
$LIMCHECK
 70
     0
  9
$CHAMFERA
 40
10.0
  9
$CHAMFERB
 40
10.0
  9
$CHAMFERC
 40
20.0
  9
$CHAMFERD
 40
0.0
  9
$SKPOLY
 70
     0
  9
$TDCREATE
 40
2455572.602566713
  9
$TDUCREATE
 40
2455572.560900046
  9
$TDUPDATE
 40
2455572.602566725
  9
$TDUUPDATE
 40
2455572.560900058
  9
$TDINDWG
 40
0.0000000116
  9
$TDUSRTIMER
 40
0.0000000116
  9
$USRTIMER
 70
     1
  9
$ANGBASE
 50
0.0
  9
$ANGDIR
 70
     0
  9
$PDMODE
 70
     0
  9
$PDSIZE
 40
0.0
  9
$PLINEWID
 40
0.0
  9
$SPLFRAME
 70
     0
  9
$SPLINETYPE
 70
     6
  9
$SPLINESEGS
 70
     8
  9
$HANDSEED
  5
156
  9
$SURFTAB1
 70
     6
  9
$SURFTAB2
 70
     6
  9
$SURFTYPE
 70
     6
  9
$SURFU
 70
     6
  9
$SURFV
 70
     6
  9
$UCSBASE
  2

  9
$UCSNAME
  2

  9
$UCSORG
 10
0.0
 20
0.0
 30
0.0
  9
$UCSXDIR
 10
1.0
 20
0.0
 30
0.0
  9
$UCSYDIR
 10
0.0
 20
1.0
 30
0.0
  9
$UCSORTHOREF
  2

  9
$UCSORTHOVIEW
 70
     0
  9
$UCSORGTOP
 10
0.0
 20
0.0
 30
0.0
  9
$UCSORGBOTTOM
 10
0.0
 20
0.0
 30
0.0
  9
$UCSORGLEFT
 10
0.0
 20
0.0
 30
0.0
  9
$UCSORGRIGHT
 10
0.0
 20
0.0
 30
0.0
  9
$UCSORGFRONT
 10
0.0
 20
0.0
 30
0.0
  9
$UCSORGBACK
 10
0.0
 20
0.0
 30
0.0
  9
$PUCSBASE
  2

  9
$PUCSNAME
  2

  9
$PUCSORG
 10
0.0
 20
0.0
 30
0.0
  9
$PUCSXDIR
 10
1.0
 20
0.0
 30
0.0
  9
$PUCSYDIR
 10
0.0
 20
1.0
 30
0.0
  9
$PUCSORTHOREF
  2

  9
$PUCSORTHOVIEW
 70
     0
  9
$PUCSORGTOP
 10
0.0
 20
0.0
 30
0.0
  9
$PUCSORGBOTTOM
 10
0.0
 20
0.0
 30
0.0
  9
$PUCSORGLEFT
 10
0.0
 20
0.0
 30
0.0
  9
$PUCSORGRIGHT
 10
0.0
 20
0.0
 30
0.0
  9
$PUCSORGFRONT
 10
0.0
 20
0.0
 30
0.0
  9
$PUCSORGBACK
 10
0.0
 20
0.0
 30
0.0
  9
$USERI1
 70
     0
  9
$USERI2
 70
     0
  9
$USERI3
 70
     0
  9
$USERI4
 70
     0
  9
$USERI5
 70
     0
  9
$USERR1
 40
0.0
  9
$USERR2
 40
0.0
  9
$USERR3
 40
0.0
  9
$USERR4
 40
0.0
  9
$USERR5
 40
0.0
  9
$WORLDVIEW
 70
     1
  9
$SHADEDGE
 70
     3
  9
$SHADEDIF
 70
    70
  9
$TILEMODE
 70
     1
  9
$MAXACTVP
 70
    64
  9
$PINSBASE
 10
0.0
 20
0.0
 30
0.0
  9
$PLIMCHECK
 70
     0
  9
$PEXTMIN
 10
1.000000E+20
 20
1.000000E+20
 30
1.000000E+20
  9
$PEXTMAX
 10
-1.000000E+20
 20
-1.000000E+20
 30
-1.000000E+20
  9
$PLIMMIN
 10
0.0
 20
0.0
  9
$PLIMMAX
 10
420.0
 20
297.0
  9
$UNITMODE
 70
     0
  9
$VISRETAIN
 70
     1
  9
$PLINEGEN
 70
     0
  9
$PSLTSCALE
 70
     1
  9
$TREEDEPTH
 70
  3020
  9
$CMLSTYLE
  2
Standard
  9
$CMLJUST
 70
     0
  9
$CMLSCALE
 40
20.0
  9
$PROXYGRAPHICS
 70
     1
  9
$MEASUREMENT
 70
     1
  9
$CELWEIGHT
370
    -1
  9
$ENDCAPS
280
     0
  9
$JOINSTYLE
280
     0
  9
$LWDISPLAY
290
     0
  9
$INSUNITS
 70
     4
  9
$HYPERLINKBASE
  1

  9
$STYLESHEET
  1

  9
$XEDIT
290
     1
  9
$CEPSNTYPE
380
     0
  9
$PSTYLEMODE
290
     1
  9
$FINGERPRINTGUID
  2
{81ABAE30-1FDF-4561-ABC5-B4DE9083CE32}
  9
$VERSIONGUID
  2
{FAEB1C32-E019-11D5-929B-00C0DF256EC4}
  9
$EXTNAMES
290
     1
  9
$PSVPSCALE
 40
0.0
  9
$OLESTARTUP
290
     0
  0
ENDSEC
  0
SECTION
  2
CLASSES
  0
CLASS
  1
ACDBDICTIONARYWDFLT
  2
AcDbDictionaryWithDefault
  3
ObjectDBX Classes
 90
        0
280
     0
281
     0
  0
CLASS
  1
VISUALSTYLE
  2
AcDbVisualStyle
  3
ObjectDBX Classes
 90
     4095
280
     0
281
     0
  0
CLASS
  1
DICTIONARYVAR
  2
AcDbDictionaryVar
  3
ObjectDBX Classes
 90
        0
280
     0
281
     0
  0
CLASS
  1
ACDBPLACEHOLDER
  2
AcDbPlaceHolder
  3
ObjectDBX Classes
 90
        0
280
     0
281
     0
  0
CLASS
  1
LAYOUT
  2
AcDbLayout
  3
ObjectDBX Classes
 90
        0
280
     0
281
     0
  0
ENDSEC
  0
SECTION
  2
TABLES
  0
TABLE
  2
VPORT
  5
8
330
0
100
AcDbSymbolTable
 70
     1
  0
VPORT
  5
29
330
8
100
AcDbSymbolTableRecord
100
AcDbViewportTableRecord
  2
*Active
 70
     0
 10
0.0
 20
0.0
 11
1.0
 21
1.0
 12
344.186916
 22
148.5
 13
0.0
 23
0.0
 14
10.0
 24
10.0
 15
10.0
 25
10.0
 16
0.0
 26
0.0
 36
1.0
 17
0.0
 27
0.0
 37
0.0
 40
297.0
 41
1.972973
 42
50.0
 43
0.0
 44
0.0
 50
0.0
 51
0.0
 71
     0
 72
   100
 73
     1
 74
     3
 75
     0
 76
     0
 77
     0
 78
     0
281
     0
 65
     1
110
0.0
120
0.0
130
0.0
111
1.0
121
0.0
131
0.0
112
0.0
122
1.0
132
0.0
 79
     0
146
0.0
  0
ENDTAB
  0
TABLE
  2
LTYPE
  5
5
330
0
100
AcDbSymbolTable
 70
     1
  0
LTYPE
  5
14
330
5
100
AcDbSymbolTableRecord
100
AcDbLinetypeTableRecord
  2
ByBlock
 70
     0
  3

 72
    65
 73
     0
 40
0.0
  0
LTYPE
  5
15
330
5
100
AcDbSymbolTableRecord
100
AcDbLinetypeTableRecord
  2
ByLayer
 70
     0
  3

 72
    65
 73
     0
 40
0.0
  0
LTYPE
  5
16
330
5
100
AcDbSymbolTableRecord
100
AcDbLinetypeTableRecord
  2
Continuous
 70
     0
  3
Solid line
 72
    65
 73
     0
 40
0.0
  0
ENDTAB
  0
TABLE
  2
LAYER
  5
2
330
0
100
AcDbSymbolTable
 70
     1
  0
LAYER
  5
10
330
2
100
AcDbSymbolTableRecord
100
AcDbLayerTableRecord
  2
0
 70
     0
 62
   106
  6
Continuous
370
     0
390
F
  0
ENDTAB
  0
TABLE
  2
STYLE
  5
3
330
0
100
AcDbSymbolTable
 70
     4
  0
STYLE
  5
11
330
3
100
AcDbSymbolTableRecord
100
AcDbTextStyleTableRecord
  2
Standard
 70
     0
 40
0.0
 41
1.0
 50
0.0
 71
     0
 42
2.5
  3
txt
  4

  0
STYLE
  5
3B
330
3
100
AcDbSymbolTableRecord
100
AcDbTextStyleTableRecord
  2
Default
 70
     0
 40
0.0
 41
1.0
 50
0.0
 71
     0
 42
0.2
  3

  4

1001
ACAD
1000
txt
1071
        0
  0
STYLE
  5
3C
330
3
100
AcDbSymbolTableRecord
100
AcDbTextStyleTableRecord
  2
ISO
 70
     0
 40
0.0
 41
1.0
 50
0.0
 71
     0
 42
0.2
  3

  4

1001
ACAD
1000
txt
1071
        0
  0
STYLE
  5
3D
330
3
100
AcDbSymbolTableRecord
100
AcDbTextStyleTableRecord
  2
GIANLU
 70
     0
 40
0.0
 41
1.0
 50
0.0
 71
     0
 42
0.2
  3

  4

1001
ACAD
1000
Arial
1071
        0
  0
ENDTAB
  0
TABLE
  2
VIEW
  5
6
330
0
100
AcDbSymbolTable
 70
     0
  0
ENDTAB
  0
TABLE
  2
UCS
  5
7
330
0
100
AcDbSymbolTable
 70
     0
  0
ENDTAB
  0
TABLE
  2
APPID
  5
9
330
0
100
AcDbSymbolTable
 70
     1
  0
APPID
  5
12
330
9
100
AcDbSymbolTableRecord
100
AcDbRegAppTableRecord
  2
ACAD
 70
     0
  0
ENDTAB
  0
TABLE
  2
DIMSTYLE
  5
A
330
0
100
AcDbSymbolTable
 70
     4
100
AcDbDimStyleTable
  0
DIMSTYLE
105
27
330
A
100
AcDbSymbolTableRecord
100
AcDbDimStyleTableRecord
  2
ISO-25
 70
     0
 41
2.5
 42
0.625
 43
3.75
 44
1.25
 73
     0
 74
     0
 77
     1
 78
     8
140
2.5
141
2.5
143
0.03937
147
0.625
171
     3
172
     1
271
     2
272
     2
274
     3
278
    44
283
     0
284
     8
340
11
  0
DIMSTYLE
105
3E
330
A
100
AcDbSymbolTableRecord
100
AcDbDimStyleTableRecord
  2
Default
 70
     0
  3
<>
 41
4.375
 42
1.05
 44
2.1
 73
     0
 74
     0
 77
     1
 78
     8
140
3.5
146
0.4
147
1.75
178
     3
271
     2
272
     3
284
     8
340
3B
341
3F
342
3F
  0
DIMSTYLE
105
46
330
A
100
AcDbSymbolTableRecord
100
AcDbDimStyleTableRecord
  2
ISO
 70
     0
  3
<>
 41
4.375
 42
1.05
 44
2.1
 73
     0
 74
     0
 77
     1
 78
     8
140
3.5
146
0.4
147
1.75
178
     3
271
     2
272
     3
284
     8
340
3C
341
3F
342
3F
  0
DIMSTYLE
105
47
330
A
100
AcDbSymbolTableRecord
100
AcDbDimStyleTableRecord
  2
zucchetti_unico
 70
     0
  3
<>
 41
3.0
 42
0.9
 44
1.8
 73
     0
 74
     0
 77
     1
 78
     8
140
3.0
146
0.6
147
1.5
176
   104
177
     3
178
     3
271
     2
272
     2
284
     8
340
3D
  0
ENDTAB
  0
TABLE
  2
BLOCK_RECORD
  5
1
330
0
100
AcDbSymbolTable
 70
     7
  0
BLOCK_RECORD
  5
1F
330
1
100
AcDbSymbolTableRecord
100
AcDbBlockTableRecord
  2
*Model_Space
340
22
  0
BLOCK_RECORD
  5
1B
330
1
100
AcDbSymbolTableRecord
100
AcDbBlockTableRecord
  2
*Paper_Space
340
1E
  0
BLOCK_RECORD
  5
23
330
1
100
AcDbSymbolTableRecord
100
AcDbBlockTableRecord
  2
*Paper_Space0
340
26
  0
BLOCK_RECORD
  5
3F
330
1
100
AcDbSymbolTableRecord
100
AcDbBlockTableRecord
  2
_CLOSED
340
0
  0
BLOCK_RECORD
  5
48
330
1
100
AcDbSymbolTableRecord
100
AcDbBlockTableRecord
  2
a
340
0
102
{BLKREFS
331
7F
102
}
  0
BLOCK_RECORD
  5
80
330
1
100
AcDbSymbolTableRecord
100
AcDbBlockTableRecord
  2
b
340
0
102
{BLKREFS
331
B6
102
}
  0
BLOCK_RECORD
  5
B7
330
1
100
AcDbSymbolTableRecord
100
AcDbBlockTableRecord
  2
c
340
0
102
{BLKREFS
331
D2
102
}
  0
BLOCK_RECORD
  5
D3
330
1
100
AcDbSymbolTableRecord
100
AcDbBlockTableRecord
  2
d
340
0
102
{BLKREFS
331
11E
102
}
  0
BLOCK_RECORD
  5
11F
330
1
100
AcDbSymbolTableRecord
100
AcDbBlockTableRecord
  2
e
340
0
102
{BLKREFS
331
150
102
}
  0
ENDTAB
  0
ENDSEC
  0
SECTION
  2
BLOCKS
  0
BLOCK
  5
20
330
1F
100
AcDbEntity
  8
0
100
AcDbBlockBegin
  2
*Model_Space
 70
     0
 10
0.0
 20
0.0
 30
0.0
  3
*Model_Space
  1

  0
ENDBLK
  5
21
330
1F
100
AcDbEntity
  8
0
100
AcDbBlockEnd
  0
BLOCK
  5
1C
330
1B
100
AcDbEntity
 67
     1
  8
0
100
AcDbBlockBegin
  2
*Paper_Space
 70
     0
 10
0.0
 20
0.0
 30
0.0
  3
*Paper_Space
  1

  0
ENDBLK
  5
1D
330
1B
100
AcDbEntity
 67
     1
  8
0
100
AcDbBlockEnd
  0
BLOCK
  5
24
330
23
100
AcDbEntity
  8
0
100
AcDbBlockBegin
  2
*Paper_Space0
 70
     0
 10
0.0
 20
0.0
 30
0.0
  3
*Paper_Space0
  1

  0
ENDBLK
  5
25
330
23
100
AcDbEntity
  8
0
100
AcDbBlockEnd
  0
BLOCK
  5
40
330
3F
100
AcDbEntity
  8
0
100
AcDbBlockBegin
  2
_CLOSED
 70
     0
 10
0.0
 20
0.0
 30
0.0
  3
_CLOSED
  1

  0
LINE
  5
42
330
3F
100
AcDbEntity
  8
0
  6
ByBlock
 62
     0
370
    -2
100
AcDbLine
 10
-1.0
 20
0.166667
 30
0.0
 11
0.0
 21
0.0
 31
0.0
  0
LINE
  5
43
330
3F
100
AcDbEntity
  8
0
  6
ByBlock
 62
     0
370
    -2
100
AcDbLine
 10
0.0
 20
0.0
 30
0.0
 11
-1.0
 21
-0.166667
 31
0.0
  0
LINE
  5
44
330
3F
100
AcDbEntity
  8
0
  6
ByBlock
 62
     0
370
    -2
100
AcDbLine
 10
-1.0
 20
0.166667
 30
0.0
 11
-1.0
 21
-0.166667
 31
0.0
  0
LINE
  5
45
330
3F
100
AcDbEntity
  8
0
  6
ByBlock
 62
     0
370
    -2
100
AcDbLine
 10
0.0
 20
0.0
 30
0.0
 11
-1.0
 21
0.0
 31
0.0
  0
ENDBLK
  5
41
330
3F
100
AcDbEntity
  8
0
100
AcDbBlockEnd
  0
BLOCK
  5
7D
330
48
100
AcDbEntity
  8
0
100
AcDbBlockBegin
  2
a
 70
     0
 10
53.779839
 20
91.176018
 30
0.0
  3
a
  1

  0
LWPOLYLINE
  5
49
330
48
100
AcDbEntity
  8
0
  6
Continuous
 62
     0
370
     0
100
AcDbPolyline
 90
       13
 70
     0
 43
0.0
 10
137.761871
 20
364.840088
 10
137.818497
 20
364.88559
 10
137.986374
 20
365.017365
 10
138.260498
 20
365.22345
 10
138.633911
 20
365.486603
 10
139.099121
 20
365.786713
 10
139.648544
 20
366.103271
 10
140.274536
 20
366.416351
 10
140.969269
 20
366.706482
 10
141.723511
 20
366.95575
 10
142.52597
 20
367.148376
 10
143.362976
 20
367.271393
 10
144.261871
 20
367.316315
  0
LWPOLYLINE
  5
4A
330
48
100
AcDbEntity
  8
0
  6
Continuous
 62
     0
370
     0
100
AcDbPolyline
 90
       13
 70
     0
 43
0.0
 10
144.261871
 20
367.316315
 10
145.117737
 20
367.275269
 10
145.956161
 20
367.156372
 10
146.760712
 20
366.967041
 10
147.51767
 20
366.720215
 10
148.215622
 20
366.431702
 10
148.845276
 20
366.119324
 10
149.398773
 20
365.80249
 10
149.868408
 20
365.501038
 10
150.246658
 20
365.235565
 10
150.526001
 20
365.026154
 10
150.699417
 20
364.890228
 10
150.761826
 20
364.84021
  0
LINE
  5
4B
330
48
100
AcDbEntity
  8
0
  6
Continuous
 62
     0
370
     0
100
AcDbLine
 10
137.761871
 20
378.816303
 30
0.0
 11
144.261871
 21
378.816303
 31
0.0
  0
LINE
  5
4C
330
48
100
AcDbEntity
  8
0
  6
Continuous
 62
     0
370
     0
100
AcDbLine
 10
144.261871
 20
378.816303
 30
0.0
 11
150.761871
 21
378.816303
 31
0.0
  0
LINE
  5
4D
330
48
100
AcDbEntity
  8
0
  6
Continuous
 62
     0
370
    30
100
AcDbLine
 10
144.261871
 20
379.316303
 30
0.0
 11
150.261871
 21
379.316303
 31
0.0
  0
LINE
  5
4E
330
48
100
AcDbEntity
  8
0
  6
Continuous
 62
     0
370
    30
100
AcDbLine
 10
138.261871
 20
379.316303
 30
0.0
 11
144.261871
 21
379.316303
 31
0.0
  0
ARC
  5
4F
330
48
100
AcDbEntity
  8
0
  6
Continuous
 62
     0
370
    30
100
AcDbCircle
 10
144.261871
 20
343.816303
 30
0.0
 40
19.5
100
AcDbArc
 50
90.0
 51
270.0
  0
ARC
  5
50
330
48
100
AcDbEntity
  8
0
  6
Continuous
 62
     0
370
    30
100
AcDbCircle
 10
144.261871
 20
343.816303
 30
0.0
 40
19.5
100
AcDbArc
 50
270.0
 51
90.0
  0
ARC
  5
51
330
48
100
AcDbEntity
  8
0
  6
Continuous
 62
     0
370
     0
100
AcDbCircle
 10
144.261871
 20
343.816303
 30
0.0
 40
19.0
100
AcDbArc
 50
270.0
 51
90.0
  0
ARC
  5
52
330
48
100
AcDbEntity
  8
0
  6
Continuous
 62
     0
370
     0
100
AcDbCircle
 10
144.261871
 20
343.816303
 30
0.0
 40
19.0
100
AcDbArc
 50
90.0
 51
270.0
  0
ELLIPSE
  5
53
330
48
100
AcDbEntity
  8
0
  6
Continuous
 62
     0
370
     0
100
AcDbEllipse
 10
242.81165
 20
343.816303
 30
0.0
 11
-1.686624546451057E-11
 21
3.0
 31
0.0
210
0.0
220
0.0
230
1.0
 40
0.438371
 41
6.283185307179583
 42
7.853981633974481
  0
ELLIPSE
  5
54
330
48
100
AcDbEntity
  8
0
  6
Continuous
 62
     0
370
     0
100
AcDbEllipse
 10
242.81165
 20
343.816303
 30
0.0
 11
-1.686624546451057E-11
 21
3.0
 31
0.0
210
0.0
220
0.0
230
1.0
 40
0.438371
 41
1.570796326794895
 42
3.14159265358979
  0
LINE
  5
55
330
48
100
AcDbEntity
  8
0
  6
Continuous
 62
     0
370
    30
100
AcDbLine
 10
242.81165
 20
340.816303
 30
0.0
 11
244.827369
 21
340.816303
 31
0.0
  0
LWPOLYLINE
  5
56
330
48
100
AcDbEntity
  8
0
  6
Continuous
 62
     0
370
     0
100
AcDbPolyline
 90
       16
 70
     0
 43
0.0
 10
239.177353
 20
340.816315
 10
238.628357
 20
340.873016
 10
238.06813
 20
341.055176
 10
237.535233
 20
341.370148
 10
237.070831
 20
341.80722
 10
236.70932
 20
342.337555
 10
236.470291
 20
342.920197
 10
236.355453
 20
343.511719
 10
236.352188
 20
344.084991
 10
236.459686
 20
344.675751
 10
236.690918
 20
345.260132
 10
237.045258
 20
345.794983
 10
237.504196
 20
346.238831
 10
238.034042
 20
346.561829
 10
238.593765
 20
346.752136
 10
239.177353
 20
346.816315
  0
LWPOLYLINE
  5
57
330
48
100
AcDbEntity
  8
0
  6
Continuous
 62
     0
370
     0
100
AcDbPolyline
 90
        6
 70
     0
 43
0.0
 10
241.525314
 20
346.816315
 10
241.023346
 20
347.286865
 10
240.462418
 20
347.660828
 10
239.86705
 20
347.928925
 10
239.262024
 20
348.090576
 10
238.562943
 20
348.154053
  0
LWPOLYLINE
  5
58
330
48
100
AcDbEntity
  8
0
  6
Continuous
 62
     0
370
     0
100
AcDbPolyline
 90
        6
 70
     0
 43
0.0
 10
238.562943
 20
339.478546
 10
239.151031
 20
339.523376
 10
239.755295
 20
339.665894
 10
240.354279
 20
339.914154
 10
240.923462
 20
340.269012
 10
241.525314
 20
340.816315
  0
LWPOLYLINE
  5
59
330
48
100
AcDbEntity
  8
0
  6
Continuous
 62
     0
370
     0
100
AcDbPolyline
 90
       19
 70
     0
 43
0.0
 10
238.562943
 20
348.154053
 10
237.903351
 20
348.097595
 10
237.226532
 20
347.917328
 10
236.563477
 20
347.603668
 10
235.94899
 20
347.158936
 10
235.416504
 20
346.598785
 10
234.992523
 20
345.950958
 10
234.692245
 20
345.250671
 10
234.518173
 20
344.53479
 10
234.461563
 20
343.836243
 10
234.511749
 20
343.139557
 10
234.678589
 20
342.423828
 10
234.97142
 20
341.721619
 10
235.388458
 20
341.069702
 10
235.915207
 20
340.50354
 10
236.525772
 20
340.051483
 10
237.186951
 20
339.72995
 10
237.863876
 20
339.542023
 10
238.562943
 20
339.478546
  0
LINE
  5
5A
330
48
100
AcDbEntity
  8
0
  6
Continuous
 62
     0
370
    30
100
AcDbLine
 10
239.177351
 20
340.816303
 30
0.0
 11
239.768765
 21
340.816303
 31
0.0
  0
ELLIPSE
  5
5B
330
48
100
AcDbEntity
  8
0
  6
Continuous
 62
     0
370
     0
100
AcDbEllipse
 10
239.768765
 20
343.816303
 30
0.0
 11
1.687431908108022E-11
 21
-3.0
 31
0.0
210
0.0
220
0.0
230
-1.0
 40
0.945519
 41
0.0000000000000172
 42
1.570796326794899
  0
ELLIPSE
  5
5C
330
48
100
AcDbEntity
  8
0
  6
Continuous
 62
     0
370
     0
100
AcDbEllipse
 10
239.768765
 20
343.816303
 30
0.0
 11
1.687431908108022E-11
 21
-3.0
 31
0.0
210
0.0
220
0.0
230
-1.0
 40
0.945519
 41
1.570796326794899
 42
3.14159265358979
  0
LWPOLYLINE
  5
5D
330
48
100
AcDbEntity
  8
0
  6
Continuous
 62
     0
370
     0
100
AcDbPolyline
 90
        6
 70
     0
 43
0.0
 10
226.592102
 20
346.371216
 10
226.419891
 20
345.421356
 10
226.321442
 20
344.459656
 10
226.306595
 20
343.492737
 10
226.378922
 20
342.528534
 10
226.592102
 20
341.261383
  0
ARC
  5
5E
330
48
100
AcDbEntity
  8
0
  6
Continuous
 62
     0
370
    30
100
AcDbCircle
 10
234.538638
 20
343.816305
 30
0.0
 40
8.347159348569846
100
AcDbArc
 50
57.268147
 51
162.176673
  0
ARC
  5
5F
330
48
100
AcDbEntity
  8
0
  6
Continuous
 62
     0
370
    30
100
AcDbCircle
 10
234.53858
 20
343.816252
 30
0.0
 40
8.347088639585014
100
AcDbArc
 50
197.82313
 51
302.747698
  0
LWPOLYLINE
  5
60
330
48
100
AcDbEntity
  8
0
  6
Continuous
 62
     0
370
    30
100
AcDbPolyline
 90
        4
 70
     0
 43
0.0
 10
226.589462
 20
346.371643
 10
226.431885
 20
345.757233
 10
226.326477
 20
345.131653
 10
226.256927
 20
344.364868
  0
LWPOLYLINE
  5
61
330
48
100
AcDbEntity
  8
0
  6
Continuous
 62
     0
370
    30
100
AcDbPolyline
 90
        5
 70
     0
 43
0.0
 10
226.256927
 20
344.364868
 10
226.245132
 20
343.588806
 10
226.290771
 20
342.814056
 10
226.3983
 20
342.045532
 10
226.589462
 20
341.260956
  0
LWPOLYLINE
  5
62
330
48
100
AcDbEntity
  8
0
  6
Continuous
 62
     0
370
    30
100
AcDbPolyline
 90
       13
 70
     0
 43
0.0
 10
307.06134
 20
349.446411
 10
306.717529
 20
349.831146
 10
306.35968
 20
350.103973
 10
305.971558
 20
350.271454
 10
305.561371
 20
350.313995
 10
305.1409
 20
350.216888
 10
304.723969
 20
349.973297
 10
304.325195
 20
349.58609
 10
303.958374
 20
349.068054
 10
303.634918
 20
348.440613
 10
303.362671
 20
347.731018
 10
303.145538
 20
346.968933
 10
302.978088
 20
346.151031
  0
LWPOLYLINE
  5
63
330
48
100
AcDbEntity
  8
0
  6
Continuous
 62
     0
370
    30
100
AcDbPolyline
 90
       18
 70
     0
 43
0.0
 10
302.978088
 20
346.151031
 10
302.865784
 20
345.325165
 10
302.800751
 20
344.432007
 10
302.791473
 20
343.492676
 10
302.843872
 20
342.534576
 10
302.960327
 20
341.589691
 10
303.138916
 20
340.691071
 10
303.373383
 20
339.869415
 10
303.653961
 20
339.149475
 10
303.968536
 20
338.547729
 10
304.304169
 20
338.071655
 10
304.648621
 20
337.720154
 10
305.013947
 20
337.473785
 10
305.40799
 20
337.337402
 10
305.821167
 20
337.329834
 10
306.241241
 20
337.463959
 10
306.654083
 20
337.744171
 10
307.06134
 20
338.186218
  0
LWPOLYLINE
  5
64
330
48
100
AcDbEntity
  8
0
  6
Continuous
 62
     0
370
    30
100
AcDbPolyline
 90
       22
 70
     0
 43
0.0
 10
308.345581
 20
341.517487
 10
308.181732
 20
340.716339
 10
307.959686
 20
339.940094
 10
307.679626
 20
339.220184
 10
307.345917
 20
338.588928
 10
306.96756
 20
338.075714
 10
306.557343
 20
337.70285
 10
306.130585
 20
337.482788
 10
305.703217
 20
337.416534
 10
305.289917
 20
337.494537
 10
304.902771
 20
337.698883
 10
304.545654
 20
338.011597
 10
304.198181
 20
338.450317
 10
303.868317
 20
339.022766
 10
303.57016
 20
339.723938
 10
303.317535
 20
340.538605
 10
303.121918
 20
341.44165
 10
302.99115
 20
342.400635
 10
302.928192
 20
343.379303
 10
302.931152
 20
344.342224
 10
302.993835
 20
345.258545
 10
303.108887
 20
346.115112
  0
LWPOLYLINE
  5
65
330
48
100
AcDbEntity
  8
0
  6
Continuous
 62
     0
370
    30
100
AcDbPolyline
 90
       22
 70
     0
 43
0.0
 10
303.108887
 20
346.115112
 10
303.272736
 20
346.91626
 10
303.494781
 20
347.692535
 10
303.774841
 20
348.412445
 10
304.108551
 20
349.043671
 10
304.486908
 20
349.556885
 10
304.897125
 20
349.929749
 10
305.323883
 20
350.149811
 10
305.751251
 20
350.216064
 10
306.164551
 20
350.138092
 10
306.551697
 20
349.933716
 10
306.908813
 20
349.621033
 10
307.256287
 20
349.182281
 10
307.586151
 20
348.609833
 10
307.884308
 20
347.908661
 10
308.136932
 20
347.094025
 10
308.33255
 20
346.190948
 10
308.463318
 20
345.231995
 10
308.526245
 20
344.253296
 10
308.523315
 20
343.290375
 10
308.460632
 20
342.374084
 10
308.345581
 20
341.517487
  0
ELLIPSE
  5
66
330
48
100
AcDbEntity
  8
0
  6
Continuous
 62
     0
370
    30
100
AcDbEllipse
 10
247.395499
 20
343.816303
 30
0.0
 11
-3.655334078592857E-11
 21
6.5
 31
0.0
210
0.0
220
0.0
230
1.0
 40
0.438371
 41
6.283185307179585
 42
7.486581076704489
  0
ELLIPSE
  5
67
330
48
100
AcDbEntity
  8
0
  6
Continuous
 62
     0
370
    30
100
AcDbEllipse
 10
247.395499
 20
343.816303
 30
0.0
 11
-3.655334078592857E-11
 21
6.5
 31
0.0
210
0.0
220
0.0
230
1.0
 40
0.438371
 41
1.203395769524903
 42
3.141592653589792
  0
LWPOLYLINE
  5
68
330
48
100
AcDbEntity
  8
0
  6
Continuous
 62
     0
370
    30
100
AcDbPolyline
 90
        6
 70
     0
 43
0.0
 10
245.971497
 20
349.446411
 10
245.630051
 20
348.949554
 10
245.328049
 20
348.356049
 10
245.072113
 20
347.689392
 10
244.865555
 20
346.975006
 10
244.687271
 20
346.115112
  0
LWPOLYLINE
  5
69
330
48
100
AcDbEntity
  8
0
  6
Continuous
 62
     0
370
    30
100
AcDbPolyline
 90
       10
 70
     0
 43
0.0
 10
244.687271
 20
346.115112
 10
244.567932
 20
345.215607
 10
244.506149
 20
344.238098
 10
244.512589
 20
343.211639
 10
244.593979
 20
342.174042
 10
244.751465
 20
341.168274
 10
244.979874
 20
340.236877
 10
245.268295
 20
339.416199
 10
245.601685
 20
338.731873
 10
245.971497
 20
338.186218
  0
ARC
  5
6A
330
48
100
AcDbEntity
  8
0
  6
Continuous
 62
     0
370
    30
100
AcDbCircle
 10
234.261871
 20
343.816303
 30
0.0
 40
8.5
100
AcDbArc
 50
180.0
 51
339.332684
  0
ARC
  5
6B
330
48
100
AcDbEntity
  8
0
  6
Continuous
 62
     0
370
    30
100
AcDbCircle
 10
234.261871
 20
343.816303
 30
0.0
 40
8.500000000000007
100
AcDbArc
 50
20.667316
 51
180.0
  0
LINE
  5
6C
330
48
100
AcDbEntity
  8
0
  6
Continuous
 62
     0
370
    30
100
AcDbLine
 10
84.261871
 20
303.816303
 30
0.0
 11
84.261871
 21
383.816303
 31
0.0
  0
LINE
  5
6D
330
48
100
AcDbEntity
  8
0
  6
Continuous
 62
     0
370
    30
100
AcDbLine
 10
84.261871
 20
383.816303
 30
0.0
 11
284.261871
 21
383.816303
 31
0.0
  0
LINE
  5
6E
330
48
100
AcDbEntity
  8
0
  6
Continuous
 62
     0
370
    30
100
AcDbLine
 10
284.261871
 20
337.316303
 30
0.0
 11
284.261871
 21
303.816303
 31
0.0
  0
LINE
  5
6F
330
48
100
AcDbEntity
  8
0
  6
Continuous
 62
     0
370
    30
100
AcDbLine
 10
284.261871
 20
383.816303
 30
0.0
 11
284.261871
 21
350.316303
 31
0.0
  0
LINE
  5
70
330
48
100
AcDbEntity
  8
0
  6
Continuous
 62
     0
370
    30
100
AcDbLine
 10
84.261871
 20
303.816303
 30
0.0
 11
284.261871
 21
303.816303
 31
0.0
  0
LINE
  5
71
330
48
100
AcDbEntity
  8
0
  6
Continuous
 62
     0
370
    30
100
AcDbLine
 10
305.637353
 20
337.316303
 30
0.0
 11
247.395499
 21
337.316303
 31
0.0
  0
LINE
  5
72
330
48
100
AcDbEntity
  8
0
  6
Continuous
 62
     0
370
    30
100
AcDbLine
 10
305.637353
 20
350.316303
 30
0.0
 11
247.395499
 21
350.316303
 31
0.0
  0
LINE
  5
73
330
48
100
AcDbEntity
  8
0
  6
Continuous
 62
     0
370
    30
100
AcDbLine
 10
239.768765
 20
346.816303
 30
0.0
 11
242.81165
 21
346.816303
 31
0.0
  0
LINE
  5
74
330
48
100
AcDbEntity
  8
0
  6
Continuous
 62
     0
370
    30
100
AcDbLine
 10
242.81165
 20
340.816303
 30
0.0
 11
239.768765
 21
340.816303
 31
0.0
  0
LINE
  5
75
330
48
100
AcDbEntity
  8
0
  6
Continuous
 62
     0
370
    30
100
AcDbLine
 10
239.177351
 20
346.816303
 30
0.0
 11
239.768765
 21
346.816303
 31
0.0
  0
LINE
  5
76
330
48
100
AcDbEntity
  8
0
  6
Continuous
 62
     0
370
    30
100
AcDbLine
 10
242.81165
 20
346.816303
 30
0.0
 11
244.827369
 21
346.816303
 31
0.0
  0
ARC
  5
77
330
48
100
AcDbEntity
  8
0
  6
Continuous
 62
     0
370
    30
100
AcDbCircle
 10
138.261874
 20
378.816301
 30
0.0
 40
0.5000027445620747
100
AcDbArc
 50
90.001676
 51
179.999686
  0
ARC
  5
78
330
48
100
AcDbEntity
  8
0
  6
Continuous
 62
     0
370
    30
100
AcDbCircle
 10
150.261869
 20
378.816301
 30
0.0
 40
0.5000027447418289
100
AcDbArc
 50
0.000315
 51
89.998255
  0
LINE
  5
79
330
48
100
AcDbEntity
  8
0
  6
Continuous
 62
     0
370
    30
100
AcDbLine
 10
150.761871
 20
364.84
 30
0.0
 11
150.761871
 21
378.816303
 31
0.0
  0
LINE
  5
7A
330
48
100
AcDbEntity
  8
0
  6
Continuous
 62
     0
370
    30
100
AcDbLine
 10
137.761871
 20
364.84
 30
0.0
 11
137.761871
 21
378.816303
 31
0.0
  0
LWPOLYLINE
  5
7B
330
48
100
AcDbEntity
  8
0
  6
Continuous
 62
     0
370
    30
100
AcDbPolyline
 90
        7
 70
     0
 43
0.0
 10
150.761826
 20
364.84021
 10
150.829178
 20
364.109863
 10
151.028519
 20
363.404083
 10
151.35347
 20
362.746582
 10
151.79303
 20
362.159485
 10
152.332428
 20
361.662567
 10
152.974533
 20
361.261688
  0
LWPOLYLINE
  5
7C
330
48
100
AcDbEntity
  8
0
  6
Continuous
 62
     0
370
    30
100
AcDbPolyline
 90
       11
 70
     0
 43
0.0
 10
137.761871
 20
364.840088
 10
137.737167
 20
364.397308
 10
137.663727
 20
363.959747
 10
137.542313
 20
363.533112
 10
137.374329
 20
363.122589
 10
137.161972
 20
362.733124
 10
136.907745
 20
362.369629
 10
136.614899
 20
362.036469
 10
136.28688
 20
361.737885
 10
135.927826
 20
361.477417
 10
135.549118
 20
361.261597
  0
ENDBLK
  5
7E
330
48
100
AcDbEntity
  8
0
100
AcDbBlockEnd
  0
BLOCK
  5
B4
330
80
100
AcDbEntity
  8
0
100
AcDbBlockBegin
  2
b
 70
     0
 10
53.779842
 20
124.285622
 30
0.0
  3
b
  1

  0
LINE
  5
81
330
80
100
AcDbEntity
  8
0
  6
Continuous
 62
     0
370
    30
100
AcDbLine
 10
144.261879
 20
164.293296
 30
0.0
 11
124.761879
 21
164.293296
 31
0.0
  0
LINE
  5
82
330
80
100
AcDbEntity
  8
0
  6
Continuous
 62
     0
370
    30
100
AcDbLine
 10
163.761879
 20
164.293296
 30
0.0
 11
144.261879
 21
164.293296
 31
0.0
  0
LWPOLYLINE
  5
83
330
80
100
AcDbEntity
  8
0
  6
Continuous
 62
     0
370
     0
100
AcDbPolyline
 90
       27
 70
     0
 43
0.0
 10
144.261871
 20
126.793297
 10
145.32547
 20
126.872101
 10
146.3703
 20
127.105423
 10
147.37825
 20
127.488182
 10
148.335022
 20
128.01178
 10
149.228119
 20
128.665985
 10
150.045853
 20
129.440536
 10
150.779587
 20
130.32515
 10
151.421356
 20
131.309555
 10
151.963165
 20
132.382858
 10
152.396866
 20
133.53334
 10
152.714417
 20
134.746506
 10
152.908752
 20
136.004456
 10
152.974579
 20
137.28598
 10
152.910217
 20
138.567657
 10
152.717346
 20
139.826035
 10
152.401138
 20
141.039719
 10
151.968719
 20
142.191071
 10
151.428101
 20
143.265366
 10
150.787415
 20
144.250687
 10
150.054596
 20
145.136566
 10
149.2379
 20
145.912552
 10
148.345993
 20
146.568085
 10
147.389435
 20
147.092987
 10
146.381866
 20
147.477646
 10
145.337555
 20
147.712921
 10
144.261887
 20
147.793289
  0
LWPOLYLINE
  5
84
330
80
100
AcDbEntity
  8
0
  6
Continuous
 62
     0
370
     0
100
AcDbPolyline
 90
       27
 70
     0
 43
0.0
 10
144.261887
 20
147.793289
 10
143.198273
 20
147.714706
 10
142.153519
 20
147.481201
 10
141.14502
 20
147.098434
 10
140.188156
 20
146.574875
 10
139.295624
 20
145.920578
 10
138.478012
 20
145.145966
 10
137.744125
 20
144.261292
 10
137.102341
 20
143.276993
 10
136.560562
 20
142.203659
 10
136.126862
 20
141.053146
 10
135.80928
 20
139.839966
 10
135.615051
 20
138.582016
 10
135.549118
 20
137.300461
 10
135.613586
 20
136.018784
 10
135.806427
 20
134.760452
 10
136.122665
 20
133.546661
 10
136.555115
 20
132.395355
 10
137.095749
 20
131.321121
 10
137.736435
 20
130.335693
 10
138.469162
 20
129.449905
 10
139.286163
 20
128.674072
 10
140.17836
 20
128.018448
 10
141.134262
 20
127.493301
 10
142.141937
 20
127.108833
 10
143.186478
 20
126.873611
 10
144.261871
 20
126.793297
  0
ARC
  5
85
330
80
100
AcDbEntity
  8
0
  6
Continuous
 62
     0
370
    30
100
AcDbCircle
 10
144.261879
 20
137.293295
 30
0.0
 40
6.5
100
AcDbArc
 50
90.0
 51
270.0
  0
ARC
  5
86
330
80
100
AcDbEntity
  8
0
  6
Continuous
 62
     0
370
    30
100
AcDbCircle
 10
144.261879
 20
137.293295
 30
0.0
 40
6.5
100
AcDbArc
 50
270.0
 51
90.0
  0
ARC
  5
87
330
80
100
AcDbEntity
  8
0
  6
Continuous
 62
     0
370
     0
100
AcDbCircle
 10
144.261879
 20
137.293294
 30
0.0
 40
6.0
100
AcDbArc
 50
270.0
 51
90.0
  0
ARC
  5
88
330
80
100
AcDbEntity
  8
0
  6
Continuous
 62
     0
370
     0
100
AcDbCircle
 10
144.261879
 20
137.293294
 30
0.0
 40
6.0
100
AcDbArc
 50
90.0
 51
270.0
  0
LINE
  5
89
330
80
100
AcDbEntity
  8
0
  6
Continuous
 62
     0
370
     0
100
AcDbLine
 10
144.261879
 20
122.793296
 30
0.0
 11
124.761879
 21
122.793296
 31
0.0
  0
LINE
  5
8A
330
80
100
AcDbEntity
  8
0
  6
Continuous
 62
     0
370
     0
100
AcDbLine
 10
163.761879
 20
122.793296
 30
0.0
 11
144.261879
 21
122.793296
 31
0.0
  0
LINE
  5
8B
330
80
100
AcDbEntity
  8
0
  6
Continuous
 62
     0
370
    30
100
AcDbLine
 10
163.261879
 20
122.293296
 30
0.0
 11
144.261879
 21
122.293296
 31
0.0
  0
LINE
  5
8C
330
80
100
AcDbEntity
  8
0
  6
Continuous
 62
     0
370
    30
100
AcDbLine
 10
144.261879
 20
122.293296
 30
0.0
 11
125.261879
 21
122.293296
 31
0.0
  0
LINE
  5
8D
330
80
100
AcDbEntity
  8
0
  6
Continuous
 62
     0
370
     0
100
AcDbLine
 10
242.811657
 20
161.26076
 30
0.0
 11
241.496544
 21
158.564378
 31
0.0
  0
LINE
  5
8E
330
80
100
AcDbEntity
  8
0
  6
Continuous
 62
     0
370
     0
100
AcDbLine
 10
244.126771
 20
163.957142
 30
0.0
 11
242.811657
 21
161.26076
 31
0.0
  0
LWPOLYLINE
  5
8F
330
80
100
AcDbEntity
  8
0
  6
Continuous
 62
     0
370
     0
100
AcDbPolyline
 90
        8
 70
     0
 43
0.0
 10
236.340805
 20
165.44101
 10
236.402847
 20
165.462372
 10
236.602478
 20
165.531097
 10
236.94606
 20
165.649414
 10
237.417084
 20
165.8116
 10
237.977402
 20
166.004532
 10
238.577087
 20
166.211014
 10
239.177353
 20
166.417709
  0
LINE
  5
90
330
80
100
AcDbEntity
  8
0
  6
Continuous
 62
     0
370
     0
100
AcDbLine
 10
239.177358
 20
166.417707
 30
0.0
 11
241.720253
 21
167.293296
 31
0.0
  0
LINE
  5
91
330
80
100
AcDbEntity
  8
0
  6
Continuous
 62
     0
370
     0
100
AcDbLine
 10
235.923699
 20
167.293296
 30
0.0
 11
234.461533
 21
166.789832
 31
0.0
  0
LINE
  5
92
330
80
100
AcDbEntity
  8
0
  6
Continuous
 62
     0
370
     0
100
AcDbLine
 10
236.932217
 20
163.723411
 30
0.0
 11
239.768773
 21
164.700115
 31
0.0
  0
LINE
  5
93
330
80
100
AcDbEntity
  8
0
  6
Continuous
 62
     0
370
     0
100
AcDbLine
 10
239.768773
 20
164.700115
 30
0.0
 11
242.605328
 21
165.67682
 31
0.0
  0
ARC
  5
94
330
80
100
AcDbEntity
  8
0
  6
Continuous
 62
     0
370
    30
100
AcDbCircle
 10
245.441884
 20
166.653524
 30
0.0
 40
8.999999999999938
100
AcDbArc
 50
199.0
 51
244.0
  0
LINE
  5
95
330
80
100
AcDbEntity
  8
0
  6
Continuous
 62
     0
370
    30
100
AcDbLine
 10
308.486774
 20
136.460778
 30
0.0
 11
302.978106
 21
125.166337
 31
0.0
  0
LINE
  5
96
330
80
100
AcDbEntity
  8
0
  6
Continuous
 62
     0
370
    30
100
AcDbLine
 10
302.978106
 20
125.166337
 30
0.0
 11
302.787949
 21
124.776455
 31
0.0
  0
LWPOLYLINE
  5
97
330
80
100
AcDbEntity
  8
0
  6
Continuous
 62
     0
370
    30
100
AcDbPolyline
 90
        4
 70
     0
 43
0.0
 10
302.921661
 20
124.822495
 10
302.939423
 20
124.858902
 10
302.990387
 20
124.963402
 10
303.108887
 20
125.206383
  0
LINE
  5
98
330
80
100
AcDbEntity
  8
0
  6
Continuous
 62
     0
370
    30
100
AcDbLine
 10
303.108898
 20
125.206381
 30
0.0
 11
308.532816
 21
136.327062
 31
0.0
  0
LINE
  5
99
330
80
100
AcDbEntity
  8
0
  6
Continuous
 62
     0
370
    30
100
AcDbLine
 10
250.244919
 20
164.867228
 30
0.0
 11
244.736252
 21
153.572787
 31
0.0
  0
LINE
  5
9A
330
80
100
AcDbEntity
  8
0
  6
Continuous
 62
     0
370
    30
100
AcDbLine
 10
244.736252
 20
153.572787
 30
0.0
 11
244.546094
 21
153.182906
 31
0.0
  0
LINE
  5
9B
330
80
100
AcDbEntity
  8
0
  6
Continuous
 62
     0
370
    30
100
AcDbLine
 10
250.111203
 20
164.821186
 30
0.0
 11
244.687284
 21
153.700505
 31
0.0
  0
LINE
  5
9C
330
80
100
AcDbEntity
  8
0
  6
Continuous
 62
     0
370
    30
100
AcDbLine
 10
244.687284
 20
153.700505
 30
0.0
 11
244.500052
 21
153.316622
 31
0.0
  0
LINE
  5
9D
330
80
100
AcDbEntity
  8
0
  6
Continuous
 62
     0
370
    30
100
AcDbLine
 10
84.261879
 20
167.293294
 30
0.0
 11
84.261879
 21
182.293294
 31
0.0
  0
LINE
  5
9E
330
80
100
AcDbEntity
  8
0
  6
Continuous
 62
     0
370
    30
100
AcDbLine
 10
84.261879
 20
167.293294
 30
0.0
 11
284.261879
 21
167.293294
 31
0.0
  0
LINE
  5
9F
330
80
100
AcDbEntity
  8
0
  6
Continuous
 62
     0
370
    30
100
AcDbLine
 10
284.261879
 20
167.293294
 30
0.0
 11
284.261879
 21
182.293294
 31
0.0
  0
LINE
  5
A0
330
80
100
AcDbEntity
  8
0
  6
Continuous
 62
     0
370
    30
100
AcDbLine
 10
84.261879
 20
182.293294
 30
0.0
 11
284.261879
 21
182.293294
 31
0.0
  0
LINE
  5
A1
330
80
100
AcDbEntity
  8
0
  6
Continuous
 62
     0
370
    30
100
AcDbLine
 10
158.511879
 20
167.293296
 30
0.0
 11
158.511879
 21
164.293296
 31
0.0
  0
LINE
  5
A2
330
80
100
AcDbEntity
  8
0
  6
Continuous
 62
     0
370
    30
100
AcDbLine
 10
130.011879
 20
167.293296
 30
0.0
 11
130.011879
 21
164.293296
 31
0.0
  0
LINE
  5
A3
330
80
100
AcDbEntity
  8
0
  6
Continuous
 62
     0
370
    30
100
AcDbLine
 10
244.546094
 20
153.182906
 30
0.0
 11
244.500052
 21
153.316622
 31
0.0
  0
LINE
  5
A4
330
80
100
AcDbEntity
  8
0
  6
Continuous
 62
     0
370
    30
100
AcDbLine
 10
250.244919
 20
164.867228
 30
0.0
 11
250.111203
 21
164.821186
 31
0.0
  0
LINE
  5
A5
330
80
100
AcDbEntity
  8
0
  6
Continuous
 62
     0
370
    30
100
AcDbLine
 10
302.787949
 20
124.776455
 30
0.0
 11
244.546094
 21
153.182906
 31
0.0
  0
LINE
  5
A6
330
80
100
AcDbEntity
  8
0
  6
Continuous
 62
     0
370
    30
100
AcDbLine
 10
308.486774
 20
136.460778
 30
0.0
 11
250.244919
 21
164.867228
 31
0.0
  0
LINE
  5
A7
330
80
100
AcDbEntity
  8
0
  6
Continuous
 62
     0
370
    30
100
AcDbLine
 10
308.486774
 20
136.460778
 30
0.0
 11
308.532816
 21
136.327062
 31
0.0
  0
LINE
  5
A8
330
80
100
AcDbEntity
  8
0
  6
Continuous
 62
     0
370
    30
100
AcDbLine
 10
302.787949
 20
124.776455
 30
0.0
 11
302.921665
 21
124.822498
 31
0.0
  0
ARC
  5
A9
330
80
100
AcDbEntity
  8
0
  6
Continuous
 62
     0
370
    30
100
AcDbCircle
 10
245.442045
 20
166.653667
 30
0.0
 40
3.000198787416743
100
AcDbArc
 50
199.001569
 51
243.998431
  0
LWPOLYLINE
  5
AA
330
80
100
AcDbEntity
  8
0
  6
Continuous
 62
     0
370
    30
100
AcDbPolyline
 90
        6
 70
     0
 43
0.0
 10
230.940979
 20
167.293289
 10
231.593735
 20
167.124924
 10
232.254288
 20
166.990311
 10
232.920898
 20
166.889847
 10
233.591797
 20
166.823868
 10
234.458847
 20
166.789841
  0
LINE
  5
AB
330
80
100
AcDbEntity
  8
0
  6
Continuous
 62
     0
370
    30
100
AcDbLine
 10
242.048731
 20
167.293296
 30
0.0
 11
242.605328
 21
165.67682
 31
0.0
  0
LINE
  5
AC
330
80
100
AcDbEntity
  8
0
  6
Continuous
 62
     0
370
    30
100
AcDbLine
 10
236.340803
 20
165.441003
 30
0.0
 11
236.932217
 21
163.723411
 31
0.0
  0
ARC
  5
AD
330
80
100
AcDbEntity
  8
0
  6
Continuous
 62
     0
370
    30
100
AcDbCircle
 10
234.44975
 20
164.789845
 30
0.0
 40
2.000021375173232
100
AcDbArc
 50
19.000434
 51
89.662444
  0
LINE
  5
AE
330
80
100
AcDbEntity
  8
0
  6
Continuous
 62
     0
370
    30
100
AcDbLine
 10
244.126771
 20
163.957142
 30
0.0
 11
248.620741
 21
161.765286
 31
0.0
  0
LINE
  5
AF
330
80
100
AcDbEntity
  8
0
  6
Continuous
 62
     0
370
    30
100
AcDbLine
 10
241.496544
 20
158.564378
 30
0.0
 11
245.990514
 21
156.372522
 31
0.0
  0
ARC
  5
B0
330
80
100
AcDbEntity
  8
0
  6
Continuous
 62
     0
370
    30
100
AcDbCircle
 10
125.261882
 20
122.793299
 30
0.0
 40
0.500002755988102
100
AcDbArc
 50
180.000316
 51
269.995487
  0
ARC
  5
B1
330
80
100
AcDbEntity
  8
0
  6
Continuous
 62
     0
370
    30
100
AcDbCircle
 10
163.261876
 20
122.793299
 30
0.0
 40
0.5000027559868354
100
AcDbArc
 50
270.004513
 51
359.999684
  0
LINE
  5
B2
330
80
100
AcDbEntity
  8
0
  6
Continuous
 62
     0
370
    30
100
AcDbLine
 10
163.761879
 20
164.293296
 30
0.0
 11
163.761879
 21
122.793296
 31
0.0
  0
LINE
  5
B3
330
80
100
AcDbEntity
  8
0
  6
Continuous
 62
     0
370
    30
100
AcDbLine
 10
124.761879
 20
164.293296
 30
0.0
 11
124.761879
 21
122.793296
 31
0.0
  0
ENDBLK
  5
B5
330
80
100
AcDbEntity
  8
0
100
AcDbBlockEnd
  0
BLOCK
  5
D0
330
B7
100
AcDbEntity
  8
0
100
AcDbBlockBegin
  2
c
 70
     0
 10
53.779839
 20
101.576012
 30
0.0
  3
c
  1

  0
LINE
  5
B8
330
B7
100
AcDbEntity
  8
0
  6
Continuous
 62
     0
370
    30
100
AcDbLine
 10
370.528434
 20
363.316303
 30
0.0
 11
370.528434
 21
324.316303
 31
0.0
  0
ARC
  5
B9
330
B7
100
AcDbEntity
  8
0
  6
Continuous
 62
     0
370
    30
100
AcDbCircle
 10
408.028434
 20
367.316303
 30
0.0
 40
4.0
100
AcDbArc
 50
180.0
 51
270.0
  0
LWPOLYLINE
  5
BA
330
B7
100
AcDbEntity
  8
0
  6
Continuous
 62
     0
370
     0
100
AcDbPolyline
 90
       24
 70
     0
 43
0.0
 10
391.028442
 20
367.316315
 10
391.090424
 20
367.271729
 10
391.274353
 20
367.141449
 10
391.574432
 20
366.935699
 10
391.982758
 20
366.669159
 10
392.490051
 20
366.360443
 10
393.087097
 20
366.030548
 10
393.764709
 20
365.701569
 10
394.513397
 20
365.396881
 10
395.322601
 20
365.139984
 10
396.179077
 20
364.952789
 10
397.066223
 20
364.853455
 10
397.964203
 20
364.851959
 10
398.85199
 20
364.948547
 10
399.709656
 20
365.133331
 10
400.520233
 20
365.38855
 10
401.270905
 20
365.692169
 10
401.950958
 20
366.02066
 10
402.550446
 20
366.350952
 10
403.060516
 20
366.660553
 10
403.471863
 20
366.928558
 10
403.77533
 20
367.136475
 10
403.962738
 20
367.269073
 10
404.028442
 20
367.316315
  0
LWPOLYLINE
  5
BB
330
B7
100
AcDbEntity
  8
0
  6
Continuous
 62
     0
370
     0
100
AcDbPolyline
 90
       28
 70
     0
 43
0.0
 10
387.028442
 20
363.316284
 10
387.101288
 20
363.289337
 10
387.317841
 20
363.210175
 10
387.673218
 20
363.083191
 10
388.160065
 20
362.915222
 10
388.769501
 20
362.715027
 10
389.492218
 20
362.492554
 10
390.319061
 20
362.258789
 10
391.240784
 20
362.025085
 10
392.247986
 20
361.803436
 10
393.330627
 20
361.605927
 10
394.476807
 20
361.444458
 10
395.671539
 20
361.329498
 10
396.897461
 20
361.269501
 10
398.134094
 20
361.26889
 10
399.360474
 20
361.327698
 10
400.55603
 20
361.44162
 10
401.703369
 20
361.602203
 10
402.787415
 20
361.799103
 10
403.796295
 20
362.020386
 10
404.719879
 20
362.253967
 10
405.548706
 20
362.487915
 10
406.27359
 20
362.710541
 10
406.885376
 20
362.911072
 10
407.374908
 20
363.080017
 10
407.733154
 20
363.208099
 10
407.952606
 20
363.288269
 10
408.028442
 20
363.316315
  0
LINE
  5
BC
330
B7
100
AcDbEntity
  8
0
  6
Continuous
 62
     0
370
    30
100
AcDbLine
 10
404.028434
 20
378.816303
 30
0.0
 11
404.028434
 21
367.316303
 31
0.0
  0
LINE
  5
BD
330
B7
100
AcDbEntity
  8
0
  6
Continuous
 62
     0
370
     0
100
AcDbLine
 10
391.028434
 20
378.816303
 30
0.0
 11
404.028434
 21
378.816303
 31
0.0
  0
LINE
  5
BE
330
B7
100
AcDbEntity
  8
0
  6
Continuous
 62
     0
370
    30
100
AcDbLine
 10
391.528434
 20
379.316303
 30
0.0
 11
403.528434
 21
379.316303
 31
0.0
  0
LINE
  5
BF
330
B7
100
AcDbEntity
  8
0
  6
Continuous
 62
     0
370
    30
100
AcDbLine
 10
412.028434
 20
324.316303
 30
0.0
 11
370.528434
 21
324.316303
 31
0.0
  0
LINE
  5
C0
330
B7
100
AcDbEntity
  8
0
  6
Continuous
 62
     0
370
     0
100
AcDbLine
 10
412.028434
 20
363.316303
 30
0.0
 11
412.028434
 21
324.316303
 31
0.0
  0
LINE
  5
C1
330
B7
100
AcDbEntity
  8
0
  6
Continuous
 62
     0
370
    30
100
AcDbLine
 10
412.528434
 20
362.816303
 30
0.0
 11
412.528434
 21
324.816303
 31
0.0
  0
ARC
  5
C2
330
B7
100
AcDbEntity
  8
0
  6
Continuous
 62
     0
370
    30
100
AcDbCircle
 10
412.028434
 20
324.816303
 30
0.0
 40
0.5
100
AcDbArc
 50
270.0
 51
0.0
  0
ARC
  5
C3
330
B7
100
AcDbEntity
  8
0
  6
Continuous
 62
     0
370
    30
100
AcDbCircle
 10
403.528434
 20
378.816303
 30
0.0
 40
0.499999999999999
100
AcDbArc
 50
0.0
 51
90.0
  0
LINE
  5
C4
330
B7
100
AcDbEntity
  8
0
  6
Continuous
 62
     0
370
    30
100
AcDbLine
 10
367.528436
 20
303.816303
 30
0.0
 11
367.528436
 21
383.816303
 31
0.0
  0
LINE
  5
C5
330
B7
100
AcDbEntity
  8
0
  6
Continuous
 62
     0
370
    30
100
AcDbLine
 10
367.528436
 20
383.816303
 30
0.0
 11
352.528436
 21
383.816303
 31
0.0
  0
LINE
  5
C6
330
B7
100
AcDbEntity
  8
0
  6
Continuous
 62
     0
370
    30
100
AcDbLine
 10
352.528436
 20
383.816303
 30
0.0
 11
352.528436
 21
303.816303
 31
0.0
  0
LINE
  5
C7
330
B7
100
AcDbEntity
  8
0
  6
Continuous
 62
     0
370
    30
100
AcDbLine
 10
352.528436
 20
303.816303
 30
0.0
 11
367.528436
 21
303.816303
 31
0.0
  0
LINE
  5
C8
330
B7
100
AcDbEntity
  8
0
  6
Continuous
 62
     0
370
    30
100
AcDbLine
 10
367.528434
 20
358.066303
 30
0.0
 11
370.528434
 21
358.066303
 31
0.0
  0
LINE
  5
C9
330
B7
100
AcDbEntity
  8
0
  6
Continuous
 62
     0
370
    30
100
AcDbLine
 10
367.528434
 20
329.566303
 30
0.0
 11
370.528434
 21
329.566303
 31
0.0
  0
ARC
  5
CA
330
B7
100
AcDbEntity
  8
0
  6
Continuous
 62
     0
370
    30
100
AcDbCircle
 10
391.528437
 20
378.8163
 30
0.0
 40
0.5000034422827797
100
AcDbArc
 50
90.000394
 51
179.999606
  0
ARC
  5
CB
330
B7
100
AcDbEntity
  8
0
  6
Continuous
 62
     0
370
    30
100
AcDbCircle
 10
412.028431
 20
362.816301
 30
0.0
 40
0.5000027030490755
100
AcDbArc
 50
0.00031
 51
89.99969
  0
LINE
  5
CC
330
B7
100
AcDbEntity
  8
0
  6
Continuous
 62
     0
370
    30
100
AcDbLine
 10
370.528434
 20
363.316303
 30
0.0
 11
387.02844
 21
363.316303
 31
0.0
  0
LINE
  5
CD
330
B7
100
AcDbEntity
  8
0
  6
Continuous
 62
     0
370
    30
100
AcDbLine
 10
408.028434
 20
363.316303
 30
0.0
 11
412.028434
 21
363.316303
 31
0.0
  0
LINE
  5
CE
330
B7
100
AcDbEntity
  8
0
  6
Continuous
 62
     0
370
    30
100
AcDbLine
 10
391.028434
 20
367.316303
 30
0.0
 11
391.028434
 21
378.816303
 31
0.0
  0
ARC
  5
CF
330
B7
100
AcDbEntity
  8
0
  6
Continuous
 62
     0
370
    30
100
AcDbCircle
 10
387.028415
 20
367.316315
 30
0.0
 40
4.000019079334551
100
AcDbArc
 50
270.000357
 51
359.999829
  0
ENDBLK
  5
D1
330
B7
100
AcDbEntity
  8
0
100
AcDbBlockEnd
  0
BLOCK
  5
11C
330
D3
100
AcDbEntity
  8
0
100
AcDbBlockBegin
  2
d
 70
     0
 10
47.357658
 20
72.157257
 30
0.0
  3
d
  1

  0
ELLIPSE
  5
D4
330
D3
100
AcDbEntity
  8
0
  6
Continuous
 62
     0
370
    30
100
AcDbEllipse
 10
391.593058
 20
191.938967
 30
0.0
 11
11.25833050130707
 21
-15.92168314982241
 31
0.0
210
0.0
220
0.0
230
0.9999999999999998
 40
0.5
 41
2.1862760037966
 42
3.141592693951246
  0
ELLIPSE
  5
D5
330
D3
100
AcDbEntity
  8
0
  6
Continuous
 62
     0
370
    30
100
AcDbEllipse
 10
391.593058
 20
191.938967
 30
0.0
 11
11.25833050130707
 21
-15.92168314982241
 31
0.0
210
0.0
220
0.0
230
0.9999999999999998
 40
0.5
 41
0.0000000403614528
 42
2.1862760037966
  0
LWPOLYLINE
  5
D6
330
D3
100
AcDbEntity
  8
0
  6
Continuous
 62
     0
370
     0
100
AcDbPolyline
 90
        6
 70
     0
 43
0.0
 10
366.00116
 20
194.204788
 10
366.078766
 20
193.760651
 10
366.311371
 20
193.302155
 10
366.696808
 20
192.823761
 10
367.228943
 20
192.325211
 10
367.904968
 20
191.805969
  0
LWPOLYLINE
  5
D7
330
D3
100
AcDbEntity
  8
0
  6
Continuous
 62
     0
370
     0
100
AcDbPolyline
 90
       19
 70
     0
 43
0.0
 10
367.904968
 20
191.805969
 10
368.552063
 20
191.376328
 10
369.265717
 20
190.955994
 10
370.031158
 20
190.556381
 10
370.833649
 20
190.19014
 10
371.659363
 20
189.870239
 10
372.495972
 20
189.60997
 10
373.332153
 20
189.423126
 10
374.156616
 20
189.323608
 10
374.957733
 20
189.32547
 10
375.722626
 20
189.441452
 10
376.43689
 20
189.68074
 10
377.085205
 20
190.046585
 10
377.653412
 20
190.533936
 10
378.129761
 20
191.129852
 10
378.506256
 20
191.814941
 10
378.778198
 20
192.566696
 10
378.943451
 20
193.361725
 10
379.00116
 20
194.21489
  0
LWPOLYLINE
  5
D8
330
D3
100
AcDbEntity
  8
0
  6
Continuous
 62
     0
370
     0
100
AcDbPolyline
 90
       28
 70
     0
 43
0.0
 10
365.076569
 20
186.977554
 10
365.852142
 20
186.482971
 10
366.717224
 20
186.031708
 10
367.657166
 20
185.632401
 10
368.657532
 20
185.292923
 10
369.703949
 20
185.020752
 10
370.782379
 20
184.823334
 10
371.880554
 20
184.707932
 10
372.98703
 20
184.681717
 10
374.090027
 20
184.751892
 10
375.177338
 20
184.925598
 10
376.235382
 20
185.208801
 10
377.249023
 20
185.60527
 10
378.201752
 20
186.11441
 10
379.077209
 20
186.731232
 10
379.860199
 20
187.445084
 10
380.538788
 20
188.241119
 10
381.104034
 20
189.102036
 10
381.550568
 20
190.009552
 10
381.874756
 20
190.945663
 10
382.074646
 20
191.893158
 10
382.148651
 20
192.835449
 10
382.09549
 20
193.756012
 10
381.914001
 20
194.638367
 10
381.604889
 20
195.466141
 10
381.170776
 20
196.223083
 10
380.615021
 20
196.893311
 10
379.925781
 20
197.477539
  0
LWPOLYLINE
  5
D9
330
D3
100
AcDbEntity
  8
0
  6
Continuous
 62
     0
370
     0
100
AcDbPolyline
 90
       13
 70
     0
 43
0.0
 10
366.00119
 20
194.885086
 10
365.141968
 20
194.197174
 10
364.407257
 20
193.504013
 10
363.807861
 20
192.812759
 10
363.350952
 20
192.127548
 10
363.040253
 20
191.449524
 10
362.878235
 20
190.778687
 10
362.867035
 20
190.114731
 10
363.008148
 20
189.458038
 10
363.300934
 20
188.81192
 10
363.744049
 20
188.180511
 10
364.333069
 20
187.57019
 10
365.076569
 20
186.977554
  0
LWPOLYLINE
  5
DA
330
D3
100
AcDbEntity
  8
0
  6
Continuous
 62
     0
370
     0
100
AcDbPolyline
 90
        3
 70
     0
 43
0.0
 10
379.925781
 20
197.477539
 10
379.81311
 20
197.555023
 10
379.00119
 20
198.003738
  0
ELLIPSE
  5
DB
330
D3
100
AcDbEntity
  8
0
  6
Continuous
 62
     0
370
     0
100
AcDbEllipse
 10
372.501175
 20
203.187703
 30
0.0
 11
-6.5
 21
0.0
 31
0.0
210
0.0
220
0.0
230
1.0
 40
0.707107
 41
6.283009433845142
 42
7.068583470577035
  0
ELLIPSE
  5
DC
330
D3
100
AcDbEntity
  8
0
  6
Continuous
 62
     0
370
     0
100
AcDbEllipse
 10
372.501175
 20
203.187703
 30
0.0
 11
-6.5
 21
0.0
 31
0.0
210
0.0
220
0.0
230
1.0
 40
0.707107
 41
0.7853981633974483
 42
3.164894425827213
  0
ELLIPSE
  5
DD
330
D3
100
AcDbEntity
  8
0
  6
Continuous
 62
     0
370
     0
100
AcDbEllipse
 10
372.501175
 20
203.541256
 30
0.0
 11
-6.0
 21
0.0
 31
0.0
210
0.0
220
0.0
230
1.0
 40
0.707107
 41
0.7853981633974483
 42
3.926990816987241
  0
ELLIPSE
  5
DE
330
D3
100
AcDbEntity
  8
0
  6
Continuous
 62
     0
370
     0
100
AcDbEllipse
 10
372.501175
 20
203.541256
 30
0.0
 11
-6.0
 21
0.0
 31
0.0
210
0.0
220
0.0
230
1.0
 40
0.707107
 41
3.926990816987242
 42
7.068583470577035
  0
ELLIPSE
  5
DF
330
D3
100
AcDbEntity
  8
0
  6
Continuous
 62
     0
370
     0
100
AcDbEllipse
 10
362.248127
 20
171.188966
 30
0.0
 11
11.25833050130707
 21
-15.92168314982241
 31
0.0
210
0.0
220
0.0
230
0.9999999999999998
 40
0.5
 41
2.186276003796601
 42
3.14598003977259
  0
ELLIPSE
  5
E0
330
D3
100
AcDbEntity
  8
0
  6
Continuous
 62
     0
370
     0
100
AcDbEllipse
 10
362.248127
 20
171.188966
 30
0.0
 11
11.25833050130707
 21
-15.92168314982241
 31
0.0
210
0.0
220
0.0
230
0.9999999999999998
 40
0.5
 41
6.277178641281785
 42
8.469461310976186
  0
ELLIPSE
  5
E1
330
D3
100
AcDbEntity
  8
0
  6
Continuous
 62
     0
370
     0
100
AcDbEllipse
 10
361.894573
 20
170.938966
 30
0.0
 11
10.96965536024792
 21
-15.51343486392953
 31
0.0
210
0.0
220
0.0
230
1.0
 40
0.5
 41
5.327868657386394
 42
8.469461310976186
  0
ELLIPSE
  5
E2
330
D3
100
AcDbEntity
  8
0
  6
Continuous
 62
     0
370
     0
100
AcDbEllipse
 10
361.894573
 20
170.938966
 30
0.0
 11
10.96965536024792
 21
-15.51343486392953
 31
0.0
210
0.0
220
0.0
230
1.0
 40
0.5
 41
2.186276003796601
 42
5.327868657386393
  0
ELLIPSE
  5
E3
330
D3
100
AcDbEntity
  8
0
  6
Continuous
 62
     0
370
     0
100
AcDbEllipse
 10
459.133948
 20
141.147808
 30
0.0
 11
2.69721033480872
 21
1.31341402832505
 31
0.0
210
0.0
220
0.0
230
0.9999999999999999
 40
0.668583
 41
1.256050657064736
 42
2.826846983859638
  0
ELLIPSE
  5
E4
330
D3
100
AcDbEntity
  8
0
  6
Continuous
 62
     0
370
     0
100
AcDbEllipse
 10
459.133948
 20
141.147808
 30
0.0
 11
2.69721033480872
 21
1.31341402832505
 31
0.0
210
0.0
220
0.0
230
0.9999999999999999
 40
0.668583
 41
2.826846983859638
 42
3.110078181393398
  0
ELLIPSE
  5
E5
330
D3
100
AcDbEntity
  8
0
  6
Continuous
 62
     0
370
     0
100
AcDbEllipse
 10
459.133948
 20
141.147808
 30
0.0
 11
2.69721033480872
 21
1.31341402832505
 31
0.0
210
0.0
220
0.0
230
0.9999999999999999
 40
0.668583
 41
0.0315143737459271
 42
1.256050657064733
  0
LWPOLYLINE
  5
E6
330
D3
100
AcDbEntity
  8
0
  6
Continuous
 62
     0
370
     0
100
AcDbPolyline
 90
        7
 70
     0
 43
0.0
 10
457.741089
 20
147.246796
 10
457.990936
 20
147.513306
 10
458.327667
 20
147.711212
 10
458.734467
 20
147.827713
 10
459.187073
 20
147.858978
 10
459.658081
 20
147.810287
 10
460.210632
 20
147.664749
  0
LWPOLYLINE
  5
E7
330
D3
100
AcDbEntity
  8
0
  6
Continuous
 62
     0
370
     0
100
AcDbPolyline
 90
       10
 70
     0
 43
0.0
 10
460.210632
 20
147.664749
 10
460.764709
 20
147.428391
 10
461.32843
 20
147.088364
 10
461.857574
 20
146.65506
 10
462.306091
 20
146.155746
 10
462.638062
 20
145.629822
 10
462.836731
 20
145.118866
 10
462.906464
 20
144.656769
 10
462.86087
 20
144.238632
 10
462.680145
 20
143.840057
  0
ARC
  5
E8
330
D3
100
AcDbEntity
  8
0
  6
Continuous
 62
     0
370
     0
100
AcDbCircle
 10
459.014899
 20
143.962606
 30
0.0
 40
6.187511930793943
100
AcDbArc
 50
64.438969
 51
70.91625
  0
ARC
  5
E9
330
D3
100
AcDbEntity
  8
0
  6
Continuous
 62
     0
370
     0
100
AcDbCircle
 10
462.601313
 20
146.836703
 30
0.0
 40
3.443683982245634
100
AcDbArc
 50
266.262642
 51
281.992673
  0
LWPOLYLINE
  5
EA
330
D3
100
AcDbEntity
  8
0
  6
Continuous
 62
     0
370
     0
100
AcDbPolyline
 90
       12
 70
     0
 43
0.0
 10
461.037903
 20
149.810059
 10
460.389893
 20
149.990891
 10
459.725372
 20
150.083679
 10
459.077057
 20
150.070145
 10
458.481506
 20
149.940308
 10
457.973145
 20
149.695679
 10
457.578094
 20
149.34993
 10
457.309937
 20
148.926376
 10
457.16861
 20
148.45343
 10
457.142609
 20
147.957184
 10
457.226166
 20
147.41304
 10
457.437805
 20
146.807083
  0
ELLIPSE
  5
EB
330
D3
100
AcDbEntity
  8
0
  6
Continuous
 62
     0
370
     0
100
AcDbEllipse
 10
459.414295
 20
144.388928
 30
0.0
 11
-2.469519650299477
 21
1.703370980375312
 31
0.0
210
0.0
220
0.0
230
-0.9999999999999998
 40
0.635543
 41
6.283185283768864
 42
7.440840258975758
  0
ELLIPSE
  5
EC
330
D3
100
AcDbEntity
  8
0
  6
Continuous
 62
     0
370
     0
100
AcDbEllipse
 10
459.414295
 20
144.388928
 30
0.0
 11
-2.469519650299477
 21
1.703370980375312
 31
0.0
210
0.0
220
0.0
230
-0.9999999999999998
 40
0.635543
 41
1.157654951796171
 42
3.228584003410501
  0
LWPOLYLINE
  5
ED
330
D3
100
AcDbEntity
  8
0
  6
Continuous
 62
     0
370
     0
100
AcDbPolyline
 90
        5
 70
     0
 43
0.0
 10
453.698395
 20
155.33046
 10
453.544647
 20
154.761368
 10
453.454651
 20
154.16684
 10
453.42984
 20
153.544296
 10
453.513214
 20
152.579193
  0
LWPOLYLINE
  5
EE
330
D3
100
AcDbEntity
  8
0
  6
Continuous
 62
     0
370
    30
100
AcDbPolyline
 90
        2
 70
     0
 43
0.0
 10
453.949036
 20
155.799545
 10
453.698395
 20
155.33046
  0
LWPOLYLINE
  5
EF
330
D3
100
AcDbEntity
  8
0
  6
Continuous
 62
     0
370
    30
100
AcDbPolyline
 90
        4
 70
     0
 43
0.0
 10
453.69809
 20
155.33316
 10
453.655151
 20
155.216812
 10
453.617554
 20
155.097977
 10
453.581787
 20
154.962692
  0
LWPOLYLINE
  5
F0
330
D3
100
AcDbEntity
  8
0
  6
Continuous
 62
     0
370
    30
100
AcDbPolyline
 90
       23
 70
     0
 43
0.0
 10
487.626892
 20
94.159485
 10
487.866974
 20
94.795143
 10
488.007507
 20
95.453194
 10
488.030853
 20
96.115051
 10
487.924347
 20
96.758949
 10
487.6828
 20
97.361877
 10
487.309753
 20
97.902023
 10
486.817657
 20
98.361282
 10
486.226471
 20
98.727242
 10
485.561188
 20
98.994179
 10
484.848816
 20
99.162971
 10
484.115387
 20
99.240067
 10
483.345123
 20
99.233612
 10
482.512177
 20
99.137756
 10
481.635498
 20
98.943848
 10
480.739929
 20
98.648422
 10
479.854492
 20
98.254478
 10
479.009521
 20
97.771919
 10
478.233337
 20
97.216797
 10
477.549225
 20
96.609589
 10
476.973114
 20
95.972832
 10
476.512848
 20
95.328575
 10
476.155426
 20
94.668282
  0
LWPOLYLINE
  5
F1
330
D3
100
AcDbEntity
  8
0
  6
Continuous
 62
     0
370
    30
100
AcDbPolyline
 90
        4
 70
     0
 43
0.0
 10
486.160248
 20
92.146942
 10
486.74707
 20
92.778885
 10
487.219513
 20
93.420753
 10
487.626892
 20
94.159485
  0
LWPOLYLINE
  5
F2
330
D3
100
AcDbEntity
  8
0
  6
Continuous
 62
     0
370
    30
100
AcDbPolyline
 90
       14
 70
     0
 43
0.0
 10
476.155426
 20
94.668282
 10
475.92038
 20
94.049431
 10
475.779327
 20
93.408905
 10
475.748779
 20
92.763756
 10
475.840698
 20
92.133972
 10
476.060699
 20
91.540817
 10
476.406403
 20
91.004723
 10
476.867493
 20
90.543045
 10
477.426483
 20
90.168259
 10
478.060944
 20
89.886871
 10
478.746094
 20
89.699348
 10
479.457397
 20
89.600861
 10
480.190552
 20
89.583092
 10
481.043213
 20
89.65519
  0
LWPOLYLINE
  5
F3
330
D3
100
AcDbEntity
  8
0
  6
Continuous
 62
     0
370
    30
100
AcDbPolyline
 90
       22
 70
     0
 43
0.0
 10
487.571198
 20
94.096542
 10
487.217621
 20
93.443703
 10
486.738403
 20
92.777908
 10
486.133911
 20
92.121506
 10
485.413666
 20
91.49971
 10
484.597046
 20
90.937996
 10
483.711731
 20
90.458946
 10
482.790771
 20
90.079346
 10
481.868622
 20
89.808311
 10
480.97699
 20
89.646759
 10
480.141846
 20
89.588341
 10
479.371399
 20
89.622345
 10
478.621765
 20
89.750687
 10
477.910248
 20
89.982941
 10
477.267395
 20
90.322975
 10
476.722961
 20
90.767189
 10
476.301819
 20
91.303856
 10
476.020721
 20
91.914001
 10
475.886017
 20
92.573563
 10
475.893494
 20
93.256386
 10
476.029785
 20
93.937416
 10
476.276245
 20
94.597511
  0
LWPOLYLINE
  5
F4
330
D3
100
AcDbEntity
  8
0
  6
Continuous
 62
     0
370
    30
100
AcDbPolyline
 90
       22
 70
     0
 43
0.0
 10
476.276245
 20
94.597511
 10
476.629822
 20
95.250351
 10
477.109039
 20
95.916138
 10
477.713531
 20
96.572548
 10
478.433777
 20
97.194344
 10
479.250366
 20
97.75605
 10
480.135712
 20
98.235107
 10
481.056671
 20
98.6147
 10
481.978821
 20
98.885735
 10
482.870453
 20
99.047287
 10
483.705597
 20
99.105705
 10
484.476013
 20
99.071709
 10
485.225677
 20
98.943367
 10
485.937195
 20
98.711113
 10
486.580048
 20
98.371071
 10
487.124481
 20
97.926865
 10
487.545624
 20
97.39019
 10
487.826721
 20
96.780045
 10
487.961426
 20
96.120491
 10
487.953949
 20
95.43766
 10
487.817657
 20
94.75663
 10
487.571198
 20
94.096542
  0
ELLIPSE
  5
F5
330
D3
100
AcDbEntity
  8
0
  6
Continuous
 62
     0
370
    30
100
AcDbEllipse
 10
460.794345
 20
137.738036
 30
0.0
 11
5.843955725418895
 21
2.845730394704271
 31
0.0
210
0.0
220
0.0
230
1.0
 40
0.668583
 41
6.283185257954365
 42
8.742631733769233
  0
ELLIPSE
  5
F6
330
D3
100
AcDbEntity
  8
0
  6
Continuous
 62
     0
370
    30
100
AcDbEllipse
 10
460.794345
 20
137.738036
 30
0.0
 11
5.843955725418895
 21
2.845730394704271
 31
0.0
210
0.0
220
0.0
230
1.0
 40
0.668583
 41
2.459446426589646
 42
3.141592604364573
  0
LWPOLYLINE
  5
F7
330
D3
100
AcDbEntity
  8
0
  6
Continuous
 62
     0
370
    30
100
AcDbPolyline
 90
        7
 70
     0
 43
0.0
 10
461.599335
 20
142.490738
 10
460.754608
 20
142.328629
 10
459.88446
 20
142.068954
 10
459.015717
 20
141.712769
 10
458.177246
 20
141.267578
 10
457.397034
 20
140.74704
 10
456.556335
 20
140.034988
  0
LWPOLYLINE
  5
F8
330
D3
100
AcDbEntity
  8
0
  6
Continuous
 62
     0
370
    30
100
AcDbPolyline
 90
        9
 70
     0
 43
0.0
 10
452.762848
 20
153.931824
 10
452.848846
 20
153.052002
 10
453.050354
 20
152.074677
 10
453.375031
 20
151.018448
 10
453.8237
 20
149.909546
 10
454.389465
 20
148.780167
 10
455.057526
 20
147.66568
 10
455.806427
 20
146.601074
 10
456.631531
 20
145.593307
  0
LWPOLYLINE
  5
F9
330
D3
100
AcDbEntity
  8
0
  6
Continuous
 62
     0
370
    30
100
AcDbPolyline
 90
       10
 70
     0
 43
0.0
 10
456.541901
 20
145.430313
 10
455.827362
 20
146.276657
 10
455.152161
 20
147.194946
 10
454.536591
 20
148.162872
 10
453.998505
 20
149.154495
 10
453.551514
 20
150.142563
 10
453.203949
 20
151.100998
 10
452.958466
 20
152.006943
 10
452.812347
 20
152.842438
 10
452.757782
 20
153.688965
  0
LWPOLYLINE
  5
FA
330
D3
100
AcDbEntity
  8
0
  6
Continuous
 62
     0
370
    30
100
AcDbPolyline
 90
        5
 70
     0
 43
0.0
 10
452.757782
 20
153.688965
 10
452.780914
 20
154.199265
 10
452.853149
 20
154.687897
 10
452.97818
 20
155.145752
 10
453.256592
 20
155.733566
  0
LWPOLYLINE
  5
FB
330
D3
100
AcDbEntity
  8
0
  6
Continuous
 62
     0
370
    30
100
AcDbPolyline
 90
       10
 70
     0
 43
0.0
 10
455.908234
 20
143.627319
 10
455.078064
 20
144.485458
 10
454.273315
 20
145.456467
 10
453.524445
 20
146.514435
 10
452.860168
 20
147.625259
 10
452.304199
 20
148.750168
 10
451.872314
 20
149.850113
 10
451.571106
 20
150.890076
 10
451.398132
 20
151.842422
 10
451.343567
 20
152.688965
  0
LWPOLYLINE
  5
FC
330
D3
100
AcDbEntity
  8
0
  6
Continuous
 62
     0
370
    30
100
AcDbPolyline
 90
        4
 70
     0
 43
0.0
 10
463.36441
 20
144.188965
 10
463.343811
 20
143.706345
 10
463.279541
 20
143.242645
 10
463.079163
 20
142.561111
  0
LWPOLYLINE
  5
FD
330
D3
100
AcDbEntity
  8
0
  6
Continuous
 62
     0
370
    30
100
AcDbPolyline
 90
       26
 70
     0
 43
0.0
 10
451.343567
 20
152.688965
 10
451.383667
 20
153.353516
 10
451.510071
 20
153.976059
 10
451.72995
 20
154.535934
 10
452.046692
 20
155.012711
 10
452.459015
 20
155.387955
 10
452.96048
 20
155.64711
 10
453.539734
 20
155.781097
 10
454.181274
 20
155.787201
 10
454.866821
 20
155.669312
 10
455.576935
 20
155.437225
 10
456.292786
 20
155.105331
 10
456.997314
 20
154.690994
 10
457.683746
 20
154.207153
 10
458.387543
 20
153.629013
 10
459.103241
 20
152.952286
 10
459.813934
 20
152.183472
 10
460.500793
 20
151.334641
 10
461.144409
 20
150.423264
 10
461.726379
 20
149.471191
 10
462.23111
 20
148.50296
 10
462.647034
 20
147.543777
 10
462.96756
 20
146.617355
 10
463.191162
 20
145.744095
 10
463.321075
 20
144.93985
 10
463.36441
 20
144.188965
  0
LINE
  5
FE
330
D3
100
AcDbEntity
  8
0
  6
Continuous
 62
     0
370
    30
100
AcDbLine
 10
351.287972
 20
195.154697
 30
0.0
 11
351.287972
 21
251.723238
 31
0.0
  0
LINE
  5
FF
330
D3
100
AcDbEntity
  8
0
  6
Continuous
 62
     0
370
    30
100
AcDbLine
 10
351.287972
 20
251.723238
 30
0.0
 11
361.894573
 21
259.223238
 31
0.0
  0
LINE
  5
100
330
D3
100
AcDbEntity
  8
0
  6
Continuous
 62
     0
370
    30
100
AcDbLine
 10
351.287972
 20
251.723238
 30
0.0
 11
492.709328
 21
151.723235
 31
0.0
  0
LINE
  5
101
330
D3
100
AcDbEntity
  8
0
  6
Continuous
 62
     0
370
    30
100
AcDbLine
 10
492.709328
 20
151.723235
 30
0.0
 11
503.31593
 21
159.223235
 31
0.0
  0
LINE
  5
102
330
D3
100
AcDbEntity
  8
0
  6
Continuous
 62
     0
370
    30
100
AcDbLine
 10
361.894573
 20
259.223238
 30
0.0
 11
503.31593
 21
159.223235
 31
0.0
  0
LINE
  5
103
330
D3
100
AcDbEntity
  8
0
  6
Continuous
 62
     0
370
    30
100
AcDbLine
 10
492.709328
 20
151.723235
 30
0.0
 11
492.709328
 21
95.154694
 31
0.0
  0
LINE
  5
104
330
D3
100
AcDbEntity
  8
0
  6
Continuous
 62
     0
370
    30
100
AcDbLine
 10
492.709328
 20
95.154694
 30
0.0
 11
503.31593
 21
102.654694
 31
0.0
  0
LINE
  5
105
330
D3
100
AcDbEntity
  8
0
  6
Continuous
 62
     0
370
    30
100
AcDbLine
 10
503.31593
 20
159.223235
 30
0.0
 11
503.31593
 21
102.654694
 31
0.0
  0
LINE
  5
106
330
D3
100
AcDbEntity
  8
0
  6
Continuous
 62
     0
370
    30
100
AcDbLine
 10
486.686173
 20
99.413708
 30
0.0
 11
492.709328
 21
95.154694
 31
0.0
  0
LINE
  5
107
330
D3
100
AcDbEntity
  8
0
  6
Continuous
 62
     0
370
    30
100
AcDbLine
 10
390.601876
 20
167.355568
 30
0.0
 11
464.633416
 21
115.007363
 31
0.0
  0
LINE
  5
108
330
D3
100
AcDbEntity
  8
0
  6
Continuous
 62
     0
370
    30
100
AcDbLine
 10
351.287972
 20
195.154697
 30
0.0
 11
356.826887
 21
191.238093
 31
0.0
  0
LINE
  5
109
330
D3
100
AcDbEntity
  8
0
  6
Continuous
 62
     0
370
    30
100
AcDbLine
 10
476.047206
 20
91.568153
 30
0.0
 11
454.95039
 21
134.892306
 31
0.0
  0
LINE
  5
10A
330
D3
100
AcDbEntity
  8
0
  6
Continuous
 62
     0
370
    30
100
AcDbLine
 10
487.735118
 20
97.259613
 30
0.0
 11
466.638301
 21
140.583767
 31
0.0
  0
LWPOLYLINE
  5
10B
330
D3
100
AcDbEntity
  8
0
  6
Continuous
 62
     0
370
    30
100
AcDbPolyline
 90
        4
 70
     0
 43
0.0
 10
453.581818
 20
154.962799
 10
453.463776
 20
154.281677
 10
453.429291
 20
153.568008
 10
453.511902
 20
152.587662
  0
LWPOLYLINE
  5
10C
330
D3
100
AcDbEntity
  8
0
  6
Continuous
 62
     0
370
    30
100
AcDbPolyline
 90
        5
 70
     0
 43
0.0
 10
456.944763
 20
146.0923
 10
456.464813
 20
145.280685
 10
456.108551
 20
144.413193
 10
455.886841
 20
143.504959
 10
455.807068
 20
142.529068
  0
LWPOLYLINE
  5
10D
330
D3
100
AcDbEntity
  8
0
  6
Continuous
 62
     0
370
    30
100
AcDbPolyline
 90
        4
 70
     0
 43
0.0
 10
461.806732
 20
142.529114
 10
461.808014
 20
142.535202
 10
461.817078
 20
142.564713
 10
461.88382
 20
142.685562
  0
LINE
  5
10E
330
D3
100
AcDbEntity
  8
0
  6
Continuous
 62
     0
370
    30
100
AcDbLine
 10
461.809082
 20
142.518213
 30
0.0
 11
461.806875
 21
142.528957
 31
0.0
  0
ARC
  5
10F
330
D3
100
AcDbEntity
  8
0
  6
Continuous
 62
     0
370
    30
100
AcDbCircle
 10
461.94124
 20
142.542099
 30
0.0
 40
6.134193979408238
100
AcDbArc
 50
180.121634
 51
205.606461
  0
LWPOLYLINE
  5
110
330
D3
100
AcDbEntity
  8
0
  6
Continuous
 62
     0
370
    30
100
AcDbPolyline
 90
        7
 70
     0
 43
0.0
 10
453.513214
 20
152.579193
 10
453.760834
 20
151.369644
 10
454.121246
 20
150.188736
 10
454.591156
 20
149.047073
 10
455.166504
 20
147.954697
 10
455.842133
 20
146.921326
 10
456.75293
 20
145.798294
  0
LINE
  5
111
330
D3
100
AcDbEntity
  8
0
  6
Continuous
 62
     0
370
    30
100
AcDbLine
 10
462.680143
 20
143.84006
 30
0.0
 11
461.883815
 21
142.685557
 31
0.0
  0
LINE
  5
112
330
D3
100
AcDbEntity
  8
0
  6
Continuous
 62
     0
370
    30
100
AcDbLine
 10
457.741103
 20
147.246802
 30
0.0
 11
456.944775
 21
146.092299
 31
0.0
  0
LWPOLYLINE
  5
113
330
D3
100
AcDbEntity
  8
0
  6
Continuous
 62
     0
370
    30
100
AcDbPolyline
 90
       22
 70
     0
 43
0.0
 10
379.00119
 20
203.184418
 10
378.925385
 20
203.909393
 10
378.702515
 20
204.614639
 10
378.339417
 20
205.281494
 10
377.846649
 20
205.895111
 10
377.237823
 20
206.443985
 10
376.526703
 20
206.917908
 10
375.729401
 20
207.308594
 10
374.863068
 20
207.608704
 10
373.94574
 20
207.812256
 10
372.997375
 20
207.916306
 10
372.038391
 20
207.918533
 10
371.089417
 20
207.818069
 10
370.170868
 20
207.617355
 10
369.302216
 20
207.320709
 10
368.502228
 20
206.933243
 10
367.787903
 20
206.46199
 10
367.175049
 20
205.915619
 10
366.678162
 20
205.304199
 10
366.309967
 20
204.638992
 10
366.081482
 20
203.934662
 10
366.00119
 20
203.187683
  0
LWPOLYLINE
  5
114
330
D3
100
AcDbEntity
  8
0
  6
Continuous
 62
     0
370
    30
100
AcDbPolyline
 90
       12
 70
     0
 43
0.0
 10
361.959442
 20
157.345703
 10
363.155212
 20
156.552505
 10
364.344788
 20
155.867798
 10
365.519989
 20
155.297028
 10
366.672974
 20
154.844772
 10
367.796295
 20
154.514832
 10
368.883087
 20
154.310547
 10
369.926208
 20
154.235001
 10
370.917511
 20
154.290817
 10
371.849487
 20
154.480392
 10
372.713379
 20
154.804489
 10
373.506897
 20
155.267609
  0
LWPOLYLINE
  5
115
330
D3
100
AcDbEntity
  8
0
  6
Continuous
 62
     0
370
    30
100
AcDbPolyline
 90
       26
 70
     0
 43
0.0
 10
350.98938
 20
187.110336
 10
350.294647
 20
186.522797
 10
349.698395
 20
185.814697
 10
349.207062
 20
184.996597
 10
348.822418
 20
184.077194
 10
348.545319
 20
183.064835
 10
348.375885
 20
181.96756
 10
348.313599
 20
180.793213
 10
348.357422
 20
179.549957
 10
348.506042
 20
178.246262
 10
348.758087
 20
176.890762
 10
349.111206
 20
175.492996
 10
349.562592
 20
174.063095
 10
350.108795
 20
172.61142
 10
350.745331
 20
171.148727
 10
351.467682
 20
169.685776
 10
352.270355
 20
168.233444
 10
353.147034
 20
166.802582
 10
354.091278
 20
165.404083
 10
355.096008
 20
164.048431
 10
356.153534
 20
162.745804
 10
357.255981
 20
161.506119
 10
358.39505
 20
160.338669
 10
359.562317
 20
159.252304
 10
360.749146
 20
158.255203
 10
361.959473
 20
157.345703
  0
LINE
  5
116
330
D3
100
AcDbEntity
  8
0
  6
Continuous
 62
     0
370
    30
100
AcDbLine
 10
402.851389
 20
176.017284
 30
0.0
 11
373.506458
 21
155.267283
 31
0.0
  0
LINE
  5
117
330
D3
100
AcDbEntity
  8
0
  6
Continuous
 62
     0
370
    30
100
AcDbLine
 10
366.001175
 20
197.725297
 30
0.0
 11
350.989796
 21
187.110649
 31
0.0
  0
LINE
  5
118
330
D3
100
AcDbEntity
  8
0
  6
Continuous
 62
     0
370
    30
100
AcDbLine
 10
380.334727
 20
207.86065
 30
0.0
 11
377.727206
 21
206.016853
 31
0.0
  0
LINE
  5
119
330
D3
100
AcDbEntity
  8
0
  6
Continuous
 62
     0
370
    30
100
AcDbLine
 10
379.001175
 20
194.204859
 30
0.0
 11
379.001175
 21
203.184414
 31
0.0
  0
LINE
  5
11A
330
D3
100
AcDbEntity
  8
0
  6
Continuous
 62
     0
370
    30
100
AcDbLine
 10
366.001175
 20
194.204794
 30
0.0
 11
366.001175
 21
203.187703
 31
0.0
  0
LWPOLYLINE
  5
11B
330
D3
100
AcDbEntity
  8
0
  6
Continuous
 62
     0
370
    30
100
AcDbPolyline
 90
        4
 70
     0
 43
0.0
 10
365.95813
 20
193.936539
 10
365.967499
 20
193.963074
 10
365.985229
 20
194.035019
 10
366.00116
 20
194.203979
  0
ENDBLK
  5
11D
330
D3
100
AcDbEntity
  8
0
100
AcDbBlockEnd
  0
BLOCK
  5
14E
330
11F
100
AcDbEntity
  8
0
100
AcDbBlockBegin
  2
e
 70
     0
 10
48.540497
 20
0.0
 30
0.0
  3
e
  1

  0
LINE
  5
120
330
11F
100
AcDbEntity
  8
0
  6
Continuous
 62
     0
370
    30
100
AcDbLine
 10
7.513833
 20
346.816311
 30
0.0
 11
7.513833
 21
363.316311
 31
0.0
  0
LINE
  5
121
330
11F
100
AcDbEntity
  8
0
  6
Continuous
 62
     0
370
    30
100
AcDbLine
 10
7.513833
 20
324.316311
 30
0.0
 11
7.513833
 21
340.816311
 31
0.0
  0
ARC
  5
122
330
11F
100
AcDbEntity
  8
0
  6
Continuous
 62
     0
370
    30
100
AcDbCircle
 10
-29.986167
 20
367.316311
 30
0.0
 40
4.0
100
AcDbArc
 50
270.0
 51
360.0
  0
LWPOLYLINE
  5
123
330
11F
100
AcDbEntity
  8
0
  6
Continuous
 62
     0
370
     0
100
AcDbPolyline
 90
       24
 70
     0
 43
0.0
 10
-25.986166
 20
367.316315
 10
-25.924004
 20
367.271423
 10
-25.740328
 20
367.141571
 10
-25.440218
 20
366.93573
 10
-25.031925
 20
366.66922
 10
-24.524685
 20
366.360535
 10
-23.927721
 20
366.030579
 10
-23.250139
 20
365.701721
 10
-22.501522
 20
365.397003
 10
-21.692389
 20
365.140045
 10
-20.835922
 20
364.952972
 10
-19.948887
 20
364.853424
 10
-19.050901
 20
364.851868
 10
-18.163252
 20
364.948578
 10
-17.30555
 20
365.133148
 10
-16.494762
 20
365.388306
 10
-15.744228
 20
365.691864
 10
-15.064293
 20
366.020447
 10
-14.464622
 20
366.350616
 10
-13.954511
 20
366.660278
 10
-13.543087
 20
366.928375
 10
-13.239516
 20
367.136322
 10
-13.052043
 20
367.26889
 10
-12.986167
 20
367.316315
  0
LWPOLYLINE
  5
124
330
11F
100
AcDbEntity
  8
0
  6
Continuous
 62
     0
370
     0
100
AcDbPolyline
 90
       28
 70
     0
 43
0.0
 10
-29.986166
 20
363.316315
 10
-29.913113
 20
363.289185
 10
-29.696709
 20
363.210175
 10
-29.341373
 20
363.083038
 10
-28.854462
 20
362.914948
 10
-28.245106
 20
362.715027
 10
-27.522459
 20
362.492645
 10
-26.695673
 20
362.258789
 10
-25.773903
 20
362.025116
 10
-24.766657
 20
361.803467
 10
-23.684055
 20
361.605957
 10
-22.538013
 20
361.444427
 10
-21.343103
 20
361.32959
 10
-20.117327
 20
361.269501
 10
-18.880598
 20
361.26886
 10
-17.65435
 20
361.327759
 10
-16.458645
 20
361.441528
 10
-15.311486
 20
361.602234
 10
-14.22731
 20
361.799072
 10
-13.218451
 20
362.020355
 10
-12.294916
 20
362.253906
 10
-11.46597
 20
362.487854
 10
-10.74097
 20
362.710693
 10
-10.129316
 20
362.911224
 10
-9.639996
 20
363.079773
 10
-9.281549
 20
363.208008
 10
-9.062042
 20
363.288269
 10
-8.986173
 20
363.316315
  0
LINE
  5
125
330
11F
100
AcDbEntity
  8
0
  6
Continuous
 62
     0
370
    30
100
AcDbLine
 10
-25.986167
 20
378.816311
 30
0.0
 11
-25.986167
 21
367.316311
 31
0.0
  0
LINE
  5
126
330
11F
100
AcDbEntity
  8
0
  6
Continuous
 62
     0
370
     0
100
AcDbLine
 10
-25.986167
 20
378.816311
 30
0.0
 11
-12.986167
 21
378.816311
 31
0.0
  0
LINE
  5
127
330
11F
100
AcDbEntity
  8
0
  6
Continuous
 62
     0
370
    30
100
AcDbLine
 10
-25.486167
 20
379.316311
 30
0.0
 11
-13.486167
 21
379.316311
 31
0.0
  0
LINE
  5
128
330
11F
100
AcDbEntity
  8
0
  6
Continuous
 62
     0
370
    30
100
AcDbLine
 10
-33.986167
 20
324.316311
 30
0.0
 11
7.513833
 21
324.316311
 31
0.0
  0
LINE
  5
129
330
11F
100
AcDbEntity
  8
0
  6
Continuous
 62
     0
370
     0
100
AcDbLine
 10
-33.986167
 20
324.316311
 30
0.0
 11
-33.986167
 21
363.316311
 31
0.0
  0
LINE
  5
12A
330
11F
100
AcDbEntity
  8
0
  6
Continuous
 62
     0
370
    30
100
AcDbLine
 10
-34.486167
 20
324.816311
 30
0.0
 11
-34.486167
 21
362.816311
 31
0.0
  0
ARC
  5
12B
330
11F
100
AcDbEntity
  8
0
  6
Continuous
 62
     0
370
    30
100
AcDbCircle
 10
-33.986167
 20
324.816311
 30
0.0
 40
0.5
100
AcDbArc
 50
180.0
 51
270.0
  0
ARC
  5
12C
330
11F
100
AcDbEntity
  8
0
  6
Continuous
 62
     0
370
    30
100
AcDbCircle
 10
-25.486167
 20
378.816311
 30
0.0
 40
0.499999999999999
100
AcDbArc
 50
90.0
 51
180.0
  0
LWPOLYLINE
  5
12D
330
11F
100
AcDbEntity
  8
0
  6
Continuous
 62
     0
370
     0
100
AcDbPolyline
 90
        6
 70
     0
 43
0.0
 10
10.513829
 20
342.487
 10
10.394198
 20
341.916718
 10
10.233913
 20
341.438843
 10
10.04544
 20
341.089478
 10
9.84466
 20
340.884064
 10
9.63824
 20
340.816315
  0
LWPOLYLINE
  5
12E
330
11F
100
AcDbEntity
  8
0
  6
Continuous
 62
     0
370
     0
100
AcDbPolyline
 90
        6
 70
     0
 43
0.0
 10
9.63824
 20
346.816315
 10
9.835576
 20
346.754456
 10
10.03653
 20
346.555542
 10
10.225911
 20
346.212494
 10
10.387775
 20
345.739777
 10
10.513829
 20
345.145599
  0
LINE
  5
12F
330
11F
100
AcDbEntity
  8
0
  6
Continuous
 62
     0
370
     0
100
AcDbLine
 10
10.50642
 20
340.515256
 30
0.0
 11
10.513829
 21
340.49599
 31
0.0
  0
LINE
  5
130
330
11F
100
AcDbEntity
  8
0
  6
Continuous
 62
     0
370
     0
100
AcDbLine
 10
10.513829
 20
347.136632
 30
0.0
 11
10.50642
 21
347.117366
 31
0.0
  0
LINE
  5
131
330
11F
100
AcDbEntity
  8
0
  6
Continuous
 62
     0
370
    30
100
AcDbLine
 10
9.63824
 20
340.816311
 30
0.0
 11
7.920648
 21
340.816311
 31
0.0
  0
ELLIPSE
  5
132
330
11F
100
AcDbEntity
  8
0
  6
Continuous
 62
     0
370
     0
100
AcDbEllipse
 10
7.920648
 20
343.816311
 30
0.0
 11
5.810293927624924E-12
 21
3.0
 31
0.0
210
0.0
220
0.0
230
-1.0
 40
0.325568
 41
6.283185307173634
 42
9.424777960763436
  0
LWPOLYLINE
  5
133
330
11F
100
AcDbEntity
  8
0
  6
Continuous
 62
     0
370
    30
100
AcDbPolyline
 90
       23
 70
     0
 43
0.0
 10
-20.708574
 20
341.481567
 10
-20.480375
 20
342.297699
 10
-20.346775
 20
343.179749
 10
-20.324558
 20
344.107513
 10
-20.42569
 20
345.054626
 10
-20.655146
 20
345.990326
 10
-21.009558
 20
346.882538
 10
-21.477119
 20
347.701416
 10
-22.038868
 20
348.422546
 10
-22.671059
 20
349.029205
 10
-23.348061
 20
349.513336
 10
-24.045097
 20
349.875092
 10
-24.776999
 20
350.131317
 10
-25.56851
 20
350.282806
 10
-26.401648
 20
350.310791
 10
-27.252787
 20
350.201782
 10
-28.094378
 20
349.950012
 10
-28.897608
 20
349.55899
 10
-29.635542
 20
349.041687
 10
-30.28607
 20
348.418976
 10
-30.833992
 20
347.717194
 10
-31.271881
 20
346.964844
 10
-31.613132
 20
346.151062
  0
LWPOLYLINE
  5
134
330
11F
100
AcDbEntity
  8
0
  6
Continuous
 62
     0
370
    30
100
AcDbPolyline
 90
       23
 70
     0
 43
0.0
 10
-31.613132
 20
346.151062
 10
-31.84133
 20
345.33493
 10
-31.974932
 20
344.452881
 10
-31.997149
 20
343.525085
 10
-31.896017
 20
342.578003
 10
-31.666561
 20
341.642303
 10
-31.312149
 20
340.750092
 10
-30.844587
 20
339.931183
 10
-30.282839
 20
339.210083
 10
-29.650646
 20
338.603424
 10
-28.973644
 20
338.119293
 10
-28.276609
 20
337.757538
 10
-27.544708
 20
337.501312
 10
-26.753197
 20
337.349823
 10
-25.920059
 20
337.321838
 10
-25.06892
 20
337.430847
 10
-24.227329
 20
337.682617
 10
-23.424099
 20
338.073608
 10
-22.686165
 20
338.590942
 10
-22.035637
 20
339.213654
 10
-21.487715
 20
339.915436
 10
-21.049824
 20
340.667786
 10
-20.708574
 20
341.481567
  0
LWPOLYLINE
  5
135
330
11F
100
AcDbEntity
  8
0
  6
Continuous
 62
     0
370
    30
100
AcDbPolyline
 90
       22
 70
     0
 43
0.0
 10
-20.836292
 20
341.517487
 10
-21.172333
 20
340.716125
 10
-21.627728
 20
339.939697
 10
-22.202204
 20
339.219666
 10
-22.886639
 20
338.588348
 10
-23.662683
 20
338.075134
 10
-24.50404
 20
337.702423
 10
-25.379299
 20
337.482544
 10
-26.255749
 20
337.416565
 10
-27.103218
 20
337.494873
 10
-27.897049
 20
337.699554
 10
-28.629354
 20
338.012634
 10
-29.341864
 20
338.451904
 10
-30.018232
 20
339.024933
 10
-30.629383
 20
339.726715
 10
-31.14712
 20
340.541931
 10
-31.547747
 20
341.445526
 10
-31.81535
 20
342.404907
 10
-31.943825
 20
343.38385
 10
-31.937174
 20
344.346863
 10
-31.808064
 20
345.263092
 10
-31.57309
 20
346.115143
  0
LWPOLYLINE
  5
136
330
11F
100
AcDbEntity
  8
0
  6
Continuous
 62
     0
370
    30
100
AcDbPolyline
 90
       22
 70
     0
 43
0.0
 10
-31.57309
 20
346.115143
 10
-31.237049
 20
346.916473
 10
-30.781652
 20
347.692932
 10
-30.207178
 20
348.412964
 10
-29.522743
 20
349.044281
 10
-28.746696
 20
349.557495
 10
-27.90534
 20
349.930206
 10
-27.030083
 20
350.150085
 10
-26.153631
 20
350.216064
 10
-25.306162
 20
350.137756
 10
-24.512333
 20
349.933044
 10
-23.780025
 20
349.619965
 10
-23.067518
 20
349.180725
 10
-22.39115
 20
348.607697
 10
-21.779997
 20
347.905914
 10
-21.26226
 20
347.090668
 10
-20.861633
 20
346.187103
 10
-20.594032
 20
345.227722
 10
-20.465557
 20
344.248779
 10
-20.472208
 20
343.285767
 10
-20.601316
 20
342.369507
 10
-20.836292
 20
341.517487
  0
ELLIPSE
  5
137
330
11F
100
AcDbEntity
  8
0
  6
Continuous
 62
     0
370
    30
100
AcDbEllipse
 10
2.2456
 20
343.816311
 30
0.0
 11
-7.494544831920608E-11
 21
-6.5
 31
0.0
210
0.0
220
0.0
230
1.0
 40
0.898794
 41
1.203395769537733
 42
3.141592653589793
  0
ELLIPSE
  5
138
330
11F
100
AcDbEntity
  8
0
  6
Continuous
 62
     0
370
    30
100
AcDbEllipse
 10
2.2456
 20
343.816311
 30
0.0
 11
-7.494544831920608E-11
 21
-6.5
 31
0.0
210
0.0
220
0.0
230
1.0
 40
0.898794
 41
6.283185307179586
 42
7.486581076717318
  0
LINE
  5
139
330
11F
100
AcDbEntity
  8
0
  6
Continuous
 62
     0
370
    30
100
AcDbLine
 10
10.513827
 20
383.816311
 30
0.0
 11
25.513827
 21
383.816311
 31
0.0
  0
LINE
  5
13A
330
11F
100
AcDbEntity
  8
0
  6
Continuous
 62
     0
370
    30
100
AcDbLine
 10
10.513827
 20
383.816311
 30
0.0
 11
10.513827
 21
303.816311
 31
0.0
  0
LINE
  5
13B
330
11F
100
AcDbEntity
  8
0
  6
Continuous
 62
     0
370
    30
100
AcDbLine
 10
10.513827
 20
303.816311
 30
0.0
 11
25.513827
 21
303.816311
 31
0.0
  0
LINE
  5
13C
330
11F
100
AcDbEntity
  8
0
  6
Continuous
 62
     0
370
    30
100
AcDbLine
 10
25.513827
 20
383.816311
 30
0.0
 11
25.513827
 21
303.816311
 31
0.0
  0
LINE
  5
13D
330
11F
100
AcDbEntity
  8
0
  6
Continuous
 62
     0
370
    30
100
AcDbLine
 10
10.513833
 20
358.066311
 30
0.0
 11
7.513833
 21
358.066311
 31
0.0
  0
LINE
  5
13E
330
11F
100
AcDbEntity
  8
0
  6
Continuous
 62
     0
370
    30
100
AcDbLine
 10
10.513833
 20
329.566311
 30
0.0
 11
7.513833
 21
329.566311
 31
0.0
  0
LINE
  5
13F
330
11F
100
AcDbEntity
  8
0
  6
Continuous
 62
     0
370
    30
100
AcDbLine
 10
-26.160853
 20
337.316311
 30
0.0
 11
2.2456
 21
337.316311
 31
0.0
  0
LINE
  5
140
330
11F
100
AcDbEntity
  8
0
  6
Continuous
 62
     0
370
    30
100
AcDbLine
 10
-26.160853
 20
350.316311
 30
0.0
 11
2.2456
 21
350.316311
 31
0.0
  0
LINE
  5
141
330
11F
100
AcDbEntity
  8
0
  6
Continuous
 62
     0
370
    30
100
AcDbLine
 10
7.920648
 20
346.816311
 30
0.0
 11
7.428299
 21
346.816311
 31
0.0
  0
LINE
  5
142
330
11F
100
AcDbEntity
  8
0
  6
Continuous
 62
     0
370
    30
100
AcDbLine
 10
7.428299
 20
340.816311
 30
0.0
 11
7.920648
 21
340.816311
 31
0.0
  0
LWPOLYLINE
  5
143
330
11F
100
AcDbEntity
  8
0
  6
Continuous
 62
     0
370
    30
100
AcDbPolyline
 90
        2
 70
     0
 43
0.0
 10
10.513829
 20
340.218658
 10
10.414704
 20
340.585846
  0
LWPOLYLINE
  5
144
330
11F
100
AcDbEntity
  8
0
  6
Continuous
 62
     0
370
    30
100
AcDbPolyline
 90
        2
 70
     0
 43
0.0
 10
10.513829
 20
347.41394
 10
10.414704
 20
347.046783
  0
LINE
  5
145
330
11F
100
AcDbEntity
  8
0
  6
Continuous
 62
     0
370
    30
100
AcDbLine
 10
9.63824
 20
346.816311
 30
0.0
 11
7.920648
 21
346.816311
 31
0.0
  0
LWPOLYLINE
  5
146
330
11F
100
AcDbEntity
  8
0
  6
Continuous
 62
     0
370
    30
100
AcDbPolyline
 90
        4
 70
     0
 43
0.0
 10
9.63824
 20
340.816315
 10
9.994752
 20
340.772125
 10
10.298197
 20
340.656158
 10
10.513829
 20
340.508759
  0
LWPOLYLINE
  5
147
330
11F
100
AcDbEntity
  8
0
  6
Continuous
 62
     0
370
    30
100
AcDbPolyline
 90
        4
 70
     0
 43
0.0
 10
9.63824
 20
346.816315
 10
9.994752
 20
346.860504
 10
10.298197
 20
346.97644
 10
10.513829
 20
347.123871
  0
ARC
  5
148
330
11F
100
AcDbEntity
  8
0
  6
Continuous
 62
     0
370
    30
100
AcDbCircle
 10
-13.48617
 20
378.816307
 30
0.0
 40
0.5000034422828223
100
AcDbArc
 50
0.000394
 51
89.999606
  0
ARC
  5
149
330
11F
100
AcDbEntity
  8
0
  6
Continuous
 62
     0
370
    30
100
AcDbCircle
 10
-33.986164
 20
362.816308
 30
0.0
 40
0.5000027030479954
100
AcDbArc
 50
90.00031
 51
179.99969
  0
LINE
  5
14A
330
11F
100
AcDbEntity
  8
0
  6
Continuous
 62
     0
370
    30
100
AcDbLine
 10
7.513833
 20
363.316311
 30
0.0
 11
-8.986173
 21
363.316311
 31
0.0
  0
LINE
  5
14B
330
11F
100
AcDbEntity
  8
0
  6
Continuous
 62
     0
370
    30
100
AcDbLine
 10
-29.986167
 20
363.316311
 30
0.0
 11
-33.986167
 21
363.316311
 31
0.0
  0
LINE
  5
14C
330
11F
100
AcDbEntity
  8
0
  6
Continuous
 62
     0
370
    30
100
AcDbLine
 10
-12.986167
 20
367.316311
 30
0.0
 11
-12.986167
 21
378.816311
 31
0.0
  0
ARC
  5
14D
330
11F
100
AcDbEntity
  8
0
  6
Continuous
 62
     0
370
    30
100
AcDbCircle
 10
-8.986148
 20
367.316323
 30
0.0
 40
4.000019079308327
100
AcDbArc
 50
180.000171
 51
269.999643
  0
ENDBLK
  5
14F
330
11F
100
AcDbEntity
  8
0
100
AcDbBlockEnd
  0
ENDSEC
  0
SECTION
  2
ENTITIES
  0
INSERT
  5
7F
330
1F
100
AcDbEntity
  8
0
  6
Continuous
 62
   250
370
     0
100
AcDbBlockReference
  2
a
 10
53.779839
 20
91.176018
 30
0.0
  0
INSERT
  5
B6
330
1F
100
AcDbEntity
  8
0
  6
Continuous
 62
   250
370
     0
100
AcDbBlockReference
  2
b
 10
53.779842
 20
124.285622
 30
0.0
  0
INSERT
  5
D2
330
1F
100
AcDbEntity
  8
0
  6
Continuous
 62
   250
370
     0
100
AcDbBlockReference
  2
c
 10
53.779839
 20
101.576012
 30
0.0
  0
INSERT
  5
11E
330
1F
100
AcDbEntity
  8
0
  6
Continuous
 62
   250
370
     0
100
AcDbBlockReference
  2
d
 10
47.357658
 20
72.157257
 30
0.0
  0
INSERT
  5
150
330
1F
100
AcDbEntity
  8
0
  6
Continuous
 62
   250
370
     0
100
AcDbBlockReference
  2
e
 10
48.540497
 20
0.0
 30
0.0
  0
ENDSEC
  0
SECTION
  2
OBJECTS
  0
DICTIONARY
  5
C
330
0
100
AcDbDictionary
281
     1
  3
ACAD_GROUP
350
D
  3
ACAD_LAYOUT
350
1A
  3
ACAD_MLEADERSTYLE
350
153
  3
ACAD_MLINESTYLE
350
17
  3
ACAD_PLOTSETTINGS
350
19
  3
ACAD_PLOTSTYLENAME
350
E
  3
ACAD_VISUALSTYLE
350
2A
  3
AcDbVariableDictionary
350
151
  0
DICTIONARY
  5
D
102
{ACAD_REACTORS
330
C
102
}
330
C
100
AcDbDictionary
281
     1
  0
DICTIONARY
  5
1A
102
{ACAD_REACTORS
330
C
102
}
330
C
100
AcDbDictionary
281
     1
  3
Layout1
350
1E
  3
Layout2
350
26
  3
Model
350
22
  0
DICTIONARY
  5
153
102
{ACAD_REACTORS
330
C
102
}
330
C
100
AcDbDictionary
281
     1
  0
DICTIONARY
  5
17
102
{ACAD_REACTORS
330
C
102
}
330
C
100
AcDbDictionary
281
     1
  3
Standard
350
18
  0
DICTIONARY
  5
19
102
{ACAD_REACTORS
330
C
102
}
330
C
100
AcDbDictionary
281
     1
  0
ACDBDICTIONARYWDFLT
  5
E
102
{ACAD_REACTORS
330
C
102
}
330
C
100
AcDbDictionary
281
     1
  3
Normal
350
F
100
AcDbDictionaryWithDefault
340
F
  0
DICTIONARY
  5
2A
102
{ACAD_REACTORS
330
C
102
}
330
C
100
AcDbDictionary
281
     1
  3
2dWireframe
350
2F
  3
3D Hidden
350
31
  3
3dWireframe
350
30
  3
Basic
350
32
  3
Brighten
350
36
  3
ColorChange
350
3A
  3
Conceptual
350
34
  3
Dim
350
35
  3
Facepattern
350
39
  3
Flat
350
2B
  3
FlatWithEdges
350
2C
  3
Gouraud
350
2D
  3
GouraudWithEdges
350
2E
  3
Linepattern
350
38
  3
Realistic
350
33
  3
Thicken
350
37
  0
DICTIONARY
  5
151
102
{ACAD_REACTORS
330
C
102
}
330
C
100
AcDbDictionary
281
     1
  3
PSOLHEIGHT
350
155
  3
PSOLWIDTH
350
154
  0
LAYOUT
  5
1E
102
{ACAD_REACTORS
330
1A
102
}
330
1A
100
AcDbPlotSettings
  1

  2
none_device
  4

  6

 40
0.0
 41
0.0
 42
0.0
 43
0.0
 44
0.0
 45
0.0
 46
0.0
 47
0.0
 48
0.0
 49
0.0
140
0.0
141
0.0
142
1.0
143
1.0
 70
   688
 72
     0
 73
     0
 74
     5
  7

 75
    16
147
1.0
148
0.0
149
0.0
100
AcDbLayout
  1
Layout1
 70
     1
 71
     1
 10
0.0
 20
0.0
 11
420.0
 21
297.0
 12
0.0
 22
0.0
 32
0.0
 14
1.000000E+20
 24
1.000000E+20
 34
1.000000E+20
 15
-1.000000E+20
 25
-1.000000E+20
 35
-1.000000E+20
146
0.0
 13
0.0
 23
0.0
 33
0.0
 16
1.0
 26
0.0
 36
0.0
 17
0.0
 27
1.0
 37
0.0
 76
     0
330
1B
  0
LAYOUT
  5
26
102
{ACAD_REACTORS
330
1A
102
}
330
1A
100
AcDbPlotSettings
  1

  2
none_device
  4

  6

 40
0.0
 41
0.0
 42
0.0
 43
0.0
 44
0.0
 45
0.0
 46
0.0
 47
0.0
 48
0.0
 49
0.0
140
0.0
141
0.0
142
1.0
143
1.0
 70
   688
 72
     0
 73
     0
 74
     5
  7

 75
    16
147
1.0
148
0.0
149
0.0
100
AcDbLayout
  1
Layout2
 70
     1
 71
     2
 10
0.0
 20
0.0
 11
0.0
 21
0.0
 12
0.0
 22
0.0
 32
0.0
 14
0.0
 24
0.0
 34
0.0
 15
0.0
 25
0.0
 35
0.0
146
0.0
 13
0.0
 23
0.0
 33
0.0
 16
1.0
 26
0.0
 36
0.0
 17
0.0
 27
1.0
 37
0.0
 76
     0
330
23
  0
LAYOUT
  5
22
102
{ACAD_REACTORS
330
1A
102
}
330
1A
100
AcDbPlotSettings
  1

  2
none_device
  4

  6

 40
0.0
 41
0.0
 42
0.0
 43
0.0
 44
0.0
 45
0.0
 46
0.0
 47
0.0
 48
0.0
 49
0.0
140
0.0
141
0.0
142
1.0
143
1.0
 70
  1712
 72
     0
 73
     0
 74
     0
  7

 75
     0
147
1.0
148
0.0
149
0.0
100
AcDbLayout
  1
Model
 70
     1
 71
     0
 10
-34.486168
 20
72.380699
 11
503.315918
 21
383.816315
 12
0.0
 22
0.0
 32
0.0
 14
-34.486168
 24
72.380699
 34
0.0
 15
503.315918
 25
383.816315
 35
0.0
146
0.0
 13
0.0
 23
0.0
 33
0.0
 16
1.0
 26
0.0
 36
0.0
 17
0.0
 27
1.0
 37
0.0
 76
     0
330
1F
331
29
  0
MLINESTYLE
  5
18
102
{ACAD_REACTORS
330
17
102
}
330
17
100
AcDbMlineStyle
  2
Standard
 70
     0
  3

 62
   256
 51
90.0
 52
90.0
 71
     2
 49
0.5
 62
   256
  6
BYLAYER
 49
-0.5
 62
   256
  6
BYLAYER
  0
ACDBPLACEHOLDER
  5
F
102
{ACAD_REACTORS
330
E
102
}
330
E
  0
VISUALSTYLE
  5
2F
102
{ACAD_REACTORS
330
2A
102
}
330
2A
100
AcDbVisualStyle
  2
2dWireframe
 70
     4
 71
     0
 72
     2
 73
     0
 90
        0
 40
-0.6
 41
-30.0
 62
     5
 63
     7
 74
     1
 91
        4
 64
     7
 65
   257
 75
     1
175
     1
 42
1.0
 92
        0
 66
   257
 43
1.0
 76
     1
 77
     6
 78
     2
 67
     7
 79
     5
170
     0
171
     0
290
     0
174
     0
 93
        1
 44
0.0
173
     0
291
     0
 45
0.0
1001
ACAD
1000
AcDbSavedByObjectVersion
1070
     0
  0
VISUALSTYLE
  5
31
102
{ACAD_REACTORS
330
2A
102
}
330
2A
100
AcDbVisualStyle
  2
3D Hidden
 70
     6
 71
     1
 72
     2
 73
     2
 90
        0
 40
-0.6
 41
-30.0
 62
     5
 63
     7
 74
     2
 91
        2
 64
     7
 65
   257
 75
     2
175
     1
 42
40.0
 92
        0
 66
   257
 43
1.0
 76
     1
 77
     6
 78
     2
 67
     7
 79
     3
170
     0
171
     0
290
     0
174
     0
 93
        1
 44
0.0
173
     0
291
     0
 45
0.0
1001
ACAD
1000
AcDbSavedByObjectVersion
1070
     0
  0
VISUALSTYLE
  5
30
102
{ACAD_REACTORS
330
2A
102
}
330
2A
100
AcDbVisualStyle
  2
3dWireframe
 70
     5
 71
     0
 72
     2
 73
     0
 90
        0
 40
-0.6
 41
-30.0
 62
     5
 63
     7
 74
     1
 91
        4
 64
     7
 65
   257
 75
     1
175
     1
 42
1.0
 92
        0
 66
   257
 43
1.0
 76
     1
 77
     6
 78
     2
 67
     7
 79
     5
170
     0
171
     0
290
     0
174
     0
 93
        1
 44
0.0
173
     0
291
     0
 45
0.0
1001
ACAD
1000
AcDbSavedByObjectVersion
1070
     0
  0
VISUALSTYLE
  5
32
102
{ACAD_REACTORS
330
2A
102
}
330
2A
100
AcDbVisualStyle
  2
Basic
 70
     7
 71
     1
 72
     0
 73
     1
 90
        0
 40
-0.6
 41
-30.0
 62
     5
 63
     7
 74
     0
 91
        4
 64
     7
 65
   257
 75
     1
175
     1
 42
1.0
 92
        8
 66
     7
 43
1.0
 76
     1
 77
     6
 78
     2
 67
     7
 79
     5
170
     0
171
     0
290
     0
174
     0
 93
        1
 44
0.0
173
     0
291
     1
 45
0.0
1001
ACAD
1000
AcDbSavedByObjectVersion
1070
     0
  0
VISUALSTYLE
  5
36
102
{ACAD_REACTORS
330
2A
102
}
330
2A
100
AcDbVisualStyle
  2
Brighten
 70
    12
 71
     2
 72
     2
 73
     0
 90
        0
 40
-0.6
 41
-30.0
 62
     5
 63
     7
 74
     1
 91
        4
 64
     7
 65
   257
 75
     1
175
     1
 42
1.0
 92
        8
 66
     7
 43
1.0
 76
     1
 77
     6
 78
     2
 67
     7
 79
     5
170
     0
171
     0
290
     0
174
     0
 93
        1
 44
50.0
173
     0
291
     1
 45
0.0
1001
ACAD
1000
AcDbSavedByObjectVersion
1070
     0
  0
VISUALSTYLE
  5
3A
102
{ACAD_REACTORS
330
2A
102
}
330
2A
100
AcDbVisualStyle
  2
ColorChange
 70
    16
 71
     2
 72
     2
 73
     3
 90
        0
 40
-0.6
 41
-30.0
 62
     5
 63
     8
 74
     1
 91
        4
 64
     7
 65
   257
 75
     1
175
     1
 42
1.0
 92
        8
 66
     8
 43
1.0
 76
     1
 77
     6
 78
     2
 67
     7
 79
     5
170
     0
171
     0
290
     0
174
     0
 93
        1
 44
0.0
173
     0
291
     1
 45
0.0
1001
ACAD
1000
AcDbSavedByObjectVersion
1070
     0
  0
VISUALSTYLE
  5
34
102
{ACAD_REACTORS
330
2A
102
}
330
2A
100
AcDbVisualStyle
  2
Conceptual
 70
     9
 71
     3
 72
     2
 73
     0
 90
        0
 40
-0.6
 41
-30.0
 62
     5
 63
     7
 74
     2
 91
        2
 64
     7
 65
   257
 75
     1
175
     1
 42
40.0
 92
        8
 66
     7
 43
1.0
 76
     1
 77
     6
 78
     2
 67
     7
 79
     3
170
     0
171
     0
290
     0
174
     0
 93
        1
 44
0.0
173
     0
291
     0
 45
0.0
1001
ACAD
1000
AcDbSavedByObjectVersion
1070
     0
  0
VISUALSTYLE
  5
35
102
{ACAD_REACTORS
330
2A
102
}
330
2A
100
AcDbVisualStyle
  2
Dim
 70
    11
 71
     2
 72
     2
 73
     0
 90
        0
 40
-0.6
 41
-30.0
 62
     5
 63
     7
 74
     1
 91
        4
 64
     7
 65
   257
 75
     1
175
     1
 42
1.0
 92
        8
 66
     7
 43
1.0
 76
     1
 77
     6
 78
     2
 67
     7
 79
     5
170
     0
171
     0
290
     0
174
     0
 93
        1
 44
-50.0
173
     0
291
     1
 45
0.0
1001
ACAD
1000
AcDbSavedByObjectVersion
1070
     0
  0
VISUALSTYLE
  5
39
102
{ACAD_REACTORS
330
2A
102
}
330
2A
100
AcDbVisualStyle
  2
Facepattern
 70
    15
 71
     2
 72
     2
 73
     0
 90
        0
 40
-0.6
 41
-30.0
 62
     5
 63
     7
 74
     1
 91
        4
 64
     7
 65
   257
 75
     1
175
     1
 42
1.0
 92
        8
 66
     7
 43
1.0
 76
     1
 77
     6
 78
     2
 67
     7
 79
     5
170
     0
171
     0
290
     0
174
     0
 93
        1
 44
0.0
173
     0
291
     1
 45
0.0
1001
ACAD
1000
AcDbSavedByObjectVersion
1070
     0
  0
VISUALSTYLE
  5
2B
102
{ACAD_REACTORS
330
2A
102
}
330
2A
100
AcDbVisualStyle
  2
Flat
 70
     0
 71
     2
 72
     1
 73
     1
 90
        2
 40
-0.6
 41
30.0
 62
     5
 63
     7
 74
     0
 91
        4
 64
     7
 65
   257
 75
     1
175
     1
 42
1.0
 92
        8
 66
     7
 43
1.0
 76
     1
 77
     6
 78
     2
 67
     7
 79
     5
170
     0
171
     0
290
     0
174
     0
 93
       13
 44
0.0
173
     0
291
     1
 45
0.0
1001
ACAD
1000
AcDbSavedByObjectVersion
1070
     0
  0
VISUALSTYLE
  5
2C
102
{ACAD_REACTORS
330
2A
102
}
330
2A
100
AcDbVisualStyle
  2
FlatWithEdges
 70
     1
 71
     2
 72
     1
 73
     1
 90
        2
 40
-0.6
 41
30.0
 62
     5
 63
     7
 74
     1
 91
        4
 64
     7
 65
   257
 75
     1
175
     1
 42
1.0
 92
        0
 66
   257
 43
1.0
 76
     1
 77
     6
 78
     2
 67
     7
 79
     5
170
     0
171
     0
290
     0
174
     0
 93
       13
 44
0.0
173
     0
291
     1
 45
0.0
1001
ACAD
1000
AcDbSavedByObjectVersion
1070
     0
  0
VISUALSTYLE
  5
2D
102
{ACAD_REACTORS
330
2A
102
}
330
2A
100
AcDbVisualStyle
  2
Gouraud
 70
     2
 71
     2
 72
     2
 73
     1
 90
        2
 40
-0.6
 41
30.0
 62
     5
 63
     7
 74
     0
 91
        4
 64
     7
 65
   257
 75
     1
175
     1
 42
1.0
 92
        0
 66
     7
 43
1.0
 76
     1
 77
     6
 78
     2
 67
     7
 79
     5
170
     0
171
     0
290
     0
174
     0
 93
       13
 44
0.0
173
     0
291
     1
 45
0.0
1001
ACAD
1000
AcDbSavedByObjectVersion
1070
     0
  0
VISUALSTYLE
  5
2E
102
{ACAD_REACTORS
330
2A
102
}
330
2A
100
AcDbVisualStyle
  2
GouraudWithEdges
 70
     3
 71
     2
 72
     2
 73
     1
 90
        2
 40
-0.6
 41
30.0
 62
     5
 63
     7
 74
     1
 91
        4
 64
     7
 65
   257
 75
     1
175
     1
 42
1.0
 92
        0
 66
   257
 43
1.0
 76
     1
 77
     6
 78
     2
 67
     7
 79
     5
170
     0
171
     0
290
     0
174
     0
 93
       13
 44
0.0
173
     0
291
     1
 45
0.0
1001
ACAD
1000
AcDbSavedByObjectVersion
1070
     0
  0
VISUALSTYLE
  5
38
102
{ACAD_REACTORS
330
2A
102
}
330
2A
100
AcDbVisualStyle
  2
Linepattern
 70
    14
 71
     2
 72
     2
 73
     0
 90
        0
 40
-0.6
 41
-30.0
 62
     5
 63
     7
 74
     1
 91
        4
 64
     7
 65
   257
 75
     7
175
     7
 42
1.0
 92
        8
 66
     7
 43
1.0
 76
     1
 77
     6
 78
     2
 67
     7
 79
     5
170
     0
171
     0
290
     0
174
     0
 93
        1
 44
0.0
173
     0
291
     1
 45
0.0
1001
ACAD
1000
AcDbSavedByObjectVersion
1070
     0
  0
VISUALSTYLE
  5
33
102
{ACAD_REACTORS
330
2A
102
}
330
2A
100
AcDbVisualStyle
  2
Realistic
 70
     8
 71
     2
 72
     2
 73
     0
 90
        0
 40
-0.6
 41
-30.0
 62
     5
 63
     7
 74
     1
 91
        0
 64
     7
 65
   257
 75
     1
175
     1
 42
1.0
 92
        8
 66
     8
 43
1.0
 76
     1
 77
     6
 78
     2
 67
     7
 79
     5
170
     0
171
     0
290
     0
174
     0
 93
       13
 44
0.0
173
     0
291
     0
 45
0.0
1001
ACAD
1000
AcDbSavedByObjectVersion
1070
     0
  0
VISUALSTYLE
  5
37
102
{ACAD_REACTORS
330
2A
102
}
330
2A
100
AcDbVisualStyle
  2
Thicken
 70
    13
 71
     2
 72
     2
 73
     0
 90
        0
 40
-0.6
 41
-30.0
 62
     5
 63
     7
 74
     1
 91
        4
 64
     7
 65
   257
 75
     1
175
     1
 42
1.0
 92
       12
 66
     7
 43
1.0
 76
     1
 77
     6
 78
     2
 67
     7
 79
     5
170
     0
171
     0
290
     0
174
     0
 93
        1
 44
0.0
173
     0
291
     1
 45
0.0
1001
ACAD
1000
AcDbSavedByObjectVersion
1070
     0
  0
DICTIONARYVAR
  5
155
102
{ACAD_REACTORS
330
151
102
}
330
151
100
DictionaryVariables
280
     0
  1
80.000000
  0
DICTIONARYVAR
  5
154
102
{ACAD_REACTORS
330
151
102
}
330
151
100
DictionaryVariables
280
     0
  1
5.000000
  0
ENDSEC
  0
EOF
