  0
SECTION
  2
HEADER
  9
$ACADVER
  1
AC1015
  9
$ACADMAINTVER
 70
     6
  9
$DWGCODEPAGE
  3
ANSI_1252
  9
$INSBASE
 10
0.0
 20
0.0
 30
0.0
  9
$EXTMIN
 10
-72.871132
 20
54.717899
 30
0.0
  9
$EXTMAX
 10
269.865234
 20
283.886566
 30
0.0
  9
$LIMMIN
 10
-72.871132
 20
54.717899
  9
$LIMMAX
 10
269.865234
 20
283.886566
  9
$ORTHOMODE
 70
     0
  9
$REGENMODE
 70
     1
  9
$FILLMODE
 70
     1
  9
$QTEXTMODE
 70
     0
  9
$MIRRTEXT
 70
     1
  9
$LTSCALE
 40
1.0
  9
$ATTMODE
 70
     1
  9
$TEXTSIZE
 40
2.5
  9
$TRACEWID
 40
1.0
  9
$TEXTSTYLE
  7
Standard
  9
$CLAYER
  8
0
  9
$CELTYPE
  6
ByLayer
  9
$CECOLOR
 62
   256
  9
$CELTSCALE
 40
1.0
  9
$DISPSILH
 70
     0
  9
$DIMSCALE
 40
1.0
  9
$DIMASZ
 40
2.5
  9
$DIMEXO
 40
0.625
  9
$DIMDLI
 40
3.75
  9
$DIMRND
 40
0.0
  9
$DIMDLE
 40
0.0
  9
$DIMEXE
 40
1.25
  9
$DIMTP
 40
0.0
  9
$DIMTM
 40
0.0
  9
$DIMTXT
 40
2.5
  9
$DIMCEN
 40
2.5
  9
$DIMTSZ
 40
0.0
  9
$DIMTOL
 70
     0
  9
$DIMLIM
 70
     0
  9
$DIMTIH
 70
     0
  9
$DIMTOH
 70
     0
  9
$DIMSE1
 70
     0
  9
$DIMSE2
 70
     0
  9
$DIMTAD
 70
     1
  9
$DIMZIN
 70
     8
  9
$DIMBLK
  1

  9
$DIMASO
 70
     1
  9
$DIMSHO
 70
     1
  9
$DIMPOST
  1

  9
$DIMAPOST
  1

  9
$DIMALT
 70
     0
  9
$DIMALTD
 70
     3
  9
$DIMALTF
 40
0.03937
  9
$DIMLFAC
 40
1.0
  9
$DIMTOFL
 70
     1
  9
$DIMTVP
 40
0.0
  9
$DIMTIX
 70
     0
  9
$DIMSOXD
 70
     0
  9
$DIMSAH
 70
     0
  9
$DIMBLK1
  1

  9
$DIMBLK2
  1

  9
$DIMSTYLE
  2
ISO-25
  9
$DIMCLRD
 70
     0
  9
$DIMCLRE
 70
     0
  9
$DIMCLRT
 70
     0
  9
$DIMTFAC
 40
1.0
  9
$DIMGAP
 40
0.625
  9
$DIMJUST
 70
     0
  9
$DIMSD1
 70
     0
  9
$DIMSD2
 70
     0
  9
$DIMTOLJ
 70
     0
  9
$DIMTZIN
 70
     8
  9
$DIMALTZ
 70
     0
  9
$DIMALTTZ
 70
     0
  9
$DIMUPT
 70
     0
  9
$DIMDEC
 70
     2
  9
$DIMTDEC
 70
     2
  9
$DIMALTU
 70
     2
  9
$DIMALTTD
 70
     3
  9
$DIMTXSTY
  7
Standard
  9
$DIMAUNIT
 70
     0
  9
$DIMADEC
 70
     0
  9
$DIMALTRND
 40
0.0
  9
$DIMAZIN
 70
     0
  9
$DIMDSEP
 70
    44
  9
$DIMATFIT
 70
     3
  9
$DIMFRAC
 70
     0
  9
$DIMLDRBLK
  1

  9
$DIMLUNIT
 70
     2
  9
$DIMLWD
 70
    -2
  9
$DIMLWE
 70
    -2
  9
$DIMTMOVE
 70
     0
  9
$LUNITS
 70
     2
  9
$LUPREC
 70
     4
  9
$SKETCHINC
 40
1.0
  9
$FILLETRAD
 40
10.0
  9
$AUNITS
 70
     0
  9
$AUPREC
 70
     0
  9
$MENU
  1
.
  9
$ELEVATION
 40
0.0
  9
$PELEVATION
 40
0.0
  9
$THICKNESS
 40
0.0
  9
$LIMCHECK
 70
     0
  9
$CHAMFERA
 40
10.0
  9
$CHAMFERB
 40
10.0
  9
$CHAMFERC
 40
20.0
  9
$CHAMFERD
 40
0.0
  9
$SKPOLY
 70
     0
  9
$TDCREATE
 40
2455572.571030324
  9
$TDUCREATE
 40
2455572.529363657
  9
$TDUPDATE
 40
2455572.571030336
  9
$TDUUPDATE
 40
2455572.529363669
  9
$TDINDWG
 40
0.0000000116
  9
$TDUSRTIMER
 40
0.0000000116
  9
$USRTIMER
 70
     1
  9
$ANGBASE
 50
0.0
  9
$ANGDIR
 70
     0
  9
$PDMODE
 70
     0
  9
$PDSIZE
 40
0.0
  9
$PLINEWID
 40
0.0
  9
$SPLFRAME
 70
     0
  9
$SPLINETYPE
 70
     6
  9
$SPLINESEGS
 70
     8
  9
$HANDSEED
  5
FF
  9
$SURFTAB1
 70
     6
  9
$SURFTAB2
 70
     6
  9
$SURFTYPE
 70
     6
  9
$SURFU
 70
     6
  9
$SURFV
 70
     6
  9
$UCSBASE
  2

  9
$UCSNAME
  2

  9
$UCSORG
 10
0.0
 20
0.0
 30
0.0
  9
$UCSXDIR
 10
1.0
 20
0.0
 30
0.0
  9
$UCSYDIR
 10
0.0
 20
1.0
 30
0.0
  9
$UCSORTHOREF
  2

  9
$UCSORTHOVIEW
 70
     0
  9
$UCSORGTOP
 10
0.0
 20
0.0
 30
0.0
  9
$UCSORGBOTTOM
 10
0.0
 20
0.0
 30
0.0
  9
$UCSORGLEFT
 10
0.0
 20
0.0
 30
0.0
  9
$UCSORGRIGHT
 10
0.0
 20
0.0
 30
0.0
  9
$UCSORGFRONT
 10
0.0
 20
0.0
 30
0.0
  9
$UCSORGBACK
 10
0.0
 20
0.0
 30
0.0
  9
$PUCSBASE
  2

  9
$PUCSNAME
  2

  9
$PUCSORG
 10
0.0
 20
0.0
 30
0.0
  9
$PUCSXDIR
 10
1.0
 20
0.0
 30
0.0
  9
$PUCSYDIR
 10
0.0
 20
1.0
 30
0.0
  9
$PUCSORTHOREF
  2

  9
$PUCSORTHOVIEW
 70
     0
  9
$PUCSORGTOP
 10
0.0
 20
0.0
 30
0.0
  9
$PUCSORGBOTTOM
 10
0.0
 20
0.0
 30
0.0
  9
$PUCSORGLEFT
 10
0.0
 20
0.0
 30
0.0
  9
$PUCSORGRIGHT
 10
0.0
 20
0.0
 30
0.0
  9
$PUCSORGFRONT
 10
0.0
 20
0.0
 30
0.0
  9
$PUCSORGBACK
 10
0.0
 20
0.0
 30
0.0
  9
$USERI1
 70
     0
  9
$USERI2
 70
     0
  9
$USERI3
 70
     0
  9
$USERI4
 70
     0
  9
$USERI5
 70
     0
  9
$USERR1
 40
0.0
  9
$USERR2
 40
0.0
  9
$USERR3
 40
0.0
  9
$USERR4
 40
0.0
  9
$USERR5
 40
0.0
  9
$WORLDVIEW
 70
     1
  9
$SHADEDGE
 70
     3
  9
$SHADEDIF
 70
    70
  9
$TILEMODE
 70
     1
  9
$MAXACTVP
 70
    64
  9
$PINSBASE
 10
0.0
 20
0.0
 30
0.0
  9
$PLIMCHECK
 70
     0
  9
$PEXTMIN
 10
1.000000E+20
 20
1.000000E+20
 30
1.000000E+20
  9
$PEXTMAX
 10
-1.000000E+20
 20
-1.000000E+20
 30
-1.000000E+20
  9
$PLIMMIN
 10
0.0
 20
0.0
  9
$PLIMMAX
 10
420.0
 20
297.0
  9
$UNITMODE
 70
     0
  9
$VISRETAIN
 70
     1
  9
$PLINEGEN
 70
     0
  9
$PSLTSCALE
 70
     1
  9
$TREEDEPTH
 70
  3020
  9
$CMLSTYLE
  2
Standard
  9
$CMLJUST
 70
     0
  9
$CMLSCALE
 40
20.0
  9
$PROXYGRAPHICS
 70
     1
  9
$MEASUREMENT
 70
     1
  9
$CELWEIGHT
370
    -1
  9
$ENDCAPS
280
     0
  9
$JOINSTYLE
280
     0
  9
$LWDISPLAY
290
     0
  9
$INSUNITS
 70
     4
  9
$HYPERLINKBASE
  1

  9
$STYLESHEET
  1

  9
$XEDIT
290
     1
  9
$CEPSNTYPE
380
     0
  9
$PSTYLEMODE
290
     1
  9
$FINGERPRINTGUID
  2
{D503B59C-E51E-4CB7-AF93-BC1A9617C37E}
  9
$VERSIONGUID
  2
{FAEB1C32-E019-11D5-929B-00C0DF256EC4}
  9
$EXTNAMES
290
     1
  9
$PSVPSCALE
 40
0.0
  9
$OLESTARTUP
290
     0
  0
ENDSEC
  0
SECTION
  2
CLASSES
  0
CLASS
  1
ACDBDICTIONARYWDFLT
  2
AcDbDictionaryWithDefault
  3
ObjectDBX Classes
 90
        0
280
     0
281
     0
  0
CLASS
  1
VISUALSTYLE
  2
AcDbVisualStyle
  3
ObjectDBX Classes
 90
     4095
280
     0
281
     0
  0
CLASS
  1
DICTIONARYVAR
  2
AcDbDictionaryVar
  3
ObjectDBX Classes
 90
        0
280
     0
281
     0
  0
CLASS
  1
ACDBPLACEHOLDER
  2
AcDbPlaceHolder
  3
ObjectDBX Classes
 90
        0
280
     0
281
     0
  0
CLASS
  1
LAYOUT
  2
AcDbLayout
  3
ObjectDBX Classes
 90
        0
280
     0
281
     0
  0
ENDSEC
  0
SECTION
  2
TABLES
  0
TABLE
  2
VPORT
  5
8
330
0
100
AcDbSymbolTable
 70
     1
  0
VPORT
  5
29
330
8
100
AcDbSymbolTableRecord
100
AcDbViewportTableRecord
  2
*Active
 70
     0
 10
0.0
 20
0.0
 11
1.0
 21
1.0
 12
344.186916
 22
148.5
 13
0.0
 23
0.0
 14
10.0
 24
10.0
 15
10.0
 25
10.0
 16
0.0
 26
0.0
 36
1.0
 17
0.0
 27
0.0
 37
0.0
 40
297.0
 41
1.972973
 42
50.0
 43
0.0
 44
0.0
 50
0.0
 51
0.0
 71
     0
 72
   100
 73
     1
 74
     3
 75
     0
 76
     0
 77
     0
 78
     0
281
     0
 65
     1
110
0.0
120
0.0
130
0.0
111
1.0
121
0.0
131
0.0
112
0.0
122
1.0
132
0.0
 79
     0
146
0.0
  0
ENDTAB
  0
TABLE
  2
LTYPE
  5
5
330
0
100
AcDbSymbolTable
 70
     1
  0
LTYPE
  5
14
330
5
100
AcDbSymbolTableRecord
100
AcDbLinetypeTableRecord
  2
ByBlock
 70
     0
  3

 72
    65
 73
     0
 40
0.0
  0
LTYPE
  5
15
330
5
100
AcDbSymbolTableRecord
100
AcDbLinetypeTableRecord
  2
ByLayer
 70
     0
  3

 72
    65
 73
     0
 40
0.0
  0
LTYPE
  5
16
330
5
100
AcDbSymbolTableRecord
100
AcDbLinetypeTableRecord
  2
Continuous
 70
     0
  3
Solid line
 72
    65
 73
     0
 40
0.0
  0
ENDTAB
  0
TABLE
  2
LAYER
  5
2
330
0
100
AcDbSymbolTable
 70
     1
  0
LAYER
  5
10
330
2
100
AcDbSymbolTableRecord
100
AcDbLayerTableRecord
  2
0
 70
     0
 62
   106
  6
Continuous
370
     0
390
F
  0
ENDTAB
  0
TABLE
  2
STYLE
  5
3
330
0
100
AcDbSymbolTable
 70
     4
  0
STYLE
  5
11
330
3
100
AcDbSymbolTableRecord
100
AcDbTextStyleTableRecord
  2
Standard
 70
     0
 40
0.0
 41
1.0
 50
0.0
 71
     0
 42
2.5
  3
txt
  4

  0
STYLE
  5
3B
330
3
100
AcDbSymbolTableRecord
100
AcDbTextStyleTableRecord
  2
Default
 70
     0
 40
0.0
 41
1.0
 50
0.0
 71
     0
 42
0.2
  3

  4

1001
ACAD
1000
txt
1071
        0
  0
STYLE
  5
3C
330
3
100
AcDbSymbolTableRecord
100
AcDbTextStyleTableRecord
  2
ISO
 70
     0
 40
0.0
 41
1.0
 50
0.0
 71
     0
 42
0.2
  3

  4

1001
ACAD
1000
txt
1071
        0
  0
STYLE
  5
3D
330
3
100
AcDbSymbolTableRecord
100
AcDbTextStyleTableRecord
  2
GIANLU
 70
     0
 40
0.0
 41
1.0
 50
0.0
 71
     0
 42
0.2
  3

  4

1001
ACAD
1000
Arial
1071
        0
  0
ENDTAB
  0
TABLE
  2
VIEW
  5
6
330
0
100
AcDbSymbolTable
 70
     0
  0
ENDTAB
  0
TABLE
  2
UCS
  5
7
330
0
100
AcDbSymbolTable
 70
     0
  0
ENDTAB
  0
TABLE
  2
APPID
  5
9
330
0
100
AcDbSymbolTable
 70
     1
  0
APPID
  5
12
330
9
100
AcDbSymbolTableRecord
100
AcDbRegAppTableRecord
  2
ACAD
 70
     0
  0
ENDTAB
  0
TABLE
  2
DIMSTYLE
  5
A
330
0
100
AcDbSymbolTable
 70
     4
100
AcDbDimStyleTable
  0
DIMSTYLE
105
27
330
A
100
AcDbSymbolTableRecord
100
AcDbDimStyleTableRecord
  2
ISO-25
 70
     0
 41
2.5
 42
0.625
 43
3.75
 44
1.25
 73
     0
 74
     0
 77
     1
 78
     8
140
2.5
141
2.5
143
0.03937
147
0.625
171
     3
172
     1
271
     2
272
     2
274
     3
278
    44
283
     0
284
     8
340
11
  0
DIMSTYLE
105
3E
330
A
100
AcDbSymbolTableRecord
100
AcDbDimStyleTableRecord
  2
Default
 70
     0
  3
<>
 41
4.375
 42
1.05
 44
2.1
 73
     0
 74
     0
 77
     1
 78
     8
140
3.5
146
0.4
147
1.75
178
     3
271
     2
272
     3
284
     8
340
3B
341
3F
342
3F
  0
DIMSTYLE
105
46
330
A
100
AcDbSymbolTableRecord
100
AcDbDimStyleTableRecord
  2
ISO
 70
     0
  3
<>
 41
4.375
 42
1.05
 44
2.1
 73
     0
 74
     0
 77
     1
 78
     8
140
3.5
146
0.4
147
1.75
178
     3
271
     2
272
     3
284
     8
340
3C
341
3F
342
3F
  0
DIMSTYLE
105
47
330
A
100
AcDbSymbolTableRecord
100
AcDbDimStyleTableRecord
  2
zucchetti_unico
 70
     0
  3
<>
 41
3.0
 42
0.9
 44
1.8
 73
     0
 74
     0
 77
     1
 78
     8
140
3.0
146
0.6
147
1.5
176
   104
177
     3
178
     3
271
     2
272
     2
284
     8
340
3D
  0
ENDTAB
  0
TABLE
  2
BLOCK_RECORD
  5
1
330
0
100
AcDbSymbolTable
 70
     7
  0
BLOCK_RECORD
  5
1F
330
1
100
AcDbSymbolTableRecord
100
AcDbBlockTableRecord
  2
*Model_Space
340
22
  0
BLOCK_RECORD
  5
1B
330
1
100
AcDbSymbolTableRecord
100
AcDbBlockTableRecord
  2
*Paper_Space
340
1E
  0
BLOCK_RECORD
  5
23
330
1
100
AcDbSymbolTableRecord
100
AcDbBlockTableRecord
  2
*Paper_Space0
340
26
  0
BLOCK_RECORD
  5
3F
330
1
100
AcDbSymbolTableRecord
100
AcDbBlockTableRecord
  2
_CLOSED
340
0
  0
BLOCK_RECORD
  5
48
330
1
100
AcDbSymbolTableRecord
100
AcDbBlockTableRecord
  2
a
340
0
102
{BLKREFS
331
64
102
}
  0
BLOCK_RECORD
  5
65
330
1
100
AcDbSymbolTableRecord
100
AcDbBlockTableRecord
  2
b
340
0
102
{BLKREFS
331
85
102
}
  0
BLOCK_RECORD
  5
86
330
1
100
AcDbSymbolTableRecord
100
AcDbBlockTableRecord
  2
c
340
0
102
{BLKREFS
331
A8
102
}
  0
BLOCK_RECORD
  5
A9
330
1
100
AcDbSymbolTableRecord
100
AcDbBlockTableRecord
  2
d
340
0
102
{BLKREFS
331
D6
102
}
  0
BLOCK_RECORD
  5
D7
330
1
100
AcDbSymbolTableRecord
100
AcDbBlockTableRecord
  2
e
340
0
102
{BLKREFS
331
F9
102
}
  0
ENDTAB
  0
ENDSEC
  0
SECTION
  2
BLOCKS
  0
BLOCK
  5
20
330
1F
100
AcDbEntity
  8
0
100
AcDbBlockBegin
  2
*Model_Space
 70
     0
 10
0.0
 20
0.0
 30
0.0
  3
*Model_Space
  1

  0
ENDBLK
  5
21
330
1F
100
AcDbEntity
  8
0
100
AcDbBlockEnd
  0
BLOCK
  5
1C
330
1B
100
AcDbEntity
 67
     1
  8
0
100
AcDbBlockBegin
  2
*Paper_Space
 70
     0
 10
0.0
 20
0.0
 30
0.0
  3
*Paper_Space
  1

  0
ENDBLK
  5
1D
330
1B
100
AcDbEntity
 67
     1
  8
0
100
AcDbBlockEnd
  0
BLOCK
  5
24
330
23
100
AcDbEntity
  8
0
100
AcDbBlockBegin
  2
*Paper_Space0
 70
     0
 10
0.0
 20
0.0
 30
0.0
  3
*Paper_Space0
  1

  0
ENDBLK
  5
25
330
23
100
AcDbEntity
  8
0
100
AcDbBlockEnd
  0
BLOCK
  5
40
330
3F
100
AcDbEntity
  8
0
100
AcDbBlockBegin
  2
_CLOSED
 70
     0
 10
0.0
 20
0.0
 30
0.0
  3
_CLOSED
  1

  0
LINE
  5
42
330
3F
100
AcDbEntity
  8
0
  6
ByBlock
 62
     0
370
    -2
100
AcDbLine
 10
-1.0
 20
0.166667
 30
0.0
 11
0.0
 21
0.0
 31
0.0
  0
LINE
  5
43
330
3F
100
AcDbEntity
  8
0
  6
ByBlock
 62
     0
370
    -2
100
AcDbLine
 10
0.0
 20
0.0
 30
0.0
 11
-1.0
 21
-0.166667
 31
0.0
  0
LINE
  5
44
330
3F
100
AcDbEntity
  8
0
  6
ByBlock
 62
     0
370
    -2
100
AcDbLine
 10
-1.0
 20
0.166667
 30
0.0
 11
-1.0
 21
-0.166667
 31
0.0
  0
LINE
  5
45
330
3F
100
AcDbEntity
  8
0
  6
ByBlock
 62
     0
370
    -2
100
AcDbLine
 10
0.0
 20
0.0
 30
0.0
 11
-1.0
 21
0.0
 31
0.0
  0
ENDBLK
  5
41
330
3F
100
AcDbEntity
  8
0
100
AcDbBlockEnd
  0
BLOCK
  5
62
330
48
100
AcDbEntity
  8
0
100
AcDbBlockBegin
  2
a
 70
     0
 10
63.374462
 20
65.106087
 30
0.0
  3
a
  1

  0
LINE
  5
49
330
48
100
AcDbEntity
  8
0
  6
Continuous
 62
     0
370
    30
100
AcDbLine
 10
119.745918
 20
222.63536
 30
0.0
 11
119.745918
 21
274.13536
 31
0.0
  0
ARC
  5
4A
330
48
100
AcDbEntity
  8
0
  6
Continuous
 62
     0
370
    30
100
AcDbCircle
 10
113.745918
 20
274.13536
 30
0.0
 40
6.0
100
AcDbArc
 50
0.0
 51
90.0
  0
LINE
  5
4B
330
48
100
AcDbEntity
  8
0
  6
Continuous
 62
     0
370
    30
100
AcDbLine
 10
81.50236
 20
280.13536
 30
0.0
 11
62.245918
 21
280.13536
 31
0.0
  0
LINE
  5
4C
330
48
100
AcDbEntity
  8
0
  6
Continuous
 62
     0
370
    30
100
AcDbLine
 10
113.745918
 20
280.13536
 30
0.0
 11
94.50236
 21
280.13536
 31
0.0
  0
ARC
  5
4D
330
48
100
AcDbEntity
  8
0
  6
Continuous
 62
     0
370
    30
100
AcDbCircle
 10
62.245918
 20
274.13536
 30
0.0
 40
6.0
100
AcDbArc
 50
90.0
 51
180.0
  0
LINE
  5
4E
330
48
100
AcDbEntity
  8
0
  6
Continuous
 62
     0
370
    30
100
AcDbLine
 10
56.245918
 20
274.13536
 30
0.0
 11
56.245918
 21
222.63536
 31
0.0
  0
ARC
  5
4F
330
48
100
AcDbEntity
  8
0
  6
Continuous
 62
     0
370
    30
100
AcDbCircle
 10
62.245918
 20
222.63536
 30
0.0
 40
6.0
100
AcDbArc
 50
180.0
 51
270.0
  0
LINE
  5
50
330
48
100
AcDbEntity
  8
0
  6
Continuous
 62
     0
370
    30
100
AcDbLine
 10
62.245918
 20
216.63536
 30
0.0
 11
113.745918
 21
216.63536
 31
0.0
  0
ARC
  5
51
330
48
100
AcDbEntity
  8
0
  6
Continuous
 62
     0
370
    30
100
AcDbCircle
 10
113.745918
 20
222.63536
 30
0.0
 40
6.0
100
AcDbArc
 50
270.0
 51
0.0
  0
LWPOLYLINE
  5
52
330
48
100
AcDbEntity
  8
0
  6
Continuous
 62
     0
370
     0
100
AcDbPolyline
 90
       12
 70
     0
 43
0.0
 10
81.500183
 20
269.410492
 10
81.558266
 20
269.457123
 10
81.731888
 20
269.593201
 10
82.018661
 20
269.808167
 10
82.416115
 20
270.08667
 10
82.920891
 20
270.407623
 10
83.529427
 20
270.748779
 10
84.239502
 20
271.087189
 10
85.051003
 20
271.397888
 10
85.957809
 20
271.652771
 10
86.94075
 20
271.82312
 10
88.000687
 20
271.885376
  0
LWPOLYLINE
  5
53
330
48
100
AcDbEntity
  8
0
  6
Continuous
 62
     0
370
     0
100
AcDbPolyline
 90
       12
 70
     0
 43
0.0
 10
88.000687
 20
271.885376
 10
89.028473
 20
271.826141
 10
90.013428
 20
271.658691
 10
90.923012
 20
271.405792
 10
91.737411
 20
271.096069
 10
92.450577
 20
270.757812
 10
93.062241
 20
270.416107
 10
93.570229
 20
270.093964
 10
93.971001
 20
269.81366
 10
94.261192
 20
269.596405
 10
94.438354
 20
269.457611
 10
94.500137
 20
269.407928
  0
LINE
  5
54
330
48
100
AcDbEntity
  8
0
  6
Continuous
 62
     0
370
     0
100
AcDbLine
 10
88.00302
 20
283.385363
 30
0.0
 11
81.50302
 21
283.386682
 31
0.0
  0
LINE
  5
55
330
48
100
AcDbEntity
  8
0
  6
Continuous
 62
     0
370
     0
100
AcDbLine
 10
94.50302
 20
283.384044
 30
0.0
 11
88.00302
 21
283.385363
 31
0.0
  0
LINE
  5
56
330
48
100
AcDbEntity
  8
0
  6
Continuous
 62
     0
370
    30
100
AcDbLine
 10
94.003121
 20
283.884145
 30
0.0
 11
88.003121
 21
283.885363
 31
0.0
  0
LINE
  5
57
330
48
100
AcDbEntity
  8
0
  6
Continuous
 62
     0
370
    30
100
AcDbLine
 10
88.003121
 20
283.885363
 30
0.0
 11
82.003121
 21
283.88658
 31
0.0
  0
ARC
  5
58
330
48
100
AcDbEntity
  8
0
  6
Continuous
 62
     0
370
    30
100
AcDbCircle
 10
87.995918
 20
248.385363
 30
0.0
 40
19.50000000000001
100
AcDbArc
 50
89.988375
 51
269.988375
  0
ARC
  5
59
330
48
100
AcDbEntity
  8
0
  6
Continuous
 62
     0
370
    30
100
AcDbCircle
 10
87.995918
 20
248.385363
 30
0.0
 40
19.50000000000001
100
AcDbArc
 50
269.988375
 51
89.988375
  0
ARC
  5
5A
330
48
100
AcDbEntity
  8
0
  6
Continuous
 62
     0
370
     0
100
AcDbCircle
 10
87.995918
 20
248.385363
 30
0.0
 40
19.00000000000002
100
AcDbArc
 50
269.988375
 51
89.988375
  0
ARC
  5
5B
330
48
100
AcDbEntity
  8
0
  6
Continuous
 62
     0
370
     0
100
AcDbCircle
 10
87.995918
 20
248.385363
 30
0.0
 40
19.00000000000002
100
AcDbArc
 50
89.988375
 51
269.988375
  0
ARC
  5
5C
330
48
100
AcDbEntity
  8
0
  6
Continuous
 62
     0
370
    30
100
AcDbCircle
 10
82.003023
 20
283.386577
 30
0.0
 40
0.5000027447898381
100
AcDbArc
 50
89.990039
 51
179.98806
  0
ARC
  5
5D
330
48
100
AcDbEntity
  8
0
  6
Continuous
 62
     0
370
    30
100
AcDbCircle
 10
94.003017
 20
283.384143
 30
0.0
 40
0.5000027443664472
100
AcDbArc
 50
359.988689
 51
89.986775
  0
LINE
  5
5E
330
48
100
AcDbEntity
  8
0
  6
Continuous
 62
     0
370
    30
100
AcDbLine
 10
94.500184
 20
269.407723
 30
0.0
 11
94.50302
 21
283.384044
 31
0.0
  0
LINE
  5
5F
330
48
100
AcDbEntity
  8
0
  6
Continuous
 62
     0
370
    30
100
AcDbLine
 10
81.500184
 20
269.410361
 30
0.0
 11
81.50302
 21
283.386682
 31
0.0
  0
LWPOLYLINE
  5
60
330
48
100
AcDbEntity
  8
0
  6
Continuous
 62
     0
370
    30
100
AcDbPolyline
 90
        7
 70
     0
 43
0.0
 10
94.500137
 20
269.407928
 10
94.567337
 20
268.677612
 10
94.766541
 20
267.971771
 10
95.091362
 20
267.314209
 10
95.530792
 20
266.72702
 10
96.070099
 20
266.230011
 10
96.712128
 20
265.828979
  0
LWPOLYLINE
  5
61
330
48
100
AcDbEntity
  8
0
  6
Continuous
 62
     0
370
    30
100
AcDbPolyline
 90
       11
 70
     0
 43
0.0
 10
81.500183
 20
269.410492
 10
81.475388
 20
268.967682
 10
81.401863
 20
268.530121
 10
81.280365
 20
268.103546
 10
81.112297
 20
267.693024
 10
80.899857
 20
267.30365
 10
80.645561
 20
266.940186
 10
80.352638
 20
266.607086
 10
80.024559
 20
266.308563
 10
79.665459
 20
266.048157
 10
79.286713
 20
265.832428
  0
ENDBLK
  5
63
330
48
100
AcDbEntity
  8
0
100
AcDbBlockEnd
  0
BLOCK
  5
83
330
65
100
AcDbEntity
  8
0
100
AcDbBlockBegin
  2
b
 70
     0
 10
63.374462
 20
65.106087
 30
0.0
  3
b
  1

  0
LINE
  5
66
330
65
100
AcDbEntity
  8
0
  6
Continuous
 62
     0
370
    30
100
AcDbLine
 10
113.745918
 20
114.020621
 30
0.0
 11
119.745918
 21
114.020621
 31
0.0
  0
LINE
  5
67
330
65
100
AcDbEntity
  8
0
  6
Continuous
 62
     0
370
    30
100
AcDbLine
 10
113.745918
 20
114.020621
 30
0.0
 11
62.245918
 21
114.020621
 31
0.0
  0
LINE
  5
68
330
65
100
AcDbEntity
  8
0
  6
Continuous
 62
     0
370
    30
100
AcDbLine
 10
56.245918
 20
114.020621
 30
0.0
 11
62.245918
 21
114.020621
 31
0.0
  0
LINE
  5
69
330
65
100
AcDbEntity
  8
0
  6
Continuous
 62
     0
370
    30
100
AcDbLine
 10
56.245918
 20
123.020621
 30
0.0
 11
62.245918
 21
123.020621
 31
0.0
  0
LINE
  5
6A
330
65
100
AcDbEntity
  8
0
  6
Continuous
 62
     0
370
    30
100
AcDbLine
 10
113.745918
 20
123.020621
 30
0.0
 11
62.245918
 21
123.020621
 31
0.0
  0
LINE
  5
6B
330
65
100
AcDbEntity
  8
0
  6
Continuous
 62
     0
370
    30
100
AcDbLine
 10
113.745918
 20
123.020621
 30
0.0
 11
119.745918
 21
123.020621
 31
0.0
  0
LINE
  5
6C
330
65
100
AcDbEntity
  8
0
  6
Continuous
 62
     0
370
    30
100
AcDbLine
 10
56.245918
 20
123.020621
 30
0.0
 11
56.245918
 21
114.020621
 31
0.0
  0
LINE
  5
6D
330
65
100
AcDbEntity
  8
0
  6
Continuous
 62
     0
370
     0
100
AcDbLine
 10
62.245918
 20
123.020621
 30
0.0
 11
62.245918
 21
114.020621
 31
0.0
  0
LINE
  5
6E
330
65
100
AcDbEntity
  8
0
  6
Continuous
 62
     0
370
     0
100
AcDbLine
 10
113.745918
 20
123.020621
 30
0.0
 11
113.745918
 21
114.020621
 31
0.0
  0
LINE
  5
6F
330
65
100
AcDbEntity
  8
0
  6
Continuous
 62
     0
370
    30
100
AcDbLine
 10
119.745918
 20
123.020621
 30
0.0
 11
119.745918
 21
114.020621
 31
0.0
  0
ARC
  5
70
330
65
100
AcDbEntity
  8
0
  6
Continuous
 62
     0
370
    30
100
AcDbCircle
 10
88.000184
 20
85.22062
 30
0.0
 40
6.499999837078921
100
AcDbArc
 50
89.995492
 51
270.004432
  0
LWPOLYLINE
  5
71
330
65
100
AcDbEntity
  8
0
  6
Continuous
 62
     0
370
     0
100
AcDbPolyline
 90
       30
 70
     0
 43
0.0
 10
87.999878
 20
95.720612
 10
89.052216
 20
95.6436
 10
90.077629
 20
95.417587
 10
91.053749
 20
95.053963
 10
91.96553
 20
94.569572
 10
92.803894
 20
93.980324
 10
93.563927
 20
93.300766
 10
94.244179
 20
92.54303
 10
94.844238
 20
91.717567
 10
95.363632
 20
90.832314
 10
95.801453
 20
89.894691
 10
96.156059
 20
88.911964
 10
96.425476
 20
87.892105
 10
96.607368
 20
86.844139
 10
96.699852
 20
85.77829
 10
96.70163
 20
84.706177
 10
96.612762
 20
83.639793
 10
96.434708
 20
82.591339
 10
96.168869
 20
81.570297
 10
95.816582
 20
80.58374
 10
95.379593
 20
79.639923
 10
94.859955
 20
78.748077
 10
94.25975
 20
77.917465
 10
93.580757
 20
77.157265
 10
92.822922
 20
76.476303
 10
91.986626
 20
75.884659
 10
91.076263
 20
75.3974
 10
90.101288
 20
75.030914
 10
89.0783
 20
74.801605
 10
87.999878
 20
74.720619
  0
LWPOLYLINE
  5
72
330
65
100
AcDbEntity
  8
0
  6
Continuous
 62
     0
370
     0
100
AcDbPolyline
 90
       30
 70
     0
 43
0.0
 10
87.999878
 20
74.720619
 10
86.949257
 20
74.797256
 10
85.925133
 20
75.022781
 10
84.94854
 20
75.38591
 10
84.036278
 20
75.87027
 10
83.197929
 20
76.459427
 10
82.437828
 20
77.138184
 10
81.756538
 20
77.896385
 10
81.154091
 20
78.725266
 10
80.63221
 20
79.615631
 10
80.192947
 20
80.55822
 10
79.838326
 20
81.543793
 10
79.570099
 20
82.564049
 10
79.389648
 20
83.611931
 10
79.298401
 20
84.678047
 10
79.297791
 20
85.750191
 10
79.387932
 20
86.816376
 10
79.567566
 20
87.865013
 10
79.834801
 20
88.885788
 10
80.187286
 20
89.869568
 10
80.623032
 20
90.808418
 10
81.140404
 20
91.69519
 10
81.738525
 20
92.522392
 10
82.416924
 20
93.281967
 10
83.174988
 20
93.96373
 10
84.011215
 20
94.555801
 10
84.921165
 20
95.043213
 10
85.896088
 20
95.409927
 10
86.920631
 20
95.639542
 10
87.999878
 20
95.720612
  0
ARC
  5
73
330
65
100
AcDbEntity
  8
0
  6
Continuous
 62
     0
370
    30
100
AcDbCircle
 10
88.00302
 20
85.220619
 30
0.0
 40
6.500000000000002
100
AcDbArc
 50
90.000001
 51
269.999999
  0
ARC
  5
74
330
65
100
AcDbEntity
  8
0
  6
Continuous
 62
     0
370
    30
100
AcDbCircle
 10
88.00302
 20
85.220619
 30
0.0
 40
6.500000000000002
100
AcDbArc
 50
270.000001
 51
89.999999
  0
ARC
  5
75
330
65
100
AcDbEntity
  8
0
  6
Continuous
 62
     0
370
     0
100
AcDbCircle
 10
88.003121
 20
85.220619
 30
0.0
 40
5.999999999999994
100
AcDbArc
 50
270.000001
 51
89.999999
  0
ARC
  5
76
330
65
100
AcDbEntity
  8
0
  6
Continuous
 62
     0
370
     0
100
AcDbCircle
 10
88.003121
 20
85.220619
 30
0.0
 40
5.999999999999994
100
AcDbArc
 50
90.000001
 51
269.999999
  0
LINE
  5
77
330
65
100
AcDbEntity
  8
0
  6
Continuous
 62
     0
370
     0
100
AcDbLine
 10
68.495918
 20
70.720621
 30
0.0
 11
87.999875
 21
70.720621
 31
0.0
  0
LINE
  5
78
330
65
100
AcDbEntity
  8
0
  6
Continuous
 62
     0
370
     0
100
AcDbLine
 10
87.999875
 20
70.720621
 30
0.0
 11
107.495918
 21
70.720621
 31
0.0
  0
LINE
  5
79
330
65
100
AcDbEntity
  8
0
  6
Continuous
 62
     0
370
    30
100
AcDbLine
 10
107.495918
 20
112.220621
 30
0.0
 11
87.999875
 21
112.220621
 31
0.0
  0
LINE
  5
7A
330
65
100
AcDbEntity
  8
0
  6
Continuous
 62
     0
370
    30
100
AcDbLine
 10
87.999875
 20
112.220621
 30
0.0
 11
68.495918
 21
112.220621
 31
0.0
  0
LINE
  5
7B
330
65
100
AcDbEntity
  8
0
  6
Continuous
 62
     0
370
    30
100
AcDbLine
 10
87.999773
 20
70.22062
 30
0.0
 11
106.995918
 21
70.220621
 31
0.0
  0
LINE
  5
7C
330
65
100
AcDbEntity
  8
0
  6
Continuous
 62
     0
370
    30
100
AcDbLine
 10
68.995919
 20
70.220621
 30
0.0
 11
87.999773
 21
70.22062
 31
0.0
  0
ARC
  5
7D
330
65
100
AcDbEntity
  8
0
  6
Continuous
 62
     0
370
    30
100
AcDbCircle
 10
68.995921
 20
70.720624
 30
0.0
 40
0.5000027564821923
100
AcDbArc
 50
180.000316
 51
269.995495
  0
ARC
  5
7E
330
65
100
AcDbEntity
  8
0
  6
Continuous
 62
     0
370
    30
100
AcDbCircle
 10
106.995916
 20
70.720624
 30
0.0
 40
0.500002756474125
100
AcDbArc
 50
270.004504
 51
359.999684
  0
LINE
  5
7F
330
65
100
AcDbEntity
  8
0
  6
Continuous
 62
     0
370
    30
100
AcDbLine
 10
107.495918
 20
112.220621
 30
0.0
 11
107.495918
 21
70.720621
 31
0.0
  0
LINE
  5
80
330
65
100
AcDbEntity
  8
0
  6
Continuous
 62
     0
370
    30
100
AcDbLine
 10
68.495918
 20
112.220621
 30
0.0
 11
68.495918
 21
70.720621
 31
0.0
  0
LINE
  5
81
330
65
100
AcDbEntity
  8
0
  6
Continuous
 62
     0
370
    30
100
AcDbLine
 10
101.848441
 20
112.220621
 30
0.0
 11
101.848441
 21
114.020622
 31
0.0
  0
LINE
  5
82
330
65
100
AcDbEntity
  8
0
  6
Continuous
 62
     0
370
    30
100
AcDbLine
 10
74.143395
 20
112.220621
 30
0.0
 11
74.143395
 21
114.020622
 31
0.0
  0
ENDBLK
  5
84
330
65
100
AcDbEntity
  8
0
100
AcDbBlockEnd
  0
BLOCK
  5
A6
330
86
100
AcDbEntity
  8
0
100
AcDbBlockBegin
  2
c
 70
     0
 10
6.159824
 20
65.106094
 30
0.0
  3
c
  1

  0
LINE
  5
87
330
86
100
AcDbEntity
  8
0
  6
Continuous
 62
     0
370
    30
100
AcDbLine
 10
213.834467
 20
274.135368
 30
0.0
 11
213.834467
 21
280.135368
 31
0.0
  0
LINE
  5
88
330
86
100
AcDbEntity
  8
0
  6
Continuous
 62
     0
370
    30
100
AcDbLine
 10
213.834467
 20
274.135368
 30
0.0
 11
213.834467
 21
222.635368
 31
0.0
  0
LINE
  5
89
330
86
100
AcDbEntity
  8
0
  6
Continuous
 62
     0
370
    30
100
AcDbLine
 10
213.834467
 20
216.635368
 30
0.0
 11
213.834467
 21
222.635368
 31
0.0
  0
LINE
  5
8A
330
86
100
AcDbEntity
  8
0
  6
Continuous
 62
     0
370
    30
100
AcDbLine
 10
204.834467
 20
216.635368
 30
0.0
 11
213.834467
 21
216.635368
 31
0.0
  0
LINE
  5
8B
330
86
100
AcDbEntity
  8
0
  6
Continuous
 62
     0
370
     0
100
AcDbLine
 10
204.834467
 20
222.635368
 30
0.0
 11
213.834467
 21
222.635368
 31
0.0
  0
LINE
  5
8C
330
86
100
AcDbEntity
  8
0
  6
Continuous
 62
     0
370
    30
100
AcDbLine
 10
204.834467
 20
216.635368
 30
0.0
 11
204.834467
 21
222.635368
 31
0.0
  0
LINE
  5
8D
330
86
100
AcDbEntity
  8
0
  6
Continuous
 62
     0
370
    30
100
AcDbLine
 10
204.834467
 20
274.135368
 30
0.0
 11
204.834467
 21
222.635368
 31
0.0
  0
LINE
  5
8E
330
86
100
AcDbEntity
  8
0
  6
Continuous
 62
     0
370
    30
100
AcDbLine
 10
204.834467
 20
274.135368
 30
0.0
 11
204.834467
 21
280.135368
 31
0.0
  0
LINE
  5
8F
330
86
100
AcDbEntity
  8
0
  6
Continuous
 62
     0
370
     0
100
AcDbLine
 10
204.834467
 20
274.135368
 30
0.0
 11
213.834467
 21
274.135368
 31
0.0
  0
LINE
  5
90
330
86
100
AcDbEntity
  8
0
  6
Continuous
 62
     0
370
    30
100
AcDbLine
 10
204.834467
 20
280.135368
 30
0.0
 11
213.834467
 21
280.135368
 31
0.0
  0
ARC
  5
91
330
86
100
AcDbEntity
  8
0
  6
Continuous
 62
     0
370
    30
100
AcDbCircle
 10
253.159399
 20
271.890333
 30
0.0
 40
4.024935199162495
100
AcDbArc
 50
180.070641
 51
196.713695
  0
LWPOLYLINE
  5
92
330
86
100
AcDbEntity
  8
0
  6
Continuous
 62
     0
370
     0
100
AcDbPolyline
 90
       26
 70
     0
 43
0.0
 10
236.13446
 20
271.885376
 10
236.198502
 20
271.839478
 10
236.385223
 20
271.70755
 10
236.68222
 20
271.50412
 10
237.073608
 20
271.248505
 10
237.544373
 20
270.960693
 10
238.082047
 20
270.659149
 10
238.67662
 20
270.36087
 10
239.320221
 20
270.081299
 10
240.005692
 20
269.83493
 10
240.725983
 20
269.635315
 10
241.472748
 20
269.49408
 10
242.236526
 20
269.42038
 10
243.006302
 20
269.419159
 10
243.770493
 20
269.490448
 10
244.517593
 20
269.629272
 10
245.239487
 20
269.827454
 10
245.92897
 20
270.074005
 10
246.577316
 20
270.354279
 10
247.175552
 20
270.653076
 10
247.714798
 20
270.954865
 10
248.1866
 20
271.243042
 10
248.579758
 20
271.49942
 10
248.878845
 20
271.704102
 10
249.067917
 20
271.837708
 10
249.13446
 20
271.885376
  0
LWPOLYLINE
  5
93
330
86
100
AcDbEntity
  8
0
  6
Continuous
 62
     0
370
     0
100
AcDbPolyline
 90
       30
 70
     0
 43
0.0
 10
253.13446
 20
267.885376
 10
253.057693
 20
267.857178
 10
252.831787
 20
267.774841
 10
252.468063
 20
267.645081
 10
251.982956
 20
267.47821
 10
251.392914
 20
267.284821
 10
250.713165
 20
267.075317
 10
249.953888
 20
266.858978
 10
249.123871
 20
266.644653
 10
248.232315
 20
266.440521
 10
247.288528
 20
266.254822
 10
246.301758
 20
266.095642
 10
245.280304
 20
265.96991
 10
244.231262
 20
265.882751
 10
243.164093
 20
265.838043
 10
242.091019
 20
265.838287
 10
241.024078
 20
265.883545
 10
239.974869
 20
265.971436
 10
238.953705
 20
266.097687
 10
237.969727
 20
266.2565
 10
237.030884
 20
266.441193
 10
236.144348
 20
266.644379
 10
235.317612
 20
266.858246
 10
234.558792
 20
267.074524
 10
233.878128
 20
267.284241
 10
233.287598
 20
267.477844
 10
232.802246
 20
267.644775
 10
232.438187
 20
267.774506
 10
232.211807
 20
267.856934
 10
232.134476
 20
267.885376
  0
LINE
  5
94
330
86
100
AcDbEntity
  8
0
  6
Continuous
 62
     0
370
    30
100
AcDbLine
 10
249.134467
 20
271.885371
 30
0.0
 11
249.134467
 21
283.38537
 31
0.0
  0
ELLIPSE
  5
95
330
86
100
AcDbEntity
  8
0
  6
Continuous
 62
     0
370
     0
100
AcDbEllipse
 10
242.634467
 20
283.38537
 30
0.0
 11
6.5
 21
5.764751237764442E-11
 31
0.0
210
0.0
220
0.0
230
1.0
 40
0.000203
 41
6.283185263468197
 42
9.424777917057991
  0
ARC
  5
96
330
86
100
AcDbEntity
  8
0
  6
Continuous
 62
     0
370
     0
100
AcDbCircle
 10
242.634467
 20
-14502.044132
 30
0.0
 40
14785.93072010508
100
AcDbArc
 50
89.97675
 51
90.02325
  0
LINE
  5
97
330
86
100
AcDbEntity
  8
0
  6
Continuous
 62
     0
370
    30
100
AcDbLine
 10
215.634467
 20
228.885371
 30
0.0
 11
257.134467
 21
228.885371
 31
0.0
  0
LINE
  5
98
330
86
100
AcDbEntity
  8
0
  6
Continuous
 62
     0
370
     0
100
AcDbLine
 10
257.134467
 20
228.885371
 30
0.0
 11
257.134467
 21
267.885371
 31
0.0
  0
LINE
  5
99
330
86
100
AcDbEntity
  8
0
  6
Continuous
 62
     0
370
    30
100
AcDbLine
 10
215.634467
 20
267.885371
 30
0.0
 11
215.634467
 21
228.885371
 31
0.0
  0
LINE
  5
9A
330
86
100
AcDbEntity
  8
0
  6
Continuous
 62
     0
370
    30
100
AcDbLine
 10
257.634467
 20
229.385371
 30
0.0
 11
257.634467
 21
267.385371
 31
0.0
  0
ARC
  5
9B
330
86
100
AcDbEntity
  8
0
  6
Continuous
 62
     0
370
    30
100
AcDbCircle
 10
257.134467
 20
229.385371
 30
0.0
 40
0.4999999948479613
100
AcDbArc
 50
269.999999
 51
359.999999
  0
ARC
  5
9C
330
86
100
AcDbEntity
  8
0
  6
Continuous
 62
     0
370
    30
100
AcDbCircle
 10
248.634467
 20
283.38537
 30
0.0
 40
0.4999999948588646
100
AcDbArc
 50
0.000001
 51
89.999919
  0
LWPOLYLINE
  5
9D
330
86
100
AcDbEntity
  8
0
  6
Continuous
 62
     0
370
    30
100
AcDbPolyline
 90
       19
 70
     0
 43
0.0
 10
236.13446
 20
283.385376
 10
236.166168
 20
283.560486
 10
236.257233
 20
283.713531
 10
236.396118
 20
283.82489
 10
236.565201
 20
283.880493
 10
236.632584
 20
283.885376
 10
236.641769
 20
283.885437
 10
236.654968
 20
283.885468
 10
236.673126
 20
283.885498
 10
236.696442
 20
283.885559
 10
236.72496
 20
283.88559
 10
236.758667
 20
283.88562
 10
236.797546
 20
283.885651
 10
236.841537
 20
283.885681
 10
236.890762
 20
283.885712
 10
236.945053
 20
283.885742
 10
237.004517
 20
283.885803
 10
237.067215
 20
283.885834
 10
237.141235
 20
283.885864
  0
ARC
  5
9E
330
86
100
AcDbEntity
  8
0
  6
Continuous
 62
     0
370
    30
100
AcDbCircle
 10
257.134464
 20
267.385368
 30
0.0
 40
0.5000026977414832
100
AcDbArc
 50
0.000325
 51
89.999691
  0
LINE
  5
9F
330
86
100
AcDbEntity
  8
0
  6
Continuous
 62
     0
370
    30
100
AcDbLine
 10
215.634467
 20
267.885371
 30
0.0
 11
232.13452
 21
267.885371
 31
0.0
  0
LINE
  5
A0
330
86
100
AcDbEntity
  8
0
  6
Continuous
 62
     0
370
    30
100
AcDbLine
 10
253.134421
 20
267.885371
 30
0.0
 11
257.134467
 21
267.885371
 31
0.0
  0
LINE
  5
A1
330
86
100
AcDbEntity
  8
0
  6
Continuous
 62
     0
370
    30
100
AcDbLine
 10
236.134467
 20
271.885371
 30
0.0
 11
236.134467
 21
283.38537
 31
0.0
  0
LWPOLYLINE
  5
A2
330
86
100
AcDbEntity
  8
0
  6
Continuous
 62
     0
370
    30
100
AcDbPolyline
 90
        9
 70
     0
 43
0.0
 10
253.13446
 20
267.885376
 10
252.510361
 20
267.934845
 10
251.901337
 20
268.080444
 10
251.322617
 20
268.319275
 10
250.788376
 20
268.645782
 10
250.311493
 20
269.051514
 10
249.903961
 20
269.526825
 10
249.5755
 20
270.059814
 10
249.304504
 20
270.732819
  0
ARC
  5
A3
330
86
100
AcDbEntity
  8
0
  6
Continuous
 62
     0
370
    30
100
AcDbCircle
 10
232.134449
 20
271.885383
 30
0.0
 40
4.000018817084165
100
AcDbArc
 50
270.000363
 51
359.999829
  0
LINE
  5
A4
330
86
100
AcDbEntity
  8
0
  6
Continuous
 62
     0
370
    30
100
AcDbLine
 10
215.634467
 20
234.532845
 30
0.0
 11
213.834466
 21
234.532845
 31
0.0
  0
LINE
  5
A5
330
86
100
AcDbEntity
  8
0
  6
Continuous
 62
     0
370
    30
100
AcDbLine
 10
215.634467
 20
262.237891
 30
0.0
 11
213.834466
 21
262.237891
 31
0.0
  0
ENDBLK
  5
A7
330
86
100
AcDbEntity
  8
0
100
AcDbBlockEnd
  0
BLOCK
  5
D4
330
A9
100
AcDbEntity
  8
0
100
AcDbBlockBegin
  2
d
 70
     0
 10
25.993664
 20
59.141682
 30
0.0
  3
d
  1

  0
LINE
  5
AA
330
A9
100
AcDbEntity
  8
0
  6
Continuous
 62
     0
370
    30
100
AcDbLine
 10
263.501274
 20
83.837345
 30
0.0
 11
263.493884
 21
120.258568
 31
0.0
  0
ELLIPSE
  5
AB
330
A9
100
AcDbEntity
  8
0
  6
Continuous
 62
     0
370
    30
100
AcDbEllipse
 10
259.251244
 20
123.257707
 30
0.0
 11
-3.464101663552493
 21
4.898979451331966
 31
0.0
210
0.0
220
0.0
230
-1.0
 40
0.5
 41
0.9551137153678775
 42
2.525910042162775
  0
LINE
  5
AC
330
A9
100
AcDbEntity
  8
0
  6
Continuous
 62
     0
370
    30
100
AcDbLine
 10
259.250383
 20
127.500956
 30
0.0
 11
222.834384
 21
153.243566
 31
0.0
  0
ELLIPSE
  5
AD
330
A9
100
AcDbEntity
  8
0
  6
Continuous
 62
     0
370
    30
100
AcDbEllipse
 10
222.835245
 20
149.000317
 30
0.0
 11
-3.464101663552493
 21
4.898979451331966
 31
0.0
210
0.0
220
0.0
230
-1.0
 40
0.5
 41
5.667502695752566
 42
7.238299022547462
  0
LINE
  5
AE
330
A9
100
AcDbEntity
  8
0
  6
Continuous
 62
     0
370
    30
100
AcDbLine
 10
218.592604
 20
151.999456
 30
0.0
 11
218.596508
 21
132.760804
 31
0.0
  0
LINE
  5
AF
330
A9
100
AcDbEntity
  8
0
  6
Continuous
 62
     0
370
    30
100
AcDbLine
 10
242.059578
 20
94.751921
 30
0.0
 11
259.259494
 21
82.593234
 31
0.0
  0
ELLIPSE
  5
B0
330
A9
100
AcDbEntity
  8
0
  6
Continuous
 62
     0
370
    30
100
AcDbEllipse
 10
259.258633
 20
86.836484
 30
0.0
 11
-3.464101663552493
 21
4.898979451331966
 31
0.0
210
0.0
220
0.0
230
-1.0
 40
0.5
 41
2.525910042162772
 42
4.096706368957669
  0
ELLIPSE
  5
B1
330
A9
100
AcDbEntity
  8
0
  6
Continuous
 62
     0
370
    30
100
AcDbEllipse
 10
265.622594
 20
91.336484
 30
0.0
 11
-3.464101663552493
 21
4.898979451331966
 31
0.0
210
0.0
220
0.0
230
-1.0
 40
0.5
 41
2.525910042162772
 42
3.141592651906462
  0
ELLIPSE
  5
B2
330
A9
100
AcDbEntity
  8
0
  6
Continuous
 62
     0
370
    30
100
AcDbEllipse
 10
229.199206
 20
153.500317
 30
0.0
 11
-3.464101663552493
 21
4.898979451331966
 31
0.0
210
0.0
220
0.0
230
-1.0
 40
0.5
 41
6.283185305496255
 42
7.238299022547462
  0
LINE
  5
B3
330
A9
100
AcDbEntity
  8
0
  6
Continuous
 62
     0
370
    30
100
AcDbLine
 10
265.614344
 20
132.000956
 30
0.0
 11
229.198345
 21
157.743566
 31
0.0
  0
ELLIPSE
  5
B4
330
A9
100
AcDbEntity
  8
0
  6
Continuous
 62
     0
370
    30
100
AcDbEllipse
 10
265.615205
 20
127.757707
 30
0.0
 11
-3.464101663552493
 21
4.898979451331966
 31
0.0
210
0.0
220
0.0
230
-1.0
 40
0.5
 41
0.9551137153678751
 42
2.525910042162772
  0
LINE
  5
B5
330
A9
100
AcDbEntity
  8
0
  6
Continuous
 62
     0
370
    30
100
AcDbLine
 10
269.865235
 20
88.337345
 30
0.0
 11
269.857845
 21
124.758568
 31
0.0
  0
LINE
  5
B6
330
A9
100
AcDbEntity
  8
0
  6
Continuous
 62
     0
370
     0
100
AcDbLine
 10
229.198345
 20
157.743566
 30
0.0
 11
222.834384
 21
153.243566
 31
0.0
  0
LINE
  5
B7
330
A9
100
AcDbEntity
  8
0
  6
Continuous
 62
     0
370
     0
100
AcDbLine
 10
265.614344
 20
132.000956
 30
0.0
 11
259.250383
 21
127.500956
 31
0.0
  0
LINE
  5
B8
330
A9
100
AcDbEntity
  8
0
  6
Continuous
 62
     0
370
     0
100
AcDbLine
 10
269.857845
 20
124.758568
 30
0.0
 11
263.493884
 21
120.258568
 31
0.0
  0
LINE
  5
B9
330
A9
100
AcDbEntity
  8
0
  6
Continuous
 62
     0
370
     0
100
AcDbLine
 10
269.865235
 20
88.337345
 30
0.0
 11
263.501274
 21
83.837345
 31
0.0
  0
LWPOLYLINE
  5
BA
330
A9
100
AcDbEntity
  8
0
  6
Continuous
 62
     0
370
     0
100
AcDbPolyline
 90
        7
 70
     0
 43
0.0
 10
214.182266
 20
119.290962
 10
214.226151
 20
118.950813
 10
214.36557
 20
118.596191
 10
214.606445
 20
118.221436
 10
214.95433
 20
117.823845
 10
215.408966
 20
117.405533
 10
216.086075
 20
116.885414
  0
LWPOLYLINE
  5
BB
330
A9
100
AcDbEntity
  8
0
  6
Continuous
 62
     0
370
     0
100
AcDbPolyline
 90
       18
 70
     0
 43
0.0
 10
216.086075
 20
116.885414
 10
216.861298
 20
116.376541
 10
217.715027
 20
115.889687
 10
218.611816
 20
115.446793
 10
219.521942
 20
115.066017
 10
220.426987
 20
114.759933
 10
221.317459
 20
114.539391
 10
222.183304
 20
114.414978
 10
223.013199
 20
114.397339
 10
223.796112
 20
114.496628
 10
224.523056
 20
114.719872
 10
225.183716
 20
115.069756
 10
225.765076
 20
115.543182
 10
226.256516
 20
116.129417
 10
226.64978
 20
116.812782
 10
226.938614
 20
117.574478
 10
227.117981
 20
118.394859
 10
227.182266
 20
119.286179
  0
LWPOLYLINE
  5
BC
330
A9
100
AcDbEntity
  8
0
  6
Continuous
 62
     0
370
     0
100
AcDbPolyline
 90
       30
 70
     0
 43
0.0
 10
228.106888
 20
122.556976
 10
228.797119
 20
121.971596
 10
229.362717
 20
121.28672
 10
229.795929
 20
120.524117
 10
230.098022
 20
119.707214
 10
230.273865
 20
118.855911
 10
230.330276
 20
117.987068
 10
230.274841
 20
117.114342
 10
230.114655
 20
116.249664
 10
229.855011
 20
115.403046
 10
229.500519
 20
114.584167
 10
229.055161
 20
113.802727
 10
228.523193
 20
113.068459
 10
227.909363
 20
112.391159
 10
227.219589
 20
111.779907
 10
226.461227
 20
111.242874
 10
225.642838
 20
110.786003
 10
224.774094
 20
110.41288
 10
223.862671
 20
110.124786
 10
222.914536
 20
109.920959
 10
221.936798
 20
109.799828
 10
220.937485
 20
109.759232
 10
219.924622
 20
109.797028
 10
218.90596
 20
109.911095
 10
217.887695
 20
110.099609
 10
216.877365
 20
110.360786
 10
215.88887
 20
110.692726
 10
214.940674
 20
111.091354
 10
214.056213
 20
111.549187
 10
213.257645
 20
112.056984
  0
LWPOLYLINE
  5
BD
330
A9
100
AcDbEntity
  8
0
  6
Continuous
 62
     0
370
     0
100
AcDbPolyline
 90
        3
 70
     0
 43
0.0
 10
227.182266
 20
123.082993
 10
227.315125
 20
123.021118
 10
228.106888
 20
122.556976
  0
LWPOLYLINE
  5
BE
330
A9
100
AcDbEntity
  8
0
  6
Continuous
 62
     0
370
     0
100
AcDbPolyline
 90
       14
 70
     0
 43
0.0
 10
213.257645
 20
112.056984
 10
212.519608
 20
112.644699
 10
211.926895
 20
113.258018
 10
211.486893
 20
113.882988
 10
211.198914
 20
114.508568
 10
211.055237
 20
115.129158
 10
211.046539
 20
115.743248
 10
211.164612
 20
116.353241
 10
211.402328
 20
116.960426
 10
211.75325
 20
117.564964
 10
212.210953
 20
118.166992
 10
212.769394
 20
118.766441
 10
213.423462
 20
119.362656
 10
214.182266
 20
119.964516
  0
ELLIPSE
  5
BF
330
A9
100
AcDbEntity
  8
0
  6
Continuous
 62
     0
370
     0
100
AcDbEllipse
 10
220.682262
 20
128.267139
 30
0.0
 11
6.499999999999998
 21
1.326804726416655E-7
 31
0.0
210
0.0
220
0.0
230
-1.0
 40
0.707107
 41
2.356194500016433
 42
3.141768584995301
  0
ELLIPSE
  5
C0
330
A9
100
AcDbEntity
  8
0
  6
Continuous
 62
     0
370
     0
100
AcDbEllipse
 10
220.682262
 20
128.267139
 30
0.0
 11
6.499999999999998
 21
1.326804726416655E-7
 31
0.0
210
0.0
220
0.0
230
-1.0
 40
0.707107
 41
6.259883606978663
 42
8.63937980719602
  0
LWPOLYLINE
  5
C1
330
A9
100
AcDbEntity
  8
0
  6
Continuous
 62
     0
370
     0
100
AcDbPolyline
 90
       22
 70
     0
 43
0.0
 10
224.924896
 20
131.620697
 10
225.468506
 20
131.179199
 10
225.940445
 20
130.664154
 10
226.313995
 20
130.084167
 10
226.565384
 20
129.45401
 10
226.677261
 20
128.793823
 10
226.641541
 20
128.127274
 10
226.460846
 20
127.47876
 10
226.147964
 20
126.870544
 10
225.723785
 20
126.320366
 10
225.213943
 20
125.840057
 10
224.637589
 20
125.430443
 10
223.962158
 20
125.068062
 10
223.187469
 20
124.765572
 10
222.329941
 20
124.541161
 10
221.414368
 20
124.409752
 10
220.472046
 20
124.380653
 10
219.537476
 20
124.455994
 10
218.644196
 20
124.63031
 10
217.820938
 20
124.891563
 10
217.088913
 20
125.223053
 10
216.439621
 20
125.620689
  0
LWPOLYLINE
  5
C2
330
A9
100
AcDbEntity
  8
0
  6
Continuous
 62
     0
370
     0
100
AcDbPolyline
 90
       22
 70
     0
 43
0.0
 10
216.439621
 20
125.620689
 10
215.896027
 20
126.06218
 10
215.424072
 20
126.577225
 10
215.050522
 20
127.157219
 10
214.799133
 20
127.787384
 10
214.687256
 20
128.447556
 10
214.722977
 20
129.114105
 10
214.903687
 20
129.762619
 10
215.216553
 20
130.370834
 10
215.640732
 20
130.921021
 10
216.150574
 20
131.401321
 10
216.726944
 20
131.810944
 10
217.402374
 20
132.173325
 10
218.177063
 20
132.475815
 10
219.034592
 20
132.700226
 10
219.950165
 20
132.831635
 10
220.892471
 20
132.860733
 10
221.827042
 20
132.7854
 10
222.720337
 20
132.611069
 10
223.543594
 20
132.349823
 10
224.275604
 20
132.018326
 10
224.924896
 20
131.620697
  0
ELLIPSE
  5
C3
330
A9
100
AcDbEntity
  8
0
  6
Continuous
 62
     0
370
     0
100
AcDbEllipse
 10
210.429215
 20
96.268402
 30
0.0
 11
-11.25833040654561
 21
15.9216832168289
 31
0.0
210
0.0
220
0.0
230
-1.0
 40
0.5
 41
6.278797947167502
 42
7.238501918137925
  0
ELLIPSE
  5
C4
330
A9
100
AcDbEntity
  8
0
  6
Continuous
 62
     0
370
     0
100
AcDbEllipse
 10
210.429215
 20
96.268402
 30
0.0
 11
-11.25833040654561
 21
15.9216832168289
 31
0.0
210
0.0
220
0.0
230
-1.0
 40
0.5
 41
0.9553166109583388
 42
3.147599368609991
  0
ELLIPSE
  5
C5
330
A9
100
AcDbEntity
  8
0
  6
Continuous
 62
     0
370
    30
100
AcDbEllipse
 10
239.774146
 20
117.018402
 30
0.0
 11
11.25833040654561
 21
-15.9216832168289
 31
0.0
210
0.0
220
0.0
230
1.0
 40
0.5
 41
0.0000000016833308
 42
2.186276042631454
  0
ELLIPSE
  5
C6
330
A9
100
AcDbEntity
  8
0
  6
Continuous
 62
     0
370
    30
100
AcDbEllipse
 10
239.774146
 20
117.018402
 30
0.0
 11
11.25833040654561
 21
-15.9216832168289
 31
0.0
210
0.0
220
0.0
230
1.0
 40
0.5
 41
2.186276042631454
 42
3.141592655273125
  0
LWPOLYLINE
  5
C7
330
A9
100
AcDbEntity
  8
0
  6
Continuous
 62
     0
370
     0
100
AcDbPolyline
 90
       38
 70
     0
 43
0.0
 10
210.075668
 20
109.45343
 10
211.116852
 20
108.676788
 10
212.182144
 20
107.797752
 10
213.261749
 20
106.817268
 10
214.344482
 20
105.738686
 10
215.417999
 20
104.56797
 10
216.469162
 20
103.313736
 10
217.484451
 20
101.987167
 10
218.450546
 20
100.601761
 10
219.354782
 20
99.17292
 10
220.185776
 20
97.717392
 10
220.933777
 20
96.25264
 10
221.591202
 20
94.796127
 10
222.152695
 20
93.36467
 10
222.615402
 20
91.973778
 10
222.978836
 20
90.637192
 10
223.24472
 20
89.366486
 10
223.416748
 20
88.170891
 10
223.500183
 20
87.05719
 10
223.501282
 20
86.022339
 10
223.420197
 20
85.025642
 10
223.250687
 20
84.07193
 10
222.987442
 20
83.175468
 10
222.626724
 20
82.350685
 10
222.166748
 20
81.611618
 10
221.607941
 20
80.971352
 10
220.95311
 20
80.441383
 10
220.207489
 20
80.031075
 10
219.378677
 20
79.747192
 10
218.476303
 20
79.593536
 10
217.511749
 20
79.570808
 10
216.49762
 20
79.676605
 10
215.447281
 20
79.90564
 10
214.374191
 20
80.250069
 10
213.29155
 20
80.699959
 10
212.2117
 20
81.243858
 10
211.145874
 20
81.869316
 10
210.075668
 20
82.583374
  0
LWPOLYLINE
  5
C8
330
A9
100
AcDbEntity
  8
0
  6
Continuous
 62
     0
370
     0
100
AcDbPolyline
 90
       38
 70
     0
 43
0.0
 10
210.075668
 20
82.583374
 10
209.03447
 20
83.360016
 10
207.969177
 20
84.239052
 10
206.889572
 20
85.219536
 10
205.806839
 20
86.298119
 10
204.733322
 20
87.468834
 10
203.682159
 20
88.723061
 10
202.66687
 20
90.049637
 10
201.700775
 20
91.435036
 10
200.796539
 20
92.863884
 10
199.965546
 20
94.319412
 10
199.217545
 20
95.784164
 10
198.560135
 20
97.240677
 10
197.998627
 20
98.672134
 10
197.535919
 20
100.063026
 10
197.172485
 20
101.399612
 10
196.906601
 20
102.670311
 10
196.734589
 20
103.865906
 10
196.651138
 20
104.979614
 10
196.65004
 20
106.014458
 10
196.731125
 20
107.011162
 10
196.900635
 20
107.964874
 10
197.163879
 20
108.861336
 10
197.524597
 20
109.686119
 10
197.984573
 20
110.425186
 10
198.543381
 20
111.065453
 10
199.198212
 20
111.595421
 10
199.943832
 20
112.005722
 10
200.772644
 20
112.289612
 10
201.675018
 20
112.443268
 10
202.639572
 20
112.465996
 10
203.653702
 20
112.360191
 10
204.704041
 20
112.131157
 10
205.77713
 20
111.786736
 10
206.859772
 20
111.336838
 10
207.939621
 20
110.792946
 10
209.005447
 20
110.167488
 10
210.075668
 20
109.45343
  0
LWPOLYLINE
  5
C9
330
A9
100
AcDbEntity
  8
0
  6
Continuous
 62
     0
370
    30
100
AcDbPolyline
 90
       22
 70
     0
 43
0.0
 10
227.182266
 20
128.263855
 10
227.106476
 20
128.988831
 10
226.883591
 20
129.694077
 10
226.520508
 20
130.360931
 10
226.02774
 20
130.974548
 10
225.4189
 20
131.523407
 10
224.707794
 20
131.997345
 10
223.910492
 20
132.388031
 10
223.044159
 20
132.688141
 10
222.126816
 20
132.891693
 10
221.178467
 20
132.995743
 10
220.219482
 20
132.997971
 10
219.270493
 20
132.897507
 10
218.351959
 20
132.696793
 10
217.483307
 20
132.400146
 10
216.683304
 20
132.012665
 10
215.968994
 20
131.541428
 10
215.356155
 20
130.995056
 10
214.859238
 20
130.383636
 10
214.491058
 20
129.71843
 10
214.262573
 20
129.014099
 10
214.182266
 20
128.267105
  0
LWPOLYLINE
  5
CA
330
A9
100
AcDbEntity
  8
0
  6
Continuous
 62
     0
370
    30
100
AcDbPolyline
 90
       12
 70
     0
 43
0.0
 10
210.140549
 20
82.42514
 10
211.336288
 20
81.631943
 10
212.525879
 20
80.947243
 10
213.70108
 20
80.376465
 10
214.85405
 20
79.924217
 10
215.977386
 20
79.594269
 10
217.064194
 20
79.389977
 10
218.107285
 20
79.314438
 10
219.098587
 20
79.370262
 10
220.030579
 20
79.55983
 10
220.894455
 20
79.883926
 10
221.687988
 20
80.347054
  0
LWPOLYLINE
  5
CB
330
A9
100
AcDbEntity
  8
0
  6
Continuous
 62
     0
370
    30
100
AcDbPolyline
 90
       26
 70
     0
 43
0.0
 10
199.170456
 20
112.189766
 10
198.475739
 20
111.602226
 10
197.879486
 20
110.894135
 10
197.388153
 20
110.076027
 10
197.00351
 20
109.156631
 10
196.726395
 20
108.144264
 10
196.556976
 20
107.046997
 10
196.494675
 20
105.872643
 10
196.538498
 20
104.629387
 10
196.687119
 20
103.325706
 10
196.939163
 20
101.970192
 10
197.292297
 20
100.572441
 10
197.743683
 20
99.14254
 10
198.289871
 20
97.690857
 10
198.926422
 20
96.228157
 10
199.648773
 20
94.765221
 10
200.451462
 20
93.312881
 10
201.328125
 20
91.882019
 10
202.272354
 20
90.483513
 10
203.2771
 20
89.127869
 10
204.334625
 20
87.825241
 10
205.437057
 20
86.585556
 10
206.576141
 20
85.418098
 10
207.743408
 20
84.331749
 10
208.930237
 20
83.334641
 10
210.140549
 20
82.42514
  0
LINE
  5
CC
330
A9
100
AcDbEntity
  8
0
  6
Continuous
 62
     0
370
    30
100
AcDbLine
 10
251.032476
 20
101.096719
 30
0.0
 11
221.687545
 21
80.346718
 31
0.0
  0
LINE
  5
CD
330
A9
100
AcDbEntity
  8
0
  6
Continuous
 62
     0
370
    30
100
AcDbLine
 10
214.182263
 20
122.804733
 30
0.0
 11
199.170884
 21
112.190085
 31
0.0
  0
LINE
  5
CE
330
A9
100
AcDbEntity
  8
0
  6
Continuous
 62
     0
370
    30
100
AcDbLine
 10
228.515815
 20
132.940085
 30
0.0
 11
225.908295
 21
131.09629
 31
0.0
  0
LINE
  5
CF
330
A9
100
AcDbEntity
  8
0
  6
Continuous
 62
     0
370
    30
100
AcDbLine
 10
227.182263
 20
119.284294
 30
0.0
 11
227.182262
 21
128.263851
 31
0.0
  0
LINE
  5
D0
330
A9
100
AcDbEntity
  8
0
  6
Continuous
 62
     0
370
    30
100
AcDbLine
 10
214.182263
 20
119.284229
 30
0.0
 11
214.182262
 21
128.267139
 31
0.0
  0
LWPOLYLINE
  5
D1
330
A9
100
AcDbEntity
  8
0
  6
Continuous
 62
     0
370
    30
100
AcDbPolyline
 90
        4
 70
     0
 43
0.0
 10
214.139206
 20
119.015968
 10
214.148575
 20
119.042511
 10
214.166306
 20
119.114456
 10
214.182236
 20
119.283417
  0
LINE
  5
D2
330
A9
100
AcDbEntity
  8
0
  6
Continuous
 62
     0
370
    30
100
AcDbLine
 10
262.722735
 20
81.937504
 30
0.0
 11
269.086696
 21
86.437504
 31
0.0
  0
LINE
  5
D3
330
A9
100
AcDbEntity
  8
0
  6
Continuous
 62
     0
370
    30
100
AcDbLine
 10
219.371143
 20
153.899297
 30
0.0
 11
225.735104
 21
158.399297
 31
0.0
  0
ENDBLK
  5
D5
330
A9
100
AcDbEntity
  8
0
100
AcDbBlockEnd
  0
BLOCK
  5
F7
330
D7
100
AcDbEntity
  8
0
100
AcDbBlockBegin
  2
e
 70
     0
 10
-3.581009
 20
0.0
 30
0.0
  3
e
  1

  0
LINE
  5
D8
330
D7
100
AcDbEntity
  8
0
  6
Continuous
 62
     0
370
    30
100
AcDbLine
 10
-29.07113
 20
222.635375
 30
0.0
 11
-29.07113
 21
274.135375
 31
0.0
  0
LINE
  5
D9
330
D7
100
AcDbEntity
  8
0
  6
Continuous
 62
     0
370
    30
100
AcDbLine
 10
-29.071129
 20
280.135375
 30
0.0
 11
-29.071129
 21
274.135375
 31
0.0
  0
LINE
  5
DA
330
D7
100
AcDbEntity
  8
0
  6
Continuous
 62
     0
370
    30
100
AcDbLine
 10
-29.071129
 20
222.635375
 30
0.0
 11
-29.071129
 21
216.635375
 31
0.0
  0
LINE
  5
DB
330
D7
100
AcDbEntity
  8
0
  6
Continuous
 62
     0
370
    30
100
AcDbLine
 10
-20.071129
 20
222.635375
 30
0.0
 11
-20.071129
 21
216.635375
 31
0.0
  0
LINE
  5
DC
330
D7
100
AcDbEntity
  8
0
  6
Continuous
 62
     0
370
    30
100
AcDbLine
 10
-20.071129
 20
280.135375
 30
0.0
 11
-20.071129
 21
274.135375
 31
0.0
  0
LINE
  5
DD
330
D7
100
AcDbEntity
  8
0
  6
Continuous
 62
     0
370
    30
100
AcDbLine
 10
-20.07113
 20
222.635375
 30
0.0
 11
-20.07113
 21
274.135375
 31
0.0
  0
LINE
  5
DE
330
D7
100
AcDbEntity
  8
0
  6
Continuous
 62
     0
370
    30
100
AcDbLine
 10
-20.071129
 20
280.135375
 30
0.0
 11
-29.071129
 21
280.135375
 31
0.0
  0
LINE
  5
DF
330
D7
100
AcDbEntity
  8
0
  6
Continuous
 62
     0
370
     0
100
AcDbLine
 10
-20.07113
 20
274.135375
 30
0.0
 11
-29.07113
 21
274.135375
 31
0.0
  0
LINE
  5
E0
330
D7
100
AcDbEntity
  8
0
  6
Continuous
 62
     0
370
     0
100
AcDbLine
 10
-20.07113
 20
222.635375
 30
0.0
 11
-29.07113
 21
222.635375
 31
0.0
  0
LINE
  5
E1
330
D7
100
AcDbEntity
  8
0
  6
Continuous
 62
     0
370
    30
100
AcDbLine
 10
-20.071129
 20
216.635375
 30
0.0
 11
-29.071129
 21
216.635375
 31
0.0
  0
ARC
  5
E2
330
D7
100
AcDbEntity
  8
0
  6
Continuous
 62
     0
370
    30
100
AcDbCircle
 10
-68.37113
 20
271.885378
 30
0.0
 40
3.999999958790534
100
AcDbArc
 50
269.999999
 51
359.999999
  0
LWPOLYLINE
  5
E3
330
D7
100
AcDbEntity
  8
0
  6
Continuous
 62
     0
370
     0
100
AcDbPolyline
 90
       26
 70
     0
 43
0.0
 10
-64.371132
 20
271.885376
 10
-64.307274
 20
271.839111
 10
-64.120888
 20
271.707092
 10
-63.824173
 20
271.503601
 10
-63.432999
 20
271.247864
 10
-62.96283
 20
270.9599
 10
-62.424999
 20
270.657959
 10
-61.828022
 20
270.358734
 10
-61.180767
 20
270.077728
 10
-60.492172
 20
269.830139
 10
-59.770962
 20
269.630707
 10
-59.02438
 20
269.490417
 10
-58.26049
 20
269.41748
 10
-57.490768
 20
269.417023
 10
-56.726788
 20
269.489166
 10
-55.979511
 20
269.628967
 10
-55.258537
 20
269.827362
 10
-54.572296
 20
270.072906
 10
-53.9277
 20
270.352051
 10
-53.331879
 20
270.650269
 10
-52.792774
 20
270.952118
 10
-52.320389
 20
271.240692
 10
-51.927044
 20
271.497559
 10
-51.627663
 20
271.702789
 10
-51.438156
 20
271.836975
 10
-51.371132
 20
271.885376
  0
LWPOLYLINE
  5
E4
330
D7
100
AcDbEntity
  8
0
  6
Continuous
 62
     0
370
     0
100
AcDbPolyline
 90
       30
 70
     0
 43
0.0
 10
-47.371136
 20
267.885376
 10
-47.448284
 20
267.856659
 10
-47.674698
 20
267.773682
 10
-48.038929
 20
267.643311
 10
-48.524101
 20
267.476105
 10
-49.114265
 20
267.282471
 10
-49.794834
 20
267.07251
 10
-50.553669
 20
266.855865
 10
-51.380291
 20
266.641754
 10
-52.266754
 20
266.438385
 10
-53.205624
 20
266.25351
 10
-54.18961
 20
266.094513
 10
-55.210709
 20
265.96817
 10
-56.259869
 20
265.880188
 10
-57.326809
 20
265.834869
 10
-58.399883
 20
265.834595
 10
-59.467049
 20
265.879303
 10
-60.51609
 20
265.966492
 10
-61.53756
 20
266.092255
 10
-62.524361
 20
266.251495
 10
-63.468193
 20
266.437317
 10
-64.359795
 20
266.641602
 10
-65.189888
 20
266.856232
 10
-65.949257
 20
267.072937
 10
-66.629074
 20
267.282806
 10
-67.219131
 20
267.476471
 10
-67.704262
 20
267.643646
 10
-68.068024
 20
267.773804
 10
-68.293999
 20
267.856567
 10
-68.371132
 20
267.885376
  0
LINE
  5
E5
330
D7
100
AcDbEntity
  8
0
  6
Continuous
 62
     0
370
    30
100
AcDbLine
 10
-64.37113
 20
271.885378
 30
0.0
 11
-64.37113
 21
283.385378
 31
0.0
  0
ELLIPSE
  5
E6
330
D7
100
AcDbEntity
  8
0
  6
Continuous
 62
     0
370
     0
100
AcDbEllipse
 10
-57.87113
 20
283.385378
 30
0.0
 11
6.5
 21
5.764751237764442E-11
 31
0.0
210
0.0
220
0.0
230
-1.0
 40
0.000203
 41
0.0000000437113892
 42
3.141592697301182
  0
ARC
  5
E7
330
D7
100
AcDbEntity
  8
0
  6
Continuous
 62
     0
370
     0
100
AcDbCircle
 10
-57.87113
 20
15069.814881
 30
0.0
 40
14785.93072053597
100
AcDbArc
 50
269.97675
 51
270.02325
  0
ARC
  5
E8
330
D7
100
AcDbEntity
  8
0
  6
Continuous
 62
     0
370
     0
100
AcDbCircle
 10
-57.87113
 20
-14502.044125
 30
0.0
 40
14785.9307201048
100
AcDbArc
 50
89.97675
 51
90.02325
  0
LINE
  5
E9
330
D7
100
AcDbEntity
  8
0
  6
Continuous
 62
     0
370
     0
100
AcDbLine
 10
-72.37113
 20
267.885378
 30
0.0
 11
-72.37113
 21
228.885379
 31
0.0
  0
LINE
  5
EA
330
D7
100
AcDbEntity
  8
0
  6
Continuous
 62
     0
370
    30
100
AcDbLine
 10
-30.87113
 20
228.885379
 30
0.0
 11
-30.87113
 21
267.885378
 31
0.0
  0
LINE
  5
EB
330
D7
100
AcDbEntity
  8
0
  6
Continuous
 62
     0
370
    30
100
AcDbLine
 10
-72.87113
 20
267.385378
 30
0.0
 11
-72.87113
 21
229.385379
 31
0.0
  0
ARC
  5
EC
330
D7
100
AcDbEntity
  8
0
  6
Continuous
 62
     0
370
    30
100
AcDbCircle
 10
-72.37113
 20
229.385379
 30
0.0
 40
0.4999999948599481
100
AcDbArc
 50
180.000001
 51
270.000001
  0
ARC
  5
ED
330
D7
100
AcDbEntity
  8
0
  6
Continuous
 62
     0
370
    30
100
AcDbCircle
 10
-63.87113
 20
283.385378
 30
0.0
 40
0.4999999948486044
100
AcDbArc
 50
90.000081
 51
179.999999
  0
LWPOLYLINE
  5
EE
330
D7
100
AcDbEntity
  8
0
  6
Continuous
 62
     0
370
    30
100
AcDbPolyline
 90
       19
 70
     0
 43
0.0
 10
-51.371128
 20
283.385376
 10
-51.40284
 20
283.560516
 10
-51.4939
 20
283.713531
 10
-51.632786
 20
283.824921
 10
-51.801861
 20
283.880493
 10
-51.869244
 20
283.885406
 10
-51.878437
 20
283.885437
 10
-51.891636
 20
283.885468
 10
-51.909794
 20
283.885529
 10
-51.933105
 20
283.885559
 10
-51.96162
 20
283.88559
 10
-51.995335
 20
283.88562
 10
-52.034203
 20
283.885651
 10
-52.078201
 20
283.885681
 10
-52.127426
 20
283.885742
 10
-52.181713
 20
283.885773
 10
-52.24118
 20
283.885803
 10
-52.303879
 20
283.885834
 10
-52.377895
 20
283.885864
  0
ARC
  5
EF
330
D7
100
AcDbEntity
  8
0
  6
Continuous
 62
     0
370
    30
100
AcDbCircle
 10
-72.371127
 20
267.385376
 30
0.0
 40
0.5000026977401917
100
AcDbArc
 50
90.000309
 51
179.999675
  0
LINE
  5
F0
330
D7
100
AcDbEntity
  8
0
  6
Continuous
 62
     0
370
    30
100
AcDbLine
 10
-30.87113
 20
228.885379
 30
0.0
 11
-72.37113
 21
228.885379
 31
0.0
  0
LINE
  5
F1
330
D7
100
AcDbEntity
  8
0
  6
Continuous
 62
     0
370
    30
100
AcDbLine
 10
-30.87113
 20
267.885379
 30
0.0
 11
-47.371183
 21
267.885379
 31
0.0
  0
LINE
  5
F2
330
D7
100
AcDbEntity
  8
0
  6
Continuous
 62
     0
370
    30
100
AcDbLine
 10
-68.371084
 20
267.885379
 30
0.0
 11
-72.37113
 21
267.885379
 31
0.0
  0
LINE
  5
F3
330
D7
100
AcDbEntity
  8
0
  6
Continuous
 62
     0
370
    30
100
AcDbLine
 10
-51.37113
 20
271.885378
 30
0.0
 11
-51.37113
 21
283.385378
 31
0.0
  0
ARC
  5
F4
330
D7
100
AcDbEntity
  8
0
  6
Continuous
 62
     0
370
    30
100
AcDbCircle
 10
-47.371111
 20
271.88539
 30
0.0
 40
4.000018817274901
100
AcDbArc
 50
180.000171
 51
269.999637
  0
LINE
  5
F5
330
D7
100
AcDbEntity
  8
0
  6
Continuous
 62
     0
370
    30
100
AcDbLine
 10
-30.87113
 20
234.532853
 30
0.0
 11
-29.071128
 21
234.532853
 31
0.0
  0
LINE
  5
F6
330
D7
100
AcDbEntity
  8
0
  6
Continuous
 62
     0
370
    30
100
AcDbLine
 10
-30.87113
 20
262.237898
 30
0.0
 11
-29.071128
 21
262.237898
 31
0.0
  0
ENDBLK
  5
F8
330
D7
100
AcDbEntity
  8
0
100
AcDbBlockEnd
  0
ENDSEC
  0
SECTION
  2
ENTITIES
  0
INSERT
  5
64
330
1F
100
AcDbEntity
  8
0
  6
Continuous
 62
   250
370
     0
100
AcDbBlockReference
  2
a
 10
63.374462
 20
65.106087
 30
0.0
  0
INSERT
  5
85
330
1F
100
AcDbEntity
  8
0
  6
Continuous
 62
   250
370
     0
100
AcDbBlockReference
  2
b
 10
63.374462
 20
65.106087
 30
0.0
  0
INSERT
  5
A8
330
1F
100
AcDbEntity
  8
0
  6
Continuous
 62
   250
370
     0
100
AcDbBlockReference
  2
c
 10
6.159824
 20
65.106094
 30
0.0
  0
INSERT
  5
D6
330
1F
100
AcDbEntity
  8
0
  6
Continuous
 62
   250
370
     0
100
AcDbBlockReference
  2
d
 10
25.993664
 20
59.141682
 30
0.0
  0
INSERT
  5
F9
330
1F
100
AcDbEntity
  8
0
  6
Continuous
 62
   250
370
     0
100
AcDbBlockReference
  2
e
 10
-3.581009
 20
0.0
 30
0.0
  0
ENDSEC
  0
SECTION
  2
OBJECTS
  0
DICTIONARY
  5
C
330
0
100
AcDbDictionary
281
     1
  3
ACAD_GROUP
350
D
  3
ACAD_LAYOUT
350
1A
  3
ACAD_MLEADERSTYLE
350
FC
  3
ACAD_MLINESTYLE
350
17
  3
ACAD_PLOTSETTINGS
350
19
  3
ACAD_PLOTSTYLENAME
350
E
  3
ACAD_VISUALSTYLE
350
2A
  3
AcDbVariableDictionary
350
FA
  0
DICTIONARY
  5
D
102
{ACAD_REACTORS
330
C
102
}
330
C
100
AcDbDictionary
281
     1
  0
DICTIONARY
  5
1A
102
{ACAD_REACTORS
330
C
102
}
330
C
100
AcDbDictionary
281
     1
  3
Layout1
350
1E
  3
Layout2
350
26
  3
Model
350
22
  0
DICTIONARY
  5
FC
102
{ACAD_REACTORS
330
C
102
}
330
C
100
AcDbDictionary
281
     1
  0
DICTIONARY
  5
17
102
{ACAD_REACTORS
330
C
102
}
330
C
100
AcDbDictionary
281
     1
  3
Standard
350
18
  0
DICTIONARY
  5
19
102
{ACAD_REACTORS
330
C
102
}
330
C
100
AcDbDictionary
281
     1
  0
ACDBDICTIONARYWDFLT
  5
E
102
{ACAD_REACTORS
330
C
102
}
330
C
100
AcDbDictionary
281
     1
  3
Normal
350
F
100
AcDbDictionaryWithDefault
340
F
  0
DICTIONARY
  5
2A
102
{ACAD_REACTORS
330
C
102
}
330
C
100
AcDbDictionary
281
     1
  3
2dWireframe
350
2F
  3
3D Hidden
350
31
  3
3dWireframe
350
30
  3
Basic
350
32
  3
Brighten
350
36
  3
ColorChange
350
3A
  3
Conceptual
350
34
  3
Dim
350
35
  3
Facepattern
350
39
  3
Flat
350
2B
  3
FlatWithEdges
350
2C
  3
Gouraud
350
2D
  3
GouraudWithEdges
350
2E
  3
Linepattern
350
38
  3
Realistic
350
33
  3
Thicken
350
37
  0
DICTIONARY
  5
FA
102
{ACAD_REACTORS
330
C
102
}
330
C
100
AcDbDictionary
281
     1
  3
PSOLHEIGHT
350
FE
  3
PSOLWIDTH
350
FD
  0
LAYOUT
  5
1E
102
{ACAD_REACTORS
330
1A
102
}
330
1A
100
AcDbPlotSettings
  1

  2
none_device
  4

  6

 40
0.0
 41
0.0
 42
0.0
 43
0.0
 44
0.0
 45
0.0
 46
0.0
 47
0.0
 48
0.0
 49
0.0
140
0.0
141
0.0
142
1.0
143
1.0
 70
   688
 72
     0
 73
     0
 74
     5
  7

 75
    16
147
1.0
148
0.0
149
0.0
100
AcDbLayout
  1
Layout1
 70
     1
 71
     1
 10
0.0
 20
0.0
 11
420.0
 21
297.0
 12
0.0
 22
0.0
 32
0.0
 14
1.000000E+20
 24
1.000000E+20
 34
1.000000E+20
 15
-1.000000E+20
 25
-1.000000E+20
 35
-1.000000E+20
146
0.0
 13
0.0
 23
0.0
 33
0.0
 16
1.0
 26
0.0
 36
0.0
 17
0.0
 27
1.0
 37
0.0
 76
     0
330
1B
  0
LAYOUT
  5
26
102
{ACAD_REACTORS
330
1A
102
}
330
1A
100
AcDbPlotSettings
  1

  2
none_device
  4

  6

 40
0.0
 41
0.0
 42
0.0
 43
0.0
 44
0.0
 45
0.0
 46
0.0
 47
0.0
 48
0.0
 49
0.0
140
0.0
141
0.0
142
1.0
143
1.0
 70
   688
 72
     0
 73
     0
 74
     5
  7

 75
    16
147
1.0
148
0.0
149
0.0
100
AcDbLayout
  1
Layout2
 70
     1
 71
     2
 10
0.0
 20
0.0
 11
0.0
 21
0.0
 12
0.0
 22
0.0
 32
0.0
 14
0.0
 24
0.0
 34
0.0
 15
0.0
 25
0.0
 35
0.0
146
0.0
 13
0.0
 23
0.0
 33
0.0
 16
1.0
 26
0.0
 36
0.0
 17
0.0
 27
1.0
 37
0.0
 76
     0
330
23
  0
LAYOUT
  5
22
102
{ACAD_REACTORS
330
1A
102
}
330
1A
100
AcDbPlotSettings
  1

  2
none_device
  4

  6

 40
0.0
 41
0.0
 42
0.0
 43
0.0
 44
0.0
 45
0.0
 46
0.0
 47
0.0
 48
0.0
 49
0.0
140
0.0
141
0.0
142
1.0
143
1.0
 70
  1712
 72
     0
 73
     0
 74
     0
  7

 75
     0
147
1.0
148
0.0
149
0.0
100
AcDbLayout
  1
Model
 70
     1
 71
     0
 10
-72.871132
 20
54.717899
 11
269.865234
 21
283.886566
 12
0.0
 22
0.0
 32
0.0
 14
-72.871132
 24
54.717899
 34
0.0
 15
269.865234
 25
283.886566
 35
0.0
146
0.0
 13
0.0
 23
0.0
 33
0.0
 16
1.0
 26
0.0
 36
0.0
 17
0.0
 27
1.0
 37
0.0
 76
     0
330
1F
331
29
  0
MLINESTYLE
  5
18
102
{ACAD_REACTORS
330
17
102
}
330
17
100
AcDbMlineStyle
  2
Standard
 70
     0
  3

 62
   256
 51
90.0
 52
90.0
 71
     2
 49
0.5
 62
   256
  6
BYLAYER
 49
-0.5
 62
   256
  6
BYLAYER
  0
ACDBPLACEHOLDER
  5
F
102
{ACAD_REACTORS
330
E
102
}
330
E
  0
VISUALSTYLE
  5
2F
102
{ACAD_REACTORS
330
2A
102
}
330
2A
100
AcDbVisualStyle
  2
2dWireframe
 70
     4
 71
     0
 72
     2
 73
     0
 90
        0
 40
-0.6
 41
-30.0
 62
     5
 63
     7
 74
     1
 91
        4
 64
     7
 65
   257
 75
     1
175
     1
 42
1.0
 92
        0
 66
   257
 43
1.0
 76
     1
 77
     6
 78
     2
 67
     7
 79
     5
170
     0
171
     0
290
     0
174
     0
 93
        1
 44
0.0
173
     0
291
     0
 45
0.0
1001
ACAD
1000
AcDbSavedByObjectVersion
1070
     0
  0
VISUALSTYLE
  5
31
102
{ACAD_REACTORS
330
2A
102
}
330
2A
100
AcDbVisualStyle
  2
3D Hidden
 70
     6
 71
     1
 72
     2
 73
     2
 90
        0
 40
-0.6
 41
-30.0
 62
     5
 63
     7
 74
     2
 91
        2
 64
     7
 65
   257
 75
     2
175
     1
 42
40.0
 92
        0
 66
   257
 43
1.0
 76
     1
 77
     6
 78
     2
 67
     7
 79
     3
170
     0
171
     0
290
     0
174
     0
 93
        1
 44
0.0
173
     0
291
     0
 45
0.0
1001
ACAD
1000
AcDbSavedByObjectVersion
1070
     0
  0
VISUALSTYLE
  5
30
102
{ACAD_REACTORS
330
2A
102
}
330
2A
100
AcDbVisualStyle
  2
3dWireframe
 70
     5
 71
     0
 72
     2
 73
     0
 90
        0
 40
-0.6
 41
-30.0
 62
     5
 63
     7
 74
     1
 91
        4
 64
     7
 65
   257
 75
     1
175
     1
 42
1.0
 92
        0
 66
   257
 43
1.0
 76
     1
 77
     6
 78
     2
 67
     7
 79
     5
170
     0
171
     0
290
     0
174
     0
 93
        1
 44
0.0
173
     0
291
     0
 45
0.0
1001
ACAD
1000
AcDbSavedByObjectVersion
1070
     0
  0
VISUALSTYLE
  5
32
102
{ACAD_REACTORS
330
2A
102
}
330
2A
100
AcDbVisualStyle
  2
Basic
 70
     7
 71
     1
 72
     0
 73
     1
 90
        0
 40
-0.6
 41
-30.0
 62
     5
 63
     7
 74
     0
 91
        4
 64
     7
 65
   257
 75
     1
175
     1
 42
1.0
 92
        8
 66
     7
 43
1.0
 76
     1
 77
     6
 78
     2
 67
     7
 79
     5
170
     0
171
     0
290
     0
174
     0
 93
        1
 44
0.0
173
     0
291
     1
 45
0.0
1001
ACAD
1000
AcDbSavedByObjectVersion
1070
     0
  0
VISUALSTYLE
  5
36
102
{ACAD_REACTORS
330
2A
102
}
330
2A
100
AcDbVisualStyle
  2
Brighten
 70
    12
 71
     2
 72
     2
 73
     0
 90
        0
 40
-0.6
 41
-30.0
 62
     5
 63
     7
 74
     1
 91
        4
 64
     7
 65
   257
 75
     1
175
     1
 42
1.0
 92
        8
 66
     7
 43
1.0
 76
     1
 77
     6
 78
     2
 67
     7
 79
     5
170
     0
171
     0
290
     0
174
     0
 93
        1
 44
50.0
173
     0
291
     1
 45
0.0
1001
ACAD
1000
AcDbSavedByObjectVersion
1070
     0
  0
VISUALSTYLE
  5
3A
102
{ACAD_REACTORS
330
2A
102
}
330
2A
100
AcDbVisualStyle
  2
ColorChange
 70
    16
 71
     2
 72
     2
 73
     3
 90
        0
 40
-0.6
 41
-30.0
 62
     5
 63
     8
 74
     1
 91
        4
 64
     7
 65
   257
 75
     1
175
     1
 42
1.0
 92
        8
 66
     8
 43
1.0
 76
     1
 77
     6
 78
     2
 67
     7
 79
     5
170
     0
171
     0
290
     0
174
     0
 93
        1
 44
0.0
173
     0
291
     1
 45
0.0
1001
ACAD
1000
AcDbSavedByObjectVersion
1070
     0
  0
VISUALSTYLE
  5
34
102
{ACAD_REACTORS
330
2A
102
}
330
2A
100
AcDbVisualStyle
  2
Conceptual
 70
     9
 71
     3
 72
     2
 73
     0
 90
        0
 40
-0.6
 41
-30.0
 62
     5
 63
     7
 74
     2
 91
        2
 64
     7
 65
   257
 75
     1
175
     1
 42
40.0
 92
        8
 66
     7
 43
1.0
 76
     1
 77
     6
 78
     2
 67
     7
 79
     3
170
     0
171
     0
290
     0
174
     0
 93
        1
 44
0.0
173
     0
291
     0
 45
0.0
1001
ACAD
1000
AcDbSavedByObjectVersion
1070
     0
  0
VISUALSTYLE
  5
35
102
{ACAD_REACTORS
330
2A
102
}
330
2A
100
AcDbVisualStyle
  2
Dim
 70
    11
 71
     2
 72
     2
 73
     0
 90
        0
 40
-0.6
 41
-30.0
 62
     5
 63
     7
 74
     1
 91
        4
 64
     7
 65
   257
 75
     1
175
     1
 42
1.0
 92
        8
 66
     7
 43
1.0
 76
     1
 77
     6
 78
     2
 67
     7
 79
     5
170
     0
171
     0
290
     0
174
     0
 93
        1
 44
-50.0
173
     0
291
     1
 45
0.0
1001
ACAD
1000
AcDbSavedByObjectVersion
1070
     0
  0
VISUALSTYLE
  5
39
102
{ACAD_REACTORS
330
2A
102
}
330
2A
100
AcDbVisualStyle
  2
Facepattern
 70
    15
 71
     2
 72
     2
 73
     0
 90
        0
 40
-0.6
 41
-30.0
 62
     5
 63
     7
 74
     1
 91
        4
 64
     7
 65
   257
 75
     1
175
     1
 42
1.0
 92
        8
 66
     7
 43
1.0
 76
     1
 77
     6
 78
     2
 67
     7
 79
     5
170
     0
171
     0
290
     0
174
     0
 93
        1
 44
0.0
173
     0
291
     1
 45
0.0
1001
ACAD
1000
AcDbSavedByObjectVersion
1070
     0
  0
VISUALSTYLE
  5
2B
102
{ACAD_REACTORS
330
2A
102
}
330
2A
100
AcDbVisualStyle
  2
Flat
 70
     0
 71
     2
 72
     1
 73
     1
 90
        2
 40
-0.6
 41
30.0
 62
     5
 63
     7
 74
     0
 91
        4
 64
     7
 65
   257
 75
     1
175
     1
 42
1.0
 92
        8
 66
     7
 43
1.0
 76
     1
 77
     6
 78
     2
 67
     7
 79
     5
170
     0
171
     0
290
     0
174
     0
 93
       13
 44
0.0
173
     0
291
     1
 45
0.0
1001
ACAD
1000
AcDbSavedByObjectVersion
1070
     0
  0
VISUALSTYLE
  5
2C
102
{ACAD_REACTORS
330
2A
102
}
330
2A
100
AcDbVisualStyle
  2
FlatWithEdges
 70
     1
 71
     2
 72
     1
 73
     1
 90
        2
 40
-0.6
 41
30.0
 62
     5
 63
     7
 74
     1
 91
        4
 64
     7
 65
   257
 75
     1
175
     1
 42
1.0
 92
        0
 66
   257
 43
1.0
 76
     1
 77
     6
 78
     2
 67
     7
 79
     5
170
     0
171
     0
290
     0
174
     0
 93
       13
 44
0.0
173
     0
291
     1
 45
0.0
1001
ACAD
1000
AcDbSavedByObjectVersion
1070
     0
  0
VISUALSTYLE
  5
2D
102
{ACAD_REACTORS
330
2A
102
}
330
2A
100
AcDbVisualStyle
  2
Gouraud
 70
     2
 71
     2
 72
     2
 73
     1
 90
        2
 40
-0.6
 41
30.0
 62
     5
 63
     7
 74
     0
 91
        4
 64
     7
 65
   257
 75
     1
175
     1
 42
1.0
 92
        0
 66
     7
 43
1.0
 76
     1
 77
     6
 78
     2
 67
     7
 79
     5
170
     0
171
     0
290
     0
174
     0
 93
       13
 44
0.0
173
     0
291
     1
 45
0.0
1001
ACAD
1000
AcDbSavedByObjectVersion
1070
     0
  0
VISUALSTYLE
  5
2E
102
{ACAD_REACTORS
330
2A
102
}
330
2A
100
AcDbVisualStyle
  2
GouraudWithEdges
 70
     3
 71
     2
 72
     2
 73
     1
 90
        2
 40
-0.6
 41
30.0
 62
     5
 63
     7
 74
     1
 91
        4
 64
     7
 65
   257
 75
     1
175
     1
 42
1.0
 92
        0
 66
   257
 43
1.0
 76
     1
 77
     6
 78
     2
 67
     7
 79
     5
170
     0
171
     0
290
     0
174
     0
 93
       13
 44
0.0
173
     0
291
     1
 45
0.0
1001
ACAD
1000
AcDbSavedByObjectVersion
1070
     0
  0
VISUALSTYLE
  5
38
102
{ACAD_REACTORS
330
2A
102
}
330
2A
100
AcDbVisualStyle
  2
Linepattern
 70
    14
 71
     2
 72
     2
 73
     0
 90
        0
 40
-0.6
 41
-30.0
 62
     5
 63
     7
 74
     1
 91
        4
 64
     7
 65
   257
 75
     7
175
     7
 42
1.0
 92
        8
 66
     7
 43
1.0
 76
     1
 77
     6
 78
     2
 67
     7
 79
     5
170
     0
171
     0
290
     0
174
     0
 93
        1
 44
0.0
173
     0
291
     1
 45
0.0
1001
ACAD
1000
AcDbSavedByObjectVersion
1070
     0
  0
VISUALSTYLE
  5
33
102
{ACAD_REACTORS
330
2A
102
}
330
2A
100
AcDbVisualStyle
  2
Realistic
 70
     8
 71
     2
 72
     2
 73
     0
 90
        0
 40
-0.6
 41
-30.0
 62
     5
 63
     7
 74
     1
 91
        0
 64
     7
 65
   257
 75
     1
175
     1
 42
1.0
 92
        8
 66
     8
 43
1.0
 76
     1
 77
     6
 78
     2
 67
     7
 79
     5
170
     0
171
     0
290
     0
174
     0
 93
       13
 44
0.0
173
     0
291
     0
 45
0.0
1001
ACAD
1000
AcDbSavedByObjectVersion
1070
     0
  0
VISUALSTYLE
  5
37
102
{ACAD_REACTORS
330
2A
102
}
330
2A
100
AcDbVisualStyle
  2
Thicken
 70
    13
 71
     2
 72
     2
 73
     0
 90
        0
 40
-0.6
 41
-30.0
 62
     5
 63
     7
 74
     1
 91
        4
 64
     7
 65
   257
 75
     1
175
     1
 42
1.0
 92
       12
 66
     7
 43
1.0
 76
     1
 77
     6
 78
     2
 67
     7
 79
     5
170
     0
171
     0
290
     0
174
     0
 93
        1
 44
0.0
173
     0
291
     1
 45
0.0
1001
ACAD
1000
AcDbSavedByObjectVersion
1070
     0
  0
DICTIONARYVAR
  5
FE
102
{ACAD_REACTORS
330
FA
102
}
330
FA
100
DictionaryVariables
280
     0
  1
80.000000
  0
DICTIONARYVAR
  5
FD
102
{ACAD_REACTORS
330
FA
102
}
330
FA
100
DictionaryVariables
280
     0
  1
5.000000
  0
ENDSEC
  0
EOF
