  0
SECTION
  2
HEADER
  9
$ACADVER
  1
AC1015
  9
$ACADMAINTVER
 70
     6
  9
$DWGCODEPAGE
  3
ANSI_1252
  9
$INSBASE
 10
0.0
 20
0.0
 30
0.0
  9
$EXTMIN
 10
-39.135754
 20
54.040413
 30
0.0
  9
$EXTMAX
 10
307.061768
 20
281.548004
 30
0.0
  9
$LIMMIN
 10
-39.135754
 20
54.040413
  9
$LIMMAX
 10
307.061768
 20
281.548004
  9
$ORTHOMODE
 70
     0
  9
$REGENMODE
 70
     1
  9
$FILLMODE
 70
     1
  9
$QTEXTMODE
 70
     0
  9
$MIRRTEXT
 70
     1
  9
$LTSCALE
 40
1.0
  9
$ATTMODE
 70
     1
  9
$TEXTSIZE
 40
2.5
  9
$TRACEWID
 40
1.0
  9
$TEXTSTYLE
  7
Standard
  9
$CLAYER
  8
0
  9
$CELTYPE
  6
ByLayer
  9
$CECOLOR
 62
   256
  9
$CELTSCALE
 40
1.0
  9
$DISPSILH
 70
     0
  9
$DIMSCALE
 40
1.0
  9
$DIMASZ
 40
2.5
  9
$DIMEXO
 40
0.625
  9
$DIMDLI
 40
3.75
  9
$DIMRND
 40
0.0
  9
$DIMDLE
 40
0.0
  9
$DIMEXE
 40
1.25
  9
$DIMTP
 40
0.0
  9
$DIMTM
 40
0.0
  9
$DIMTXT
 40
2.5
  9
$DIMCEN
 40
2.5
  9
$DIMTSZ
 40
0.0
  9
$DIMTOL
 70
     0
  9
$DIMLIM
 70
     0
  9
$DIMTIH
 70
     0
  9
$DIMTOH
 70
     0
  9
$DIMSE1
 70
     0
  9
$DIMSE2
 70
     0
  9
$DIMTAD
 70
     1
  9
$DIMZIN
 70
     8
  9
$DIMBLK
  1

  9
$DIMASO
 70
     1
  9
$DIMSHO
 70
     1
  9
$DIMPOST
  1

  9
$DIMAPOST
  1

  9
$DIMALT
 70
     0
  9
$DIMALTD
 70
     3
  9
$DIMALTF
 40
0.03937
  9
$DIMLFAC
 40
1.0
  9
$DIMTOFL
 70
     1
  9
$DIMTVP
 40
0.0
  9
$DIMTIX
 70
     0
  9
$DIMSOXD
 70
     0
  9
$DIMSAH
 70
     0
  9
$DIMBLK1
  1

  9
$DIMBLK2
  1

  9
$DIMSTYLE
  2
ISO-25
  9
$DIMCLRD
 70
     0
  9
$DIMCLRE
 70
     0
  9
$DIMCLRT
 70
     0
  9
$DIMTFAC
 40
1.0
  9
$DIMGAP
 40
0.625
  9
$DIMJUST
 70
     0
  9
$DIMSD1
 70
     0
  9
$DIMSD2
 70
     0
  9
$DIMTOLJ
 70
     0
  9
$DIMTZIN
 70
     8
  9
$DIMALTZ
 70
     0
  9
$DIMALTTZ
 70
     0
  9
$DIMUPT
 70
     0
  9
$DIMDEC
 70
     2
  9
$DIMTDEC
 70
     2
  9
$DIMALTU
 70
     2
  9
$DIMALTTD
 70
     3
  9
$DIMTXSTY
  7
Standard
  9
$DIMAUNIT
 70
     0
  9
$DIMADEC
 70
     0
  9
$DIMALTRND
 40
0.0
  9
$DIMAZIN
 70
     0
  9
$DIMDSEP
 70
    44
  9
$DIMATFIT
 70
     3
  9
$DIMFRAC
 70
     0
  9
$DIMLDRBLK
  1

  9
$DIMLUNIT
 70
     2
  9
$DIMLWD
 70
    -2
  9
$DIMLWE
 70
    -2
  9
$DIMTMOVE
 70
     0
  9
$LUNITS
 70
     2
  9
$LUPREC
 70
     4
  9
$SKETCHINC
 40
1.0
  9
$FILLETRAD
 40
10.0
  9
$AUNITS
 70
     0
  9
$AUPREC
 70
     0
  9
$MENU
  1
.
  9
$ELEVATION
 40
0.0
  9
$PELEVATION
 40
0.0
  9
$THICKNESS
 40
0.0
  9
$LIMCHECK
 70
     0
  9
$CHAMFERA
 40
10.0
  9
$CHAMFERB
 40
10.0
  9
$CHAMFERC
 40
20.0
  9
$CHAMFERD
 40
0.0
  9
$SKPOLY
 70
     0
  9
$TDCREATE
 40
2455572.509067801
  9
$TDUCREATE
 40
2455572.467401134
  9
$TDUPDATE
 40
2455572.509067812
  9
$TDUUPDATE
 40
2455572.467401146
  9
$TDINDWG
 40
0.0000000116
  9
$TDUSRTIMER
 40
0.0000000116
  9
$USRTIMER
 70
     1
  9
$ANGBASE
 50
0.0
  9
$ANGDIR
 70
     0
  9
$PDMODE
 70
     0
  9
$PDSIZE
 40
0.0
  9
$PLINEWID
 40
0.0
  9
$SPLFRAME
 70
     0
  9
$SPLINETYPE
 70
     6
  9
$SPLINESEGS
 70
     8
  9
$HANDSEED
  5
103
  9
$SURFTAB1
 70
     6
  9
$SURFTAB2
 70
     6
  9
$SURFTYPE
 70
     6
  9
$SURFU
 70
     6
  9
$SURFV
 70
     6
  9
$UCSBASE
  2

  9
$UCSNAME
  2

  9
$UCSORG
 10
0.0
 20
0.0
 30
0.0
  9
$UCSXDIR
 10
1.0
 20
0.0
 30
0.0
  9
$UCSYDIR
 10
0.0
 20
1.0
 30
0.0
  9
$UCSORTHOREF
  2

  9
$UCSORTHOVIEW
 70
     0
  9
$UCSORGTOP
 10
0.0
 20
0.0
 30
0.0
  9
$UCSORGBOTTOM
 10
0.0
 20
0.0
 30
0.0
  9
$UCSORGLEFT
 10
0.0
 20
0.0
 30
0.0
  9
$UCSORGRIGHT
 10
0.0
 20
0.0
 30
0.0
  9
$UCSORGFRONT
 10
0.0
 20
0.0
 30
0.0
  9
$UCSORGBACK
 10
0.0
 20
0.0
 30
0.0
  9
$PUCSBASE
  2

  9
$PUCSNAME
  2

  9
$PUCSORG
 10
0.0
 20
0.0
 30
0.0
  9
$PUCSXDIR
 10
1.0
 20
0.0
 30
0.0
  9
$PUCSYDIR
 10
0.0
 20
1.0
 30
0.0
  9
$PUCSORTHOREF
  2

  9
$PUCSORTHOVIEW
 70
     0
  9
$PUCSORGTOP
 10
0.0
 20
0.0
 30
0.0
  9
$PUCSORGBOTTOM
 10
0.0
 20
0.0
 30
0.0
  9
$PUCSORGLEFT
 10
0.0
 20
0.0
 30
0.0
  9
$PUCSORGRIGHT
 10
0.0
 20
0.0
 30
0.0
  9
$PUCSORGFRONT
 10
0.0
 20
0.0
 30
0.0
  9
$PUCSORGBACK
 10
0.0
 20
0.0
 30
0.0
  9
$USERI1
 70
     0
  9
$USERI2
 70
     0
  9
$USERI3
 70
     0
  9
$USERI4
 70
     0
  9
$USERI5
 70
     0
  9
$USERR1
 40
0.0
  9
$USERR2
 40
0.0
  9
$USERR3
 40
0.0
  9
$USERR4
 40
0.0
  9
$USERR5
 40
0.0
  9
$WORLDVIEW
 70
     1
  9
$SHADEDGE
 70
     3
  9
$SHADEDIF
 70
    70
  9
$TILEMODE
 70
     1
  9
$MAXACTVP
 70
    64
  9
$PINSBASE
 10
0.0
 20
0.0
 30
0.0
  9
$PLIMCHECK
 70
     0
  9
$PEXTMIN
 10
1.000000E+20
 20
1.000000E+20
 30
1.000000E+20
  9
$PEXTMAX
 10
-1.000000E+20
 20
-1.000000E+20
 30
-1.000000E+20
  9
$PLIMMIN
 10
0.0
 20
0.0
  9
$PLIMMAX
 10
420.0
 20
297.0
  9
$UNITMODE
 70
     0
  9
$VISRETAIN
 70
     1
  9
$PLINEGEN
 70
     0
  9
$PSLTSCALE
 70
     1
  9
$TREEDEPTH
 70
  3020
  9
$CMLSTYLE
  2
Standard
  9
$CMLJUST
 70
     0
  9
$CMLSCALE
 40
20.0
  9
$PROXYGRAPHICS
 70
     1
  9
$MEASUREMENT
 70
     1
  9
$CELWEIGHT
370
    -1
  9
$ENDCAPS
280
     0
  9
$JOINSTYLE
280
     0
  9
$LWDISPLAY
290
     0
  9
$INSUNITS
 70
     4
  9
$HYPERLINKBASE
  1

  9
$STYLESHEET
  1

  9
$XEDIT
290
     1
  9
$CEPSNTYPE
380
     0
  9
$PSTYLEMODE
290
     1
  9
$FINGERPRINTGUID
  2
{85508646-D637-445B-B87B-79B1652D96A4}
  9
$VERSIONGUID
  2
{FAEB1C32-E019-11D5-929B-00C0DF256EC4}
  9
$EXTNAMES
290
     1
  9
$PSVPSCALE
 40
0.0
  9
$OLESTARTUP
290
     0
  0
ENDSEC
  0
SECTION
  2
CLASSES
  0
CLASS
  1
ACDBDICTIONARYWDFLT
  2
AcDbDictionaryWithDefault
  3
ObjectDBX Classes
 90
        0
280
     0
281
     0
  0
CLASS
  1
VISUALSTYLE
  2
AcDbVisualStyle
  3
ObjectDBX Classes
 90
     4095
280
     0
281
     0
  0
CLASS
  1
DICTIONARYVAR
  2
AcDbDictionaryVar
  3
ObjectDBX Classes
 90
        0
280
     0
281
     0
  0
CLASS
  1
ACDBPLACEHOLDER
  2
AcDbPlaceHolder
  3
ObjectDBX Classes
 90
        0
280
     0
281
     0
  0
CLASS
  1
LAYOUT
  2
AcDbLayout
  3
ObjectDBX Classes
 90
        0
280
     0
281
     0
  0
ENDSEC
  0
SECTION
  2
TABLES
  0
TABLE
  2
VPORT
  5
8
330
0
100
AcDbSymbolTable
 70
     1
  0
VPORT
  5
29
330
8
100
AcDbSymbolTableRecord
100
AcDbViewportTableRecord
  2
*Active
 70
     0
 10
0.0
 20
0.0
 11
1.0
 21
1.0
 12
344.186916
 22
148.5
 13
0.0
 23
0.0
 14
10.0
 24
10.0
 15
10.0
 25
10.0
 16
0.0
 26
0.0
 36
1.0
 17
0.0
 27
0.0
 37
0.0
 40
297.0
 41
1.972973
 42
50.0
 43
0.0
 44
0.0
 50
0.0
 51
0.0
 71
     0
 72
   100
 73
     1
 74
     3
 75
     0
 76
     0
 77
     0
 78
     0
281
     0
 65
     1
110
0.0
120
0.0
130
0.0
111
1.0
121
0.0
131
0.0
112
0.0
122
1.0
132
0.0
 79
     0
146
0.0
  0
ENDTAB
  0
TABLE
  2
LTYPE
  5
5
330
0
100
AcDbSymbolTable
 70
     1
  0
LTYPE
  5
14
330
5
100
AcDbSymbolTableRecord
100
AcDbLinetypeTableRecord
  2
ByBlock
 70
     0
  3

 72
    65
 73
     0
 40
0.0
  0
LTYPE
  5
15
330
5
100
AcDbSymbolTableRecord
100
AcDbLinetypeTableRecord
  2
ByLayer
 70
     0
  3

 72
    65
 73
     0
 40
0.0
  0
LTYPE
  5
16
330
5
100
AcDbSymbolTableRecord
100
AcDbLinetypeTableRecord
  2
Continuous
 70
     0
  3
Solid line
 72
    65
 73
     0
 40
0.0
  0
ENDTAB
  0
TABLE
  2
LAYER
  5
2
330
0
100
AcDbSymbolTable
 70
     1
  0
LAYER
  5
10
330
2
100
AcDbSymbolTableRecord
100
AcDbLayerTableRecord
  2
0
 70
     0
 62
   106
  6
Continuous
370
     0
390
F
  0
ENDTAB
  0
TABLE
  2
STYLE
  5
3
330
0
100
AcDbSymbolTable
 70
     4
  0
STYLE
  5
11
330
3
100
AcDbSymbolTableRecord
100
AcDbTextStyleTableRecord
  2
Standard
 70
     0
 40
0.0
 41
1.0
 50
0.0
 71
     0
 42
2.5
  3
txt
  4

  0
STYLE
  5
3B
330
3
100
AcDbSymbolTableRecord
100
AcDbTextStyleTableRecord
  2
Default
 70
     0
 40
0.0
 41
1.0
 50
0.0
 71
     0
 42
0.2
  3

  4

1001
ACAD
1000
txt
1071
        0
  0
STYLE
  5
3C
330
3
100
AcDbSymbolTableRecord
100
AcDbTextStyleTableRecord
  2
ISO
 70
     0
 40
0.0
 41
1.0
 50
0.0
 71
     0
 42
0.2
  3

  4

1001
ACAD
1000
txt
1071
        0
  0
STYLE
  5
3D
330
3
100
AcDbSymbolTableRecord
100
AcDbTextStyleTableRecord
  2
GIANLU
 70
     0
 40
0.0
 41
1.0
 50
0.0
 71
     0
 42
0.2
  3

  4

1001
ACAD
1000
Arial
1071
        0
  0
ENDTAB
  0
TABLE
  2
VIEW
  5
6
330
0
100
AcDbSymbolTable
 70
     0
  0
ENDTAB
  0
TABLE
  2
UCS
  5
7
330
0
100
AcDbSymbolTable
 70
     0
  0
ENDTAB
  0
TABLE
  2
APPID
  5
9
330
0
100
AcDbSymbolTable
 70
     1
  0
APPID
  5
12
330
9
100
AcDbSymbolTableRecord
100
AcDbRegAppTableRecord
  2
ACAD
 70
     0
  0
ENDTAB
  0
TABLE
  2
DIMSTYLE
  5
A
330
0
100
AcDbSymbolTable
 70
     4
100
AcDbDimStyleTable
  0
DIMSTYLE
105
27
330
A
100
AcDbSymbolTableRecord
100
AcDbDimStyleTableRecord
  2
ISO-25
 70
     0
 41
2.5
 42
0.625
 43
3.75
 44
1.25
 73
     0
 74
     0
 77
     1
 78
     8
140
2.5
141
2.5
143
0.03937
147
0.625
171
     3
172
     1
271
     2
272
     2
274
     3
278
    44
283
     0
284
     8
340
11
  0
DIMSTYLE
105
3E
330
A
100
AcDbSymbolTableRecord
100
AcDbDimStyleTableRecord
  2
Default
 70
     0
  3
<>
 41
4.375
 42
1.05
 44
2.1
 73
     0
 74
     0
 77
     1
 78
     8
140
3.5
146
0.4
147
1.75
178
     3
271
     2
272
     3
284
     8
340
3B
341
3F
342
3F
  0
DIMSTYLE
105
46
330
A
100
AcDbSymbolTableRecord
100
AcDbDimStyleTableRecord
  2
ISO
 70
     0
  3
<>
 41
4.375
 42
1.05
 44
2.1
 73
     0
 74
     0
 77
     1
 78
     8
140
3.5
146
0.4
147
1.75
178
     3
271
     2
272
     3
284
     8
340
3C
341
3F
342
3F
  0
DIMSTYLE
105
47
330
A
100
AcDbSymbolTableRecord
100
AcDbDimStyleTableRecord
  2
zucchetti_unico
 70
     0
  3
<>
 41
3.0
 42
0.9
 44
1.8
 73
     0
 74
     0
 77
     1
 78
     8
140
3.0
146
0.6
147
1.5
176
   104
177
     3
178
     3
271
     2
272
     2
284
     8
340
3D
  0
ENDTAB
  0
TABLE
  2
BLOCK_RECORD
  5
1
330
0
100
AcDbSymbolTable
 70
     8
  0
BLOCK_RECORD
  5
1F
330
1
100
AcDbSymbolTableRecord
100
AcDbBlockTableRecord
  2
*Model_Space
340
22
  0
BLOCK_RECORD
  5
1B
330
1
100
AcDbSymbolTableRecord
100
AcDbBlockTableRecord
  2
*Paper_Space
340
1E
  0
BLOCK_RECORD
  5
23
330
1
100
AcDbSymbolTableRecord
100
AcDbBlockTableRecord
  2
*Paper_Space0
340
26
  0
BLOCK_RECORD
  5
3F
330
1
100
AcDbSymbolTableRecord
100
AcDbBlockTableRecord
  2
_CLOSED
340
0
  0
BLOCK_RECORD
  5
48
330
1
100
AcDbSymbolTableRecord
100
AcDbBlockTableRecord
  2
a
340
0
102
{BLKREFS
331
64
102
}
  0
BLOCK_RECORD
  5
65
330
1
100
AcDbSymbolTableRecord
100
AcDbBlockTableRecord
  2
b
340
0
102
{BLKREFS
331
85
102
}
  0
BLOCK_RECORD
  5
86
330
1
100
AcDbSymbolTableRecord
100
AcDbBlockTableRecord
  2
c
340
0
102
{BLKREFS
331
A8
102
}
  0
BLOCK_RECORD
  5
A9
330
1
100
AcDbSymbolTableRecord
100
AcDbBlockTableRecord
  2
d
340
0
102
{BLKREFS
331
AC
102
}
  0
BLOCK_RECORD
  5
AD
330
1
100
AcDbSymbolTableRecord
100
AcDbBlockTableRecord
  2
e
340
0
102
{BLKREFS
331
DA
102
}
  0
BLOCK_RECORD
  5
DB
330
1
100
AcDbSymbolTableRecord
100
AcDbBlockTableRecord
  2
f
340
0
102
{BLKREFS
331
FD
102
}
  0
ENDTAB
  0
ENDSEC
  0
SECTION
  2
BLOCKS
  0
BLOCK
  5
20
330
1F
100
AcDbEntity
  8
0
100
AcDbBlockBegin
  2
*Model_Space
 70
     0
 10
0.0
 20
0.0
 30
0.0
  3
*Model_Space
  1

  0
ENDBLK
  5
21
330
1F
100
AcDbEntity
  8
0
100
AcDbBlockEnd
  0
BLOCK
  5
1C
330
1B
100
AcDbEntity
 67
     1
  8
0
100
AcDbBlockBegin
  2
*Paper_Space
 70
     0
 10
0.0
 20
0.0
 30
0.0
  3
*Paper_Space
  1

  0
ENDBLK
  5
1D
330
1B
100
AcDbEntity
 67
     1
  8
0
100
AcDbBlockEnd
  0
BLOCK
  5
24
330
23
100
AcDbEntity
  8
0
100
AcDbBlockBegin
  2
*Paper_Space0
 70
     0
 10
0.0
 20
0.0
 30
0.0
  3
*Paper_Space0
  1

  0
ENDBLK
  5
25
330
23
100
AcDbEntity
  8
0
100
AcDbBlockEnd
  0
BLOCK
  5
40
330
3F
100
AcDbEntity
  8
0
100
AcDbBlockBegin
  2
_CLOSED
 70
     0
 10
0.0
 20
0.0
 30
0.0
  3
_CLOSED
  1

  0
LINE
  5
42
330
3F
100
AcDbEntity
  8
0
  6
ByBlock
 62
     0
370
    -2
100
AcDbLine
 10
-1.0
 20
0.166667
 30
0.0
 11
0.0
 21
0.0
 31
0.0
  0
LINE
  5
43
330
3F
100
AcDbEntity
  8
0
  6
ByBlock
 62
     0
370
    -2
100
AcDbLine
 10
0.0
 20
0.0
 30
0.0
 11
-1.0
 21
-0.166667
 31
0.0
  0
LINE
  5
44
330
3F
100
AcDbEntity
  8
0
  6
ByBlock
 62
     0
370
    -2
100
AcDbLine
 10
-1.0
 20
0.166667
 30
0.0
 11
-1.0
 21
-0.166667
 31
0.0
  0
LINE
  5
45
330
3F
100
AcDbEntity
  8
0
  6
ByBlock
 62
     0
370
    -2
100
AcDbLine
 10
0.0
 20
0.0
 30
0.0
 11
-1.0
 21
0.0
 31
0.0
  0
ENDBLK
  5
41
330
3F
100
AcDbEntity
  8
0
100
AcDbBlockEnd
  0
BLOCK
  5
62
330
48
100
AcDbEntity
  8
0
100
AcDbBlockBegin
  2
a
 70
     0
 10
70.637581
 20
63.337482
 30
0.0
  3
a
  1

  0
LINE
  5
49
330
48
100
AcDbEntity
  8
0
  6
Continuous
 62
     0
370
    30
100
AcDbLine
 10
161.387787
 20
220.296772
 30
0.0
 11
161.387787
 21
271.796772
 31
0.0
  0
ARC
  5
4A
330
48
100
AcDbEntity
  8
0
  6
Continuous
 62
     0
370
    30
100
AcDbCircle
 10
155.387787
 20
271.796772
 30
0.0
 40
6.0
100
AcDbArc
 50
0.0
 51
90.0
  0
LINE
  5
4B
330
48
100
AcDbEntity
  8
0
  6
Continuous
 62
     0
370
    30
100
AcDbLine
 10
123.144229
 20
277.796772
 30
0.0
 11
103.887787
 21
277.796772
 31
0.0
  0
LINE
  5
4C
330
48
100
AcDbEntity
  8
0
  6
Continuous
 62
     0
370
    30
100
AcDbLine
 10
155.387787
 20
277.796772
 30
0.0
 11
136.144229
 21
277.796772
 31
0.0
  0
ARC
  5
4D
330
48
100
AcDbEntity
  8
0
  6
Continuous
 62
     0
370
    30
100
AcDbCircle
 10
103.887787
 20
271.796772
 30
0.0
 40
6.0
100
AcDbArc
 50
90.0
 51
180.0
  0
LINE
  5
4E
330
48
100
AcDbEntity
  8
0
  6
Continuous
 62
     0
370
    30
100
AcDbLine
 10
97.887787
 20
271.796772
 30
0.0
 11
97.887787
 21
220.296772
 31
0.0
  0
ARC
  5
4F
330
48
100
AcDbEntity
  8
0
  6
Continuous
 62
     0
370
    30
100
AcDbCircle
 10
103.887787
 20
220.296772
 30
0.0
 40
6.0
100
AcDbArc
 50
180.0
 51
270.0
  0
LINE
  5
50
330
48
100
AcDbEntity
  8
0
  6
Continuous
 62
     0
370
    30
100
AcDbLine
 10
103.887787
 20
214.296772
 30
0.0
 11
155.387787
 21
214.296772
 31
0.0
  0
ARC
  5
51
330
48
100
AcDbEntity
  8
0
  6
Continuous
 62
     0
370
    30
100
AcDbCircle
 10
155.387787
 20
220.296772
 30
0.0
 40
6.0
100
AcDbArc
 50
270.0
 51
0.0
  0
LWPOLYLINE
  5
52
330
48
100
AcDbEntity
  8
0
  6
Continuous
 62
     0
370
     0
100
AcDbPolyline
 90
       12
 70
     0
 43
0.0
 10
123.142052
 20
267.071899
 10
123.200134
 20
267.118561
 10
123.373756
 20
267.254608
 10
123.66053
 20
267.469604
 10
124.057983
 20
267.748077
 10
124.562759
 20
268.069031
 10
125.171295
 20
268.410187
 10
125.881371
 20
268.748596
 10
126.692871
 20
269.059296
 10
127.599678
 20
269.314178
 10
128.582626
 20
269.484528
 10
129.642548
 20
269.546783
  0
LWPOLYLINE
  5
53
330
48
100
AcDbEntity
  8
0
  6
Continuous
 62
     0
370
     0
100
AcDbPolyline
 90
       12
 70
     0
 43
0.0
 10
129.642548
 20
269.546783
 10
130.670349
 20
269.487579
 10
131.655289
 20
269.320099
 10
132.56488
 20
269.0672
 10
133.379272
 20
268.757477
 10
134.092453
 20
268.41922
 10
134.704117
 20
268.077515
 10
135.212097
 20
267.755371
 10
135.612869
 20
267.475098
 10
135.903061
 20
267.257812
 10
136.080231
 20
267.119019
 10
136.142014
 20
267.069336
  0
LINE
  5
54
330
48
100
AcDbEntity
  8
0
  6
Continuous
 62
     0
370
     0
100
AcDbLine
 10
129.644888
 20
281.046775
 30
0.0
 11
123.144888
 21
281.048093
 31
0.0
  0
LINE
  5
55
330
48
100
AcDbEntity
  8
0
  6
Continuous
 62
     0
370
     0
100
AcDbLine
 10
136.144888
 20
281.045456
 30
0.0
 11
129.644888
 21
281.046775
 31
0.0
  0
LINE
  5
56
330
48
100
AcDbEntity
  8
0
  6
Continuous
 62
     0
370
    30
100
AcDbLine
 10
135.64499
 20
281.545557
 30
0.0
 11
129.64499
 21
281.546775
 31
0.0
  0
LINE
  5
57
330
48
100
AcDbEntity
  8
0
  6
Continuous
 62
     0
370
    30
100
AcDbLine
 10
129.64499
 20
281.546775
 30
0.0
 11
123.64499
 21
281.547992
 31
0.0
  0
ARC
  5
58
330
48
100
AcDbEntity
  8
0
  6
Continuous
 62
     0
370
    30
100
AcDbCircle
 10
129.637787
 20
246.046775
 30
0.0
 40
19.50000000000001
100
AcDbArc
 50
89.988375
 51
269.988375
  0
ARC
  5
59
330
48
100
AcDbEntity
  8
0
  6
Continuous
 62
     0
370
    30
100
AcDbCircle
 10
129.637787
 20
246.046775
 30
0.0
 40
19.50000000000001
100
AcDbArc
 50
269.988375
 51
89.988375
  0
ARC
  5
5A
330
48
100
AcDbEntity
  8
0
  6
Continuous
 62
     0
370
     0
100
AcDbCircle
 10
129.637787
 20
246.046775
 30
0.0
 40
19.00000000000002
100
AcDbArc
 50
269.988375
 51
89.988375
  0
ARC
  5
5B
330
48
100
AcDbEntity
  8
0
  6
Continuous
 62
     0
370
     0
100
AcDbCircle
 10
129.637787
 20
246.046775
 30
0.0
 40
19.00000000000002
100
AcDbArc
 50
89.988375
 51
269.988375
  0
ARC
  5
5C
330
48
100
AcDbEntity
  8
0
  6
Continuous
 62
     0
370
    30
100
AcDbCircle
 10
123.644891
 20
281.047989
 30
0.0
 40
0.5000027447895157
100
AcDbArc
 50
89.990039
 51
179.98806
  0
ARC
  5
5D
330
48
100
AcDbEntity
  8
0
  6
Continuous
 62
     0
370
    30
100
AcDbCircle
 10
135.644885
 20
281.045554
 30
0.0
 40
0.5000027443666506
100
AcDbArc
 50
359.988689
 51
89.986775
  0
LINE
  5
5E
330
48
100
AcDbEntity
  8
0
  6
Continuous
 62
     0
370
    30
100
AcDbLine
 10
136.142052
 20
267.069135
 30
0.0
 11
136.144888
 21
281.045456
 31
0.0
  0
LINE
  5
5F
330
48
100
AcDbEntity
  8
0
  6
Continuous
 62
     0
370
    30
100
AcDbLine
 10
123.142053
 20
267.071773
 30
0.0
 11
123.144888
 21
281.048093
 31
0.0
  0
LWPOLYLINE
  5
60
330
48
100
AcDbEntity
  8
0
  6
Continuous
 62
     0
370
    30
100
AcDbPolyline
 90
        7
 70
     0
 43
0.0
 10
136.142014
 20
267.069336
 10
136.209198
 20
266.33902
 10
136.408417
 20
265.633179
 10
136.733231
 20
264.975616
 10
137.172668
 20
264.388428
 10
137.711975
 20
263.891418
 10
138.353989
 20
263.490387
  0
LWPOLYLINE
  5
61
330
48
100
AcDbEntity
  8
0
  6
Continuous
 62
     0
370
    30
100
AcDbPolyline
 90
       11
 70
     0
 43
0.0
 10
123.142052
 20
267.071899
 10
123.117256
 20
266.629089
 10
123.043732
 20
266.191559
 10
122.922234
 20
265.764954
 10
122.754166
 20
265.354431
 10
122.541725
 20
264.965057
 10
122.28743
 20
264.601593
 10
121.994507
 20
264.268494
 10
121.666428
 20
263.969971
 10
121.307327
 20
263.709564
 10
120.928581
 20
263.493835
  0
ENDBLK
  5
63
330
48
100
AcDbEntity
  8
0
100
AcDbBlockEnd
  0
BLOCK
  5
83
330
65
100
AcDbEntity
  8
0
100
AcDbBlockBegin
  2
b
 70
     0
 10
76.20158
 20
63.337482
 30
0.0
  3
b
  1

  0
LINE
  5
66
330
65
100
AcDbEntity
  8
0
  6
Continuous
 62
     0
370
    30
100
AcDbLine
 10
155.387787
 20
112.252012
 30
0.0
 11
161.387787
 21
112.252012
 31
0.0
  0
LINE
  5
67
330
65
100
AcDbEntity
  8
0
  6
Continuous
 62
     0
370
    30
100
AcDbLine
 10
155.387787
 20
112.252012
 30
0.0
 11
103.887787
 21
112.252012
 31
0.0
  0
LINE
  5
68
330
65
100
AcDbEntity
  8
0
  6
Continuous
 62
     0
370
    30
100
AcDbLine
 10
97.887787
 20
112.252012
 30
0.0
 11
103.887787
 21
112.252012
 31
0.0
  0
LINE
  5
69
330
65
100
AcDbEntity
  8
0
  6
Continuous
 62
     0
370
    30
100
AcDbLine
 10
97.887787
 20
121.252012
 30
0.0
 11
103.887787
 21
121.252012
 31
0.0
  0
LINE
  5
6A
330
65
100
AcDbEntity
  8
0
  6
Continuous
 62
     0
370
    30
100
AcDbLine
 10
155.387787
 20
121.252012
 30
0.0
 11
103.887787
 21
121.252012
 31
0.0
  0
LINE
  5
6B
330
65
100
AcDbEntity
  8
0
  6
Continuous
 62
     0
370
    30
100
AcDbLine
 10
155.387787
 20
121.252012
 30
0.0
 11
161.387787
 21
121.252012
 31
0.0
  0
LINE
  5
6C
330
65
100
AcDbEntity
  8
0
  6
Continuous
 62
     0
370
    30
100
AcDbLine
 10
97.887787
 20
121.252012
 30
0.0
 11
97.887787
 21
112.252012
 31
0.0
  0
LINE
  5
6D
330
65
100
AcDbEntity
  8
0
  6
Continuous
 62
     0
370
     0
100
AcDbLine
 10
103.887787
 20
121.252012
 30
0.0
 11
103.887787
 21
112.252012
 31
0.0
  0
LINE
  5
6E
330
65
100
AcDbEntity
  8
0
  6
Continuous
 62
     0
370
     0
100
AcDbLine
 10
155.387787
 20
121.252012
 30
0.0
 11
155.387787
 21
112.252012
 31
0.0
  0
LINE
  5
6F
330
65
100
AcDbEntity
  8
0
  6
Continuous
 62
     0
370
    30
100
AcDbLine
 10
161.387787
 20
121.252012
 30
0.0
 11
161.387787
 21
112.252012
 31
0.0
  0
ARC
  5
70
330
65
100
AcDbEntity
  8
0
  6
Continuous
 62
     0
370
    30
100
AcDbCircle
 10
129.642052
 20
83.452011
 30
0.0
 40
6.499999837078924
100
AcDbArc
 50
89.995492
 51
270.004432
  0
LWPOLYLINE
  5
71
330
65
100
AcDbEntity
  8
0
  6
Continuous
 62
     0
370
     0
100
AcDbPolyline
 90
       30
 70
     0
 43
0.0
 10
129.641754
 20
93.952003
 10
130.694092
 20
93.874992
 10
131.719498
 20
93.648972
 10
132.695618
 20
93.285355
 10
133.607391
 20
92.800964
 10
134.445755
 20
92.211716
 10
135.205795
 20
91.532158
 10
135.886047
 20
90.774414
 10
136.486115
 20
89.948952
 10
137.005493
 20
89.063705
 10
137.443314
 20
88.126083
 10
137.797928
 20
87.143356
 10
138.067337
 20
86.123497
 10
138.249237
 20
85.075531
 10
138.341721
 20
84.009682
 10
138.343491
 20
82.937569
 10
138.254623
 20
81.871185
 10
138.076569
 20
80.822731
 10
137.810745
 20
79.801689
 10
137.45845
 20
78.815132
 10
137.021469
 20
77.871315
 10
136.501831
 20
76.979469
 10
135.901627
 20
76.148857
 10
135.222626
 20
75.388657
 10
134.464783
 20
74.707695
 10
133.628494
 20
74.116051
 10
132.71814
 20
73.628792
 10
131.743149
 20
73.262306
 10
130.720169
 20
73.032997
 10
129.641739
 20
72.952011
  0
LWPOLYLINE
  5
72
330
65
100
AcDbEntity
  8
0
  6
Continuous
 62
     0
370
     0
100
AcDbPolyline
 90
       30
 70
     0
 43
0.0
 10
129.641739
 20
72.952011
 10
128.591125
 20
73.028648
 10
127.567001
 20
73.254173
 10
126.590408
 20
73.617302
 10
125.678146
 20
74.101662
 10
124.839798
 20
74.690811
 10
124.079697
 20
75.369576
 10
123.398407
 20
76.127777
 10
122.795959
 20
76.956657
 10
122.274078
 20
77.847023
 10
121.834816
 20
78.789612
 10
121.480194
 20
79.775185
 10
121.211967
 20
80.795441
 10
121.031517
 20
81.843323
 10
120.940269
 20
82.909439
 10
120.939659
 20
83.981583
 10
121.0298
 20
85.047768
 10
121.209435
 20
86.096397
 10
121.476669
 20
87.11718
 10
121.829155
 20
88.10096
 10
122.2649
 20
89.03981
 10
122.782272
 20
89.926582
 10
123.380394
 20
90.753777
 10
124.058792
 20
91.513359
 10
124.816856
 20
92.195122
 10
125.653084
 20
92.787193
 10
126.563034
 20
93.274605
 10
127.537956
 20
93.641319
 10
128.5625
 20
93.870926
 10
129.641754
 20
93.952003
  0
ARC
  5
73
330
65
100
AcDbEntity
  8
0
  6
Continuous
 62
     0
370
    30
100
AcDbCircle
 10
129.644888
 20
83.45201
 30
0.0
 40
6.499999999999995
100
AcDbArc
 50
90.000001
 51
269.999999
  0
ARC
  5
74
330
65
100
AcDbEntity
  8
0
  6
Continuous
 62
     0
370
    30
100
AcDbCircle
 10
129.644888
 20
83.45201
 30
0.0
 40
6.499999999999995
100
AcDbArc
 50
270.000001
 51
89.999999
  0
ARC
  5
75
330
65
100
AcDbEntity
  8
0
  6
Continuous
 62
     0
370
     0
100
AcDbCircle
 10
129.64499
 20
83.45201
 30
0.0
 40
5.999999999999996
100
AcDbArc
 50
270.000001
 51
89.999999
  0
ARC
  5
76
330
65
100
AcDbEntity
  8
0
  6
Continuous
 62
     0
370
     0
100
AcDbCircle
 10
129.64499
 20
83.45201
 30
0.0
 40
5.999999999999996
100
AcDbArc
 50
90.000001
 51
269.999999
  0
LINE
  5
77
330
65
100
AcDbEntity
  8
0
  6
Continuous
 62
     0
370
     0
100
AcDbLine
 10
110.137787
 20
68.952012
 30
0.0
 11
129.641743
 21
68.952012
 31
0.0
  0
LINE
  5
78
330
65
100
AcDbEntity
  8
0
  6
Continuous
 62
     0
370
     0
100
AcDbLine
 10
129.641743
 20
68.952012
 30
0.0
 11
149.137787
 21
68.952012
 31
0.0
  0
LINE
  5
79
330
65
100
AcDbEntity
  8
0
  6
Continuous
 62
     0
370
    30
100
AcDbLine
 10
149.137787
 20
110.452012
 30
0.0
 11
129.641743
 21
110.452012
 31
0.0
  0
LINE
  5
7A
330
65
100
AcDbEntity
  8
0
  6
Continuous
 62
     0
370
    30
100
AcDbLine
 10
129.641743
 20
110.452012
 30
0.0
 11
110.137787
 21
110.452012
 31
0.0
  0
LINE
  5
7B
330
65
100
AcDbEntity
  8
0
  6
Continuous
 62
     0
370
    30
100
AcDbLine
 10
129.641642
 20
68.452011
 30
0.0
 11
148.637787
 21
68.452012
 31
0.0
  0
LINE
  5
7C
330
65
100
AcDbEntity
  8
0
  6
Continuous
 62
     0
370
    30
100
AcDbLine
 10
110.637787
 20
68.452012
 30
0.0
 11
129.641642
 21
68.452011
 31
0.0
  0
ARC
  5
7D
330
65
100
AcDbEntity
  8
0
  6
Continuous
 62
     0
370
    30
100
AcDbCircle
 10
110.63779
 20
68.952015
 30
0.0
 40
0.5000027564845442
100
AcDbArc
 50
180.000316
 51
269.995495
  0
ARC
  5
7E
330
65
100
AcDbEntity
  8
0
  6
Continuous
 62
     0
370
    30
100
AcDbCircle
 10
148.637784
 20
68.952015
 30
0.0
 40
0.5000027564750212
100
AcDbArc
 50
270.004504
 51
359.999684
  0
LINE
  5
7F
330
65
100
AcDbEntity
  8
0
  6
Continuous
 62
     0
370
    30
100
AcDbLine
 10
149.137787
 20
110.452012
 30
0.0
 11
149.137787
 21
68.952012
 31
0.0
  0
LINE
  5
80
330
65
100
AcDbEntity
  8
0
  6
Continuous
 62
     0
370
    30
100
AcDbLine
 10
110.137787
 20
110.452012
 30
0.0
 11
110.137787
 21
68.952012
 31
0.0
  0
LINE
  5
81
330
65
100
AcDbEntity
  8
0
  6
Continuous
 62
     0
370
    30
100
AcDbLine
 10
143.49031
 20
110.452012
 30
0.0
 11
143.49031
 21
112.252013
 31
0.0
  0
LINE
  5
82
330
65
100
AcDbEntity
  8
0
  6
Continuous
 62
     0
370
    30
100
AcDbLine
 10
115.785264
 20
110.452012
 30
0.0
 11
115.785264
 21
112.252013
 31
0.0
  0
ENDBLK
  5
84
330
65
100
AcDbEntity
  8
0
100
AcDbBlockEnd
  0
BLOCK
  5
A6
330
86
100
AcDbEntity
  8
0
100
AcDbBlockBegin
  2
c
 70
     0
 10
41.646614
 20
63.41251
 30
0.0
  3
c
  1

  0
LINE
  5
87
330
86
100
AcDbEntity
  8
0
  6
Continuous
 62
     0
370
    30
100
AcDbLine
 10
249.321258
 20
271.796772
 30
0.0
 11
249.321258
 21
277.796772
 31
0.0
  0
LINE
  5
88
330
86
100
AcDbEntity
  8
0
  6
Continuous
 62
     0
370
    30
100
AcDbLine
 10
249.321258
 20
271.796772
 30
0.0
 11
249.321258
 21
220.296772
 31
0.0
  0
LINE
  5
89
330
86
100
AcDbEntity
  8
0
  6
Continuous
 62
     0
370
    30
100
AcDbLine
 10
249.321258
 20
214.296772
 30
0.0
 11
249.321258
 21
220.296772
 31
0.0
  0
LINE
  5
8A
330
86
100
AcDbEntity
  8
0
  6
Continuous
 62
     0
370
    30
100
AcDbLine
 10
240.321258
 20
214.296772
 30
0.0
 11
249.321258
 21
214.296772
 31
0.0
  0
LINE
  5
8B
330
86
100
AcDbEntity
  8
0
  6
Continuous
 62
     0
370
     0
100
AcDbLine
 10
240.321258
 20
220.296772
 30
0.0
 11
249.321258
 21
220.296772
 31
0.0
  0
LINE
  5
8C
330
86
100
AcDbEntity
  8
0
  6
Continuous
 62
     0
370
    30
100
AcDbLine
 10
240.321258
 20
214.296772
 30
0.0
 11
240.321258
 21
220.296772
 31
0.0
  0
LINE
  5
8D
330
86
100
AcDbEntity
  8
0
  6
Continuous
 62
     0
370
    30
100
AcDbLine
 10
240.321258
 20
271.796772
 30
0.0
 11
240.321258
 21
220.296772
 31
0.0
  0
LINE
  5
8E
330
86
100
AcDbEntity
  8
0
  6
Continuous
 62
     0
370
    30
100
AcDbLine
 10
240.321258
 20
271.796772
 30
0.0
 11
240.321258
 21
277.796772
 31
0.0
  0
LINE
  5
8F
330
86
100
AcDbEntity
  8
0
  6
Continuous
 62
     0
370
     0
100
AcDbLine
 10
240.321258
 20
271.796772
 30
0.0
 11
249.321258
 21
271.796772
 31
0.0
  0
LINE
  5
90
330
86
100
AcDbEntity
  8
0
  6
Continuous
 62
     0
370
    30
100
AcDbLine
 10
240.321258
 20
277.796772
 30
0.0
 11
249.321258
 21
277.796772
 31
0.0
  0
ARC
  5
91
330
86
100
AcDbEntity
  8
0
  6
Continuous
 62
     0
370
    30
100
AcDbCircle
 10
288.64619
 20
269.551737
 30
0.0
 40
4.024935199165556
100
AcDbArc
 50
180.070641
 51
196.713695
  0
LWPOLYLINE
  5
92
330
86
100
AcDbEntity
  8
0
  6
Continuous
 62
     0
370
     0
100
AcDbPolyline
 90
       26
 70
     0
 43
0.0
 10
271.621246
 20
269.546783
 10
271.685303
 20
269.500885
 10
271.872009
 20
269.368927
 10
272.169006
 20
269.165527
 10
272.560394
 20
268.909912
 10
273.031158
 20
268.622101
 10
273.568848
 20
268.320557
 10
274.163422
 20
268.022278
 10
274.807007
 20
267.742706
 10
275.492493
 20
267.496338
 10
276.212769
 20
267.296722
 10
276.959534
 20
267.155487
 10
277.723328
 20
267.081787
 10
278.493103
 20
267.080566
 10
279.257294
 20
267.151855
 10
280.004395
 20
267.29068
 10
280.726257
 20
267.488861
 10
281.415741
 20
267.735413
 10
282.064117
 20
268.015686
 10
282.662354
 20
268.314453
 10
283.201599
 20
268.616272
 10
283.673401
 20
268.904449
 10
284.066559
 20
269.160828
 10
284.365631
 20
269.365509
 10
284.554718
 20
269.499115
 10
284.621246
 20
269.546783
  0
LWPOLYLINE
  5
93
330
86
100
AcDbEntity
  8
0
  6
Continuous
 62
     0
370
     0
100
AcDbPolyline
 90
       30
 70
     0
 43
0.0
 10
288.621246
 20
265.546783
 10
288.544495
 20
265.518585
 10
288.318573
 20
265.436249
 10
287.954865
 20
265.306488
 10
287.469757
 20
265.139618
 10
286.8797
 20
264.946228
 10
286.199951
 20
264.736725
 10
285.440674
 20
264.520386
 10
284.610657
 20
264.30603
 10
283.719116
 20
264.101929
 10
282.77533
 20
263.916229
 10
281.788544
 20
263.75705
 10
280.76709
 20
263.631317
 10
279.718048
 20
263.544128
 10
278.650879
 20
263.49942
 10
277.57782
 20
263.499695
 10
276.510864
 20
263.544952
 10
275.46167
 20
263.632812
 10
274.440491
 20
263.759064
 10
273.456512
 20
263.917908
 10
272.51767
 20
264.1026
 10
271.631134
 20
264.305786
 10
270.804413
 20
264.519623
 10
270.045563
 20
264.735931
 10
269.364929
 20
264.945648
 10
268.774384
 20
265.139252
 10
268.289032
 20
265.306183
 10
267.924988
 20
265.435913
 10
267.698608
 20
265.518341
 10
267.621277
 20
265.546753
  0
LINE
  5
94
330
86
100
AcDbEntity
  8
0
  6
Continuous
 62
     0
370
    30
100
AcDbLine
 10
284.621258
 20
269.546775
 30
0.0
 11
284.621258
 21
281.046775
 31
0.0
  0
ELLIPSE
  5
95
330
86
100
AcDbEntity
  8
0
  6
Continuous
 62
     0
370
     0
100
AcDbEllipse
 10
278.121258
 20
281.046775
 30
0.0
 11
6.5
 21
5.764751237764442E-11
 31
0.0
210
0.0
220
0.0
230
1.0
 40
0.000203
 41
6.283185263468197
 42
9.424777917057991
  0
ARC
  5
96
330
86
100
AcDbEntity
  8
0
  6
Continuous
 62
     0
370
     0
100
AcDbCircle
 10
278.121258
 20
-14504.382728
 30
0.0
 40
14785.93072010474
100
AcDbArc
 50
89.97675
 51
90.02325
  0
LINE
  5
97
330
86
100
AcDbEntity
  8
0
  6
Continuous
 62
     0
370
    30
100
AcDbLine
 10
251.121258
 20
226.546776
 30
0.0
 11
292.621258
 21
226.546776
 31
0.0
  0
LINE
  5
98
330
86
100
AcDbEntity
  8
0
  6
Continuous
 62
     0
370
     0
100
AcDbLine
 10
292.621258
 20
226.546776
 30
0.0
 11
292.621258
 21
265.546775
 31
0.0
  0
LINE
  5
99
330
86
100
AcDbEntity
  8
0
  6
Continuous
 62
     0
370
    30
100
AcDbLine
 10
251.121258
 20
265.546775
 30
0.0
 11
251.121258
 21
226.546776
 31
0.0
  0
LINE
  5
9A
330
86
100
AcDbEntity
  8
0
  6
Continuous
 62
     0
370
    30
100
AcDbLine
 10
293.121258
 20
227.046776
 30
0.0
 11
293.121258
 21
265.046775
 31
0.0
  0
ARC
  5
9B
330
86
100
AcDbEntity
  8
0
  6
Continuous
 62
     0
370
    30
100
AcDbCircle
 10
292.621258
 20
227.046776
 30
0.0
 40
0.4999999948493006
100
AcDbArc
 50
269.999999
 51
359.999999
  0
ARC
  5
9C
330
86
100
AcDbEntity
  8
0
  6
Continuous
 62
     0
370
    30
100
AcDbCircle
 10
284.121258
 20
281.046775
 30
0.0
 40
0.4999999948590849
100
AcDbArc
 50
0.000001
 51
89.999919
  0
LWPOLYLINE
  5
9D
330
86
100
AcDbEntity
  8
0
  6
Continuous
 62
     0
370
    30
100
AcDbPolyline
 90
       19
 70
     0
 43
0.0
 10
271.621246
 20
281.046783
 10
271.652954
 20
281.221893
 10
271.744019
 20
281.374939
 10
271.882904
 20
281.486298
 10
272.052002
 20
281.541901
 10
272.119385
 20
281.546783
 10
272.128571
 20
281.546844
 10
272.141754
 20
281.546875
 10
272.159912
 20
281.546906
 10
272.183228
 20
281.546936
 10
272.211761
 20
281.546997
 10
272.245453
 20
281.547028
 10
272.284332
 20
281.547058
 10
272.328339
 20
281.547089
 10
272.377563
 20
281.547119
 10
272.431854
 20
281.54715
 10
272.491302
 20
281.547211
 10
272.554016
 20
281.547241
 10
272.628021
 20
281.547272
  0
ARC
  5
9E
330
86
100
AcDbEntity
  8
0
  6
Continuous
 62
     0
370
    30
100
AcDbCircle
 10
292.621255
 20
265.046773
 30
0.0
 40
0.5000026977402965
100
AcDbArc
 50
0.000325
 51
89.999691
  0
LINE
  5
9F
330
86
100
AcDbEntity
  8
0
  6
Continuous
 62
     0
370
    30
100
AcDbLine
 10
251.121258
 20
265.546775
 30
0.0
 11
267.621311
 21
265.546775
 31
0.0
  0
LINE
  5
A0
330
86
100
AcDbEntity
  8
0
  6
Continuous
 62
     0
370
    30
100
AcDbLine
 10
288.621212
 20
265.546775
 30
0.0
 11
292.621258
 21
265.546775
 31
0.0
  0
LINE
  5
A1
330
86
100
AcDbEntity
  8
0
  6
Continuous
 62
     0
370
    30
100
AcDbLine
 10
271.621258
 20
269.546775
 30
0.0
 11
271.621258
 21
281.046775
 31
0.0
  0
LWPOLYLINE
  5
A2
330
86
100
AcDbEntity
  8
0
  6
Continuous
 62
     0
370
    30
100
AcDbPolyline
 90
        9
 70
     0
 43
0.0
 10
288.621246
 20
265.546783
 10
287.997162
 20
265.596252
 10
287.388123
 20
265.741852
 10
286.809418
 20
265.980652
 10
286.275177
 20
266.30719
 10
285.798279
 20
266.712921
 10
285.390747
 20
267.188232
 10
285.062286
 20
267.721222
 10
284.79129
 20
268.394196
  0
ARC
  5
A3
330
86
100
AcDbEntity
  8
0
  6
Continuous
 62
     0
370
    30
100
AcDbCircle
 10
267.62124
 20
269.546787
 30
0.0
 40
4.000018817084378
100
AcDbArc
 50
270.000363
 51
359.999829
  0
LINE
  5
A4
330
86
100
AcDbEntity
  8
0
  6
Continuous
 62
     0
370
    30
100
AcDbLine
 10
251.121258
 20
232.194249
 30
0.0
 11
249.321257
 21
232.194249
 31
0.0
  0
LINE
  5
A5
330
86
100
AcDbEntity
  8
0
  6
Continuous
 62
     0
370
    30
100
AcDbLine
 10
251.121258
 20
259.899295
 30
0.0
 11
249.321257
 21
259.899295
 31
0.0
  0
ENDBLK
  5
A7
330
86
100
AcDbEntity
  8
0
100
AcDbBlockEnd
  0
BLOCK
  5
AA
330
A9
100
AcDbEntity
  8
0
100
AcDbBlockBegin
  2
d
 70
     0
 10
70.637581
 20
63.337482
 30
0.0
  3
d
  1

  0
ENDBLK
  5
AB
330
A9
100
AcDbEntity
  8
0
100
AcDbBlockEnd
  0
BLOCK
  5
D8
330
AD
100
AcDbEntity
  8
0
100
AcDbBlockBegin
  2
e
 70
     0
 10
232.01413
 20
60.970413
 30
0.0
  3
e
  1

  0
LINE
  5
AE
330
AD
100
AcDbEntity
  8
0
  6
Continuous
 62
     0
370
    30
100
AcDbLine
 10
300.697804
 20
74.093405
 30
0.0
 11
300.697804
 21
110.509405
 31
0.0
  0
ELLIPSE
  5
AF
330
AD
100
AcDbEntity
  8
0
  6
Continuous
 62
     0
370
    30
100
AcDbEllipse
 10
296.455163
 20
113.509405
 30
0.0
 11
-3.464101595375897
 21
4.898979499540101
 31
0.0
210
0.0
220
0.0
230
-0.9999999999999999
 40
0.5
 41
0.9553166100567646
 42
2.526112936851664
  0
LINE
  5
B0
330
AD
100
AcDbEntity
  8
0
  6
Continuous
 62
     0
370
    30
100
AcDbLine
 10
296.455163
 20
117.752046
 30
0.0
 11
260.039164
 21
143.502045
 31
0.0
  0
ELLIPSE
  5
B1
330
AD
100
AcDbEntity
  8
0
  6
Continuous
 62
     0
370
    30
100
AcDbEllipse
 10
260.039164
 20
139.259405
 30
0.0
 11
-3.464101595375897
 21
4.898979499540101
 31
0.0
210
0.0
220
0.0
230
-0.9999999999999999
 40
0.5
 41
5.667705590441454
 42
7.23850191723635
  0
LINE
  5
B2
330
AD
100
AcDbEntity
  8
0
  6
Continuous
 62
     0
370
    30
100
AcDbLine
 10
255.796523
 20
142.259405
 30
0.0
 11
255.796523
 21
123.014746
 31
0.0
  0
LINE
  5
B3
330
AD
100
AcDbEntity
  8
0
  6
Continuous
 62
     0
370
    30
100
AcDbLine
 10
279.259657
 20
85.009823
 30
0.0
 11
296.455163
 21
72.850765
 31
0.0
  0
ELLIPSE
  5
B4
330
AD
100
AcDbEntity
  8
0
  6
Continuous
 62
     0
370
    30
100
AcDbEllipse
 10
296.455163
 20
77.093405
 30
0.0
 11
-3.464101595375897
 21
4.898979499540101
 31
0.0
210
0.0
220
0.0
230
-0.9999999999999999
 40
0.5
 41
2.526112936851662
 42
4.096909263646559
  0
ELLIPSE
  5
B5
330
AD
100
AcDbEntity
  8
0
  6
Continuous
 62
     0
370
    30
100
AcDbEllipse
 10
302.819124
 20
81.593405
 30
0.0
 11
-3.464101595375897
 21
4.898979499540101
 31
0.0
210
0.0
220
0.0
230
-0.9999999999999999
 40
0.5
 41
2.526112936851662
 42
3.141592641488174
  0
ELLIPSE
  5
B6
330
AD
100
AcDbEntity
  8
0
  6
Continuous
 62
     0
370
    30
100
AcDbEllipse
 10
266.403125
 20
143.759405
 30
0.0
 11
-3.464101595375897
 21
4.898979499540101
 31
0.0
210
0.0
220
0.0
230
-0.9999999999999999
 40
0.5
 41
6.283185295077969
 42
7.23850191723635
  0
LINE
  5
B7
330
AD
100
AcDbEntity
  8
0
  6
Continuous
 62
     0
370
    30
100
AcDbLine
 10
302.819124
 20
122.252046
 30
0.0
 11
266.403125
 21
148.002045
 31
0.0
  0
ELLIPSE
  5
B8
330
AD
100
AcDbEntity
  8
0
  6
Continuous
 62
     0
370
    30
100
AcDbEllipse
 10
302.819124
 20
118.009405
 30
0.0
 11
-3.464101595375897
 21
4.898979499540101
 31
0.0
210
0.0
220
0.0
230
-0.9999999999999999
 40
0.5
 41
0.9553166100567645
 42
2.526112936851664
  0
LINE
  5
B9
330
AD
100
AcDbEntity
  8
0
  6
Continuous
 62
     0
370
    30
100
AcDbLine
 10
307.061765
 20
78.593405
 30
0.0
 11
307.061765
 21
115.009405
 31
0.0
  0
LINE
  5
BA
330
AD
100
AcDbEntity
  8
0
  6
Continuous
 62
     0
370
     0
100
AcDbLine
 10
266.403125
 20
148.002045
 30
0.0
 11
260.039164
 21
143.502045
 31
0.0
  0
LINE
  5
BB
330
AD
100
AcDbEntity
  8
0
  6
Continuous
 62
     0
370
     0
100
AcDbLine
 10
302.819124
 20
122.252046
 30
0.0
 11
296.455163
 21
117.752046
 31
0.0
  0
LINE
  5
BC
330
AD
100
AcDbEntity
  8
0
  6
Continuous
 62
     0
370
     0
100
AcDbLine
 10
307.061765
 20
115.009405
 30
0.0
 11
300.697804
 21
110.509405
 31
0.0
  0
LINE
  5
BD
330
AD
100
AcDbEntity
  8
0
  6
Continuous
 62
     0
370
     0
100
AcDbLine
 10
307.061765
 20
78.593405
 30
0.0
 11
300.697804
 21
74.093405
 31
0.0
  0
LWPOLYLINE
  5
BE
330
AD
100
AcDbEntity
  8
0
  6
Continuous
 62
     0
370
     0
100
AcDbPolyline
 90
        7
 70
     0
 43
0.0
 10
251.385681
 20
109.547737
 10
251.42952
 20
109.207413
 10
251.568939
 20
108.852608
 10
251.809845
 20
108.477654
 10
252.157806
 20
108.079857
 10
252.612549
 20
107.661316
 10
253.289658
 20
107.141029
  0
LWPOLYLINE
  5
BF
330
AD
100
AcDbEntity
  8
0
  6
Continuous
 62
     0
370
     0
100
AcDbPolyline
 90
       18
 70
     0
 43
0.0
 10
253.289658
 20
107.141029
 10
254.064835
 20
106.632057
 10
254.918472
 20
106.145103
 10
255.81517
 20
105.702126
 10
256.725189
 20
105.321266
 10
257.630127
 20
105.015114
 10
258.520508
 20
104.794502
 10
259.386261
 20
104.670021
 10
260.216095
 20
104.65229
 10
260.998962
 20
104.751488
 10
261.725861
 20
104.974632
 10
262.386536
 20
105.324409
 10
262.967926
 20
105.797722
 10
263.459412
 20
106.383842
 10
263.852753
 20
107.067116
 10
264.141724
 20
107.828728
 10
264.321228
 20
108.64904
 10
264.385681
 20
109.540382
  0
LWPOLYLINE
  5
C0
330
AD
100
AcDbEntity
  8
0
  6
Continuous
 62
     0
370
     0
100
AcDbPolyline
 90
       30
 70
     0
 43
0.0
 10
265.309906
 20
112.813004
 10
266.000122
 20
112.227478
 10
266.565704
 20
111.542458
 10
266.998901
 20
110.779724
 10
267.300995
 20
109.962715
 10
267.476807
 20
109.111305
 10
267.533173
 20
108.242378
 10
267.477722
 20
107.369576
 10
267.317505
 20
106.504829
 10
267.057831
 20
105.658157
 10
266.703308
 20
104.839241
 10
266.257935
 20
104.057762
 10
265.725922
 20
103.323471
 10
265.112091
 20
102.646156
 10
264.422333
 20
102.034897
 10
263.663971
 20
101.497864
 10
262.845581
 20
101.041
 10
261.976837
 20
100.667892
 10
261.06543
 20
100.379822
 10
260.11731
 20
100.176033
 10
259.139618
 20
100.054939
 10
258.14032
 20
100.014404
 10
257.127502
 20
100.052261
 10
256.108856
 20
100.166405
 10
255.090637
 20
100.355003
 10
254.080338
 20
100.616287
 10
253.091858
 20
100.948341
 10
252.143677
 20
101.347099
 10
251.259232
 20
101.805069
 10
250.460663
 20
102.313011
  0
LWPOLYLINE
  5
C1
330
AD
100
AcDbEntity
  8
0
  6
Continuous
 62
     0
370
     0
100
AcDbPolyline
 90
        3
 70
     0
 43
0.0
 10
264.386444
 20
113.338669
 10
264.518158
 20
113.277298
 10
265.309906
 20
112.813004
  0
LWPOLYLINE
  5
C2
330
AD
100
AcDbEntity
  8
0
  6
Continuous
 62
     0
370
     0
100
AcDbPolyline
 90
       14
 70
     0
 43
0.0
 10
250.460663
 20
102.313011
 10
249.72258
 20
102.900948
 10
249.129822
 20
103.514488
 10
248.689789
 20
104.139671
 10
248.401794
 20
104.765465
 10
248.258133
 20
105.386253
 10
248.249466
 20
106.000526
 10
248.367584
 20
106.610703
 10
248.605362
 20
107.21804
 10
248.95636
 20
107.822723
 10
249.414154
 20
108.424873
 10
249.972717
 20
109.024429
 10
250.626923
 20
109.620735
 10
251.385818
 20
110.222618
  0
ELLIPSE
  5
C3
330
AD
100
AcDbEntity
  8
0
  6
Continuous
 62
     0
370
     0
100
AcDbEllipse
 10
257.887509
 20
118.521593
 30
0.0
 11
6.499999866170089
 21
-0.001319010554592306
 31
0.0
210
0.0
220
0.0
230
-1.0
 40
0.707208
 41
2.356050990468009
 42
3.141879871772036
  0
ELLIPSE
  5
C4
330
AD
100
AcDbEntity
  8
0
  6
Continuous
 62
     0
370
     0
100
AcDbEllipse
 10
257.887509
 20
118.521593
 30
0.0
 11
6.499999866170089
 21
-0.001319010554592306
 31
0.0
210
0.0
220
0.0
230
-1.0
 40
0.707208
 41
6.260058557546286
 42
8.639236297647596
  0
LWPOLYLINE
  5
C5
330
AD
100
AcDbEntity
  8
0
  6
Continuous
 62
     0
370
     0
100
AcDbPolyline
 90
       22
 70
     0
 43
0.0
 10
262.130219
 20
121.875099
 10
262.673828
 20
121.433487
 10
263.145752
 20
120.91832
 10
263.519318
 20
120.338211
 10
263.770721
 20
119.707932
 10
263.882568
 20
119.047646
 10
263.846863
 20
118.381004
 10
263.666168
 20
117.732414
 10
263.353302
 20
117.124146
 10
262.929108
 20
116.573929
 10
262.41925
 20
116.093605
 10
261.842896
 20
115.683983
 10
261.16748
 20
115.321625
 10
260.392792
 20
115.019165
 10
259.535248
 20
114.794815
 10
258.61969
 20
114.663475
 10
257.677368
 20
114.634476
 10
256.742798
 20
114.709915
 10
255.849503
 20
114.884354
 10
255.026245
 20
115.145721
 10
254.294235
 20
115.477341
 10
253.644943
 20
115.875099
  0
LWPOLYLINE
  5
C6
330
AD
100
AcDbEntity
  8
0
  6
Continuous
 62
     0
370
     0
100
AcDbPolyline
 90
       22
 70
     0
 43
0.0
 10
253.644943
 20
115.875099
 10
253.101349
 20
116.316704
 10
252.629395
 20
116.831871
 10
252.255844
 20
117.41198
 10
252.004456
 20
118.042259
 10
251.892578
 20
118.702545
 10
251.928299
 20
119.369186
 10
252.109009
 20
120.017776
 10
252.421875
 20
120.626045
 10
252.846054
 20
121.176262
 10
253.355896
 20
121.656586
 10
253.932251
 20
122.066208
 10
254.607697
 20
122.428566
 10
255.38237
 20
122.731026
 10
256.239899
 20
122.955383
 10
257.155487
 20
123.086716
 10
258.097778
 20
123.115715
 10
259.032379
 20
123.040276
 10
259.925659
 20
122.865837
 10
260.748901
 20
122.604469
 10
261.480927
 20
122.272858
 10
262.130219
 20
121.875099
  0
ELLIPSE
  5
C7
330
AD
100
AcDbEntity
  8
0
  6
Continuous
 62
     0
370
     0
100
AcDbEllipse
 10
247.629439
 20
86.526407
 30
0.0
 11
-11.25833018497167
 21
15.92168337350533
 31
0.0
210
0.0
220
0.0
230
-1.0
 40
0.5
 41
6.278828178588566
 42
7.238704812826814
  0
ELLIPSE
  5
C8
330
AD
100
AcDbEntity
  8
0
  6
Continuous
 62
     0
370
     0
100
AcDbEllipse
 10
247.629439
 20
86.526407
 30
0.0
 11
-11.25833018497167
 21
15.92168337350533
 31
0.0
210
0.0
220
0.0
230
-1.0
 40
0.5
 41
0.9555195056472279
 42
3.147564830968535
  0
ELLIPSE
  5
C9
330
AD
100
AcDbEntity
  8
0
  6
Continuous
 62
     0
370
    30
100
AcDbEllipse
 10
276.97437
 20
107.276407
 30
0.0
 11
11.25833018497167
 21
-15.92168337350533
 31
0.0
210
0.0
220
0.0
230
1.0
 40
0.5
 41
0.0000000121016166
 42
2.186073147942566
  0
ELLIPSE
  5
CA
330
AD
100
AcDbEntity
  8
0
  6
Continuous
 62
     0
370
    30
100
AcDbEllipse
 10
276.97437
 20
107.276407
 30
0.0
 11
11.25833018497167
 21
-15.92168337350533
 31
0.0
210
0.0
220
0.0
230
1.0
 40
0.5
 41
2.186073147942566
 42
3.141592665691409
  0
LWPOLYLINE
  5
CB
330
AD
100
AcDbEntity
  8
0
  6
Continuous
 62
     0
370
     0
100
AcDbPolyline
 90
       38
 70
     0
 43
0.0
 10
247.27861
 20
99.709511
 10
248.319794
 20
98.932663
 10
249.385071
 20
98.053429
 10
250.46463
 20
97.072754
 10
251.547302
 20
95.993996
 10
252.620728
 20
94.823128
 10
253.671783
 20
93.568748
 10
254.686951
 20
92.242065
 10
255.652893
 20
90.85656
 10
256.556976
 20
89.42765
 10
257.387787
 20
87.972076
 10
258.13562
 20
86.507309
 10
258.792816
 20
85.050804
 10
259.354126
 20
83.619377
 10
259.81662
 20
82.228546
 10
260.17984
 20
80.892036
 10
260.445496
 20
79.621445
 10
260.617279
 20
78.425964
 10
260.7005
 20
77.312401
 10
260.701416
 20
76.277695
 10
260.620087
 20
75.281166
 10
260.450378
 20
74.327644
 10
260.18692
 20
73.431389
 10
259.825989
 20
72.606827
 10
259.365784
 20
71.868011
 10
258.806763
 20
71.228004
 10
258.151733
 20
70.698311
 10
257.405914
 20
70.288292
 10
256.576935
 20
70.0047
 10
255.674393
 20
69.851341
 10
254.709702
 20
69.828911
 10
253.69545
 20
69.935005
 10
252.645004
 20
70.164322
 10
251.571838
 20
70.509026
 10
250.48912
 20
70.959183
 10
249.409225
 20
71.503334
 10
248.343384
 20
72.129021
 10
247.273163
 20
72.843307
  0
LWPOLYLINE
  5
CC
330
AD
100
AcDbEntity
  8
0
  6
Continuous
 62
     0
370
     0
100
AcDbPolyline
 90
       38
 70
     0
 43
0.0
 10
247.273163
 20
72.843307
 10
246.231979
 20
73.620155
 10
245.166702
 20
74.499382
 10
244.087143
 20
75.480057
 10
243.004471
 20
76.558815
 10
241.931046
 20
77.729691
 10
240.87999
 20
78.984062
 10
239.864822
 20
80.310753
 10
238.898865
 20
81.696251
 10
237.994781
 20
83.12516
 10
237.163986
 20
84.580734
 10
236.416153
 20
86.045509
 10
235.758942
 20
87.502007
 10
235.197662
 20
88.933434
 10
234.735153
 20
90.324272
 10
234.371948
 20
91.660774
 10
234.106277
 20
92.931374
 10
233.934479
 20
94.126846
 10
233.851257
 20
95.240417
 10
233.850372
 20
96.275116
 10
233.931671
 20
97.271652
 10
234.101395
 20
98.225174
 10
234.364853
 20
99.121429
 10
234.725784
 20
99.945984
 10
235.185989
 20
100.684807
 10
235.74501
 20
101.324806
 10
236.40004
 20
101.8545
 10
237.145844
 20
102.264519
 10
237.974838
 20
102.548111
 10
238.87738
 20
102.701469
 10
239.842072
 20
102.723907
 10
240.856308
 20
102.617813
 10
241.906769
 20
102.388489
 10
242.979935
 20
102.043785
 10
244.062653
 20
101.593628
 10
245.142548
 20
101.049477
 10
246.208389
 20
100.42379
 10
247.27861
 20
99.709511
  0
LWPOLYLINE
  5
CD
330
AD
100
AcDbEntity
  8
0
  6
Continuous
 62
     0
370
    30
100
AcDbPolyline
 90
       22
 70
     0
 43
0.0
 10
264.387512
 20
118.516991
 10
264.31189
 20
119.242004
 10
264.089172
 20
119.947304
 10
263.726318
 20
120.614273
 10
263.233734
 20
121.228027
 10
262.625122
 20
121.777069
 10
261.914215
 20
122.251205
 10
261.117126
 20
122.64212
 10
260.250977
 20
122.94249
 10
259.333771
 20
123.146309
 10
258.385559
 20
123.250656
 10
257.426666
 20
123.253174
 10
256.477722
 20
123.153008
 10
255.559189
 20
122.952583
 10
254.690475
 20
122.656212
 10
253.89035
 20
122.269005
 10
253.175888
 20
121.798004
 10
252.56282
 20
121.251831
 10
252.065643
 20
120.640594
 10
251.697128
 20
119.975525
 10
251.468262
 20
119.271278
 10
251.387512
 20
118.524231
  0
LWPOLYLINE
  5
CE
330
AD
100
AcDbEntity
  8
0
  6
Continuous
 62
     0
370
    30
100
AcDbPolyline
 90
       12
 70
     0
 43
0.0
 10
247.337982
 20
72.685112
 10
248.534012
 20
71.891495
 10
249.723892
 20
71.206413
 10
250.899399
 20
70.6353
 10
252.052689
 20
70.18277
 10
253.176315
 20
69.852585
 10
254.263428
 20
69.648109
 10
255.306808
 20
69.572449
 10
256.29837
 20
69.628212
 10
257.230591
 20
69.81778
 10
258.094696
 20
70.14193
 10
258.888214
 20
70.605057
  0
LWPOLYLINE
  5
CF
330
AD
100
AcDbEntity
  8
0
  6
Continuous
 62
     0
370
    30
100
AcDbPolyline
 90
       26
 70
     0
 43
0.0
 10
236.370682
 20
102.447777
 10
235.676025
 20
101.860298
 10
235.079803
 20
101.15229
 10
234.588501
 20
100.33429
 10
234.203857
 20
99.415016
 10
233.926727
 20
98.402779
 10
233.757278
 20
97.305656
 10
233.694885
 20
96.131508
 10
233.738586
 20
94.888466
 10
233.887161
 20
93.584923
 10
234.13916
 20
92.2295
 10
234.492126
 20
90.831924
 10
234.943314
 20
89.402237
 10
235.489319
 20
87.950737
 10
236.125702
 20
86.488174
 10
236.847824
 20
85.025322
 10
237.650208
 20
83.573067
 10
238.526779
 20
82.142342
 10
239.470901
 20
80.743927
 10
240.475418
 20
79.388313
 10
241.532761
 20
78.085724
 10
242.634995
 20
76.845993
 10
243.773911
 20
75.678513
 10
244.94101
 20
74.592072
 10
246.127701
 20
73.594849
 10
247.337982
 20
72.685112
  0
LINE
  5
D0
330
AD
100
AcDbEntity
  8
0
  6
Continuous
 62
     0
370
    30
100
AcDbLine
 10
288.232701
 20
91.354723
 30
0.0
 11
258.887769
 21
70.604724
 31
0.0
  0
LINE
  5
D1
330
AD
100
AcDbEntity
  8
0
  6
Continuous
 62
     0
370
    30
100
AcDbLine
 10
251.386401
 20
113.065505
 30
0.0
 11
236.371109
 21
102.44809
 31
0.0
  0
LINE
  5
D2
330
AD
100
AcDbEntity
  8
0
  6
Continuous
 62
     0
370
    30
100
AcDbLine
 10
265.71604
 20
123.19809
 30
0.0
 11
263.109262
 21
121.354819
 31
0.0
  0
LINE
  5
D3
330
AD
100
AcDbEntity
  8
0
  6
Continuous
 62
     0
370
    30
100
AcDbLine
 10
264.385686
 20
109.538467
 30
0.0
 11
264.387508
 21
118.516993
 31
0.0
  0
LINE
  5
D4
330
AD
100
AcDbEntity
  8
0
  6
Continuous
 62
     0
370
    30
100
AcDbLine
 10
251.385686
 20
109.54104
 30
0.0
 11
251.387509
 21
118.522912
 31
0.0
  0
LWPOLYLINE
  5
D5
330
AD
100
AcDbEntity
  8
0
  6
Continuous
 62
     0
370
    30
100
AcDbPolyline
 90
        4
 70
     0
 43
0.0
 10
251.342728
 20
109.273476
 10
251.352051
 20
109.299904
 10
251.36972
 20
109.371544
 10
251.385666
 20
109.54023
  0
LINE
  5
D6
330
AD
100
AcDbEntity
  8
0
  6
Continuous
 62
     0
370
    30
100
AcDbLine
 10
299.919265
 20
72.194426
 30
0.0
 11
306.283226
 21
76.694426
 31
0.0
  0
LINE
  5
D7
330
AD
100
AcDbEntity
  8
0
  6
Continuous
 62
     0
370
    30
100
AcDbLine
 10
256.575062
 20
144.158384
 30
0.0
 11
262.939023
 21
148.658384
 31
0.0
  0
ENDBLK
  5
D9
330
AD
100
AcDbEntity
  8
0
100
AcDbBlockEnd
  0
BLOCK
  5
FB
330
DB
100
AcDbEntity
  8
0
100
AcDbBlockBegin
  2
f
 70
     0
 10
30.154373
 20
0.000015
 30
0.0
  3
f
  1

  0
LINE
  5
DC
330
DB
100
AcDbEntity
  8
0
  6
Continuous
 62
     0
370
    30
100
AcDbLine
 10
4.664248
 20
220.296783
 30
0.0
 11
4.664248
 21
271.796783
 31
0.0
  0
LINE
  5
DD
330
DB
100
AcDbEntity
  8
0
  6
Continuous
 62
     0
370
    30
100
AcDbLine
 10
4.664248
 20
277.796783
 30
0.0
 11
4.664248
 21
271.796783
 31
0.0
  0
LINE
  5
DE
330
DB
100
AcDbEntity
  8
0
  6
Continuous
 62
     0
370
    30
100
AcDbLine
 10
4.664248
 20
220.296783
 30
0.0
 11
4.664248
 21
214.296783
 31
0.0
  0
LINE
  5
DF
330
DB
100
AcDbEntity
  8
0
  6
Continuous
 62
     0
370
    30
100
AcDbLine
 10
13.664248
 20
220.296783
 30
0.0
 11
13.664248
 21
214.296783
 31
0.0
  0
LINE
  5
E0
330
DB
100
AcDbEntity
  8
0
  6
Continuous
 62
     0
370
    30
100
AcDbLine
 10
13.664248
 20
277.796783
 30
0.0
 11
13.664248
 21
271.796783
 31
0.0
  0
LINE
  5
E1
330
DB
100
AcDbEntity
  8
0
  6
Continuous
 62
     0
370
    30
100
AcDbLine
 10
13.664248
 20
220.296783
 30
0.0
 11
13.664248
 21
271.796783
 31
0.0
  0
LINE
  5
E2
330
DB
100
AcDbEntity
  8
0
  6
Continuous
 62
     0
370
    30
100
AcDbLine
 10
13.664248
 20
277.796783
 30
0.0
 11
4.664248
 21
277.796783
 31
0.0
  0
LINE
  5
E3
330
DB
100
AcDbEntity
  8
0
  6
Continuous
 62
     0
370
     0
100
AcDbLine
 10
13.664248
 20
271.796783
 30
0.0
 11
4.664248
 21
271.796783
 31
0.0
  0
LINE
  5
E4
330
DB
100
AcDbEntity
  8
0
  6
Continuous
 62
     0
370
     0
100
AcDbLine
 10
13.664248
 20
220.296783
 30
0.0
 11
4.664248
 21
220.296783
 31
0.0
  0
LINE
  5
E5
330
DB
100
AcDbEntity
  8
0
  6
Continuous
 62
     0
370
    30
100
AcDbLine
 10
13.664248
 20
214.296783
 30
0.0
 11
4.664248
 21
214.296783
 31
0.0
  0
ARC
  5
E6
330
DB
100
AcDbEntity
  8
0
  6
Continuous
 62
     0
370
    30
100
AcDbCircle
 10
-34.635752
 20
269.546786
 30
0.0
 40
3.99999995879081
100
AcDbArc
 50
269.999999
 51
359.999999
  0
LWPOLYLINE
  5
E7
330
DB
100
AcDbEntity
  8
0
  6
Continuous
 62
     0
370
     0
100
AcDbPolyline
 90
       26
 70
     0
 43
0.0
 10
-30.635752
 20
269.546783
 10
-30.571892
 20
269.500519
 10
-30.385513
 20
269.3685
 10
-30.088795
 20
269.165009
 10
-29.697622
 20
268.909271
 10
-29.227453
 20
268.621307
 10
-28.689619
 20
268.319366
 10
-28.092644
 20
268.020172
 10
-27.445389
 20
267.739136
 10
-26.756796
 20
267.491547
 10
-26.035585
 20
267.292114
 10
-25.289
 20
267.151825
 10
-24.525112
 20
267.078888
 10
-23.755392
 20
267.07843
 10
-22.991409
 20
267.150574
 10
-22.244133
 20
267.290375
 10
-21.523159
 20
267.48877
 10
-20.83692
 20
267.734314
 10
-20.192324
 20
268.013458
 10
-19.596498
 20
268.311676
 10
-19.057394
 20
268.613525
 10
-18.585011
 20
268.9021
 10
-18.191668
 20
269.158966
 10
-17.892284
 20
269.364197
 10
-17.702778
 20
269.498383
 10
-17.635752
 20
269.546783
  0
LWPOLYLINE
  5
E8
330
DB
100
AcDbEntity
  8
0
  6
Continuous
 62
     0
370
     0
100
AcDbPolyline
 90
       30
 70
     0
 43
0.0
 10
-13.635758
 20
265.546783
 10
-13.712905
 20
265.518066
 10
-13.939319
 20
265.435089
 10
-14.303552
 20
265.304718
 10
-14.788724
 20
265.137512
 10
-15.378886
 20
264.943878
 10
-16.059458
 20
264.733917
 10
-16.818291
 20
264.517273
 10
-17.644913
 20
264.303162
 10
-18.531376
 20
264.099792
 10
-19.470245
 20
263.914917
 10
-20.454231
 20
263.75592
 10
-21.47533
 20
263.629578
 10
-22.524492
 20
263.541595
 10
-23.591433
 20
263.496277
 10
-24.664505
 20
263.496002
 10
-25.731668
 20
263.54071
 10
-26.780712
 20
263.627899
 10
-27.802181
 20
263.753662
 10
-28.788984
 20
263.912903
 10
-29.732815
 20
264.098724
 10
-30.624416
 20
264.303009
 10
-31.454508
 20
264.517639
 10
-32.213875
 20
264.734344
 10
-32.893692
 20
264.944214
 10
-33.483757
 20
265.137878
 10
-33.968887
 20
265.305054
 10
-34.332645
 20
265.435211
 10
-34.55862
 20
265.517975
 10
-34.635754
 20
265.546783
  0
LINE
  5
E9
330
DB
100
AcDbEntity
  8
0
  6
Continuous
 62
     0
370
    30
100
AcDbLine
 10
-30.635752
 20
269.546786
 30
0.0
 11
-30.635752
 21
281.046786
 31
0.0
  0
ELLIPSE
  5
EA
330
DB
100
AcDbEntity
  8
0
  6
Continuous
 62
     0
370
     0
100
AcDbEllipse
 10
-24.135752
 20
281.046786
 30
0.0
 11
6.5
 21
5.764751237764442E-11
 31
0.0
210
0.0
220
0.0
230
-1.0
 40
0.000203
 41
0.0000000437113892
 42
3.141592697301182
  0
ARC
  5
EB
330
DB
100
AcDbEntity
  8
0
  6
Continuous
 62
     0
370
     0
100
AcDbCircle
 10
-24.135752
 20
15067.476289
 30
0.0
 40
14785.93072053624
100
AcDbArc
 50
269.97675
 51
270.02325
  0
ARC
  5
EC
330
DB
100
AcDbEntity
  8
0
  6
Continuous
 62
     0
370
     0
100
AcDbCircle
 10
-24.135752
 20
-14504.382717
 30
0.0
 40
14785.93072010488
100
AcDbArc
 50
89.97675
 51
90.02325
  0
LINE
  5
ED
330
DB
100
AcDbEntity
  8
0
  6
Continuous
 62
     0
370
     0
100
AcDbLine
 10
-38.635752
 20
265.546786
 30
0.0
 11
-38.635752
 21
226.546787
 31
0.0
  0
LINE
  5
EE
330
DB
100
AcDbEntity
  8
0
  6
Continuous
 62
     0
370
    30
100
AcDbLine
 10
2.864248
 20
226.546787
 30
0.0
 11
2.864248
 21
265.546786
 31
0.0
  0
LINE
  5
EF
330
DB
100
AcDbEntity
  8
0
  6
Continuous
 62
     0
370
    30
100
AcDbLine
 10
-39.135752
 20
265.046786
 30
0.0
 11
-39.135752
 21
227.046787
 31
0.0
  0
ARC
  5
F0
330
DB
100
AcDbEntity
  8
0
  6
Continuous
 62
     0
370
    30
100
AcDbCircle
 10
-38.635752
 20
227.046787
 30
0.0
 40
0.4999999948597936
100
AcDbArc
 50
180.000001
 51
270.000001
  0
ARC
  5
F1
330
DB
100
AcDbEntity
  8
0
  6
Continuous
 62
     0
370
    30
100
AcDbCircle
 10
-30.135752
 20
281.046786
 30
0.0
 40
0.4999999948488637
100
AcDbArc
 50
90.000081
 51
179.999999
  0
LWPOLYLINE
  5
F2
330
DB
100
AcDbEntity
  8
0
  6
Continuous
 62
     0
370
    30
100
AcDbPolyline
 90
       19
 70
     0
 43
0.0
 10
-17.635752
 20
281.046783
 10
-17.667459
 20
281.221924
 10
-17.758522
 20
281.374939
 10
-17.897409
 20
281.486328
 10
-18.066484
 20
281.541901
 10
-18.133867
 20
281.546814
 10
-18.143061
 20
281.546844
 10
-18.156258
 20
281.546875
 10
-18.174414
 20
281.546936
 10
-18.197727
 20
281.546967
 10
-18.226244
 20
281.546997
 10
-18.259956
 20
281.547028
 10
-18.298824
 20
281.547058
 10
-18.342825
 20
281.547089
 10
-18.39205
 20
281.54715
 10
-18.446335
 20
281.54718
 10
-18.505802
 20
281.547211
 10
-18.568502
 20
281.547241
 10
-18.642519
 20
281.547272
  0
ARC
  5
F3
330
DB
100
AcDbEntity
  8
0
  6
Continuous
 62
     0
370
    30
100
AcDbCircle
 10
-38.635749
 20
265.046784
 30
0.0
 40
0.5000026977404972
100
AcDbArc
 50
90.000309
 51
179.999675
  0
LINE
  5
F4
330
DB
100
AcDbEntity
  8
0
  6
Continuous
 62
     0
370
    30
100
AcDbLine
 10
2.864248
 20
226.546787
 30
0.0
 11
-38.635752
 21
226.546787
 31
0.0
  0
LINE
  5
F5
330
DB
100
AcDbEntity
  8
0
  6
Continuous
 62
     0
370
    30
100
AcDbLine
 10
2.864248
 20
265.546787
 30
0.0
 11
-13.635805
 21
265.546787
 31
0.0
  0
LINE
  5
F6
330
DB
100
AcDbEntity
  8
0
  6
Continuous
 62
     0
370
    30
100
AcDbLine
 10
-34.635706
 20
265.546787
 30
0.0
 11
-38.635752
 21
265.546787
 31
0.0
  0
LINE
  5
F7
330
DB
100
AcDbEntity
  8
0
  6
Continuous
 62
     0
370
    30
100
AcDbLine
 10
-17.635752
 20
269.546786
 30
0.0
 11
-17.635752
 21
281.046786
 31
0.0
  0
ARC
  5
F8
330
DB
100
AcDbEntity
  8
0
  6
Continuous
 62
     0
370
    30
100
AcDbCircle
 10
-13.635734
 20
269.546798
 30
0.0
 40
4.000018817274766
100
AcDbArc
 50
180.000171
 51
269.999637
  0
LINE
  5
F9
330
DB
100
AcDbEntity
  8
0
  6
Continuous
 62
     0
370
    30
100
AcDbLine
 10
2.864248
 20
232.194261
 30
0.0
 11
4.664249
 21
232.194261
 31
0.0
  0
LINE
  5
FA
330
DB
100
AcDbEntity
  8
0
  6
Continuous
 62
     0
370
    30
100
AcDbLine
 10
2.864248
 20
259.899306
 30
0.0
 11
4.664249
 21
259.899306
 31
0.0
  0
ENDBLK
  5
FC
330
DB
100
AcDbEntity
  8
0
100
AcDbBlockEnd
  0
ENDSEC
  0
SECTION
  2
ENTITIES
  0
INSERT
  5
64
330
1F
100
AcDbEntity
  8
0
  6
Continuous
 62
   250
370
     0
100
AcDbBlockReference
  2
a
 10
70.637581
 20
63.337482
 30
0.0
  0
INSERT
  5
85
330
1F
100
AcDbEntity
  8
0
  6
Continuous
 62
   250
370
     0
100
AcDbBlockReference
  2
b
 10
76.20158
 20
63.337482
 30
0.0
  0
INSERT
  5
A8
330
1F
100
AcDbEntity
  8
0
  6
Continuous
 62
   250
370
     0
100
AcDbBlockReference
  2
c
 10
41.646614
 20
63.41251
 30
0.0
  0
INSERT
  5
AC
330
1F
100
AcDbEntity
  8
0
  6
Continuous
 62
   250
370
     0
100
AcDbBlockReference
  2
d
 10
70.637581
 20
63.337482
 30
0.0
  0
INSERT
  5
DA
330
1F
100
AcDbEntity
  8
0
  6
Continuous
 62
   250
370
     0
100
AcDbBlockReference
  2
e
 10
232.01413
 20
60.970413
 30
0.0
  0
INSERT
  5
FD
330
1F
100
AcDbEntity
  8
0
  6
Continuous
 62
   250
370
     0
100
AcDbBlockReference
  2
f
 10
30.154373
 20
0.000015
 30
0.0
  0
ENDSEC
  0
SECTION
  2
OBJECTS
  0
DICTIONARY
  5
C
330
0
100
AcDbDictionary
281
     1
  3
ACAD_GROUP
350
D
  3
ACAD_LAYOUT
350
1A
  3
ACAD_MLEADERSTYLE
350
100
  3
ACAD_MLINESTYLE
350
17
  3
ACAD_PLOTSETTINGS
350
19
  3
ACAD_PLOTSTYLENAME
350
E
  3
ACAD_VISUALSTYLE
350
2A
  3
AcDbVariableDictionary
350
FE
  0
DICTIONARY
  5
D
102
{ACAD_REACTORS
330
C
102
}
330
C
100
AcDbDictionary
281
     1
  0
DICTIONARY
  5
1A
102
{ACAD_REACTORS
330
C
102
}
330
C
100
AcDbDictionary
281
     1
  3
Layout1
350
1E
  3
Layout2
350
26
  3
Model
350
22
  0
DICTIONARY
  5
100
102
{ACAD_REACTORS
330
C
102
}
330
C
100
AcDbDictionary
281
     1
  0
DICTIONARY
  5
17
102
{ACAD_REACTORS
330
C
102
}
330
C
100
AcDbDictionary
281
     1
  3
Standard
350
18
  0
DICTIONARY
  5
19
102
{ACAD_REACTORS
330
C
102
}
330
C
100
AcDbDictionary
281
     1
  0
ACDBDICTIONARYWDFLT
  5
E
102
{ACAD_REACTORS
330
C
102
}
330
C
100
AcDbDictionary
281
     1
  3
Normal
350
F
100
AcDbDictionaryWithDefault
340
F
  0
DICTIONARY
  5
2A
102
{ACAD_REACTORS
330
C
102
}
330
C
100
AcDbDictionary
281
     1
  3
2dWireframe
350
2F
  3
3D Hidden
350
31
  3
3dWireframe
350
30
  3
Basic
350
32
  3
Brighten
350
36
  3
ColorChange
350
3A
  3
Conceptual
350
34
  3
Dim
350
35
  3
Facepattern
350
39
  3
Flat
350
2B
  3
FlatWithEdges
350
2C
  3
Gouraud
350
2D
  3
GouraudWithEdges
350
2E
  3
Linepattern
350
38
  3
Realistic
350
33
  3
Thicken
350
37
  0
DICTIONARY
  5
FE
102
{ACAD_REACTORS
330
C
102
}
330
C
100
AcDbDictionary
281
     1
  3
PSOLHEIGHT
350
102
  3
PSOLWIDTH
350
101
  0
LAYOUT
  5
1E
102
{ACAD_REACTORS
330
1A
102
}
330
1A
100
AcDbPlotSettings
  1

  2
none_device
  4

  6

 40
0.0
 41
0.0
 42
0.0
 43
0.0
 44
0.0
 45
0.0
 46
0.0
 47
0.0
 48
0.0
 49
0.0
140
0.0
141
0.0
142
1.0
143
1.0
 70
   688
 72
     0
 73
     0
 74
     5
  7

 75
    16
147
1.0
148
0.0
149
0.0
100
AcDbLayout
  1
Layout1
 70
     1
 71
     1
 10
0.0
 20
0.0
 11
420.0
 21
297.0
 12
0.0
 22
0.0
 32
0.0
 14
1.000000E+20
 24
1.000000E+20
 34
1.000000E+20
 15
-1.000000E+20
 25
-1.000000E+20
 35
-1.000000E+20
146
0.0
 13
0.0
 23
0.0
 33
0.0
 16
1.0
 26
0.0
 36
0.0
 17
0.0
 27
1.0
 37
0.0
 76
     0
330
1B
  0
LAYOUT
  5
26
102
{ACAD_REACTORS
330
1A
102
}
330
1A
100
AcDbPlotSettings
  1

  2
none_device
  4

  6

 40
0.0
 41
0.0
 42
0.0
 43
0.0
 44
0.0
 45
0.0
 46
0.0
 47
0.0
 48
0.0
 49
0.0
140
0.0
141
0.0
142
1.0
143
1.0
 70
   688
 72
     0
 73
     0
 74
     5
  7

 75
    16
147
1.0
148
0.0
149
0.0
100
AcDbLayout
  1
Layout2
 70
     1
 71
     2
 10
0.0
 20
0.0
 11
0.0
 21
0.0
 12
0.0
 22
0.0
 32
0.0
 14
0.0
 24
0.0
 34
0.0
 15
0.0
 25
0.0
 35
0.0
146
0.0
 13
0.0
 23
0.0
 33
0.0
 16
1.0
 26
0.0
 36
0.0
 17
0.0
 27
1.0
 37
0.0
 76
     0
330
23
  0
LAYOUT
  5
22
102
{ACAD_REACTORS
330
1A
102
}
330
1A
100
AcDbPlotSettings
  1

  2
none_device
  4

  6

 40
0.0
 41
0.0
 42
0.0
 43
0.0
 44
0.0
 45
0.0
 46
0.0
 47
0.0
 48
0.0
 49
0.0
140
0.0
141
0.0
142
1.0
143
1.0
 70
  1712
 72
     0
 73
     0
 74
     0
  7

 75
     0
147
1.0
148
0.0
149
0.0
100
AcDbLayout
  1
Model
 70
     1
 71
     0
 10
-39.135754
 20
54.040413
 11
307.061768
 21
281.548004
 12
0.0
 22
0.0
 32
0.0
 14
-39.135754
 24
54.040413
 34
0.0
 15
307.061768
 25
281.548004
 35
0.0
146
0.0
 13
0.0
 23
0.0
 33
0.0
 16
1.0
 26
0.0
 36
0.0
 17
0.0
 27
1.0
 37
0.0
 76
     0
330
1F
331
29
  0
MLINESTYLE
  5
18
102
{ACAD_REACTORS
330
17
102
}
330
17
100
AcDbMlineStyle
  2
Standard
 70
     0
  3

 62
   256
 51
90.0
 52
90.0
 71
     2
 49
0.5
 62
   256
  6
BYLAYER
 49
-0.5
 62
   256
  6
BYLAYER
  0
ACDBPLACEHOLDER
  5
F
102
{ACAD_REACTORS
330
E
102
}
330
E
  0
VISUALSTYLE
  5
2F
102
{ACAD_REACTORS
330
2A
102
}
330
2A
100
AcDbVisualStyle
  2
2dWireframe
 70
     4
 71
     0
 72
     2
 73
     0
 90
        0
 40
-0.6
 41
-30.0
 62
     5
 63
     7
 74
     1
 91
        4
 64
     7
 65
   257
 75
     1
175
     1
 42
1.0
 92
        0
 66
   257
 43
1.0
 76
     1
 77
     6
 78
     2
 67
     7
 79
     5
170
     0
171
     0
290
     0
174
     0
 93
        1
 44
0.0
173
     0
291
     0
 45
0.0
1001
ACAD
1000
AcDbSavedByObjectVersion
1070
     0
  0
VISUALSTYLE
  5
31
102
{ACAD_REACTORS
330
2A
102
}
330
2A
100
AcDbVisualStyle
  2
3D Hidden
 70
     6
 71
     1
 72
     2
 73
     2
 90
        0
 40
-0.6
 41
-30.0
 62
     5
 63
     7
 74
     2
 91
        2
 64
     7
 65
   257
 75
     2
175
     1
 42
40.0
 92
        0
 66
   257
 43
1.0
 76
     1
 77
     6
 78
     2
 67
     7
 79
     3
170
     0
171
     0
290
     0
174
     0
 93
        1
 44
0.0
173
     0
291
     0
 45
0.0
1001
ACAD
1000
AcDbSavedByObjectVersion
1070
     0
  0
VISUALSTYLE
  5
30
102
{ACAD_REACTORS
330
2A
102
}
330
2A
100
AcDbVisualStyle
  2
3dWireframe
 70
     5
 71
     0
 72
     2
 73
     0
 90
        0
 40
-0.6
 41
-30.0
 62
     5
 63
     7
 74
     1
 91
        4
 64
     7
 65
   257
 75
     1
175
     1
 42
1.0
 92
        0
 66
   257
 43
1.0
 76
     1
 77
     6
 78
     2
 67
     7
 79
     5
170
     0
171
     0
290
     0
174
     0
 93
        1
 44
0.0
173
     0
291
     0
 45
0.0
1001
ACAD
1000
AcDbSavedByObjectVersion
1070
     0
  0
VISUALSTYLE
  5
32
102
{ACAD_REACTORS
330
2A
102
}
330
2A
100
AcDbVisualStyle
  2
Basic
 70
     7
 71
     1
 72
     0
 73
     1
 90
        0
 40
-0.6
 41
-30.0
 62
     5
 63
     7
 74
     0
 91
        4
 64
     7
 65
   257
 75
     1
175
     1
 42
1.0
 92
        8
 66
     7
 43
1.0
 76
     1
 77
     6
 78
     2
 67
     7
 79
     5
170
     0
171
     0
290
     0
174
     0
 93
        1
 44
0.0
173
     0
291
     1
 45
0.0
1001
ACAD
1000
AcDbSavedByObjectVersion
1070
     0
  0
VISUALSTYLE
  5
36
102
{ACAD_REACTORS
330
2A
102
}
330
2A
100
AcDbVisualStyle
  2
Brighten
 70
    12
 71
     2
 72
     2
 73
     0
 90
        0
 40
-0.6
 41
-30.0
 62
     5
 63
     7
 74
     1
 91
        4
 64
     7
 65
   257
 75
     1
175
     1
 42
1.0
 92
        8
 66
     7
 43
1.0
 76
     1
 77
     6
 78
     2
 67
     7
 79
     5
170
     0
171
     0
290
     0
174
     0
 93
        1
 44
50.0
173
     0
291
     1
 45
0.0
1001
ACAD
1000
AcDbSavedByObjectVersion
1070
     0
  0
VISUALSTYLE
  5
3A
102
{ACAD_REACTORS
330
2A
102
}
330
2A
100
AcDbVisualStyle
  2
ColorChange
 70
    16
 71
     2
 72
     2
 73
     3
 90
        0
 40
-0.6
 41
-30.0
 62
     5
 63
     8
 74
     1
 91
        4
 64
     7
 65
   257
 75
     1
175
     1
 42
1.0
 92
        8
 66
     8
 43
1.0
 76
     1
 77
     6
 78
     2
 67
     7
 79
     5
170
     0
171
     0
290
     0
174
     0
 93
        1
 44
0.0
173
     0
291
     1
 45
0.0
1001
ACAD
1000
AcDbSavedByObjectVersion
1070
     0
  0
VISUALSTYLE
  5
34
102
{ACAD_REACTORS
330
2A
102
}
330
2A
100
AcDbVisualStyle
  2
Conceptual
 70
     9
 71
     3
 72
     2
 73
     0
 90
        0
 40
-0.6
 41
-30.0
 62
     5
 63
     7
 74
     2
 91
        2
 64
     7
 65
   257
 75
     1
175
     1
 42
40.0
 92
        8
 66
     7
 43
1.0
 76
     1
 77
     6
 78
     2
 67
     7
 79
     3
170
     0
171
     0
290
     0
174
     0
 93
        1
 44
0.0
173
     0
291
     0
 45
0.0
1001
ACAD
1000
AcDbSavedByObjectVersion
1070
     0
  0
VISUALSTYLE
  5
35
102
{ACAD_REACTORS
330
2A
102
}
330
2A
100
AcDbVisualStyle
  2
Dim
 70
    11
 71
     2
 72
     2
 73
     0
 90
        0
 40
-0.6
 41
-30.0
 62
     5
 63
     7
 74
     1
 91
        4
 64
     7
 65
   257
 75
     1
175
     1
 42
1.0
 92
        8
 66
     7
 43
1.0
 76
     1
 77
     6
 78
     2
 67
     7
 79
     5
170
     0
171
     0
290
     0
174
     0
 93
        1
 44
-50.0
173
     0
291
     1
 45
0.0
1001
ACAD
1000
AcDbSavedByObjectVersion
1070
     0
  0
VISUALSTYLE
  5
39
102
{ACAD_REACTORS
330
2A
102
}
330
2A
100
AcDbVisualStyle
  2
Facepattern
 70
    15
 71
     2
 72
     2
 73
     0
 90
        0
 40
-0.6
 41
-30.0
 62
     5
 63
     7
 74
     1
 91
        4
 64
     7
 65
   257
 75
     1
175
     1
 42
1.0
 92
        8
 66
     7
 43
1.0
 76
     1
 77
     6
 78
     2
 67
     7
 79
     5
170
     0
171
     0
290
     0
174
     0
 93
        1
 44
0.0
173
     0
291
     1
 45
0.0
1001
ACAD
1000
AcDbSavedByObjectVersion
1070
     0
  0
VISUALSTYLE
  5
2B
102
{ACAD_REACTORS
330
2A
102
}
330
2A
100
AcDbVisualStyle
  2
Flat
 70
     0
 71
     2
 72
     1
 73
     1
 90
        2
 40
-0.6
 41
30.0
 62
     5
 63
     7
 74
     0
 91
        4
 64
     7
 65
   257
 75
     1
175
     1
 42
1.0
 92
        8
 66
     7
 43
1.0
 76
     1
 77
     6
 78
     2
 67
     7
 79
     5
170
     0
171
     0
290
     0
174
     0
 93
       13
 44
0.0
173
     0
291
     1
 45
0.0
1001
ACAD
1000
AcDbSavedByObjectVersion
1070
     0
  0
VISUALSTYLE
  5
2C
102
{ACAD_REACTORS
330
2A
102
}
330
2A
100
AcDbVisualStyle
  2
FlatWithEdges
 70
     1
 71
     2
 72
     1
 73
     1
 90
        2
 40
-0.6
 41
30.0
 62
     5
 63
     7
 74
     1
 91
        4
 64
     7
 65
   257
 75
     1
175
     1
 42
1.0
 92
        0
 66
   257
 43
1.0
 76
     1
 77
     6
 78
     2
 67
     7
 79
     5
170
     0
171
     0
290
     0
174
     0
 93
       13
 44
0.0
173
     0
291
     1
 45
0.0
1001
ACAD
1000
AcDbSavedByObjectVersion
1070
     0
  0
VISUALSTYLE
  5
2D
102
{ACAD_REACTORS
330
2A
102
}
330
2A
100
AcDbVisualStyle
  2
Gouraud
 70
     2
 71
     2
 72
     2
 73
     1
 90
        2
 40
-0.6
 41
30.0
 62
     5
 63
     7
 74
     0
 91
        4
 64
     7
 65
   257
 75
     1
175
     1
 42
1.0
 92
        0
 66
     7
 43
1.0
 76
     1
 77
     6
 78
     2
 67
     7
 79
     5
170
     0
171
     0
290
     0
174
     0
 93
       13
 44
0.0
173
     0
291
     1
 45
0.0
1001
ACAD
1000
AcDbSavedByObjectVersion
1070
     0
  0
VISUALSTYLE
  5
2E
102
{ACAD_REACTORS
330
2A
102
}
330
2A
100
AcDbVisualStyle
  2
GouraudWithEdges
 70
     3
 71
     2
 72
     2
 73
     1
 90
        2
 40
-0.6
 41
30.0
 62
     5
 63
     7
 74
     1
 91
        4
 64
     7
 65
   257
 75
     1
175
     1
 42
1.0
 92
        0
 66
   257
 43
1.0
 76
     1
 77
     6
 78
     2
 67
     7
 79
     5
170
     0
171
     0
290
     0
174
     0
 93
       13
 44
0.0
173
     0
291
     1
 45
0.0
1001
ACAD
1000
AcDbSavedByObjectVersion
1070
     0
  0
VISUALSTYLE
  5
38
102
{ACAD_REACTORS
330
2A
102
}
330
2A
100
AcDbVisualStyle
  2
Linepattern
 70
    14
 71
     2
 72
     2
 73
     0
 90
        0
 40
-0.6
 41
-30.0
 62
     5
 63
     7
 74
     1
 91
        4
 64
     7
 65
   257
 75
     7
175
     7
 42
1.0
 92
        8
 66
     7
 43
1.0
 76
     1
 77
     6
 78
     2
 67
     7
 79
     5
170
     0
171
     0
290
     0
174
     0
 93
        1
 44
0.0
173
     0
291
     1
 45
0.0
1001
ACAD
1000
AcDbSavedByObjectVersion
1070
     0
  0
VISUALSTYLE
  5
33
102
{ACAD_REACTORS
330
2A
102
}
330
2A
100
AcDbVisualStyle
  2
Realistic
 70
     8
 71
     2
 72
     2
 73
     0
 90
        0
 40
-0.6
 41
-30.0
 62
     5
 63
     7
 74
     1
 91
        0
 64
     7
 65
   257
 75
     1
175
     1
 42
1.0
 92
        8
 66
     8
 43
1.0
 76
     1
 77
     6
 78
     2
 67
     7
 79
     5
170
     0
171
     0
290
     0
174
     0
 93
       13
 44
0.0
173
     0
291
     0
 45
0.0
1001
ACAD
1000
AcDbSavedByObjectVersion
1070
     0
  0
VISUALSTYLE
  5
37
102
{ACAD_REACTORS
330
2A
102
}
330
2A
100
AcDbVisualStyle
  2
Thicken
 70
    13
 71
     2
 72
     2
 73
     0
 90
        0
 40
-0.6
 41
-30.0
 62
     5
 63
     7
 74
     1
 91
        4
 64
     7
 65
   257
 75
     1
175
     1
 42
1.0
 92
       12
 66
     7
 43
1.0
 76
     1
 77
     6
 78
     2
 67
     7
 79
     5
170
     0
171
     0
290
     0
174
     0
 93
        1
 44
0.0
173
     0
291
     1
 45
0.0
1001
ACAD
1000
AcDbSavedByObjectVersion
1070
     0
  0
DICTIONARYVAR
  5
102
102
{ACAD_REACTORS
330
FE
102
}
330
FE
100
DictionaryVariables
280
     0
  1
80.000000
  0
DICTIONARYVAR
  5
101
102
{ACAD_REACTORS
330
FE
102
}
330
FE
100
DictionaryVariables
280
     0
  1
5.000000
  0
ENDSEC
  0
EOF
