  0
SECTION
  2
HEADER
  9
$ACADVER
  1
AC1015
  9
$ACADMAINTVER
 70
     6
  9
$DWGCODEPAGE
  3
ANSI_1252
  9
$INSBASE
 10
0.0
 20
0.0
 30
0.0
  9
$EXTMIN
 10
-639.896484
 20
163.668701
 30
0.0
  9
$EXTMAX
 10
903.919189
 20
2126.619141
 30
0.0
  9
$LIMMIN
 10
-639.896484
 20
163.668701
  9
$LIMMAX
 10
903.919189
 20
2126.619141
  9
$ORTHOMODE
 70
     0
  9
$REGENMODE
 70
     1
  9
$FILLMODE
 70
     1
  9
$QTEXTMODE
 70
     0
  9
$MIRRTEXT
 70
     1
  9
$LTSCALE
 40
1.0
  9
$ATTMODE
 70
     1
  9
$TEXTSIZE
 40
2.5
  9
$TRACEWID
 40
1.0
  9
$TEXTSTYLE
  7
Standard
  9
$CLAYER
  8
0
  9
$CELTYPE
  6
ByLayer
  9
$CECOLOR
 62
   256
  9
$CELTSCALE
 40
1.0
  9
$DISPSILH
 70
     0
  9
$DIMSCALE
 40
1.0
  9
$DIMASZ
 40
2.5
  9
$DIMEXO
 40
0.625
  9
$DIMDLI
 40
3.75
  9
$DIMRND
 40
0.0
  9
$DIMDLE
 40
0.0
  9
$DIMEXE
 40
1.25
  9
$DIMTP
 40
0.0
  9
$DIMTM
 40
0.0
  9
$DIMTXT
 40
2.5
  9
$DIMCEN
 40
2.5
  9
$DIMTSZ
 40
0.0
  9
$DIMTOL
 70
     0
  9
$DIMLIM
 70
     0
  9
$DIMTIH
 70
     0
  9
$DIMTOH
 70
     0
  9
$DIMSE1
 70
     0
  9
$DIMSE2
 70
     0
  9
$DIMTAD
 70
     1
  9
$DIMZIN
 70
     8
  9
$DIMBLK
  1

  9
$DIMASO
 70
     1
  9
$DIMSHO
 70
     1
  9
$DIMPOST
  1

  9
$DIMAPOST
  1

  9
$DIMALT
 70
     0
  9
$DIMALTD
 70
     3
  9
$DIMALTF
 40
0.03937
  9
$DIMLFAC
 40
1.0
  9
$DIMTOFL
 70
     1
  9
$DIMTVP
 40
0.0
  9
$DIMTIX
 70
     0
  9
$DIMSOXD
 70
     0
  9
$DIMSAH
 70
     0
  9
$DIMBLK1
  1

  9
$DIMBLK2
  1

  9
$DIMSTYLE
  2
ISO-25
  9
$DIMCLRD
 70
     0
  9
$DIMCLRE
 70
     0
  9
$DIMCLRT
 70
     0
  9
$DIMTFAC
 40
1.0
  9
$DIMGAP
 40
0.625
  9
$DIMJUST
 70
     0
  9
$DIMSD1
 70
     0
  9
$DIMSD2
 70
     0
  9
$DIMTOLJ
 70
     0
  9
$DIMTZIN
 70
     8
  9
$DIMALTZ
 70
     0
  9
$DIMALTTZ
 70
     0
  9
$DIMUPT
 70
     0
  9
$DIMDEC
 70
     2
  9
$DIMTDEC
 70
     2
  9
$DIMALTU
 70
     2
  9
$DIMALTTD
 70
     3
  9
$DIMTXSTY
  7
Standard
  9
$DIMAUNIT
 70
     0
  9
$DIMADEC
 70
     0
  9
$DIMALTRND
 40
0.0
  9
$DIMAZIN
 70
     0
  9
$DIMDSEP
 70
    44
  9
$DIMATFIT
 70
     3
  9
$DIMFRAC
 70
     0
  9
$DIMLDRBLK
  1

  9
$DIMLUNIT
 70
     2
  9
$DIMLWD
 70
    -2
  9
$DIMLWE
 70
    -2
  9
$DIMTMOVE
 70
     0
  9
$LUNITS
 70
     2
  9
$LUPREC
 70
     4
  9
$SKETCHINC
 40
1.0
  9
$FILLETRAD
 40
10.0
  9
$AUNITS
 70
     0
  9
$AUPREC
 70
     0
  9
$MENU
  1
.
  9
$ELEVATION
 40
0.0
  9
$PELEVATION
 40
0.0
  9
$THICKNESS
 40
0.0
  9
$LIMCHECK
 70
     0
  9
$CHAMFERA
 40
10.0
  9
$CHAMFERB
 40
10.0
  9
$CHAMFERC
 40
20.0
  9
$CHAMFERD
 40
0.0
  9
$SKPOLY
 70
     0
  9
$TDCREATE
 40
2455572.507581215
  9
$TDUCREATE
 40
2455572.465914549
  9
$TDUPDATE
 40
2455572.507581227
  9
$TDUUPDATE
 40
2455572.46591456
  9
$TDINDWG
 40
0.0000000116
  9
$TDUSRTIMER
 40
0.0000000116
  9
$USRTIMER
 70
     1
  9
$ANGBASE
 50
0.0
  9
$ANGDIR
 70
     0
  9
$PDMODE
 70
     0
  9
$PDSIZE
 40
0.0
  9
$PLINEWID
 40
0.0
  9
$SPLFRAME
 70
     0
  9
$SPLINETYPE
 70
     6
  9
$SPLINESEGS
 70
     8
  9
$HANDSEED
  5
329
  9
$SURFTAB1
 70
     6
  9
$SURFTAB2
 70
     6
  9
$SURFTYPE
 70
     6
  9
$SURFU
 70
     6
  9
$SURFV
 70
     6
  9
$UCSBASE
  2

  9
$UCSNAME
  2

  9
$UCSORG
 10
0.0
 20
0.0
 30
0.0
  9
$UCSXDIR
 10
1.0
 20
0.0
 30
0.0
  9
$UCSYDIR
 10
0.0
 20
1.0
 30
0.0
  9
$UCSORTHOREF
  2

  9
$UCSORTHOVIEW
 70
     0
  9
$UCSORGTOP
 10
0.0
 20
0.0
 30
0.0
  9
$UCSORGBOTTOM
 10
0.0
 20
0.0
 30
0.0
  9
$UCSORGLEFT
 10
0.0
 20
0.0
 30
0.0
  9
$UCSORGRIGHT
 10
0.0
 20
0.0
 30
0.0
  9
$UCSORGFRONT
 10
0.0
 20
0.0
 30
0.0
  9
$UCSORGBACK
 10
0.0
 20
0.0
 30
0.0
  9
$PUCSBASE
  2

  9
$PUCSNAME
  2

  9
$PUCSORG
 10
0.0
 20
0.0
 30
0.0
  9
$PUCSXDIR
 10
1.0
 20
0.0
 30
0.0
  9
$PUCSYDIR
 10
0.0
 20
1.0
 30
0.0
  9
$PUCSORTHOREF
  2

  9
$PUCSORTHOVIEW
 70
     0
  9
$PUCSORGTOP
 10
0.0
 20
0.0
 30
0.0
  9
$PUCSORGBOTTOM
 10
0.0
 20
0.0
 30
0.0
  9
$PUCSORGLEFT
 10
0.0
 20
0.0
 30
0.0
  9
$PUCSORGRIGHT
 10
0.0
 20
0.0
 30
0.0
  9
$PUCSORGFRONT
 10
0.0
 20
0.0
 30
0.0
  9
$PUCSORGBACK
 10
0.0
 20
0.0
 30
0.0
  9
$USERI1
 70
     0
  9
$USERI2
 70
     0
  9
$USERI3
 70
     0
  9
$USERI4
 70
     0
  9
$USERI5
 70
     0
  9
$USERR1
 40
0.0
  9
$USERR2
 40
0.0
  9
$USERR3
 40
0.0
  9
$USERR4
 40
0.0
  9
$USERR5
 40
0.0
  9
$WORLDVIEW
 70
     1
  9
$SHADEDGE
 70
     3
  9
$SHADEDIF
 70
    70
  9
$TILEMODE
 70
     1
  9
$MAXACTVP
 70
    64
  9
$PINSBASE
 10
0.0
 20
0.0
 30
0.0
  9
$PLIMCHECK
 70
     0
  9
$PEXTMIN
 10
1.000000E+20
 20
1.000000E+20
 30
1.000000E+20
  9
$PEXTMAX
 10
-1.000000E+20
 20
-1.000000E+20
 30
-1.000000E+20
  9
$PLIMMIN
 10
0.0
 20
0.0
  9
$PLIMMAX
 10
420.0
 20
297.0
  9
$UNITMODE
 70
     0
  9
$VISRETAIN
 70
     1
  9
$PLINEGEN
 70
     0
  9
$PSLTSCALE
 70
     1
  9
$TREEDEPTH
 70
  3020
  9
$CMLSTYLE
  2
Standard
  9
$CMLJUST
 70
     0
  9
$CMLSCALE
 40
20.0
  9
$PROXYGRAPHICS
 70
     1
  9
$MEASUREMENT
 70
     1
  9
$CELWEIGHT
370
    -1
  9
$ENDCAPS
280
     0
  9
$JOINSTYLE
280
     0
  9
$LWDISPLAY
290
     0
  9
$INSUNITS
 70
     4
  9
$HYPERLINKBASE
  1

  9
$STYLESHEET
  1

  9
$XEDIT
290
     1
  9
$CEPSNTYPE
380
     0
  9
$PSTYLEMODE
290
     1
  9
$FINGERPRINTGUID
  2
{9655BDCE-FEFD-448E-95CA-19A746CA7DFC}
  9
$VERSIONGUID
  2
{FAEB1C32-E019-11D5-929B-00C0DF256EC4}
  9
$EXTNAMES
290
     1
  9
$PSVPSCALE
 40
0.0
  9
$OLESTARTUP
290
     0
  0
ENDSEC
  0
SECTION
  2
CLASSES
  0
CLASS
  1
ACDBDICTIONARYWDFLT
  2
AcDbDictionaryWithDefault
  3
ObjectDBX Classes
 90
        0
280
     0
281
     0
  0
CLASS
  1
VISUALSTYLE
  2
AcDbVisualStyle
  3
ObjectDBX Classes
 90
     4095
280
     0
281
     0
  0
CLASS
  1
DICTIONARYVAR
  2
AcDbDictionaryVar
  3
ObjectDBX Classes
 90
        0
280
     0
281
     0
  0
CLASS
  1
ACDBPLACEHOLDER
  2
AcDbPlaceHolder
  3
ObjectDBX Classes
 90
        0
280
     0
281
     0
  0
CLASS
  1
LAYOUT
  2
AcDbLayout
  3
ObjectDBX Classes
 90
        0
280
     0
281
     0
  0
ENDSEC
  0
SECTION
  2
TABLES
  0
TABLE
  2
VPORT
  5
8
330
0
100
AcDbSymbolTable
 70
     1
  0
VPORT
  5
29
330
8
100
AcDbSymbolTableRecord
100
AcDbViewportTableRecord
  2
*Active
 70
     0
 10
0.0
 20
0.0
 11
1.0
 21
1.0
 12
344.186916
 22
148.5
 13
0.0
 23
0.0
 14
10.0
 24
10.0
 15
10.0
 25
10.0
 16
0.0
 26
0.0
 36
1.0
 17
0.0
 27
0.0
 37
0.0
 40
297.0
 41
1.972973
 42
50.0
 43
0.0
 44
0.0
 50
0.0
 51
0.0
 71
     0
 72
   100
 73
     1
 74
     3
 75
     0
 76
     0
 77
     0
 78
     0
281
     0
 65
     1
110
0.0
120
0.0
130
0.0
111
1.0
121
0.0
131
0.0
112
0.0
122
1.0
132
0.0
 79
     0
146
0.0
  0
ENDTAB
  0
TABLE
  2
LTYPE
  5
5
330
0
100
AcDbSymbolTable
 70
     1
  0
LTYPE
  5
14
330
5
100
AcDbSymbolTableRecord
100
AcDbLinetypeTableRecord
  2
ByBlock
 70
     0
  3

 72
    65
 73
     0
 40
0.0
  0
LTYPE
  5
15
330
5
100
AcDbSymbolTableRecord
100
AcDbLinetypeTableRecord
  2
ByLayer
 70
     0
  3

 72
    65
 73
     0
 40
0.0
  0
LTYPE
  5
16
330
5
100
AcDbSymbolTableRecord
100
AcDbLinetypeTableRecord
  2
Continuous
 70
     0
  3
Solid line
 72
    65
 73
     0
 40
0.0
  0
ENDTAB
  0
TABLE
  2
LAYER
  5
2
330
0
100
AcDbSymbolTable
 70
     1
  0
LAYER
  5
10
330
2
100
AcDbSymbolTableRecord
100
AcDbLayerTableRecord
  2
0
 70
     0
 62
   106
  6
Continuous
370
     0
390
F
  0
ENDTAB
  0
TABLE
  2
STYLE
  5
3
330
0
100
AcDbSymbolTable
 70
     4
  0
STYLE
  5
11
330
3
100
AcDbSymbolTableRecord
100
AcDbTextStyleTableRecord
  2
Standard
 70
     0
 40
0.0
 41
1.0
 50
0.0
 71
     0
 42
2.5
  3
txt
  4

  0
STYLE
  5
3B
330
3
100
AcDbSymbolTableRecord
100
AcDbTextStyleTableRecord
  2
Default
 70
     0
 40
0.0
 41
1.0
 50
0.0
 71
     0
 42
0.2
  3

  4

1001
ACAD
1000
txt
1071
        0
  0
STYLE
  5
3C
330
3
100
AcDbSymbolTableRecord
100
AcDbTextStyleTableRecord
  2
ISO
 70
     0
 40
0.0
 41
1.0
 50
0.0
 71
     0
 42
0.2
  3

  4

1001
ACAD
1000
txt
1071
        0
  0
STYLE
  5
3D
330
3
100
AcDbSymbolTableRecord
100
AcDbTextStyleTableRecord
  2
GIANLU
 70
     0
 40
0.0
 41
1.0
 50
0.0
 71
     0
 42
0.2
  3

  4

1001
ACAD
1000
Arial
1071
        0
  0
ENDTAB
  0
TABLE
  2
VIEW
  5
6
330
0
100
AcDbSymbolTable
 70
     0
  0
ENDTAB
  0
TABLE
  2
UCS
  5
7
330
0
100
AcDbSymbolTable
 70
     0
  0
ENDTAB
  0
TABLE
  2
APPID
  5
9
330
0
100
AcDbSymbolTable
 70
     1
  0
APPID
  5
12
330
9
100
AcDbSymbolTableRecord
100
AcDbRegAppTableRecord
  2
ACAD
 70
     0
  0
ENDTAB
  0
TABLE
  2
DIMSTYLE
  5
A
330
0
100
AcDbSymbolTable
 70
     4
100
AcDbDimStyleTable
  0
DIMSTYLE
105
27
330
A
100
AcDbSymbolTableRecord
100
AcDbDimStyleTableRecord
  2
ISO-25
 70
     0
 41
2.5
 42
0.625
 43
3.75
 44
1.25
 73
     0
 74
     0
 77
     1
 78
     8
140
2.5
141
2.5
143
0.03937
147
0.625
171
     3
172
     1
271
     2
272
     2
274
     3
278
    44
283
     0
284
     8
340
11
  0
DIMSTYLE
105
3E
330
A
100
AcDbSymbolTableRecord
100
AcDbDimStyleTableRecord
  2
Default
 70
     0
  3
<>
 41
4.375
 42
1.05
 44
2.1
 73
     0
 74
     0
 77
     1
 78
     8
140
3.5
146
0.4
147
1.75
178
     3
271
     2
272
     3
284
     8
340
3B
341
3F
342
3F
  0
DIMSTYLE
105
46
330
A
100
AcDbSymbolTableRecord
100
AcDbDimStyleTableRecord
  2
ISO
 70
     0
  3
<>
 41
4.375
 42
1.05
 44
2.1
 73
     0
 74
     0
 77
     1
 78
     8
140
3.5
146
0.4
147
1.75
178
     3
271
     2
272
     3
284
     8
340
3C
341
3F
342
3F
  0
DIMSTYLE
105
47
330
A
100
AcDbSymbolTableRecord
100
AcDbDimStyleTableRecord
  2
zucchetti_unico
 70
     0
  3
<>
 41
3.0
 42
0.9
 44
1.8
 73
     0
 74
     0
 77
     1
 78
     8
140
3.0
146
0.6
147
1.5
176
   104
177
     3
178
     3
271
     2
272
     2
284
     8
340
3D
  0
ENDTAB
  0
TABLE
  2
BLOCK_RECORD
  5
1
330
0
100
AcDbSymbolTable
 70
     7
  0
BLOCK_RECORD
  5
1F
330
1
100
AcDbSymbolTableRecord
100
AcDbBlockTableRecord
  2
*Model_Space
340
22
  0
BLOCK_RECORD
  5
1B
330
1
100
AcDbSymbolTableRecord
100
AcDbBlockTableRecord
  2
*Paper_Space
340
1E
  0
BLOCK_RECORD
  5
23
330
1
100
AcDbSymbolTableRecord
100
AcDbBlockTableRecord
  2
*Paper_Space0
340
26
  0
BLOCK_RECORD
  5
3F
330
1
100
AcDbSymbolTableRecord
100
AcDbBlockTableRecord
  2
_CLOSED
340
0
  0
BLOCK_RECORD
  5
48
330
1
100
AcDbSymbolTableRecord
100
AcDbBlockTableRecord
  2
a
340
0
102
{BLKREFS
331
F4
102
}
  0
BLOCK_RECORD
  5
F5
330
1
100
AcDbSymbolTableRecord
100
AcDbBlockTableRecord
  2
b
340
0
102
{BLKREFS
331
150
102
}
  0
BLOCK_RECORD
  5
151
330
1
100
AcDbSymbolTableRecord
100
AcDbBlockTableRecord
  2
c
340
0
102
{BLKREFS
331
1B9
102
}
  0
BLOCK_RECORD
  5
1BA
330
1
100
AcDbSymbolTableRecord
100
AcDbBlockTableRecord
  2
d
340
0
102
{BLKREFS
331
284
102
}
  0
BLOCK_RECORD
  5
285
330
1
100
AcDbSymbolTableRecord
100
AcDbBlockTableRecord
  2
e
340
0
102
{BLKREFS
331
323
102
}
  0
ENDTAB
  0
ENDSEC
  0
SECTION
  2
BLOCKS
  0
BLOCK
  5
20
330
1F
100
AcDbEntity
  8
0
100
AcDbBlockBegin
  2
*Model_Space
 70
     0
 10
0.0
 20
0.0
 30
0.0
  3
*Model_Space
  1

  0
ENDBLK
  5
21
330
1F
100
AcDbEntity
  8
0
100
AcDbBlockEnd
  0
BLOCK
  5
1C
330
1B
100
AcDbEntity
 67
     1
  8
0
100
AcDbBlockBegin
  2
*Paper_Space
 70
     0
 10
0.0
 20
0.0
 30
0.0
  3
*Paper_Space
  1

  0
ENDBLK
  5
1D
330
1B
100
AcDbEntity
 67
     1
  8
0
100
AcDbBlockEnd
  0
BLOCK
  5
24
330
23
100
AcDbEntity
  8
0
100
AcDbBlockBegin
  2
*Paper_Space0
 70
     0
 10
0.0
 20
0.0
 30
0.0
  3
*Paper_Space0
  1

  0
ENDBLK
  5
25
330
23
100
AcDbEntity
  8
0
100
AcDbBlockEnd
  0
BLOCK
  5
40
330
3F
100
AcDbEntity
  8
0
100
AcDbBlockBegin
  2
_CLOSED
 70
     0
 10
0.0
 20
0.0
 30
0.0
  3
_CLOSED
  1

  0
LINE
  5
42
330
3F
100
AcDbEntity
  8
0
  6
ByBlock
 62
     0
370
    -2
100
AcDbLine
 10
-1.0
 20
0.166667
 30
0.0
 11
0.0
 21
0.0
 31
0.0
  0
LINE
  5
43
330
3F
100
AcDbEntity
  8
0
  6
ByBlock
 62
     0
370
    -2
100
AcDbLine
 10
0.0
 20
0.0
 30
0.0
 11
-1.0
 21
-0.166667
 31
0.0
  0
LINE
  5
44
330
3F
100
AcDbEntity
  8
0
  6
ByBlock
 62
     0
370
    -2
100
AcDbLine
 10
-1.0
 20
0.166667
 30
0.0
 11
-1.0
 21
-0.166667
 31
0.0
  0
LINE
  5
45
330
3F
100
AcDbEntity
  8
0
  6
ByBlock
 62
     0
370
    -2
100
AcDbLine
 10
0.0
 20
0.0
 30
0.0
 11
-1.0
 21
0.0
 31
0.0
  0
ENDBLK
  5
41
330
3F
100
AcDbEntity
  8
0
100
AcDbBlockEnd
  0
BLOCK
  5
F2
330
48
100
AcDbEntity
  8
0
100
AcDbBlockBegin
  2
a
 70
     0
 10
47.624363
 20
163.445251
 30
0.0
  3
a
  1

  0
LINE
  5
49
330
48
100
AcDbEntity
  8
0
  6
Continuous
 62
     0
370
    30
100
AcDbLine
 10
133.360137
 20
2020.464308
 30
0.0
 11
138.359826
 21
2020.408637
 31
0.0
  0
LWPOLYLINE
  5
4A
330
48
100
AcDbEntity
  8
0
  6
Continuous
 62
     0
370
     0
100
AcDbPolyline
 90
       17
 70
     0
 43
0.0
 10
172.893387
 20
1626.118164
 10
173.577316
 20
1626.134155
 10
174.28804
 20
1626.007568
 10
175.003723
 20
1625.74231
 10
175.702377
 20
1625.34668
 10
176.362503
 20
1624.83252
 10
176.963821
 20
1624.215942
 10
177.487854
 20
1623.515747
 10
177.918488
 20
1622.75354
 10
178.242477
 20
1621.952637
 10
178.449875
 20
1621.137695
 10
178.534286
 20
1620.333862
 10
178.493134
 20
1619.565796
 10
178.327682
 20
1618.857056
 10
178.043015
 20
1618.229492
 10
177.647888
 20
1617.702393
 10
177.143707
 20
1617.284912
  0
ARC
  5
4B
330
48
100
AcDbEntity
  8
0
  6
Continuous
 62
     0
370
     0
100
AcDbCircle
 10
173.239041
 20
1623.369413
 30
0.0
 40
2.770425595353307
100
AcDbArc
 50
97.167173
 51
122.388157
  0
ARC
  5
4C
330
48
100
AcDbEntity
  8
0
  6
Continuous
 62
     0
370
    30
100
AcDbCircle
 10
182.037411
 20
1850.587444
 30
0.0
 40
0.500000000000227
100
AcDbArc
 50
270.0
 51
307.260138
  0
LINE
  5
4D
330
48
100
AcDbEntity
  8
0
  6
Continuous
 62
     0
370
     0
100
AcDbLine
 10
199.366464
 20
1853.187444
 30
0.0
 11
203.472632
 21
1853.187444
 31
0.0
  0
LINE
  5
4E
330
48
100
AcDbEntity
  8
0
  6
Continuous
 62
     0
370
     0
100
AcDbLine
 10
199.366464
 20
1853.187468
 30
0.0
 11
199.366458
 21
1853.08775
 31
0.0
  0
LINE
  5
4F
330
48
100
AcDbEntity
  8
0
  6
Continuous
 62
     0
370
     0
100
AcDbLine
 10
203.472632
 20
1853.087444
 30
0.0
 11
203.472632
 21
1853.187444
 31
0.0
  0
LWPOLYLINE
  5
50
330
48
100
AcDbEntity
  8
0
  6
Continuous
 62
     0
370
     0
100
AcDbPolyline
 90
        3
 70
     0
 43
0.0
 10
199.36647
 20
1853.1875
 10
199.281158
 20
1853.144775
 10
199.118713
 20
1853.15332
  0
LWPOLYLINE
  5
51
330
48
100
AcDbEntity
  8
0
  6
Continuous
 62
     0
370
     0
100
AcDbPolyline
 90
       23
 70
     0
 43
0.0
 10
182.037415
 20
1850.087402
 10
182.096695
 20
1850.13269
 10
182.27066
 20
1850.266113
 10
182.553482
 20
1850.482056
 10
182.938995
 20
1850.771362
 10
183.41864
 20
1851.123413
 10
183.982941
 20
1851.526245
 10
184.624237
 20
1851.967896
 10
185.336853
 20
1852.435913
 10
186.115555
 20
1852.917603
 10
186.957565
 20
1853.398438
 10
187.861496
 20
1853.863037
 10
188.826614
 20
1854.292236
 10
189.851532
 20
1854.663574
 10
190.931549
 20
1854.950317
 10
192.054932
 20
1855.125122
 10
193.200119
 20
1855.166992
 10
194.339935
 20
1855.070801
 10
195.448105
 20
1854.848511
 10
196.506897
 20
1854.525024
 10
197.508713
 20
1854.127563
 10
198.449783
 20
1853.682007
 10
199.36647
 20
1853.1875
  0
LINE
  5
52
330
48
100
AcDbEntity
  8
0
  6
Continuous
 62
     0
370
     0
100
AcDbLine
 10
203.472632
 20
1878.087444
 30
0.0
 11
203.472632
 21
1877.987444
 31
0.0
  0
LINE
  5
53
330
48
100
AcDbEntity
  8
0
  6
Continuous
 62
     0
370
     0
100
AcDbLine
 10
200.724323
 20
1877.987416
 30
0.0
 11
200.724318
 21
1878.087434
 31
0.0
  0
LINE
  5
54
330
48
100
AcDbEntity
  8
0
  6
Continuous
 62
     0
370
     0
100
AcDbLine
 10
200.724323
 20
1877.987444
 30
0.0
 11
203.472632
 21
1877.987444
 31
0.0
  0
LWPOLYLINE
  5
55
330
48
100
AcDbEntity
  8
0
  6
Continuous
 62
     0
370
     0
100
AcDbPolyline
 90
        3
 70
     0
 43
0.0
 10
200.724319
 20
1877.987427
 10
200.63118
 20
1878.027466
 10
200.458847
 20
1878.011108
  0
LWPOLYLINE
  5
56
330
48
100
AcDbEntity
  8
0
  6
Continuous
 62
     0
370
     0
100
AcDbPolyline
 90
       21
 70
     0
 43
0.0
 10
182.031082
 20
1880.265991
 10
182.538986
 20
1879.877563
 10
183.128128
 20
1879.437866
 10
183.790314
 20
1878.958496
 10
184.519974
 20
1878.451538
 10
185.311859
 20
1877.928955
 10
186.162308
 20
1877.403564
 10
187.070297
 20
1876.889526
 10
188.035248
 20
1876.403076
 10
189.057175
 20
1875.96521
 10
190.134583
 20
1875.599365
 10
191.261627
 20
1875.333984
 10
192.423859
 20
1875.194946
 10
193.598862
 20
1875.199829
 10
194.759521
 20
1875.347778
 10
195.883392
 20
1875.620728
 10
196.957428
 20
1875.992188
 10
197.97554
 20
1876.434082
 10
198.936859
 20
1876.922852
 10
199.841141
 20
1877.437988
 10
200.724319
 20
1877.987427
  0
ELLIPSE
  5
57
330
48
100
AcDbEntity
  8
0
  6
Continuous
 62
     0
370
     0
100
AcDbEllipse
 10
203.472632
 20
1877.587444
 30
0.0
 11
0.5
 21
0.0
 31
0.0
210
0.0
220
0.0
230
1.0
 40
0.8
 41
0.0000000000000711
 42
1.570796326794897
  0
LINE
  5
58
330
48
100
AcDbEntity
  8
0
  6
Continuous
 62
     0
370
     0
100
AcDbLine
 10
203.472632
 20
1877.987444
 30
0.0
 11
203.472632
 21
1853.187444
 31
0.0
  0
ELLIPSE
  5
59
330
48
100
AcDbEntity
  8
0
  6
Continuous
 62
     0
370
     0
100
AcDbEllipse
 10
203.472632
 20
1853.587444
 30
0.0
 11
0.5
 21
0.0
 31
0.0
210
0.0
220
0.0
230
-1.0
 40
0.8
 41
0.0
 42
1.570796326794897
  0
LINE
  5
5A
330
48
100
AcDbEntity
  8
0
  6
Continuous
 62
     0
370
    30
100
AcDbLine
 10
203.972632
 20
1877.587444
 30
0.0
 11
203.972632
 21
1853.587444
 31
0.0
  0
LWPOLYLINE
  5
5B
330
48
100
AcDbEntity
  8
0
  6
Continuous
 62
     0
370
    30
100
AcDbPolyline
 90
        5
 70
     0
 43
0.0
 10
176.874069
 20
1881.087402
 10
176.923981
 20
1881.035522
 10
177.072113
 20
1880.881226
 10
177.313843
 20
1880.629272
 10
177.66185
 20
1880.265991
  0
LINE
  5
5C
330
48
100
AcDbEntity
  8
0
  6
Continuous
 62
     0
370
    30
100
AcDbLine
 10
155.360137
 20
1881.087444
 30
0.0
 11
176.874066
 21
1881.087444
 31
0.0
  0
LWPOLYLINE
  5
5D
330
48
100
AcDbEntity
  8
0
  6
Continuous
 62
     0
370
    30
100
AcDbPolyline
 90
       19
 70
     0
 43
0.0
 10
155.360138
 20
1881.087402
 10
155.315262
 20
1881.023682
 10
155.182205
 20
1880.833862
 10
154.965866
 20
1880.522583
 10
154.673386
 20
1880.096191
 10
154.313507
 20
1879.562378
 10
153.896683
 20
1878.929321
 10
153.433655
 20
1878.204712
 10
152.935318
 20
1877.395874
 10
152.413208
 20
1876.508423
 10
151.879013
 20
1875.547241
 10
151.344971
 20
1874.515747
 10
150.825348
 20
1873.416382
 10
150.335236
 20
1872.250977
 10
149.89151
 20
1871.022217
 10
149.513824
 20
1869.733765
 10
149.222748
 20
1868.392944
 10
149.037552
 20
1867.011719
 10
148.972626
 20
1865.587402
  0
LWPOLYLINE
  5
5E
330
48
100
AcDbEntity
  8
0
  6
Continuous
 62
     0
370
    30
100
AcDbPolyline
 90
       19
 70
     0
 43
0.0
 10
155.360138
 20
1850.087402
 10
155.315491
 20
1850.150879
 10
155.182693
 20
1850.340332
 10
154.966461
 20
1850.651489
 10
154.67395
 20
1851.077881
 10
154.314224
 20
1851.611572
 10
153.897385
 20
1852.244751
 10
153.434219
 20
1852.969238
 10
152.935822
 20
1853.778198
 10
152.413574
 20
1854.665649
 10
151.879272
 20
1855.627075
 10
151.345398
 20
1856.658813
 10
150.825485
 20
1857.758545
 10
150.335144
 20
1858.924072
 10
149.891373
 20
1860.153198
 10
149.513641
 20
1861.441895
 10
149.222488
 20
1862.783081
 10
149.037399
 20
1864.164429
 10
148.972626
 20
1865.587402
  0
LINE
  5
5F
330
48
100
AcDbEntity
  8
0
  6
Continuous
 62
     0
370
    30
100
AcDbLine
 10
123.360137
 20
2035.296541
 30
0.0
 11
123.360137
 21
2052.619051
 31
0.0
  0
ELLIPSE
  5
60
330
48
100
AcDbEntity
  8
0
  6
Continuous
 62
     0
370
     0
100
AcDbEllipse
 10
133.360137
 20
2052.619051
 30
0.0
 11
10.0
 21
0.0
 31
0.0
210
0.0
220
0.0
230
1.0
 40
0.499999
 41
0.0000000000000213
 42
3.141592653589793
  0
ELLIPSE
  5
61
330
48
100
AcDbEntity
  8
0
  6
Continuous
 62
     0
370
    30
100
AcDbEllipse
 10
133.360137
 20
2035.296541
 30
0.0
 11
-10.0
 21
0.0
 31
0.0
210
0.0
220
0.0
230
-1.0
 40
0.499999
 41
0.0
 42
3.141592653589802
  0
ELLIPSE
  5
62
330
48
100
AcDbEntity
  8
0
  6
Continuous
 62
     0
370
    30
100
AcDbEllipse
 10
133.360137
 20
2035.296541
 30
0.0
 11
-10.0
 21
0.0
 31
0.0
210
0.0
220
0.0
230
-1.0
 40
0.499999
 41
3.141592653589802
 42
6.283185307179577
  0
LINE
  5
63
330
48
100
AcDbEntity
  8
0
  6
Continuous
 62
     0
370
    30
100
AcDbLine
 10
123.360137
 20
2052.619051
 30
0.0
 11
123.360137
 21
2065.619074
 31
0.0
  0
LINE
  5
64
330
48
100
AcDbEntity
  8
0
  6
Continuous
 62
     0
370
    30
100
AcDbLine
 10
123.360137
 20
2065.619074
 30
0.0
 11
123.360138
 21
2065.613416
 31
0.0
  0
ARC
  5
65
330
48
100
AcDbEntity
  8
0
  6
Continuous
 62
     0
370
    30
100
AcDbCircle
 10
133.360137
 20
2065.619074
 30
0.0
 40
10.00000000000002
100
AcDbArc
 50
0.0
 51
180.0
  0
ELLIPSE
  5
66
330
48
100
AcDbEntity
  8
0
  6
Continuous
 62
     0
370
    30
100
AcDbEllipse
 10
133.360137
 20
2035.296541
 30
0.0
 11
7.5
 21
0.0
 31
0.0
210
0.0
220
0.0
230
1.0
 40
0.499999
 41
4.71238898038475
 42
7.853981633974431
  0
ELLIPSE
  5
67
330
48
100
AcDbEntity
  8
0
  6
Continuous
 62
     0
370
    30
100
AcDbEllipse
 10
133.360137
 20
2035.296541
 30
0.0
 11
7.5
 21
0.0
 31
0.0
210
0.0
220
0.0
230
1.0
 40
0.499999
 41
1.570796326794898
 42
4.71238898038475
  0
LINE
  5
68
330
48
100
AcDbEntity
  8
0
  6
Continuous
 62
     0
370
    30
100
AcDbLine
 10
124.40061
 20
2083.344088
 30
0.0
 11
136.688406
 21
2083.344088
 31
0.0
  0
LINE
  5
69
330
48
100
AcDbEntity
  8
0
  6
Continuous
 62
     0
370
    30
100
AcDbLine
 10
136.688406
 20
2083.344088
 30
0.0
 11
142.319663
 21
2083.344088
 31
0.0
  0
LINE
  5
6A
330
48
100
AcDbEntity
  8
0
  6
Continuous
 62
     0
370
     0
100
AcDbLine
 10
136.443407
 20
2103.345464
 30
0.0
 11
141.660138
 21
2103.345464
 31
0.0
  0
LINE
  5
6B
330
48
100
AcDbEntity
  8
0
  6
Continuous
 62
     0
370
     0
100
AcDbLine
 10
125.060135
 20
2103.345464
 30
0.0
 11
136.443407
 21
2103.345464
 31
0.0
  0
LINE
  5
6C
330
48
100
AcDbEntity
  8
0
  6
Continuous
 62
     0
370
     0
100
AcDbLine
 10
124.361553
 20
2102.644049
 30
0.0
 11
136.702915
 21
2102.644049
 31
0.0
  0
LINE
  5
6D
330
48
100
AcDbEntity
  8
0
  6
Continuous
 62
     0
370
     0
100
AcDbLine
 10
136.702915
 20
2102.644049
 30
0.0
 11
142.35872
 21
2102.644049
 31
0.0
  0
ARC
  5
6E
330
48
100
AcDbEntity
  8
0
  6
Continuous
 62
     0
370
    30
100
AcDbCircle
 10
133.360136
 20
2065.619072
 30
0.0
 40
10.1
100
AcDbArc
 50
351.930713
 51
90.0
  0
ARC
  5
6F
330
48
100
AcDbEntity
  8
0
  6
Continuous
 62
     0
370
    30
100
AcDbCircle
 10
133.360136
 20
2065.619072
 30
0.0
 40
10.1
100
AcDbArc
 50
90.0
 51
188.069316
  0
ARC
  5
70
330
48
100
AcDbEntity
  8
0
  6
Continuous
 62
     0
370
    30
100
AcDbCircle
 10
133.360136
 20
2065.619072
 30
0.0
 40
16.0
100
AcDbArc
 50
90.0
 51
231.317814
  0
ARC
  5
71
330
48
100
AcDbEntity
  8
0
  6
Continuous
 62
     0
370
    30
100
AcDbCircle
 10
133.360136
 20
2065.619072
 30
0.0
 40
16.0
100
AcDbArc
 50
308.682189
 51
90.0
  0
ARC
  5
72
330
48
100
AcDbEntity
  8
0
  6
Continuous
 62
     0
370
     0
100
AcDbCircle
 10
133.360136
 20
2065.619072
 30
0.0
 40
15.74999999999999
100
AcDbArc
 50
309.4141
 51
90.0
  0
ARC
  5
73
330
48
100
AcDbEntity
  8
0
  6
Continuous
 62
     0
370
     0
100
AcDbCircle
 10
133.360136
 20
2065.619072
 30
0.0
 40
15.74999999999999
100
AcDbArc
 50
90.0
 51
230.585903
  0
LINE
  5
74
330
48
100
AcDbEntity
  8
0
  6
Continuous
 62
     0
370
    30
100
AcDbLine
 10
122.777131
 20
2053.619072
 30
0.0
 11
121.860136
 21
2053.619072
 31
0.0
  0
LWPOLYLINE
  5
75
330
48
100
AcDbEntity
  8
0
  6
Continuous
 62
     0
370
    30
100
AcDbPolyline
 90
        5
 70
     0
 43
0.0
 10
144.860138
 20
2053.619141
 10
144.807983
 20
2053.619141
 10
144.65184
 20
2053.619141
 10
144.394272
 20
2053.619141
 10
143.943146
 20
2053.619141
  0
LINE
  5
76
330
48
100
AcDbEntity
  8
0
  6
Continuous
 62
     0
370
     0
100
AcDbLine
 10
133.360137
 20
2123.102386
 30
0.0
 11
133.360137
 21
2118.11908
 31
0.0
  0
LWPOLYLINE
  5
77
330
48
100
AcDbEntity
  8
0
  6
Continuous
 62
     0
370
     0
100
AcDbPolyline
 90
       25
 70
     0
 43
0.0
 10
126.892891
 20
2103.349121
 10
126.267395
 20
2104.167969
 10
125.718079
 20
2105.044189
 10
125.24472
 20
2105.970459
 10
124.847862
 20
2106.940674
 10
124.528442
 20
2107.948242
 10
124.287781
 20
2108.986084
 10
124.127403
 20
2110.046387
 10
124.048393
 20
2111.120605
 10
124.051498
 20
2112.199219
 10
124.136696
 20
2113.272705
 10
124.303215
 20
2114.331787
 10
124.549942
 20
2115.367432
 10
124.875298
 20
2116.372559
 10
125.277992
 20
2117.3396
 10
125.757126
 20
2118.262207
 10
126.312225
 20
2119.134277
 10
126.943459
 20
2119.94873
 10
127.651085
 20
2120.697021
 10
128.435318
 20
2121.368896
 10
129.294846
 20
2121.952637
 10
130.225754
 20
2122.433105
 10
131.218552
 20
2122.795166
 10
132.257721
 20
2123.021729
 10
133.360138
 20
2123.102295
  0
LINE
  5
78
330
48
100
AcDbEntity
  8
0
  6
Continuous
 62
     0
370
     0
100
AcDbLine
 10
133.360137
 20
2105.119079
 30
0.0
 11
133.360137
 21
2103.345464
 31
0.0
  0
LWPOLYLINE
  5
79
330
48
100
AcDbEntity
  8
0
  6
Continuous
 62
     0
370
     0
100
AcDbPolyline
 90
       25
 70
     0
 43
0.0
 10
133.360138
 20
2123.102295
 10
134.425446
 20
2123.026855
 10
135.465912
 20
2122.805176
 10
136.460907
 20
2122.447998
 10
137.394257
 20
2121.971436
 10
138.256104
 20
2121.391113
 10
139.042892
 20
2120.721924
 10
139.753281
 20
2119.976074
 10
140.387238
 20
2119.163818
 10
140.944977
 20
2118.293701
 10
141.426773
 20
2117.372803
 10
141.832169
 20
2116.407227
 10
142.160248
 20
2115.40332
 10
142.409714
 20
2114.368652
 10
142.579071
 20
2113.310303
 10
142.667145
 20
2112.237061
 10
142.673187
 20
2111.158447
 10
142.597061
 20
2110.083984
 10
142.439529
 20
2109.022949
 10
142.20163
 20
2107.984131
 10
141.884933
 20
2106.975586
 10
141.490784
 20
2106.003906
 10
141.020096
 20
2105.075928
 10
140.473434
 20
2104.197998
 10
139.827438
 20
2103.349121
  0
LINE
  5
7A
330
48
100
AcDbEntity
  8
0
  6
Continuous
 62
     0
370
     0
100
AcDbLine
 10
133.360137
 20
2126.11908
 30
0.0
 11
111.360137
 21
2126.11908
 31
0.0
  0
LINE
  5
7B
330
48
100
AcDbEntity
  8
0
  6
Continuous
 62
     0
370
     0
100
AcDbLine
 10
155.360137
 20
2126.11908
 30
0.0
 11
133.360137
 21
2126.11908
 31
0.0
  0
LINE
  5
7C
330
48
100
AcDbEntity
  8
0
  6
Continuous
 62
     0
370
    30
100
AcDbLine
 10
142.344504
 20
2095.61908
 30
0.0
 11
155.353769
 21
2095.61908
 31
0.0
  0
LWPOLYLINE
  5
7D
330
48
100
AcDbEntity
  8
0
  6
Continuous
 62
     0
370
    30
100
AcDbPolyline
 90
        2
 70
     0
 43
0.0
 10
111.360146
 20
2095.811279
 10
111.366508
 20
2095.619141
  0
LWPOLYLINE
  5
7E
330
48
100
AcDbEntity
  8
0
  6
Continuous
 62
     0
370
    30
100
AcDbPolyline
 90
        2
 70
     0
 43
0.0
 10
155.353775
 20
2095.619141
 10
155.360138
 20
2095.811279
  0
LINE
  5
7F
330
48
100
AcDbEntity
  8
0
  6
Continuous
 62
     0
370
    30
100
AcDbLine
 10
111.366506
 20
2095.61908
 30
0.0
 11
124.375769
 21
2095.61908
 31
0.0
  0
LINE
  5
80
330
48
100
AcDbEntity
  8
0
  6
Continuous
 62
     0
370
    30
100
AcDbLine
 10
133.360137
 20
2126.61908
 30
0.0
 11
111.860096
 21
2126.61908
 31
0.0
  0
LWPOLYLINE
  5
81
330
48
100
AcDbEntity
  8
0
  6
Continuous
 62
     0
370
    30
100
AcDbPolyline
 90
       20
 70
     0
 43
0.0
 10
154.860184
 20
2126.619141
 10
154.786972
 20
2126.619141
 10
154.568115
 20
2126.619141
 10
154.204773
 20
2126.619141
 10
153.699265
 20
2126.619141
 10
153.056
 20
2126.619141
 10
152.279572
 20
2126.619141
 10
151.375183
 20
2126.619141
 10
150.34845
 20
2126.619141
 10
149.205276
 20
2126.619141
 10
147.953613
 20
2126.619141
 10
146.60228
 20
2126.619141
 10
145.160599
 20
2126.619141
 10
143.639343
 20
2126.619141
 10
142.049561
 20
2126.619141
 10
140.402191
 20
2126.619141
 10
138.707245
 20
2126.619141
 10
136.972336
 20
2126.619141
 10
135.211609
 20
2126.619141
 10
133.360138
 20
2126.619141
  0
ARC
  5
82
330
48
100
AcDbEntity
  8
0
  6
Continuous
 62
     0
370
    30
100
AcDbCircle
 10
133.360137
 20
2111.61908
 30
0.0
 40
6.500000531194976
100
AcDbArc
 50
180.0
 51
360.0
  0
ARC
  5
83
330
48
100
AcDbEntity
  8
0
  6
Continuous
 62
     0
370
    30
100
AcDbCircle
 10
133.360137
 20
2111.61908
 30
0.0
 40
6.500000531194976
100
AcDbArc
 50
0.0
 51
180.0
  0
ARC
  5
84
330
48
100
AcDbEntity
  8
0
  6
Continuous
 62
     0
370
     0
100
AcDbCircle
 10
133.360137
 20
2111.61908
 30
0.0
 40
5.500000531194976
100
AcDbArc
 50
0.0
 51
180.0
  0
ARC
  5
85
330
48
100
AcDbEntity
  8
0
  6
Continuous
 62
     0
370
     0
100
AcDbCircle
 10
133.360137
 20
2111.61908
 30
0.0
 40
5.500000531194976
100
AcDbArc
 50
180.0
 51
360.0
  0
LINE
  5
86
330
48
100
AcDbEntity
  8
0
  6
Continuous
 62
     0
370
    30
100
AcDbLine
 10
83.955818
 20
1235.619077
 30
0.0
 11
83.360137
 21
1235.619077
 31
0.0
  0
LINE
  5
87
330
48
100
AcDbEntity
  8
0
  6
Continuous
 62
     0
370
    30
100
AcDbLine
 10
183.360137
 20
1235.619077
 30
0.0
 11
83.955818
 21
1235.619077
 31
0.0
  0
LINE
  5
88
330
48
100
AcDbEntity
  8
0
  6
Continuous
 62
     0
370
    30
100
AcDbLine
 10
83.955818
 20
1219.619077
 30
0.0
 11
183.360137
 21
1219.619077
 31
0.0
  0
LINE
  5
89
330
48
100
AcDbEntity
  8
0
  6
Continuous
 62
     0
370
    30
100
AcDbLine
 10
83.360137
 20
1219.619077
 30
0.0
 11
83.955818
 21
1219.619077
 31
0.0
  0
LWPOLYLINE
  5
8A
330
48
100
AcDbEntity
  8
0
  6
Continuous
 62
     0
370
     0
100
AcDbPolyline
 90
        8
 70
     0
 43
0.0
 10
124.46537
 20
2078.918701
 10
125.17556
 20
2079.741455
 10
125.945778
 20
2080.51123
 10
126.776573
 20
2081.220459
 10
127.6679
 20
2081.859375
 10
128.618896
 20
2082.417725
 10
129.626297
 20
2082.883789
 10
130.833969
 20
2083.286377
  0
LINE
  5
8B
330
48
100
AcDbEntity
  8
0
  6
Continuous
 62
     0
370
    30
100
AcDbLine
 10
124.377793
 20
2094.61908
 30
0.0
 11
111.360137
 21
2094.61908
 31
0.0
  0
LINE
  5
8C
330
48
100
AcDbEntity
  8
0
  6
Continuous
 62
     0
370
    30
100
AcDbLine
 10
155.360137
 20
2094.61908
 30
0.0
 11
142.34248
 21
2094.61908
 31
0.0
  0
LWPOLYLINE
  5
8D
330
48
100
AcDbEntity
  8
0
  6
Continuous
 62
     0
370
     0
100
AcDbPolyline
 90
        8
 70
     0
 43
0.0
 10
135.886307
 20
2083.286377
 10
136.948685
 20
2082.941162
 10
137.963455
 20
2082.489014
 10
138.922653
 20
2081.942627
 10
139.822433
 20
2081.314209
 10
140.661713
 20
2080.614502
 10
141.440414
 20
2079.852539
 10
142.254913
 20
2078.918701
  0
LINE
  5
8E
330
48
100
AcDbEntity
  8
0
  6
Continuous
 62
     0
370
    30
100
AcDbLine
 10
130.978355
 20
2020.464308
 30
0.0
 11
143.260136
 21
2020.464308
 31
0.0
  0
LINE
  5
8F
330
48
100
AcDbEntity
  8
0
  6
Continuous
 62
     0
370
    30
100
AcDbLine
 10
123.460136
 20
2020.464308
 30
0.0
 11
130.978355
 21
2020.464308
 31
0.0
  0
LINE
  5
90
330
48
100
AcDbEntity
  8
0
  6
Continuous
 62
     0
370
    30
100
AcDbLine
 10
121.910136
 20
2050.464308
 30
0.0
 11
123.360137
 21
2050.464308
 31
0.0
  0
LINE
  5
91
330
48
100
AcDbEntity
  8
0
  6
Continuous
 62
     0
370
    30
100
AcDbLine
 10
143.360137
 20
2050.464308
 30
0.0
 11
144.810136
 21
2050.464308
 31
0.0
  0
LINE
  5
92
330
48
100
AcDbEntity
  8
0
  6
Continuous
 62
     0
370
    30
100
AcDbLine
 10
203.005387
 20
1850.266003
 30
0.0
 11
196.233747
 21
1850.266003
 31
0.0
  0
LINE
  5
93
330
48
100
AcDbEntity
  8
0
  6
Continuous
 62
     0
370
    30
100
AcDbLine
 10
196.233747
 20
1850.266003
 30
0.0
 11
182.939877
 21
1850.266003
 31
0.0
  0
ARC
  5
94
330
48
100
AcDbEntity
  8
0
  6
Continuous
 62
     0
370
    30
100
AcDbCircle
 10
192.972223
 20
2023.265595
 30
0.0
 40
13.4995913719105
100
AcDbArc
 50
179.998266
 51
270.001734
  0
ARC
  5
95
330
48
100
AcDbEntity
  8
0
  6
Continuous
 62
     0
370
    30
100
AcDbCircle
 10
192.973041
 20
2023.265595
 30
0.0
 40
13.4995913719103
100
AcDbArc
 50
269.998266
 51
0.001734
  0
LINE
  5
96
330
48
100
AcDbEntity
  8
0
  6
Continuous
 62
     0
370
    30
100
AcDbLine
 10
206.472632
 20
2023.266003
 30
0.0
 11
206.472632
 21
2072.766003
 31
0.0
  0
ARC
  5
97
330
48
100
AcDbEntity
  8
0
  6
Continuous
 62
     0
370
    30
100
AcDbCircle
 10
192.973038
 20
2072.766409
 30
0.0
 40
13.4995941127383
100
AcDbArc
 50
359.998277
 51
90.001723
  0
ARC
  5
98
330
48
100
AcDbEntity
  8
0
  6
Continuous
 62
     0
370
    30
100
AcDbCircle
 10
192.972229
 20
2072.766406
 30
0.0
 40
13.49959688094087
100
AcDbArc
 50
89.998289
 51
180.001711
  0
LINE
  5
99
330
48
100
AcDbEntity
  8
0
  6
Continuous
 62
     0
370
    30
100
AcDbLine
 10
179.472632
 20
2072.766003
 30
0.0
 11
179.472632
 21
2023.266003
 31
0.0
  0
LINE
  5
9A
330
48
100
AcDbEntity
  8
0
  6
Continuous
 62
     0
370
    30
100
AcDbLine
 10
192.972632
 20
1880.266003
 30
0.0
 11
209.072632
 21
1880.266003
 31
0.0
  0
LINE
  5
9B
330
48
100
AcDbEntity
  8
0
  6
Continuous
 62
     0
370
    30
100
AcDbLine
 10
177.661849
 20
1880.266003
 30
0.0
 11
192.972632
 21
1880.266003
 31
0.0
  0
LINE
  5
9C
330
48
100
AcDbEntity
  8
0
  6
Continuous
 62
     0
370
     0
100
AcDbLine
 10
192.972632
 20
2090.267749
 30
0.0
 11
177.239155
 21
2090.267749
 31
0.0
  0
LINE
  5
9D
330
48
100
AcDbEntity
  8
0
  6
Continuous
 62
     0
370
     0
100
AcDbLine
 10
208.706109
 20
2090.267749
 30
0.0
 11
192.972632
 21
2090.267749
 31
0.0
  0
LINE
  5
9E
330
48
100
AcDbEntity
  8
0
  6
Continuous
 62
     0
370
    30
100
AcDbLine
 10
192.972632
 20
2091.266003
 30
0.0
 11
207.706111
 21
2091.266003
 31
0.0
  0
LINE
  5
9F
330
48
100
AcDbEntity
  8
0
  6
Continuous
 62
     0
370
    30
100
AcDbLine
 10
178.239153
 20
2091.266003
 30
0.0
 11
192.972632
 21
2091.266003
 31
0.0
  0
LWPOLYLINE
  5
A0
330
48
100
AcDbEntity
  8
0
  6
Continuous
 62
     0
370
     0
100
AcDbPolyline
 90
       17
 70
     0
 43
0.0
 10
192.97261
 20
2011.620239
 10
191.939758
 20
2011.69751
 10
190.934662
 20
2011.924072
 10
189.980591
 20
2012.286377
 10
189.091248
 20
2012.766113
 10
188.276016
 20
2013.345093
 10
187.537521
 20
2014.006592
 10
186.875168
 20
2014.736816
 10
186.287231
 20
2015.52478
 10
185.771713
 20
2016.361938
 10
185.326538
 20
2017.242065
 10
184.949677
 20
2018.158813
 10
184.639938
 20
2019.107178
 10
184.396759
 20
2020.082275
 10
184.219971
 20
2021.078735
 10
184.109695
 20
2022.090576
 10
184.065979
 20
2023.130249
  0
ARC
  5
A1
330
48
100
AcDbEntity
  8
0
  6
Continuous
 62
     0
370
     0
100
AcDbCircle
 10
184.268731
 20
1848.849489
 30
0.0
 40
174.2808369028233
100
AcDbArc
 50
90.066655
 51
90.428041
  0
LWPOLYLINE
  5
A2
330
48
100
AcDbEntity
  8
0
  6
Continuous
 62
     0
370
     0
100
AcDbPolyline
 90
       17
 70
     0
 43
0.0
 10
182.966736
 20
2023.125488
 10
183.016296
 20
2022.035278
 10
183.144241
 20
2020.9552
 10
183.349701
 20
2019.893555
 10
183.631485
 20
2018.857788
 10
183.988998
 20
2017.853271
 10
184.42186
 20
2016.88562
 10
184.930328
 20
2015.960205
 10
185.515671
 20
2015.082153
 10
186.179764
 20
2014.258301
 10
186.924576
 20
2013.496948
 10
187.75177
 20
2012.809204
 10
188.661606
 20
2012.208252
 10
189.65123
 20
2011.710938
 10
190.711014
 20
2011.335938
 10
191.825714
 20
2011.10144
 10
192.972626
 20
2011.021362
  0
LINE
  5
A3
330
48
100
AcDbEntity
  8
0
  6
Continuous
 62
     0
370
     0
100
AcDbLine
 10
192.972632
 20
2011.021321
 30
0.0
 11
192.972607
 21
2011.620297
 31
0.0
  0
LINE
  5
A4
330
48
100
AcDbEntity
  8
0
  6
Continuous
 62
     0
370
     0
100
AcDbLine
 10
182.966739
 20
2072.76644
 30
0.0
 11
182.966739
 21
2023.125462
 31
0.0
  0
LINE
  5
A5
330
48
100
AcDbEntity
  8
0
  6
Continuous
 62
     0
370
     0
100
AcDbLine
 10
184.06601
 20
2023.130208
 30
0.0
 11
184.06601
 21
2072.76644
 31
0.0
  0
LINE
  5
A6
330
48
100
AcDbEntity
  8
0
  6
Continuous
 62
     0
370
     0
100
AcDbLine
 10
184.06601
 20
2072.76644
 30
0.0
 11
182.966739
 21
2072.76644
 31
0.0
  0
ARC
  5
A7
330
48
100
AcDbEntity
  8
0
  6
Continuous
 62
     0
370
     0
100
AcDbCircle
 10
201.676552
 20
2239.705042
 30
0.0
 40
166.7972457538514
100
AcDbArc
 50
270.06964
 51
270.447239
  0
LWPOLYLINE
  5
A8
330
48
100
AcDbEntity
  8
0
  6
Continuous
 62
     0
370
     0
100
AcDbPolyline
 90
       17
 70
     0
 43
0.0
 10
202.978531
 20
2072.912842
 10
202.928543
 20
2074.002686
 10
202.800247
 20
2075.082275
 10
202.594498
 20
2076.143311
 10
202.312485
 20
2077.178711
 10
201.954803
 20
2078.182617
 10
201.52182
 20
2079.149658
 10
201.013306
 20
2080.074707
 10
200.427963
 20
2080.952148
 10
199.763931
 20
2081.775635
 10
199.019211
 20
2082.536621
 10
198.1922
 20
2083.223877
 10
197.282593
 20
2083.824463
 10
196.293259
 20
2084.321533
 10
195.233841
 20
2084.696289
 10
194.119553
 20
2084.930664
 10
192.972626
 20
2085.010742
  0
LINE
  5
A9
330
48
100
AcDbEntity
  8
0
  6
Continuous
 62
     0
370
     0
100
AcDbLine
 10
192.972632
 20
2085.010781
 30
0.0
 11
192.97266
 21
2084.411804
 31
0.0
  0
LWPOLYLINE
  5
AA
330
48
100
AcDbEntity
  8
0
  6
Continuous
 62
     0
370
     0
100
AcDbPolyline
 90
       17
 70
     0
 43
0.0
 10
192.972656
 20
2084.411865
 10
194.005112
 20
2084.334717
 10
195.009827
 20
2084.108154
 10
195.963608
 20
2083.746338
 10
196.852692
 20
2083.266846
 10
197.66774
 20
2082.688232
 10
198.406128
 20
2082.0271
 10
199.068405
 20
2081.297363
 10
199.656326
 20
2080.51001
 10
200.17189
 20
2079.673096
 10
200.617142
 20
2078.793457
 10
200.994141
 20
2077.877197
 10
201.304077
 20
2076.929443
 10
201.54747
 20
2075.954834
 10
201.724548
 20
2074.958984
 10
201.835159
 20
2073.94751
 10
201.879288
 20
2072.907959
  0
LINE
  5
AB
330
48
100
AcDbEntity
  8
0
  6
Continuous
 62
     0
370
     0
100
AcDbLine
 10
201.879254
 20
2072.907919
 30
0.0
 11
201.879254
 21
2023.265614
 31
0.0
  0
LINE
  5
AC
330
48
100
AcDbEntity
  8
0
  6
Continuous
 62
     0
370
     0
100
AcDbLine
 10
201.879254
 20
2023.265614
 30
0.0
 11
202.978525
 21
2023.265614
 31
0.0
  0
LINE
  5
AD
330
48
100
AcDbEntity
  8
0
  6
Continuous
 62
     0
370
     0
100
AcDbLine
 10
202.978525
 20
2023.265614
 30
0.0
 11
202.978525
 21
2072.912878
 31
0.0
  0
LWPOLYLINE
  5
AE
330
48
100
AcDbEntity
  8
0
  6
Continuous
 62
     0
370
     0
100
AcDbPolyline
 90
       17
 70
     0
 43
0.0
 10
192.972656
 20
2084.411865
 10
191.933624
 20
2084.333008
 10
190.916946
 20
2084.102051
 10
189.955444
 20
2083.734375
 10
189.064697
 20
2083.249023
 10
188.249557
 20
2082.665283
 10
187.51207
 20
2081.999512
 10
186.850937
 20
2081.264893
 10
186.264435
 20
2080.472656
 10
185.750122
 20
2079.629639
 10
185.305603
 20
2078.742676
 10
184.929489
 20
2077.816406
 10
184.62085
 20
2076.855713
 10
184.379517
 20
2075.864746
 10
184.206055
 20
2074.848877
 10
184.101227
 20
2073.814941
 10
184.06601
 20
2072.766357
  0
LINE
  5
AF
330
48
100
AcDbEntity
  8
0
  6
Continuous
 62
     0
370
     0
100
AcDbLine
 10
184.06601
 20
2072.76644
 30
0.0
 11
185.648935
 21
2072.76644
 31
0.0
  0
LWPOLYLINE
  5
B0
330
48
100
AcDbEntity
  8
0
  6
Continuous
 62
     0
370
    30
100
AcDbPolyline
 90
       14
 70
     0
 43
0.0
 10
185.648941
 20
2072.766357
 10
185.788559
 20
2073.656006
 10
186.000687
 20
2074.537354
 10
186.285736
 20
2075.399658
 10
186.643631
 20
2076.233154
 10
187.074112
 20
2077.028564
 10
187.576721
 20
2077.776367
 10
188.150909
 20
2078.466553
 10
188.796051
 20
2079.088623
 10
189.509949
 20
2079.630859
 10
190.288712
 20
2080.079102
 10
191.124985
 20
2080.418213
 10
192.007416
 20
2080.633301
 10
192.972626
 20
2080.713135
  0
LWPOLYLINE
  5
B1
330
48
100
AcDbEntity
  8
0
  6
Continuous
 62
     0
370
    30
100
AcDbPolyline
 90
       14
 70
     0
 43
0.0
 10
192.972626
 20
2080.713135
 10
193.866821
 20
2080.644775
 10
194.741653
 20
2080.443359
 10
195.572952
 20
2080.119629
 10
196.349121
 20
2079.687744
 10
197.062576
 20
2079.162598
 10
197.709274
 20
2078.557617
 10
198.286865
 20
2077.884766
 10
198.794647
 20
2077.154297
 10
199.232101
 20
2076.375488
 10
199.59874
 20
2075.558105
 10
199.894318
 20
2074.710938
 10
200.118698
 20
2073.843018
 10
200.281326
 20
2072.894775
  0
LINE
  5
B2
330
48
100
AcDbEntity
  8
0
  6
Continuous
 62
     0
370
     0
100
AcDbLine
 10
200.281321
 20
2072.894719
 30
0.0
 11
201.879286
 21
2072.907919
 31
0.0
  0
LINE
  5
B3
330
48
100
AcDbEntity
  8
0
  6
Continuous
 62
     0
370
     0
100
AcDbLine
 10
184.065983
 20
2023.129968
 30
0.0
 11
185.605292
 21
2023.142295
 31
0.0
  0
ARC
  5
B4
330
48
100
AcDbEntity
  8
0
  6
Continuous
 62
     0
370
    30
100
AcDbCircle
 10
399.155954
 20
2047.766578
 30
0.0
 40
214.9656727889245
100
AcDbArc
 50
173.321561
 51
186.577661
  0
LWPOLYLINE
  5
B5
330
48
100
AcDbEntity
  8
0
  6
Continuous
 62
     0
370
     0
100
AcDbPolyline
 90
       17
 70
     0
 43
0.0
 10
192.97261
 20
2011.620239
 10
194.011642
 20
2011.698975
 10
195.02832
 20
2011.930054
 10
195.989822
 20
2012.297607
 10
196.880569
 20
2012.783081
 10
197.695709
 20
2013.366943
 10
198.433197
 20
2014.032593
 10
199.09433
 20
2014.767212
 10
199.680832
 20
2015.55957
 10
200.195145
 20
2016.402344
 10
200.639648
 20
2017.289429
 10
201.015762
 20
2018.215576
 10
201.324417
 20
2019.176514
 10
201.56575
 20
2020.167236
 10
201.739212
 20
2021.183228
 10
201.84404
 20
2022.217041
 10
201.879257
 20
2023.265625
  0
LINE
  5
B6
330
48
100
AcDbEntity
  8
0
  6
Continuous
 62
     0
370
     0
100
AcDbLine
 10
201.879254
 20
2023.265614
 30
0.0
 11
200.354104
 21
2023.265614
 31
0.0
  0
LWPOLYLINE
  5
B7
330
48
100
AcDbEntity
  8
0
  6
Continuous
 62
     0
370
    30
100
AcDbPolyline
 90
       14
 70
     0
 43
0.0
 10
200.354111
 20
2023.265625
 10
200.215027
 20
2022.366577
 10
200.00235
 20
2021.47583
 10
199.715866
 20
2020.604492
 10
199.355606
 20
2019.762451
 10
198.921829
 20
2018.95874
 10
198.415009
 20
2018.203369
 10
197.835739
 20
2017.506104
 10
197.184692
 20
2016.877563
 10
196.464035
 20
2016.329956
 10
195.677597
 20
2015.877441
 10
194.832901
 20
2015.535278
 10
193.941574
 20
2015.318481
 10
192.972626
 20
2015.238647
  0
LWPOLYLINE
  5
B8
330
48
100
AcDbEntity
  8
0
  6
Continuous
 62
     0
370
    30
100
AcDbPolyline
 90
       14
 70
     0
 43
0.0
 10
192.972626
 20
2015.238647
 10
192.069061
 20
2015.307983
 10
191.185165
 20
2015.511963
 10
190.345459
 20
2015.839722
 10
189.561737
 20
2016.276855
 10
188.841629
 20
2016.808228
 10
188.189224
 20
2017.42041
 10
187.606903
 20
2018.101196
 10
187.095337
 20
2018.84021
 10
186.65506
 20
2019.627808
 10
186.28656
 20
2020.45459
 10
185.990112
 20
2021.311523
 10
185.765854
 20
2022.189331
 10
185.605301
 20
2023.142334
  0
ARC
  5
B9
330
48
100
AcDbEntity
  8
0
  6
Continuous
 62
     0
370
    30
100
AcDbCircle
 10
-13.75612
 20
2047.735805
 30
0.0
 40
215.5110194711964
100
AcDbArc
 50
359.974103
 51
6.704038
  0
ARC
  5
BA
330
48
100
AcDbEntity
  8
0
  6
Continuous
 62
     0
370
    30
100
AcDbCircle
 10
-13.689279
 20
2047.793946
 30
0.0
 40
215.4442122897539
100
AcDbArc
 50
353.462699
 51
359.958633
  0
LWPOLYLINE
  5
BB
330
48
100
AcDbEntity
  8
0
  6
Continuous
 62
     0
370
     0
100
AcDbPolyline
 90
       18
 70
     0
 43
0.0
 10
192.972626
 20
2011.021362
 10
194.055466
 20
2011.092773
 10
195.112869
 20
2011.302856
 10
196.123001
 20
2011.640137
 10
197.072357
 20
2012.0896
 10
197.951782
 20
2012.635254
 10
198.757446
 20
2013.262451
 10
199.489182
 20
2013.95874
 10
200.148193
 20
2014.7146
 10
200.735977
 20
2015.521851
 10
201.254272
 20
2016.374268
 10
201.704437
 20
2017.266846
 10
202.087296
 20
2018.195312
 10
202.402664
 20
2019.155029
 10
202.650177
 20
2020.141357
 10
202.829269
 20
2021.149292
 10
202.938934
 20
2022.172485
 10
202.978531
 20
2023.265625
  0
LWPOLYLINE
  5
BC
330
48
100
AcDbEntity
  8
0
  6
Continuous
 62
     0
370
     0
100
AcDbPolyline
 90
       18
 70
     0
 43
0.0
 10
192.972626
 20
2085.010742
 10
191.889801
 20
2084.939209
 10
190.832382
 20
2084.729248
 10
189.822266
 20
2084.391846
 10
188.87291
 20
2083.942383
 10
187.993469
 20
2083.396729
 10
187.18782
 20
2082.769775
 10
186.456085
 20
2082.073242
 10
185.797058
 20
2081.317383
 10
185.20929
 20
2080.510254
 10
184.690994
 20
2079.657715
 10
184.240829
 20
2078.765137
 10
183.857971
 20
2077.83667
 10
183.542603
 20
2076.876953
 10
183.29509
 20
2075.890625
 10
183.115982
 20
2074.882812
 10
183.006332
 20
2073.859619
 10
182.966736
 20
2072.766357
  0
LINE
  5
BD
330
48
100
AcDbEntity
  8
0
  6
Continuous
 62
     0
370
     0
100
AcDbLine
 10
192.972632
 20
2015.238627
 30
0.0
 11
192.972632
 21
2080.713201
 31
0.0
  0
ARC
  5
BE
330
48
100
AcDbEntity
  8
0
  6
Continuous
 62
     0
370
    30
100
AcDbCircle
 10
178.239165
 20
2090.265991
 30
0.0
 40
1.000012371559885
100
AcDbArc
 50
90.006437
 51
179.899292
  0
ARC
  5
BF
330
48
100
AcDbEntity
  8
0
  6
Continuous
 62
     0
370
    30
100
AcDbCircle
 10
207.706099
 20
2090.265991
 30
0.0
 40
1.000012371550881
100
AcDbArc
 50
0.100708
 51
89.993563
  0
LINE
  5
C0
330
48
100
AcDbEntity
  8
0
  6
Continuous
 62
     0
370
    30
100
AcDbLine
 10
209.072632
 20
1880.266003
 30
0.0
 11
208.706109
 21
2090.267749
 31
0.0
  0
LINE
  5
C1
330
48
100
AcDbEntity
  8
0
  6
Continuous
 62
     0
370
    30
100
AcDbLine
 10
176.874066
 20
1881.087444
 30
0.0
 11
177.239155
 21
2090.267749
 31
0.0
  0
LINE
  5
C2
330
48
100
AcDbEntity
  8
0
  6
Continuous
 62
     0
370
    30
100
AcDbLine
 10
203.972632
 20
1870.04276
 30
0.0
 11
204.472632
 21
1880.266003
 31
0.0
  0
LINE
  5
C3
330
48
100
AcDbEntity
  8
0
  6
Continuous
 62
     0
370
    30
100
AcDbLine
 10
203.005387
 20
1850.266003
 30
0.0
 11
203.143379
 21
1853.087444
 31
0.0
  0
LINE
  5
C4
330
48
100
AcDbEntity
  8
0
  6
Continuous
 62
     0
370
    30
100
AcDbLine
 10
182.922564
 20
1850.619998
 30
0.0
 11
182.939877
 21
1850.266003
 31
0.0
  0
LINE
  5
C5
330
48
100
AcDbEntity
  8
0
  6
Continuous
 62
     0
370
    30
100
AcDbLine
 10
144.810136
 20
2050.464308
 30
0.0
 11
143.260136
 21
2020.464308
 31
0.0
  0
LINE
  5
C6
330
48
100
AcDbEntity
  8
0
  6
Continuous
 62
     0
370
    30
100
AcDbLine
 10
121.910136
 20
2050.464308
 30
0.0
 11
123.460136
 21
2020.464308
 31
0.0
  0
LINE
  5
C7
330
48
100
AcDbEntity
  8
0
  6
Continuous
 62
     0
370
    30
100
AcDbLine
 10
111.360137
 20
2094.61908
 30
0.0
 11
111.360137
 21
1235.619077
 31
0.0
  0
LINE
  5
C8
330
48
100
AcDbEntity
  8
0
  6
Continuous
 62
     0
370
    30
100
AcDbLine
 10
155.360137
 20
2094.61908
 30
0.0
 11
155.360137
 21
1881.087444
 31
0.0
  0
LINE
  5
C9
330
48
100
AcDbEntity
  8
0
  6
Continuous
 62
     0
370
    30
100
AcDbLine
 10
155.360137
 20
1629.800605
 30
0.0
 11
155.360137
 21
1235.619077
 31
0.0
  0
LINE
  5
CA
330
48
100
AcDbEntity
  8
0
  6
Continuous
 62
     0
370
    30
100
AcDbLine
 10
155.360137
 20
1850.087942
 30
0.0
 11
155.360137
 21
1662.581501
 31
0.0
  0
LINE
  5
CB
330
48
100
AcDbEntity
  8
0
  6
Continuous
 62
     0
370
    30
100
AcDbLine
 10
83.360137
 20
1235.619077
 30
0.0
 11
83.360137
 21
1219.619077
 31
0.0
  0
LINE
  5
CC
330
48
100
AcDbEntity
  8
0
  6
Continuous
 62
     0
370
    30
100
AcDbLine
 10
183.360137
 20
1235.619077
 30
0.0
 11
183.360137
 21
1219.619077
 31
0.0
  0
ARC
  5
CD
330
48
100
AcDbEntity
  8
0
  6
Continuous
 62
     0
370
    30
100
AcDbCircle
 10
133.449998
 20
2093.241752
 30
0.0
 40
20.38643924526648
100
AcDbArc
 50
173.30332
 51
176.12609
  0
ARC
  5
CE
330
48
100
AcDbEntity
  8
0
  6
Continuous
 62
     0
370
    30
100
AcDbCircle
 10
133.157159
 20
2093.232836
 30
0.0
 40
20.49990398046469
100
AcDbArc
 50
3.877412
 51
6.684536
  0
LINE
  5
CF
330
48
100
AcDbEntity
  8
0
  6
Continuous
 62
     0
370
    30
100
AcDbLine
 10
111.860094
 20
2126.61908
 30
0.0
 11
111.85783
 21
2126.619079
 31
0.0
  0
LINE
  5
D0
330
48
100
AcDbEntity
  8
0
  6
Continuous
 62
     0
370
    30
100
AcDbLine
 10
154.860181
 20
2126.61908
 30
0.0
 11
154.862444
 21
2126.619079
 31
0.0
  0
ARC
  5
D1
330
48
100
AcDbEntity
  8
0
  6
Continuous
 62
     0
370
    30
100
AcDbCircle
 10
154.860134
 20
2126.119076
 30
0.0
 40
0.5000034530838543
100
AcDbArc
 50
0.000396
 51
89.994602
  0
ARC
  5
D2
330
48
100
AcDbEntity
  8
0
  6
Continuous
 62
     0
370
    30
100
AcDbCircle
 10
111.860141
 20
2126.119076
 30
0.0
 40
0.5000034530832601
100
AcDbArc
 50
90.005398
 51
179.999604
  0
LINE
  5
D3
330
48
100
AcDbEntity
  8
0
  6
Continuous
 62
     0
370
    30
100
AcDbLine
 10
155.360137
 20
2095.811736
 30
0.0
 11
155.360137
 21
2126.11908
 31
0.0
  0
LINE
  5
D4
330
48
100
AcDbEntity
  8
0
  6
Continuous
 62
     0
370
    30
100
AcDbLine
 10
111.360137
 20
2095.811736
 30
0.0
 11
111.360137
 21
2126.11908
 31
0.0
  0
LINE
  5
D5
330
48
100
AcDbEntity
  8
0
  6
Continuous
 62
     0
370
    30
100
AcDbLine
 10
143.860136
 20
2050.464308
 30
0.0
 11
143.860136
 21
2053.546376
 31
0.0
  0
LINE
  5
D6
330
48
100
AcDbEntity
  8
0
  6
Continuous
 62
     0
370
    30
100
AcDbLine
 10
122.860136
 20
2050.464308
 30
0.0
 11
122.860136
 21
2053.546376
 31
0.0
  0
LINE
  5
D7
330
48
100
AcDbEntity
  8
0
  6
Continuous
 62
     0
370
    30
100
AcDbLine
 10
144.860136
 20
2053.619072
 30
0.0
 11
144.860136
 21
2054.494774
 31
0.0
  0
LINE
  5
D8
330
48
100
AcDbEntity
  8
0
  6
Continuous
 62
     0
370
    30
100
AcDbLine
 10
121.860136
 20
2053.619072
 30
0.0
 11
121.860136
 21
2054.494774
 31
0.0
  0
ARC
  5
D9
330
48
100
AcDbEntity
  8
0
  6
Continuous
 62
     0
370
    30
100
AcDbCircle
 10
125.061557
 20
2102.645462
 30
0.0
 40
0.7000036879387228
100
AcDbArc
 50
90.116263
 51
180.115646
  0
ARC
  5
DA
330
48
100
AcDbEntity
  8
0
  6
Continuous
 62
     0
370
    30
100
AcDbCircle
 10
141.658716
 20
2102.645462
 30
0.0
 40
0.7000036858721306
100
AcDbArc
 50
359.884354
 51
89.883737
  0
LINE
  5
DB
330
48
100
AcDbEntity
  8
0
  6
Continuous
 62
     0
370
    30
100
AcDbLine
 10
124.40061
 20
2083.344088
 30
0.0
 11
124.361553
 21
2102.644049
 31
0.0
  0
LINE
  5
DC
330
48
100
AcDbEntity
  8
0
  6
Continuous
 62
     0
370
    30
100
AcDbLine
 10
142.319663
 20
2083.344088
 30
0.0
 11
142.35872
 21
2102.644049
 31
0.0
  0
LINE
  5
DD
330
48
100
AcDbEntity
  8
0
  6
Continuous
 62
     0
370
    30
100
AcDbLine
 10
125.060135
 20
2103.345464
 30
0.0
 11
133.326032
 21
2103.362191
 31
0.0
  0
LINE
  5
DE
330
48
100
AcDbEntity
  8
0
  6
Continuous
 62
     0
370
    30
100
AcDbLine
 10
141.660138
 20
2103.345464
 30
0.0
 11
133.394241
 21
2103.362191
 31
0.0
  0
LINE
  5
DF
330
48
100
AcDbEntity
  8
0
  6
Continuous
 62
     0
370
    30
100
AcDbLine
 10
130.833855
 20
2083.344088
 30
0.0
 11
130.837751
 21
2081.418995
 31
0.0
  0
LINE
  5
E0
330
48
100
AcDbEntity
  8
0
  6
Continuous
 62
     0
370
    30
100
AcDbLine
 10
135.882522
 20
2081.418995
 30
0.0
 11
135.886418
 21
2083.344088
 31
0.0
  0
LINE
  5
E1
330
48
100
AcDbEntity
  8
0
  6
Continuous
 62
     0
370
    30
100
AcDbLine
 10
123.360138
 20
2065.613416
 30
0.0
 11
123.36014
 21
2065.6106
 31
0.0
  0
LINE
  5
E2
330
48
100
AcDbEntity
  8
0
  6
Continuous
 62
     0
370
    30
100
AcDbLine
 10
143.360137
 20
2065.619074
 30
0.0
 11
143.360137
 21
2052.619051
 31
0.0
  0
LINE
  5
E3
330
48
100
AcDbEntity
  8
0
  6
Continuous
 62
     0
370
    30
100
AcDbLine
 10
143.360137
 20
2052.619051
 30
0.0
 11
143.360137
 21
2035.296541
 31
0.0
  0
ARC
  5
E4
330
48
100
AcDbEntity
  8
0
  6
Continuous
 62
     0
370
    30
100
AcDbCircle
 10
199.364536
 20
1853.577665
 30
0.0
 40
0.4901188010744956
100
AcDbArc
 50
242.051032
 51
270.224675
  0
ARC
  5
E5
330
48
100
AcDbEntity
  8
0
  6
Continuous
 62
     0
370
    30
100
AcDbCircle
 10
200.72286
 20
1877.593954
 30
0.0
 40
0.4933863118871097
100
AcDbArc
 50
89.830693
 51
120.994175
  0
ARC
  5
E6
330
48
100
AcDbEntity
  8
0
  6
Continuous
 62
     0
370
    30
100
AcDbCircle
 10
203.472771
 20
1853.587408
 30
0.0
 40
0.4998610337173614
100
AcDbArc
 50
269.984071
 51
0.004206
  0
ARC
  5
E7
330
48
100
AcDbEntity
  8
0
  6
Continuous
 62
     0
370
    30
100
AcDbCircle
 10
203.472771
 20
1877.587481
 30
0.0
 40
0.4998610337092625
100
AcDbArc
 50
359.995793
 51
90.015929
  0
LINE
  5
E8
330
48
100
AcDbEntity
  8
0
  6
Continuous
 62
     0
370
    30
100
AcDbLine
 10
155.35931
 20
1850.087444
 30
0.0
 11
182.037411
 21
1850.087444
 31
0.0
  0
LWPOLYLINE
  5
E9
330
48
100
AcDbEntity
  8
0
  6
Continuous
 62
     0
370
    30
100
AcDbPolyline
 90
       21
 70
     0
 43
0.0
 10
182.233185
 20
1880.265991
 10
182.712173
 20
1879.90979
 10
183.27243
 20
1879.502319
 10
183.905914
 20
1879.054932
 10
184.606033
 20
1878.578857
 10
185.368103
 20
1878.085083
 10
186.188568
 20
1877.585205
 10
187.065842
 20
1877.092285
 10
187.99971
 20
1876.621338
 10
188.990723
 20
1876.191284
 10
190.038773
 20
1875.824951
 10
191.139771
 20
1875.550049
 10
192.281738
 20
1875.395386
 10
193.440994
 20
1875.381714
 10
194.588455
 20
1875.510132
 10
195.698654
 20
1875.764038
 10
196.757385
 20
1876.115112
 10
197.759445
 20
1876.534546
 10
198.704178
 20
1876.999146
 10
199.592606
 20
1877.489502
 10
200.458908
 20
1878.010986
  0
LINE
  5
EA
330
48
100
AcDbEntity
  8
0
  6
Continuous
 62
     0
370
    30
100
AcDbLine
 10
200.724323
 20
1878.087444
 30
0.0
 11
203.472632
 21
1878.087444
 31
0.0
  0
LWPOLYLINE
  5
EB
330
48
100
AcDbEntity
  8
0
  6
Continuous
 62
     0
370
    30
100
AcDbPolyline
 90
       22
 70
     0
 43
0.0
 10
182.340088
 20
1850.189575
 10
182.417236
 20
1850.247192
 10
182.613876
 20
1850.393188
 10
182.922623
 20
1850.619995
 10
183.334885
 20
1850.917969
 10
183.841248
 20
1851.275391
 10
184.433228
 20
1851.68103
 10
185.103607
 20
1852.122192
 10
185.846329
 20
1852.58606
 10
186.65686
 20
1853.059082
 10
187.533096
 20
1853.526367
 10
188.474655
 20
1853.969727
 10
189.481323
 20
1854.367798
 10
190.551498
 20
1854.693359
 10
191.676956
 20
1854.915283
 10
192.837967
 20
1855.005005
 10
194.003052
 20
1854.94873
 10
195.138809
 20
1854.754517
 10
196.222656
 20
1854.450073
 10
197.244781
 20
1854.066528
 10
198.201309
 20
1853.631348
 10
199.124954
 20
1853.149902
  0
LINE
  5
EC
330
48
100
AcDbEntity
  8
0
  6
Continuous
 62
     0
370
    30
100
AcDbLine
 10
199.366464
 20
1853.087444
 30
0.0
 11
203.472632
 21
1853.087444
 31
0.0
  0
LWPOLYLINE
  5
ED
330
48
100
AcDbEntity
  8
0
  6
Continuous
 62
     0
370
    30
100
AcDbPolyline
 90
      103
 70
     0
 43
0.0
 10
177.143723
 20
1617.284912
 10
178.750488
 20
1618.479736
 10
180.193588
 20
1619.860718
 10
181.493744
 20
1621.385986
 10
182.673218
 20
1623.024536
 10
183.751251
 20
1624.754883
 10
184.743515
 20
1626.561035
 10
185.662277
 20
1628.430542
 10
186.517502
 20
1630.353394
 10
187.317139
 20
1632.321533
 10
188.067429
 20
1634.329102
 10
188.773743
 20
1636.370605
 10
189.440491
 20
1638.441772
 10
190.071304
 20
1640.539062
 10
190.669022
 20
1642.659668
 10
191.236404
 20
1644.801025
 10
191.776138
 20
1646.960693
 10
192.290237
 20
1649.136719
 10
192.78038
 20
1651.327759
 10
193.248138
 20
1653.532471
 10
193.69487
 20
1655.749512
 10
194.121872
 20
1657.978027
 10
194.530212
 20
1660.217041
 10
194.920837
 20
1662.465698
 10
195.294708
 20
1664.723389
 10
195.652756
 20
1666.98938
 10
195.995682
 20
1669.262939
 10
196.324097
 20
1671.543823
 10
196.638626
 20
1673.831543
 10
196.939896
 20
1676.125488
 10
197.228485
 20
1678.425415
 10
197.504837
 20
1680.730957
 10
197.769424
 20
1683.041748
 10
198.022659
 20
1685.357422
 10
198.265015
 20
1687.677856
 10
198.496826
 20
1690.002808
 10
198.718384
 20
1692.331909
 10
198.929977
 20
1694.665039
 10
199.131897
 20
1697.002075
 10
199.324417
 20
1699.342773
 10
199.507843
 20
1701.687012
 10
199.682434
 20
1704.034546
 10
199.848495
 20
1706.385254
 10
200.006256
 20
1708.738892
 10
200.155914
 20
1711.095337
 10
200.297607
 20
1713.454712
 10
200.431564
 20
1715.81665
 10
200.557938
 20
1718.181152
 10
200.67691
 20
1720.548096
 10
200.788666
 20
1722.917358
 10
200.893387
 20
1725.288818
 10
200.991241
 20
1727.662476
 10
201.082352
 20
1730.038086
 10
201.16684
 20
1732.415771
 10
201.244827
 20
1734.795288
 10
201.316422
 20
1737.176758
 10
201.381729
 20
1739.559937
 10
201.440872
 20
1741.944824
 10
201.493973
 20
1744.331421
 10
201.541138
 20
1746.719482
 10
201.582489
 20
1749.109131
 10
201.618134
 20
1751.500244
 10
201.648178
 20
1753.8927
 10
201.672714
 20
1756.286499
 10
201.691833
 20
1758.681519
 10
201.705582
 20
1761.077759
 10
201.714066
 20
1763.47522
 10
201.717377
 20
1765.873901
 10
201.715561
 20
1768.27356
 10
201.70871
 20
1770.674316
 10
201.696899
 20
1773.07605
 10
201.680191
 20
1775.47876
 10
201.658615
 20
1777.882446
 10
201.632278
 20
1780.286987
 10
201.601227
 20
1782.692383
 10
201.565506
 20
1785.098511
 10
201.525208
 20
1787.505493
 10
201.480377
 20
1789.913208
 10
201.431091
 20
1792.321655
 10
201.377396
 20
1794.730713
 10
201.319366
 20
1797.140381
 10
201.25705
 20
1799.550659
 10
201.190521
 20
1801.961548
 10
201.119797
 20
1804.372925
 10
201.044952
 20
1806.78479
 10
200.966034
 20
1809.197021
 10
200.883072
 20
1811.609741
 10
200.796112
 20
1814.022949
 10
200.705215
 20
1816.436401
 10
200.610413
 20
1818.850342
 10
200.511749
 20
1821.264526
 10
200.409256
 20
1823.678955
 10
200.303009
 20
1826.09375
 10
200.193008
 20
1828.508667
 10
200.07933
 20
1830.923828
 10
199.962006
 20
1833.339111
 10
199.841064
 20
1835.754639
 10
199.716568
 20
1838.170288
 10
199.588531
 20
1840.585938
 10
199.45694
 20
1843.001709
 10
199.321808
 20
1845.41748
 10
199.183441
 20
1847.833374
 10
199.040466
 20
1850.265991
  0
LWPOLYLINE
  5
EE
330
48
100
AcDbEntity
  8
0
  6
Continuous
 62
     0
370
    30
100
AcDbPolyline
 90
      109
 70
     0
 43
0.0
 10
171.755051
 20
1625.708862
 10
172.534805
 20
1626.334473
 10
173.423218
 20
1627.303345
 10
174.318268
 20
1628.520142
 10
175.181595
 20
1629.911011
 10
176.001419
 20
1631.427856
 10
176.775879
 20
1633.03894
 10
177.506744
 20
1634.723145
 10
178.197037
 20
1636.465576
 10
178.850006
 20
1638.255127
 10
179.468689
 20
1640.084229
 10
180.055954
 20
1641.946289
 10
180.614319
 20
1643.836426
 10
181.145889
 20
1645.751099
 10
181.652725
 20
1647.687012
 10
182.136551
 20
1649.641846
 10
182.598892
 20
1651.613281
 10
183.041016
 20
1653.599976
 10
183.464233
 20
1655.60022
 10
183.869736
 20
1657.612549
 10
184.258469
 20
1659.635986
 10
184.631332
 20
1661.669678
 10
184.98912
 20
1663.712646
 10
185.332565
 20
1665.764282
 10
185.662354
 20
1667.823853
 10
185.979095
 20
1669.890869
 10
186.283356
 20
1671.964722
 10
186.575668
 20
1674.045044
 10
186.856506
 20
1676.13147
 10
187.126282
 20
1678.223511
 10
187.385437
 20
1680.320801
 10
187.634354
 20
1682.423096
 10
187.873398
 20
1684.530151
 10
188.102921
 20
1686.641602
 10
188.323257
 20
1688.757202
 10
188.534653
 20
1690.876831
 10
188.73735
 20
1693.000366
 10
188.931595
 20
1695.127441
 10
189.117615
 20
1697.258057
 10
189.295639
 20
1699.391968
 10
189.465912
 20
1701.529053
 10
189.628662
 20
1703.669067
 10
189.784134
 20
1705.81189
 10
189.932495
 20
1707.95752
 10
190.073883
 20
1710.105591
 10
190.208466
 20
1712.256348
 10
190.336349
 20
1714.409424
 10
190.457703
 20
1716.564819
 10
190.572678
 20
1718.722412
 10
190.681412
 20
1720.882202
 10
190.784027
 20
1723.044067
 10
190.880707
 20
1725.207886
 10
190.971558
 20
1727.373535
 10
191.056671
 20
1729.541016
 10
191.136185
 20
1731.710205
 10
191.210175
 20
1733.881104
 10
191.278748
 20
1736.053589
 10
191.341995
 20
1738.227661
 10
191.399994
 20
1740.40332
 10
191.452835
 20
1742.580444
 10
191.50061
 20
1744.758911
 10
191.543411
 20
1746.938721
 10
191.581314
 20
1749.119873
 10
191.614426
 20
1751.302246
 10
191.642792
 20
1753.48584
 10
191.666504
 20
1755.670532
 10
191.685623
 20
1757.856445
 10
191.700195
 20
1760.043335
 10
191.710281
 20
1762.231323
 10
191.715988
 20
1764.42041
 10
191.717331
 20
1766.610352
 10
191.714417
 20
1768.80127
 10
191.707275
 20
1770.993042
 10
191.695969
 20
1773.185669
 10
191.680542
 20
1775.37915
 10
191.661057
 20
1777.573364
 10
191.637543
 20
1779.768433
 10
191.610062
 20
1781.964111
 10
191.578674
 20
1784.160645
 10
191.543411
 20
1786.357788
 10
191.504349
 20
1788.555542
 10
191.461502
 20
1790.753906
 10
191.414948
 20
1792.952881
 10
191.364716
 20
1795.152466
 10
191.310867
 20
1797.352539
 10
191.253403
 20
1799.552979
 10
191.192398
 20
1801.754028
 10
191.127884
 20
1803.955566
 10
191.059875
 20
1806.157471
 10
190.988449
 20
1808.359741
 10
190.91362
 20
1810.562378
 10
190.835434
 20
1812.765503
 10
190.753922
 20
1814.96875
 10
190.669113
 20
1817.172485
 10
190.58107
 20
1819.376343
 10
190.489777
 20
1821.580566
 10
190.395309
 20
1823.785034
 10
190.297668
 20
1825.989746
 10
190.196899
 20
1828.19458
 10
190.093033
 20
1830.399658
 10
189.986115
 20
1832.604858
 10
189.876144
 20
1834.810181
 10
189.763168
 20
1837.015625
 10
189.647232
 20
1839.221069
 10
189.528336
 20
1841.426636
 10
189.406509
 20
1843.632324
 10
189.281784
 20
1845.838013
 10
189.154175
 20
1848.043579
 10
189.022705
 20
1850.265991
  0
LWPOLYLINE
  5
EF
330
48
100
AcDbEntity
  8
0
  6
Continuous
 62
     0
370
    30
100
AcDbPolyline
 90
      232
 70
     0
 43
0.0
 10
171.755051
 20
1625.708862
 10
171.328781
 20
1625.487671
 10
171.124451
 20
1625.435059
 10
170.990875
 20
1625.442627
 10
170.647339
 20
1625.5625
 10
170.008377
 20
1625.953003
 10
169.198166
 20
1626.651611
 10
168.333282
 20
1627.596802
 10
167.473969
 20
1628.716431
 10
166.642929
 20
1629.960205
 10
165.84758
 20
1631.293945
 10
165.088409
 20
1632.696411
 10
164.364258
 20
1634.151001
 10
163.672729
 20
1635.647217
 10
163.011276
 20
1637.177246
 10
162.377472
 20
1638.734741
 10
161.769165
 20
1640.31543
 10
161.184341
 20
1641.915771
 10
160.621185
 20
1643.532837
 10
160.078079
 20
1645.164185
 10
159.553604
 20
1646.808105
 10
159.046555
 20
1648.463135
 10
158.55574
 20
1650.12793
 10
158.080048
 20
1651.801147
 10
157.618607
 20
1653.482056
 10
157.170547
 20
1655.169922
 10
156.735184
 20
1656.863892
 10
156.31189
 20
1658.563721
 10
155.900024
 20
1660.268555
 10
155.498962
 20
1661.978149
 10
155.108185
 20
1663.692017
 10
154.727234
 20
1665.40979
 10
154.355667
 20
1667.131226
 10
153.993088
 20
1668.855957
 10
153.639099
 20
1670.58374
 10
153.293365
 20
1672.314453
 10
152.955505
 20
1674.047852
 10
152.625244
 20
1675.783569
 10
152.302292
 20
1677.521729
 10
151.986404
 20
1679.261963
 10
151.677338
 20
1681.004272
 10
151.374832
 20
1682.748413
 10
151.078674
 20
1684.494385
 10
150.788666
 20
1686.241943
 10
150.504608
 20
1687.991211
 10
150.226334
 20
1689.741821
 10
149.953629
 20
1691.493896
 10
149.68634
 20
1693.247192
 10
149.424347
 20
1695.001831
 10
149.16748
 20
1696.757568
 10
148.915588
 20
1698.514526
 10
148.668549
 20
1700.272461
 10
148.426224
 20
1702.031372
 10
148.188507
 20
1703.79126
 10
147.955276
 20
1705.552002
 10
147.72641
 20
1707.313721
 10
147.501816
 20
1709.076172
 10
147.281372
 20
1710.839478
 10
147.065002
 20
1712.603516
 10
146.852615
 20
1714.368164
 10
146.644119
 20
1716.133545
 10
146.439438
 20
1717.899658
 10
146.23848
 20
1719.66626
 10
146.041153
 20
1721.433472
 10
145.847382
 20
1723.201294
 10
145.657104
 20
1724.969727
 10
145.470245
 20
1726.738525
 10
145.286743
 20
1728.507935
 10
145.106522
 20
1730.27771
 10
144.929535
 20
1732.048096
 10
144.755692
 20
1733.818726
 10
144.584961
 20
1735.589966
 10
144.417282
 20
1737.36145
 10
144.252609
 20
1739.133423
 10
144.090866
 20
1740.905762
 10
143.932022
 20
1742.678345
 10
143.776001
 20
1744.451416
 10
143.622772
 20
1746.224731
 10
143.47229
 20
1747.998413
 10
143.324493
 20
1749.772339
 10
143.179367
 20
1751.546631
 10
143.03685
 20
1753.321167
 10
142.896912
 20
1755.095947
 10
142.759506
 20
1756.870972
 10
142.624588
 20
1758.646362
 10
142.492142
 20
1760.421875
 10
142.362091
 20
1762.197754
 10
142.234421
 20
1763.973755
 10
142.1091
 20
1765.75
 10
141.986069
 20
1767.526367
 10
141.865326
 20
1769.303101
 10
141.746826
 20
1771.079956
 10
141.630539
 20
1772.856934
 10
141.516418
 20
1774.634155
 10
141.404465
 20
1776.411499
 10
141.294617
 20
1778.189087
 10
141.186859
 20
1779.966797
 10
141.081161
 20
1781.744629
 10
140.977493
 20
1783.522705
 10
140.875839
 20
1785.300903
 10
140.776169
 20
1787.079224
 10
140.678452
 20
1788.857666
 10
140.582672
 20
1790.63623
 10
140.4888
 20
1792.414917
 10
140.39682
 20
1794.193726
 10
140.306686
 20
1795.972656
 10
140.218384
 20
1797.751709
 10
140.131897
 20
1799.530884
 10
140.047195
 20
1801.310181
 10
139.964264
 20
1803.089478
 10
139.883087
 20
1804.869019
 10
139.803635
 20
1806.64856
 10
139.725876
 20
1808.428223
 10
139.649811
 20
1810.207886
 10
139.575424
 20
1811.987793
 10
139.50267
 20
1813.7677
 10
139.431534
 20
1815.547729
 10
139.362015
 20
1817.327759
 10
139.294098
 20
1819.10791
 10
139.227737
 20
1820.888062
 10
139.162949
 20
1822.668335
 10
139.099686
 20
1824.44873
 10
139.037964
 20
1826.229126
 10
138.977737
 20
1828.009521
 10
138.918991
 20
1829.790039
 10
138.861725
 20
1831.570679
 10
138.805908
 20
1833.351318
 10
138.751541
 20
1835.131958
 10
138.698578
 20
1836.91272
 10
138.647034
 20
1838.693481
 10
138.596863
 20
1840.474365
 10
138.54808
 20
1842.255249
 10
138.500656
 20
1844.036133
 10
138.45459
 20
1845.817139
 10
138.409836
 20
1847.598145
 10
138.366425
 20
1849.37915
 10
138.324295
 20
1851.160278
 10
138.283478
 20
1852.941284
 10
138.243912
 20
1854.722534
 10
138.205627
 20
1856.503662
 10
138.168579
 20
1858.284912
 10
138.132782
 20
1860.066162
 10
138.09819
 20
1861.847412
 10
138.064804
 20
1863.628662
 10
138.032608
 20
1865.409912
 10
138.001602
 20
1867.191284
 10
137.971756
 20
1868.972656
 10
137.943054
 20
1870.754028
 10
137.915512
 20
1872.5354
 10
137.889099
 20
1874.316895
 10
137.8638
 20
1876.098267
 10
137.8396
 20
1877.879761
 10
137.816498
 20
1879.661255
 10
137.794479
 20
1881.442749
 10
137.773514
 20
1883.224243
 10
137.753616
 20
1885.005737
 10
137.734756
 20
1886.787231
 10
137.716934
 20
1888.568848
 10
137.700119
 20
1890.350342
 10
137.684311
 20
1892.131958
 10
137.669495
 20
1893.913574
 10
137.65567
 20
1895.695068
 10
137.642807
 20
1897.476685
 10
137.630905
 20
1899.258301
 10
137.619949
 20
1901.039917
 10
137.60994
 20
1902.821533
 10
137.600845
 20
1904.603149
 10
137.592651
 20
1906.384766
 10
137.585373
 20
1908.166382
 10
137.578979
 20
1909.947998
 10
137.573456
 20
1911.729614
 10
137.568802
 20
1913.51123
 10
137.565002
 20
1915.292969
 10
137.562042
 20
1917.074585
 10
137.559921
 20
1918.856201
 10
137.558609
 20
1920.637817
 10
137.558105
 20
1922.419556
 10
137.558395
 20
1924.201172
 10
137.559464
 20
1925.982788
 10
137.56131
 20
1927.764526
 10
137.563904
 20
1929.546143
 10
137.567245
 20
1931.327759
 10
137.571335
 20
1933.109375
 10
137.576141
 20
1934.891113
 10
137.58165
 20
1936.672729
 10
137.587845
 20
1938.454346
 10
137.594742
 20
1940.235962
 10
137.602295
 20
1942.017578
 10
137.610519
 20
1943.799316
 10
137.61937
 20
1945.580933
 10
137.62886
 20
1947.362549
 10
137.638962
 20
1949.144165
 10
137.649689
 20
1950.925781
 10
137.660995
 20
1952.707397
 10
137.672882
 20
1954.489014
 10
137.685333
 20
1956.27063
 10
137.698334
 20
1958.052246
 10
137.711868
 20
1959.83374
 10
137.725922
 20
1961.615356
 10
137.740479
 20
1963.396973
 10
137.755508
 20
1965.178589
 10
137.771027
 20
1966.960205
 10
137.786987
 20
1968.741699
 10
137.803375
 20
1970.523315
 10
137.820206
 20
1972.304932
 10
137.837418
 20
1974.086426
 10
137.855026
 20
1975.868042
 10
137.873016
 20
1977.649536
 10
137.891342
 20
1979.431152
 10
137.910019
 20
1981.212646
 10
137.929016
 20
1982.994263
 10
137.948303
 20
1984.775757
 10
137.967865
 20
1986.557373
 10
137.987671
 20
1988.338867
 10
138.007721
 20
1990.120483
 10
138.027969
 20
1991.901978
 10
138.048401
 20
1993.683472
 10
138.069
 20
1995.465088
 10
138.089752
 20
1997.246582
 10
138.110611
 20
1999.028076
 10
138.131577
 20
2000.80957
 10
138.152618
 20
2002.591187
 10
138.173691
 20
2004.372681
 10
138.194778
 20
2006.154175
 10
138.21582
 20
2007.935791
 10
138.236832
 20
2009.717285
 10
138.257736
 20
2011.498779
 10
138.278519
 20
2013.280273
 10
138.299164
 20
2015.06189
 10
138.319595
 20
2016.843384
 10
138.339828
 20
2018.624878
 10
138.359833
 20
2020.408691
  0
LWPOLYLINE
  5
F0
330
48
100
AcDbEntity
  8
0
  6
Continuous
 62
     0
370
    30
100
AcDbPolyline
 90
        6
 70
     0
 43
0.0
 10
177.143723
 20
1617.284912
 10
176.067154
 20
1616.666138
 10
174.925629
 20
1616.15564
 10
173.726196
 20
1615.770508
 10
172.482468
 20
1615.526733
 10
171.196609
 20
1615.434326
  0
LWPOLYLINE
  5
F1
330
48
100
AcDbEntity
  8
0
  6
Continuous
 62
     0
370
    30
100
AcDbPolyline
 90
      197
 70
     0
 43
0.0
 10
128.359833
 20
2020.464355
 10
128.33577
 20
2018.321045
 10
128.311371
 20
2016.177856
 10
128.286713
 20
2014.034668
 10
128.26181
 20
2011.891479
 10
128.23671
 20
2009.748291
 10
128.211502
 20
2007.60498
 10
128.186203
 20
2005.461792
 10
128.160858
 20
2003.318604
 10
128.135544
 20
2001.175415
 10
128.110306
 20
1999.032227
 10
128.085175
 20
1996.889038
 10
128.060211
 20
1994.745728
 10
128.035461
 20
1992.602539
 10
128.010986
 20
1990.459351
 10
127.986816
 20
1988.316162
 10
127.963013
 20
1986.172852
 10
127.939606
 20
1984.029663
 10
127.916626
 20
1981.886475
 10
127.894096
 20
1979.743164
 10
127.872047
 20
1977.599976
 10
127.85051
 20
1975.456665
 10
127.829514
 20
1973.313477
 10
127.809082
 20
1971.170166
 10
127.789246
 20
1969.026978
 10
127.770042
 20
1966.883667
 10
127.751488
 20
1964.740356
 10
127.73362
 20
1962.597168
 10
127.716469
 20
1960.453857
 10
127.70005
 20
1958.310547
 10
127.68441
 20
1956.167236
 10
127.669571
 20
1954.023926
 10
127.655548
 20
1951.880615
 10
127.642372
 20
1949.737305
 10
127.630066
 20
1947.593994
 10
127.618645
 20
1945.450684
 10
127.608139
 20
1943.307373
 10
127.598572
 20
1941.164062
 10
127.589958
 20
1939.02063
 10
127.582321
 20
1936.877319
 10
127.575691
 20
1934.734009
 10
127.570084
 20
1932.590576
 10
127.565529
 20
1930.447266
 10
127.562042
 20
1928.303955
 10
127.559639
 20
1926.160522
 10
127.558357
 20
1924.017212
 10
127.558197
 20
1921.873901
 10
127.559196
 20
1919.730469
 10
127.561363
 20
1917.587158
 10
127.56472
 20
1915.443848
 10
127.569298
 20
1913.300415
 10
127.575096
 20
1911.157104
 10
127.582161
 20
1909.013794
 10
127.590485
 20
1906.870483
 10
127.600113
 20
1904.727173
 10
127.611053
 20
1902.583862
 10
127.623322
 20
1900.440552
 10
127.636955
 20
1898.297241
 10
127.651955
 20
1896.153931
 10
127.66835
 20
1894.01062
 10
127.686165
 20
1891.867432
 10
127.705414
 20
1889.724121
 10
127.72612
 20
1887.580933
 10
127.748306
 20
1885.437744
 10
127.771996
 20
1883.294556
 10
127.797195
 20
1881.151367
 10
127.823944
 20
1879.008179
 10
127.852257
 20
1876.86499
 10
127.882156
 20
1874.721924
 10
127.913658
 20
1872.578857
 10
127.946785
 20
1870.435791
 10
127.981567
 20
1868.292725
 10
128.018021
 20
1866.14978
 10
128.056152
 20
1864.006836
 10
128.096008
 20
1861.863892
 10
128.137604
 20
1859.720947
 10
128.180954
 20
1857.578125
 10
128.226105
 20
1855.435303
 10
128.273056
 20
1853.292603
 10
128.321838
 20
1851.149902
 10
128.372467
 20
1849.007202
 10
128.424988
 20
1846.864624
 10
128.479401
 20
1844.722046
 10
128.535751
 20
1842.57959
 10
128.594055
 20
1840.437134
 10
128.654327
 20
1838.294678
 10
128.716614
 20
1836.152466
 10
128.780945
 20
1834.010132
 10
128.847321
 20
1831.868042
 10
128.915802
 20
1829.725952
 10
128.986389
 20
1827.583984
 10
129.059128
 20
1825.442017
 10
129.134048
 20
1823.300171
 10
129.211166
 20
1821.158447
 10
129.290512
 20
1819.016846
 10
129.372101
 20
1816.875244
 10
129.455994
 20
1814.733887
 10
129.542206
 20
1812.592529
 10
129.630768
 20
1810.451294
 10
129.721725
 20
1808.310181
 10
129.815109
 20
1806.169189
 10
129.91095
 20
1804.028442
 10
130.009277
 20
1801.887695
 10
130.110123
 20
1799.747192
 10
130.213547
 20
1797.606812
 10
130.31955
 20
1795.466553
 10
130.428207
 20
1793.326416
 10
130.539536
 20
1791.186523
 10
130.653595
 20
1789.046753
 10
130.770432
 20
1786.907227
 10
130.89006
 20
1784.767822
 10
131.012543
 20
1782.628662
 10
131.137924
 20
1780.489746
 10
131.266235
 20
1778.350952
 10
131.397522
 20
1776.212524
 10
131.53186
 20
1774.074219
 10
131.669281
 20
1771.936279
 10
131.809845
 20
1769.798462
 10
131.953598
 20
1767.661011
 10
132.100601
 20
1765.523804
 10
132.2509
 20
1763.386841
 10
132.404572
 20
1761.250244
 10
132.561646
 20
1759.114014
 10
132.722229
 20
1756.978027
 10
132.886353
 20
1754.842529
 10
133.054108
 20
1752.707275
 10
133.225555
 20
1750.57251
 10
133.400757
 20
1748.437988
 10
133.579788
 20
1746.304077
 10
133.762711
 20
1744.170532
 10
133.9496
 20
1742.037354
 10
134.140564
 20
1739.904785
 10
134.335678
 20
1737.772705
 10
134.535049
 20
1735.641113
 10
134.738739
 20
1733.510132
 10
134.946838
 20
1731.379761
 10
135.159454
 20
1729.25
 10
135.376694
 20
1727.12085
 10
135.598663
 20
1724.99231
 10
135.82547
 20
1722.864624
 10
136.057236
 20
1720.737549
 10
136.294067
 20
1718.611328
 10
136.536102
 20
1716.485962
 10
136.783478
 20
1714.36145
 10
137.036346
 20
1712.237915
 10
137.294846
 20
1710.115356
 10
137.559113
 20
1707.993774
 10
137.8293
 20
1705.873413
 10
138.105621
 20
1703.75415
 10
138.388229
 20
1701.635986
 10
138.677307
 20
1699.519287
 10
138.973053
 20
1697.403931
 10
139.275696
 20
1695.290039
 10
139.585449
 20
1693.177612
 10
139.902542
 20
1691.067017
 10
140.227219
 20
1688.95813
 10
140.559738
 20
1686.851074
 10
140.900406
 20
1684.746094
 10
141.249527
 20
1682.643311
 10
141.607407
 20
1680.542725
 10
141.97435
 20
1678.444702
 10
142.3508
 20
1676.349487
 10
142.737137
 20
1674.25708
 10
143.13382
 20
1672.167725
 10
143.54126
 20
1670.081909
 10
143.959946
 20
1667.999634
 10
144.390488
 20
1665.921387
 10
144.83345
 20
1663.847534
 10
145.289413
 20
1661.778442
 10
145.758972
 20
1659.7146
 10
146.24292
 20
1657.65625
 10
146.742142
 20
1655.604248
 10
147.257614
 20
1653.559082
 10
147.790451
 20
1651.521851
 10
148.341812
 20
1649.493164
 10
148.912949
 20
1647.474243
 10
149.50528
 20
1645.466309
 10
150.120346
 20
1643.470459
 10
150.759949
 20
1641.48877
 10
151.426086
 20
1639.522827
 10
152.121002
 20
1637.574951
 10
152.847412
 20
1635.648193
 10
153.608444
 20
1633.745728
 10
154.407776
 20
1631.87207
 10
155.249634
 20
1630.032227
 10
156.13887
 20
1628.232544
 10
157.081238
 20
1626.480957
 10
158.083572
 20
1624.787109
 10
159.153854
 20
1623.162842
 10
160.30188
 20
1621.623291
 10
161.538681
 20
1620.186646
 10
162.876419
 20
1618.876465
 10
164.326721
 20
1617.720947
 10
165.898773
 20
1616.75647
 10
167.586258
 20
1616.027954
 10
169.363724
 20
1615.577271
 10
171.196655
 20
1615.434326
  0
ENDBLK
  5
F3
330
48
100
AcDbEntity
  8
0
100
AcDbBlockEnd
  0
BLOCK
  5
14E
330
F5
100
AcDbEntity
  8
0
100
AcDbBlockBegin
  2
b
 70
     0
 10
-81.898216
 20
404.325333
 30
0.0
  3
b
  1

  0
LWPOLYLINE
  5
F6
330
F5
100
AcDbEntity
  8
0
  6
Continuous
 62
     0
370
     0
100
AcDbPolyline
 90
       11
 70
     0
 43
0.0
 10
172.893387
 20
581.971436
 10
173.541504
 20
581.450256
 10
174.214752
 20
580.97406
 10
174.894501
 20
580.556091
 10
175.56192
 20
580.207886
 10
176.198547
 20
579.939148
 10
176.786743
 20
579.757263
 10
177.310242
 20
579.667297
 10
177.754532
 20
579.671753
 10
178.10733
 20
579.770447
 10
178.373352
 20
579.978394
  0
LWPOLYLINE
  5
F7
330
F5
100
AcDbEntity
  8
0
  6
Continuous
 62
     0
370
     0
100
AcDbPolyline
 90
       10
 70
     0
 43
0.0
 10
170.525436
 20
586.176025
 10
170.393326
 20
585.904968
 10
170.36554
 20
585.561157
 10
170.442825
 20
585.153503
 10
170.623154
 20
584.692383
 10
170.901917
 20
584.189758
 10
171.271927
 20
583.658508
 10
171.723679
 20
583.112244
 10
172.245529
 20
582.565186
 10
172.893387
 20
581.971436
  0
LINE
  5
F8
330
F5
100
AcDbEntity
  8
0
  6
Continuous
 62
     0
370
     0
100
AcDbLine
 10
203.472628
 20
625.828389
 30
0.0
 11
203.472628
 21
622.533307
 31
0.0
  0
LINE
  5
F9
330
F5
100
AcDbEntity
  8
0
  6
Continuous
 62
     0
370
    30
100
AcDbLine
 10
203.972628
 20
626.277031
 30
0.0
 11
203.972628
 21
623.033307
 31
0.0
  0
LINE
  5
FA
330
F5
100
AcDbEntity
  8
0
  6
Continuous
 62
     0
370
     0
100
AcDbLine
 10
203.472628
 20
653.533307
 30
0.0
 11
203.472628
 21
650.238223
 31
0.0
  0
LINE
  5
FB
330
F5
100
AcDbEntity
  8
0
  6
Continuous
 62
     0
370
    30
100
AcDbLine
 10
203.972628
 20
653.033307
 30
0.0
 11
203.972628
 21
649.789581
 31
0.0
  0
ARC
  5
FC
330
F5
100
AcDbEntity
  8
0
  6
Continuous
 62
     0
370
    30
100
AcDbCircle
 10
193.002635
 20
638.033418
 30
0.0
 40
16.128573100207
100
AcDbArc
 50
180.000398
 51
197.981532
  0
ARC
  5
FD
330
F5
100
AcDbEntity
  8
0
  6
Continuous
 62
     0
370
    30
100
AcDbCircle
 10
193.002098
 20
638.033279
 30
0.0
 40
16.12803589518889
100
AcDbArc
 50
162.018166
 51
179.999904
  0
LINE
  5
FE
330
F5
100
AcDbEntity
  8
0
  6
Continuous
 62
     0
370
    30
100
AcDbLine
 10
123.360133
 20
368.015496
 30
0.0
 11
123.360133
 21
378.016628
 31
0.0
  0
ELLIPSE
  5
FF
330
F5
100
AcDbEntity
  8
0
  6
Continuous
 62
     0
370
     0
100
AcDbEllipse
 10
133.360133
 20
378.016628
 30
0.0
 11
10.0
 21
0.0
 31
0.0
210
0.0
220
0.0
230
-1.0
 40
0.866026
 41
0.0000000000000197
 42
3.141592653589793
  0
ELLIPSE
  5
100
330
F5
100
AcDbEntity
  8
0
  6
Continuous
 62
     0
370
    30
100
AcDbEllipse
 10
133.360133
 20
368.015496
 30
0.0
 11
-10.0
 21
0.0
 31
0.0
210
0.0
220
0.0
230
1.0
 40
0.866026
 41
6.283185307179586
 42
9.424777960769386
  0
LINE
  5
101
330
F5
100
AcDbEntity
  8
0
  6
Continuous
 62
     0
370
    30
100
AcDbLine
 10
123.360133
 20
378.016628
 30
0.0
 11
123.360133
 21
400.533274
 31
0.0
  0
LINE
  5
102
330
F5
100
AcDbEntity
  8
0
  6
Continuous
 62
     0
370
     0
100
AcDbLine
 10
143.360133
 20
400.533274
 30
0.0
 11
123.360133
 21
400.533274
 31
0.0
  0
LINE
  5
103
330
F5
100
AcDbEntity
  8
0
  6
Continuous
 62
     0
370
    30
100
AcDbLine
 10
143.360133
 20
400.533274
 30
0.0
 11
143.360133
 21
521.533288
 31
0.0
  0
LINE
  5
104
330
F5
100
AcDbEntity
  8
0
  6
Continuous
 62
     0
370
    30
100
AcDbLine
 10
123.360133
 20
521.533288
 30
0.0
 11
123.360133
 21
400.533274
 31
0.0
  0
ARC
  5
105
330
F5
100
AcDbEntity
  8
0
  6
Continuous
 62
     0
370
     0
100
AcDbCircle
 10
133.360133
 20
549.533287
 30
0.0
 40
8.300001445269023
100
AcDbArc
 50
291.806816
 51
111.806816
  0
ARC
  5
106
330
F5
100
AcDbEntity
  8
0
  6
Continuous
 62
     0
370
     0
100
AcDbCircle
 10
133.360133
 20
549.533287
 30
0.0
 40
8.300001445269023
100
AcDbArc
 50
111.806816
 51
291.806816
  0
LINE
  5
107
330
F5
100
AcDbEntity
  8
0
  6
Continuous
 62
     0
370
     0
100
AcDbLine
 10
149.360133
 20
577.283288
 30
0.0
 11
133.360133
 21
577.283288
 31
0.0
  0
LINE
  5
108
330
F5
100
AcDbEntity
  8
0
  6
Continuous
 62
     0
370
     0
100
AcDbLine
 10
133.360133
 20
577.283288
 30
0.0
 11
117.360133
 21
577.283288
 31
0.0
  0
LINE
  5
109
330
F5
100
AcDbEntity
  8
0
  6
Continuous
 62
     0
370
     0
100
AcDbLine
 10
117.360133
 20
521.783288
 30
0.0
 11
133.360133
 21
521.783288
 31
0.0
  0
LINE
  5
10A
330
F5
100
AcDbEntity
  8
0
  6
Continuous
 62
     0
370
     0
100
AcDbLine
 10
133.360133
 20
521.783288
 30
0.0
 11
149.360133
 21
521.783288
 31
0.0
  0
LINE
  5
10B
330
F5
100
AcDbEntity
  8
0
  6
Continuous
 62
     0
370
    30
100
AcDbLine
 10
149.110133
 20
521.533288
 30
0.0
 11
133.360133
 21
521.533288
 31
0.0
  0
LINE
  5
10C
330
F5
100
AcDbEntity
  8
0
  6
Continuous
 62
     0
370
    30
100
AcDbLine
 10
133.360133
 20
521.533288
 30
0.0
 11
117.610133
 21
521.533288
 31
0.0
  0
LINE
  5
10D
330
F5
100
AcDbEntity
  8
0
  6
Continuous
 62
     0
370
    30
100
AcDbLine
 10
133.360133
 20
577.533288
 30
0.0
 11
117.610133
 21
577.533288
 31
0.0
  0
LINE
  5
10E
330
F5
100
AcDbEntity
  8
0
  6
Continuous
 62
     0
370
    30
100
AcDbLine
 10
149.110133
 20
577.533288
 30
0.0
 11
133.360133
 21
577.533288
 31
0.0
  0
LINE
  5
10F
330
F5
100
AcDbEntity
  8
0
  6
Continuous
 62
     0
370
     0
100
AcDbLine
 10
139.860133
 20
610.033295
 30
0.0
 11
133.360133
 21
610.033295
 31
0.0
  0
LINE
  5
110
330
F5
100
AcDbEntity
  8
0
  6
Continuous
 62
     0
370
     0
100
AcDbLine
 10
133.360133
 20
610.033295
 30
0.0
 11
126.860133
 21
610.033295
 31
0.0
  0
LWPOLYLINE
  5
111
330
F5
100
AcDbEntity
  8
0
  6
Continuous
 62
     0
370
     0
100
AcDbPolyline
 90
       13
 70
     0
 43
0.0
 10
126.920448
 20
613.488586
 10
126.97963
 20
613.43927
 10
127.151779
 20
613.299805
 10
127.428215
 20
613.084778
 10
127.798882
 20
612.815002
 10
128.254517
 20
612.510986
 10
128.788727
 20
612.1922
 10
129.397034
 20
611.876343
 10
130.075989
 20
611.580933
 10
130.820862
 20
611.323547
 10
131.622925
 20
611.121948
 10
132.469711
 20
610.99176
 10
133.360138
 20
610.946045
  0
LWPOLYLINE
  5
112
330
F5
100
AcDbEntity
  8
0
  6
Continuous
 62
     0
370
     0
100
AcDbPolyline
 90
       13
 70
     0
 43
0.0
 10
133.360138
 20
610.946045
 10
134.232315
 20
610.990051
 10
135.07991
 20
611.118469
 10
135.883011
 20
611.318726
 10
136.629211
 20
611.575073
 10
137.309586
 20
611.869873
 10
137.919373
 20
612.185608
 10
138.4552
 20
612.504395
 10
138.912582
 20
612.808777
 10
139.285126
 20
613.079529
 10
139.56366
 20
613.295959
 10
139.738113
 20
613.437195
 10
139.79982
 20
613.488586
  0
LWPOLYLINE
  5
113
330
F5
100
AcDbEntity
  8
0
  6
Continuous
 62
     0
370
     0
100
AcDbPolyline
 90
       10
 70
     0
 43
0.0
 10
133.360138
 20
616.033325
 10
133.360138
 20
615.955566
 10
133.360138
 20
615.725952
 10
133.360138
 20
615.350525
 10
133.360138
 20
614.841675
 10
133.360138
 20
614.215271
 10
133.360138
 20
613.490173
 10
133.360138
 20
612.687927
 10
133.360138
 20
611.833435
 10
133.360138
 20
610.946045
  0
ARC
  5
114
330
F5
100
AcDbEntity
  8
0
  6
Continuous
 62
     0
370
    30
100
AcDbCircle
 10
133.360133
 20
638.033295
 30
0.0
 40
22.0
100
AcDbArc
 50
90.0
 51
270.0
  0
ARC
  5
115
330
F5
100
AcDbEntity
  8
0
  6
Continuous
 62
     0
370
    30
100
AcDbCircle
 10
133.360133
 20
638.033295
 30
0.0
 40
22.0
100
AcDbArc
 50
270.0
 51
90.0
  0
ARC
  5
116
330
F5
100
AcDbEntity
  8
0
  6
Continuous
 62
     0
370
     0
100
AcDbCircle
 10
133.360092
 20
638.033295
 30
0.0
 40
21.50000000004595
100
AcDbArc
 50
89.99989
 51
270.00011
  0
ARC
  5
117
330
F5
100
AcDbEntity
  8
0
  6
Continuous
 62
     0
370
     0
100
AcDbCircle
 10
133.360175
 20
638.033295
 30
0.0
 40
21.50000000004595
100
AcDbArc
 50
269.99989
 51
90.00011
  0
LINE
  5
118
330
F5
100
AcDbEntity
  8
0
  6
Continuous
 62
     0
370
    30
100
AcDbLine
 10
139.860134
 20
610.033295
 30
0.0
 11
139.860134
 21
580.033295
 31
0.0
  0
LINE
  5
119
330
F5
100
AcDbEntity
  8
0
  6
Continuous
 62
     0
370
     0
100
AcDbLine
 10
139.860134
 20
580.033295
 30
0.0
 11
126.860133
 21
580.033295
 31
0.0
  0
LINE
  5
11A
330
F5
100
AcDbEntity
  8
0
  6
Continuous
 62
     0
370
    30
100
AcDbLine
 10
138.860134
 20
579.033295
 30
0.0
 11
127.860133
 21
579.033295
 31
0.0
  0
ARC
  5
11B
330
F5
100
AcDbEntity
  8
0
  6
Continuous
 62
     0
370
    30
100
AcDbCircle
 10
138.860134
 20
580.033295
 30
0.0
 40
1.0
100
AcDbArc
 50
270.0
 51
360.0
  0
ARC
  5
11C
330
F5
100
AcDbEntity
  8
0
  6
Continuous
 62
     0
370
    30
100
AcDbCircle
 10
133.360133
 20
638.033318
 30
0.0
 40
49.9999999999998
100
AcDbArc
 50
18.05925
 51
188.85302
  0
ARC
  5
11D
330
F5
100
AcDbEntity
  8
0
  6
Continuous
 62
     0
370
    30
100
AcDbCircle
 10
133.360133
 20
638.033318
 30
0.0
 40
49.9999999999998
100
AcDbArc
 50
188.85302
 51
258.463032
  0
ARC
  5
11E
330
F5
100
AcDbEntity
  8
0
  6
Continuous
 62
     0
370
    30
100
AcDbCircle
 10
133.360133
 20
638.033318
 30
0.0
 40
49.9999999999998
100
AcDbArc
 50
281.536969
 51
341.940789
  0
LWPOLYLINE
  5
11F
330
F5
100
AcDbEntity
  8
0
  6
Continuous
 62
     0
370
     0
100
AcDbPolyline
 90
       14
 70
     0
 43
0.0
 10
126.8666
 20
610.403809
 10
126.402039
 20
610.772827
 10
125.966972
 20
611.146606
 10
125.560974
 20
611.520935
 10
125.183937
 20
611.891418
 10
124.836586
 20
612.253235
 10
124.519814
 20
612.601318
 10
124.234886
 20
612.929321
 10
123.984016
 20
613.230713
 10
123.770226
 20
613.497375
 10
123.597023
 20
613.720764
 10
123.468369
 20
613.886597
 10
123.388489
 20
613.995178
 10
123.360123
 20
614.032349
  0
LWPOLYLINE
  5
120
330
F5
100
AcDbEntity
  8
0
  6
Continuous
 62
     0
370
     0
100
AcDbPolyline
 90
       14
 70
     0
 43
0.0
 10
143.360138
 20
614.032349
 10
143.333694
 20
613.997681
 10
143.255661
 20
613.890808
 10
143.128708
 20
613.7276
 10
142.957092
 20
613.506226
 10
142.744751
 20
613.24115
 10
142.495255
 20
612.940918
 10
142.211609
 20
612.613892
 10
141.896057
 20
612.266479
 10
141.549911
 20
611.905212
 10
141.174072
 20
611.535034
 10
140.769257
 20
611.160889
 10
140.335403
 20
610.787109
 10
139.853668
 20
610.403809
  0
LINE
  5
121
330
F5
100
AcDbEntity
  8
0
  6
Continuous
 62
     0
370
    30
100
AcDbLine
 10
143.360141
 20
614.032343
 30
0.0
 11
143.360142
 21
577.533288
 31
0.0
  0
LWPOLYLINE
  5
122
330
F5
100
AcDbEntity
  8
0
  6
Continuous
 62
     0
370
    30
100
AcDbPolyline
 90
       23
 70
     0
 43
0.0
 10
179.472626
 20
629.727539
 10
179.511948
 20
629.6604
 10
179.627426
 20
629.474426
 10
179.813095
 20
629.188538
 10
180.06221
 20
628.826111
 10
180.369217
 20
628.407593
 10
180.72995
 20
627.950317
 10
181.141983
 20
627.467957
 10
181.60405
 20
626.97052
 10
182.115494
 20
626.466187
 10
182.675644
 20
625.962952
 10
183.284424
 20
625.46759
 10
183.9422
 20
624.985596
 10
184.649353
 20
624.5224
 10
185.405594
 20
624.08374
 10
186.209839
 20
623.675537
 10
187.060913
 20
623.303772
 10
187.956772
 20
622.974426
 10
188.89357
 20
622.69342
 10
189.86731
 20
622.466736
 10
190.871948
 20
622.299805
 10
191.895355
 20
622.19635
 10
192.972626
 20
622.159302
  0
LWPOLYLINE
  5
123
330
F5
100
AcDbEntity
  8
0
  6
Continuous
 62
     0
370
    30
100
AcDbPolyline
 90
       23
 70
     0
 43
0.0
 10
192.972626
 20
622.159302
 10
194.003021
 20
622.193176
 10
195.026978
 20
622.293701
 10
196.032745
 20
622.457825
 10
197.008087
 20
622.681885
 10
197.946655
 20
622.96051
 10
198.844452
 20
623.287781
 10
199.697632
 20
623.657715
 10
200.504044
 20
624.064392
 10
201.262497
 20
624.501831
 10
201.971893
 20
624.963989
 10
202.631912
 20
625.445312
 10
203.24292
 20
625.940186
 10
203.805298
 20
626.443115
 10
204.318954
 20
626.947632
 10
204.783295
 20
627.445557
 10
205.197632
 20
627.928772
 10
205.560745
 20
628.387512
 10
205.87027
 20
628.808105
 10
206.122131
 20
629.173523
 10
206.310837
 20
629.463379
 10
206.429657
 20
629.654419
 10
206.472626
 20
629.727539
  0
LINE
  5
124
330
F5
100
AcDbEntity
  8
0
  6
Continuous
 62
     0
370
    30
100
AcDbLine
 10
206.472628
 20
629.727534
 30
0.0
 11
206.472628
 21
629.893614
 31
0.0
  0
LWPOLYLINE
  5
125
330
F5
100
AcDbEntity
  8
0
  6
Continuous
 62
     0
370
    30
100
AcDbPolyline
 90
       23
 70
     0
 43
0.0
 10
206.472626
 20
629.893616
 10
206.433182
 20
629.831848
 10
206.317337
 20
629.648132
 10
206.131165
 20
629.362
 10
205.881561
 20
628.99762
 10
205.574188
 20
628.576294
 10
205.213242
 20
628.115784
 10
204.801132
 20
627.630005
 10
204.339066
 20
627.129211
 10
203.827682
 20
626.621582
 10
203.267578
 20
626.115234
 10
202.658829
 20
625.616882
 10
202.000992
 20
625.13208
 10
201.293686
 20
624.66626
 10
200.537155
 20
624.22522
 10
199.732468
 20
623.814819
 10
198.880768
 20
623.441162
 10
197.984116
 20
623.110168
 10
197.046326
 20
622.827881
 10
196.071426
 20
622.600281
 10
195.065521
 20
622.432922
 10
194.040833
 20
622.329407
 10
192.972626
 20
622.292847
  0
LWPOLYLINE
  5
126
330
F5
100
AcDbEntity
  8
0
  6
Continuous
 62
     0
370
    30
100
AcDbPolyline
 90
       23
 70
     0
 43
0.0
 10
192.972626
 20
622.292847
 10
191.941055
 20
622.326904
 10
190.91597
 20
622.428101
 10
189.909195
 20
622.593262
 10
188.933075
 20
622.818787
 10
187.993927
 20
623.099243
 10
187.095764
 20
623.428589
 10
186.242432
 20
623.800842
 10
185.43605
 20
624.209961
 10
184.67778
 20
624.650024
 10
183.968719
 20
625.11499
 10
183.309143
 20
625.599182
 10
182.698654
 20
626.097168
 10
182.136841
 20
626.603333
 10
181.623718
 20
627.111084
 10
181.159882
 20
627.612244
 10
180.745956
 20
628.098633
 10
180.383118
 20
628.56012
 10
180.073776
 20
628.983215
 10
179.822037
 20
629.350098
 10
179.633469
 20
629.639465
 10
179.514954
 20
629.827209
 10
179.472626
 20
629.893616
  0
LINE
  5
127
330
F5
100
AcDbEntity
  8
0
  6
Continuous
 62
     0
370
    30
100
AcDbLine
 10
179.472628
 20
629.893614
 30
0.0
 11
179.472628
 21
629.727534
 31
0.0
  0
ARC
  5
128
330
F5
100
AcDbEntity
  8
0
  6
Continuous
 62
     0
370
    30
100
AcDbCircle
 10
192.972628
 20
638.033306
 30
0.0
 40
16.10000000000002
100
AcDbArc
 50
270.0
 51
90.0
  0
ARC
  5
129
330
F5
100
AcDbEntity
  8
0
  6
Continuous
 62
     0
370
    30
100
AcDbCircle
 10
192.972628
 20
638.033306
 30
0.0
 40
16.10000000000002
100
AcDbArc
 50
90.0
 51
161.98588
  0
ARC
  5
12A
330
F5
100
AcDbEntity
  8
0
  6
Continuous
 62
     0
370
    30
100
AcDbCircle
 10
192.972628
 20
638.033306
 30
0.0
 40
16.10000000000002
100
AcDbArc
 50
198.01412
 51
270.0
  0
ARC
  5
12B
330
F5
100
AcDbEntity
  8
0
  6
Continuous
 62
     0
370
     0
100
AcDbCircle
 10
192.972628
 20
638.033297
 30
0.0
 40
15.73347743874463
100
AcDbArc
 50
90.0
 51
270.0
  0
ARC
  5
12C
330
F5
100
AcDbEntity
  8
0
  6
Continuous
 62
     0
370
     0
100
AcDbCircle
 10
192.972628
 20
638.033297
 30
0.0
 40
15.73347743874463
100
AcDbArc
 50
270.0
 51
90.0
  0
ARC
  5
12D
330
F5
100
AcDbEntity
  8
0
  6
Continuous
 62
     0
370
     0
100
AcDbCircle
 10
192.972628
 20
638.033297
 30
0.0
 40
14.73347896183132
100
AcDbArc
 50
270.0
 51
90.0
  0
ARC
  5
12E
330
F5
100
AcDbEntity
  8
0
  6
Continuous
 62
     0
370
     0
100
AcDbCircle
 10
192.972628
 20
638.033297
 30
0.0
 40
14.73347896183132
100
AcDbArc
 50
90.0
 51
270.0
  0
LINE
  5
12F
330
F5
100
AcDbEntity
  8
0
  6
Continuous
 62
     0
370
    30
100
AcDbLine
 10
123.360126
 20
614.031304
 30
0.0
 11
123.360126
 21
577.533288
 31
0.0
  0
ARC
  5
130
330
F5
100
AcDbEntity
  8
0
  6
Continuous
 62
     0
370
    30
100
AcDbCircle
 10
151.360131
 20
614.033211
 30
0.0
 40
8.000040483000676
100
AcDbArc
 50
126.870125
 51
180.000482
  0
LWPOLYLINE
  5
131
330
F5
100
AcDbEntity
  8
0
  6
Continuous
 62
     0
370
    30
100
AcDbPolyline
 90
       29
 70
     0
 43
0.0
 10
146.52919
 20
620.409912
 10
146.528229
 20
620.40918
 10
146.517258
 20
620.400879
 10
146.343842
 20
620.265137
 10
146.124695
 20
620.082214
 10
145.912262
 20
619.891663
 10
145.706772
 20
619.693665
 10
145.508469
 20
619.488403
 10
145.317642
 20
619.276245
 10
145.134537
 20
619.057373
 10
144.959366
 20
618.832092
 10
144.792313
 20
618.600708
 10
144.633591
 20
618.363586
 10
144.483383
 20
618.120972
 10
144.341919
 20
617.873108
 10
144.209412
 20
617.620361
 10
144.086044
 20
617.363037
 10
143.971954
 20
617.101501
 10
143.867249
 20
616.835999
 10
143.772064
 20
616.566956
 10
143.686523
 20
616.294739
 10
143.610748
 20
616.019653
 10
143.5448
 20
615.742004
 10
143.48877
 20
615.462219
 10
143.44278
 20
615.180542
 10
143.406891
 20
614.8974
 10
143.381134
 20
614.613098
 10
143.365524
 20
614.328186
 10
143.360092
 20
614.033142
  0
LWPOLYLINE
  5
132
330
F5
100
AcDbEntity
  8
0
  6
Continuous
 62
     0
370
    30
100
AcDbPolyline
 90
       29
 70
     0
 43
0.0
 10
120.191078
 20
620.409912
 10
120.192032
 20
620.40918
 10
120.203011
 20
620.400879
 10
120.376358
 20
620.265198
 10
120.59549
 20
620.082275
 10
120.807899
 20
619.891724
 10
121.013382
 20
619.693787
 10
121.211662
 20
619.488586
 10
121.402473
 20
619.276428
 10
121.585571
 20
619.057556
 10
121.760742
 20
618.832336
 10
121.92778
 20
618.601013
 10
122.086494
 20
618.363892
 10
122.236702
 20
618.121277
 10
122.378166
 20
617.873474
 10
122.510674
 20
617.620728
 10
122.634033
 20
617.363464
 10
122.748131
 20
617.101929
 10
122.852844
 20
616.836487
 10
122.948029
 20
616.567505
 10
123.033577
 20
616.295288
 10
123.109375
 20
616.020203
 10
123.175339
 20
615.742615
 10
123.231377
 20
615.46283
 10
123.27739
 20
615.181213
 10
123.313316
 20
614.898071
 10
123.339096
 20
614.613831
 10
123.354721
 20
614.328918
 10
123.360176
 20
614.033752
  0
ARC
  5
133
330
F5
100
AcDbEntity
  8
0
  6
Continuous
 62
     0
370
    30
100
AcDbCircle
 10
127.860157
 20
580.03332
 30
0.0
 40
1.000024307966458
100
AcDbArc
 50
180.001393
 51
269.998607
  0
LINE
  5
134
330
F5
100
AcDbEntity
  8
0
  6
Continuous
 62
     0
370
    30
100
AcDbLine
 10
126.860133
 20
610.033295
 30
0.0
 11
126.860133
 21
580.033295
 31
0.0
  0
LWPOLYLINE
  5
135
330
F5
100
AcDbEntity
  8
0
  6
Continuous
 62
     0
370
    30
100
AcDbPolyline
 90
       20
 70
     0
 43
0.0
 10
142.666107
 20
618.098328
 10
142.629807
 20
618.081055
 10
142.35022
 20
617.935242
 10
142.079407
 20
617.771545
 10
141.819427
 20
617.591125
 10
141.57132
 20
617.394714
 10
141.336197
 20
617.182922
 10
141.11499
 20
616.956604
 10
140.908539
 20
616.716797
 10
140.717636
 20
616.464355
 10
140.543091
 20
616.200439
 10
140.38562
 20
615.925964
 10
140.245789
 20
615.642029
 10
140.124237
 20
615.349854
 10
140.0215
 20
615.050598
 10
139.937897
 20
614.745422
 10
139.873688
 20
614.435547
 10
139.829117
 20
614.122192
 10
139.804413
 20
613.806641
 10
139.799774
 20
613.488831
  0
LWPOLYLINE
  5
136
330
F5
100
AcDbEntity
  8
0
  6
Continuous
 62
     0
370
    30
100
AcDbPolyline
 90
       20
 70
     0
 43
0.0
 10
124.054161
 20
618.098328
 10
124.090454
 20
618.081055
 10
124.370049
 20
617.935242
 10
124.640862
 20
617.771545
 10
124.900841
 20
617.591125
 10
125.148941
 20
617.394714
 10
125.384071
 20
617.182922
 10
125.60527
 20
616.956604
 10
125.811729
 20
616.716736
 10
126.002632
 20
616.464355
 10
126.177177
 20
616.200439
 10
126.334648
 20
615.925903
 10
126.47448
 20
615.642029
 10
126.596039
 20
615.349854
 10
126.698776
 20
615.050598
 10
126.782372
 20
614.745422
 10
126.846588
 20
614.435547
 10
126.891159
 20
614.122192
 10
126.915863
 20
613.806641
 10
126.920486
 20
613.488831
  0
LINE
  5
137
330
F5
100
AcDbEntity
  8
0
  6
Continuous
 62
     0
370
    30
100
AcDbLine
 10
139.799826
 20
613.488325
 30
0.0
 11
139.860133
 21
610.033295
 31
0.0
  0
LINE
  5
138
330
F5
100
AcDbEntity
  8
0
  6
Continuous
 62
     0
370
    30
100
AcDbLine
 10
126.920441
 20
613.488325
 30
0.0
 11
126.860133
 21
610.033295
 31
0.0
  0
LINE
  5
139
330
F5
100
AcDbEntity
  8
0
  6
Continuous
 62
     0
370
    30
100
AcDbLine
 10
149.11273
 20
521.533289
 30
0.0
 11
149.109524
 21
521.533288
 31
0.0
  0
ARC
  5
13A
330
F5
100
AcDbEntity
  8
0
  6
Continuous
 62
     0
370
    30
100
AcDbCircle
 10
149.11012
 20
521.783301
 30
0.0
 40
0.2500122859850435
100
AcDbArc
 50
270.009759
 51
359.997185
  0
ARC
  5
13B
330
F5
100
AcDbEntity
  8
0
  6
Continuous
 62
     0
370
    30
100
AcDbCircle
 10
117.610145
 20
521.783301
 30
0.0
 40
0.2500122859778952
100
AcDbArc
 50
180.002815
 51
269.990241
  0
LINE
  5
13C
330
F5
100
AcDbEntity
  8
0
  6
Continuous
 62
     0
370
    30
100
AcDbLine
 10
149.110163
 20
577.533288
 30
0.0
 11
149.11273
 21
577.533288
 31
0.0
  0
ARC
  5
13D
330
F5
100
AcDbEntity
  8
0
  6
Continuous
 62
     0
370
    30
100
AcDbCircle
 10
149.11012
 20
577.283276
 30
0.0
 40
0.2500122859800582
100
AcDbArc
 50
0.002815
 51
89.990241
  0
ARC
  5
13E
330
F5
100
AcDbEntity
  8
0
  6
Continuous
 62
     0
370
    30
100
AcDbCircle
 10
117.610145
 20
577.283276
 30
0.0
 40
0.2500122858052561
100
AcDbArc
 50
90.009764
 51
179.997185
  0
LINE
  5
13F
330
F5
100
AcDbEntity
  8
0
  6
Continuous
 62
     0
370
    30
100
AcDbLine
 10
149.360133
 20
577.283288
 30
0.0
 11
149.360133
 21
521.783288
 31
0.0
  0
LINE
  5
140
330
F5
100
AcDbEntity
  8
0
  6
Continuous
 62
     0
370
    30
100
AcDbLine
 10
117.360133
 20
577.283288
 30
0.0
 11
117.360133
 21
521.783288
 31
0.0
  0
CIRCLE
  5
141
330
F5
100
AcDbEntity
  8
0
  6
Continuous
 62
     0
370
    30
100
AcDbCircle
 10
133.360134
 20
549.533293
 30
0.0
 40
8.998566304199727
  0
LINE
  5
142
330
F5
100
AcDbEntity
  8
0
  6
Continuous
 62
     0
370
    30
100
AcDbLine
 10
143.360133
 20
400.533274
 30
0.0
 11
143.360133
 21
378.016628
 31
0.0
  0
LINE
  5
143
330
F5
100
AcDbEntity
  8
0
  6
Continuous
 62
     0
370
    30
100
AcDbLine
 10
143.360133
 20
378.016628
 30
0.0
 11
143.360133
 21
368.015496
 31
0.0
  0
LINE
  5
144
330
F5
100
AcDbEntity
  8
0
  6
Continuous
 62
     0
370
    30
100
AcDbLine
 10
197.326936
 20
622.533307
 30
0.0
 11
203.472628
 21
622.533307
 31
0.0
  0
LINE
  5
145
330
F5
100
AcDbEntity
  8
0
  6
Continuous
 62
     0
370
    30
100
AcDbLine
 10
148.972628
 20
622.533307
 30
0.0
 11
188.61832
 21
622.533307
 31
0.0
  0
LINE
  5
146
330
F5
100
AcDbEntity
  8
0
  6
Continuous
 62
     0
370
    30
100
AcDbLine
 10
197.326936
 20
653.533307
 30
0.0
 11
203.472628
 21
653.533307
 31
0.0
  0
LINE
  5
147
330
F5
100
AcDbEntity
  8
0
  6
Continuous
 62
     0
370
    30
100
AcDbLine
 10
148.973221
 20
653.533307
 30
0.0
 11
188.61832
 21
653.533307
 31
0.0
  0
ARC
  5
148
330
F5
100
AcDbEntity
  8
0
  6
Continuous
 62
     0
370
    30
100
AcDbCircle
 10
203.472625
 20
653.033303
 30
0.0
 40
0.5000034592898087
100
AcDbArc
 50
0.008301
 51
89.999604
  0
ARC
  5
149
330
F5
100
AcDbEntity
  8
0
  6
Continuous
 62
     0
370
    30
100
AcDbCircle
 10
203.472625
 20
623.03331
 30
0.0
 40
0.5000034592897936
100
AcDbArc
 50
270.000396
 51
359.991699
  0
LWPOLYLINE
  5
14A
330
F5
100
AcDbEntity
  8
0
  6
Continuous
 62
     0
370
    30
100
AcDbPolyline
 90
       43
 70
     0
 43
0.0
 10
178.373352
 20
579.978394
 10
179.871536
 20
581.909363
 10
181.245712
 20
583.742432
 10
182.504837
 20
585.477661
 10
183.661209
 20
587.121277
 10
184.727158
 20
588.681824
 10
185.71434
 20
590.168213
 10
186.63205
 20
591.588318
 10
187.488708
 20
592.949158
 10
188.290955
 20
594.256714
 10
189.04451
 20
595.515991
 10
189.754166
 20
596.731384
 10
190.423798
 20
597.906433
 10
191.057083
 20
599.044556
 10
191.657043
 20
600.14856
 10
192.226257
 20
601.220886
 10
192.766953
 20
602.26355
 10
193.281143
 20
603.278564
 10
193.770554
 20
604.267456
 10
194.236588
 20
605.231567
 10
194.680649
 20
606.172241
 10
195.104095
 20
607.09082
 10
195.508087
 20
607.988281
 10
195.893585
 20
608.865662
 10
196.261505
 20
609.723755
 10
196.612564
 20
610.563354
 10
196.94751
 20
611.38501
 10
197.267044
 20
612.189514
 10
197.571884
 20
612.977478
 10
197.862686
 20
613.749634
 10
198.139938
 20
614.506348
 10
198.404068
 20
615.248108
 10
198.655502
 20
615.975281
 10
198.894653
 20
616.688354
 10
199.121979
 20
617.387695
 10
199.337891
 20
618.073792
 10
199.542786
 20
618.746948
 10
199.736938
 20
619.407532
 10
199.920593
 20
620.055786
 10
200.094025
 20
620.691956
 10
200.257477
 20
621.316467
 10
200.411224
 20
621.929443
 10
200.555984
 20
622.533325
  0
LWPOLYLINE
  5
14B
330
F5
100
AcDbEntity
  8
0
  6
Continuous
 62
     0
370
    30
100
AcDbPolyline
 90
       40
 70
     0
 43
0.0
 10
170.525436
 20
586.176025
 10
171.902588
 20
587.950562
 10
173.158264
 20
589.62439
 10
174.303207
 20
591.200134
 10
175.351059
 20
592.686279
 10
176.314697
 20
594.092712
 10
177.205521
 20
595.428711
 10
178.032455
 20
596.702087
 10
178.803543
 20
597.919983
 10
179.525223
 20
599.088196
 10
180.202713
 20
600.211548
 10
180.84053
 20
601.29425
 10
181.442429
 20
602.339783
 10
182.011398
 20
603.351074
 10
182.550323
 20
604.330688
 10
183.061554
 20
605.281006
 10
183.547134
 20
606.203857
 10
184.008835
 20
607.100952
 10
184.448212
 20
607.973755
 10
184.866791
 20
608.82373
 10
185.265747
 20
609.651978
 10
185.646057
 20
610.459351
 10
186.008728
 20
611.246887
 10
186.354767
 20
612.015503
 10
186.685059
 20
612.76593
 10
187.000305
 20
613.498901
 10
187.301147
 20
614.214905
 10
187.588196
 20
614.914551
 10
187.861984
 20
615.598328
 10
188.123108
 20
616.266724
 10
188.372055
 20
616.920227
 10
188.609268
 20
617.559143
 10
188.83519
 20
618.183838
 10
189.050247
 20
618.794678
 10
189.254761
 20
619.391968
 10
189.44902
 20
619.975891
 10
189.633347
 20
620.546631
 10
189.808014
 20
621.104431
 10
189.973328
 20
621.649536
 10
190.130722
 20
622.186096
  0
LWPOLYLINE
  5
14C
330
F5
100
AcDbEntity
  8
0
  6
Continuous
 62
     0
370
    30
100
AcDbPolyline
 90
       24
 70
     0
 43
0.0
 10
170.525436
 20
586.176025
 10
169.261154
 20
584.600037
 10
167.922699
 20
582.983765
 10
166.539474
 20
581.367065
 10
165.154526
 20
579.800476
 10
163.810013
 20
578.327271
 10
162.533936
 20
576.970764
 10
161.338516
 20
575.735596
 10
160.224304
 20
574.61438
 10
159.186035
 20
573.595093
 10
158.216415
 20
572.664856
 10
157.307831
 20
571.811768
 10
156.453674
 20
571.026123
 10
155.647675
 20
570.29895
 10
154.884598
 20
569.622986
 10
154.159943
 20
568.992188
 10
153.469833
 20
568.401489
 10
152.811096
 20
567.846619
 10
152.180893
 20
567.324036
 10
151.576859
 20
566.830566
 10
150.996902
 20
566.363586
 10
150.439102
 20
565.920776
 10
149.90184
 20
565.500061
 10
149.360138
 20
565.081665
  0
LWPOLYLINE
  5
14D
330
F5
100
AcDbEntity
  8
0
  6
Continuous
 62
     0
370
    30
100
AcDbPolyline
 90
       35
 70
     0
 43
0.0
 10
178.373352
 20
579.978394
 10
176.982224
 20
578.244751
 10
175.515228
 20
576.475098
 10
174.002792
 20
574.710388
 10
172.487366
 20
572.999512
 10
171.010437
 20
571.385315
 10
169.601044
 20
569.891968
 10
168.273468
 20
568.525574
 10
167.0298
 20
567.279968
 10
165.866409
 20
566.144226
 10
164.776459
 20
565.105286
 10
163.752731
 20
564.151123
 10
162.788223
 20
563.271118
 10
161.876694
 20
562.455994
 10
161.01268
 20
561.69812
 10
160.19136
 20
560.990723
 10
159.4086
 20
560.328308
 10
158.660782
 20
559.705994
 10
157.944794
 20
559.119751
 10
157.258026
 20
558.566223
 10
156.59819
 20
558.04248
 10
155.963333
 20
557.545959
 10
155.351624
 20
557.074463
 10
154.761536
 20
556.625977
 10
154.19162
 20
556.19873
 10
153.640656
 20
555.791138
 10
153.107376
 20
555.401794
 10
152.590698
 20
555.029236
 10
152.089722
 20
554.672546
 10
151.603561
 20
554.330566
 10
151.131454
 20
554.002441
 10
150.672836
 20
553.6875
 10
150.227081
 20
553.384949
 10
149.79361
 20
553.094116
 10
149.360138
 20
552.80658
  0
ENDBLK
  5
14F
330
F5
100
AcDbEntity
  8
0
100
AcDbBlockEnd
  0
BLOCK
  5
1B7
330
151
100
AcDbEntity
  8
0
100
AcDbBlockBegin
  2
c
 70
     0
 10
47.624363
 20
163.445251
 30
0.0
  3
c
  1

  0
LWPOLYLINE
  5
152
330
151
100
AcDbEntity
  8
0
  6
Continuous
 62
     0
370
     0
100
AcDbPolyline
 90
        4
 70
     0
 43
0.0
 10
681.302979
 20
1626.118164
 10
681.638672
 20
1626.144897
 10
681.958252
 20
1626.119629
 10
682.451721
 20
1625.959839
  0
LWPOLYLINE
  5
153
330
151
100
AcDbEntity
  8
0
  6
Continuous
 62
     0
370
     0
100
AcDbPolyline
 90
       17
 70
     0
 43
0.0
 10
677.942749
 20
1617.034058
 10
677.537109
 20
1617.321045
 10
677.209473
 20
1617.730591
 10
676.969421
 20
1618.25061
 10
676.824097
 20
1618.865723
 10
676.777649
 20
1619.558105
 10
676.831543
 20
1620.307251
 10
676.98407
 20
1621.091431
 10
677.230835
 20
1621.887329
 10
677.564636
 20
1622.671875
 10
677.975647
 20
1623.421997
 10
678.451782
 20
1624.115601
 10
678.979065
 20
1624.732422
 10
679.542114
 20
1625.254272
 10
680.12439
 20
1625.666016
 10
680.708801
 20
1625.955566
 10
681.302979
 20
1626.118164
  0
LINE
  5
154
330
151
100
AcDbEntity
  8
0
  6
Continuous
 62
     0
370
     0
100
AcDbLine
 10
885.257784
 20
2052.619051
 30
0.0
 11
876.597525
 21
2047.61906
 31
0.0
  0
LINE
  5
155
330
151
100
AcDbEntity
  8
0
  6
Continuous
 62
     0
370
     0
100
AcDbLine
 10
893.918043
 20
2057.619042
 30
0.0
 11
885.257784
 21
2052.619051
 31
0.0
  0
LINE
  5
156
330
151
100
AcDbEntity
  8
0
  6
Continuous
 62
     0
370
    30
100
AcDbLine
 10
895.258916
 20
2035.296541
 30
0.0
 11
903.919175
 21
2040.296532
 31
0.0
  0
LINE
  5
157
330
151
100
AcDbEntity
  8
0
  6
Continuous
 62
     0
370
    30
100
AcDbLine
 10
886.598657
 20
2030.29655
 30
0.0
 11
895.258916
 21
2035.296541
 31
0.0
  0
LINE
  5
158
330
151
100
AcDbEntity
  8
0
  6
Continuous
 62
     0
370
     0
100
AcDbLine
 10
862.741137
 20
2065.619074
 30
0.0
 11
862.741127
 21
2055.619074
 31
0.0
  0
LINE
  5
159
330
151
100
AcDbEntity
  8
0
  6
Continuous
 62
     0
370
     0
100
AcDbLine
 10
862.741147
 20
2075.619074
 30
0.0
 11
862.741137
 21
2065.619074
 31
0.0
  0
LINE
  5
15A
330
151
100
AcDbEntity
  8
0
  6
Continuous
 62
     0
370
     0
100
AcDbLine
 10
741.741123
 20
2065.619198
 30
0.0
 11
862.741137
 21
2065.619074
 31
0.0
  0
LINE
  5
15B
330
151
100
AcDbEntity
  8
0
  6
Continuous
 62
     0
370
    30
100
AcDbLine
 10
705.422725
 20
2083.344088
 30
0.0
 11
722.700649
 21
2083.344088
 31
0.0
  0
LINE
  5
15C
330
151
100
AcDbEntity
  8
0
  6
Continuous
 62
     0
370
    30
100
AcDbLine
 10
704.781596
 20
2083.344088
 30
0.0
 11
705.422725
 21
2083.344088
 31
0.0
  0
LINE
  5
15D
330
151
100
AcDbEntity
  8
0
  6
Continuous
 62
     0
370
     0
100
AcDbLine
 10
705.441121
 20
2103.345464
 30
0.0
 11
706.035056
 21
2103.345464
 31
0.0
  0
LINE
  5
15E
330
151
100
AcDbEntity
  8
0
  6
Continuous
 62
     0
370
     0
100
AcDbLine
 10
706.035056
 20
2103.345464
 30
0.0
 11
722.041124
 21
2103.345464
 31
0.0
  0
LINE
  5
15F
330
151
100
AcDbEntity
  8
0
  6
Continuous
 62
     0
370
     0
100
AcDbLine
 10
705.386463
 20
2102.644049
 30
0.0
 11
722.739706
 21
2102.644049
 31
0.0
  0
LINE
  5
160
330
151
100
AcDbEntity
  8
0
  6
Continuous
 62
     0
370
     0
100
AcDbLine
 10
704.742539
 20
2102.644049
 30
0.0
 11
705.386463
 21
2102.644049
 31
0.0
  0
LWPOLYLINE
  5
161
330
151
100
AcDbEntity
  8
0
  6
Continuous
 62
     0
370
    30
100
AcDbPolyline
 90
       34
 70
     0
 43
0.0
 10
701.74115
 20
2049.619141
 10
701.800903
 20
2049.663086
 10
701.979065
 20
2049.796143
 10
702.26886
 20
2050.010986
 10
702.662659
 20
2050.298096
 10
703.152466
 20
2050.648438
 10
703.729309
 20
2051.050781
 10
704.384583
 20
2051.493164
 10
705.111694
 20
2051.963867
 10
705.90564
 20
2052.451172
 10
706.763184
 20
2052.942871
 10
707.682068
 20
2053.424561
 10
708.660828
 20
2053.879883
 10
709.699158
 20
2054.290527
 10
710.795105
 20
2054.633545
 10
711.940613
 20
2054.884521
 10
713.123535
 20
2055.017822
 10
714.320435
 20
2055.02002
 10
715.504211
 20
2054.890625
 10
716.651123
 20
2054.643066
 10
717.74884
 20
2054.302734
 10
718.789001
 20
2053.893799
 10
719.769714
 20
2053.439453
 10
720.690491
 20
2052.958496
 10
721.550049
 20
2052.467041
 10
722.34613
 20
2051.979248
 10
723.075439
 20
2051.507812
 10
723.733093
 20
2051.064453
 10
724.312561
 20
2050.660645
 10
724.805298
 20
2050.30835
 10
725.202332
 20
2050.019043
 10
725.495605
 20
2049.802002
 10
725.677429
 20
2049.666016
 10
725.74115
 20
2049.619141
  0
LINE
  5
162
330
151
100
AcDbEntity
  8
0
  6
Continuous
 62
     0
370
    30
100
AcDbLine
 10
701.741122
 20
2049.619072
 30
0.0
 11
685.991122
 21
2049.619072
 31
0.0
  0
LINE
  5
163
330
151
100
AcDbEntity
  8
0
  6
Continuous
 62
     0
370
     0
100
AcDbLine
 10
685.991122
 20
2081.619072
 30
0.0
 11
685.991122
 21
2049.619072
 31
0.0
  0
LINE
  5
164
330
151
100
AcDbEntity
  8
0
  6
Continuous
 62
     0
370
    30
100
AcDbLine
 10
725.741122
 20
2049.619072
 30
0.0
 11
741.491122
 21
2049.619072
 31
0.0
  0
LINE
  5
165
330
151
100
AcDbEntity
  8
0
  6
Continuous
 62
     0
370
     0
100
AcDbLine
 10
741.491122
 20
2049.619072
 30
0.0
 11
741.491122
 21
2081.619072
 31
0.0
  0
LWPOLYLINE
  5
166
330
151
100
AcDbEntity
  8
0
  6
Continuous
 62
     0
370
    30
100
AcDbPolyline
 90
       16
 70
     0
 43
0.0
 10
716.691101
 20
2081.619141
 10
716.627747
 20
2081.607178
 10
716.440979
 20
2081.57373
 10
716.138794
 20
2081.52417
 10
715.732239
 20
2081.466553
 10
715.237305
 20
2081.410645
 10
714.675659
 20
2081.366211
 10
714.071716
 20
2081.341309
 10
713.452271
 20
2081.340576
 10
712.846436
 20
2081.36377
 10
712.281128
 20
2081.407227
 10
711.781006
 20
2081.462646
 10
711.36792
 20
2081.520264
 10
711.058228
 20
2081.570801
 10
710.862976
 20
2081.605469
 10
710.791382
 20
2081.619141
  0
LINE
  5
167
330
151
100
AcDbEntity
  8
0
  6
Continuous
 62
     0
370
    30
100
AcDbLine
 10
741.741122
 20
2081.369072
 30
0.0
 11
741.741122
 21
2049.869072
 31
0.0
  0
LINE
  5
168
330
151
100
AcDbEntity
  8
0
  6
Continuous
 62
     0
370
    30
100
AcDbLine
 10
685.741122
 20
2081.369072
 30
0.0
 11
685.741122
 21
2049.869072
 31
0.0
  0
ARC
  5
169
330
151
100
AcDbEntity
  8
0
  6
Continuous
 62
     0
370
    30
100
AcDbCircle
 10
685.991122
 20
2049.869072
 30
0.0
 40
0.2499999999994138
100
AcDbArc
 50
180.0
 51
270.0
  0
ARC
  5
16A
330
151
100
AcDbEntity
  8
0
  6
Continuous
 62
     0
370
    30
100
AcDbCircle
 10
741.491122
 20
2049.869072
 30
0.0
 40
0.249999999996831
100
AcDbArc
 50
270.0
 51
0.0
  0
LINE
  5
16B
330
151
100
AcDbEntity
  8
0
  6
Continuous
 62
     0
370
    30
100
AcDbLine
 10
719.397949
 20
2053.619072
 30
0.0
 11
708.084018
 21
2053.619072
 31
0.0
  0
LINE
  5
16C
330
151
100
AcDbEntity
  8
0
  6
Continuous
 62
     0
370
    30
100
AcDbLine
 10
653.241113
 20
2118.11908
 30
0.0
 11
652.328375
 21
2118.103148
 31
0.0
  0
LINE
  5
16D
330
151
100
AcDbEntity
  8
0
  6
Continuous
 62
     0
370
     0
100
AcDbLine
 10
653.241113
 20
2118.11908
 30
0.0
 11
653.241113
 21
2105.11908
 31
0.0
  0
LWPOLYLINE
  5
16E
330
151
100
AcDbEntity
  8
0
  6
Continuous
 62
     0
370
     0
100
AcDbPolyline
 90
       25
 70
     0
 43
0.0
 10
652.328369
 20
2105.13501
 10
652.284302
 20
2105.194824
 10
652.155762
 20
2105.370605
 10
651.955322
 20
2105.653564
 10
651.698792
 20
2106.032959
 10
651.403687
 20
2106.498291
 10
651.08783
 20
2107.041016
 10
650.76886
 20
2107.655029
 10
650.464417
 20
2108.336914
 10
650.193726
 20
2109.081787
 10
649.977539
 20
2109.882812
 10
649.83667
 20
2110.731201
 10
649.785889
 20
2111.605713
 10
649.83374
 20
2112.480957
 10
649.972046
 20
2113.330322
 10
650.186279
 20
2114.132812
 10
650.455627
 20
2114.879639
 10
650.759399
 20
2115.563477
 10
651.078308
 20
2116.179688
 10
651.394409
 20
2116.724609
 10
651.690369
 20
2117.192383
 10
651.948364
 20
2117.574463
 10
652.150757
 20
2117.860596
 10
652.281799
 20
2118.039551
 10
652.328369
 20
2118.103027
  0
ARC
  5
16F
330
151
100
AcDbEntity
  8
0
  6
Continuous
 62
     0
370
    30
100
AcDbCircle
 10
652.241113
 20
2123.102386
 30
0.0
 40
5.000000000000156
100
AcDbArc
 50
180.0
 51
271.0
  0
LWPOLYLINE
  5
170
330
151
100
AcDbEntity
  8
0
  6
Continuous
 62
     0
370
     0
100
AcDbPolyline
 90
       32
 70
     0
 43
0.0
 10
647.241089
 20
2100.135742
 10
647.214783
 20
2100.211914
 10
647.138977
 20
2100.435547
 10
647.01947
 20
2100.79541
 10
646.865173
 20
2101.275879
 10
646.685425
 20
2101.860596
 10
646.48938
 20
2102.534424
 10
646.285645
 20
2103.2854
 10
646.081848
 20
2104.103027
 10
645.884949
 20
2104.97876
 10
645.701477
 20
2105.905762
 10
645.537292
 20
2106.877441
 10
645.39801
 20
2107.886963
 10
645.288513
 20
2108.927734
 10
645.212952
 20
2109.991699
 10
645.174255
 20
2111.070068
 10
645.17395
 20
2112.15332
 10
645.212158
 20
2113.231689
 10
645.28717
 20
2114.295898
 10
645.396301
 20
2115.336914
 10
645.535217
 20
2116.347168
 10
645.699036
 20
2117.319336
 10
645.882263
 20
2118.246826
 10
646.079041
 20
2119.123535
 10
646.282837
 20
2119.941895
 10
646.486694
 20
2120.693848
 10
646.682739
 20
2121.368896
 10
646.86261
 20
2121.954834
 10
647.017395
 20
2122.436768
 10
647.137817
 20
2122.798828
 10
647.214294
 20
2123.02417
 10
647.241089
 20
2123.102295
  0
ARC
  5
171
330
151
100
AcDbEntity
  8
0
  6
Continuous
 62
     0
370
    30
100
AcDbCircle
 10
652.241113
 20
2100.135773
 30
0.0
 40
5.00000000000019
100
AcDbArc
 50
89.0
 51
180.0
  0
LINE
  5
172
330
151
100
AcDbEntity
  8
0
  6
Continuous
 62
     0
370
    30
100
AcDbLine
 10
647.241113
 20
2095.61908
 30
0.0
 11
647.241113
 21
2100.135773
 31
0.0
  0
LINE
  5
173
330
151
100
AcDbEntity
  8
0
  6
Continuous
 62
     0
370
    30
100
AcDbLine
 10
647.241113
 20
2123.102386
 30
0.0
 11
647.241113
 21
2126.11908
 31
0.0
  0
LINE
  5
174
330
151
100
AcDbEntity
  8
0
  6
Continuous
 62
     0
370
     0
100
AcDbLine
 10
647.241113
 20
2126.11908
 30
0.0
 11
603.241113
 21
2126.11908
 31
0.0
  0
LINE
  5
175
330
151
100
AcDbEntity
  8
0
  6
Continuous
 62
     0
370
    30
100
AcDbLine
 10
603.241113
 20
2103.819185
 30
0.0
 11
625.770429
 21
2095.61908
 31
0.0
  0
LINE
  5
176
330
151
100
AcDbEntity
  8
0
  6
Continuous
 62
     0
370
    30
100
AcDbLine
 10
625.770429
 20
2095.61908
 30
0.0
 11
647.241113
 21
2095.61908
 31
0.0
  0
LWPOLYLINE
  5
177
330
151
100
AcDbEntity
  8
0
  6
Continuous
 62
     0
370
    30
100
AcDbPolyline
 90
       38
 70
     0
 43
0.0
 10
646.741089
 20
2126.619141
 10
646.663635
 20
2126.619141
 10
646.431763
 20
2126.619141
 10
646.047729
 20
2126.619141
 10
645.514404
 20
2126.619141
 10
644.83551
 20
2126.619141
 10
644.015015
 20
2126.619141
 10
643.058777
 20
2126.619141
 10
641.973938
 20
2126.619141
 10
640.768127
 20
2126.619141
 10
639.451111
 20
2126.619141
 10
638.033203
 20
2126.619141
 10
636.524353
 20
2126.619141
 10
634.934387
 20
2126.619141
 10
633.273071
 20
2126.619141
 10
631.552673
 20
2126.619141
 10
629.786499
 20
2126.619141
 10
627.987915
 20
2126.619141
 10
626.1698
 20
2126.619141
 10
624.345093
 20
2126.619141
 10
622.526794
 20
2126.619141
 10
620.727722
 20
2126.619141
 10
618.960876
 20
2126.619141
 10
617.239502
 20
2126.619141
 10
615.577026
 20
2126.619141
 10
613.985657
 20
2126.619141
 10
612.475342
 20
2126.619141
 10
611.055664
 20
2126.619141
 10
609.736816
 20
2126.619141
 10
608.52887
 20
2126.619141
 10
607.441772
 20
2126.619141
 10
606.483154
 20
2126.619141
 10
605.660156
 20
2126.619141
 10
604.97876
 20
2126.619141
 10
604.44281
 20
2126.619141
 10
604.05603
 20
2126.619141
 10
603.82135
 20
2126.619141
 10
603.741089
 20
2126.619141
  0
ARC
  5
178
330
151
100
AcDbEntity
  8
0
  6
Continuous
 62
     0
370
    30
100
AcDbCircle
 10
646.741189
 20
2126.1191
 30
0.0
 40
0.4999240846516939
100
AcDbArc
 50
359.997641
 51
83.108852
  0
LINE
  5
179
330
151
100
AcDbEntity
  8
0
  6
Continuous
 62
     0
370
     0
100
AcDbLine
 10
683.241113
 20
2111.61908
 30
0.0
 11
683.241113
 21
2105.119079
 31
0.0
  0
LINE
  5
17A
330
151
100
AcDbEntity
  8
0
  6
Continuous
 62
     0
370
     0
100
AcDbLine
 10
683.241113
 20
2118.11908
 30
0.0
 11
683.241113
 21
2111.61908
 31
0.0
  0
LINE
  5
17B
330
151
100
AcDbEntity
  8
0
  6
Continuous
 62
     0
370
    30
100
AcDbLine
 10
684.241113
 20
2117.11908
 30
0.0
 11
684.241113
 21
2111.61908
 31
0.0
  0
LINE
  5
17C
330
151
100
AcDbEntity
  8
0
  6
Continuous
 62
     0
370
    30
100
AcDbLine
 10
684.241113
 20
2111.61908
 30
0.0
 11
684.241113
 21
2106.119079
 31
0.0
  0
LINE
  5
17D
330
151
100
AcDbEntity
  8
0
  6
Continuous
 62
     0
370
    30
100
AcDbLine
 10
632.936144
 20
1235.619077
 30
0.0
 11
575.241129
 21
1235.619076
 31
0.0
  0
LINE
  5
17E
330
151
100
AcDbEntity
  8
0
  6
Continuous
 62
     0
370
    30
100
AcDbLine
 10
675.241129
 20
1235.619078
 30
0.0
 11
632.936144
 21
1235.619077
 31
0.0
  0
LINE
  5
17F
330
151
100
AcDbEntity
  8
0
  6
Continuous
 62
     0
370
    30
100
AcDbLine
 10
632.936144
 20
1219.619077
 30
0.0
 11
675.24113
 21
1219.619078
 31
0.0
  0
LINE
  5
180
330
151
100
AcDbEntity
  8
0
  6
Continuous
 62
     0
370
    30
100
AcDbLine
 10
575.24113
 20
1219.619076
 30
0.0
 11
632.936144
 21
1219.619077
 31
0.0
  0
LWPOLYLINE
  5
181
330
151
100
AcDbEntity
  8
0
  6
Continuous
 62
     0
370
     0
100
AcDbPolyline
 90
       44
 70
     0
 43
0.0
 10
655.241089
 20
2075.619141
 10
655.206909
 20
2075.587646
 10
655.107117
 20
2075.494629
 10
654.94574
 20
2075.343018
 10
654.72876
 20
2075.136963
 10
654.463684
 20
2074.881348
 10
654.158691
 20
2074.581299
 10
653.821289
 20
2074.240723
 10
653.458069
 20
2073.863037
 10
653.075073
 20
2073.450684
 10
652.678162
 20
2073.005859
 10
652.273193
 20
2072.530029
 10
651.865662
 20
2072.023193
 10
651.46106
 20
2071.485352
 10
651.065491
 20
2070.915771
 10
650.685425
 20
2070.313965
 10
650.328796
 20
2069.678223
 10
650.004089
 20
2069.007812
 10
649.722473
 20
2068.302979
 10
649.497498
 20
2067.564697
 10
649.334595
 20
2066.800049
 10
649.25293
 20
2066.015137
 10
649.252563
 20
2065.223633
 10
649.334412
 20
2064.438965
 10
649.497681
 20
2063.674316
 10
649.722107
 20
2062.936035
 10
650.003723
 20
2062.230957
 10
650.32843
 20
2061.560547
 10
650.684937
 20
2060.924805
 10
651.065063
 20
2060.322998
 10
651.460693
 20
2059.753418
 10
651.865295
 20
2059.215576
 10
652.272705
 20
2058.70874
 10
652.677551
 20
2058.232666
 10
653.074463
 20
2057.787842
 10
653.457642
 20
2057.375732
 10
653.821045
 20
2056.997803
 10
654.158508
 20
2056.657227
 10
654.463379
 20
2056.356934
 10
654.728455
 20
2056.101562
 10
654.945496
 20
2055.895508
 10
655.107056
 20
2055.743652
 10
655.206909
 20
2055.650635
 10
655.241089
 20
2055.619141
  0
ARC
  5
182
330
151
100
AcDbEntity
  8
0
  6
Continuous
 62
     0
370
    30
100
AcDbCircle
 10
655.241113
 20
2083.61908
 30
0.0
 40
7.999999999999853
100
AcDbArc
 50
180.0
 51
270.0
  0
LWPOLYLINE
  5
183
330
151
100
AcDbEntity
  8
0
  6
Continuous
 62
     0
370
     0
100
AcDbPolyline
 90
       42
 70
     0
 43
0.0
 10
647.241089
 20
2047.619019
 10
647.207092
 20
2047.696045
 10
647.107483
 20
2047.924438
 10
646.948242
 20
2048.292969
 10
646.737915
 20
2048.787598
 10
646.486389
 20
2049.392334
 10
646.203308
 20
2050.091797
 10
645.897766
 20
2050.873047
 10
645.578064
 20
2051.723877
 10
645.251709
 20
2052.634521
 10
644.925354
 20
2053.5979
 10
644.605103
 20
2054.607666
 10
644.296936
 20
2055.657715
 10
644.006287
 20
2056.74292
 10
643.738159
 20
2057.859375
 10
643.497437
 20
2059.003662
 10
643.288696
 20
2060.171875
 10
643.116211
 20
2061.359863
 10
642.983337
 20
2062.563965
 10
642.892944
 20
2063.779541
 10
642.847046
 20
2065.002197
 10
642.846802
 20
2066.227295
 10
642.892334
 20
2067.450195
 10
642.982483
 20
2068.665771
 10
643.115234
 20
2069.869873
 10
643.287537
 20
2071.058105
 10
643.495972
 20
2072.226562
 10
643.736389
 20
2073.371094
 10
644.004272
 20
2074.487793
 10
644.2948
 20
2075.573242
 10
644.602966
 20
2076.623291
 10
644.923218
 20
2077.633301
 10
645.249512
 20
2078.596924
 10
645.575806
 20
2079.508301
 10
645.89563
 20
2080.359619
 10
646.201294
 20
2081.141113
 10
646.484558
 20
2081.841309
 10
646.736328
 20
2082.446777
 10
646.94696
 20
2082.942383
 10
647.106567
 20
2083.311768
 10
647.206665
 20
2083.541016
 10
647.241089
 20
2083.619141
  0
ARC
  5
184
330
151
100
AcDbEntity
  8
0
  6
Continuous
 62
     0
370
    30
100
AcDbCircle
 10
655.241113
 20
2047.619064
 30
0.0
 40
7.999999999999892
100
AcDbArc
 50
90.0
 51
180.0
  0
LINE
  5
185
330
151
100
AcDbEntity
  8
0
  6
Continuous
 62
     0
370
    30
100
AcDbLine
 10
647.241113
 20
2094.61908
 30
0.0
 11
647.241113
 21
2083.61908
 31
0.0
  0
LINE
  5
186
330
151
100
AcDbEntity
  8
0
  6
Continuous
 62
     0
370
    30
100
AcDbLine
 10
647.241113
 20
2094.61908
 30
0.0
 11
603.241113
 21
2094.61908
 31
0.0
  0
LINE
  5
187
330
151
100
AcDbEntity
  8
0
  6
Continuous
 62
     0
370
    30
100
AcDbLine
 10
647.241113
 20
2047.619064
 30
0.0
 11
647.241114
 21
1235.619078
 31
0.0
  0
LINE
  5
188
330
151
100
AcDbEntity
  8
0
  6
Continuous
 62
     0
370
    30
100
AcDbLine
 10
723.350343
 20
2020.464308
 30
0.0
 11
723.641122
 21
2020.464308
 31
0.0
  0
LINE
  5
189
330
151
100
AcDbEntity
  8
0
  6
Continuous
 62
     0
370
    30
100
AcDbLine
 10
703.841122
 20
2020.464308
 30
0.0
 11
723.350343
 21
2020.464308
 31
0.0
  0
LINE
  5
18A
330
151
100
AcDbEntity
  8
0
  6
Continuous
 62
     0
370
    30
100
AcDbLine
 10
702.893634
 20
2050.464308
 30
0.0
 11
724.588545
 21
2050.464308
 31
0.0
  0
LINE
  5
18B
330
151
100
AcDbEntity
  8
0
  6
Continuous
 62
     0
370
    30
100
AcDbLine
 10
725.169373
 20
2050.043343
 30
0.0
 11
723.641122
 21
2020.464308
 31
0.0
  0
LINE
  5
18C
330
151
100
AcDbEntity
  8
0
  6
Continuous
 62
     0
370
    30
100
AcDbLine
 10
702.312872
 20
2050.043357
 30
0.0
 11
703.841122
 21
2020.464308
 31
0.0
  0
LINE
  5
18D
330
151
100
AcDbEntity
  8
0
  6
Continuous
 62
     0
370
    30
100
AcDbLine
 10
655.241113
 20
2075.61908
 30
0.0
 11
685.741122
 21
2075.61908
 31
0.0
  0
LINE
  5
18E
330
151
100
AcDbEntity
  8
0
  6
Continuous
 62
     0
370
    30
100
AcDbLine
 10
655.241113
 20
2055.619064
 30
0.0
 11
685.741122
 21
2055.619064
 31
0.0
  0
LINE
  5
18F
330
151
100
AcDbEntity
  8
0
  6
Continuous
 62
     0
370
    30
100
AcDbLine
 10
603.241113
 20
2094.61908
 30
0.0
 11
603.241113
 21
1235.619077
 31
0.0
  0
LINE
  5
190
330
151
100
AcDbEntity
  8
0
  6
Continuous
 62
     0
370
    30
100
AcDbLine
 10
575.241129
 20
1235.619076
 30
0.0
 11
575.24113
 21
1219.619076
 31
0.0
  0
LINE
  5
191
330
151
100
AcDbEntity
  8
0
  6
Continuous
 62
     0
370
    30
100
AcDbLine
 10
675.241129
 20
1235.619078
 30
0.0
 11
675.24113
 21
1219.619078
 31
0.0
  0
ARC
  5
192
330
151
100
AcDbEntity
  8
0
  6
Continuous
 62
     0
370
    30
100
AcDbCircle
 10
625.444039
 20
2093.232872
 30
0.0
 40
20.49983891254294
100
AcDbArc
 50
153.405505
 51
176.122678
  0
ARC
  5
193
330
151
100
AcDbEntity
  8
0
  6
Continuous
 62
     0
370
    30
100
AcDbCircle
 10
625.037462
 20
2093.232775
 30
0.0
 40
20.50058610253385
100
AcDbArc
 50
3.877453
 51
6.684483
  0
ARC
  5
194
330
151
100
AcDbEntity
  8
0
  6
Continuous
 62
     0
370
    30
100
AcDbCircle
 10
683.241089
 20
2117.119056
 30
0.0
 40
1.000024305464414
100
AcDbArc
 50
0.002205
 51
89.998607
  0
ARC
  5
195
330
151
100
AcDbEntity
  8
0
  6
Continuous
 62
     0
370
    30
100
AcDbCircle
 10
683.241089
 20
2106.119103
 30
0.0
 40
1.000024305464094
100
AcDbArc
 50
270.001393
 51
359.997795
  0
LINE
  5
196
330
151
100
AcDbEntity
  8
0
  6
Continuous
 62
     0
370
    30
100
AcDbLine
 10
653.241113
 20
2118.11908
 30
0.0
 11
683.241113
 21
2118.11908
 31
0.0
  0
LINE
  5
197
330
151
100
AcDbEntity
  8
0
  6
Continuous
 62
     0
370
    30
100
AcDbLine
 10
653.241113
 20
2105.119079
 30
0.0
 11
683.241113
 21
2105.119079
 31
0.0
  0
ARC
  5
198
330
151
100
AcDbEntity
  8
0
  6
Continuous
 62
     0
370
    30
100
AcDbCircle
 10
603.741117
 20
2126.119076
 30
0.0
 40
0.5000034422827779
100
AcDbArc
 50
90.000394
 51
179.999606
  0
ARC
  5
199
330
151
100
AcDbEntity
  8
0
  6
Continuous
 62
     0
370
    30
100
AcDbCircle
 10
646.740947
 20
2126.122667
 30
0.0
 40
0.4964122960892522
100
AcDbArc
 50
83.031624
 51
89.980738
  0
LINE
  5
19A
330
151
100
AcDbEntity
  8
0
  6
Continuous
 62
     0
370
    30
100
AcDbLine
 10
603.241113
 20
2103.819281
 30
0.0
 11
603.241113
 21
2126.11908
 31
0.0
  0
LINE
  5
19B
330
151
100
AcDbEntity
  8
0
  6
Continuous
 62
     0
370
    30
100
AcDbLine
 10
652.328375
 20
2105.135012
 30
0.0
 11
653.241113
 21
2105.11908
 31
0.0
  0
LINE
  5
19C
330
151
100
AcDbEntity
  8
0
  6
Continuous
 62
     0
370
    30
100
AcDbLine
 10
703.241122
 20
2050.464308
 30
0.0
 11
703.241122
 21
2050.711136
 31
0.0
  0
LINE
  5
19D
330
151
100
AcDbEntity
  8
0
  6
Continuous
 62
     0
370
    30
100
AcDbLine
 10
724.241122
 20
2050.464308
 30
0.0
 11
724.241122
 21
2050.711032
 31
0.0
  0
ARC
  5
19E
330
151
100
AcDbEntity
  8
0
  6
Continuous
 62
     0
370
    30
100
AcDbCircle
 10
741.49111
 20
2081.36906
 30
0.0
 40
0.2500125408209053
100
AcDbArc
 50
0.002874
 51
89.997126
  0
LINE
  5
19F
330
151
100
AcDbEntity
  8
0
  6
Continuous
 62
     0
370
    30
100
AcDbLine
 10
741.739289
 20
2049.839043
 30
0.0
 11
741.741122
 21
2049.869072
 31
0.0
  0
ARC
  5
1A0
330
151
100
AcDbEntity
  8
0
  6
Continuous
 62
     0
370
    30
100
AcDbCircle
 10
685.991135
 20
2081.369059
 30
0.0
 40
0.2500125408186891
100
AcDbArc
 50
90.002874
 51
179.997126
  0
LINE
  5
1A1
330
151
100
AcDbEntity
  8
0
  6
Continuous
 62
     0
370
    30
100
AcDbLine
 10
685.742956
 20
2049.839043
 30
0.0
 11
685.741122
 21
2049.869072
 31
0.0
  0
LINE
  5
1A2
330
151
100
AcDbEntity
  8
0
  6
Continuous
 62
     0
370
    30
100
AcDbLine
 10
685.991122
 20
2081.619072
 30
0.0
 11
710.79141
 21
2081.619072
 31
0.0
  0
LINE
  5
1A3
330
151
100
AcDbEntity
  8
0
  6
Continuous
 62
     0
370
    30
100
AcDbLine
 10
716.691122
 20
2081.619072
 30
0.0
 11
741.491122
 21
2081.619072
 31
0.0
  0
ARC
  5
1A4
330
151
100
AcDbEntity
  8
0
  6
Continuous
 62
     0
370
    30
100
AcDbCircle
 10
722.039707
 20
2102.645461
 30
0.0
 40
0.7000038834700542
100
AcDbArc
 50
359.884371
 51
89.883753
  0
ARC
  5
1A5
330
151
100
AcDbEntity
  8
0
  6
Continuous
 62
     0
370
    30
100
AcDbCircle
 10
705.442543
 20
2102.645462
 30
0.0
 40
0.7000036879270921
100
AcDbArc
 50
90.116263
 51
180.115646
  0
LINE
  5
1A6
330
151
100
AcDbEntity
  8
0
  6
Continuous
 62
     0
370
    30
100
AcDbLine
 10
722.700649
 20
2083.344088
 30
0.0
 11
722.739706
 21
2102.644049
 31
0.0
  0
LINE
  5
1A7
330
151
100
AcDbEntity
  8
0
  6
Continuous
 62
     0
370
    30
100
AcDbLine
 10
704.781596
 20
2083.344088
 30
0.0
 11
704.742539
 21
2102.644049
 31
0.0
  0
LINE
  5
1A8
330
151
100
AcDbEntity
  8
0
  6
Continuous
 62
     0
370
    30
100
AcDbLine
 10
722.041124
 20
2103.345464
 30
0.0
 11
713.775227
 21
2103.362191
 31
0.0
  0
LINE
  5
1A9
330
151
100
AcDbEntity
  8
0
  6
Continuous
 62
     0
370
    30
100
AcDbLine
 10
705.441121
 20
2103.345464
 30
0.0
 11
713.707018
 21
2103.362191
 31
0.0
  0
LINE
  5
1AA
330
151
100
AcDbEntity
  8
0
  6
Continuous
 62
     0
370
    30
100
AcDbLine
 10
716.267404
 20
2083.344088
 30
0.0
 11
716.263759
 21
2081.543078
 31
0.0
  0
LINE
  5
1AB
330
151
100
AcDbEntity
  8
0
  6
Continuous
 62
     0
370
    30
100
AcDbLine
 10
711.218486
 20
2081.543105
 30
0.0
 11
711.214841
 21
2083.344088
 31
0.0
  0
LINE
  5
1AC
330
151
100
AcDbEntity
  8
0
  6
Continuous
 62
     0
370
    30
100
AcDbLine
 10
862.741127
 20
2055.619074
 30
0.0
 11
741.741122
 21
2055.619417
 31
0.0
  0
LINE
  5
1AD
330
151
100
AcDbEntity
  8
0
  6
Continuous
 62
     0
370
    30
100
AcDbLine
 10
741.741122
 20
2075.61898
 30
0.0
 11
862.741147
 21
2075.619074
 31
0.0
  0
ARC
  5
1AE
330
151
100
AcDbEntity
  8
0
  6
Continuous
 62
     0
370
    30
100
AcDbCircle
 10
862.741109
 20
2039.619072
 30
0.0
 40
16.00000177885124
100
AcDbArc
 50
29.999945
 51
89.999937
  0
ARC
  5
1AF
330
151
100
AcDbEntity
  8
0
  6
Continuous
 62
     0
370
    30
100
AcDbCircle
 10
862.741108
 20
2039.61907
 30
0.0
 40
36.00000400241311
100
AcDbArc
 50
29.999945
 51
89.999937
  0
LINE
  5
1B0
330
151
100
AcDbEntity
  8
0
  6
Continuous
 62
     0
370
    30
100
AcDbLine
 10
876.597525
 20
2047.61906
 30
0.0
 11
886.598657
 21
2030.29655
 31
0.0
  0
LINE
  5
1B1
330
151
100
AcDbEntity
  8
0
  6
Continuous
 62
     0
370
    30
100
AcDbLine
 10
893.918043
 20
2057.619042
 30
0.0
 11
903.919175
 21
2040.296532
 31
0.0
  0
LWPOLYLINE
  5
1B2
330
151
100
AcDbEntity
  8
0
  6
Continuous
 62
     0
370
    30
100
AcDbPolyline
 90
       56
 70
     0
 43
0.0
 10
682.451721
 20
1625.959839
 10
681.415222
 20
1626.577881
 10
680.347839
 20
1627.388428
 10
679.287781
 20
1628.344604
 10
678.251526
 20
1629.410889
 10
677.244995
 20
1630.562378
 10
676.269714
 20
1631.780884
 10
675.325012
 20
1633.053345
 10
674.409607
 20
1634.370239
 10
673.521606
 20
1635.724243
 10
672.659241
 20
1637.109741
 10
671.820923
 20
1638.522461
 10
671.005005
 20
1639.958618
 10
670.209961
 20
1641.415161
 10
669.434448
 20
1642.889771
 10
668.677368
 20
1644.380249
 10
667.937561
 20
1645.885376
 10
667.214233
 20
1647.403442
 10
666.506348
 20
1648.93335
 10
665.813171
 20
1650.473877
 10
665.134033
 20
1652.024292
 10
664.468201
 20
1653.583862
 10
663.815186
 20
1655.151611
 10
663.174316
 20
1656.727173
 10
662.545105
 20
1658.309814
 10
661.927124
 20
1659.899048
 10
661.319885
 20
1661.494385
 10
660.723083
 20
1663.095703
 10
660.13623
 20
1664.702393
 10
659.559082
 20
1666.314087
 10
658.991333
 20
1667.930664
 10
658.432678
 20
1669.551758
 10
657.882874
 20
1671.177246
 10
657.341675
 20
1672.806763
 10
656.808838
 20
1674.440186
 10
656.284058
 20
1676.077271
 10
655.767212
 20
1677.717773
 10
655.258057
 20
1679.361694
 10
654.756409
 20
1681.008667
 10
654.262085
 20
1682.658691
 10
653.774963
 20
1684.311523
 10
653.294861
 20
1685.967163
 10
652.821594
 20
1687.625366
 10
652.355103
 20
1689.286255
 10
651.895325
 20
1690.949463
 10
651.442017
 20
1692.615112
 10
650.995178
 20
1694.282959
 10
650.554688
 20
1695.953003
 10
650.1203
 20
1697.625244
 10
649.692078
 20
1699.299438
 10
649.269836
 20
1700.975586
 10
648.853455
 20
1702.653564
 10
648.44281
 20
1704.333252
 10
648.037903
 20
1706.014648
 10
647.638672
 20
1707.697876
 10
647.241089
 20
1709.399536
  0
LWPOLYLINE
  5
1B3
330
151
100
AcDbEntity
  8
0
  6
Continuous
 62
     0
370
    30
100
AcDbPolyline
 90
       35
 70
     0
 43
0.0
 10
677.942749
 20
1617.034058
 10
676.426025
 20
1617.893677
 10
674.982483
 20
1618.886719
 10
673.608826
 20
1619.991821
 10
672.2995
 20
1621.191528
 10
671.049011
 20
1622.470337
 10
669.852173
 20
1623.816772
 10
668.703796
 20
1625.220947
 10
667.599243
 20
1626.67395
 10
666.534851
 20
1628.169678
 10
665.506958
 20
1629.702393
 10
664.512451
 20
1631.26709
 10
663.548706
 20
1632.860229
 10
662.613403
 20
1634.478271
 10
661.704529
 20
1636.118652
 10
660.82019
 20
1637.778931
 10
659.958862
 20
1639.456909
 10
659.119141
 20
1641.151367
 10
658.299866
 20
1642.860596
 10
657.499756
 20
1644.583252
 10
656.717468
 20
1646.317993
 10
655.952271
 20
1648.063599
 10
655.203247
 20
1649.81958
 10
654.469666
 20
1651.584961
 10
653.750916
 20
1653.359131
 10
653.046326
 20
1655.141479
 10
652.355286
 20
1656.931396
 10
651.677246
 20
1658.728394
 10
651.01178
 20
1660.531982
 10
650.358398
 20
1662.341919
 10
649.716675
 20
1664.157593
 10
649.086182
 20
1665.97876
 10
648.466614
 20
1667.805176
 10
647.857544
 20
1669.636353
 10
647.241089
 20
1671.526978
  0
LWPOLYLINE
  5
1B4
330
151
100
AcDbEntity
  8
0
  6
Continuous
 62
     0
370
    30
100
AcDbPolyline
 90
        6
 70
     0
 43
0.0
 10
677.942749
 20
1617.034058
 10
679.143311
 20
1616.485352
 10
680.384216
 20
1616.039185
 10
681.660095
 20
1615.708008
 10
682.962097
 20
1615.503418
 10
684.371826
 20
1615.434082
  0
LWPOLYLINE
  5
1B5
330
151
100
AcDbEntity
  8
0
  6
Continuous
 62
     0
370
    30
100
AcDbPolyline
 90
      225
 70
     0
 43
0.0
 10
682.451721
 20
1625.959839
 10
683.432617
 20
1625.565796
 10
684.209473
 20
1625.434448
 10
684.835571
 20
1625.498779
 10
685.531921
 20
1625.77356
 10
686.364929
 20
1626.337646
 10
687.258179
 20
1627.185913
 10
688.141357
 20
1628.252197
 10
688.982361
 20
1629.473633
 10
689.772339
 20
1630.806885
 10
690.51123
 20
1632.221924
 10
691.202454
 20
1633.699463
 10
691.850159
 20
1635.225464
 10
692.458679
 20
1636.789917
 10
693.031677
 20
1638.385864
 10
693.572632
 20
1640.007935
 10
694.084534
 20
1641.651489
 10
694.570068
 20
1643.313354
 10
695.031555
 20
1644.991089
 10
695.470825
 20
1646.682495
 10
695.889771
 20
1648.385986
 10
696.289978
 20
1650.099731
 10
696.672913
 20
1651.822632
 10
697.039795
 20
1653.553711
 10
697.391602
 20
1655.292114
 10
697.72937
 20
1657.037109
 10
698.054138
 20
1658.787964
 10
698.366516
 20
1660.544312
 10
698.667297
 20
1662.305542
 10
698.957092
 20
1664.071411
 10
699.236694
 20
1665.841187
 10
699.50647
 20
1667.614868
 10
699.767029
 20
1669.391968
 10
700.01886
 20
1671.172363
 10
700.26239
 20
1672.955566
 10
700.497986
 20
1674.741577
 10
700.726013
 20
1676.530151
 10
700.946899
 20
1678.321167
 10
701.160889
 20
1680.114258
 10
701.368347
 20
1681.909546
 10
701.569519
 20
1683.706665
 10
701.764648
 20
1685.505615
 10
701.954041
 20
1687.306274
 10
702.137878
 20
1689.108521
 10
702.316345
 20
1690.912354
 10
702.489746
 20
1692.717529
 10
702.658264
 20
1694.52417
 10
702.822021
 20
1696.331909
 10
702.981201
 20
1698.140991
 10
703.135986
 20
1699.95105
 10
703.286499
 20
1701.762329
 10
703.432922
 20
1703.574585
 10
703.575439
 20
1705.387695
 10
703.714111
 20
1707.201782
 10
703.849121
 20
1709.016846
 10
703.980469
 20
1710.832642
 10
704.108398
 20
1712.64917
 10
704.232971
 20
1714.466553
 10
704.354309
 20
1716.284668
 10
704.472534
 20
1718.103394
 10
704.587646
 20
1719.922729
 10
704.69989
 20
1721.742798
 10
704.809204
 20
1723.563354
 10
704.91571
 20
1725.384521
 10
705.019531
 20
1727.206299
 10
705.120728
 20
1729.028564
 10
705.21936
 20
1730.851318
 10
705.315552
 20
1732.674438
 10
705.409302
 20
1734.498169
 10
705.500732
 20
1736.322266
 10
705.589905
 20
1738.146729
 10
705.67688
 20
1739.97168
 10
705.761597
 20
1741.796997
 10
705.844238
 20
1743.622681
 10
705.924866
 20
1745.44873
 10
706.003418
 20
1747.275024
 10
706.080017
 20
1749.101807
 10
706.154724
 20
1750.928833
 10
706.2276
 20
1752.756104
 10
706.298706
 20
1754.58374
 10
706.368042
 20
1756.411621
 10
706.435669
 20
1758.239868
 10
706.501587
 20
1760.068237
 10
706.565918
 20
1761.896973
 10
706.628662
 20
1763.72583
 10
706.68988
 20
1765.554932
 10
706.749512
 20
1767.384399
 10
706.807678
 20
1769.213867
 10
706.864441
 20
1771.043701
 10
706.9198
 20
1772.873657
 10
706.973755
 20
1774.703857
 10
707.026367
 20
1776.53418
 10
707.077637
 20
1778.364746
 10
707.127686
 20
1780.195435
 10
707.176453
 20
1782.026367
 10
707.223999
 20
1783.857422
 10
707.270325
 20
1785.688599
 10
707.315491
 20
1787.519897
 10
707.359558
 20
1789.351318
 10
707.402527
 20
1791.182983
 10
707.444336
 20
1793.014771
 10
707.485168
 20
1794.846558
 10
707.524902
 20
1796.678589
 10
707.56366
 20
1798.51062
 10
707.60144
 20
1800.342896
 10
707.638184
 20
1802.175171
 10
707.674011
 20
1804.00769
 10
707.708923
 20
1805.84021
 10
707.742859
 20
1807.672852
 10
707.77594
 20
1809.505493
 10
707.808105
 20
1811.338379
 10
707.839478
 20
1813.171265
 10
707.869934
 20
1815.004272
 10
707.899597
 20
1816.837402
 10
707.928406
 20
1818.670532
 10
707.956482
 20
1820.503784
 10
707.983765
 20
1822.337158
 10
708.010315
 20
1824.170532
 10
708.036133
 20
1826.003906
 10
708.061218
 20
1827.837524
 10
708.085632
 20
1829.671021
 10
708.109375
 20
1831.504639
 10
708.132446
 20
1833.338379
 10
708.154907
 20
1835.172119
 10
708.176636
 20
1837.005859
 10
708.197815
 20
1838.839722
 10
708.218384
 20
1840.673706
 10
708.238281
 20
1842.507568
 10
708.257629
 20
1844.341553
 10
708.276428
 20
1846.175659
 10
708.294617
 20
1848.009644
 10
708.312317
 20
1849.84375
 10
708.329407
 20
1851.677979
 10
708.346008
 20
1853.512207
 10
708.362122
 20
1855.346313
 10
708.377686
 20
1857.180664
 10
708.392761
 20
1859.014893
 10
708.40741
 20
1860.849243
 10
708.42157
 20
1862.683594
 10
708.435242
 20
1864.517944
 10
708.448486
 20
1866.352295
 10
708.461304
 20
1868.186768
 10
708.473633
 20
1870.02124
 10
708.485596
 20
1871.855713
 10
708.497192
 20
1873.690186
 10
708.508301
 20
1875.524658
 10
708.519104
 20
1877.359253
 10
708.52948
 20
1879.193726
 10
708.539551
 20
1881.02832
 10
708.549194
 20
1882.862915
 10
708.558533
 20
1884.69751
 10
708.567505
 20
1886.532104
 10
708.576172
 20
1888.366699
 10
708.584473
 20
1890.201416
 10
708.592529
 20
1892.036011
 10
708.60022
 20
1893.870728
 10
708.607605
 20
1895.705322
 10
708.614746
 20
1897.540039
 10
708.621582
 20
1899.374756
 10
708.628113
 20
1901.209351
 10
708.63446
 20
1903.044067
 10
708.640503
 20
1904.878784
 10
708.646301
 20
1906.713501
 10
708.651855
 20
1908.548218
 10
708.657166
 20
1910.382935
 10
708.662231
 20
1912.217651
 10
708.667053
 20
1914.052368
 10
708.671692
 20
1915.887085
 10
708.676147
 20
1917.721802
 10
708.680359
 20
1919.556519
 10
708.684326
 20
1921.391235
 10
708.688171
 20
1923.225952
 10
708.691772
 20
1925.060791
 10
708.69519
 20
1926.895508
 10
708.698486
 20
1928.730225
 10
708.701538
 20
1930.564941
 10
708.704468
 20
1932.399658
 10
708.707214
 20
1934.234375
 10
708.709839
 20
1936.069092
 10
708.71228
 20
1937.903809
 10
708.7146
 20
1939.738525
 10
708.716736
 20
1941.573242
 10
708.718811
 20
1943.407959
 10
708.720703
 20
1945.242676
 10
708.722534
 20
1947.077393
 10
708.724182
 20
1948.912109
 10
708.725769
 20
1950.746826
 10
708.727234
 20
1952.581543
 10
708.728577
 20
1954.41626
 10
708.729858
 20
1956.250977
 10
708.731018
 20
1958.085571
 10
708.732056
 20
1959.920288
 10
708.733093
 20
1961.755005
 10
708.734009
 20
1963.5896
 10
708.734802
 20
1965.424316
 10
708.735596
 20
1967.259033
 10
708.736267
 20
1969.093628
 10
708.736877
 20
1970.928345
 10
708.737488
 20
1972.762939
 10
708.737976
 20
1974.597656
 10
708.738403
 20
1976.432251
 10
708.738831
 20
1978.266846
 10
708.739197
 20
1980.101562
 10
708.739502
 20
1981.936157
 10
708.739746
 20
1983.770752
 10
708.73999
 20
1985.605469
 10
708.740234
 20
1987.440063
 10
708.740417
 20
1989.274658
 10
708.74054
 20
1991.109253
 10
708.740662
 20
1992.943848
 10
708.740784
 20
1994.778564
 10
708.740906
 20
1996.613159
 10
708.740967
 20
1998.447754
 10
708.741028
 20
2000.282349
 10
708.741089
 20
2002.116943
 10
708.741089
 20
2003.951538
 10
708.74115
 20
2005.786133
 10
708.74115
 20
2007.620728
 10
708.74115
 20
2009.455322
 10
708.74115
 20
2011.290039
 10
708.74115
 20
2013.124634
 10
708.74115
 20
2014.959229
 10
708.74115
 20
2016.793823
 10
708.74115
 20
2018.628418
 10
708.74115
 20
2020.464355
  0
LWPOLYLINE
  5
1B6
330
151
100
AcDbEntity
  8
0
  6
Continuous
 62
     0
370
    30
100
AcDbPolyline
 90
      206
 70
     0
 43
0.0
 10
684.371765
 20
1615.434082
 10
686.187683
 20
1615.581543
 10
687.96106
 20
1615.993774
 10
689.655701
 20
1616.655762
 10
691.244995
 20
1617.539917
 10
692.712952
 20
1618.610718
 10
694.060425
 20
1619.834595
 10
695.293701
 20
1621.183716
 10
696.422546
 20
1622.633667
 10
697.458252
 20
1624.166504
 10
698.411743
 20
1625.767456
 10
699.292969
 20
1627.424194
 10
700.110474
 20
1629.127686
 10
700.871582
 20
1630.870483
 10
701.582458
 20
1632.646729
 10
702.248413
 20
1634.451416
 10
702.874512
 20
1636.280151
 10
703.464478
 20
1638.129761
 10
704.021851
 20
1639.997559
 10
704.549622
 20
1641.881104
 10
705.050415
 20
1643.778564
 10
705.526489
 20
1645.688232
 10
705.979492
 20
1647.608887
 10
706.411072
 20
1649.539673
 10
706.822937
 20
1651.479248
 10
707.216675
 20
1653.426758
 10
707.593628
 20
1655.381104
 10
707.954773
 20
1657.341797
 10
708.301086
 20
1659.308472
 10
708.633606
 20
1661.280396
 10
708.953186
 20
1663.257202
 10
709.260803
 20
1665.238281
 10
709.556885
 20
1667.223389
 10
709.842041
 20
1669.21228
 10
710.116821
 20
1671.204712
 10
710.381714
 20
1673.200317
 10
710.63739
 20
1675.198975
 10
710.884216
 20
1677.200317
 10
711.122681
 20
1679.204224
 10
711.353088
 20
1681.210449
 10
711.575928
 20
1683.218994
 10
711.791443
 20
1685.229614
 10
712.000061
 20
1687.242188
 10
712.201965
 20
1689.256592
 10
712.397461
 20
1691.272705
 10
712.586975
 20
1693.290283
 10
712.770569
 20
1695.30957
 10
712.948547
 20
1697.3302
 10
713.121094
 20
1699.352173
 10
713.288391
 20
1701.375366
 10
713.450623
 20
1703.399902
 10
713.608032
 20
1705.425537
 10
713.760803
 20
1707.452271
 10
713.909119
 20
1709.47998
 10
714.053101
 20
1711.508545
 10
714.192993
 20
1713.538208
 10
714.328796
 20
1715.568604
 10
714.460754
 20
1717.599854
 10
714.588989
 20
1719.631836
 10
714.713501
 20
1721.664673
 10
714.834534
 20
1723.69812
 10
714.952087
 20
1725.7323
 10
715.066406
 20
1727.767212
 10
715.17749
 20
1729.802612
 10
715.285522
 20
1731.838623
 10
715.390503
 20
1733.875122
 10
715.492615
 20
1735.912231
 10
715.591919
 20
1737.949951
 10
715.688477
 20
1739.988037
 10
715.782349
 20
1742.026611
 10
715.873657
 20
1744.065552
 10
715.962463
 20
1746.10498
 10
716.048828
 20
1748.144897
 10
716.132812
 20
1750.185059
 10
716.214478
 20
1752.225708
 10
716.293884
 20
1754.266602
 10
716.371155
 20
1756.307983
 10
716.446289
 20
1758.349609
 10
716.519348
 20
1760.391479
 10
716.590393
 20
1762.433838
 10
716.659485
 20
1764.476318
 10
716.726685
 20
1766.519165
 10
716.792053
 20
1768.562256
 10
716.855652
 20
1770.605591
 10
716.91748
 20
1772.64917
 10
716.9776
 20
1774.692993
 10
717.036072
 20
1776.736938
 10
717.092957
 20
1778.78125
 10
717.148254
 20
1780.825684
 10
717.202026
 20
1782.870361
 10
717.254272
 20
1784.915161
 10
717.305115
 20
1786.960205
 10
717.354431
 20
1789.005371
 10
717.402405
 20
1791.050781
 10
717.449036
 20
1793.096313
 10
717.494324
 20
1795.141968
 10
717.538269
 20
1797.187866
 10
717.580933
 20
1799.233887
 10
717.622437
 20
1801.280029
 10
717.662659
 20
1803.326294
 10
717.701721
 20
1805.372681
 10
717.739685
 20
1807.419189
 10
717.77655
 20
1809.46582
 10
717.812317
 20
1811.512573
 10
717.847046
 20
1813.559448
 10
717.880737
 20
1815.606445
 10
717.913452
 20
1817.653442
 10
717.94519
 20
1819.700684
 10
717.976013
 20
1821.747925
 10
718.005859
 20
1823.795166
 10
718.03479
 20
1825.842651
 10
718.062805
 20
1827.890137
 10
718.089966
 20
1829.937622
 10
718.116333
 20
1831.985352
 10
718.141785
 20
1834.033081
 10
718.166504
 20
1836.080811
 10
718.190369
 20
1838.128662
 10
718.213501
 20
1840.176514
 10
718.23584
 20
1842.224487
 10
718.257507
 20
1844.272583
 10
718.278442
 20
1846.320679
 10
718.298645
 20
1848.368774
 10
718.318176
 20
1850.41687
 10
718.337036
 20
1852.465088
 10
718.355286
 20
1854.513428
 10
718.372864
 20
1856.561768
 10
718.389832
 20
1858.610107
 10
718.40625
 20
1860.658447
 10
718.422058
 20
1862.706909
 10
718.437256
 20
1864.755371
 10
718.451965
 20
1866.803833
 10
718.466064
 20
1868.852295
 10
718.479675
 20
1870.900879
 10
718.492798
 20
1872.949463
 10
718.505371
 20
1874.998047
 10
718.517517
 20
1877.046631
 10
718.529175
 20
1879.095337
 10
718.540344
 20
1881.143921
 10
718.551086
 20
1883.192627
 10
718.561401
 20
1885.241333
 10
718.571289
 20
1887.290039
 10
718.58075
 20
1889.338745
 10
718.589844
 20
1891.387573
 10
718.598572
 20
1893.436279
 10
718.606934
 20
1895.485107
 10
718.614929
 20
1897.533813
 10
718.622559
 20
1899.582642
 10
718.629822
 20
1901.63147
 10
718.63678
 20
1903.680298
 10
718.643372
 20
1905.729004
 10
718.649719
 20
1907.777832
 10
718.655701
 20
1909.82666
 10
718.661377
 20
1911.875488
 10
718.666809
 20
1913.924438
 10
718.671997
 20
1915.973267
 10
718.676819
 20
1918.022095
 10
718.681458
 20
1920.070923
 10
718.685852
 20
1922.119751
 10
718.689941
 20
1924.168579
 10
718.693848
 20
1926.217529
 10
718.697571
 20
1928.266357
 10
718.700989
 20
1930.315186
 10
718.704285
 20
1932.364014
 10
718.707336
 20
1934.412842
 10
718.710266
 20
1936.46167
 10
718.712952
 20
1938.51062
 10
718.715515
 20
1940.559448
 10
718.717834
 20
1942.608276
 10
718.720032
 20
1944.657104
 10
718.722107
 20
1946.705933
 10
718.723999
 20
1948.754761
 10
718.725769
 20
1950.803467
 10
718.727417
 20
1952.852295
 10
718.728882
 20
1954.901123
 10
718.730286
 20
1956.949951
 10
718.731506
 20
1958.998779
 10
718.732666
 20
1961.047485
 10
718.733704
 20
1963.096313
 10
718.73468
 20
1965.145142
 10
718.735535
 20
1967.193848
 10
718.736328
 20
1969.242676
 10
718.737
 20
1971.291382
 10
718.73761
 20
1973.34021
 10
718.738159
 20
1975.388916
 10
718.738647
 20
1977.437622
 10
718.739075
 20
1979.48645
 10
718.739441
 20
1981.535156
 10
718.739746
 20
1983.583862
 10
718.73999
 20
1985.632568
 10
718.740234
 20
1987.681396
 10
718.740417
 20
1989.730103
 10
718.740601
 20
1991.778809
 10
718.740723
 20
1993.827515
 10
718.740845
 20
1995.876221
 10
718.740967
 20
1997.924927
 10
718.741028
 20
1999.973633
 10
718.741089
 20
2002.022339
 10
718.741089
 20
2004.071045
 10
718.74115
 20
2006.119751
 10
718.74115
 20
2008.168457
 10
718.74115
 20
2010.217163
 10
718.74115
 20
2012.265869
 10
718.74115
 20
2014.314575
 10
718.74115
 20
2016.363403
 10
718.74115
 20
2018.412109
 10
718.74115
 20
2020.464355
  0
ENDBLK
  5
1B8
330
151
100
AcDbEntity
  8
0
100
AcDbBlockEnd
  0
BLOCK
  5
282
330
1BA
100
AcDbEntity
  8
0
100
AcDbBlockBegin
  2
d
 70
     0
 10
47.624363
 20
163.445251
 30
0.0
  3
d
  1

  0
LWPOLYLINE
  5
1BB
330
1BA
100
AcDbEntity
  8
0
  6
Continuous
 62
     0
370
     0
100
AcDbPolyline
 90
       15
 70
     0
 43
0.0
 10
760.502869
 20
481.75116
 10
760.599548
 20
481.142792
 10
760.75177
 20
480.444733
 10
760.954712
 20
479.678741
 10
761.202087
 20
478.868591
 10
761.486267
 20
478.039459
 10
761.79834
 20
477.217163
 10
762.128723
 20
476.427185
 10
762.46698
 20
475.694153
 10
762.802734
 20
475.040802
 10
763.125549
 20
474.487457
 10
763.425293
 20
474.051331
 10
763.692688
 20
473.745972
 10
763.919495
 20
473.580841
 10
764.10083
 20
473.56192
  0
LWPOLYLINE
  5
1BC
330
1BA
100
AcDbEntity
  8
0
  6
Continuous
 62
     0
370
     0
100
AcDbPolyline
 90
        5
 70
     0
 43
0.0
 10
760.669189
 20
482.954681
 10
760.55188
 20
482.841339
 10
760.483032
 20
482.606689
 10
760.4646
 20
482.256897
 10
760.502869
 20
481.75116
  0
ARC
  5
1BD
330
1BA
100
AcDbEntity
  8
0
  6
Continuous
 62
     0
370
     0
100
AcDbCircle
 10
-1261.965336
 20
791.575136
 30
0.0
 40
2090.729346450592
100
AcDbArc
 50
356.442473
 51
356.696714
  0
ARC
  5
1BE
330
1BA
100
AcDbEntity
  8
0
  6
Continuous
 62
     0
370
     0
100
AcDbCircle
 10
825.088951
 20
661.936722
 30
0.0
 40
0.3657287931744691
100
AcDbArc
 50
194.688412
 51
234.062231
  0
ARC
  5
1BF
330
1BA
100
AcDbEntity
  8
0
  6
Continuous
 62
     0
370
     0
100
AcDbCircle
 10
-1151.714619
 20
785.855603
 30
0.0
 40
1980.488107789945
100
AcDbArc
 50
356.404084
 51
356.681505
  0
ELLIPSE
  5
1C0
330
1BA
100
AcDbEntity
  8
0
  6
Continuous
 62
     0
370
     0
100
AcDbEllipse
 10
828.131348
 20
659.837531
 30
0.0
 11
0.2886751329479678
 21
0.4082482916283082
 31
0.0
210
0.0
220
0.0
230
1.0
 40
0.5
 41
2.526112936520531
 42
4.096909263977443
  0
LINE
  5
1C1
330
1BA
100
AcDbEntity
  8
0
  6
Continuous
 62
     0
370
     0
100
AcDbLine
 10
824.874303
 20
661.64061
 30
0.0
 11
827.777795
 21
659.587531
 31
0.0
  0
LWPOLYLINE
  5
1C2
330
1BA
100
AcDbEntity
  8
0
  6
Continuous
 62
     0
370
     0
100
AcDbPolyline
 90
        3
 70
     0
 43
0.0
 10
824.940674
 20
661.481812
 10
824.929443
 20
661.490662
 10
824.874329
 20
661.640625
  0
ARC
  5
1C3
330
1BA
100
AcDbEntity
  8
0
  6
Continuous
 62
     0
370
     0
100
AcDbCircle
 10
824.799062
 20
661.82608
 30
0.0
 40
0.0663494260473376
100
AcDbArc
 50
164.342558
 51
188.2052
  0
LWPOLYLINE
  5
1C4
330
1BA
100
AcDbEntity
  8
0
  6
Continuous
 62
     0
370
     0
100
AcDbPolyline
 90
        2
 70
     0
 43
0.0
 10
824.735168
 20
661.843994
 10
824.666016
 20
662.260437
  0
ELLIPSE
  5
1C5
330
1BA
100
AcDbEntity
  8
0
  6
Continuous
 62
     0
370
     0
100
AcDbEllipse
 10
815.403426
 20
667.808094
 30
0.0
 11
0.2886751329479879
 21
0.4082482916283368
 31
0.0
210
0.0
220
0.0
230
0.9999999999999999
 40
0.5
 41
1.206224769941533
 42
1.598817718518516
  0
LINE
  5
1C6
330
1BA
100
AcDbEntity
  8
0
  6
Continuous
 62
     0
370
     0
100
AcDbLine
 10
814.998656
 20
668.077153
 30
0.0
 11
815.191294
 21
667.940937
 31
0.0
  0
LWPOLYLINE
  5
1C7
330
1BA
100
AcDbEntity
  8
0
  6
Continuous
 62
     0
370
     0
100
AcDbPolyline
 90
        6
 70
     0
 43
0.0
 10
805.507141
 20
669.935242
 10
806.120789
 20
669.515808
 10
806.773315
 20
669.185486
 10
807.456421
 20
668.943115
 10
808.16272
 20
668.784485
 10
809.088379
 20
668.69104
  0
LINE
  5
1C8
330
1BA
100
AcDbEntity
  8
0
  6
Continuous
 62
     0
370
     0
100
AcDbLine
 10
815.75698
 20
667.558094
 30
0.0
 11
815.75698
 21
650.587531
 31
0.0
  0
ELLIPSE
  5
1C9
330
1BA
100
AcDbEntity
  8
0
  6
Continuous
 62
     0
370
     0
100
AcDbEllipse
 10
815.403426
 20
650.837531
 30
0.0
 11
-0.5
 21
1.655690584634328E-10
 31
0.0
210
0.0
220
0.0
230
1.0
 40
0.707107
 41
2.356194490426319
 42
3.141592645032646
  0
ELLIPSE
  5
1CA
330
1BA
100
AcDbEntity
  8
0
  6
Continuous
 62
     0
370
     0
100
AcDbEllipse
 10
815.403426
 20
667.808094
 30
0.0
 11
-0.5
 21
1.655690584634328E-10
 31
0.0
210
0.0
220
0.0
230
1.0
 40
0.707107
 41
2.356194490426626
 42
3.161800918509101
  0
ELLIPSE
  5
1CB
330
1BA
100
AcDbEntity
  8
0
  6
Continuous
 62
     0
370
     0
100
AcDbEllipse
 10
815.403426
 20
667.808094
 30
0.0
 11
0.4122534082822409
 21
-0.282926010397906
 31
0.0
210
0.0
220
0.0
230
-1.0
 40
0.024264
 41
0.5237688199188268
 42
2.094565146713926
  0
ELLIPSE
  5
1CC
330
1BA
100
AcDbEntity
  8
0
  6
Continuous
 62
     0
370
     0
100
AcDbEllipse
 10
821.767387
 20
663.822813
 30
0.0
 11
8.948929121387733
 21
12.65569704047859
 31
0.0
210
0.0
220
0.0
230
0.9999999999999999
 40
0.5
 41
1.598817718518898
 42
3.141632460692716
  0
ELLIPSE
  5
1CD
330
1BA
100
AcDbEntity
  8
0
  6
Continuous
 62
     0
370
     0
100
AcDbEllipse
 10
815.403426
 20
650.837531
 30
0.0
 11
0.02142691402522795
 21
0.499540676377165
 31
0.0
210
0.0
220
0.0
230
-0.9999999999999998
 40
0.824264
 41
2.059224507642121
 42
3.142355252222379
  0
ELLIPSE
  5
1CE
330
1BA
100
AcDbEntity
  8
0
  6
Continuous
 62
     0
370
     0
100
AcDbEllipse
 10
822.120941
 20
663.572813
 30
0.0
 11
8.660253988439742
 21
12.24744874885025
 31
0.0
210
0.0
220
0.0
230
0.9999999999999999
 40
0.5
 41
1.598817718518905
 42
3.453408154522132
  0
LINE
  5
1CF
330
1BA
100
AcDbEntity
  8
0
  6
Continuous
 62
     0
370
     0
100
AcDbLine
 10
828.484902
 20
659.587531
 30
0.0
 11
828.484902
 21
674.011073
 31
0.0
  0
LINE
  5
1D0
330
1BA
100
AcDbEntity
  8
0
  6
Continuous
 62
     0
370
     0
100
AcDbLine
 10
827.777795
 20
659.587531
 30
0.0
 11
827.777795
 21
673.178765
 31
0.0
  0
ELLIPSE
  5
1D1
330
1BA
100
AcDbEntity
  8
0
  6
Continuous
 62
     0
370
     0
100
AcDbEllipse
 10
828.131348
 20
659.837531
 30
0.0
 11
0.5
 21
-1.655690862190084E-10
 31
0.0
210
0.0
220
0.0
230
-1.0
 40
0.707107
 41
0.7853981631632238
 42
2.356194489958206
  0
ELLIPSE
  5
1D2
330
1BA
100
AcDbEntity
  8
0
  6
Continuous
 62
     0
370
     0
100
AcDbEllipse
 10
828.131348
 20
659.837531
 30
0.0
 11
-0.4122534082822788
 21
0.2829260103978509
 31
0.0
210
0.0
220
0.0
230
0.9999999999999998
 40
0.024264
 41
2.61782383367179
 42
3.146539953129776
  0
ELLIPSE
  5
1D3
330
1BA
100
AcDbEntity
  8
0
  6
Continuous
 62
     0
370
     0
100
AcDbEllipse
 10
821.767387
 20
663.822813
 30
0.0
 11
8.948929121387733
 21
12.65569704047859
 31
0.0
210
0.0
220
0.0
230
0.9999999999999999
 40
0.5
 41
6.283185303145712
 42
6.385531186062289
  0
ELLIPSE
  5
1D4
330
1BA
100
AcDbEntity
  8
0
  6
Continuous
 62
     0
370
     0
100
AcDbEllipse
 10
822.120941
 20
663.572813
 30
0.0
 11
8.660253988439742
 21
12.24744874885025
 31
0.0
210
0.0
220
0.0
230
0.9999999999999999
 40
0.5
 41
4.740410372108707
 42
6.426394042701506
  0
LWPOLYLINE
  5
1D5
330
1BA
100
AcDbEntity
  8
0
  6
Continuous
 62
     0
370
    30
100
AcDbPolyline
 90
       20
 70
     0
 43
0.0
 10
787.746704
 20
698.839233
 10
786.776672
 20
698.153137
 10
785.760498
 20
697.433594
 10
784.710999
 20
696.688416
 10
783.640503
 20
695.92395
 10
782.56134
 20
695.146484
 10
781.484741
 20
694.360107
 10
780.420715
 20
693.567444
 10
779.37915
 20
692.770935
 10
778.369019
 20
691.970947
 10
777.398621
 20
691.166748
 10
776.47644
 20
690.356506
 10
775.611938
 20
689.537781
 10
774.816162
 20
688.706848
 10
774.100708
 20
687.860168
 10
773.479797
 20
686.994202
 10
772.969788
 20
686.106079
 10
772.588013
 20
685.195435
 10
772.350769
 20
684.26532
 10
772.269897
 20
683.322815
  0
LWPOLYLINE
  5
1D6
330
1BA
100
AcDbEntity
  8
0
  6
Continuous
 62
     0
370
    30
100
AcDbPolyline
 90
        9
 70
     0
 43
0.0
 10
775.966125
 20
677.225647
 10
775.205322
 20
677.814636
 10
774.507141
 20
678.462708
 10
773.881409
 20
679.165039
 10
773.339722
 20
679.916016
 10
772.895142
 20
680.708984
 10
772.560974
 20
681.535767
 10
772.349731
 20
682.386292
 10
772.269897
 20
683.322815
  0
LWPOLYLINE
  5
1D7
330
1BA
100
AcDbEntity
  8
0
  6
Continuous
 62
     0
370
    30
100
AcDbPolyline
 90
       11
 70
     0
 43
0.0
 10
787.746704
 20
698.839233
 10
788.790039
 20
699.57666
 10
789.744019
 20
700.249756
 10
790.599426
 20
700.849548
 10
791.351868
 20
701.369202
 10
791.999634
 20
701.802795
 10
792.546021
 20
702.146606
 10
792.996765
 20
702.397095
 10
793.358459
 20
702.55072
 10
793.639587
 20
702.602539
 10
793.864014
 20
702.536987
  0
ELLIPSE
  5
1D8
330
1BA
100
AcDbEntity
  8
0
  6
Continuous
 62
     0
370
     0
100
AcDbEllipse
 10
588.330815
 20
701.122044
 30
0.0
 11
9.252594012053255
 21
-3.793349977014547
 31
0.0
210
0.0
220
0.0
230
-1.0
 40
0.362373
 41
0.0000000094895625
 42
0.5662387724864607
  0
ELLIPSE
  5
1D9
330
1BA
100
AcDbEntity
  8
0
  6
Continuous
 62
     0
370
     0
100
AcDbEllipse
 10
588.330815
 20
701.122044
 30
0.0
 11
9.252594012053255
 21
-3.793349977014547
 31
0.0
210
0.0
220
0.0
230
-1.0
 40
0.362373
 41
0.5662387724864498
 42
3.141594083184021
  0
ELLIPSE
  5
1DA
330
1BA
100
AcDbEntity
  8
0
  6
Continuous
 62
     0
370
    30
100
AcDbEllipse
 10
581.258947
 20
683.872614
 30
0.0
 11
-9.252594012053255
 21
3.793349977014547
 31
0.0
210
0.0
220
0.0
230
1.0
 40
0.362373
 41
6.283185297690017
 42
8.858539188282956
  0
ELLIPSE
  5
1DB
330
1BA
100
AcDbEntity
  8
0
  6
Continuous
 62
     0
370
    30
100
AcDbEllipse
 10
581.258947
 20
683.872614
 30
0.0
 11
-9.252594012053255
 21
3.793349977014547
 31
0.0
210
0.0
220
0.0
230
1.0
 40
0.362373
 41
2.57535388110337
 42
3.141592644100233
  0
LWPOLYLINE
  5
1DC
330
1BA
100
AcDbEntity
  8
0
  6
Continuous
 62
     0
370
     0
100
AcDbPolyline
 90
        7
 70
     0
 43
0.0
 10
610.026001
 20
713.407837
 10
610.421204
 20
713.754395
 10
610.744629
 20
714.179993
 10
610.994629
 20
714.673828
 10
611.172058
 20
715.223999
 10
611.279724
 20
715.81781
 10
611.323547
 20
716.572754
  0
LWPOLYLINE
  5
1DD
330
1BA
100
AcDbEntity
  8
0
  6
Continuous
 62
     0
370
     0
100
AcDbPolyline
 90
       22
 70
     0
 43
0.0
 10
611.323547
 20
716.572754
 10
611.280579
 20
717.381409
 10
611.145325
 20
718.276428
 10
610.910156
 20
719.247437
 10
610.571106
 20
720.27887
 10
610.128784
 20
721.350647
 10
609.588684
 20
722.439026
 10
608.961182
 20
723.518433
 10
608.26123
 20
724.56311
 10
607.506775
 20
725.549377
 10
606.717468
 20
726.457275
 10
605.913208
 20
727.271729
 10
605.112488
 20
727.983215
 10
604.331421
 20
728.587585
 10
603.555786
 20
729.102051
 10
602.757935
 20
729.540894
 10
601.952942
 20
729.885498
 10
601.158997
 20
730.118713
 10
600.395691
 20
730.226562
 10
599.682922
 20
730.200134
 10
599.039124
 20
730.036316
 10
598.478882
 20
729.737671
  0
LINE
  5
1DE
330
1BA
100
AcDbEntity
  8
0
  6
Continuous
 62
     0
370
     0
100
AcDbLine
 10
611.323557
 20
716.572772
 30
0.0
 11
696.95351
 21
777.12238
 31
0.0
  0
ELLIPSE
  5
1DF
330
1BA
100
AcDbEntity
  8
0
  6
Continuous
 62
     0
370
    30
100
AcDbEllipse
 10
709.611409
 20
808.606257
 30
0.0
 11
-8.959526423104565
 21
2.966849660668614E-9
 31
0.0
210
0.0
220
0.0
230
1.0
 40
0.707107
 41
0.0020236758117296
 42
1.165998895452935
  0
ELLIPSE
  5
1E0
330
1BA
100
AcDbEntity
  8
0
  6
Continuous
 62
     0
370
    30
100
AcDbEllipse
 10
709.611409
 20
808.606257
 30
0.0
 11
-8.959526423104565
 21
2.966849660668614E-9
 31
0.0
210
0.0
220
0.0
230
1.0
 40
0.707107
 41
1.165998895452936
 42
3.139568960663794
  0
ELLIPSE
  5
1E1
330
1BA
100
AcDbEntity
  8
0
  6
Continuous
 62
     0
370
     0
100
AcDbEllipse
 10
709.611409
 20
822.749365
 30
0.0
 11
-8.300001445269023
 21
2.748453760216179E-9
 31
0.0
210
0.0
220
0.0
230
1.0
 40
0.707107
 41
1.165998895452936
 42
4.307591549042726
  0
ELLIPSE
  5
1E2
330
1BA
100
AcDbEntity
  8
0
  6
Continuous
 62
     0
370
     0
100
AcDbEllipse
 10
709.611409
 20
822.749365
 30
0.0
 11
-8.300001445269023
 21
2.748453760216179E-9
 31
0.0
210
0.0
220
0.0
230
1.0
 40
0.707107
 41
4.307591549042726
 42
7.449184202632521
  0
ELLIPSE
  5
1E3
330
1BA
100
AcDbEntity
  8
0
  6
Continuous
 62
     0
370
     0
100
AcDbEllipse
 10
709.611409
 20
822.25339
 30
0.0
 11
-8.998583424832812
 21
2.979774469830168E-9
 31
0.0
210
0.0
220
0.0
230
1.0
 40
0.707107
 41
6.282826792033566
 42
7.449184202632521
  0
ELLIPSE
  5
1E4
330
1BA
100
AcDbEntity
  8
0
  6
Continuous
 62
     0
370
     0
100
AcDbEllipse
 10
709.611409
 20
822.25339
 30
0.0
 11
-8.998583424832812
 21
2.979774469830168E-9
 31
0.0
210
0.0
220
0.0
230
1.0
 40
0.707107
 41
1.165998895452935
 42
3.142054188922585
  0
ELLIPSE
  5
1E5
330
1BA
100
AcDbEntity
  8
0
  6
Continuous
 62
     0
370
    30
100
AcDbEllipse
 10
689.812419
 20
782.072778
 30
0.0
 11
-5.831237683728919
 21
8.246615492179794
 31
0.0
210
0.0
220
0.0
230
-1.0
 40
0.5
 41
0.9553166099463851
 42
3.282493217958537
  0
ELLIPSE
  5
1E6
330
1BA
100
AcDbEntity
  8
0
  6
Continuous
 62
     0
370
    30
100
AcDbEllipse
 10
689.812419
 20
782.072778
 30
0.0
 11
-5.831237683728919
 21
8.246615492179794
 31
0.0
210
0.0
220
0.0
230
-1.0
 40
0.5
 41
6.142386456625458
 42
7.238501917125971
  0
ELLIPSE
  5
1E7
330
1BA
100
AcDbEntity
  8
0
  6
Continuous
 62
     0
370
     0
100
AcDbEllipse
 10
729.233623
 20
809.947777
 30
0.0
 11
9.237604251451753
 21
-13.06394533414621
 31
0.0
210
0.0
220
0.0
230
1.0
 40
0.5
 41
0.0000000121016175
 42
2.186276043643407
  0
ELLIPSE
  5
1E8
330
1BA
100
AcDbEntity
  8
0
  6
Continuous
 62
     0
370
     0
100
AcDbEllipse
 10
729.233623
 20
809.947777
 30
0.0
 11
9.237604251451753
 21
-13.06394533414621
 31
0.0
210
0.0
220
0.0
230
1.0
 40
0.5
 41
2.186276043643407
 42
3.14159266569141
  0
ELLIPSE
  5
1E9
330
1BA
100
AcDbEntity
  8
0
  6
Continuous
 62
     0
370
     0
100
AcDbEllipse
 10
689.989196
 20
782.197778
 30
0.0
 11
-9.237604251451753
 21
13.06394533414621
 31
0.0
210
0.0
220
0.0
230
-1.0
 40
0.5
 41
6.277800241343274
 42
7.238501917125971
  0
ELLIPSE
  5
1EA
330
1BA
100
AcDbEntity
  8
0
  6
Continuous
 62
     0
370
     0
100
AcDbEllipse
 10
689.989196
 20
782.197778
 30
0.0
 11
-9.237604251451753
 21
13.06394533414621
 31
0.0
210
0.0
220
0.0
230
-1.0
 40
0.5
 41
0.955316609946385
 42
3.149509394973188
  0
LWPOLYLINE
  5
1EB
330
1BA
100
AcDbEntity
  8
0
  6
Continuous
 62
     0
370
     0
100
AcDbPolyline
 90
       33
 70
     0
 43
0.0
 10
690.618225
 20
770.395264
 10
691.614136
 20
769.808533
 10
692.62439
 20
769.30835
 10
693.635498
 20
768.909302
 10
694.632568
 20
768.624634
 10
695.59967
 20
768.465393
 10
696.520874
 20
768.439392
 10
697.380737
 20
768.550964
 10
698.165344
 20
768.800232
 10
698.862854
 20
769.183105
 10
699.464294
 20
769.691589
 10
699.963806
 20
770.314209
 10
700.358765
 20
771.036865
 10
700.649658
 20
771.843445
 10
700.839783
 20
772.716919
 10
700.934875
 20
773.640259
 10
700.942139
 20
774.603027
 10
700.862732
 20
775.645569
 10
700.689331
 20
776.773987
 10
700.416077
 20
777.979736
 10
700.039185
 20
779.251038
 10
699.557495
 20
780.573059
 10
698.973267
 20
781.928345
 10
698.291687
 20
783.297363
 10
697.521301
 20
784.659485
 10
696.673401
 20
785.993896
 10
695.761719
 20
787.280762
 10
694.801331
 20
788.502075
 10
693.808289
 20
789.6427
 10
692.798462
 20
790.690491
 10
691.787048
 20
791.636963
 10
690.787842
 20
792.477173
 10
689.812439
 20
793.209717
  0
LWPOLYLINE
  5
1EC
330
1BA
100
AcDbEntity
  8
0
  6
Continuous
 62
     0
370
     0
100
AcDbPolyline
 90
       21
 70
     0
 43
0.0
 10
689.812439
 20
793.209717
 10
688.870056
 20
793.836121
 10
687.904724
 20
794.394043
 10
686.927185
 20
794.869629
 10
685.949829
 20
795.249695
 10
684.986206
 20
795.522278
 10
684.050659
 20
795.677612
 10
683.157593
 20
795.708435
 10
682.321106
 20
795.610779
 10
681.553894
 20
795.384216
 10
680.86676
 20
795.032043
 10
680.268372
 20
794.560974
 10
679.764465
 20
793.980896
 10
679.358093
 20
793.304077
 10
679.049377
 20
792.544861
 10
678.835999
 20
791.718384
 10
678.713501
 20
790.840149
 10
678.675537
 20
789.925232
 10
678.717407
 20
788.952576
 10
678.844238
 20
787.897156
 10
679.071289
 20
786.725159
  0
LWPOLYLINE
  5
1ED
330
1BA
100
AcDbEntity
  8
0
  6
Continuous
 62
     0
370
    30
100
AcDbPolyline
 90
        6
 70
     0
 43
0.0
 10
719.565857
 20
783.515747
 10
718.952698
 20
782.844543
 10
718.239014
 20
782.210938
 10
717.432312
 20
781.625793
 10
716.543152
 20
781.098999
 10
715.369751
 20
780.548645
  0
ELLIPSE
  5
1EE
330
1BA
100
AcDbEntity
  8
0
  6
Continuous
 62
     0
370
    30
100
AcDbEllipse
 10
709.611409
 20
785.356741
 30
0.0
 11
-10.5
 21
3.476949061997913E-9
 31
0.0
210
0.0
220
0.0
230
1.0
 40
0.707107
 41
1.793279245301044
 42
2.919109735551948
  0
LWPOLYLINE
  5
1EF
330
1BA
100
AcDbEntity
  8
0
  6
Continuous
 62
     0
370
     0
100
AcDbPolyline
 90
       11
 70
     0
 43
0.0
 10
756.987549
 20
855.59967
 10
756.939758
 20
856.294922
 10
756.787598
 20
857.082031
 10
756.522644
 20
857.94281
 10
756.143982
 20
858.850037
 10
755.659912
 20
859.769836
 10
755.087769
 20
860.665283
 10
754.45166
 20
861.501404
 10
753.779724
 20
862.249512
 10
753.099731
 20
862.890076
 10
752.391357
 20
863.445923
  0
LWPOLYLINE
  5
1F0
330
1BA
100
AcDbEntity
  8
0
  6
Continuous
 62
     0
370
     0
100
AcDbPolyline
 90
        6
 70
     0
 43
0.0
 10
756.144165
 20
853.54248
 10
756.441895
 20
853.813354
 10
756.6745
 20
854.153748
 10
756.841003
 20
854.552002
 10
756.943359
 20
854.994873
 10
756.987549
 20
855.59967
  0
LWPOLYLINE
  5
1F1
330
1BA
100
AcDbEntity
  8
0
  6
Continuous
 62
     0
370
     0
100
AcDbPolyline
 90
        8
 70
     0
 43
0.0
 10
752.391357
 20
863.445923
 10
751.829224
 20
863.808899
 10
751.251465
 20
864.108337
 10
750.672546
 20
864.32782
 10
750.109131
 20
864.453003
 10
749.578918
 20
864.473633
 10
749.098816
 20
864.384766
 10
748.638611
 20
864.156921
  0
LWPOLYLINE
  5
1F2
330
1BA
100
AcDbEntity
  8
0
  6
Continuous
 62
     0
370
     0
100
AcDbPolyline
 90
        7
 70
     0
 43
0.0
 10
750.497803
 20
865.416565
 10
750.672546
 20
865.447083
 10
750.926941
 20
865.349365
 10
751.278809
 20
865.134644
 10
751.743164
 20
864.812683
 10
752.32843
 20
864.394714
 10
753.036804
 20
863.890991
  0
LWPOLYLINE
  5
1F3
330
1BA
100
AcDbEntity
  8
0
  6
Continuous
 62
     0
370
     0
100
AcDbPolyline
 90
       18
 70
     0
 43
0.0
 10
753.036804
 20
863.890991
 10
753.668579
 20
863.445862
 10
754.341431
 20
862.974365
 10
755.033447
 20
862.48584
 10
755.726318
 20
861.985779
 10
756.402344
 20
861.4776
 10
757.046509
 20
860.96106
 10
757.64502
 20
860.433594
 10
758.183472
 20
859.891785
 10
758.645752
 20
859.332092
 10
759.012512
 20
858.753784
 10
759.263062
 20
858.156494
 10
759.380798
 20
857.54834
 10
759.353455
 20
856.944519
 10
759.184692
 20
856.362488
 10
758.88855
 20
855.82074
 10
758.484009
 20
855.331421
 10
757.973816
 20
854.891968
  0
LWPOLYLINE
  5
1F4
330
1BA
100
AcDbEntity
  8
0
  6
Continuous
 62
     0
370
     0
100
AcDbPolyline
 90
       10
 70
     0
 43
0.0
 10
756.634033
 20
869.969604
 10
756.580078
 20
869.319153
 10
756.420776
 20
868.609985
 10
756.160156
 20
867.866516
 10
755.806702
 20
867.111938
 10
755.371277
 20
866.368591
 10
754.866638
 20
865.658325
 10
754.307617
 20
865.002319
 10
753.71106
 20
864.421204
 10
753.036804
 20
863.890991
  0
LWPOLYLINE
  5
1F5
330
1BA
100
AcDbEntity
  8
0
  6
Continuous
 62
     0
370
     0
100
AcDbPolyline
 90
       16
 70
     0
 43
0.0
 10
751.536438
 20
866.469849
 10
751.509155
 20
867.378906
 10
751.52124
 20
868.21344
 10
751.572937
 20
868.9646
 10
751.665466
 20
869.625183
 10
751.801208
 20
870.190796
 10
751.983215
 20
870.658508
 10
752.216125
 20
871.026184
 10
752.505249
 20
871.291809
 10
752.857117
 20
871.452759
 10
753.279175
 20
871.505127
 10
753.779419
 20
871.443726
 10
754.363892
 20
871.263062
 10
755.035034
 20
870.958801
 10
755.78833
 20
870.531006
 10
756.634033
 20
869.969604
  0
LINE
  5
1F6
330
1BA
100
AcDbEntity
  8
0
  6
Continuous
 62
     0
370
     0
100
AcDbLine
 10
756.634017
 20
853.729775
 30
0.0
 11
756.515214
 21
853.815821
 31
0.0
  0
ARC
  5
1F7
330
1BA
100
AcDbEntity
  8
0
  6
Continuous
 62
     0
370
     0
100
AcDbCircle
 10
753.340863
 20
853.731061
 30
0.0
 40
3.293154882339337
100
AcDbArc
 50
359.977621
 51
2.945148
  0
LWPOLYLINE
  5
1F8
330
1BA
100
AcDbEntity
  8
0
  6
Continuous
 62
     0
370
     0
100
AcDbPolyline
 90
       31
 70
     0
 43
0.0
 10
756.634033
 20
869.969604
 10
757.43512
 20
869.373718
 10
758.253906
 20
868.707092
 10
759.069641
 20
867.986389
 10
759.862854
 20
867.228149
 10
760.619446
 20
866.444458
 10
761.329712
 20
865.643616
 10
761.986511
 20
864.83075
 10
762.583923
 20
864.009521
 10
763.116821
 20
863.182068
 10
763.580444
 20
862.350342
 10
763.969666
 20
861.516541
 10
764.27948
 20
860.68335
 10
764.505188
 20
859.85498
 10
764.6427
 20
859.036316
 10
764.689697
 20
858.23407
 10
764.644775
 20
857.455261
 10
764.509277
 20
856.707703
 10
764.2854
 20
855.99939
 10
763.977295
 20
855.33783
 10
763.589783
 20
854.730591
 10
763.127747
 20
854.185242
 10
762.596313
 20
853.709595
 10
762.000244
 20
853.312561
 10
761.344727
 20
853.004028
 10
760.635559
 20
852.796387
 10
759.879883
 20
852.702881
 10
759.08728
 20
852.73761
 10
758.27179
 20
852.913208
 10
757.452881
 20
853.239685
 10
756.634033
 20
853.729797
  0
ELLIPSE
  5
1F9
330
1BA
100
AcDbEntity
  8
0
  6
Continuous
 62
     0
370
     0
100
AcDbEllipse
 10
772.190366
 20
883.102747
 30
0.0
 11
22.0
 21
-7.285009262503194E-9
 31
0.0
210
0.0
220
0.0
230
-1.0
 40
0.707107
 41
2.356194489958197
 42
3.142189835053702
  0
ELLIPSE
  5
1FA
330
1BA
100
AcDbEntity
  8
0
  6
Continuous
 62
     0
370
     0
100
AcDbEllipse
 10
772.190366
 20
883.102747
 30
0.0
 11
22.0
 21
-7.285009262503194E-9
 31
0.0
210
0.0
220
0.0
230
-1.0
 40
0.707107
 41
6.283185068963857
 42
8.639379797137781
  0
ELLIPSE
  5
1FB
330
1BA
100
AcDbEntity
  8
0
  6
Continuous
 62
     0
370
    30
100
AcDbEllipse
 10
772.190366
 20
861.53599
 30
0.0
 11
-22.0
 21
0.0
 31
0.0
210
0.0
220
0.0
230
1.0
 40
0.707107
 41
0.7853981633974483
 42
2.332132402899037
  0
LWPOLYLINE
  5
1FC
330
1BA
100
AcDbEntity
  8
0
  6
Continuous
 62
     0
370
    30
100
AcDbPolyline
 90
       11
 70
     0
 43
0.0
 10
787.36792
 20
850.274536
 10
788.587585
 20
851.615845
 10
789.706421
 20
853.026123
 10
790.716858
 20
854.496033
 10
791.609131
 20
856.012817
 10
792.375671
 20
857.565979
 10
793.013245
 20
859.149536
 10
793.518372
 20
860.756592
 10
793.885864
 20
862.37738
 10
794.110901
 20
864.001526
 10
794.190308
 20
865.677734
  0
ELLIPSE
  5
1FD
330
1BA
100
AcDbEntity
  8
0
  6
Continuous
 62
     0
370
    30
100
AcDbEllipse
 10
772.190366
 20
861.53599
 30
0.0
 11
-22.0
 21
0.0
 31
0.0
210
0.0
220
0.0
230
1.0
 40
0.707107
 41
0.6323989358671653
 42
0.7853981633974474
  0
LWPOLYLINE
  5
1FE
330
1BA
100
AcDbEntity
  8
0
  6
Continuous
 62
     0
370
     0
100
AcDbPolyline
 90
       38
 70
     0
 43
0.0
 10
756.987549
 20
872.706299
 10
755.754761
 20
873.655518
 10
754.637451
 20
874.67749
 10
753.647278
 20
875.76178
 10
752.792847
 20
876.899353
 10
752.077454
 20
878.084229
 10
751.506104
 20
879.308899
 10
751.08313
 20
880.564331
 10
750.812073
 20
881.841064
 10
750.695557
 20
883.129456
 10
750.733765
 20
884.419678
 10
750.926147
 20
885.701782
 10
751.271362
 20
886.966736
 10
751.766846
 20
888.206604
 10
752.409973
 20
889.413391
 10
753.195801
 20
890.578369
 10
754.11853
 20
891.692261
 10
755.171631
 20
892.746399
 10
756.347107
 20
893.733521
 10
757.636719
 20
894.646484
 10
759.03125
 20
895.478882
 10
760.520752
 20
896.224854
 10
762.094849
 20
896.878662
 10
763.741394
 20
897.435852
 10
765.447327
 20
897.89209
 10
767.200134
 20
898.243958
 10
768.988647
 20
898.489563
 10
770.801514
 20
898.627197
 10
772.626099
 20
898.655762
 10
774.448303
 20
898.575012
 10
776.254211
 20
898.384949
 10
778.030273
 20
898.087402
 10
779.762878
 20
897.684937
 10
781.439392
 20
897.18042
 10
783.049255
 20
896.577637
 10
784.583862
 20
895.878845
 10
786.030579
 20
895.090088
 10
787.393188
 20
894.206299
  0
LWPOLYLINE
  5
1FF
330
1BA
100
AcDbEntity
  8
0
  6
Continuous
 62
     0
370
     0
100
AcDbPolyline
 90
       38
 70
     0
 43
0.0
 10
787.393188
 20
894.206299
 10
788.625977
 20
893.257141
 10
789.743225
 20
892.235168
 10
790.733398
 20
891.150818
 10
791.58783
 20
890.013245
 10
792.303345
 20
888.828369
 10
792.874634
 20
887.60376
 10
793.297607
 20
886.348328
 10
793.568604
 20
885.071594
 10
793.68512
 20
883.783142
 10
793.646973
 20
882.492981
 10
793.45459
 20
881.210876
 10
793.109375
 20
879.945923
 10
792.613953
 20
878.706055
 10
791.970825
 20
877.499268
 10
791.184937
 20
876.334351
 10
790.262268
 20
875.220459
 10
789.209167
 20
874.16626
 10
788.033691
 20
873.179199
 10
786.744141
 20
872.266174
 10
785.34967
 20
871.433777
 10
783.860168
 20
870.687805
 10
782.286011
 20
870.033997
 10
780.639526
 20
869.476807
 10
778.933594
 20
869.020569
 10
777.180786
 20
868.668701
 10
775.392334
 20
868.423035
 10
773.579407
 20
868.2854
 10
771.754883
 20
868.256775
 10
769.932678
 20
868.337585
 10
768.12677
 20
868.527649
 10
766.350769
 20
868.825195
 10
764.618164
 20
869.227661
 10
762.941589
 20
869.732056
 10
761.331726
 20
870.334778
 10
759.797119
 20
871.033569
 10
758.350403
 20
871.822388
 10
756.987549
 20
872.706299
  0
ELLIPSE
  5
200
330
1BA
100
AcDbEntity
  8
0
  6
Continuous
 62
     0
370
     0
100
AcDbEllipse
 10
731.178173
 20
843.849699
 30
0.0
 11
3.752777033837834
 21
-5.307228225715781
 31
0.0
210
0.0
220
0.0
230
1.0
 40
0.5
 41
6.281300774652584
 42
6.898665024028095
  0
ELLIPSE
  5
201
330
1BA
100
AcDbEntity
  8
0
  6
Continuous
 62
     0
370
     0
100
AcDbEllipse
 10
731.178173
 20
843.849699
 30
0.0
 11
3.752777033837834
 21
-5.307228225715781
 31
0.0
210
0.0
220
0.0
230
1.0
 40
0.5
 41
0.6154797168485118
 42
3.147400282373929
  0
ELLIPSE
  5
202
330
1BA
100
AcDbEntity
  8
0
  6
Continuous
 62
     0
370
     0
100
AcDbEllipse
 10
730.471066
 20
843.349699
 30
0.0
 11
3.1754267681221
 21
-4.490731642331643
 31
0.0
210
0.0
220
0.0
230
1.0
 40
0.5
 41
0.6154797168485109
 42
3.757072370438302
  0
ELLIPSE
  5
203
330
1BA
100
AcDbEntity
  8
0
  6
Continuous
 62
     0
370
     0
100
AcDbEllipse
 10
730.471066
 20
843.349699
 30
0.0
 11
3.1754267681221
 21
-4.490731642331643
 31
0.0
210
0.0
220
0.0
230
1.0
 40
0.5
 41
3.757072370438301
 42
6.898665024028095
  0
ELLIPSE
  5
204
330
1BA
100
AcDbEntity
  8
0
  6
Continuous
 62
     0
370
    30
100
AcDbEllipse
 10
772.190355
 20
253.424143
 30
0.0
 11
49.99999999999979
 21
-1.152882916910509E-6
 31
0.0
210
0.0
220
0.0
230
-1.0
 40
0.707107
 41
5.16798789116678
 42
6.914069107102621
  0
ELLIPSE
  5
205
330
1BA
100
AcDbEntity
  8
0
  6
Continuous
 62
     0
370
    30
100
AcDbEllipse
 10
772.190355
 20
253.424143
 30
0.0
 11
49.99999999999979
 21
-1.152882916910509E-6
 31
0.0
210
0.0
220
0.0
230
-1.0
 40
0.707107
 41
3.772476453512826
 42
4.256790551588264
  0
ELLIPSE
  5
206
330
1BA
100
AcDbEntity
  8
0
  6
Continuous
 62
     0
370
    30
100
AcDbEllipse
 10
772.190355
 20
253.424143
 30
0.0
 11
49.99999999999979
 21
-1.152882916910509E-6
 31
0.0
210
0.0
220
0.0
230
-1.0
 40
0.707107
 41
0.6308837999230348
 42
3.772476453512826
  0
ELLIPSE
  5
207
330
1BA
100
AcDbEntity
  8
0
  6
Continuous
 62
     0
370
    30
100
AcDbEllipse
 10
772.190355
 20
242.110435
 30
0.0
 11
-49.99999999999979
 21
1.152882916910509E-6
 31
0.0
210
0.0
220
0.0
230
1.0
 40
0.707107
 41
6.283185298622449
 42
8.793894160846344
  0
ELLIPSE
  5
208
330
1BA
100
AcDbEntity
  8
0
  6
Continuous
 62
     0
370
    30
100
AcDbEllipse
 10
772.190355
 20
242.110435
 30
0.0
 11
-49.99999999999979
 21
1.152882916910509E-6
 31
0.0
210
0.0
220
0.0
230
1.0
 40
0.707107
 41
2.510708853666758
 42
3.141592645032655
  0
ELLIPSE
  5
209
330
1BA
100
AcDbEntity
  8
0
  6
Continuous
 62
     0
370
    30
100
AcDbEllipse
 10
772.190366
 20
253.424151
 30
0.0
 11
21.99999983806492
 21
-7.285039740013486E-9
 31
0.0
210
0.0
220
0.0
230
-1.0
 40
0.707107
 41
2.356194489958195
 42
3.141592662146927
  0
ELLIPSE
  5
20A
330
1BA
100
AcDbEntity
  8
0
  6
Continuous
 62
     0
370
    30
100
AcDbEllipse
 10
772.190366
 20
253.424151
 30
0.0
 11
21.99999983806492
 21
-7.285039740013486E-9
 31
0.0
210
0.0
220
0.0
230
-1.0
 40
0.707107
 41
0.0000000085571328
 42
2.356194489958195
  0
LWPOLYLINE
  5
20B
330
1BA
100
AcDbEntity
  8
0
  6
Continuous
 62
     0
370
     0
100
AcDbPolyline
 90
       10
 70
     0
 43
0.0
 10
750.977173
 20
832.39386
 10
750.218811
 20
832.95459
 10
749.576904
 20
833.4776
 10
749.057922
 20
833.950195
 10
748.654785
 20
834.364868
 10
748.355652
 20
834.715942
 10
748.146423
 20
835.000488
 10
748.01355
 20
835.214844
 10
747.943481
 20
835.354004
 10
747.923706
 20
835.411133
  0
LWPOLYLINE
  5
20C
330
1BA
100
AcDbEntity
  8
0
  6
Continuous
 62
     0
370
     0
100
AcDbPolyline
 90
       12
 70
     0
 43
0.0
 10
756.634033
 20
842.05072
 10
756.577454
 20
841.213196
 10
756.40918
 20
840.312439
 10
756.131897
 20
839.365906
 10
755.750183
 20
838.390686
 10
755.272461
 20
837.407227
 10
754.707764
 20
836.436462
 10
754.067627
 20
835.498657
 10
753.366577
 20
834.613037
 10
752.619385
 20
833.798584
 10
751.839661
 20
833.069885
 10
750.977173
 20
832.39386
  0
LWPOLYLINE
  5
20D
330
1BA
100
AcDbEntity
  8
0
  6
Continuous
 62
     0
370
     0
100
AcDbPolyline
 90
       19
 70
     0
 43
0.0
 10
750.413635
 20
838.658752
 10
750.427979
 20
839.540344
 10
750.456665
 20
840.351196
 10
750.501892
 20
841.088745
 10
750.566345
 20
841.751343
 10
750.65387
 20
842.337646
 10
750.768738
 20
842.846741
 10
750.916199
 20
843.27771
 10
751.101929
 20
843.629639
 10
751.332336
 20
843.900696
 10
751.61438
 20
844.088379
 10
751.955566
 20
844.189453
 10
752.364502
 20
844.199524
 10
752.849243
 20
844.113342
 10
753.417664
 20
843.925354
 10
754.076294
 20
843.629883
 10
754.827271
 20
843.223633
 10
755.66687
 20
842.706909
 10
756.634033
 20
842.05072
  0
LWPOLYLINE
  5
20E
330
1BA
100
AcDbEntity
  8
0
  6
Continuous
 62
     0
370
     0
100
AcDbPolyline
 90
        2
 70
     0
 43
0.0
 10
756.634033
 20
816.594849
 10
756.30365
 20
816.841736
  0
ARC
  5
20F
330
1BA
100
AcDbEntity
  8
0
  6
Continuous
 62
     0
370
     0
100
AcDbCircle
 10
751.48012
 20
816.601391
 30
0.0
 40
5.153901760077924
100
AcDbArc
 50
359.927331
 51
5.114227
  0
ELLIPSE
  5
210
330
1BA
100
AcDbEntity
  8
0
  6
Continuous
 62
     0
370
    30
100
AcDbEllipse
 10
772.190367
 20
860.828884
 30
0.0
 11
21.99999983806492
 21
-7.285039740013486E-9
 31
0.0
210
0.0
220
0.0
230
-1.0
 40
0.707107
 41
2.356194489958197
 42
2.541802580203624
  0
ELLIPSE
  5
211
330
1BA
100
AcDbEntity
  8
0
  6
Continuous
 62
     0
370
    30
100
AcDbEllipse
 10
772.190367
 20
860.828884
 30
0.0
 11
21.99999983806492
 21
-7.285039740013486E-9
 31
0.0
210
0.0
220
0.0
230
-1.0
 40
0.707107
 41
6.145791473849308
 42
8.639379797137781
  0
LWPOLYLINE
  5
212
330
1BA
100
AcDbEntity
  8
0
  6
Continuous
 62
     0
370
     0
100
AcDbPolyline
 90
       42
 70
     0
 43
0.0
 10
756.634033
 20
842.05072
 10
757.52179
 20
841.402527
 10
758.439697
 20
840.691711
 10
759.369812
 20
839.932739
 10
760.296448
 20
839.138123
 10
761.205566
 20
838.319275
 10
762.087158
 20
837.484497
 10
762.934204
 20
836.639038
 10
763.740784
 20
835.786926
 10
764.502319
 20
834.930969
 10
765.215942
 20
834.071777
 10
765.878723
 20
833.2099
 10
766.487305
 20
832.345703
 10
767.038818
 20
831.479492
 10
767.530396
 20
830.610901
 10
767.959229
 20
829.739624
 10
768.322571
 20
828.865967
 10
768.617554
 20
827.990417
 10
768.841675
 20
827.114258
 10
768.992737
 20
826.239014
 10
769.069153
 20
825.366943
 10
769.069946
 20
824.500977
 10
768.995178
 20
823.644348
 10
768.845947
 20
822.800842
 10
768.623779
 20
821.974609
 10
768.330627
 20
821.170166
 10
767.96875
 20
820.392029
 10
767.541199
 20
819.645203
 10
767.051025
 20
818.934692
 10
766.500977
 20
818.265991
 10
765.893738
 20
817.644836
 10
765.232361
 20
817.078369
 10
764.519836
 20
816.574463
 10
763.759277
 20
816.141479
 10
762.953735
 20
815.788879
 10
762.107666
 20
815.528137
 10
761.226807
 20
815.371765
 10
760.318176
 20
815.333008
 10
759.391846
 20
815.425232
 10
758.461609
 20
815.659973
 10
757.543274
 20
816.044495
 10
756.634033
 20
816.594849
  0
LWPOLYLINE
  5
213
330
1BA
100
AcDbEntity
  8
0
  6
Continuous
 62
     0
370
     0
100
AcDbPolyline
 90
       26
 70
     0
 43
0.0
 10
762.290222
 20
823.322327
 10
762.252319
 20
823.799072
 10
762.136963
 20
824.25946
 10
761.955688
 20
824.705566
 10
761.711426
 20
825.132507
 10
761.411804
 20
825.53949
 10
761.064331
 20
825.927795
 10
760.676941
 20
826.300842
 10
760.254883
 20
826.659851
 10
759.80304
 20
827.007751
 10
759.325195
 20
827.346985
 10
758.824768
 20
827.679443
 10
758.304871
 20
828.00708
 10
757.767761
 20
828.331909
 10
757.215576
 20
828.655823
 10
756.650757
 20
828.980286
 10
756.075684
 20
829.30658
 10
755.492859
 20
829.635803
 10
754.904907
 20
829.968689
 10
754.314697
 20
830.305725
 10
753.725891
 20
830.6474
 10
753.143616
 20
830.99292
 10
752.573608
 20
831.341248
 10
752.020386
 20
831.691284
 10
751.490173
 20
832.040588
 10
750.977173
 20
832.39386
  0
LWPOLYLINE
  5
214
330
1BA
100
AcDbEntity
  8
0
  6
Continuous
 62
     0
370
     0
100
AcDbPolyline
 90
       12
 70
     0
 43
0.0
 10
759.446045
 20
819.063721
 10
759.86377
 20
819.373779
 10
760.260925
 20
819.703064
 10
760.634766
 20
820.050598
 10
760.981995
 20
820.415466
 10
761.299133
 20
820.796753
 10
761.581604
 20
821.19281
 10
761.823792
 20
821.601501
 10
762.020264
 20
822.020203
 10
762.166382
 20
822.445801
 10
762.257996
 20
822.874939
 10
762.290222
 20
823.322327
  0
ELLIPSE
  5
215
330
1BA
100
AcDbEntity
  8
0
  6
Continuous
 62
     0
370
    30
100
AcDbEllipse
 10
709.611409
 20
764.143537
 30
0.0
 11
-9.9
 21
3.278240429116508E-9
 31
0.0
210
0.0
220
0.0
230
1.0
 40
0.707107
 41
0.5424307553232737
 42
3.089902963850555
  0
ELLIPSE
  5
216
330
1BA
100
AcDbEntity
  8
0
  6
Continuous
 62
     0
370
    30
100
AcDbEllipse
 10
709.611409
 20
764.143537
 30
0.0
 11
-9.9
 21
3.278240429116508E-9
 31
0.0
210
0.0
220
0.0
230
1.0
 40
0.707107
 41
0.051689672624966
 42
0.5424307553232737
  0
ELLIPSE
  5
217
330
1BA
100
AcDbEntity
  8
0
  6
Continuous
 62
     0
370
    30
100
AcDbEllipse
 10
709.611409
 20
785.356741
 30
0.0
 11
-11.45000000000001
 21
3.791507921513395E-9
 31
0.0
210
0.0
220
0.0
230
1.0
 40
0.707107
 41
1.672961028666766
 42
3.03942795218622
  0
ELLIPSE
  5
218
330
1BA
100
AcDbEntity
  8
0
  6
Continuous
 62
     0
370
    30
100
AcDbEllipse
 10
814.342766
 20
658.238918
 30
0.0
 11
10.03275521737465
 21
-3.322266098425286E-9
 31
0.0
210
0.0
220
0.0
230
-1.0
 40
0.707107
 41
1.733490429628271
 42
2.025133258773757
  0
ELLIPSE
  5
219
330
1BA
100
AcDbEntity
  8
0
  6
Continuous
 62
     0
370
    30
100
AcDbEllipse
 10
814.342766
 20
658.238918
 30
0.0
 11
10.03275521737465
 21
-3.322266098425286E-9
 31
0.0
210
0.0
220
0.0
230
-1.0
 40
0.707107
 41
0.0489276870914041
 42
1.414605548600574
  0
ELLIPSE
  5
21A
330
1BA
100
AcDbEntity
  8
0
  6
Continuous
 62
     0
370
    30
100
AcDbEllipse
 10
814.342766
 20
658.238918
 30
0.0
 11
10.03275521737465
 21
-3.322266098425286E-9
 31
0.0
210
0.0
220
0.0
230
-1.0
 40
0.707107
 41
2.025133258773757
 42
2.978898550288119
  0
LWPOLYLINE
  5
21B
330
1BA
100
AcDbEntity
  8
0
  6
Continuous
 62
     0
370
    30
100
AcDbPolyline
 90
       19
 70
     0
 43
0.0
 10
798.923767
 20
783.165527
 10
798.895386
 20
782.198364
 10
798.824585
 20
781.114197
 10
798.730164
 20
779.953552
 10
798.632629
 20
778.745483
 10
798.549377
 20
777.509277
 10
798.494934
 20
776.256409
 10
798.480164
 20
774.994934
 10
798.514648
 20
773.732483
 10
798.607422
 20
772.476257
 10
798.766113
 20
771.233398
 10
798.99823
 20
770.011292
 10
799.310547
 20
768.82019
 10
799.70929
 20
767.672363
 10
800.199707
 20
766.580811
 10
800.784851
 20
765.561157
 10
801.466736
 20
764.629517
 10
802.239929
 20
763.804199
 10
803.118164
 20
763.085449
  0
LWPOLYLINE
  5
21C
330
1BA
100
AcDbEntity
  8
0
  6
Continuous
 62
     0
370
    30
100
AcDbPolyline
 90
       22
 70
     0
 43
0.0
 10
803.118164
 20
763.085449
 10
803.909119
 20
762.594177
 10
804.74646
 20
762.20459
 10
805.61792
 20
761.91925
 10
806.510742
 20
761.73938
 10
807.415955
 20
761.66095
 10
808.325378
 20
761.678406
 10
809.231262
 20
761.786011
 10
810.127319
 20
761.977661
 10
811.007812
 20
762.246948
 10
811.867126
 20
762.587708
 10
812.700867
 20
762.994873
 10
813.504883
 20
763.46344
 10
814.274536
 20
763.98877
 10
815.003052
 20
764.56665
 10
815.68335
 20
765.193237
 10
816.307251
 20
765.864441
 10
816.862549
 20
766.576416
 10
817.332825
 20
767.323303
 10
817.697388
 20
768.096313
 10
817.932007
 20
768.882263
 10
818.015625
 20
769.665527
  0
LWPOLYLINE
  5
21D
330
1BA
100
AcDbEntity
  8
0
  6
Continuous
 62
     0
370
    30
100
AcDbPolyline
 90
       12
 70
     0
 43
0.0
 10
814.491455
 20
764.151978
 10
813.58197
 20
763.605591
 10
812.638733
 20
763.132996
 10
811.666443
 20
762.741089
 10
810.670471
 20
762.437378
 10
809.658142
 20
762.230835
 10
808.636963
 20
762.130615
 10
807.616028
 20
762.145691
 10
806.606445
 20
762.284241
 10
805.619873
 20
762.554138
 10
804.673279
 20
762.956543
 10
803.736328
 20
763.522583
  0
LWPOLYLINE
  5
21E
330
1BA
100
AcDbEntity
  8
0
  6
Continuous
 62
     0
370
    30
100
AcDbPolyline
 90
       12
 70
     0
 43
0.0
 10
803.736328
 20
763.522583
 10
802.931946
 20
764.174988
 10
802.201172
 20
764.941528
 10
801.553772
 20
765.806152
 10
800.996216
 20
766.751953
 10
800.526855
 20
767.764771
 10
800.14325
 20
768.830994
 10
799.841553
 20
769.938477
 10
799.616333
 20
771.077393
 10
799.462097
 20
772.237915
 10
799.372986
 20
773.412659
 10
799.342773
 20
774.687561
  0
LINE
  5
21F
330
1BA
100
AcDbEntity
  8
0
  6
Continuous
 62
     0
370
     0
100
AcDbLine
 10
799.342766
 20
783.46179
 30
0.0
 11
798.923761
 21
783.165509
 31
0.0
  0
LINE
  5
220
330
1BA
100
AcDbEntity
  8
0
  6
Continuous
 62
     0
370
    30
100
AcDbLine
 10
818.015644
 20
769.665509
 30
0.0
 11
818.133082
 21
804.750336
 31
0.0
  0
LWPOLYLINE
  5
221
330
1BA
100
AcDbEntity
  8
0
  6
Continuous
 62
     0
370
    30
100
AcDbPolyline
 90
       23
 70
     0
 43
0.0
 10
818.133057
 20
804.750366
 10
818.061523
 20
805.467773
 10
817.849731
 20
806.148987
 10
817.515808
 20
806.788452
 10
817.081787
 20
807.391357
 10
816.566589
 20
807.964844
 10
815.98584
 20
808.516724
 10
815.351013
 20
809.054993
 10
814.670288
 20
809.585266
 10
813.949829
 20
810.111694
 10
813.195862
 20
810.638245
 10
812.413147
 20
811.167786
 10
811.605286
 20
811.701965
 10
810.775879
 20
812.24231
 10
809.929138
 20
812.789612
 10
809.070068
 20
813.343201
 10
808.203674
 20
813.902344
 10
807.335693
 20
814.465698
 10
806.473083
 20
815.030579
 10
805.622864
 20
815.594177
 10
804.793213
 20
816.152649
 10
803.995483
 20
816.698853
 10
803.212585
 20
817.245911
  0
LWPOLYLINE
  5
222
330
1BA
100
AcDbEntity
  8
0
  6
Continuous
 62
     0
370
    30
100
AcDbPolyline
 90
       21
 70
     0
 43
0.0
 10
803.212585
 20
817.245911
 10
802.440186
 20
817.799438
 10
801.731201
 20
818.321594
 10
801.094299
 20
818.805237
 10
800.535889
 20
819.244202
 10
800.055298
 20
819.636292
 10
799.650635
 20
819.979858
 10
799.319092
 20
820.273621
 10
799.056335
 20
820.51709
 10
798.857727
 20
820.709473
 10
798.718384
 20
820.849854
 10
798.632751
 20
820.936707
 10
798.595215
 20
820.968201
 10
798.599426
 20
820.940247
 10
798.638245
 20
820.846558
 10
798.704346
 20
820.680359
 10
798.788391
 20
820.430664
 10
798.878723
 20
820.08252
 10
798.961182
 20
819.619019
 10
799.019897
 20
819.023376
 10
799.041199
 20
818.250366
  0
LINE
  5
223
330
1BA
100
AcDbEntity
  8
0
  6
Continuous
 62
     0
370
     0
100
AcDbLine
 10
799.041199
 20
818.250336
 30
0.0
 11
799.342766
 21
818.463576
 31
0.0
  0
LINE
  5
224
330
1BA
100
AcDbEntity
  8
0
  6
Continuous
 62
     0
370
    30
100
AcDbLine
 10
799.041199
 20
818.250336
 30
0.0
 11
798.923761
 21
783.165509
 31
0.0
  0
ELLIPSE
  5
225
330
1BA
100
AcDbEntity
  8
0
  6
Continuous
 62
     0
370
    30
100
AcDbEllipse
 10
814.342766
 20
679.452121
 30
0.0
 11
-16.10000000000002
 21
0.0
 31
0.0
210
0.0
220
0.0
230
1.0
 40
0.707107
 41
0.7853981633974483
 42
3.143337976708379
  0
ELLIPSE
  5
226
330
1BA
100
AcDbEntity
  8
0
  6
Continuous
 62
     0
370
    30
100
AcDbEllipse
 10
814.342766
 20
679.452121
 30
0.0
 11
-16.10000000000002
 21
0.0
 31
0.0
210
0.0
220
0.0
230
1.0
 40
0.707107
 41
6.281439966478411
 42
7.068583470577031
  0
ELLIPSE
  5
227
330
1BA
100
AcDbEntity
  8
0
  6
Continuous
 62
     0
370
     0
100
AcDbEllipse
 10
814.342766
 20
827.945781
 30
0.0
 11
15.73347743874463
 21
-5.210016975385297E-9
 31
0.0
210
0.0
220
0.0
230
-1.0
 40
0.707107
 41
2.356194489958205
 42
3.144296194128832
  0
ELLIPSE
  5
228
330
1BA
100
AcDbEntity
  8
0
  6
Continuous
 62
     0
370
     0
100
AcDbEllipse
 10
814.342766
 20
827.945781
 30
0.0
 11
15.73347743874463
 21
-5.210016975385297E-9
 31
0.0
210
0.0
220
0.0
230
-1.0
 40
0.707107
 41
6.28091860594072
 42
8.639379797137781
  0
ELLIPSE
  5
229
330
1BA
100
AcDbEntity
  8
0
  6
Continuous
 62
     0
370
     0
100
AcDbEllipse
 10
814.342766
 20
828.651653
 30
0.0
 11
-14.73347896183132
 21
0.0
 31
0.0
210
0.0
220
0.0
230
1.0
 40
0.707107
 41
0.7853981633974492
 42
3.926990816987239
  0
ELLIPSE
  5
22A
330
1BA
100
AcDbEntity
  8
0
  6
Continuous
 62
     0
370
     0
100
AcDbEllipse
 10
814.342766
 20
828.651653
 30
0.0
 11
-14.73347896183132
 21
0.0
 31
0.0
210
0.0
220
0.0
230
1.0
 40
0.707107
 41
3.926990816987239
 42
7.068583470577034
  0
LWPOLYLINE
  5
22B
330
1BA
100
AcDbEntity
  8
0
  6
Continuous
 62
     0
370
     0
100
AcDbPolyline
 90
       17
 70
     0
 43
0.0
 10
803.947327
 20
764.982971
 10
803.245728
 20
765.575256
 10
802.619995
 20
766.299133
 10
802.079712
 20
767.128357
 10
801.625183
 20
768.036621
 10
801.253174
 20
768.999146
 10
800.955933
 20
769.996094
 10
800.724426
 20
771.011963
 10
800.549377
 20
772.033997
 10
800.42218
 20
773.052185
 10
800.334351
 20
774.058167
 10
800.277588
 20
775.043579
 10
800.244263
 20
776.000671
 10
800.227356
 20
776.921631
 10
800.220581
 20
777.798401
 10
800.218872
 20
778.622986
 10
800.21875
 20
779.391846
  0
LWPOLYLINE
  5
22C
330
1BA
100
AcDbEntity
  8
0
  6
Continuous
 62
     0
370
     0
100
AcDbPolyline
 90
        5
 70
     0
 43
0.0
 10
800.21875
 20
779.391846
 10
799.923645
 20
779.403809
 10
799.656677
 20
779.495789
 10
799.46228
 20
779.653503
 10
799.36554
 20
779.884399
  0
LWPOLYLINE
  5
22D
330
1BA
100
AcDbEntity
  8
0
  6
Continuous
 62
     0
370
     0
100
AcDbPolyline
 90
       18
 70
     0
 43
0.0
 10
799.36554
 20
779.884399
 10
799.368958
 20
779.118896
 10
799.378601
 20
778.294678
 10
799.397034
 20
777.41925
 10
799.427979
 20
776.500488
 10
799.476074
 20
775.545776
 10
799.546753
 20
774.5625
 10
799.645996
 20
773.558044
 10
799.780212
 20
772.539368
 10
799.956421
 20
771.513367
 10
800.181946
 20
770.487854
 10
800.464478
 20
769.472473
 10
800.81189
 20
768.478271
 10
801.231812
 20
767.519531
 10
801.730225
 20
766.613892
 10
802.309753
 20
765.783081
 10
802.968811
 20
765.049927
 10
803.736145
 20
764.410095
  0
ELLIPSE
  5
22E
330
1BA
100
AcDbEntity
  8
0
  6
Continuous
 62
     0
370
     0
100
AcDbEllipse
 10
804.266494
 20
764.785094
 30
0.0
 11
-0.4329954923133712
 21
-0.612384604343
 31
0.0
210
0.0
220
0.0
230
-1.0
 40
0.50003
 41
0.6154937668939988
 42
1.540518270450878
  0
LINE
  5
22F
330
1BA
100
AcDbEntity
  8
0
  6
Continuous
 62
     0
370
     0
100
AcDbLine
 10
799.365566
 20
814.9859
 30
0.0
 11
799.365566
 21
779.884428
 31
0.0
  0
LINE
  5
230
330
1BA
100
AcDbEntity
  8
0
  6
Continuous
 62
     0
370
     0
100
AcDbLine
 10
800.218806
 20
779.391844
 30
0.0
 11
800.218806
 21
814.48996
 31
0.0
  0
ELLIPSE
  5
231
330
1BA
100
AcDbEntity
  8
0
  6
Continuous
 62
     0
370
     0
100
AcDbEllipse
 10
800.114426
 20
815.015129
 30
0.0
 11
0.749999999999981
 21
-2.483564603972192E-10
 31
0.0
210
0.0
220
0.0
230
-1.0
 40
0.707107
 41
1.43116998640107
 42
3.086449342338944
  0
LWPOLYLINE
  5
232
330
1BA
100
AcDbEntity
  8
0
  6
Continuous
 62
     0
370
     0
100
AcDbPolyline
 90
        5
 70
     0
 43
0.0
 10
812.814636
 20
805.68335
 10
812.832397
 20
805.475037
 10
812.963318
 20
805.286621
 10
813.187927
 20
805.150146
 10
813.516052
 20
805.083557
  0
LWPOLYLINE
  5
233
330
1BA
100
AcDbEntity
  8
0
  6
Continuous
 62
     0
370
     0
100
AcDbPolyline
 90
       14
 70
     0
 43
0.0
 10
813.516052
 20
805.083557
 10
813.418945
 20
806.035156
 10
813.166504
 20
806.9823
 10
812.768372
 20
807.91925
 10
812.236816
 20
808.84491
 10
811.585266
 20
809.760864
 10
810.82666
 20
810.669861
 10
809.972595
 20
811.575256
 10
809.034424
 20
812.479004
 10
808.025146
 20
813.379944
 10
806.961304
 20
814.272644
 10
805.867554
 20
815.144043
 10
804.778748
 20
815.972046
 10
803.736145
 20
816.728516
  0
ELLIPSE
  5
234
330
1BA
100
AcDbEntity
  8
0
  6
Continuous
 62
     0
370
     0
100
AcDbEllipse
 10
804.266494
 20
817.103543
 30
0.0
 11
0.4329939142353182
 21
0.6123857201431141
 31
0.0
210
0.0
220
0.0
230
1.0
 40
0.500033
 41
2.52609759814702
 42
3.141641588354648
  0
ELLIPSE
  5
235
330
1BA
100
AcDbEntity
  8
0
  6
Continuous
 62
     0
370
     0
100
AcDbEllipse
 10
813.557372
 20
770.507161
 30
0.0
 11
-0.7499999999999589
 21
2.483564603972119E-10
 31
0.0
210
0.0
220
0.0
230
1.0
 40
0.707107
 41
6.283185298622477
 42
7.798838323191992
  0
LINE
  5
236
330
1BA
100
AcDbEntity
  8
0
  6
Continuous
 62
     0
370
     0
100
AcDbLine
 10
813.516035
 20
769.977637
 30
0.0
 11
813.516036
 21
805.083554
 31
0.0
  0
LWPOLYLINE
  5
237
330
1BA
100
AcDbEntity
  8
0
  6
Continuous
 62
     0
370
     0
100
AcDbPolyline
 90
       10
 70
     0
 43
0.0
 10
801.036377
 20
818.078064
 10
800.756958
 20
818.077026
 10
800.552429
 20
817.977905
 10
800.409851
 20
817.782959
 10
800.316833
 20
817.493286
 10
800.261719
 20
817.107666
 10
800.233337
 20
816.624084
 10
800.221924
 20
816.040222
 10
800.218872
 20
815.354919
 10
800.218811
 20
814.48999
  0
LINE
  5
238
330
1BA
100
AcDbEntity
  8
0
  6
Continuous
 62
     0
370
     0
100
AcDbLine
 10
800.218806
 20
814.48996
 30
0.0
 11
802.823459
 21
814.748804
 31
0.0
  0
LWPOLYLINE
  5
239
330
1BA
100
AcDbEntity
  8
0
  6
Continuous
 62
     0
370
    30
100
AcDbPolyline
 90
        4
 70
     0
 43
0.0
 10
802.823486
 20
814.748779
 10
803.03595
 20
815.46991
 10
803.26886
 20
816.09375
 10
803.565979
 20
816.678406
  0
LINE
  5
23A
330
1BA
100
AcDbEntity
  8
0
  6
Continuous
 62
     0
370
     0
100
AcDbLine
 10
800.218761
 20
779.39167
 30
0.0
 11
802.707754
 21
779.647578
 31
0.0
  0
LWPOLYLINE
  5
23B
330
1BA
100
AcDbEntity
  8
0
  6
Continuous
 62
     0
370
    30
100
AcDbPolyline
 90
       10
 70
     0
 43
0.0
 10
801.250549
 20
786.536316
 10
800.829346
 20
789.601257
 10
800.55603
 20
792.689331
 10
800.43158
 20
795.796997
 10
800.456726
 20
798.920837
 10
800.631409
 20
802.057007
 10
800.954651
 20
805.201965
 10
801.425049
 20
808.351868
 10
802.040405
 20
811.503296
 10
802.823486
 20
814.748779
  0
LWPOLYLINE
  5
23C
330
1BA
100
AcDbEntity
  8
0
  6
Continuous
 62
     0
370
     0
100
AcDbPolyline
 90
       18
 70
     0
 43
0.0
 10
803.947327
 20
764.982971
 10
804.654724
 20
764.567017
 10
805.399536
 20
764.287964
 10
806.15686
 20
764.146301
 10
806.908325
 20
764.134399
 10
807.642517
 20
764.237488
 10
808.349609
 20
764.441101
 10
809.022949
 20
764.732361
 10
809.656738
 20
765.098999
 10
810.246216
 20
765.530701
 10
810.787354
 20
766.01886
 10
811.275818
 20
766.555359
 10
811.706726
 20
767.133118
 10
812.074829
 20
767.745056
 10
812.374695
 20
768.384766
 10
812.600708
 20
769.045959
 10
812.747681
 20
769.72168
 10
812.812927
 20
770.442688
  0
LWPOLYLINE
  5
23D
330
1BA
100
AcDbEntity
  8
0
  6
Continuous
 62
     0
370
    30
100
AcDbPolyline
 90
       11
 70
     0
 43
0.0
 10
812.807373
 20
770.820923
 10
812.517761
 20
770.396973
 10
812.150085
 20
770.015686
 10
811.710815
 20
769.687683
 10
811.207336
 20
769.424316
 10
810.647705
 20
769.237732
 10
810.041626
 20
769.140869
 10
809.40033
 20
769.147522
 10
808.737
 20
769.270142
 10
808.0672
 20
769.518738
 10
807.342651
 20
769.942322
  0
LWPOLYLINE
  5
23E
330
1BA
100
AcDbEntity
  8
0
  6
Continuous
 62
     0
370
    30
100
AcDbPolyline
 90
        8
 70
     0
 43
0.0
 10
807.342651
 20
769.942322
 10
806.665955
 20
770.507812
 10
806.045288
 20
771.198975
 10
805.494141
 20
771.985718
 10
805.011719
 20
772.839966
 10
804.592712
 20
773.736572
 10
804.229248
 20
774.653198
 10
803.903015
 20
775.599182
  0
LWPOLYLINE
  5
23F
330
1BA
100
AcDbEntity
  8
0
  6
Continuous
 62
     0
370
     0
100
AcDbPolyline
 90
       18
 70
     0
 43
0.0
 10
803.736145
 20
764.410095
 10
804.531494
 20
763.937805
 10
805.362122
 20
763.614563
 10
806.206543
 20
763.439087
 10
807.046997
 20
763.401489
 10
807.868042
 20
763.488708
 10
808.658264
 20
763.686096
 10
809.409546
 20
763.979248
 10
810.115479
 20
764.355652
 10
810.770325
 20
764.803772
 10
811.368958
 20
765.314026
 10
811.906189
 20
765.877686
 10
812.376343
 20
766.487
 10
812.773376
 20
767.134521
 10
813.091309
 20
767.81311
 10
813.324097
 20
768.515503
 10
813.466797
 20
769.23468
 10
813.516052
 20
769.977661
  0
LWPOLYLINE
  5
240
330
1BA
100
AcDbEntity
  8
0
  6
Continuous
 62
     0
370
     0
100
AcDbPolyline
 90
       16
 70
     0
 43
0.0
 10
803.736145
 20
816.728516
 10
802.903748
 20
817.30249
 10
802.164978
 20
817.780762
 10
801.531433
 20
818.154663
 10
801.002502
 20
818.423035
 10
800.572693
 20
818.587708
 10
800.231018
 20
818.652954
 10
799.965881
 20
818.622437
 10
799.765625
 20
818.49884
 10
799.619324
 20
818.283264
 10
799.516663
 20
817.975281
 10
799.44812
 20
817.573547
 10
799.405701
 20
817.076721
 10
799.381409
 20
816.483398
 10
799.369263
 20
815.794189
 10
799.36554
 20
814.985901
  0
LWPOLYLINE
  5
241
330
1BA
100
AcDbEntity
  8
0
  6
Continuous
 62
     0
370
     0
100
AcDbPolyline
 90
       14
 70
     0
 43
0.0
 10
807.342651
 20
769.942322
 10
806.546082
 20
772.791687
 10
805.877197
 20
775.731323
 10
805.335999
 20
778.76123
 10
804.922424
 20
781.881348
 10
804.636475
 20
785.091797
 10
804.47821
 20
788.392456
 10
804.447571
 20
791.783447
 10
804.544617
 20
795.264648
 10
804.769348
 20
798.836121
 10
805.121643
 20
802.497864
 10
805.601685
 20
806.249878
 10
806.209351
 20
810.092163
 10
806.953918
 20
814.070984
  0
LINE
  5
242
330
1BA
100
AcDbEntity
  8
0
  6
Continuous
 62
     0
370
    30
100
AcDbLine
 10
799.342766
 20
774.662874
 30
0.0
 11
799.342766
 21
820.252246
 31
0.0
  0
ARC
  5
243
330
1BA
100
AcDbEntity
  8
0
  6
Continuous
 62
     0
370
    30
100
AcDbCircle
 10
872.043
 20
797.918284
 30
0.0
 40
71.70214543863231
100
AcDbArc
 50
188.524012
 51
198.247603
  0
LWPOLYLINE
  5
244
330
1BA
100
AcDbEntity
  8
0
  6
Continuous
 62
     0
370
    30
100
AcDbPolyline
 90
        7
 70
     0
 43
0.0
 10
801.036316
 20
818.078003
 10
801.244629
 20
818.023743
 10
801.571533
 20
817.890503
 10
802.001282
 20
817.670959
 10
802.522156
 20
817.365479
 10
803.125549
 20
816.977783
 10
803.833496
 20
816.49115
  0
ARC
  5
245
330
1BA
100
AcDbEntity
  8
0
  6
Continuous
 62
     0
370
    30
100
AcDbCircle
 10
807.581144
 20
770.511006
 30
0.0
 40
5.226321823585803
100
AcDbArc
 50
349.283471
 51
359.872256
  0
LINE
  5
246
330
1BA
100
AcDbEntity
  8
0
  6
Continuous
 62
     0
370
    30
100
AcDbLine
 10
812.807372
 20
770.507161
 30
0.0
 11
812.807372
 21
805.609851
 31
0.0
  0
LWPOLYLINE
  5
247
330
1BA
100
AcDbEntity
  8
0
  6
Continuous
 62
     0
370
    30
100
AcDbPolyline
 90
       14
 70
     0
 43
0.0
 10
812.807556
 20
805.603516
 10
812.722473
 20
806.457275
 10
812.499695
 20
807.315979
 10
812.144348
 20
808.17688
 10
811.665649
 20
809.037842
 10
811.074524
 20
809.897522
 10
810.382935
 20
810.755981
 10
809.602112
 20
811.613525
 10
808.743652
 20
812.469238
 10
807.820007
 20
813.320618
 10
806.84729
 20
814.160645
 10
805.847229
 20
814.976624
 10
804.851807
 20
815.746826
 10
803.833496
 20
816.49115
  0
LWPOLYLINE
  5
248
330
1BA
100
AcDbEntity
  8
0
  6
Continuous
 62
     0
370
    30
100
AcDbPolyline
 90
       33
 70
     0
 43
0.0
 10
830.076233
 20
827.965149
 10
829.994934
 20
829.108337
 10
829.758179
 20
830.23877
 10
829.369385
 20
831.34259
 10
828.834656
 20
832.407349
 10
828.161011
 20
833.423035
 10
827.356079
 20
834.381042
 10
826.428467
 20
835.273132
 10
825.387878
 20
836.092224
 10
824.244568
 20
836.831787
 10
823.009094
 20
837.485535
 10
821.693176
 20
838.04834
 10
820.308838
 20
838.515503
 10
818.868896
 20
838.88324
 10
817.386902
 20
839.148438
 10
815.876404
 20
839.308594
 10
814.351624
 20
839.362671
 10
812.826721
 20
839.309875
 10
811.31604
 20
839.150818
 10
809.833557
 20
838.886963
 10
808.393127
 20
838.520264
 10
807.008057
 20
838.05426
 10
805.691223
 20
837.492615
 10
804.454773
 20
836.839905
 10
803.310181
 20
836.101379
 10
802.268494
 20
835.282959
 10
801.339539
 20
834.391602
 10
800.533081
 20
833.434509
 10
799.857849
 20
832.419495
 10
799.321594
 20
831.355103
 10
798.931091
 20
830.251709
 10
798.692383
 20
829.121399
 10
798.609314
 20
827.965088
  0
LINE
  5
249
330
1BA
100
AcDbEntity
  8
0
  6
Continuous
 62
     0
370
    30
100
AcDbLine
 10
830.442741
 20
679.471991
 30
0.0
 11
830.07622
 21
827.965198
 31
0.0
  0
LINE
  5
24A
330
1BA
100
AcDbEntity
  8
0
  6
Continuous
 62
     0
370
    30
100
AcDbLine
 10
798.242791
 20
679.471991
 30
0.0
 11
798.479304
 21
775.293213
 31
0.0
  0
LINE
  5
24B
330
1BA
100
AcDbEntity
  8
0
  6
Continuous
 62
     0
370
    30
100
AcDbLine
 10
798.609313
 20
827.965198
 30
0.0
 11
798.592034
 21
820.964764
 31
0.0
  0
LINE
  5
24C
330
1BA
100
AcDbEntity
  8
0
  6
Continuous
 62
     0
370
    30
100
AcDbLine
 10
824.363515
 20
657.891952
 30
0.0
 11
825.277924
 21
671.096514
 31
0.0
  0
LINE
  5
24D
330
1BA
100
AcDbEntity
  8
0
  6
Continuous
 62
     0
370
    30
100
AcDbLine
 10
721.017105
 20
784.541904
 30
0.0
 11
719.498187
 21
763.781852
 31
0.0
  0
LINE
  5
24E
330
1BA
100
AcDbEntity
  8
0
  6
Continuous
 62
     0
370
    30
100
AcDbLine
 10
699.327825
 20
769.205267
 30
0.0
 11
699.724632
 21
763.781852
 31
0.0
  0
LINE
  5
24F
330
1BA
100
AcDbEntity
  8
0
  6
Continuous
 62
     0
370
    30
100
AcDbLine
 10
747.923756
 20
835.411155
 30
0.0
 11
728.648127
 21
821.781227
 31
0.0
  0
LINE
  5
250
330
1BA
100
AcDbEntity
  8
0
  6
Continuous
 62
     0
370
    30
100
AcDbLine
 10
759.470727
 20
819.08118
 30
0.0
 11
740.19513
 21
805.451275
 31
0.0
  0
LINE
  5
251
330
1BA
100
AcDbEntity
  8
0
  6
Continuous
 62
     0
370
    30
100
AcDbLine
 10
750.190367
 20
472.989631
 30
0.0
 11
750.190367
 21
253.424152
 31
0.0
  0
LINE
  5
252
330
1BA
100
AcDbEntity
  8
0
  6
Continuous
 62
     0
370
    30
100
AcDbLine
 10
750.190367
 20
812.518974
 30
0.0
 11
750.190367
 21
483.80315
 31
0.0
  0
LINE
  5
253
330
1BA
100
AcDbEntity
  8
0
  6
Continuous
 62
     0
370
    30
100
AcDbLine
 10
750.190367
 20
849.332507
 30
0.0
 11
750.190367
 21
838.101155
 31
0.0
  0
LINE
  5
254
330
1BA
100
AcDbEntity
  8
0
  6
Continuous
 62
     0
370
    30
100
AcDbLine
 10
794.190366
 20
507.648035
 30
0.0
 11
794.190366
 21
253.424151
 31
0.0
  0
LINE
  5
255
330
1BA
100
AcDbEntity
  8
0
  6
Continuous
 62
     0
370
    30
100
AcDbLine
 10
794.190366
 20
664.339165
 30
0.0
 11
794.190366
 21
534.189563
 31
0.0
  0
LINE
  5
256
330
1BA
100
AcDbEntity
  8
0
  6
Continuous
 62
     0
370
    30
100
AcDbLine
 10
794.190366
 20
860.828884
 30
0.0
 11
794.190366
 21
702.306256
 31
0.0
  0
LWPOLYLINE
  5
257
330
1BA
100
AcDbEntity
  8
0
  6
Continuous
 62
     0
370
    30
100
AcDbPolyline
 90
       11
 70
     0
 43
0.0
 10
750.5625
 20
839.221924
 10
750.55072
 20
839.156982
 10
750.504883
 20
838.961304
 10
750.409729
 20
838.647278
 10
750.253052
 20
838.241455
 10
750.027893
 20
837.775085
 10
749.734619
 20
837.280945
 10
749.376831
 20
836.784668
 10
748.958862
 20
836.304443
 10
748.486633
 20
835.853333
 10
747.923706
 20
835.411194
  0
LINE
  5
258
330
1BA
100
AcDbEntity
  8
0
  6
Continuous
 62
     0
370
    30
100
AcDbLine
 10
822.190355
 20
253.424142
 30
0.0
 11
822.190355
 21
242.110433
 31
0.0
  0
LINE
  5
259
330
1BA
100
AcDbEntity
  8
0
  6
Continuous
 62
     0
370
    30
100
AcDbLine
 10
722.190355
 20
253.424145
 30
0.0
 11
722.190355
 21
242.110436
 31
0.0
  0
LWPOLYLINE
  5
25A
330
1BA
100
AcDbEntity
  8
0
  6
Continuous
 62
     0
370
    30
100
AcDbPolyline
 90
       24
 70
     0
 43
0.0
 10
727.424866
 20
849.156494
 10
726.982239
 20
848.751099
 10
726.64801
 20
848.248413
 10
726.427795
 20
847.678589
 10
726.312134
 20
847.059204
 10
726.293091
 20
846.399963
 10
726.363708
 20
845.707947
 10
726.517578
 20
844.990112
 10
726.750305
 20
844.254333
 10
727.057495
 20
843.510742
 10
727.432983
 20
842.770935
 10
727.869873
 20
842.046997
 10
728.360596
 20
841.351624
 10
728.89624
 20
840.69696
 10
729.467529
 20
840.094727
 10
730.065552
 20
839.555359
 10
730.681274
 20
839.087952
 10
731.306763
 20
838.700928
 10
731.935547
 20
838.401367
 10
732.563171
 20
838.196594
 10
733.186523
 20
838.095398
 10
733.798035
 20
838.109985
 10
734.383545
 20
838.253662
 10
734.931091
 20
838.542542
  0
LINE
  5
25B
330
1BA
100
AcDbEntity
  8
0
  6
Continuous
 62
     0
370
    30
100
AcDbLine
 10
748.638599
 20
864.156927
 30
0.0
 11
727.425396
 21
849.156927
 31
0.0
  0
LINE
  5
25C
330
1BA
100
AcDbEntity
  8
0
  6
Continuous
 62
     0
370
    30
100
AcDbLine
 10
756.144154
 20
853.542471
 30
0.0
 11
734.93095
 21
838.542471
 31
0.0
  0
LWPOLYLINE
  5
25D
330
1BA
100
AcDbEntity
  8
0
  6
Continuous
 62
     0
370
    30
100
AcDbPolyline
 90
       39
 70
     0
 43
0.0
 10
794.190369
 20
883.102722
 10
794.114197
 20
884.409912
 10
793.886292
 20
885.708069
 10
793.508789
 20
886.986877
 10
792.985046
 20
888.237
 10
792.31897
 20
889.449585
 10
791.515625
 20
890.616577
 10
790.581116
 20
891.73053
 10
789.522095
 20
892.784058
 10
788.345825
 20
893.770386
 10
787.060608
 20
894.68335
 10
785.675049
 20
895.516785
 10
784.198608
 20
896.265625
 10
782.641296
 20
896.924988
 10
781.013428
 20
897.490479
 10
779.326111
 20
897.958618
 10
777.590698
 20
898.326294
 10
775.818726
 20
898.590942
 10
774.022339
 20
898.751099
 10
772.213501
 20
898.80542
 10
770.404541
 20
898.753723
 10
768.607666
 20
898.596436
 10
766.834961
 20
898.334351
 10
765.098389
 20
897.96936
 10
763.409668
 20
897.503784
 10
761.780212
 20
896.940613
 10
760.220886
 20
896.283691
 10
758.742249
 20
895.537109
 10
757.354309
 20
894.705627
 10
756.066345
 20
893.794739
 10
754.887329
 20
892.810059
 10
753.825134
 20
891.758118
 10
752.887268
 20
890.645752
 10
752.080627
 20
889.47998
 10
751.41095
 20
888.268433
 10
750.883545
 20
887.019165
 10
750.502258
 20
885.741028
 10
750.270447
 20
884.443237
 10
750.190369
 20
883.102661
  0
LINE
  5
25E
330
1BA
100
AcDbEntity
  8
0
  6
Continuous
 62
     0
370
    30
100
AcDbLine
 10
794.190366
 20
865.675882
 30
0.0
 11
794.190366
 21
883.102747
 31
0.0
  0
LINE
  5
25F
330
1BA
100
AcDbEntity
  8
0
  6
Continuous
 62
     0
370
    30
100
AcDbLine
 10
750.190366
 20
865.208332
 30
0.0
 11
750.190366
 21
883.102747
 31
0.0
  0
LWPOLYLINE
  5
260
330
1BA
100
AcDbEntity
  8
0
  6
Continuous
 62
     0
370
    30
100
AcDbPolyline
 90
        8
 70
     0
 43
0.0
 10
751.857971
 20
867.166321
 10
751.842957
 20
867.110229
 10
751.784729
 20
866.945557
 10
751.66748
 20
866.694519
 10
751.484314
 20
866.391113
 10
751.234253
 20
866.067444
 10
750.92218
 20
865.749756
 10
750.50116
 20
865.418823
  0
LINE
  5
261
330
1BA
100
AcDbEntity
  8
0
  6
Continuous
 62
     0
370
    30
100
AcDbLine
 10
757.988794
 20
854.902997
 30
0.0
 11
756.170705
 21
853.56165
 31
0.0
  0
LINE
  5
262
330
1BA
100
AcDbEntity
  8
0
  6
Continuous
 62
     0
370
    30
100
AcDbLine
 10
750.501083
 20
865.41878
 30
0.0
 11
748.665533
 21
864.175567
 31
0.0
  0
LWPOLYLINE
  5
263
330
1BA
100
AcDbEntity
  8
0
  6
Continuous
 62
     0
370
    30
100
AcDbPolyline
 90
       11
 70
     0
 43
0.0
 10
690.574646
 20
770.36438
 10
691.566467
 20
769.771545
 10
692.546631
 20
769.274231
 10
693.508179
 20
768.876587
 10
694.444092
 20
768.581848
 10
695.348022
 20
768.3927
 10
696.21344
 20
768.311401
 10
697.033936
 20
768.339355
 10
697.80304
 20
768.477966
 10
698.513733
 20
768.7276
 10
699.227173
 20
769.134094
  0
LWPOLYLINE
  5
264
330
1BA
100
AcDbEntity
  8
0
  6
Continuous
 62
     0
370
    30
100
AcDbPolyline
 90
       11
 70
     0
 43
0.0
 10
680.751221
 20
795.261475
 10
680.189575
 20
794.785278
 10
679.707947
 20
794.209229
 10
679.311218
 20
793.540527
 10
679.001221
 20
792.785706
 10
678.779358
 20
791.951233
 10
678.646423
 20
791.043701
 10
678.602417
 20
790.069946
 10
678.64679
 20
789.03717
 10
678.77887
 20
787.95282
 10
679.02771
 20
786.694336
  0
LWPOLYLINE
  5
265
330
1BA
100
AcDbEntity
  8
0
  6
Continuous
 62
     0
370
    30
100
AcDbPolyline
 90
       33
 70
     0
 43
0.0
 10
738.509033
 20
796.910889
 10
739.121033
 20
797.451599
 10
739.63385
 20
798.113342
 10
740.041626
 20
798.886414
 10
740.342163
 20
799.762146
 10
740.533997
 20
800.731689
 10
740.61676
 20
801.785767
 10
740.59082
 20
802.914795
 10
740.45697
 20
804.109009
 10
740.216919
 20
805.357666
 10
739.873047
 20
806.649475
 10
739.428833
 20
807.972351
 10
738.888672
 20
809.314087
 10
738.257507
 20
810.66217
 10
737.541443
 20
812.003906
 10
736.747253
 20
813.326538
 10
735.882507
 20
814.617737
 10
734.955383
 20
815.865051
 10
733.97467
 20
817.056763
 10
732.949707
 20
818.181519
 10
731.890076
 20
819.228699
 10
730.805786
 20
820.188293
 10
729.706909
 20
821.051331
 10
728.603577
 20
821.809753
 10
727.505981
 20
822.456116
 10
726.42395
 20
822.984436
 10
725.367188
 20
823.389343
 10
724.344543
 20
823.666931
 10
723.364929
 20
823.81366
 10
722.437195
 20
823.826721
 10
721.57019
 20
823.704407
 10
720.77301
 20
823.446045
 10
720.049133
 20
823.048645
  0
LINE
  5
266
330
1BA
100
AcDbEntity
  8
0
  6
Continuous
 62
     0
370
    30
100
AcDbLine
 10
738.471227
 20
796.883832
 30
0.0
 11
699.226801
 21
769.133832
 31
0.0
  0
LINE
  5
267
330
1BA
100
AcDbEntity
  8
0
  6
Continuous
 62
     0
370
    30
100
AcDbLine
 10
700.649788
 20
809.331872
 30
0.0
 11
680.751592
 21
795.261723
 31
0.0
  0
LINE
  5
268
330
1BA
100
AcDbEntity
  8
0
  6
Continuous
 62
     0
370
    30
100
AcDbLine
 10
719.996018
 20
823.011723
 30
0.0
 11
718.609376
 21
822.031218
 31
0.0
  0
LWPOLYLINE
  5
269
330
1BA
100
AcDbEntity
  8
0
  6
Continuous
 62
     0
370
    30
100
AcDbPolyline
 90
       26
 70
     0
 43
0.0
 10
700.612854
 20
822.240723
 10
700.684631
 20
823.086487
 10
700.90271
 20
823.916443
 10
701.261169
 20
824.713867
 10
701.751526
 20
825.465332
 10
702.364014
 20
826.160522
 10
703.087891
 20
826.790161
 10
703.911011
 20
827.34613
 10
704.820496
 20
827.821411
 10
705.802551
 20
828.209778
 10
706.842468
 20
828.506287
 10
707.924377
 20
828.706848
 10
709.032043
 20
828.808838
 10
710.148499
 20
828.81073
 10
711.256775
 20
828.712524
 10
712.340027
 20
828.515686
 10
713.381775
 20
828.222717
 10
714.366211
 20
827.837646
 10
715.278748
 20
827.365601
 10
716.105469
 20
826.812683
 10
716.833191
 20
826.185669
 10
717.450073
 20
825.492798
 10
717.945374
 20
824.743286
 10
718.309021
 20
823.947388
 10
718.532532
 20
823.118347
 10
718.609985
 20
822.240356
  0
LINE
  5
26A
330
1BA
100
AcDbEntity
  8
0
  6
Continuous
 62
     0
370
    30
100
AcDbLine
 10
700.651901
 20
808.593436
 30
0.0
 11
700.612844
 21
822.240513
 31
0.0
  0
LINE
  5
26B
330
1BA
100
AcDbEntity
  8
0
  6
Continuous
 62
     0
370
    30
100
AcDbLine
 10
718.570917
 20
808.593436
 30
0.0
 11
718.609974
 21
822.240513
 31
0.0
  0
LINE
  5
26C
330
1BA
100
AcDbEntity
  8
0
  6
Continuous
 62
     0
370
    30
100
AcDbLine
 10
610.02611
 20
713.407818
 30
0.0
 11
696.16493
 21
774.317347
 31
0.0
  0
LINE
  5
26D
330
1BA
100
AcDbEntity
  8
0
  6
Continuous
 62
     0
370
    30
100
AcDbLine
 10
684.617527
 20
790.646947
 30
0.0
 11
598.478853
 21
729.737716
 31
0.0
  0
LWPOLYLINE
  5
26E
330
1BA
100
AcDbEntity
  8
0
  6
Continuous
 62
     0
370
    30
100
AcDbPolyline
 90
       13
 70
     0
 43
0.0
 10
597.583435
 20
697.328674
 10
598.247742
 20
698.841003
 10
599.01178
 20
700.37738
 10
599.867798
 20
701.918457
 10
600.807434
 20
703.446777
 10
601.821045
 20
704.945435
 10
602.898193
 20
706.398865
 10
604.027527
 20
707.791809
 10
605.196228
 20
709.109863
 10
606.390686
 20
710.338989
 10
607.595093
 20
711.465698
 10
608.79187
 20
712.477173
 10
610.026001
 20
713.407837
  0
LWPOLYLINE
  5
26F
330
1BA
100
AcDbEntity
  8
0
  6
Continuous
 62
     0
370
    30
100
AcDbPolyline
 90
       13
 70
     0
 43
0.0
 10
598.479004
 20
729.737732
 10
596.471619
 20
728.23291
 10
594.50708
 20
726.590271
 10
592.592773
 20
724.819153
 10
590.737
 20
722.929688
 10
588.948914
 20
720.932922
 10
587.237976
 20
718.840637
 10
585.613953
 20
716.665405
 10
584.086243
 20
714.420288
 10
582.664124
 20
712.11853
 10
581.356201
 20
709.773499
 10
580.170715
 20
707.398132
 10
579.078247
 20
704.915405
  0
LINE
  5
270
330
1BA
100
AcDbEntity
  8
0
  6
Continuous
 62
     0
370
    30
100
AcDbLine
 10
597.583409
 20
697.328694
 30
0.0
 11
590.511541
 21
680.079264
 31
0.0
  0
LINE
  5
271
330
1BA
100
AcDbEntity
  8
0
  6
Continuous
 62
     0
370
    30
100
AcDbLine
 10
579.078221
 20
704.915394
 30
0.0
 11
572.006353
 21
687.665964
 31
0.0
  0
ARC
  5
272
330
1BA
100
AcDbEntity
  8
0
  6
Continuous
 62
     0
370
    30
100
AcDbCircle
 10
825.227214
 20
661.890306
 30
0.0
 40
0.4992934020124622
100
AcDbArc
 50
188.48779
 51
234.365174
  0
LWPOLYLINE
  5
273
330
1BA
100
AcDbEntity
  8
0
  6
Continuous
 62
     0
370
    30
100
AcDbPolyline
 90
        4
 70
     0
 43
0.0
 10
815.382568
 20
650.337952
 10
815.640015
 20
650.397034
 10
815.83136
 20
650.579224
 10
815.90332
 20
650.830322
  0
LWPOLYLINE
  5
274
330
1BA
100
AcDbEntity
  8
0
  6
Continuous
 62
     0
370
    30
100
AcDbPolyline
 90
        5
 70
     0
 43
0.0
 10
815.798645
 20
668.114319
 10
815.841125
 20
668.049744
 10
815.873108
 20
667.979309
 10
815.89386
 20
667.904785
 10
815.90332
 20
667.815125
  0
LWPOLYLINE
  5
275
330
1BA
100
AcDbEntity
  8
0
  6
Continuous
 62
     0
370
    30
100
AcDbPolyline
 90
        4
 70
     0
 43
0.0
 10
827.844238
 20
659.428284
 10
828.084106
 20
659.339905
 10
828.336975
 20
659.381897
 10
828.543579
 20
659.554626
  0
LINE
  5
276
330
1BA
100
AcDbEntity
  8
0
  6
Continuous
 62
     0
370
    30
100
AcDbLine
 10
775.966091
 20
677.225674
 30
0.0
 11
812.818458
 21
651.167116
 31
0.0
  0
LINE
  5
277
330
1BA
100
AcDbEntity
  8
0
  6
Continuous
 62
     0
370
    30
100
AcDbLine
 10
830.049175
 20
676.95025
 30
0.0
 11
830.716316
 21
676.47851
 31
0.0
  0
LINE
  5
278
330
1BA
100
AcDbEntity
  8
0
  6
Continuous
 62
     0
370
    30
100
AcDbLine
 10
793.863945
 20
702.537071
 30
0.0
 11
798.291993
 21
699.405968
 31
0.0
  0
LWPOLYLINE
  5
279
330
1BA
100
AcDbEntity
  8
0
  6
Continuous
 62
     0
370
    30
100
AcDbPolyline
 90
       17
 70
     0
 43
0.0
 10
828.543579
 20
659.554626
 10
829.348145
 20
660.790405
 10
830.084778
 20
662.052917
 10
830.746521
 20
663.330811
 10
831.327271
 20
664.612427
 10
831.821716
 20
665.886353
 10
832.225342
 20
667.141113
 10
832.534241
 20
668.365967
 10
832.7453
 20
669.550354
 10
832.856201
 20
670.684143
 10
832.865173
 20
671.758362
 10
832.770508
 20
672.764832
 10
832.571228
 20
673.694946
 10
832.266785
 20
674.539673
 10
831.856689
 20
675.290466
 10
831.342224
 20
675.937866
 10
830.716064
 20
676.478699
  0
LWPOLYLINE
  5
27A
330
1BA
100
AcDbEntity
  8
0
  6
Continuous
 62
     0
370
    30
100
AcDbPolyline
 90
        5
 70
     0
 43
0.0
 10
812.818726
 20
651.166931
 10
813.338623
 20
650.852417
 10
813.904297
 20
650.611206
 10
814.508728
 20
650.444763
 10
815.381897
 20
650.338013
  0
LINE
  5
27B
330
1BA
100
AcDbEntity
  8
0
  6
Continuous
 62
     0
370
    30
100
AcDbLine
 10
815.903426
 20
667.808094
 30
0.0
 11
815.903426
 21
650.837531
 31
0.0
  0
LWPOLYLINE
  5
27C
330
1BA
100
AcDbEntity
  8
0
  6
Continuous
 62
     0
370
    30
100
AcDbPolyline
 90
        2
 70
     0
 43
0.0
 10
824.733398
 20
661.81665
 10
824.663757
 20
662.227966
  0
LINE
  5
27D
330
1BA
100
AcDbEntity
  8
0
  6
Continuous
 62
     0
370
    30
100
AcDbLine
 10
824.939176
 20
661.482365
 30
0.0
 11
827.842673
 21
659.429283
 31
0.0
  0
LWPOLYLINE
  5
27E
330
1BA
100
AcDbEntity
  8
0
  6
Continuous
 62
     0
370
    30
100
AcDbPolyline
 90
       98
 70
     0
 43
0.0
 10
764.10083
 20
473.56192
 10
766.354553
 20
474.503143
 10
768.495483
 20
475.617004
 10
770.52124
 20
476.870911
 10
772.43457
 20
478.235992
 10
774.241821
 20
479.69046
 10
775.951416
 20
481.216034
 10
777.571533
 20
482.798645
 10
779.110352
 20
484.428314
 10
780.575745
 20
486.095856
 10
781.973938
 20
487.79538
 10
783.31073
 20
489.521973
 10
784.591431
 20
491.271088
 10
785.820435
 20
493.039764
 10
787.001709
 20
494.825287
 10
788.138977
 20
496.625275
 10
789.235291
 20
498.438049
 10
790.293579
 20
500.262115
 10
791.316284
 20
502.09613
 10
792.305481
 20
503.939026
 10
793.263
 20
505.789917
 10
794.190369
 20
507.648071
 10
795.089355
 20
509.512726
 10
795.961426
 20
511.383118
 10
796.807922
 20
513.258728
 10
797.630005
 20
515.139099
 10
798.428589
 20
517.023865
 10
799.204651
 20
518.912598
 10
799.959106
 20
520.804932
 10
800.692871
 20
522.700562
 10
801.406555
 20
524.599182
 10
802.100952
 20
526.50061
 10
802.776794
 20
528.40448
 10
803.43457
 20
530.310608
 10
804.074768
 20
532.218811
 10
804.697815
 20
534.128967
 10
805.30426
 20
536.040894
 10
805.894531
 20
537.954407
 10
806.469116
 20
539.869324
 10
807.028381
 20
541.785522
 10
807.572815
 20
543.702759
 10
808.102722
 20
545.621094
 10
808.618286
 20
547.540222
 10
809.119873
 20
549.460205
 10
809.607788
 20
551.380859
 10
810.082275
 20
553.302124
 10
810.543701
 20
555.223816
 10
810.992188
 20
557.145874
 10
811.428101
 20
559.068237
 10
811.851562
 20
560.990784
 10
812.262756
 20
562.913513
 10
812.661865
 20
564.836365
 10
813.049072
 20
566.759155
 10
813.424561
 20
568.681885
 10
813.788513
 20
570.604492
 10
814.141174
 20
572.526917
 10
814.482605
 20
574.448975
 10
814.813049
 20
576.370789
 10
815.132629
 20
578.292175
 10
815.441406
 20
580.213074
 10
815.739563
 20
582.133484
 10
816.027222
 20
584.053345
 10
816.304504
 20
585.972534
 10
816.571472
 20
587.891113
 10
816.828247
 20
589.80896
 10
817.074951
 20
591.726013
 10
817.311707
 20
593.642273
 10
817.538574
 20
595.557678
 10
817.755554
 20
597.472168
 10
817.96283
 20
599.385742
 10
818.160522
 20
601.298279
 10
818.348572
 20
603.209839
 10
818.527161
 20
605.1203
 10
818.69635
 20
607.029602
 10
818.856262
 20
608.937744
 10
819.006958
 20
610.844666
 10
819.148438
 20
612.750366
 10
819.280884
 20
614.654724
 10
819.404297
 20
616.5578
 10
819.518738
 20
618.459473
 10
819.624268
 20
620.359802
 10
819.720947
 20
622.258606
 10
819.808838
 20
624.156006
 10
819.888062
 20
626.05188
 10
819.958557
 20
627.946167
 10
820.020386
 20
629.838928
 10
820.073669
 20
631.72998
 10
820.118469
 20
633.619446
 10
820.154724
 20
635.507202
 10
820.182556
 20
637.39325
 10
820.202026
 20
639.277588
 10
820.213135
 20
641.160034
 10
820.215942
 20
643.040771
 10
820.210571
 20
644.919556
 10
820.19696
 20
646.79657
 10
820.175232
 20
648.67157
 10
820.145203
 20
650.544678
 10
820.106689
 20
652.432312
  0
LWPOLYLINE
  5
27F
330
1BA
100
AcDbEntity
  8
0
  6
Continuous
 62
     0
370
    30
100
AcDbPolyline
 90
       96
 70
     0
 43
0.0
 10
760.669189
 20
482.954681
 10
762.781738
 20
483.889862
 10
764.720276
 20
485.023987
 10
766.511169
 20
486.295319
 10
768.178345
 20
487.666016
 10
769.740967
 20
489.111328
 10
771.21344
 20
490.615234
 10
772.607849
 20
492.165314
 10
773.933411
 20
493.753265
 10
775.197754
 20
495.372803
 10
776.407349
 20
497.018677
 10
777.5672
 20
498.687134
 10
778.68158
 20
500.374969
 10
779.754211
 20
502.079559
 10
780.788086
 20
503.798859
 10
781.785889
 20
505.531189
 10
782.750244
 20
507.275146
 10
783.683228
 20
509.029388
 10
784.58667
 20
510.792908
 10
785.46228
 20
512.564636
 10
786.311462
 20
514.343872
 10
787.135559
 20
516.129883
 10
787.93573
 20
517.922058
 10
788.713074
 20
519.719849
 10
789.468567
 20
521.522705
 10
790.203064
 20
523.330261
 10
790.917419
 20
525.14209
 10
791.612427
 20
526.957764
 10
792.288818
 20
528.776978
 10
792.947205
 20
530.599487
 10
793.588013
 20
532.424988
 10
794.211792
 20
534.253296
 10
794.819092
 20
536.084167
 10
795.410278
 20
537.917419
 10
795.986023
 20
539.752747
 10
796.546631
 20
541.589966
 10
797.092651
 20
543.428894
 10
797.624268
 20
545.269409
 10
798.141785
 20
547.111389
 10
798.645508
 20
548.954651
 10
799.135803
 20
550.799133
 10
799.612915
 20
552.644653
 10
800.077087
 20
554.49115
 10
800.528687
 20
556.33844
 10
800.967896
 20
558.186401
 10
801.394897
 20
560.034973
 10
801.809937
 20
561.884094
 10
802.213196
 20
563.733643
 10
802.604858
 20
565.583496
 10
802.985168
 20
567.433655
 10
803.354248
 20
569.283936
 10
803.71228
 20
571.134338
 10
804.059387
 20
572.984741
 10
804.395813
 20
574.835083
 10
804.721619
 20
576.685303
 10
805.036926
 20
578.535339
 10
805.341919
 20
580.385071
 10
805.636658
 20
582.234558
 10
805.921265
 20
584.083679
 10
806.195862
 20
585.932312
 10
806.460632
 20
587.780518
 10
806.715637
 20
589.628174
 10
806.960938
 20
591.475159
 10
807.196716
 20
593.321533
 10
807.422974
 20
595.167175
 10
807.639832
 20
597.012146
 10
807.847412
 20
598.856262
 10
808.045715
 20
600.699524
 10
808.234863
 20
602.541931
 10
808.414978
 20
604.383362
 10
808.585999
 20
606.223816
 10
808.748169
 20
608.063293
 10
808.901489
 20
609.901611
 10
809.046021
 20
611.738892
 10
809.181885
 20
613.575012
 10
809.309021
 20
615.409912
 10
809.427612
 20
617.243591
 10
809.537659
 20
619.075989
 10
809.639221
 20
620.907043
 10
809.732422
 20
622.736816
 10
809.817261
 20
624.565186
 10
809.893799
 20
626.39209
 10
809.962097
 20
628.21759
 10
810.022156
 20
630.041565
 10
810.074036
 20
631.864014
 10
810.117859
 20
633.684937
 10
810.153503
 20
635.504211
 10
810.181152
 20
637.321838
 10
810.200806
 20
639.137817
 10
810.212463
 20
640.952087
 10
810.216248
 20
642.764648
 10
810.212158
 20
644.575378
 10
810.200195
 20
646.384338
 10
810.180542
 20
648.191467
 10
810.153137
 20
649.996704
 10
810.117981
 20
651.804321
  0
LWPOLYLINE
  5
280
330
1BA
100
AcDbEntity
  8
0
  6
Continuous
 62
     0
370
    30
100
AcDbPolyline
 90
      206
 70
     0
 43
0.0
 10
760.669189
 20
482.954681
 10
758.82196
 20
482.411133
 10
756.886963
 20
482.136261
 10
754.963867
 20
482.185608
 10
753.167236
 20
482.539368
 10
751.538635
 20
483.124573
 10
750.063904
 20
483.875854
 10
748.716614
 20
484.747803
 10
747.474609
 20
485.710663
 10
746.320984
 20
486.743927
 10
745.242859
 20
487.832825
 10
744.230469
 20
488.966919
 10
743.275513
 20
490.137695
 10
742.371826
 20
491.339264
 10
741.513977
 20
492.566376
 10
740.69751
 20
493.815247
 10
739.918762
 20
495.082855
 10
739.174194
 20
496.366455
 10
738.46106
 20
497.664093
 10
737.776855
 20
498.97403
 10
737.119263
 20
500.294586
 10
736.48645
 20
501.624664
 10
735.876953
 20
502.963257
 10
735.289185
 20
504.309357
 10
734.721619
 20
505.662018
 10
734.173096
 20
507.020569
 10
733.642639
 20
508.384521
 10
733.129211
 20
509.753265
 10
732.631897
 20
511.126404
 10
732.149902
 20
512.50354
 10
731.682373
 20
513.884277
 10
731.228577
 20
515.268311
 10
730.787842
 20
516.655334
 10
730.359558
 20
518.045044
 10
729.943237
 20
519.437256
 10
729.538391
 20
520.831726
 10
729.144409
 20
522.228149
 10
728.760986
 20
523.626526
 10
728.387695
 20
525.02655
 10
728.024048
 20
526.428223
 10
727.669739
 20
527.831238
 10
727.324341
 20
529.235596
 10
726.98761
 20
530.641174
 10
726.659241
 20
532.047729
 10
726.338867
 20
533.455322
 10
726.026367
 20
534.863831
 10
725.721436
 20
536.273193
 10
725.423767
 20
537.683228
 10
725.13324
 20
539.093994
 10
724.849487
 20
540.50531
 10
724.572327
 20
541.917175
 10
724.301575
 20
543.329529
 10
724.037109
 20
544.74231
 10
723.778687
 20
546.155457
 10
723.526184
 20
547.56897
 10
723.279419
 20
548.982727
 10
723.038208
 20
550.396729
 10
722.802429
 20
551.810974
 10
722.571838
 20
553.225342
 10
722.346436
 20
554.639893
 10
722.126038
 20
556.054504
 10
721.910583
 20
557.469238
 10
721.69989
 20
558.884033
 10
721.493896
 20
560.298828
 10
721.292419
 20
561.713684
 10
721.095337
 20
563.128479
 10
720.902588
 20
564.543213
 10
720.71405
 20
565.957825
 10
720.529602
 20
567.372375
 10
720.349182
 20
568.786865
 10
720.172729
 20
570.201172
 10
720.000183
 20
571.615356
 10
719.83136
 20
573.029419
 10
719.666321
 20
574.443298
 10
719.504883
 20
575.856995
 10
719.346985
 20
577.270508
 10
719.192566
 20
578.683777
 10
719.041565
 20
580.096863
 10
718.89386
 20
581.509705
 10
718.749451
 20
582.922241
 10
718.608154
 20
584.334595
 10
718.470093
 20
585.746643
 10
718.335022
 20
587.158386
 10
718.203064
 20
588.569885
 10
718.074036
 20
589.98114
 10
717.947876
 20
591.392029
 10
717.824646
 20
592.802673
 10
717.704163
 20
594.212952
 10
717.586426
 20
595.622925
 10
717.471375
 20
597.032593
 10
717.359009
 20
598.441895
 10
717.249207
 20
599.85083
 10
717.141968
 20
601.25946
 10
717.037292
 20
602.667786
 10
716.934998
 20
604.075684
 10
716.835144
 20
605.483276
 10
716.737671
 20
606.890442
 10
716.642517
 20
608.297302
 10
716.549683
 20
609.703735
 10
716.459045
 20
611.109802
 10
716.370728
 20
612.515503
 10
716.284546
 20
613.920837
 10
716.200562
 20
615.325806
 10
716.118713
 20
616.730347
 10
716.03894
 20
618.134521
 10
715.961243
 20
619.53833
 10
715.88562
 20
620.941711
 10
715.811951
 20
622.344666
 10
715.740234
 20
623.747314
 10
715.670471
 20
625.149475
 10
715.6026
 20
626.55127
 10
715.53656
 20
627.952698
 10
715.472351
 20
629.353638
 10
715.409973
 20
630.754211
 10
715.349304
 20
632.154419
 10
715.290405
 20
633.554138
 10
715.233215
 20
634.953491
 10
715.177734
 20
636.352417
 10
715.123962
 20
637.750977
 10
715.071777
 20
639.149048
 10
715.02124
 20
640.546753
 10
714.97229
 20
641.944092
 10
714.924927
 20
643.340942
 10
714.879089
 20
644.737427
 10
714.834839
 20
646.133484
 10
714.792053
 20
647.529175
 10
714.750793
 20
648.924377
 10
714.710999
 20
650.319275
 10
714.672607
 20
651.713684
 10
714.635681
 20
653.107727
 10
714.600098
 20
654.501343
 10
714.565918
 20
655.894592
 10
714.533081
 20
657.287354
 10
714.501587
 20
658.67981
 10
714.471375
 20
660.071777
 10
714.442505
 20
661.463379
 10
714.414795
 20
662.854614
 10
714.388428
 20
664.245361
 10
714.36322
 20
665.635742
 10
714.339172
 20
667.025757
 10
714.316345
 20
668.415344
 10
714.294739
 20
669.804565
 10
714.274231
 20
671.193359
 10
714.254822
 20
672.581726
 10
714.236572
 20
673.969788
 10
714.219421
 20
675.357422
 10
714.203308
 20
676.744629
 10
714.188293
 20
678.131531
 10
714.174255
 20
679.518005
 10
714.161316
 20
680.904053
 10
714.149353
 20
682.289795
 10
714.138367
 20
683.67511
 10
714.128357
 20
685.060059
 10
714.119263
 20
686.444702
 10
714.111145
 20
687.828918
 10
714.103943
 20
689.212769
 10
714.097656
 20
690.596313
 10
714.092285
 20
691.979492
 10
714.087769
 20
693.362305
 10
714.084045
 20
694.744751
 10
714.081238
 20
696.126892
 10
714.079224
 20
697.508667
 10
714.078003
 20
698.890137
 10
714.077576
 20
700.27124
 10
714.077942
 20
701.652039
 10
714.079041
 20
703.032532
 10
714.080933
 20
704.41272
 10
714.083496
 20
705.792542
 10
714.086731
 20
707.172058
 10
714.090759
 20
708.551331
 10
714.095398
 20
709.930237
 10
714.100708
 20
711.308899
 10
714.106628
 20
712.687195
 10
714.113159
 20
714.065308
 10
714.120361
 20
715.443054
 10
714.128113
 20
716.820618
 10
714.136475
 20
718.197876
 10
714.145386
 20
719.574829
 10
714.154785
 20
720.951599
 10
714.164734
 20
722.328125
 10
714.175232
 20
723.704407
 10
714.186157
 20
725.080444
 10
714.197571
 20
726.456299
 10
714.209473
 20
727.831909
 10
714.221741
 20
729.207336
 10
714.234436
 20
730.582581
 10
714.247498
 20
731.957703
 10
714.260986
 20
733.332581
 10
714.27478
 20
734.707397
 10
714.288879
 20
736.08197
 10
714.303345
 20
737.456482
 10
714.318054
 20
738.830872
 10
714.333069
 20
740.205078
 10
714.348267
 20
741.579224
 10
714.36377
 20
742.953308
 10
714.379456
 20
744.327271
 10
714.395325
 20
745.701172
 10
714.411316
 20
747.075073
 10
714.42749
 20
748.448853
 10
714.443726
 20
749.822693
 10
714.460083
 20
751.196533
 10
714.47644
 20
752.570435
 10
714.492798
 20
753.944397
 10
714.509155
 20
755.31842
 10
714.525452
 20
756.692505
 10
714.541748
 20
758.073059
  0
LWPOLYLINE
  5
281
330
1BA
100
AcDbEntity
  8
0
  6
Continuous
 62
     0
370
    30
100
AcDbPolyline
 90
      224
 70
     0
 43
0.0
 10
764.10083
 20
473.56192
 10
762.330933
 20
472.987274
 10
760.513
 20
472.547211
 10
758.660583
 20
472.256378
 10
756.79071
 20
472.124634
 10
754.922668
 20
472.15564
 10
753.076172
 20
472.349396
 10
751.269897
 20
472.700623
 10
749.520569
 20
473.19931
 10
747.84021
 20
473.830139
 10
746.236267
 20
474.57663
 10
744.713013
 20
475.422607
 10
743.27124
 20
476.352875
 10
741.908997
 20
477.35318
 10
740.622925
 20
478.411591
 10
739.408386
 20
479.517731
 10
738.260498
 20
480.663605
 10
737.174072
 20
481.842255
 10
736.144409
 20
483.048096
 10
735.166931
 20
484.276581
 10
734.237244
 20
485.523895
 10
733.351685
 20
486.787384
 10
732.506409
 20
488.064514
 10
731.698181
 20
489.353088
 10
730.924194
 20
490.651703
 10
730.181946
 20
491.959045
 10
729.469116
 20
493.273895
 10
728.783813
 20
494.595428
 10
728.12439
 20
495.922913
 10
727.489258
 20
497.255554
 10
726.876648
 20
498.592621
 10
726.285156
 20
499.933502
 10
725.713684
 20
501.277863
 10
725.161011
 20
502.625336
 10
724.626038
 20
503.975525
 10
724.107727
 20
505.328064
 10
723.605042
 20
506.682739
 10
723.117371
 20
508.039398
 10
722.643921
 20
509.397888
 10
722.184021
 20
510.758026
 10
721.737122
 20
512.11969
 10
721.302673
 20
513.482605
 10
720.880188
 20
514.84668
 10
720.469055
 20
516.211792
 10
720.068848
 20
517.577698
 10
719.679138
 20
518.944336
 10
719.2995
 20
520.311768
 10
718.929443
 20
521.679749
 10
718.568665
 20
523.04834
 10
718.216858
 20
524.417419
 10
717.873657
 20
525.786865
 10
717.538757
 20
527.156677
 10
717.211914
 20
528.526794
 10
716.892761
 20
529.897156
 10
716.581177
 20
531.2677
 10
716.276855
 20
532.638428
 10
715.979614
 20
534.009277
 10
715.689148
 20
535.380249
 10
715.405273
 20
536.751221
 10
715.127808
 20
538.122192
 10
714.856567
 20
539.493225
 10
714.591309
 20
540.864136
 10
714.33197
 20
542.235046
 10
714.078369
 20
543.605774
 10
713.830261
 20
544.976501
 10
713.587585
 20
546.346985
 10
713.35022
 20
547.717407
 10
713.11792
 20
549.087585
 10
712.890686
 20
550.457642
 10
712.668274
 20
551.827454
 10
712.450562
 20
553.197021
 10
712.237488
 20
554.566406
 10
712.028931
 20
555.935486
 10
711.824768
 20
557.304321
 10
711.624939
 20
558.672852
 10
711.429321
 20
560.041138
 10
711.237854
 20
561.409119
 10
711.050415
 20
562.776794
 10
710.866882
 20
564.144165
 10
710.687134
 20
565.51123
 10
710.511169
 20
566.87793
 10
710.338928
 20
568.244263
 10
710.170227
 20
569.610291
 10
710.005127
 20
570.975952
 10
709.843445
 20
572.341248
 10
709.685181
 20
573.706177
 10
709.530273
 20
575.07074
 10
709.37854
 20
576.434937
 10
709.230103
 20
577.798706
 10
709.084717
 20
579.162109
 10
708.942383
 20
580.525085
 10
708.803101
 20
581.887695
 10
708.666748
 20
583.249939
 10
708.533264
 20
584.611694
 10
708.402649
 20
585.973083
 10
708.274841
 20
587.334045
 10
708.14978
 20
588.69458
 10
708.027344
 20
590.054749
 10
707.907593
 20
591.414429
 10
707.790466
 20
592.773743
 10
707.675842
 20
594.132568
 10
707.563721
 20
595.490967
 10
707.454041
 20
596.848938
 10
707.346802
 20
598.206482
 10
707.241943
 20
599.563599
 10
707.139465
 20
600.920288
 10
707.039246
 20
602.276489
 10
706.941284
 20
603.632324
 10
706.845459
 20
604.987671
 10
706.751892
 20
606.342529
 10
706.660461
 20
607.697021
 10
706.571106
 20
609.051025
 10
706.483887
 20
610.404541
 10
706.398682
 20
611.75769
 10
706.315491
 20
613.110352
 10
706.234314
 20
614.462524
 10
706.15509
 20
615.814331
 10
706.07782
 20
617.165649
 10
706.002441
 20
618.516479
 10
705.928955
 20
619.866943
 10
705.8573
 20
621.216919
 10
705.787415
 20
622.566406
 10
705.71936
 20
623.915466
 10
705.653076
 20
625.264099
 10
705.588501
 20
626.612305
 10
705.525635
 20
627.959961
 10
705.464417
 20
629.307251
 10
705.404785
 20
630.654053
 10
705.346863
 20
632.000427
 10
705.290466
 20
633.346313
 10
705.235657
 20
634.691772
 10
705.182434
 20
636.036804
 10
705.130676
 20
637.381348
 10
705.080505
 20
638.725464
 10
705.031799
 20
640.069153
 10
704.984558
 20
641.412354
 10
704.938782
 20
642.755127
 10
704.89447
 20
644.097473
 10
704.851501
 20
645.439392
 10
704.809998
 20
646.780823
 10
704.769836
 20
648.121887
 10
704.731018
 20
649.462463
 10
704.693542
 20
650.802612
 10
704.657349
 20
652.142273
 10
704.622498
 20
653.481567
 10
704.588928
 20
654.820374
 10
704.55658
 20
656.158813
 10
704.525452
 20
657.496765
 10
704.495605
 20
658.834351
 10
704.466858
 20
660.171448
 10
704.439392
 20
661.508118
 10
704.413025
 20
662.84436
 10
704.387756
 20
664.180176
 10
704.363647
 20
665.515625
 10
704.340637
 20
666.850586
 10
704.318665
 20
668.18512
 10
704.297852
 20
669.519287
 10
704.278015
 20
670.853027
 10
704.259216
 20
672.18634
 10
704.241455
 20
673.519226
 10
704.224731
 20
674.851685
 10
704.208984
 20
676.183777
 10
704.194214
 20
677.515442
 10
704.180359
 20
678.84668
 10
704.16748
 20
680.177551
 10
704.155579
 20
681.508057
 10
704.144531
 20
682.838074
 10
704.134399
 20
684.167786
 10
704.125122
 20
685.497009
 10
704.11676
 20
686.825928
 10
704.109253
 20
688.154419
 10
704.102539
 20
689.482544
 10
704.09668
 20
690.810303
 10
704.091675
 20
692.137695
 10
704.087402
 20
693.464661
 10
704.083984
 20
694.791321
 10
704.081238
 20
696.117554
 10
704.079346
 20
697.443481
 10
704.078125
 20
698.769043
 10
704.077637
 20
700.094238
 10
704.077881
 20
701.419067
 10
704.078796
 20
702.743591
 10
704.080444
 20
704.067749
 10
704.082703
 20
705.391541
 10
704.085632
 20
706.715027
 10
704.089233
 20
708.038147
 10
704.093445
 20
709.360962
 10
704.098206
 20
710.683472
 10
704.103638
 20
712.005615
 10
704.109619
 20
713.327515
 10
704.11615
 20
714.649048
 10
704.12323
 20
715.970276
 10
704.130859
 20
717.291199
 10
704.139038
 20
718.611877
 10
704.147644
 20
719.932251
 10
704.156799
 20
721.252319
 10
704.166443
 20
722.572083
 10
704.176514
 20
723.891602
 10
704.187012
 20
725.210876
 10
704.197937
 20
726.529907
 10
704.20929
 20
727.848633
 10
704.221008
 20
729.167175
 10
704.233154
 20
730.485474
 10
704.245605
 20
731.803528
 10
704.258423
 20
733.121338
 10
704.271545
 20
734.438965
 10
704.284973
 20
735.756348
 10
704.298767
 20
737.073547
 10
704.312744
 20
738.390564
 10
704.327026
 20
739.707397
 10
704.341553
 20
741.024048
 10
704.356323
 20
742.340515
 10
704.371216
 20
743.65686
 10
704.386353
 20
744.973022
 10
704.401611
 20
746.289124
 10
704.417053
 20
747.605042
 10
704.432556
 20
748.920898
 10
704.44812
 20
750.236694
 10
704.463745
 20
751.552368
 10
704.47937
 20
752.867981
 10
704.495056
 20
754.183594
 10
704.510681
 20
755.499146
 10
704.526245
 20
756.814758
 10
704.541809
 20
758.130676
  0
ENDBLK
  5
283
330
1BA
100
AcDbEntity
  8
0
100
AcDbBlockEnd
  0
BLOCK
  5
321
330
285
100
AcDbEntity
  8
0
100
AcDbBlockBegin
  2
e
 70
     0
 10
-225.249329
 20
0.0
 30
0.0
  3
e
  1

  0
LWPOLYLINE
  5
286
330
285
100
AcDbEntity
  8
0
  6
Continuous
 62
     0
370
    30
100
AcDbPolyline
 90
       19
 70
     0
 43
0.0
 10
-454.718414
 20
2020.464355
 10
-454.6427
 20
2020.454712
 10
-454.417847
 20
2020.445312
 10
-454.050659
 20
2020.436523
 10
-453.552246
 20
2020.428589
 10
-452.937744
 20
2020.421753
 10
-452.225739
 20
2020.41626
 10
-451.437775
 20
2020.412109
 10
-450.597748
 20
2020.409546
 10
-449.731079
 20
2020.408691
 10
-448.864044
 20
2020.409546
 10
-448.022858
 20
2020.411987
 10
-447.233063
 20
2020.416016
 10
-446.518524
 20
2020.421631
 10
-445.900879
 20
2020.428467
 10
-445.398895
 20
2020.436279
 10
-445.02771
 20
2020.445068
 10
-444.798584
 20
2020.454468
 10
-444.718414
 20
2020.464355
  0
LWPOLYLINE
  5
287
330
285
100
AcDbEntity
  8
0
  6
Continuous
 62
     0
370
     0
100
AcDbPolyline
 90
       17
 70
     0
 43
0.0
 10
-418.429047
 20
1625.959839
 10
-418.834686
 20
1625.672729
 10
-419.162292
 20
1625.263306
 10
-419.402313
 20
1624.743286
 10
-419.547668
 20
1624.128174
 10
-419.594086
 20
1623.435791
 10
-419.540253
 20
1622.686646
 10
-419.387695
 20
1621.902466
 10
-419.1409
 20
1621.106567
 10
-418.807129
 20
1620.322021
 10
-418.396118
 20
1619.571899
 10
-417.919983
 20
1618.878296
 10
-417.39267
 20
1618.261475
 10
-416.82962
 20
1617.739624
 10
-416.247375
 20
1617.327881
 10
-415.662964
 20
1617.03833
 10
-415.068787
 20
1616.875732
  0
LWPOLYLINE
  5
288
330
285
100
AcDbEntity
  8
0
  6
Continuous
 62
     0
370
     0
100
AcDbPolyline
 90
        4
 70
     0
 43
0.0
 10
-415.068787
 20
1616.875732
 10
-414.733093
 20
1616.848877
 10
-414.413513
 20
1616.874146
 10
-413.920013
 20
1617.034058
  0
ARC
  5
289
330
285
100
AcDbEntity
  8
0
  6
Continuous
 62
     0
370
    30
100
AcDbCircle
 10
-352.218408
 20
1853.587505
 30
0.0
 40
0.499999999999959
100
AcDbArc
 50
180.0
 51
306.869898
  0
ARC
  5
28A
330
285
100
AcDbEntity
  8
0
  6
Continuous
 62
     0
370
    30
100
AcDbCircle
 10
-370.218408
 20
1853.587505
 30
0.0
 40
0.499999999999962
100
AcDbArc
 50
233.130102
 51
360.0
  0
ARC
  5
28B
330
285
100
AcDbEntity
  8
0
  6
Continuous
 62
     0
370
    30
100
AcDbCircle
 10
-352.218408
 20
1877.587505
 30
0.0
 40
0.499999999999999
100
AcDbArc
 50
53.130102
 51
180.0
  0
ARC
  5
28C
330
285
100
AcDbEntity
  8
0
  6
Continuous
 62
     0
370
    30
100
AcDbCircle
 10
-370.218408
 20
1877.587505
 30
0.0
 40
0.4999999999999939
100
AcDbArc
 50
360.0
 51
126.869898
  0
LINE
  5
28D
330
285
100
AcDbEntity
  8
0
  6
Continuous
 62
     0
370
     0
100
AcDbLine
 10
-370.218409
 20
1877.587505
 30
0.0
 11
-370.218409
 21
1853.587505
 31
0.0
  0
LINE
  5
28E
330
285
100
AcDbEntity
  8
0
  6
Continuous
 62
     0
370
     0
100
AcDbLine
 10
-370.218409
 20
1853.587505
 30
0.0
 11
-369.718408
 21
1853.587505
 31
0.0
  0
LINE
  5
28F
330
285
100
AcDbEntity
  8
0
  6
Continuous
 62
     0
370
    30
100
AcDbLine
 10
-369.718408
 20
1877.587505
 30
0.0
 11
-369.718408
 21
1853.587505
 31
0.0
  0
LINE
  5
290
330
285
100
AcDbEntity
  8
0
  6
Continuous
 62
     0
370
     0
100
AcDbLine
 10
-370.218409
 20
1877.587505
 30
0.0
 11
-369.718408
 21
1877.587505
 31
0.0
  0
LINE
  5
291
330
285
100
AcDbEntity
  8
0
  6
Continuous
 62
     0
370
     0
100
AcDbLine
 10
-370.218408
 20
1877.587505
 30
0.0
 11
-370.518408
 21
1877.987505
 31
0.0
  0
ARC
  5
292
330
285
100
AcDbEntity
  8
0
  6
Continuous
 62
     0
370
    30
100
AcDbCircle
 10
-361.218408
 20
1865.587505
 30
0.0
 40
15.5
100
AcDbArc
 50
126.869898
 51
233.130102
  0
LINE
  5
293
330
285
100
AcDbEntity
  8
0
  6
Continuous
 62
     0
370
     0
100
AcDbLine
 10
-370.218409
 20
1853.587505
 30
0.0
 11
-370.518408
 21
1853.187505
 31
0.0
  0
ARC
  5
294
330
285
100
AcDbEntity
  8
0
  6
Continuous
 62
     0
370
     0
100
AcDbCircle
 10
-361.218409
 20
1865.587505
 30
0.0
 40
15.0
100
AcDbArc
 50
126.869898
 51
233.130102
  0
LINE
  5
295
330
285
100
AcDbEntity
  8
0
  6
Continuous
 62
     0
370
     0
100
AcDbLine
 10
-352.218409
 20
1853.587505
 30
0.0
 11
-352.218409
 21
1877.587505
 31
0.0
  0
LINE
  5
296
330
285
100
AcDbEntity
  8
0
  6
Continuous
 62
     0
370
     0
100
AcDbLine
 10
-352.218409
 20
1877.587505
 30
0.0
 11
-352.718408
 21
1877.587505
 31
0.0
  0
LINE
  5
297
330
285
100
AcDbEntity
  8
0
  6
Continuous
 62
     0
370
    30
100
AcDbLine
 10
-352.718408
 20
1853.587505
 30
0.0
 11
-352.718408
 21
1877.587505
 31
0.0
  0
LINE
  5
298
330
285
100
AcDbEntity
  8
0
  6
Continuous
 62
     0
370
     0
100
AcDbLine
 10
-352.218409
 20
1853.587505
 30
0.0
 11
-352.718408
 21
1853.587505
 31
0.0
  0
LINE
  5
299
330
285
100
AcDbEntity
  8
0
  6
Continuous
 62
     0
370
     0
100
AcDbLine
 10
-352.218409
 20
1853.587505
 30
0.0
 11
-351.918408
 21
1853.187505
 31
0.0
  0
ARC
  5
29A
330
285
100
AcDbEntity
  8
0
  6
Continuous
 62
     0
370
    30
100
AcDbCircle
 10
-361.218408
 20
1865.587505
 30
0.0
 40
15.5
100
AcDbArc
 50
306.869898
 51
53.130102
  0
LINE
  5
29B
330
285
100
AcDbEntity
  8
0
  6
Continuous
 62
     0
370
     0
100
AcDbLine
 10
-352.218408
 20
1877.587505
 30
0.0
 11
-351.918408
 21
1877.987505
 31
0.0
  0
ARC
  5
29C
330
285
100
AcDbEntity
  8
0
  6
Continuous
 62
     0
370
     0
100
AcDbCircle
 10
-361.218409
 20
1865.587505
 30
0.0
 40
15.0
100
AcDbArc
 50
306.869898
 51
53.130102
  0
LINE
  5
29D
330
285
100
AcDbEntity
  8
0
  6
Continuous
 62
     0
370
     0
100
AcDbLine
 10
-612.574817
 20
2047.619121
 30
0.0
 11
-621.235077
 21
2052.619112
 31
0.0
  0
LINE
  5
29E
330
285
100
AcDbEntity
  8
0
  6
Continuous
 62
     0
370
     0
100
AcDbLine
 10
-621.235077
 20
2052.619112
 30
0.0
 11
-629.895335
 21
2057.619103
 31
0.0
  0
LINE
  5
29F
330
285
100
AcDbEntity
  8
0
  6
Continuous
 62
     0
370
    30
100
AcDbLine
 10
-639.896467
 20
2040.296593
 30
0.0
 11
-631.236209
 21
2035.296602
 31
0.0
  0
LINE
  5
2A0
330
285
100
AcDbEntity
  8
0
  6
Continuous
 62
     0
370
    30
100
AcDbLine
 10
-631.236209
 20
2035.296602
 30
0.0
 11
-622.575949
 21
2030.296611
 31
0.0
  0
LINE
  5
2A1
330
285
100
AcDbEntity
  8
0
  6
Continuous
 62
     0
370
     0
100
AcDbLine
 10
-598.718419
 20
2055.619135
 30
0.0
 11
-598.71843
 21
2065.619135
 31
0.0
  0
LINE
  5
2A2
330
285
100
AcDbEntity
  8
0
  6
Continuous
 62
     0
370
     0
100
AcDbLine
 10
-598.71843
 20
2065.619135
 30
0.0
 11
-598.718439
 21
2075.619135
 31
0.0
  0
LINE
  5
2A3
330
285
100
AcDbEntity
  8
0
  6
Continuous
 62
     0
370
     0
100
AcDbLine
 10
-598.71843
 20
2065.619135
 30
0.0
 11
-477.718415
 21
2065.619259
 31
0.0
  0
LINE
  5
2A4
330
285
100
AcDbEntity
  8
0
  6
Continuous
 62
     0
370
    30
100
AcDbLine
 10
-458.677941
 20
2083.344149
 30
0.0
 11
-458.036812
 21
2083.344149
 31
0.0
  0
LINE
  5
2A5
330
285
100
AcDbEntity
  8
0
  6
Continuous
 62
     0
370
    30
100
AcDbLine
 10
-458.036812
 20
2083.344149
 30
0.0
 11
-440.758888
 21
2083.344149
 31
0.0
  0
LINE
  5
2A6
330
285
100
AcDbEntity
  8
0
  6
Continuous
 62
     0
370
     0
100
AcDbLine
 10
-457.424482
 20
2103.345525
 30
0.0
 11
-441.418413
 21
2103.345525
 31
0.0
  0
LINE
  5
2A7
330
285
100
AcDbEntity
  8
0
  6
Continuous
 62
     0
370
     0
100
AcDbLine
 10
-458.018416
 20
2103.345525
 30
0.0
 11
-457.424482
 21
2103.345525
 31
0.0
  0
LINE
  5
2A8
330
285
100
AcDbEntity
  8
0
  6
Continuous
 62
     0
370
     0
100
AcDbLine
 10
-458.716998
 20
2102.64411
 30
0.0
 11
-458.073074
 21
2102.64411
 31
0.0
  0
LINE
  5
2A9
330
285
100
AcDbEntity
  8
0
  6
Continuous
 62
     0
370
     0
100
AcDbLine
 10
-458.073074
 20
2102.64411
 30
0.0
 11
-440.719831
 21
2102.64411
 31
0.0
  0
LWPOLYLINE
  5
2AA
330
285
100
AcDbEntity
  8
0
  6
Continuous
 62
     0
370
    30
100
AcDbPolyline
 90
       34
 70
     0
 43
0.0
 10
-461.718414
 20
2049.619141
 10
-461.65863
 20
2049.66333
 10
-461.480499
 20
2049.796387
 10
-461.190674
 20
2050.010986
 10
-460.796844
 20
2050.298096
 10
-460.307068
 20
2050.648682
 10
-459.730225
 20
2051.051025
 10
-459.074982
 20
2051.493164
 10
-458.347839
 20
2051.963867
 10
-457.553894
 20
2052.451172
 10
-456.69632
 20
2052.942871
 10
-455.777466
 20
2053.424561
 10
-454.798706
 20
2053.880127
 10
-453.760376
 20
2054.290527
 10
-452.664429
 20
2054.633545
 10
-451.518951
 20
2054.884521
 10
-450.336029
 20
2055.017822
 10
-449.13913
 20
2055.02002
 10
-447.955322
 20
2054.890625
 10
-446.808411
 20
2054.643311
 10
-445.710724
 20
2054.302734
 10
-444.670563
 20
2053.893799
 10
-443.68985
 20
2053.439453
 10
-442.769043
 20
2052.958496
 10
-441.909485
 20
2052.467041
 10
-441.113434
 20
2051.979248
 10
-440.384094
 20
2051.507812
 10
-439.726471
 20
2051.064453
 10
-439.146973
 20
2050.660645
 10
-438.654236
 20
2050.30835
 10
-438.257202
 20
2050.019287
 10
-437.963928
 20
2049.802002
 10
-437.782104
 20
2049.666016
 10
-437.718414
 20
2049.619141
  0
LINE
  5
2AB
330
285
100
AcDbEntity
  8
0
  6
Continuous
 62
     0
370
    30
100
AcDbLine
 10
-437.718415
 20
2049.619133
 30
0.0
 11
-421.968415
 21
2049.619133
 31
0.0
  0
LINE
  5
2AC
330
285
100
AcDbEntity
  8
0
  6
Continuous
 62
     0
370
     0
100
AcDbLine
 10
-421.968415
 20
2049.619133
 30
0.0
 11
-421.968415
 21
2081.619133
 31
0.0
  0
LINE
  5
2AD
330
285
100
AcDbEntity
  8
0
  6
Continuous
 62
     0
370
    30
100
AcDbLine
 10
-461.718415
 20
2049.619133
 30
0.0
 11
-477.468415
 21
2049.619133
 31
0.0
  0
LINE
  5
2AE
330
285
100
AcDbEntity
  8
0
  6
Continuous
 62
     0
370
     0
100
AcDbLine
 10
-477.468415
 20
2081.619133
 30
0.0
 11
-477.468415
 21
2049.619133
 31
0.0
  0
LWPOLYLINE
  5
2AF
330
285
100
AcDbEntity
  8
0
  6
Continuous
 62
     0
370
    30
100
AcDbPolyline
 90
       16
 70
     0
 43
0.0
 10
-446.768707
 20
2081.619141
 10
-446.83139
 20
2081.607178
 10
-447.018555
 20
2081.57373
 10
-447.320618
 20
2081.52417
 10
-447.727081
 20
2081.466553
 10
-448.221863
 20
2081.410645
 10
-448.783325
 20
2081.366455
 10
-449.387146
 20
2081.341309
 10
-450.00647
 20
2081.340576
 10
-450.612274
 20
2081.364014
 10
-451.177551
 20
2081.407227
 10
-451.677704
 20
2081.462646
 10
-452.090973
 20
2081.520264
 10
-452.401001
 20
2081.570801
 10
-452.596252
 20
2081.605713
 10
-452.668427
 20
2081.619141
  0
LINE
  5
2B0
330
285
100
AcDbEntity
  8
0
  6
Continuous
 62
     0
370
    30
100
AcDbLine
 10
-477.718415
 20
2049.869133
 30
0.0
 11
-477.718415
 21
2081.369133
 31
0.0
  0
LINE
  5
2B1
330
285
100
AcDbEntity
  8
0
  6
Continuous
 62
     0
370
    30
100
AcDbLine
 10
-421.718415
 20
2049.869133
 30
0.0
 11
-421.718415
 21
2081.369133
 31
0.0
  0
ARC
  5
2B2
330
285
100
AcDbEntity
  8
0
  6
Continuous
 62
     0
370
    30
100
AcDbCircle
 10
-421.968415
 20
2049.869133
 30
0.0
 40
0.2499999999997904
100
AcDbArc
 50
270.0
 51
360.0
  0
ARC
  5
2B3
330
285
100
AcDbEntity
  8
0
  6
Continuous
 62
     0
370
    30
100
AcDbCircle
 10
-477.468415
 20
2049.869133
 30
0.0
 40
0.2499999999924221
100
AcDbArc
 50
180.0
 51
270.0
  0
LINE
  5
2B4
330
285
100
AcDbEntity
  8
0
  6
Continuous
 62
     0
370
    30
100
AcDbLine
 10
-444.061589
 20
2053.619133
 30
0.0
 11
-455.375521
 21
2053.619133
 31
0.0
  0
LINE
  5
2B5
330
285
100
AcDbEntity
  8
0
  6
Continuous
 62
     0
370
    30
100
AcDbLine
 10
-389.218406
 20
2118.119141
 30
0.0
 11
-388.305668
 21
2118.103209
 31
0.0
  0
LINE
  5
2B6
330
285
100
AcDbEntity
  8
0
  6
Continuous
 62
     0
370
     0
100
AcDbLine
 10
-389.218406
 20
2111.619141
 30
0.0
 11
-389.218406
 21
2118.119141
 31
0.0
  0
LINE
  5
2B7
330
285
100
AcDbEntity
  8
0
  6
Continuous
 62
     0
370
     0
100
AcDbLine
 10
-389.218406
 20
2105.119141
 30
0.0
 11
-389.218406
 21
2111.619141
 31
0.0
  0
LWPOLYLINE
  5
2B8
330
285
100
AcDbEntity
  8
0
  6
Continuous
 62
     0
370
     0
100
AcDbPolyline
 90
       25
 70
     0
 43
0.0
 10
-388.305664
 20
2118.103271
 10
-388.261627
 20
2118.043457
 10
-388.133057
 20
2117.867676
 10
-387.932587
 20
2117.584717
 10
-387.676086
 20
2117.205078
 10
-387.381012
 20
2116.73999
 10
-387.065125
 20
2116.197266
 10
-386.746124
 20
2115.583008
 10
-386.441742
 20
2114.901367
 10
-386.17099
 20
2114.15625
 10
-385.954803
 20
2113.355469
 10
-385.813965
 20
2112.50708
 10
-385.763153
 20
2111.632324
 10
-385.811005
 20
2110.757324
 10
-385.949341
 20
2109.907715
 10
-386.163544
 20
2109.105469
 10
-386.432892
 20
2108.358398
 10
-386.736725
 20
2107.674805
 10
-387.055603
 20
2107.058594
 10
-387.371735
 20
2106.513672
 10
-387.667664
 20
2106.045898
 10
-387.92569
 20
2105.663818
 10
-388.128052
 20
2105.377686
 10
-388.259064
 20
2105.198486
 10
-388.305664
 20
2105.13501
  0
ARC
  5
2B9
330
285
100
AcDbEntity
  8
0
  6
Continuous
 62
     0
370
    30
100
AcDbCircle
 10
-388.218406
 20
2123.102447
 30
0.0
 40
5.000000000000154
100
AcDbArc
 50
269.0
 51
360.0
  0
ARC
  5
2BA
330
285
100
AcDbEntity
  8
0
  6
Continuous
 62
     0
370
    30
100
AcDbCircle
 10
-388.218406
 20
2100.135834
 30
0.0
 40
5.000000000000185
100
AcDbArc
 50
360.0
 51
91.0
  0
LWPOLYLINE
  5
2BB
330
285
100
AcDbEntity
  8
0
  6
Continuous
 62
     0
370
     0
100
AcDbPolyline
 90
       32
 70
     0
 43
0.0
 10
-383.218414
 20
2123.102539
 10
-383.192078
 20
2123.026123
 10
-383.116272
 20
2122.802734
 10
-382.996765
 20
2122.442871
 10
-382.842468
 20
2121.962402
 10
-382.662689
 20
2121.377686
 10
-382.466705
 20
2120.703613
 10
-382.262909
 20
2119.952637
 10
-382.059113
 20
2119.135254
 10
-381.862244
 20
2118.259521
 10
-381.678741
 20
2117.33252
 10
-381.514587
 20
2116.36084
 10
-381.375305
 20
2115.351074
 10
-381.265808
 20
2114.310547
 10
-381.190277
 20
2113.246582
 10
-381.15155
 20
2112.168213
 10
-381.151245
 20
2111.084961
 10
-381.189423
 20
2110.006592
 10
-381.264465
 20
2108.942383
 10
-381.373596
 20
2107.901367
 10
-381.512512
 20
2106.891113
 10
-381.676361
 20
2105.918945
 10
-381.859589
 20
2104.991455
 10
-382.056305
 20
2104.114746
 10
-382.260101
 20
2103.296387
 10
-382.463989
 20
2102.544434
 10
-382.660034
 20
2101.869385
 10
-382.839874
 20
2101.283447
 10
-382.99472
 20
2100.801514
 10
-383.115112
 20
2100.439453
 10
-383.191559
 20
2100.213867
 10
-383.218414
 20
2100.135742
  0
LINE
  5
2BC
330
285
100
AcDbEntity
  8
0
  6
Continuous
 62
     0
370
    30
100
AcDbLine
 10
-383.218406
 20
2095.619141
 30
0.0
 11
-383.218406
 21
2100.135834
 31
0.0
  0
LINE
  5
2BD
330
285
100
AcDbEntity
  8
0
  6
Continuous
 62
     0
370
    30
100
AcDbLine
 10
-383.218406
 20
2123.102447
 30
0.0
 11
-383.218406
 21
2126.119141
 31
0.0
  0
LINE
  5
2BE
330
285
100
AcDbEntity
  8
0
  6
Continuous
 62
     0
370
     0
100
AcDbLine
 10
-339.218406
 20
2126.119141
 30
0.0
 11
-383.218406
 21
2126.119141
 31
0.0
  0
LINE
  5
2BF
330
285
100
AcDbEntity
  8
0
  6
Continuous
 62
     0
370
    30
100
AcDbLine
 10
-383.218406
 20
2095.619141
 30
0.0
 11
-361.747722
 21
2095.619141
 31
0.0
  0
LINE
  5
2C0
330
285
100
AcDbEntity
  8
0
  6
Continuous
 62
     0
370
    30
100
AcDbLine
 10
-361.747722
 20
2095.619141
 30
0.0
 11
-339.218406
 21
2103.819246
 31
0.0
  0
LWPOLYLINE
  5
2C1
330
285
100
AcDbEntity
  8
0
  6
Continuous
 62
     0
370
    30
100
AcDbPolyline
 90
       38
 70
     0
 43
0.0
 10
-339.718414
 20
2126.619141
 10
-339.795837
 20
2126.619141
 10
-340.02774
 20
2126.619141
 10
-340.411865
 20
2126.619141
 10
-340.94516
 20
2126.619141
 10
-341.623993
 20
2126.619141
 10
-342.444458
 20
2126.619141
 10
-343.400726
 20
2126.619141
 10
-344.485626
 20
2126.619141
 10
-345.691467
 20
2126.619141
 10
-347.008423
 20
2126.619141
 10
-348.426331
 20
2126.619141
 10
-349.935181
 20
2126.619141
 10
-351.525146
 20
2126.619141
 10
-353.186462
 20
2126.619141
 10
-354.906891
 20
2126.619141
 10
-356.673035
 20
2126.619141
 10
-358.471649
 20
2126.619141
 10
-360.289734
 20
2126.619141
 10
-362.11441
 20
2126.619141
 10
-363.932739
 20
2126.619141
 10
-365.731812
 20
2126.619141
 10
-367.498657
 20
2126.619141
 10
-369.220032
 20
2126.619141
 10
-370.882507
 20
2126.619141
 10
-372.473846
 20
2126.619141
 10
-373.984192
 20
2126.619141
 10
-375.403839
 20
2126.619141
 10
-376.722748
 20
2126.619141
 10
-377.930664
 20
2126.619141
 10
-379.017761
 20
2126.619141
 10
-379.976349
 20
2126.619141
 10
-380.799316
 20
2126.619141
 10
-381.480774
 20
2126.619141
 10
-382.016754
 20
2126.619141
 10
-382.403534
 20
2126.619141
 10
-382.638153
 20
2126.619141
 10
-382.718414
 20
2126.619141
  0
ARC
  5
2C2
330
285
100
AcDbEntity
  8
0
  6
Continuous
 62
     0
370
    30
100
AcDbCircle
 10
-382.718406
 20
2126.119141
 30
0.0
 40
0.5000000000000706
100
AcDbArc
 50
90.0
 51
180.0
  0
LINE
  5
2C3
330
285
100
AcDbEntity
  8
0
  6
Continuous
 62
     0
370
     0
100
AcDbLine
 10
-419.218406
 20
2105.11914
 30
0.0
 11
-419.218406
 21
2111.619141
 31
0.0
  0
LINE
  5
2C4
330
285
100
AcDbEntity
  8
0
  6
Continuous
 62
     0
370
     0
100
AcDbLine
 10
-419.218406
 20
2111.619141
 30
0.0
 11
-419.218406
 21
2118.119141
 31
0.0
  0
LINE
  5
2C5
330
285
100
AcDbEntity
  8
0
  6
Continuous
 62
     0
370
    30
100
AcDbLine
 10
-420.218406
 20
2111.619141
 30
0.0
 11
-420.218406
 21
2117.119141
 31
0.0
  0
LINE
  5
2C6
330
285
100
AcDbEntity
  8
0
  6
Continuous
 62
     0
370
    30
100
AcDbLine
 10
-420.218406
 20
2106.11914
 30
0.0
 11
-420.218406
 21
2111.619141
 31
0.0
  0
LINE
  5
2C7
330
285
100
AcDbEntity
  8
0
  6
Continuous
 62
     0
370
    30
100
AcDbLine
 10
-311.218422
 20
1235.619137
 30
0.0
 11
-353.523411
 21
1235.619138
 31
0.0
  0
LINE
  5
2C8
330
285
100
AcDbEntity
  8
0
  6
Continuous
 62
     0
370
    30
100
AcDbLine
 10
-353.523411
 20
1235.619138
 30
0.0
 11
-411.218422
 21
1235.619139
 31
0.0
  0
LINE
  5
2C9
330
285
100
AcDbEntity
  8
0
  6
Continuous
 62
     0
370
    30
100
AcDbLine
 10
-411.218422
 20
1219.619139
 30
0.0
 11
-353.523412
 21
1219.619138
 31
0.0
  0
LINE
  5
2CA
330
285
100
AcDbEntity
  8
0
  6
Continuous
 62
     0
370
    30
100
AcDbLine
 10
-353.523412
 20
1219.619138
 30
0.0
 11
-311.218422
 21
1219.619137
 31
0.0
  0
ARC
  5
2CB
330
285
100
AcDbEntity
  8
0
  6
Continuous
 62
     0
370
    30
100
AcDbCircle
 10
-391.218405
 20
2083.619141
 30
0.0
 40
7.999999999999854
100
AcDbArc
 50
270.0
 51
360.0
  0
ARC
  5
2CC
330
285
100
AcDbEntity
  8
0
  6
Continuous
 62
     0
370
    30
100
AcDbCircle
 10
-391.218405
 20
2047.619125
 30
0.0
 40
7.999999999999842
100
AcDbArc
 50
360.0
 51
90.0
  0
LINE
  5
2CD
330
285
100
AcDbEntity
  8
0
  6
Continuous
 62
     0
370
    30
100
AcDbLine
 10
-383.218405
 20
2094.619141
 30
0.0
 11
-383.218405
 21
2083.619141
 31
0.0
  0
LINE
  5
2CE
330
285
100
AcDbEntity
  8
0
  6
Continuous
 62
     0
370
    30
100
AcDbLine
 10
-339.218406
 20
2094.619141
 30
0.0
 11
-383.218405
 21
2094.619141
 31
0.0
  0
LWPOLYLINE
  5
2CF
330
285
100
AcDbEntity
  8
0
  6
Continuous
 62
     0
370
     0
100
AcDbPolyline
 90
       42
 70
     0
 43
0.0
 10
-383.218414
 20
2083.619141
 10
-383.184418
 20
2083.542236
 10
-383.084778
 20
2083.313721
 10
-382.925537
 20
2082.945312
 10
-382.71521
 20
2082.450684
 10
-382.463684
 20
2081.845703
 10
-382.180634
 20
2081.14624
 10
-381.875061
 20
2080.365234
 10
-381.555328
 20
2079.514404
 10
-381.229034
 20
2078.603516
 10
-380.90271
 20
2077.640137
 10
-380.582428
 20
2076.630615
 10
-380.27417
 20
2075.580566
 10
-379.983459
 20
2074.495361
 10
-379.715393
 20
2073.378906
 10
-379.474823
 20
2072.234375
 10
-379.266144
 20
2071.066406
 10
-379.093567
 20
2069.878174
 10
-378.960541
 20
2068.674316
 10
-378.870117
 20
2067.458496
 10
-378.824249
 20
2066.23584
 10
-378.824158
 20
2065.010742
 10
-378.869781
 20
2063.788086
 10
-378.959869
 20
2062.572266
 10
-379.092438
 20
2061.368164
 10
-379.264679
 20
2060.179932
 10
-379.473206
 20
2059.011719
 10
-379.713715
 20
2057.867188
 10
-379.981628
 20
2056.750488
 10
-380.272156
 20
2055.665039
 10
-380.580261
 20
2054.614746
 10
-380.900452
 20
2053.604736
 10
-381.226746
 20
2052.641113
 10
-381.553101
 20
2051.72998
 10
-381.872925
 20
2050.878662
 10
-382.178589
 20
2050.096924
 10
-382.461823
 20
2049.396973
 10
-382.713623
 20
2048.791504
 10
-382.924255
 20
2048.295898
 10
-383.083893
 20
2047.926514
 10
-383.18396
 20
2047.697144
 10
-383.218414
 20
2047.619141
  0
LINE
  5
2D0
330
285
100
AcDbEntity
  8
0
  6
Continuous
 62
     0
370
    30
100
AcDbLine
 10
-383.218406
 20
1671.527009
 30
0.0
 11
-383.218406
 21
1235.619139
 31
0.0
  0
LINE
  5
2D1
330
285
100
AcDbEntity
  8
0
  6
Continuous
 62
     0
370
    30
100
AcDbLine
 10
-383.218405
 20
2047.619125
 30
0.0
 11
-383.218406
 21
1709.39963
 31
0.0
  0
LWPOLYLINE
  5
2D2
330
285
100
AcDbEntity
  8
0
  6
Continuous
 62
     0
370
     0
100
AcDbPolyline
 90
       26
 70
     0
 43
0.0
 10
-385.21936
 20
2065.619141
 10
-385.249756
 20
2066.29834
 10
-385.344543
 20
2066.968018
 10
-385.48941
 20
2067.622314
 10
-385.683289
 20
2068.256104
 10
-385.919128
 20
2068.865479
 10
-386.189209
 20
2069.449219
 10
-386.484894
 20
2070.007568
 10
-386.800995
 20
2070.540527
 10
-387.13205
 20
2071.048828
 10
-387.473358
 20
2071.533447
 10
-387.820923
 20
2071.994873
 10
-388.170868
 20
2072.43335
 10
-388.519684
 20
2072.849121
 10
-388.863953
 20
2073.241943
 10
-389.200104
 20
2073.611572
 10
-389.524323
 20
2073.956543
 10
-389.832916
 20
2074.275879
 10
-390.12204
 20
2074.567383
 10
-390.387482
 20
2074.829346
 10
-390.624542
 20
2075.058838
 10
-390.828186
 20
2075.253174
 10
-390.993164
 20
2075.408936
 10
-391.115387
 20
2075.523438
 10
-391.191132
 20
2075.594238
 10
-391.218414
 20
2075.619141
  0
LWPOLYLINE
  5
2D3
330
285
100
AcDbEntity
  8
0
  6
Continuous
 62
     0
370
     0
100
AcDbPolyline
 90
       26
 70
     0
 43
0.0
 10
-391.218414
 20
2055.619141
 10
-391.193024
 20
2055.642334
 10
-391.119019
 20
2055.711426
 10
-390.998199
 20
2055.824463
 10
-390.834381
 20
2055.979004
 10
-390.631775
 20
2056.172363
 10
-390.395538
 20
2056.401123
 10
-390.130768
 20
2056.662354
 10
-389.842041
 20
2056.953369
 10
-389.533569
 20
2057.271973
 10
-389.20929
 20
2057.616455
 10
-388.873077
 20
2057.98584
 10
-388.528687
 20
2058.378418
 10
-388.179749
 20
2058.793945
 10
-387.829559
 20
2059.232422
 10
-387.481537
 20
2059.693604
 10
-387.139618
 20
2060.178223
 10
-386.807922
 20
2060.686523
 10
-386.49115
 20
2061.219482
 10
-386.194824
 20
2061.777832
 10
-385.923859
 20
2062.361816
 10
-385.686981
 20
2062.971191
 10
-385.492462
 20
2063.605225
 10
-385.346985
 20
2064.26001
 10
-385.250214
 20
2064.929932
 10
-385.21936
 20
2065.619141
  0
LINE
  5
2D4
330
285
100
AcDbEntity
  8
0
  6
Continuous
 62
     0
370
    30
100
AcDbLine
 10
-459.618415
 20
2020.464369
 30
0.0
 11
-440.109194
 21
2020.464369
 31
0.0
  0
LINE
  5
2D5
330
285
100
AcDbEntity
  8
0
  6
Continuous
 62
     0
370
    30
100
AcDbLine
 10
-440.109194
 20
2020.464369
 30
0.0
 11
-439.818415
 21
2020.464369
 31
0.0
  0
LINE
  5
2D6
330
285
100
AcDbEntity
  8
0
  6
Continuous
 62
     0
370
    30
100
AcDbLine
 10
-460.565903
 20
2050.464369
 30
0.0
 11
-438.870993
 21
2050.464369
 31
0.0
  0
LINE
  5
2D7
330
285
100
AcDbEntity
  8
0
  6
Continuous
 62
     0
370
    30
100
AcDbLine
 10
-351.185653
 20
1850.266064
 30
0.0
 11
-370.706364
 21
1850.266064
 31
0.0
  0
LINE
  5
2D8
330
285
100
AcDbEntity
  8
0
  6
Continuous
 62
     0
370
    30
100
AcDbLine
 10
-370.706364
 20
1850.266064
 30
0.0
 11
-371.251163
 21
1850.266064
 31
0.0
  0
LWPOLYLINE
  5
2D9
330
285
100
AcDbEntity
  8
0
  6
Continuous
 62
     0
370
    30
100
AcDbPolyline
 90
       21
 70
     0
 43
0.0
 10
-377.092377
 20
2009.766113
 10
-377.051392
 20
2009.813843
 10
-376.930023
 20
2009.956665
 10
-376.732391
 20
2010.190308
 10
-376.463989
 20
2010.509277
 10
-376.132324
 20
2010.906616
 10
-375.745392
 20
2011.375366
 10
-375.311096
 20
2011.908569
 10
-374.837463
 20
2012.500366
 10
-374.332397
 20
2013.145142
 10
-373.803589
 20
2013.838379
 10
-373.258331
 20
2014.577515
 10
-372.70401
 20
2015.360107
 10
-372.149902
 20
2016.185425
 10
-371.60672
 20
2017.053833
 10
-371.085693
 20
2017.966431
 10
-370.602386
 20
2018.925903
 10
-370.177368
 20
2019.935303
 10
-369.836365
 20
2020.994873
 10
-369.609741
 20
2022.099609
 10
-369.52417
 20
2023.266113
  0
LINE
  5
2DA
330
285
100
AcDbEntity
  8
0
  6
Continuous
 62
     0
370
    30
100
AcDbLine
 10
-369.524174
 20
2023.266064
 30
0.0
 11
-369.358092
 21
2072.766064
 31
0.0
  0
LWPOLYLINE
  5
2DB
330
285
100
AcDbEntity
  8
0
  6
Continuous
 62
     0
370
    30
100
AcDbPolyline
 90
       21
 70
     0
 43
0.0
 10
-369.358093
 20
2072.766113
 10
-369.433105
 20
2073.899658
 10
-369.653778
 20
2075.007812
 10
-369.992706
 20
2076.070068
 10
-370.418182
 20
2077.081543
 10
-370.903503
 20
2078.04248
 10
-371.42746
 20
2078.955811
 10
-371.973969
 20
2079.825195
 10
-372.531677
 20
2080.651367
 10
-373.089691
 20
2081.434814
 10
-373.638702
 20
2082.175049
 10
-374.171295
 20
2082.869629
 10
-374.680054
 20
2083.515625
 10
-375.157379
 20
2084.109375
 10
-375.595276
 20
2084.644287
 10
-375.985687
 20
2085.11499
 10
-376.320648
 20
2085.514648
 10
-376.592133
 20
2085.835693
 10
-376.79245
 20
2086.071533
 10
-376.916077
 20
2086.216309
 10
-376.958862
 20
2086.266113
  0
LINE
  5
2DC
330
285
100
AcDbEntity
  8
0
  6
Continuous
 62
     0
370
    30
100
AcDbLine
 10
-377.318408
 20
1880.266064
 30
0.0
 11
-345.118408
 21
1880.266064
 31
0.0
  0
LINE
  5
2DD
330
285
100
AcDbEntity
  8
0
  6
Continuous
 62
     0
370
    30
100
AcDbLine
 10
-377.318408
 20
1880.266064
 30
0.0
 11
-377.092388
 21
2009.766064
 31
0.0
  0
LINE
  5
2DE
330
285
100
AcDbEntity
  8
0
  6
Continuous
 62
     0
370
    30
100
AcDbLine
 10
-376.95887
 20
2086.266064
 30
0.0
 11
-376.951885
 21
2090.26781
 31
0.0
  0
LINE
  5
2DF
330
285
100
AcDbEntity
  8
0
  6
Continuous
 62
     0
370
     0
100
AcDbLine
 10
-345.484931
 20
2090.26781
 30
0.0
 11
-376.951885
 21
2090.26781
 31
0.0
  0
LINE
  5
2E0
330
285
100
AcDbEntity
  8
0
  6
Continuous
 62
     0
370
    30
100
AcDbLine
 10
-375.951887
 20
2091.266064
 30
0.0
 11
-346.484929
 21
2091.266064
 31
0.0
  0
ARC
  5
2E1
330
285
100
AcDbEntity
  8
0
  6
Continuous
 62
     0
370
    30
100
AcDbCircle
 10
-375.951887
 20
2090.266064
 30
0.0
 40
1.0
100
AcDbArc
 50
90.0
 51
179.9
  0
ARC
  5
2E2
330
285
100
AcDbEntity
  8
0
  6
Continuous
 62
     0
370
    30
100
AcDbCircle
 10
-375.468408
 20
2011.021382
 30
0.0
 40
0.7500000000000209
100
AcDbArc
 50
152.297563
 51
180.0
  0
LINE
  5
2E3
330
285
100
AcDbEntity
  8
0
  6
Continuous
 62
     0
370
     0
100
AcDbLine
 10
-372.584721
 20
2072.90978
 30
0.0
 11
-372.393475
 21
2072.912939
 31
0.0
  0
LWPOLYLINE
  5
2E4
330
285
100
AcDbEntity
  8
0
  6
Continuous
 62
     0
370
     0
100
AcDbPolyline
 90
       19
 70
     0
 43
0.0
 10
-372.393463
 20
2072.912842
 10
-372.429443
 20
2073.878906
 10
-372.519165
 20
2074.837402
 10
-372.659271
 20
2075.782959
 10
-372.844666
 20
2076.710205
 10
-373.069427
 20
2077.614502
 10
-373.326904
 20
2078.492432
 10
-373.610077
 20
2079.340088
 10
-373.911835
 20
2080.153809
 10
-374.225159
 20
2080.929932
 10
-374.542816
 20
2081.663818
 10
-374.857239
 20
2082.349854
 10
-375.1604
 20
2082.980225
 10
-375.443542
 20
2083.546875
 10
-375.697266
 20
2084.038818
 10
-375.911224
 20
2084.443604
 10
-376.075073
 20
2084.748291
 10
-376.179718
 20
2084.940186
 10
-376.218414
 20
2085.010742
  0
ARC
  5
2E5
330
285
100
AcDbEntity
  8
0
  6
Continuous
 62
     0
370
    30
100
AcDbCircle
 10
-375.468408
 20
2085.010842
 30
0.0
 40
0.7500000000000151
100
AcDbArc
 50
180.0
 51
207.633805
  0
LINE
  5
2E6
330
285
100
AcDbEntity
  8
0
  6
Continuous
 62
     0
370
     0
100
AcDbLine
 10
-372.584721
 20
2023.265675
 30
0.0
 11
-372.393475
 21
2023.265675
 31
0.0
  0
LINE
  5
2E7
330
285
100
AcDbEntity
  8
0
  6
Continuous
 62
     0
370
     0
100
AcDbLine
 10
-372.393475
 20
2023.265675
 30
0.0
 11
-372.393475
 21
2072.912939
 31
0.0
  0
LWPOLYLINE
  5
2E8
330
285
100
AcDbEntity
  8
0
  6
Continuous
 62
     0
370
     0
100
AcDbPolyline
 90
       19
 70
     0
 43
0.0
 10
-376.218414
 20
2011.021362
 10
-376.183411
 20
2011.085205
 10
-376.080994
 20
2011.273315
 10
-375.917786
 20
2011.576416
 10
-375.703369
 20
2011.981934
 10
-375.448334
 20
2012.47644
 10
-375.162994
 20
2013.047241
 10
-374.85733
 20
2013.683105
 10
-374.5401
 20
2014.375244
 10
-374.219696
 20
2015.116211
 10
-373.903839
 20
2015.900024
 10
-373.599915
 20
2016.722168
 10
-373.315308
 20
2017.578613
 10
-373.05722
 20
2018.465698
 10
-372.832581
 20
2019.379517
 10
-372.648254
 20
2020.316162
 10
-372.510651
 20
2021.27124
 10
-372.424683
 20
2022.239136
 10
-372.393463
 20
2023.265625
  0
LWPOLYLINE
  5
2E9
330
285
100
AcDbEntity
  8
0
  6
Continuous
 62
     0
370
    30
100
AcDbPolyline
 90
       13
 70
     0
 43
0.0
 10
-372.635498
 20
2021.949707
 10
-373.422974
 20
2026.241943
 10
-374.067657
 20
2030.534302
 10
-374.56955
 20
2034.826538
 10
-374.928619
 20
2039.118896
 10
-375.144897
 20
2043.411255
 10
-375.218384
 20
2047.703491
 10
-375.149078
 20
2051.99585
 10
-374.936951
 20
2056.288086
 10
-374.582031
 20
2060.580322
 10
-374.08432
 20
2064.872803
 10
-373.443787
 20
2069.165039
 10
-372.610199
 20
2073.708496
  0
LINE
  5
2EA
330
285
100
AcDbEntity
  8
0
  6
Continuous
 62
     0
370
    30
100
AcDbLine
 10
-376.218408
 20
2010.803157
 30
0.0
 11
-376.218408
 21
2011.021382
 31
0.0
  0
LINE
  5
2EB
330
285
100
AcDbEntity
  8
0
  6
Continuous
 62
     0
370
    30
100
AcDbLine
 10
-376.218408
 20
2085.010842
 30
0.0
 11
-376.218408
 21
2085.392992
 31
0.0
  0
LWPOLYLINE
  5
2EC
330
285
100
AcDbEntity
  8
0
  6
Continuous
 62
     0
370
    30
100
AcDbPolyline
 90
       18
 70
     0
 43
0.0
 10
-372.584717
 20
2023.265625
 10
-372.614624
 20
2022.258301
 10
-372.702271
 20
2021.258789
 10
-372.844208
 20
2020.275024
 10
-373.033661
 20
2019.313354
 10
-373.263367
 20
2018.378906
 10
-373.525482
 20
2017.476074
 10
-373.812042
 20
2016.608887
 10
-374.115021
 20
2015.781372
 10
-374.4263
 20
2014.998535
 10
-374.737793
 20
2014.265747
 10
-375.040924
 20
2013.590088
 10
-375.326599
 20
2012.980835
 10
-375.584625
 20
2012.449341
 10
-375.804504
 20
2012.008789
 10
-375.975708
 20
2011.672852
 10
-376.087555
 20
2011.456299
 10
-376.132446
 20
2011.369995
  0
LINE
  5
2ED
330
285
100
AcDbEntity
  8
0
  6
Continuous
 62
     0
370
    30
100
AcDbLine
 10
-372.584721
 20
2023.265675
 30
0.0
 11
-372.584721
 21
2072.909715
 31
0.0
  0
LINE
  5
2EE
330
285
100
AcDbEntity
  8
0
  6
Continuous
 62
     0
370
    30
100
AcDbLine
 10
-376.132854
 20
2084.662978
 30
0.0
 11
-376.098017
 21
2084.603302
 31
0.0
  0
LWPOLYLINE
  5
2EF
330
285
100
AcDbEntity
  8
0
  6
Continuous
 62
     0
370
    30
100
AcDbPolyline
 90
       18
 70
     0
 43
0.0
 10
-372.584717
 20
2072.909668
 10
-372.622345
 20
2073.907715
 10
-372.716583
 20
2074.896973
 10
-372.863251
 20
2075.869873
 10
-373.055878
 20
2076.820557
 10
-373.287323
 20
2077.743896
 10
-373.549927
 20
2078.635742
 10
-373.835785
 20
2079.492188
 10
-374.137085
 20
2080.309326
 10
-374.445953
 20
2081.082275
 10
-374.754547
 20
2081.80542
 10
-375.054443
 20
2082.472168
 10
-375.336731
 20
2083.073242
 10
-375.591492
 20
2083.597168
 10
-375.808411
 20
2084.031494
 10
-375.977264
 20
2084.362549
 10
-376.087677
 20
2084.576172
 10
-376.132843
 20
2084.663086
  0
ARC
  5
2F0
330
285
100
AcDbEntity
  8
0
  6
Continuous
 62
     0
370
    30
100
AcDbCircle
 10
-346.484954
 20
2090.266039
 30
0.0
 40
1.000025300099685
100
AcDbArc
 50
0.101447
 51
89.992824
  0
LINE
  5
2F1
330
285
100
AcDbEntity
  8
0
  6
Continuous
 62
     0
370
    30
100
AcDbLine
 10
-345.118408
 20
1880.266064
 30
0.0
 11
-345.484931
 21
2090.26781
 31
0.0
  0
LINE
  5
2F2
330
285
100
AcDbEntity
  8
0
  6
Continuous
 62
     0
370
    30
100
AcDbLine
 10
-349.91747
 20
1876.195937
 30
0.0
 11
-349.718408
 21
1880.266064
 31
0.0
  0
LINE
  5
2F3
330
285
100
AcDbEntity
  8
0
  6
Continuous
 62
     0
370
    30
100
AcDbLine
 10
-351.185653
 20
1850.266064
 30
0.0
 11
-351.006607
 21
1853.926926
 31
0.0
  0
LINE
  5
2F4
330
285
100
AcDbEntity
  8
0
  6
Continuous
 62
     0
370
    30
100
AcDbLine
 10
-371.430209
 20
1853.926926
 30
0.0
 11
-371.251163
 21
1850.266064
 31
0.0
  0
LINE
  5
2F5
330
285
100
AcDbEntity
  8
0
  6
Continuous
 62
     0
370
    30
100
AcDbLine
 10
-372.718408
 20
1880.266064
 30
0.0
 11
-372.519346
 21
1876.195937
 31
0.0
  0
LINE
  5
2F6
330
285
100
AcDbEntity
  8
0
  6
Continuous
 62
     0
370
    30
100
AcDbLine
 10
-461.146666
 20
2050.043418
 30
0.0
 11
-459.618415
 21
2020.464369
 31
0.0
  0
LINE
  5
2F7
330
285
100
AcDbEntity
  8
0
  6
Continuous
 62
     0
370
    30
100
AcDbLine
 10
-438.290165
 20
2050.043404
 30
0.0
 11
-439.818415
 21
2020.464369
 31
0.0
  0
LINE
  5
2F8
330
285
100
AcDbEntity
  8
0
  6
Continuous
 62
     0
370
    30
100
AcDbLine
 10
-391.218405
 20
2075.619141
 30
0.0
 11
-421.718415
 21
2075.619141
 31
0.0
  0
LINE
  5
2F9
330
285
100
AcDbEntity
  8
0
  6
Continuous
 62
     0
370
    30
100
AcDbLine
 10
-391.218405
 20
2055.619125
 30
0.0
 11
-421.718415
 21
2055.619125
 31
0.0
  0
LINE
  5
2FA
330
285
100
AcDbEntity
  8
0
  6
Continuous
 62
     0
370
    30
100
AcDbLine
 10
-339.218406
 20
2094.619141
 30
0.0
 11
-339.218406
 21
1235.619138
 31
0.0
  0
LINE
  5
2FB
330
285
100
AcDbEntity
  8
0
  6
Continuous
 62
     0
370
    30
100
AcDbLine
 10
-311.218422
 20
1235.619137
 30
0.0
 11
-311.218422
 21
1219.619137
 31
0.0
  0
LINE
  5
2FC
330
285
100
AcDbEntity
  8
0
  6
Continuous
 62
     0
370
    30
100
AcDbLine
 10
-411.218422
 20
1235.619139
 30
0.0
 11
-411.218422
 21
1219.619139
 31
0.0
  0
ARC
  5
2FD
330
285
100
AcDbEntity
  8
0
  6
Continuous
 62
     0
370
    30
100
AcDbCircle
 10
-361.421332
 20
2093.232934
 30
0.0
 40
20.4998389125428
100
AcDbArc
 50
3.877322
 51
26.594495
  0
ARC
  5
2FE
330
285
100
AcDbEntity
  8
0
  6
Continuous
 62
     0
370
    30
100
AcDbCircle
 10
-361.014755
 20
2093.232836
 30
0.0
 40
20.50058610253383
100
AcDbArc
 50
173.315517
 51
176.122547
  0
ARC
  5
2FF
330
285
100
AcDbEntity
  8
0
  6
Continuous
 62
     0
370
    30
100
AcDbCircle
 10
-419.218381
 20
2117.119117
 30
0.0
 40
1.000024305464348
100
AcDbArc
 50
90.001393
 51
179.997795
  0
ARC
  5
300
330
285
100
AcDbEntity
  8
0
  6
Continuous
 62
     0
370
    30
100
AcDbCircle
 10
-419.218381
 20
2106.119164
 30
0.0
 40
1.000024305464158
100
AcDbArc
 50
180.002205
 51
269.998607
  0
LINE
  5
301
330
285
100
AcDbEntity
  8
0
  6
Continuous
 62
     0
370
    30
100
AcDbLine
 10
-389.218406
 20
2118.119141
 30
0.0
 11
-419.218406
 21
2118.119141
 31
0.0
  0
LINE
  5
302
330
285
100
AcDbEntity
  8
0
  6
Continuous
 62
     0
370
    30
100
AcDbLine
 10
-389.218406
 20
2105.11914
 30
0.0
 11
-419.218406
 21
2105.11914
 31
0.0
  0
ARC
  5
303
330
285
100
AcDbEntity
  8
0
  6
Continuous
 62
     0
370
    30
100
AcDbCircle
 10
-339.718409
 20
2126.119137
 30
0.0
 40
0.500003442282348
100
AcDbArc
 50
0.000394
 51
89.999606
  0
LINE
  5
304
330
285
100
AcDbEntity
  8
0
  6
Continuous
 62
     0
370
    30
100
AcDbLine
 10
-339.218406
 20
2103.819342
 30
0.0
 11
-339.218406
 21
2126.119141
 31
0.0
  0
LINE
  5
305
330
285
100
AcDbEntity
  8
0
  6
Continuous
 62
     0
370
    30
100
AcDbLine
 10
-388.305668
 20
2105.135073
 30
0.0
 11
-389.218406
 21
2105.119141
 31
0.0
  0
LINE
  5
306
330
285
100
AcDbEntity
  8
0
  6
Continuous
 62
     0
370
    30
100
AcDbLine
 10
-439.218415
 20
2050.464369
 30
0.0
 11
-439.218415
 21
2050.711093
 31
0.0
  0
LINE
  5
307
330
285
100
AcDbEntity
  8
0
  6
Continuous
 62
     0
370
    30
100
AcDbLine
 10
-460.218415
 20
2050.464369
 30
0.0
 11
-460.218415
 21
2050.711197
 31
0.0
  0
ARC
  5
308
330
285
100
AcDbEntity
  8
0
  6
Continuous
 62
     0
370
    30
100
AcDbCircle
 10
-477.468402
 20
2081.369121
 30
0.0
 40
0.2500125408187363
100
AcDbArc
 50
90.002874
 51
179.997126
  0
LINE
  5
309
330
285
100
AcDbEntity
  8
0
  6
Continuous
 62
     0
370
    30
100
AcDbLine
 10
-477.716581
 20
2049.839104
 30
0.0
 11
-477.718415
 21
2049.869133
 31
0.0
  0
ARC
  5
30A
330
285
100
AcDbEntity
  8
0
  6
Continuous
 62
     0
370
    30
100
AcDbCircle
 10
-421.968427
 20
2081.369121
 30
0.0
 40
0.2500125408180479
100
AcDbArc
 50
0.002874
 51
89.997126
  0
LINE
  5
30B
330
285
100
AcDbEntity
  8
0
  6
Continuous
 62
     0
370
    30
100
AcDbLine
 10
-421.720248
 20
2049.839104
 30
0.0
 11
-421.718415
 21
2049.869133
 31
0.0
  0
LINE
  5
30C
330
285
100
AcDbEntity
  8
0
  6
Continuous
 62
     0
370
    30
100
AcDbLine
 10
-421.968415
 20
2081.619133
 30
0.0
 11
-446.768702
 21
2081.619133
 31
0.0
  0
LINE
  5
30D
330
285
100
AcDbEntity
  8
0
  6
Continuous
 62
     0
370
    30
100
AcDbLine
 10
-452.668415
 20
2081.619133
 30
0.0
 11
-477.468415
 21
2081.619133
 31
0.0
  0
ARC
  5
30E
330
285
100
AcDbEntity
  8
0
  6
Continuous
 62
     0
370
    30
100
AcDbCircle
 10
-458.016999
 20
2102.645522
 30
0.0
 40
0.7000038834702582
100
AcDbArc
 50
90.116247
 51
180.115629
  0
ARC
  5
30F
330
285
100
AcDbEntity
  8
0
  6
Continuous
 62
     0
370
    30
100
AcDbCircle
 10
-441.419835
 20
2102.645523
 30
0.0
 40
0.7000036879260416
100
AcDbArc
 50
359.884354
 51
89.883737
  0
LINE
  5
310
330
285
100
AcDbEntity
  8
0
  6
Continuous
 62
     0
370
    30
100
AcDbLine
 10
-458.677941
 20
2083.344149
 30
0.0
 11
-458.716998
 21
2102.64411
 31
0.0
  0
LINE
  5
311
330
285
100
AcDbEntity
  8
0
  6
Continuous
 62
     0
370
    30
100
AcDbLine
 10
-440.758888
 20
2083.344149
 30
0.0
 11
-440.719831
 21
2102.64411
 31
0.0
  0
LINE
  5
312
330
285
100
AcDbEntity
  8
0
  6
Continuous
 62
     0
370
    30
100
AcDbLine
 10
-458.018416
 20
2103.345525
 30
0.0
 11
-449.75252
 21
2103.362252
 31
0.0
  0
LINE
  5
313
330
285
100
AcDbEntity
  8
0
  6
Continuous
 62
     0
370
    30
100
AcDbLine
 10
-441.418413
 20
2103.345525
 30
0.0
 11
-449.68431
 21
2103.362252
 31
0.0
  0
LINE
  5
314
330
285
100
AcDbEntity
  8
0
  6
Continuous
 62
     0
370
    30
100
AcDbLine
 10
-452.244696
 20
2083.344149
 30
0.0
 11
-452.241052
 21
2081.543139
 31
0.0
  0
LINE
  5
315
330
285
100
AcDbEntity
  8
0
  6
Continuous
 62
     0
370
    30
100
AcDbLine
 10
-447.195778
 20
2081.543166
 30
0.0
 11
-447.192133
 21
2083.344149
 31
0.0
  0
LINE
  5
316
330
285
100
AcDbEntity
  8
0
  6
Continuous
 62
     0
370
    30
100
AcDbLine
 10
-598.718419
 20
2055.619135
 30
0.0
 11
-477.718415
 21
2055.619478
 31
0.0
  0
LINE
  5
317
330
285
100
AcDbEntity
  8
0
  6
Continuous
 62
     0
370
    30
100
AcDbLine
 10
-477.718415
 20
2075.619041
 30
0.0
 11
-598.718439
 21
2075.619135
 31
0.0
  0
ARC
  5
318
330
285
100
AcDbEntity
  8
0
  6
Continuous
 62
     0
370
    30
100
AcDbCircle
 10
-598.718401
 20
2039.619133
 30
0.0
 40
16.00000177885024
100
AcDbArc
 50
90.000063
 51
150.000055
  0
ARC
  5
319
330
285
100
AcDbEntity
  8
0
  6
Continuous
 62
     0
370
    30
100
AcDbCircle
 10
-598.7184
 20
2039.619131
 30
0.0
 40
36.00000400241312
100
AcDbArc
 50
90.000063
 51
150.000055
  0
LINE
  5
31A
330
285
100
AcDbEntity
  8
0
  6
Continuous
 62
     0
370
    30
100
AcDbLine
 10
-612.574817
 20
2047.619121
 30
0.0
 11
-622.575949
 21
2030.296611
 31
0.0
  0
LINE
  5
31B
330
285
100
AcDbEntity
  8
0
  6
Continuous
 62
     0
370
    30
100
AcDbLine
 10
-629.895335
 20
2057.619103
 30
0.0
 11
-639.896467
 21
2040.296593
 31
0.0
  0
LWPOLYLINE
  5
31C
330
285
100
AcDbEntity
  8
0
  6
Continuous
 62
     0
370
    30
100
AcDbPolyline
 90
      101
 70
     0
 43
0.0
 10
-418.429047
 20
1625.959839
 10
-416.998352
 20
1626.858276
 10
-415.538605
 20
1628.084351
 10
-414.116272
 20
1629.53418
 10
-412.749847
 20
1631.140381
 10
-411.44162
 20
1632.860229
 10
-410.188629
 20
1634.666138
 10
-408.98645
 20
1636.539307
 10
-407.830627
 20
1638.466797
 10
-406.716888
 20
1640.438599
 10
-405.641602
 20
1642.447266
 10
-404.60141
 20
1644.487061
 10
-403.593689
 20
1646.553833
 10
-402.615997
 20
1648.644043
 10
-401.666168
 20
1650.754761
 10
-400.742432
 20
1652.883545
 10
-399.84314
 20
1655.028687
 10
-398.966827
 20
1657.188354
 10
-398.112091
 20
1659.361084
 10
-397.277893
 20
1661.545776
 10
-396.463196
 20
1663.741333
 10
-395.666962
 20
1665.946777
 10
-394.888519
 20
1668.161255
 10
-394.127106
 20
1670.384399
 10
-393.38208
 20
1672.615356
 10
-392.652771
 20
1674.853638
 10
-391.938538
 20
1677.098755
 10
-391.238892
 20
1679.350098
 10
-390.553375
 20
1681.607422
 10
-389.881531
 20
1683.870239
 10
-389.222961
 20
1686.138428
 10
-388.57724
 20
1688.411377
 10
-387.944153
 20
1690.689087
 10
-387.323364
 20
1692.971191
 10
-386.7146
 20
1695.25769
 10
-386.117554
 20
1697.548096
 10
-385.531952
 20
1699.842285
 10
-384.95752
 20
1702.140015
 10
-384.393982
 20
1704.441162
 10
-383.841156
 20
1706.745483
 10
-383.29892
 20
1709.052979
 10
-382.767059
 20
1711.363403
 10
-382.245392
 20
1713.676636
 10
-381.733795
 20
1715.992676
 10
-381.232025
 20
1718.311157
 10
-380.73996
 20
1720.632202
 10
-380.257446
 20
1722.955688
 10
-379.784424
 20
1725.281372
 10
-379.320709
 20
1727.609131
 10
-378.866272
 20
1729.939209
 10
-378.420959
 20
1732.271118
 10
-377.98468
 20
1734.605103
 10
-377.557343
 20
1736.94104
 10
-377.138855
 20
1739.278687
 10
-376.729065
 20
1741.61792
 10
-376.327911
 20
1743.958984
 10
-375.935303
 20
1746.301514
 10
-375.551178
 20
1748.64563
 10
-375.175446
 20
1750.991089
 10
-374.808105
 20
1753.338013
 10
-374.449036
 20
1755.686279
 10
-374.098175
 20
1758.035889
 10
-373.755524
 20
1760.386719
 10
-373.420929
 20
1762.73877
 10
-373.094421
 20
1765.091919
 10
-372.77594
 20
1767.446289
 10
-372.465424
 20
1769.801514
 10
-372.162842
 20
1772.157959
 10
-371.868164
 20
1774.515259
 10
-371.581329
 20
1776.873535
 10
-371.302307
 20
1779.232788
 10
-371.031067
 20
1781.592896
 10
-370.767517
 20
1783.953735
 10
-370.511688
 20
1786.31543
 10
-370.263489
 20
1788.677734
 10
-370.022919
 20
1791.040894
 10
-369.789917
 20
1793.404663
 10
-369.564453
 20
1795.769043
 10
-369.346527
 20
1798.134033
 10
-369.136108
 20
1800.499634
 10
-368.933136
 20
1802.865723
 10
-368.73764
 20
1805.2323
 10
-368.549561
 20
1807.599487
 10
-368.368896
 20
1809.967041
 10
-368.195587
 20
1812.334961
 10
-368.029663
 20
1814.703369
 10
-367.871094
 20
1817.072021
 10
-367.719818
 20
1819.44104
 10
-367.575867
 20
1821.810425
 10
-367.439209
 20
1824.180054
 10
-367.309814
 20
1826.549927
 10
-367.187683
 20
1828.919922
 10
-367.072723
 20
1831.290283
 10
-366.964996
 20
1833.660645
 10
-366.864441
 20
1836.03125
 10
-366.771118
 20
1838.401978
 10
-366.685028
 20
1840.772705
 10
-366.606232
 20
1843.143555
 10
-366.534576
 20
1845.514526
 10
-366.469757
 20
1847.885376
 10
-366.412079
 20
1850.266113
  0
LWPOLYLINE
  5
31D
330
285
100
AcDbEntity
  8
0
  6
Continuous
 62
     0
370
    30
100
AcDbPolyline
 90
      101
 70
     0
 43
0.0
 10
-413.920013
 20
1617.034058
 10
-412.002838
 20
1618.1521
 10
-410.202881
 20
1619.476318
 10
-408.511322
 20
1620.966187
 10
-406.916626
 20
1622.588867
 10
-405.40802
 20
1624.319458
 10
-403.975098
 20
1626.138184
 10
-402.609222
 20
1628.029419
 10
-401.303101
 20
1629.981567
 10
-400.050232
 20
1631.984253
 10
-398.84549
 20
1634.030518
 10
-397.684387
 20
1636.114014
 10
-396.563019
 20
1638.229736
 10
-395.478333
 20
1640.373657
 10
-394.427612
 20
1642.542725
 10
-393.408234
 20
1644.733887
 10
-392.417755
 20
1646.944336
 10
-391.454346
 20
1649.172241
 10
-390.516418
 20
1651.415894
 10
-389.602539
 20
1653.67395
 10
-388.711426
 20
1655.944946
 10
-387.841827
 20
1658.227905
 10
-386.992798
 20
1660.521851
 10
-386.16333
 20
1662.825806
 10
-385.3526
 20
1665.13916
 10
-384.559723
 20
1667.460938
 10
-383.784027
 20
1669.790894
 10
-383.024933
 20
1672.128174
 10
-382.281799
 20
1674.472534
 10
-381.554108
 20
1676.823364
 10
-380.841339
 20
1679.180298
 10
-380.143097
 20
1681.542969
 10
-379.458862
 20
1683.911133
 10
-378.788269
 20
1686.284302
 10
-378.13092
 20
1688.662354
 10
-377.486572
 20
1691.044922
 10
-376.85495
 20
1693.431885
 10
-376.235748
 20
1695.822998
 10
-375.628723
 20
1698.218018
 10
-375.033539
 20
1700.616943
 10
-374.449982
 20
1703.019287
 10
-373.877747
 20
1705.424927
 10
-373.316681
 20
1707.83374
 10
-372.766632
 20
1710.245728
 10
-372.227386
 20
1712.660645
 10
-371.698822
 20
1715.078369
 10
-371.180756
 20
1717.498901
 10
-370.673035
 20
1719.921875
 10
-370.175446
 20
1722.347412
 10
-369.687866
 20
1724.775146
 10
-369.210175
 20
1727.205322
 10
-368.742279
 20
1729.637573
 10
-368.284088
 20
1732.071899
 10
-367.83551
 20
1734.508301
 10
-367.396393
 20
1736.946533
 10
-366.966705
 20
1739.386719
 10
-366.546326
 20
1741.828735
 10
-366.135193
 20
1744.272461
 10
-365.733154
 20
1746.717773
 10
-365.340118
 20
1749.164673
 10
-364.956055
 20
1751.613037
 10
-364.580841
 20
1754.062988
 10
-364.214478
 20
1756.51416
 10
-363.856873
 20
1758.966797
 10
-363.507965
 20
1761.420532
 10
-363.167725
 20
1763.875732
 10
-362.83606
 20
1766.331909
 10
-362.512939
 20
1768.789307
 10
-362.198334
 20
1771.247803
 10
-361.892181
 20
1773.707397
 10
-361.594452
 20
1776.167969
 10
-361.305115
 20
1778.629395
 10
-361.024078
 20
1781.091797
 10
-360.751343
 20
1783.555176
 10
-360.486877
 20
1786.019287
 10
-360.230591
 20
1788.484131
 10
-359.982483
 20
1790.949829
 10
-359.742493
 20
1793.416138
 10
-359.51062
 20
1795.883179
 10
-359.286835
 20
1798.35083
 10
-359.071075
 20
1800.819092
 10
-358.863312
 20
1803.287964
 10
-358.663544
 20
1805.757324
 10
-358.471741
 20
1808.227173
 10
-358.287842
 20
1810.697388
 10
-358.111877
 20
1813.168213
 10
-357.943787
 20
1815.639282
 10
-357.783569
 20
1818.11084
 10
-357.631226
 20
1820.582764
 10
-357.486725
 20
1823.054932
 10
-357.350037
 20
1825.527344
 10
-357.221191
 20
1828.0
 10
-357.100128
 20
1830.4729
 10
-356.986847
 20
1832.946045
 10
-356.881317
 20
1835.419312
 10
-356.783539
 20
1837.8927
 10
-356.69339
 20
1840.366211
 10
-356.61087
 20
1842.839722
 10
-356.535919
 20
1845.313354
 10
-356.468719
 20
1847.786987
 10
-356.409546
 20
1850.266113
  0
LWPOLYLINE
  5
31E
330
285
100
AcDbEntity
  8
0
  6
Continuous
 62
     0
370
    30
100
AcDbPolyline
 90
        6
 70
     0
 43
0.0
 10
-413.920013
 20
1617.034058
 10
-415.120605
 20
1616.485474
 10
-416.361511
 20
1616.039307
 10
-417.637421
 20
1615.70813
 10
-418.939362
 20
1615.50354
 10
-420.349091
 20
1615.434204
  0
LWPOLYLINE
  5
31F
330
285
100
AcDbEntity
  8
0
  6
Continuous
 62
     0
370
    30
100
AcDbPolyline
 90
      225
 70
     0
 43
0.0
 10
-418.429047
 20
1625.959839
 10
-419.409943
 20
1625.565796
 10
-420.186737
 20
1625.434448
 10
-420.812836
 20
1625.498779
 10
-421.509186
 20
1625.77356
 10
-422.342255
 20
1626.337769
 10
-423.235474
 20
1627.185913
 10
-424.118683
 20
1628.252319
 10
-424.959625
 20
1629.473755
 10
-425.749634
 20
1630.806885
 10
-426.488495
 20
1632.222046
 10
-427.179718
 20
1633.699585
 10
-427.827484
 20
1635.225586
 10
-428.436005
 20
1636.789917
 10
-429.009003
 20
1638.385864
 10
-429.549927
 20
1640.007935
 10
-430.061829
 20
1641.651489
 10
-430.547363
 20
1643.313477
 10
-431.00885
 20
1644.991089
 10
-431.44812
 20
1646.682617
 10
-431.867035
 20
1648.385986
 10
-432.267303
 20
1650.099731
 10
-432.650238
 20
1651.822632
 10
-433.017059
 20
1653.553711
 10
-433.368896
 20
1655.292114
 10
-433.706696
 20
1657.037109
 10
-434.031433
 20
1658.788086
 10
-434.343811
 20
1660.544312
 10
-434.644592
 20
1662.305664
 10
-434.934418
 20
1664.071411
 10
-435.213959
 20
1665.841309
 10
-435.483765
 20
1667.61499
 10
-435.744324
 20
1669.39209
 10
-435.996155
 20
1671.172363
 10
-436.239685
 20
1672.955688
 10
-436.475281
 20
1674.741699
 10
-436.703339
 20
1676.530273
 10
-436.924194
 20
1678.321167
 10
-437.138184
 20
1680.11438
 10
-437.345642
 20
1681.909546
 10
-437.546783
 20
1683.706665
 10
-437.741943
 20
1685.505737
 10
-437.931305
 20
1687.306396
 10
-438.115143
 20
1689.108643
 10
-438.29364
 20
1690.912476
 10
-438.467041
 20
1692.717651
 10
-438.635529
 20
1694.52417
 10
-438.799286
 20
1696.332031
 10
-438.958496
 20
1698.140991
 10
-439.113281
 20
1699.951172
 10
-439.263794
 20
1701.762329
 10
-439.410248
 20
1703.574585
 10
-439.552734
 20
1705.387817
 10
-439.691406
 20
1707.201904
 10
-439.826385
 20
1709.016846
 10
-439.957794
 20
1710.832642
 10
-440.085724
 20
1712.649292
 10
-440.210297
 20
1714.466675
 10
-440.331604
 20
1716.284668
 10
-440.449799
 20
1718.103394
 10
-440.564972
 20
1719.922852
 10
-440.677155
 20
1721.742798
 10
-440.786499
 20
1723.563477
 10
-440.893005
 20
1725.384644
 10
-440.996826
 20
1727.206299
 10
-441.098022
 20
1729.028564
 10
-441.196655
 20
1730.851318
 10
-441.292816
 20
1732.674561
 10
-441.386597
 20
1734.498169
 10
-441.478058
 20
1736.322266
 10
-441.5672
 20
1738.146851
 10
-441.654144
 20
1739.97168
 10
-441.738922
 20
1741.796997
 10
-441.821564
 20
1743.622681
 10
-441.90213
 20
1745.44873
 10
-441.980713
 20
1747.275146
 10
-442.057343
 20
1749.101807
 10
-442.13205
 20
1750.928833
 10
-442.204895
 20
1752.756226
 10
-442.27597
 20
1754.583862
 10
-442.345306
 20
1756.411743
 10
-442.412933
 20
1758.239868
 10
-442.478882
 20
1760.068359
 10
-442.543213
 20
1761.896973
 10
-442.605957
 20
1763.725952
 10
-442.667145
 20
1765.555054
 10
-442.726807
 20
1767.384399
 10
-442.785004
 20
1769.213989
 10
-442.841736
 20
1771.043823
 10
-442.897064
 20
1772.873779
 10
-442.951019
 20
1774.703979
 10
-443.003632
 20
1776.534302
 10
-443.054932
 20
1778.364868
 10
-443.10495
 20
1780.195557
 10
-443.153748
 20
1782.026367
 10
-443.201294
 20
1783.857422
 10
-443.24762
 20
1785.688599
 10
-443.292816
 20
1787.52002
 10
-443.336853
 20
1789.35144
 10
-443.379791
 20
1791.182983
 10
-443.421631
 20
1793.014771
 10
-443.462433
 20
1794.84668
 10
-443.502197
 20
1796.678589
 10
-443.540955
 20
1798.510742
 10
-443.578705
 20
1800.342896
 10
-443.615509
 20
1802.175293
 10
-443.651306
 20
1804.00769
 10
-443.686218
 20
1805.84021
 10
-443.720184
 20
1807.672852
 10
-443.753235
 20
1809.505615
 10
-443.785431
 20
1811.338379
 10
-443.816742
 20
1813.171387
 10
-443.847229
 20
1815.004395
 10
-443.876862
 20
1816.837402
 10
-443.905731
 20
1818.670654
 10
-443.933777
 20
1820.503906
 10
-443.96106
 20
1822.337158
 10
-443.98761
 20
1824.170532
 10
-444.013428
 20
1826.004028
 10
-444.038544
 20
1827.837524
 10
-444.062958
 20
1829.671143
 10
-444.0867
 20
1831.504761
 10
-444.109772
 20
1833.338379
 10
-444.132172
 20
1835.172119
 10
-444.153961
 20
1837.005981
 10
-444.17511
 20
1838.839844
 10
-444.195648
 20
1840.673706
 10
-444.215576
 20
1842.50769
 10
-444.234924
 20
1844.341675
 10
-444.253723
 20
1846.175659
 10
-444.271912
 20
1848.009766
 10
-444.289581
 20
1849.843872
 10
-444.306702
 20
1851.677979
 10
-444.323303
 20
1853.512207
 10
-444.339386
 20
1855.346436
 10
-444.35498
 20
1857.180664
 10
-444.370087
 20
1859.015015
 10
-444.384705
 20
1860.849243
 10
-444.398834
 20
1862.683594
 10
-444.412537
 20
1864.518066
 10
-444.425751
 20
1866.352417
 10
-444.438568
 20
1868.18689
 10
-444.450928
 20
1870.02124
 10
-444.462891
 20
1871.855713
 10
-444.474457
 20
1873.690308
 10
-444.485626
 20
1875.52478
 10
-444.496399
 20
1877.359253
 10
-444.506775
 20
1879.193848
 10
-444.516815
 20
1881.028442
 10
-444.526489
 20
1882.863037
 10
-444.535828
 20
1884.697632
 10
-444.5448
 20
1886.532227
 10
-444.553436
 20
1888.366821
 10
-444.561768
 20
1890.201416
 10
-444.569794
 20
1892.036133
 10
-444.577484
 20
1893.870728
 10
-444.5849
 20
1895.705444
 10
-444.59201
 20
1897.540039
 10
-444.598877
 20
1899.374756
 10
-444.605438
 20
1901.209473
 10
-444.611725
 20
1903.044189
 10
-444.617767
 20
1904.878906
 10
-444.623566
 20
1906.713501
 10
-444.62912
 20
1908.548218
 10
-444.63443
 20
1910.382935
 10
-444.639526
 20
1912.217651
 10
-444.644379
 20
1914.052368
 10
-444.649017
 20
1915.887085
 10
-444.653412
 20
1917.721924
 10
-444.657623
 20
1919.556641
 10
-444.661652
 20
1921.391357
 10
-444.665436
 20
1923.226074
 10
-444.669067
 20
1925.060791
 10
-444.672516
 20
1926.895508
 10
-444.675751
 20
1928.730225
 10
-444.678833
 20
1930.564941
 10
-444.681763
 20
1932.39978
 10
-444.684509
 20
1934.234497
 10
-444.687103
 20
1936.069214
 10
-444.689575
 20
1937.903931
 10
-444.691895
 20
1939.738647
 10
-444.694061
 20
1941.573364
 10
-444.696106
 20
1943.408081
 10
-444.697998
 20
1945.242798
 10
-444.699799
 20
1947.077515
 10
-444.701477
 20
1948.912231
 10
-444.703064
 20
1950.746948
 10
-444.704529
 20
1952.581543
 10
-444.705872
 20
1954.41626
 10
-444.707123
 20
1956.250977
 10
-444.708313
 20
1958.085693
 10
-444.709381
 20
1959.92041
 10
-444.710358
 20
1961.755005
 10
-444.711273
 20
1963.589722
 10
-444.712097
 20
1965.424316
 10
-444.71286
 20
1967.259033
 10
-444.713562
 20
1969.09375
 10
-444.714203
 20
1970.928345
 10
-444.714752
 20
1972.763062
 10
-444.715271
 20
1974.597656
 10
-444.715729
 20
1976.432251
 10
-444.716125
 20
1978.266968
 10
-444.716461
 20
1980.101562
 10
-444.716797
 20
1981.936157
 10
-444.717072
 20
1983.770874
 10
-444.717316
 20
1985.605469
 10
-444.717499
 20
1987.440063
 10
-444.717682
 20
1989.27478
 10
-444.717865
 20
1991.109375
 10
-444.717987
 20
1992.94397
 10
-444.718109
 20
1994.778564
 10
-444.718201
 20
1996.613159
 10
-444.718262
 20
1998.447754
 10
-444.718323
 20
2000.282349
 10
-444.718353
 20
2002.116943
 10
-444.718414
 20
2003.95166
 10
-444.718414
 20
2005.786255
 10
-444.718445
 20
2007.62085
 10
-444.718445
 20
2009.455444
 10
-444.718445
 20
2011.290039
 10
-444.718445
 20
2013.124634
 10
-444.718414
 20
2014.959229
 10
-444.718414
 20
2016.793823
 10
-444.718414
 20
2018.62854
 10
-444.718414
 20
2020.464355
  0
LWPOLYLINE
  5
320
330
285
100
AcDbEntity
  8
0
  6
Continuous
 62
     0
370
    30
100
AcDbPolyline
 90
      206
 70
     0
 43
0.0
 10
-420.349091
 20
1615.434204
 10
-422.164978
 20
1615.581543
 10
-423.938354
 20
1615.993774
 10
-425.632965
 20
1616.655884
 10
-427.22229
 20
1617.539917
 10
-428.690247
 20
1618.610718
 10
-430.03772
 20
1619.834717
 10
-431.270966
 20
1621.183716
 10
-432.399811
 20
1622.633789
 10
-433.435547
 20
1624.166626
 10
-434.389069
 20
1625.767456
 10
-435.270294
 20
1627.424194
 10
-436.087738
 20
1629.127808
 10
-436.848877
 20
1630.870605
 10
-437.559753
 20
1632.646729
 10
-438.225739
 20
1634.451416
 10
-438.851807
 20
1636.280151
 10
-439.441772
 20
1638.129883
 10
-439.999115
 20
1639.997559
 10
-440.526917
 20
1641.881226
 10
-441.02771
 20
1643.778564
 10
-441.503784
 20
1645.688232
 10
-441.956787
 20
1647.609009
 10
-442.388397
 20
1649.539795
 10
-442.800232
 20
1651.47937
 10
-443.194
 20
1653.426758
 10
-443.570953
 20
1655.381104
 10
-443.932098
 20
1657.341919
 10
-444.278412
 20
1659.308594
 10
-444.610901
 20
1661.280518
 10
-444.930511
 20
1663.257202
 10
-445.238068
 20
1665.238281
 10
-445.53418
 20
1667.223389
 10
-445.819336
 20
1669.21228
 10
-446.094116
 20
1671.204712
 10
-446.359039
 20
1673.200317
 10
-446.614685
 20
1675.198975
 10
-446.861511
 20
1677.200317
 10
-447.099945
 20
1679.204224
 10
-447.330414
 20
1681.210571
 10
-447.553223
 20
1683.218994
 10
-447.768768
 20
1685.229614
 10
-447.977325
 20
1687.242188
 10
-448.17923
 20
1689.256592
 10
-448.374786
 20
1691.272705
 10
-448.56424
 20
1693.290405
 10
-448.747864
 20
1695.30957
 10
-448.925842
 20
1697.3302
 10
-449.098389
 20
1699.352173
 10
-449.265656
 20
1701.375488
 10
-449.427917
 20
1703.400024
 10
-449.585327
 20
1705.425537
 10
-449.738098
 20
1707.452271
 10
-449.886414
 20
1709.47998
 10
-450.030426
 20
1711.508667
 10
-450.170288
 20
1713.538208
 10
-450.306122
 20
1715.568604
 10
-450.43808
 20
1717.599854
 10
-450.566254
 20
1719.631958
 10
-450.690796
 20
1721.664673
 10
-450.811829
 20
1723.698242
 10
-450.929413
 20
1725.732422
 10
-451.043671
 20
1727.767212
 10
-451.154785
 20
1729.802612
 10
-451.262787
 20
1731.838623
 10
-451.367828
 20
1733.875244
 10
-451.46994
 20
1735.912354
 10
-451.569214
 20
1737.949951
 10
-451.665771
 20
1739.988037
 10
-451.759644
 20
1742.026611
 10
-451.850952
 20
1744.065674
 10
-451.939728
 20
1746.105103
 10
-452.026093
 20
1748.144897
 10
-452.110077
 20
1750.185181
 10
-452.191772
 20
1752.225708
 10
-452.27121
 20
1754.266724
 10
-452.34845
 20
1756.307983
 10
-452.423553
 20
1758.349609
 10
-452.496643
 20
1760.391602
 10
-452.567688
 20
1762.433838
 10
-452.63681
 20
1764.47644
 10
-452.70401
 20
1766.519165
 10
-452.769379
 20
1768.562256
 10
-452.832916
 20
1770.605591
 10
-452.894745
 20
1772.64917
 10
-452.954865
 20
1774.692993
 10
-453.013336
 20
1776.737061
 10
-453.070221
 20
1778.78125
 10
-453.125519
 20
1780.825684
 10
-453.179291
 20
1782.870361
 10
-453.231567
 20
1784.915283
 10
-453.282379
 20
1786.960205
 10
-453.331757
 20
1789.005493
 10
-453.37973
 20
1791.050781
 10
-453.426331
 20
1793.096313
 10
-453.471588
 20
1795.14209
 10
-453.515564
 20
1797.187988
 10
-453.558258
 20
1799.233887
 10
-453.599701
 20
1801.280029
 10
-453.639954
 20
1803.326294
 10
-453.679047
 20
1805.372803
 10
-453.71698
 20
1807.419312
 10
-453.753815
 20
1809.465942
 10
-453.789612
 20
1811.512695
 10
-453.824341
 20
1813.55957
 10
-453.858032
 20
1815.606567
 10
-453.890747
 20
1817.653564
 10
-453.922485
 20
1819.700684
 10
-453.953278
 20
1821.747925
 10
-453.983124
 20
1823.795288
 10
-454.012054
 20
1825.842651
 10
-454.0401
 20
1827.890137
 10
-454.067291
 20
1829.937744
 10
-454.093597
 20
1831.985352
 10
-454.11908
 20
1834.033081
 10
-454.143768
 20
1836.080933
 10
-454.167664
 20
1838.128662
 10
-454.190796
 20
1840.176636
 10
-454.213165
 20
1842.224609
 10
-454.234802
 20
1844.272583
 10
-454.255707
 20
1846.320679
 10
-454.27594
 20
1848.368774
 10
-454.295471
 20
1850.416992
 10
-454.314362
 20
1852.46521
 10
-454.332581
 20
1854.513428
 10
-454.350159
 20
1856.561768
 10
-454.367126
 20
1858.610107
 10
-454.383514
 20
1860.658447
 10
-454.399323
 20
1862.706909
 10
-454.414551
 20
1864.755371
 10
-454.42923
 20
1866.803833
 10
-454.443359
 20
1868.852417
 10
-454.45697
 20
1870.900879
 10
-454.470093
 20
1872.949463
 10
-454.482697
 20
1874.998047
 10
-454.494781
 20
1877.046753
 10
-454.506439
 20
1879.095337
 10
-454.517609
 20
1881.144043
 10
-454.528351
 20
1883.192749
 10
-454.538666
 20
1885.241455
 10
-454.548553
 20
1887.290161
 10
-454.558044
 20
1889.338867
 10
-454.567169
 20
1891.387573
 10
-454.575867
 20
1893.436401
 10
-454.584229
 20
1895.485107
 10
-454.592194
 20
1897.533936
 10
-454.599823
 20
1899.582642
 10
-454.607117
 20
1901.63147
 10
-454.614044
 20
1903.680298
 10
-454.620667
 20
1905.729126
 10
-454.626984
 20
1907.777954
 10
-454.632996
 20
1909.826782
 10
-454.638702
 20
1911.87561
 10
-454.644104
 20
1913.924438
 10
-454.649261
 20
1915.973267
 10
-454.654144
 20
1918.022095
 10
-454.658752
 20
1920.071045
 10
-454.663116
 20
1922.119873
 10
-454.667267
 20
1924.168701
 10
-454.671173
 20
1926.217529
 10
-454.674835
 20
1928.266357
 10
-454.678314
 20
1930.315308
 10
-454.68158
 20
1932.364136
 10
-454.684662
 20
1934.412964
 10
-454.687531
 20
1936.461792
 10
-454.690247
 20
1938.51062
 10
-454.69278
 20
1940.559448
 10
-454.695129
 20
1942.608276
 10
-454.697357
 20
1944.657104
 10
-454.699402
 20
1946.705933
 10
-454.701294
 20
1948.754761
 10
-454.703064
 20
1950.803589
 10
-454.704681
 20
1952.852417
 10
-454.706177
 20
1954.901245
 10
-454.70755
 20
1956.949951
 10
-454.708832
 20
1958.998779
 10
-454.709961
 20
1961.047607
 10
-454.711029
 20
1963.096313
 10
-454.711975
 20
1965.145142
 10
-454.71283
 20
1967.19397
 10
-454.713593
 20
1969.242676
 10
-454.714294
 20
1971.291504
 10
-454.714905
 20
1973.34021
 10
-454.715454
 20
1975.388916
 10
-454.715912
 20
1977.437744
 10
-454.716339
 20
1979.48645
 10
-454.716705
 20
1981.535156
 10
-454.71701
 20
1983.583984
 10
-454.717285
 20
1985.63269
 10
-454.717529
 20
1987.681396
 10
-454.717712
 20
1989.730103
 10
-454.717896
 20
1991.778809
 10
-454.718018
 20
1993.827515
 10
-454.71814
 20
1995.876343
 10
-454.718231
 20
1997.925049
 10
-454.718292
 20
1999.973755
 10
-454.718353
 20
2002.022461
 10
-454.718384
 20
2004.071167
 10
-454.718414
 20
2006.119873
 10
-454.718445
 20
2008.168579
 10
-454.718445
 20
2010.217285
 10
-454.718445
 20
2012.265991
 10
-454.718445
 20
2014.314697
 10
-454.718414
 20
2016.363403
 10
-454.718414
 20
2018.412109
 10
-454.718414
 20
2020.464355
  0
ENDBLK
  5
322
330
285
100
AcDbEntity
  8
0
100
AcDbBlockEnd
  0
ENDSEC
  0
SECTION
  2
ENTITIES
  0
INSERT
  5
F4
330
1F
100
AcDbEntity
  8
0
  6
Continuous
 62
   250
370
     0
100
AcDbBlockReference
  2
a
 10
47.624363
 20
163.445251
 30
0.0
  0
INSERT
  5
150
330
1F
100
AcDbEntity
  8
0
  6
Continuous
 62
   250
370
     0
100
AcDbBlockReference
  2
b
 10
-81.898216
 20
404.325333
 30
0.0
  0
INSERT
  5
1B9
330
1F
100
AcDbEntity
  8
0
  6
Continuous
 62
   250
370
     0
100
AcDbBlockReference
  2
c
 10
47.624363
 20
163.445251
 30
0.0
  0
INSERT
  5
284
330
1F
100
AcDbEntity
  8
0
  6
Continuous
 62
   250
370
     0
100
AcDbBlockReference
  2
d
 10
47.624363
 20
163.445251
 30
0.0
  0
INSERT
  5
323
330
1F
100
AcDbEntity
  8
0
  6
Continuous
 62
   250
370
     0
100
AcDbBlockReference
  2
e
 10
-225.249329
 20
0.0
 30
0.0
  0
ENDSEC
  0
SECTION
  2
OBJECTS
  0
DICTIONARY
  5
C
330
0
100
AcDbDictionary
281
     1
  3
ACAD_GROUP
350
D
  3
ACAD_LAYOUT
350
1A
  3
ACAD_MLEADERSTYLE
350
326
  3
ACAD_MLINESTYLE
350
17
  3
ACAD_PLOTSETTINGS
350
19
  3
ACAD_PLOTSTYLENAME
350
E
  3
ACAD_VISUALSTYLE
350
2A
  3
AcDbVariableDictionary
350
324
  0
DICTIONARY
  5
D
102
{ACAD_REACTORS
330
C
102
}
330
C
100
AcDbDictionary
281
     1
  0
DICTIONARY
  5
1A
102
{ACAD_REACTORS
330
C
102
}
330
C
100
AcDbDictionary
281
     1
  3
Layout1
350
1E
  3
Layout2
350
26
  3
Model
350
22
  0
DICTIONARY
  5
326
102
{ACAD_REACTORS
330
C
102
}
330
C
100
AcDbDictionary
281
     1
  0
DICTIONARY
  5
17
102
{ACAD_REACTORS
330
C
102
}
330
C
100
AcDbDictionary
281
     1
  3
Standard
350
18
  0
DICTIONARY
  5
19
102
{ACAD_REACTORS
330
C
102
}
330
C
100
AcDbDictionary
281
     1
  0
ACDBDICTIONARYWDFLT
  5
E
102
{ACAD_REACTORS
330
C
102
}
330
C
100
AcDbDictionary
281
     1
  3
Normal
350
F
100
AcDbDictionaryWithDefault
340
F
  0
DICTIONARY
  5
2A
102
{ACAD_REACTORS
330
C
102
}
330
C
100
AcDbDictionary
281
     1
  3
2dWireframe
350
2F
  3
3D Hidden
350
31
  3
3dWireframe
350
30
  3
Basic
350
32
  3
Brighten
350
36
  3
ColorChange
350
3A
  3
Conceptual
350
34
  3
Dim
350
35
  3
Facepattern
350
39
  3
Flat
350
2B
  3
FlatWithEdges
350
2C
  3
Gouraud
350
2D
  3
GouraudWithEdges
350
2E
  3
Linepattern
350
38
  3
Realistic
350
33
  3
Thicken
350
37
  0
DICTIONARY
  5
324
102
{ACAD_REACTORS
330
C
102
}
330
C
100
AcDbDictionary
281
     1
  3
PSOLHEIGHT
350
328
  3
PSOLWIDTH
350
327
  0
LAYOUT
  5
1E
102
{ACAD_REACTORS
330
1A
102
}
330
1A
100
AcDbPlotSettings
  1

  2
none_device
  4

  6

 40
0.0
 41
0.0
 42
0.0
 43
0.0
 44
0.0
 45
0.0
 46
0.0
 47
0.0
 48
0.0
 49
0.0
140
0.0
141
0.0
142
1.0
143
1.0
 70
   688
 72
     0
 73
     0
 74
     5
  7

 75
    16
147
1.0
148
0.0
149
0.0
100
AcDbLayout
  1
Layout1
 70
     1
 71
     1
 10
0.0
 20
0.0
 11
420.0
 21
297.0
 12
0.0
 22
0.0
 32
0.0
 14
1.000000E+20
 24
1.000000E+20
 34
1.000000E+20
 15
-1.000000E+20
 25
-1.000000E+20
 35
-1.000000E+20
146
0.0
 13
0.0
 23
0.0
 33
0.0
 16
1.0
 26
0.0
 36
0.0
 17
0.0
 27
1.0
 37
0.0
 76
     0
330
1B
  0
LAYOUT
  5
26
102
{ACAD_REACTORS
330
1A
102
}
330
1A
100
AcDbPlotSettings
  1

  2
none_device
  4

  6

 40
0.0
 41
0.0
 42
0.0
 43
0.0
 44
0.0
 45
0.0
 46
0.0
 47
0.0
 48
0.0
 49
0.0
140
0.0
141
0.0
142
1.0
143
1.0
 70
   688
 72
     0
 73
     0
 74
     5
  7

 75
    16
147
1.0
148
0.0
149
0.0
100
AcDbLayout
  1
Layout2
 70
     1
 71
     2
 10
0.0
 20
0.0
 11
0.0
 21
0.0
 12
0.0
 22
0.0
 32
0.0
 14
0.0
 24
0.0
 34
0.0
 15
0.0
 25
0.0
 35
0.0
146
0.0
 13
0.0
 23
0.0
 33
0.0
 16
1.0
 26
0.0
 36
0.0
 17
0.0
 27
1.0
 37
0.0
 76
     0
330
23
  0
LAYOUT
  5
22
102
{ACAD_REACTORS
330
1A
102
}
330
1A
100
AcDbPlotSettings
  1

  2
none_device
  4

  6

 40
0.0
 41
0.0
 42
0.0
 43
0.0
 44
0.0
 45
0.0
 46
0.0
 47
0.0
 48
0.0
 49
0.0
140
0.0
141
0.0
142
1.0
143
1.0
 70
  1712
 72
     0
 73
     0
 74
     0
  7

 75
     0
147
1.0
148
0.0
149
0.0
100
AcDbLayout
  1
Model
 70
     1
 71
     0
 10
-639.896484
 20
163.668701
 11
903.919189
 21
2126.619141
 12
0.0
 22
0.0
 32
0.0
 14
-639.896484
 24
163.668701
 34
0.0
 15
903.919189
 25
2126.619141
 35
0.0
146
0.0
 13
0.0
 23
0.0
 33
0.0
 16
1.0
 26
0.0
 36
0.0
 17
0.0
 27
1.0
 37
0.0
 76
     0
330
1F
331
29
  0
MLINESTYLE
  5
18
102
{ACAD_REACTORS
330
17
102
}
330
17
100
AcDbMlineStyle
  2
Standard
 70
     0
  3

 62
   256
 51
90.0
 52
90.0
 71
     2
 49
0.5
 62
   256
  6
BYLAYER
 49
-0.5
 62
   256
  6
BYLAYER
  0
ACDBPLACEHOLDER
  5
F
102
{ACAD_REACTORS
330
E
102
}
330
E
  0
VISUALSTYLE
  5
2F
102
{ACAD_REACTORS
330
2A
102
}
330
2A
100
AcDbVisualStyle
  2
2dWireframe
 70
     4
 71
     0
 72
     2
 73
     0
 90
        0
 40
-0.6
 41
-30.0
 62
     5
 63
     7
 74
     1
 91
        4
 64
     7
 65
   257
 75
     1
175
     1
 42
1.0
 92
        0
 66
   257
 43
1.0
 76
     1
 77
     6
 78
     2
 67
     7
 79
     5
170
     0
171
     0
290
     0
174
     0
 93
        1
 44
0.0
173
     0
291
     0
 45
0.0
1001
ACAD
1000
AcDbSavedByObjectVersion
1070
     0
  0
VISUALSTYLE
  5
31
102
{ACAD_REACTORS
330
2A
102
}
330
2A
100
AcDbVisualStyle
  2
3D Hidden
 70
     6
 71
     1
 72
     2
 73
     2
 90
        0
 40
-0.6
 41
-30.0
 62
     5
 63
     7
 74
     2
 91
        2
 64
     7
 65
   257
 75
     2
175
     1
 42
40.0
 92
        0
 66
   257
 43
1.0
 76
     1
 77
     6
 78
     2
 67
     7
 79
     3
170
     0
171
     0
290
     0
174
     0
 93
        1
 44
0.0
173
     0
291
     0
 45
0.0
1001
ACAD
1000
AcDbSavedByObjectVersion
1070
     0
  0
VISUALSTYLE
  5
30
102
{ACAD_REACTORS
330
2A
102
}
330
2A
100
AcDbVisualStyle
  2
3dWireframe
 70
     5
 71
     0
 72
     2
 73
     0
 90
        0
 40
-0.6
 41
-30.0
 62
     5
 63
     7
 74
     1
 91
        4
 64
     7
 65
   257
 75
     1
175
     1
 42
1.0
 92
        0
 66
   257
 43
1.0
 76
     1
 77
     6
 78
     2
 67
     7
 79
     5
170
     0
171
     0
290
     0
174
     0
 93
        1
 44
0.0
173
     0
291
     0
 45
0.0
1001
ACAD
1000
AcDbSavedByObjectVersion
1070
     0
  0
VISUALSTYLE
  5
32
102
{ACAD_REACTORS
330
2A
102
}
330
2A
100
AcDbVisualStyle
  2
Basic
 70
     7
 71
     1
 72
     0
 73
     1
 90
        0
 40
-0.6
 41
-30.0
 62
     5
 63
     7
 74
     0
 91
        4
 64
     7
 65
   257
 75
     1
175
     1
 42
1.0
 92
        8
 66
     7
 43
1.0
 76
     1
 77
     6
 78
     2
 67
     7
 79
     5
170
     0
171
     0
290
     0
174
     0
 93
        1
 44
0.0
173
     0
291
     1
 45
0.0
1001
ACAD
1000
AcDbSavedByObjectVersion
1070
     0
  0
VISUALSTYLE
  5
36
102
{ACAD_REACTORS
330
2A
102
}
330
2A
100
AcDbVisualStyle
  2
Brighten
 70
    12
 71
     2
 72
     2
 73
     0
 90
        0
 40
-0.6
 41
-30.0
 62
     5
 63
     7
 74
     1
 91
        4
 64
     7
 65
   257
 75
     1
175
     1
 42
1.0
 92
        8
 66
     7
 43
1.0
 76
     1
 77
     6
 78
     2
 67
     7
 79
     5
170
     0
171
     0
290
     0
174
     0
 93
        1
 44
50.0
173
     0
291
     1
 45
0.0
1001
ACAD
1000
AcDbSavedByObjectVersion
1070
     0
  0
VISUALSTYLE
  5
3A
102
{ACAD_REACTORS
330
2A
102
}
330
2A
100
AcDbVisualStyle
  2
ColorChange
 70
    16
 71
     2
 72
     2
 73
     3
 90
        0
 40
-0.6
 41
-30.0
 62
     5
 63
     8
 74
     1
 91
        4
 64
     7
 65
   257
 75
     1
175
     1
 42
1.0
 92
        8
 66
     8
 43
1.0
 76
     1
 77
     6
 78
     2
 67
     7
 79
     5
170
     0
171
     0
290
     0
174
     0
 93
        1
 44
0.0
173
     0
291
     1
 45
0.0
1001
ACAD
1000
AcDbSavedByObjectVersion
1070
     0
  0
VISUALSTYLE
  5
34
102
{ACAD_REACTORS
330
2A
102
}
330
2A
100
AcDbVisualStyle
  2
Conceptual
 70
     9
 71
     3
 72
     2
 73
     0
 90
        0
 40
-0.6
 41
-30.0
 62
     5
 63
     7
 74
     2
 91
        2
 64
     7
 65
   257
 75
     1
175
     1
 42
40.0
 92
        8
 66
     7
 43
1.0
 76
     1
 77
     6
 78
     2
 67
     7
 79
     3
170
     0
171
     0
290
     0
174
     0
 93
        1
 44
0.0
173
     0
291
     0
 45
0.0
1001
ACAD
1000
AcDbSavedByObjectVersion
1070
     0
  0
VISUALSTYLE
  5
35
102
{ACAD_REACTORS
330
2A
102
}
330
2A
100
AcDbVisualStyle
  2
Dim
 70
    11
 71
     2
 72
     2
 73
     0
 90
        0
 40
-0.6
 41
-30.0
 62
     5
 63
     7
 74
     1
 91
        4
 64
     7
 65
   257
 75
     1
175
     1
 42
1.0
 92
        8
 66
     7
 43
1.0
 76
     1
 77
     6
 78
     2
 67
     7
 79
     5
170
     0
171
     0
290
     0
174
     0
 93
        1
 44
-50.0
173
     0
291
     1
 45
0.0
1001
ACAD
1000
AcDbSavedByObjectVersion
1070
     0
  0
VISUALSTYLE
  5
39
102
{ACAD_REACTORS
330
2A
102
}
330
2A
100
AcDbVisualStyle
  2
Facepattern
 70
    15
 71
     2
 72
     2
 73
     0
 90
        0
 40
-0.6
 41
-30.0
 62
     5
 63
     7
 74
     1
 91
        4
 64
     7
 65
   257
 75
     1
175
     1
 42
1.0
 92
        8
 66
     7
 43
1.0
 76
     1
 77
     6
 78
     2
 67
     7
 79
     5
170
     0
171
     0
290
     0
174
     0
 93
        1
 44
0.0
173
     0
291
     1
 45
0.0
1001
ACAD
1000
AcDbSavedByObjectVersion
1070
     0
  0
VISUALSTYLE
  5
2B
102
{ACAD_REACTORS
330
2A
102
}
330
2A
100
AcDbVisualStyle
  2
Flat
 70
     0
 71
     2
 72
     1
 73
     1
 90
        2
 40
-0.6
 41
30.0
 62
     5
 63
     7
 74
     0
 91
        4
 64
     7
 65
   257
 75
     1
175
     1
 42
1.0
 92
        8
 66
     7
 43
1.0
 76
     1
 77
     6
 78
     2
 67
     7
 79
     5
170
     0
171
     0
290
     0
174
     0
 93
       13
 44
0.0
173
     0
291
     1
 45
0.0
1001
ACAD
1000
AcDbSavedByObjectVersion
1070
     0
  0
VISUALSTYLE
  5
2C
102
{ACAD_REACTORS
330
2A
102
}
330
2A
100
AcDbVisualStyle
  2
FlatWithEdges
 70
     1
 71
     2
 72
     1
 73
     1
 90
        2
 40
-0.6
 41
30.0
 62
     5
 63
     7
 74
     1
 91
        4
 64
     7
 65
   257
 75
     1
175
     1
 42
1.0
 92
        0
 66
   257
 43
1.0
 76
     1
 77
     6
 78
     2
 67
     7
 79
     5
170
     0
171
     0
290
     0
174
     0
 93
       13
 44
0.0
173
     0
291
     1
 45
0.0
1001
ACAD
1000
AcDbSavedByObjectVersion
1070
     0
  0
VISUALSTYLE
  5
2D
102
{ACAD_REACTORS
330
2A
102
}
330
2A
100
AcDbVisualStyle
  2
Gouraud
 70
     2
 71
     2
 72
     2
 73
     1
 90
        2
 40
-0.6
 41
30.0
 62
     5
 63
     7
 74
     0
 91
        4
 64
     7
 65
   257
 75
     1
175
     1
 42
1.0
 92
        0
 66
     7
 43
1.0
 76
     1
 77
     6
 78
     2
 67
     7
 79
     5
170
     0
171
     0
290
     0
174
     0
 93
       13
 44
0.0
173
     0
291
     1
 45
0.0
1001
ACAD
1000
AcDbSavedByObjectVersion
1070
     0
  0
VISUALSTYLE
  5
2E
102
{ACAD_REACTORS
330
2A
102
}
330
2A
100
AcDbVisualStyle
  2
GouraudWithEdges
 70
     3
 71
     2
 72
     2
 73
     1
 90
        2
 40
-0.6
 41
30.0
 62
     5
 63
     7
 74
     1
 91
        4
 64
     7
 65
   257
 75
     1
175
     1
 42
1.0
 92
        0
 66
   257
 43
1.0
 76
     1
 77
     6
 78
     2
 67
     7
 79
     5
170
     0
171
     0
290
     0
174
     0
 93
       13
 44
0.0
173
     0
291
     1
 45
0.0
1001
ACAD
1000
AcDbSavedByObjectVersion
1070
     0
  0
VISUALSTYLE
  5
38
102
{ACAD_REACTORS
330
2A
102
}
330
2A
100
AcDbVisualStyle
  2
Linepattern
 70
    14
 71
     2
 72
     2
 73
     0
 90
        0
 40
-0.6
 41
-30.0
 62
     5
 63
     7
 74
     1
 91
        4
 64
     7
 65
   257
 75
     7
175
     7
 42
1.0
 92
        8
 66
     7
 43
1.0
 76
     1
 77
     6
 78
     2
 67
     7
 79
     5
170
     0
171
     0
290
     0
174
     0
 93
        1
 44
0.0
173
     0
291
     1
 45
0.0
1001
ACAD
1000
AcDbSavedByObjectVersion
1070
     0
  0
VISUALSTYLE
  5
33
102
{ACAD_REACTORS
330
2A
102
}
330
2A
100
AcDbVisualStyle
  2
Realistic
 70
     8
 71
     2
 72
     2
 73
     0
 90
        0
 40
-0.6
 41
-30.0
 62
     5
 63
     7
 74
     1
 91
        0
 64
     7
 65
   257
 75
     1
175
     1
 42
1.0
 92
        8
 66
     8
 43
1.0
 76
     1
 77
     6
 78
     2
 67
     7
 79
     5
170
     0
171
     0
290
     0
174
     0
 93
       13
 44
0.0
173
     0
291
     0
 45
0.0
1001
ACAD
1000
AcDbSavedByObjectVersion
1070
     0
  0
VISUALSTYLE
  5
37
102
{ACAD_REACTORS
330
2A
102
}
330
2A
100
AcDbVisualStyle
  2
Thicken
 70
    13
 71
     2
 72
     2
 73
     0
 90
        0
 40
-0.6
 41
-30.0
 62
     5
 63
     7
 74
     1
 91
        4
 64
     7
 65
   257
 75
     1
175
     1
 42
1.0
 92
       12
 66
     7
 43
1.0
 76
     1
 77
     6
 78
     2
 67
     7
 79
     5
170
     0
171
     0
290
     0
174
     0
 93
        1
 44
0.0
173
     0
291
     1
 45
0.0
1001
ACAD
1000
AcDbSavedByObjectVersion
1070
     0
  0
DICTIONARYVAR
  5
328
102
{ACAD_REACTORS
330
324
102
}
330
324
100
DictionaryVariables
280
     0
  1
80.000000
  0
DICTIONARYVAR
  5
327
102
{ACAD_REACTORS
330
324
102
}
330
324
100
DictionaryVariables
280
     0
  1
5.000000
  0
ENDSEC
  0
EOF
