  0
SECTION
  2
HEADER
  9
$ACADVER
  1
AC1024
  9
$ACADMAINTVER
 70
     6
  9
$DWGCODEPAGE
  3
ANSI_1252
  9
$INSBASE
 10
0.0
 20
0.0
 30
0.0
  9
$EXTMIN
 10
1.000000E+20
 20
1.000000E+20
 30
1.000000E+20
  9
$EXTMAX
 10
-1.000000E+20
 20
-1.000000E+20
 30
-1.000000E+20
  9
$LIMMIN
 10
0.0
 20
0.0
  9
$LIMMAX
 10
420.0
 20
297.0
  9
$ORTHOMODE
 70
     0
  9
$REGENMODE
 70
     1
  9
$FILLMODE
 70
     1
  9
$QTEXTMODE
 70
     0
  9
$MIRRTEXT
 70
     1
  9
$LTSCALE
 40
1.0
  9
$ATTMODE
 70
     1
  9
$TEXTSIZE
 40
2.5
  9
$TRACEWID
 40
1.0
  9
$TEXTSTYLE
  7
Standard
  9
$CLAYER
  8
0
  9
$CELTYPE
  6
ByLayer
  9
$CECOLOR
 62
   256
  9
$CELTSCALE
 40
1.0
  9
$DISPSILH
 70
     0
  9
$DIMSCALE
 40
1.0
  9
$DIMASZ
 40
2.5
  9
$DIMEXO
 40
0.625
  9
$DIMDLI
 40
3.75
  9
$DIMRND
 40
0.0
  9
$DIMDLE
 40
0.0
  9
$DIMEXE
 40
1.25
  9
$DIMTP
 40
0.0
  9
$DIMTM
 40
0.0
  9
$DIMTXT
 40
2.5
  9
$DIMCEN
 40
2.5
  9
$DIMTSZ
 40
0.0
  9
$DIMTOL
 70
     0
  9
$DIMLIM
 70
     0
  9
$DIMTIH
 70
     0
  9
$DIMTOH
 70
     0
  9
$DIMSE1
 70
     0
  9
$DIMSE2
 70
     0
  9
$DIMTAD
 70
     1
  9
$DIMZIN
 70
     8
  9
$DIMBLK
  1

  9
$DIMASO
 70
     1
  9
$DIMSHO
 70
     1
  9
$DIMPOST
  1

  9
$DIMAPOST
  1

  9
$DIMALT
 70
     0
  9
$DIMALTD
 70
     3
  9
$DIMALTF
 40
0.03937
  9
$DIMLFAC
 40
1.0
  9
$DIMTOFL
 70
     1
  9
$DIMTVP
 40
0.0
  9
$DIMTIX
 70
     0
  9
$DIMSOXD
 70
     0
  9
$DIMSAH
 70
     0
  9
$DIMBLK1
  1

  9
$DIMBLK2
  1

  9
$DIMSTYLE
  2
ISO-25
  9
$DIMCLRD
 70
     0
  9
$DIMCLRE
 70
     0
  9
$DIMCLRT
 70
     0
  9
$DIMTFAC
 40
1.0
  9
$DIMGAP
 40
0.625
  9
$DIMJUST
 70
     0
  9
$DIMSD1
 70
     0
  9
$DIMSD2
 70
     0
  9
$DIMTOLJ
 70
     0
  9
$DIMTZIN
 70
     8
  9
$DIMALTZ
 70
     0
  9
$DIMALTTZ
 70
     0
  9
$DIMUPT
 70
     0
  9
$DIMDEC
 70
     2
  9
$DIMTDEC
 70
     2
  9
$DIMALTU
 70
     2
  9
$DIMALTTD
 70
     3
  9
$DIMTXSTY
  7
Standard
  9
$DIMAUNIT
 70
     0
  9
$DIMADEC
 70
     0
  9
$DIMALTRND
 40
0.0
  9
$DIMAZIN
 70
     0
  9
$DIMDSEP
 70
    44
  9
$DIMATFIT
 70
     3
  9
$DIMFRAC
 70
     0
  9
$DIMLDRBLK
  1

  9
$DIMLUNIT
 70
     2
  9
$DIMLWD
 70
    -2
  9
$DIMLWE
 70
    -2
  9
$DIMTMOVE
 70
     0
  9
$DIMFXL
 40
1.0
  9
$DIMFXLON
 70
     0
  9
$DIMJOGANG
 40
0.785398
  9
$DIMTFILL
 70
     0
  9
$DIMTFILLCLR
 70
     0
  9
$DIMARCSYM
 70
     0
  9
$DIMLTYPE
  6

  9
$DIMLTEX1
  6

  9
$DIMLTEX2
  6

  9
$DIMTXTDIRECTION
 70
     0
  9
$LUNITS
 70
     2
  9
$LUPREC
 70
     4
  9
$SKETCHINC
 40
1.0
  9
$FILLETRAD
 40
10.0
  9
$AUNITS
 70
     0
  9
$AUPREC
 70
     0
  9
$MENU
  1
.
  9
$ELEVATION
 40
0.0
  9
$PELEVATION
 40
0.0
  9
$THICKNESS
 40
0.0
  9
$LIMCHECK
 70
     0
  9
$CHAMFERA
 40
10.0
  9
$CHAMFERB
 40
10.0
  9
$CHAMFERC
 40
20.0
  9
$CHAMFERD
 40
0.0
  9
$SKPOLY
 70
     0
  9
$TDCREATE
 40
2457128.599822511
  9
$TDUCREATE
 40
2457128.516489178
  9
$TDUPDATE
 40
2457128.599822523
  9
$TDUUPDATE
 40
2457128.51648919
  9
$TDINDWG
 40
0.0000000116
  9
$TDUSRTIMER
 40
0.0000000116
  9
$USRTIMER
 70
     1
  9
$ANGBASE
 50
0.0
  9
$ANGDIR
 70
     0
  9
$PDMODE
 70
     0
  9
$PDSIZE
 40
0.0
  9
$PLINEWID
 40
0.0
  9
$SPLFRAME
 70
     0
  9
$SPLINETYPE
 70
     6
  9
$SPLINESEGS
 70
     8
  9
$HANDSEED
  5
362
  9
$SURFTAB1
 70
     6
  9
$SURFTAB2
 70
     6
  9
$SURFTYPE
 70
     6
  9
$SURFU
 70
     6
  9
$SURFV
 70
     6
  9
$UCSBASE
  2

  9
$UCSNAME
  2

  9
$UCSORG
 10
0.0
 20
0.0
 30
0.0
  9
$UCSXDIR
 10
1.0
 20
0.0
 30
0.0
  9
$UCSYDIR
 10
0.0
 20
1.0
 30
0.0
  9
$UCSORTHOREF
  2

  9
$UCSORTHOVIEW
 70
     0
  9
$UCSORGTOP
 10
0.0
 20
0.0
 30
0.0
  9
$UCSORGBOTTOM
 10
0.0
 20
0.0
 30
0.0
  9
$UCSORGLEFT
 10
0.0
 20
0.0
 30
0.0
  9
$UCSORGRIGHT
 10
0.0
 20
0.0
 30
0.0
  9
$UCSORGFRONT
 10
0.0
 20
0.0
 30
0.0
  9
$UCSORGBACK
 10
0.0
 20
0.0
 30
0.0
  9
$PUCSBASE
  2

  9
$PUCSNAME
  2

  9
$PUCSORG
 10
0.0
 20
0.0
 30
0.0
  9
$PUCSXDIR
 10
1.0
 20
0.0
 30
0.0
  9
$PUCSYDIR
 10
0.0
 20
1.0
 30
0.0
  9
$PUCSORTHOREF
  2

  9
$PUCSORTHOVIEW
 70
     0
  9
$PUCSORGTOP
 10
0.0
 20
0.0
 30
0.0
  9
$PUCSORGBOTTOM
 10
0.0
 20
0.0
 30
0.0
  9
$PUCSORGLEFT
 10
0.0
 20
0.0
 30
0.0
  9
$PUCSORGRIGHT
 10
0.0
 20
0.0
 30
0.0
  9
$PUCSORGFRONT
 10
0.0
 20
0.0
 30
0.0
  9
$PUCSORGBACK
 10
0.0
 20
0.0
 30
0.0
  9
$USERI1
 70
     0
  9
$USERI2
 70
     0
  9
$USERI3
 70
     0
  9
$USERI4
 70
     0
  9
$USERI5
 70
     0
  9
$USERR1
 40
0.0
  9
$USERR2
 40
0.0
  9
$USERR3
 40
0.0
  9
$USERR4
 40
0.0
  9
$USERR5
 40
0.0
  9
$WORLDVIEW
 70
     1
  9
$SHADEDGE
 70
     3
  9
$SHADEDIF
 70
    70
  9
$TILEMODE
 70
     1
  9
$MAXACTVP
 70
    64
  9
$PINSBASE
 10
0.0
 20
0.0
 30
0.0
  9
$PLIMCHECK
 70
     0
  9
$PEXTMIN
 10
1.000000E+20
 20
1.000000E+20
 30
1.000000E+20
  9
$PEXTMAX
 10
-1.000000E+20
 20
-1.000000E+20
 30
-1.000000E+20
  9
$PLIMMIN
 10
0.0
 20
0.0
  9
$PLIMMAX
 10
420.0
 20
297.0
  9
$UNITMODE
 70
     0
  9
$VISRETAIN
 70
     1
  9
$PLINEGEN
 70
     0
  9
$PSLTSCALE
 70
     1
  9
$TREEDEPTH
 70
  3020
  9
$CMLSTYLE
  2
Standard
  9
$CMLJUST
 70
     0
  9
$CMLSCALE
 40
20.0
  9
$PROXYGRAPHICS
 70
     1
  9
$MEASUREMENT
 70
     1
  9
$CELWEIGHT
370
    -1
  9
$ENDCAPS
280
     0
  9
$JOINSTYLE
280
     0
  9
$LWDISPLAY
290
     0
  9
$INSUNITS
 70
     4
  9
$HYPERLINKBASE
  1

  9
$STYLESHEET
  1

  9
$XEDIT
290
     1
  9
$CEPSNTYPE
380
     0
  9
$PSTYLEMODE
290
     1
  9
$FINGERPRINTGUID
  2
{3AAA9E77-CD8E-44DB-9DF6-B6B5BF0EF47A}
  9
$VERSIONGUID
  2
{FAEB1C32-E019-11D5-929B-00C0DF256EC4}
  9
$EXTNAMES
290
     1
  9
$PSVPSCALE
 40
0.0
  9
$OLESTARTUP
290
     0
  9
$SORTENTS
280
   127
  9
$INDEXCTL
280
     0
  9
$HIDETEXT
280
     1
  9
$XCLIPFRAME
280
     2
  9
$HALOGAP
280
     0
  9
$OBSCOLOR
 70
   257
  9
$OBSLTYPE
280
     0
  9
$INTERSECTIONDISPLAY
280
     0
  9
$INTERSECTIONCOLOR
 70
   257
  9
$DIMASSOC
280
     2
  9
$PROJECTNAME
  1

  9
$CAMERADISPLAY
290
     0
  9
$LENSLENGTH
 40
50.0
  9
$CAMERAHEIGHT
 40
0.0
  9
$STEPSPERSEC
 40
2.0
  9
$STEPSIZE
 40
6.0
  9
$3DDWFPREC
 40
2.0
  9
$PSOLWIDTH
 40
5.0
  9
$PSOLHEIGHT
 40
80.0
  9
$LOFTANG1
 40
1.570796
  9
$LOFTANG2
 40
1.570796
  9
$LOFTMAG1
 40
0.0
  9
$LOFTMAG2
 40
0.0
  9
$LOFTPARAM
 70
     7
  9
$LOFTNORMALS
280
     1
  9
$LATITUDE
 40
37.795
  9
$LONGITUDE
 40
-122.394
  9
$NORTHDIRECTION
 40
0.0
  9
$TIMEZONE
 70
 -8000
  9
$LIGHTGLYPHDISPLAY
280
     1
  9
$TILEMODELIGHTSYNCH
280
     1
  9
$SOLIDHIST
280
     1
  9
$SHOWHIST
280
     1
  9
$DWFFRAME
280
     2
  9
$DGNFRAME
280
     2
  9
$REALWORLDSCALE
290
     1
  9
$INTERFERECOLOR
 62
   256
  9
$CSHADOW
280
     0
  9
$SHADOWPLANELOCATION
 40
0.0
  0
ENDSEC
  0
SECTION
  2
CLASSES
  0
CLASS
  1
ACDBDICTIONARYWDFLT
  2
AcDbDictionaryWithDefault
  3
ObjectDBX Classes
 90
        0
 91
        4
280
     0
281
     0
  0
CLASS
  1
VISUALSTYLE
  2
AcDbVisualStyle
  3
ObjectDBX Classes
 90
     4095
 91
        4
280
     0
281
     0
  0
CLASS
  1
MATERIAL
  2
AcDbMaterial
  3
ObjectDBX Classes
 90
     1153
 91
        4
280
     0
281
     0
  0
ENDSEC
  0
SECTION
  2
TABLES
  0
TABLE
  2
VPORT
  5
8
330
0
100
AcDbSymbolTable
 70
     1
  0
VPORT
  5
29
330
8
100
AcDbSymbolTableRecord
100
AcDbViewportTableRecord
  2
*Active
 70
     0
 10
0.0
 20
0.0
 11
1.0
 21
1.0
 12
344.186916
 22
148.5
 13
0.0
 23
0.0
 14
10.0
 24
10.0
 15
10.0
 25
10.0
 16
0.0
 26
0.0
 36
1.0
 17
0.0
 27
0.0
 37
0.0
 40
297.0
 41
1.972973
 42
50.0
 43
0.0
 44
0.0
 50
0.0
 51
0.0
 71
     0
 72
   100
 73
     1
 74
     3
 75
     0
 76
     0
 77
     0
 78
     0
281
     0
 65
     1
110
0.0
120
0.0
130
0.0
111
1.0
121
0.0
131
0.0
112
0.0
122
1.0
132
0.0
 79
     0
146
0.0
 60
     3
 61
     5
292
     1
282
     1
141
0.0
142
0.0
 63
   250
  0
ENDTAB
  0
TABLE
  2
LTYPE
  5
5
330
0
100
AcDbSymbolTable
 70
     1
  0
LTYPE
  5
14
330
5
100
AcDbSymbolTableRecord
100
AcDbLinetypeTableRecord
  2
ByBlock
 70
     0
  3

 72
    65
 73
     0
 40
0.0
  0
LTYPE
  5
15
330
5
100
AcDbSymbolTableRecord
100
AcDbLinetypeTableRecord
  2
ByLayer
 70
     0
  3

 72
    65
 73
     0
 40
0.0
  0
LTYPE
  5
16
330
5
100
AcDbSymbolTableRecord
100
AcDbLinetypeTableRecord
  2
Continuous
 70
     0
  3
Solid line
 72
    65
 73
     0
 40
0.0
  0
ENDTAB
  0
TABLE
  2
LAYER
  5
2
330
0
100
AcDbSymbolTable
 70
     1
  0
LAYER
  5
10
330
2
100
AcDbSymbolTableRecord
100
AcDbLayerTableRecord
  2
0
 70
     0
 62
   102
  6
Continuous
370
     0
390
F
347
3E
  0
ENDTAB
  0
TABLE
  2
STYLE
  5
3
330
0
100
AcDbSymbolTable
 70
     4
  0
STYLE
  5
11
330
3
100
AcDbSymbolTableRecord
100
AcDbTextStyleTableRecord
  2
Standard
 70
     0
 40
0.0
 41
1.0
 50
0.0
 71
     0
 42
2.5
  3
txt
  4

1001
ACAD
1000
txt
1071
        0
  0
STYLE
  5
3F
330
3
100
AcDbSymbolTableRecord
100
AcDbTextStyleTableRecord
  2
Default
 70
     0
 40
0.0
 41
1.0
 50
0.0
 71
     0
 42
0.2
  3

  4

1001
ACAD
1000
txt
1071
        0
  0
STYLE
  5
40
330
3
100
AcDbSymbolTableRecord
100
AcDbTextStyleTableRecord
  2
ISO
 70
     0
 40
0.0
 41
1.0
 50
0.0
 71
     0
 42
0.2
  3

  4

1001
ACAD
1000
txt
1071
        0
  0
STYLE
  5
41
330
3
100
AcDbSymbolTableRecord
100
AcDbTextStyleTableRecord
  2
GIANLU
 70
     0
 40
0.0
 41
1.0
 50
0.0
 71
     0
 42
0.2
  3

  4

1001
ACAD
1000
Arial
1071
 33554432
  0
ENDTAB
  0
TABLE
  2
VIEW
  5
6
330
0
100
AcDbSymbolTable
 70
     0
  0
ENDTAB
  0
TABLE
  2
UCS
  5
7
330
0
100
AcDbSymbolTable
 70
     0
  0
ENDTAB
  0
TABLE
  2
APPID
  5
9
330
0
100
AcDbSymbolTable
 70
     1
  0
APPID
  5
12
330
9
100
AcDbSymbolTableRecord
100
AcDbRegAppTableRecord
  2
ACAD
 70
     0
  0
ENDTAB
  0
TABLE
  2
DIMSTYLE
  5
A
330
0
100
AcDbSymbolTable
 70
     5
100
AcDbDimStyleTable
  0
DIMSTYLE
105
27
330
A
100
AcDbSymbolTableRecord
100
AcDbDimStyleTableRecord
  2
ISO-25
 70
     0
 41
2.5
 42
0.625
 43
3.75
 44
1.25
 73
     0
 74
     0
 77
     1
 78
     8
140
2.5
141
2.5
143
0.03937
147
0.625
171
     3
172
     1
271
     2
272
     2
274
     3
278
    44
283
     0
284
     8
340
11
  0
DIMSTYLE
105
42
330
A
100
AcDbSymbolTableRecord
100
AcDbDimStyleTableRecord
  2
Default
 70
     0
  3
<>
 41
4.375
 42
1.05
 44
2.1
 49
10.01
 73
     0
 74
     0
 77
     1
 78
     8
140
3.5
146
0.4
147
1.75
172
     1
178
     2
271
     2
272
     3
284
     8
340
3F
341
43
342
43
  0
DIMSTYLE
105
4A
330
A
100
AcDbSymbolTableRecord
100
AcDbDimStyleTableRecord
  2
DefaultDimensionStyle
 70
     0
  3
<>
 41
2.5
 42
0.875
 44
1.75
 49
10.01
 73
     0
 74
     0
 77
     1
 78
     8
140
3.5
147
1.75
172
     1
178
     2
271
     2
272
     2
278
    44
284
     8
340
11
  0
DIMSTYLE
105
4B
330
A
100
AcDbSymbolTableRecord
100
AcDbDimStyleTableRecord
  2
ISO
 70
     0
  3
<>
 41
4.375
 42
1.05
 44
2.1
 49
10.01
 73
     0
 74
     0
 77
     1
 78
     8
140
3.5
146
0.4
147
1.75
172
     1
178
     2
271
     2
272
     3
284
     8
340
40
341
43
342
43
  0
DIMSTYLE
105
4C
330
A
100
AcDbSymbolTableRecord
100
AcDbDimStyleTableRecord
  2
zucchetti_unico
 70
     0
  3
<>
 41
3.5
 42
1.05
 44
2.1
 49
10.01
 73
     0
 74
     0
 77
     1
 78
     8
140
3.5
146
0.6
147
1.75
172
     1
178
     2
271
     2
272
     2
284
     8
340
11
  0
ENDTAB
  0
TABLE
  2
BLOCK_RECORD
  5
1
330
0
100
AcDbSymbolTable
 70
     7
  0
BLOCK_RECORD
  5
1F
330
1
100
AcDbSymbolTableRecord
100
AcDbBlockTableRecord
  2
*Model_Space
340
22
 70
     0
280
     1
281
     0
  0
BLOCK_RECORD
  5
1B
330
1
100
AcDbSymbolTableRecord
100
AcDbBlockTableRecord
  2
*Paper_Space
340
1E
 70
     0
280
     1
281
     0
  0
BLOCK_RECORD
  5
23
330
1
100
AcDbSymbolTableRecord
100
AcDbBlockTableRecord
  2
*Paper_Space0
340
26
 70
     0
280
     1
281
     0
  0
BLOCK_RECORD
  5
43
330
1
100
AcDbSymbolTableRecord
100
AcDbBlockTableRecord
  2
_CLOSED
340
0
 70
     0
280
     1
281
     0
  0
BLOCK_RECORD
  5
4D
330
1
100
AcDbSymbolTableRecord
100
AcDbBlockTableRecord
  2
a
340
0
102
{BLKREFS
331
10A
102
}
 70
     0
280
     1
281
     0
  0
BLOCK_RECORD
  5
10B
330
1
100
AcDbSymbolTableRecord
100
AcDbBlockTableRecord
  2
b
340
0
102
{BLKREFS
331
199
102
}
 70
     0
280
     1
281
     0
  0
BLOCK_RECORD
  5
19A
330
1
100
AcDbSymbolTableRecord
100
AcDbBlockTableRecord
  2
c
340
0
102
{BLKREFS
331
204
102
}
 70
     0
280
     1
281
     0
  0
BLOCK_RECORD
  5
205
330
1
100
AcDbSymbolTableRecord
100
AcDbBlockTableRecord
  2
d
340
0
102
{BLKREFS
331
2CF
102
}
 70
     0
280
     1
281
     0
  0
BLOCK_RECORD
  5
2D0
330
1
100
AcDbSymbolTableRecord
100
AcDbBlockTableRecord
  2
e
340
0
102
{BLKREFS
331
35F
102
}
 70
     0
280
     1
281
     0
  0
ENDTAB
  0
ENDSEC
  0
SECTION
  2
BLOCKS
  0
BLOCK
  5
20
330
1F
100
AcDbEntity
  8
0
100
AcDbBlockBegin
  2
*Model_Space
 70
     0
 10
0.0
 20
0.0
 30
0.0
  3
*Model_Space
  1

  0
ENDBLK
  5
21
330
1F
100
AcDbEntity
  8
0
100
AcDbBlockEnd
  0
BLOCK
  5
1C
330
1B
100
AcDbEntity
 67
     1
  8
0
100
AcDbBlockBegin
  2
*Paper_Space
 70
     0
 10
0.0
 20
0.0
 30
0.0
  3
*Paper_Space
  1

  0
ENDBLK
  5
1D
330
1B
100
AcDbEntity
 67
     1
  8
0
100
AcDbBlockEnd
  0
BLOCK
  5
24
330
23
100
AcDbEntity
  8
0
100
AcDbBlockBegin
  2
*Paper_Space0
 70
     0
 10
0.0
 20
0.0
 30
0.0
  3
*Paper_Space0
  1

  0
ENDBLK
  5
25
330
23
100
AcDbEntity
  8
0
100
AcDbBlockEnd
  0
BLOCK
  5
44
330
43
100
AcDbEntity
  8
0
100
AcDbBlockBegin
  2
_CLOSED
 70
     0
 10
0.0
 20
0.0
 30
0.0
  3
_CLOSED
  1

  0
LINE
  5
46
330
43
100
AcDbEntity
  8
0
  6
ByBlock
 62
     0
370
    -2
100
AcDbLine
 10
-1.0
 20
0.166667
 30
0.0
 11
0.0
 21
0.0
 31
0.0
  0
LINE
  5
47
330
43
100
AcDbEntity
  8
0
  6
ByBlock
 62
     0
370
    -2
100
AcDbLine
 10
0.0
 20
0.0
 30
0.0
 11
-1.0
 21
-0.166667
 31
0.0
  0
LINE
  5
48
330
43
100
AcDbEntity
  8
0
  6
ByBlock
 62
     0
370
    -2
100
AcDbLine
 10
-1.0
 20
0.166667
 30
0.0
 11
-1.0
 21
-0.166667
 31
0.0
  0
LINE
  5
49
330
43
100
AcDbEntity
  8
0
  6
ByBlock
 62
     0
370
    -2
100
AcDbLine
 10
0.0
 20
0.0
 30
0.0
 11
-1.0
 21
0.0
 31
0.0
  0
ENDBLK
  5
45
330
43
100
AcDbEntity
  8
0
100
AcDbBlockEnd
  0
BLOCK
  5
108
330
4D
100
AcDbEntity
  8
0
100
AcDbBlockBegin
  2
a
 70
     0
 10
50.557632
 20
229.884827
 30
0.0
  3
a
  1

  0
ARC
  5
4E
330
4D
100
AcDbEntity
  8
0
  6
Continuous
 62
     0
370
     0
100
AcDbCircle
 10
115.909305
 20
1178.760145
 30
0.0
 40
28.000487382772
100
AcDbArc
 50
180.001002
 51
269.999008
  0
LINE
  5
4F
330
4D
100
AcDbEntity
  8
0
  6
Continuous
 62
     0
370
     0
100
AcDbLine
 10
115.908818
 20
1173.259658
 30
0.0
 11
115.90882
 21
1150.759658
 31
0.0
  0
ARC
  5
50
330
4D
100
AcDbEntity
  8
0
  6
Continuous
 62
     0
370
    30
100
AcDbCircle
 10
115.90886
 20
1178.759701
 30
0.0
 40
5.500042687151561
100
AcDbArc
 50
180.00045
 51
269.99956
  0
LINE
  5
51
330
4D
100
AcDbEntity
  8
0
  6
Continuous
 62
     0
370
     0
100
AcDbLine
 10
87.908817
 20
1178.759655
 30
0.0
 11
110.408817
 21
1178.759657
 31
0.0
  0
ARC
  5
52
330
4D
100
AcDbEntity
  8
0
  6
Continuous
 62
     0
370
     0
100
AcDbCircle
 10
115.909305
 20
1122.759172
 30
0.0
 40
28.00048738277118
100
AcDbArc
 50
90.000992
 51
179.998998
  0
LINE
  5
53
330
4D
100
AcDbEntity
  8
0
  6
Continuous
 62
     0
370
     0
100
AcDbLine
 10
110.408817
 20
1122.75966
 30
0.0
 11
87.908817
 21
1122.759662
 31
0.0
  0
ARC
  5
54
330
4D
100
AcDbEntity
  8
0
  6
Continuous
 62
     0
370
    30
100
AcDbCircle
 10
115.90886
 20
1122.759617
 30
0.0
 40
5.50004268715152
100
AcDbArc
 50
90.00044
 51
179.99955
  0
LINE
  5
55
330
4D
100
AcDbEntity
  8
0
  6
Continuous
 62
     0
370
     0
100
AcDbLine
 10
115.90882
 20
1150.759658
 30
0.0
 11
115.908818
 21
1128.25966
 31
0.0
  0
LINE
  5
56
330
4D
100
AcDbEntity
  8
0
  6
Continuous
 62
     0
370
    30
100
AcDbLine
 10
110.408819
 20
1095.035099
 30
0.0
 11
110.408817
 21
1122.75966
 31
0.0
  0
LINE
  5
57
330
4D
100
AcDbEntity
  8
0
  6
Continuous
 62
     0
370
     0
100
AcDbLine
 10
87.908817
 20
1095.035048
 30
0.0
 11
87.908817
 21
1122.759662
 31
0.0
  0
LINE
  5
58
330
4D
100
AcDbEntity
  8
0
  6
Continuous
 62
     0
370
     0
100
AcDbLine
 10
87.908817
 20
1095.035048
 30
0.0
 11
110.408818
 21
1095.035099
 31
0.0
  0
LINE
  5
59
330
4D
100
AcDbEntity
  8
0
  6
Continuous
 62
     0
370
    30
100
AcDbLine
 10
115.908818
 20
1173.259658
 30
0.0
 11
118.216751
 21
1173.259658
 31
0.0
  0
LINE
  5
5A
330
4D
100
AcDbEntity
  8
0
  6
Continuous
 62
     0
370
    30
100
AcDbLine
 10
118.335882
 20
1128.259659
 30
0.0
 11
115.908818
 21
1128.25966
 31
0.0
  0
SPLINE
  5
5B
330
4D
100
AcDbEntity
  8
0
  6
Continuous
 62
     0
370
     0
100
AcDbSpline
210
0.0
220
0.0
230
1.0
 70
     8
 71
     3
 72
    17
 73
    13
 74
     0
 42
0.0
 43
0.0
 40
0.0
 40
0.0
 40
0.0
 40
0.0
 40
1.718754101383531
 40
4.583500439394577
 40
9.48624150281726
 40
14.5486632533614
 40
19.61113947222288
 40
24.67377023188959
 40
27.83809520497009
 40
29.73680122144633
 40
33.11237746459108
 40
35.33169583367232
 40
35.33169583367232
 40
35.33169583367232
 40
35.33169583367232
 10
118.5001139631159
 20
1150.759659687715
 30
0.0
 10
118.5016315295784
 20
1150.186881251218
 30
0.0
 10
118.5054116112215
 20
1148.65880367572
 30
0.0
 10
118.5087624392908
 20
1145.521453248496
 30
0.0
 10
118.506968009823
 20
1141.427808986622
 30
0.0
 10
118.4926599199183
 20
1137.088935849464
 30
0.0
 10
118.4675220704582
 20
1133.392995116083
 30
0.0
 10
118.4373184140067
 20
1130.925282272026
 30
0.0
 10
118.4097177007395
 20
1129.595826058584
 30
0.0
 10
118.3849964099157
 20
1128.787072529829
 30
0.0
 10
118.3619603148518
 20
1128.353041079163
 30
0.0
 10
118.3433549460036
 20
1128.260048031546
 30
0.0
 10
118.3359990405786
 20
1128.259662524878
 30
0.0
  0
LINE
  5
5C
330
4D
100
AcDbEntity
  8
0
  6
Continuous
 62
     0
370
     0
100
AcDbLine
 10
118.500114
 20
1150.75966
 30
0.0
 11
115.90882
 21
1150.75966
 31
0.0
  0
SPLINE
  5
5D
330
4D
100
AcDbEntity
  8
0
  6
Continuous
 62
     0
370
     0
100
AcDbSpline
210
0.0
220
0.0
230
1.0
 70
     8
 71
     3
 72
    17
 73
    13
 74
     0
 42
0.0
 43
0.0
 40
0.0
 40
0.0
 40
0.0
 40
0.0
 40
1.706339016653732
 40
4.550383530542367
 40
9.442487500490753
 40
14.50535991567011
 40
19.56799959870319
 40
24.63039839870083
 40
27.79445294476594
 40
29.69293249906594
 40
33.06807680507281
 40
35.34401262602155
 40
35.34401262602155
 40
35.34401262602155
 40
35.34401262602155
 10
118.216751398379
 20
1173.259658148465
 30
0.0
 10
118.222405325985
 20
1173.259658148959
 30
0.0
 10
118.2379203526843
 20
1173.202107391095
 30
0.0
 10
118.2696297927947
 20
1172.765252821599
 30
0.0
 10
118.3142114239602
 20
1171.452468361258
 30
0.0
 10
118.3639139869575
 20
1168.896537439271
 30
0.0
 10
118.4099648993148
 20
1165.397341416196
 30
0.0
 10
118.4445888595341
 20
1161.689844189175
 30
0.0
 10
118.4659453681619
 20
1158.58132000532
 30
0.0
 10
118.4811371391984
 20
1155.886499322336
 30
0.0
 10
118.4924822785197
 20
1153.402241197619
 30
0.0
 10
118.498105630025
 20
1151.517983952725
 30
0.0
 10
118.5001139631159
 20
1150.759659687726
 30
0.0
  0
LINE
  5
5E
330
4D
100
AcDbEntity
  8
0
  6
Continuous
 62
     0
370
    30
100
AcDbLine
 10
110.408817
 20
1178.759657
 30
0.0
 11
110.408817
 21
1179.187643
 31
0.0
  0
LINE
  5
5F
330
4D
100
AcDbEntity
  8
0
  6
Continuous
 62
     0
370
    30
100
AcDbLine
 10
110.408817
 20
1179.187643
 30
0.0
 11
87.908817
 21
1179.187643
 31
0.0
  0
LINE
  5
60
330
4D
100
AcDbEntity
  8
0
  6
Continuous
 62
     0
370
     0
100
AcDbLine
 10
87.908817
 20
1178.759655
 30
0.0
 11
87.908817
 21
1179.187643
 31
0.0
  0
LINE
  5
61
330
4D
100
AcDbEntity
  8
0
  6
Continuous
 62
     0
370
    30
100
AcDbLine
 10
125.908817
 20
1128.656537
 30
0.0
 11
125.908817
 21
1172.856537
 31
0.0
  0
LINE
  5
62
330
4D
100
AcDbEntity
  8
0
  6
Continuous
 62
     0
370
    30
100
AcDbLine
 10
125.908817
 20
1128.656537
 30
0.0
 11
118.335999
 21
1128.259663
 31
0.0
  0
LINE
  5
63
330
4D
100
AcDbEntity
  8
0
  6
Continuous
 62
     0
370
    30
100
AcDbLine
 10
109.708817
 20
1183.759664
 30
0.0
 11
66.108817
 21
1183.759664
 31
0.0
  0
LINE
  5
64
330
4D
100
AcDbEntity
  8
0
  6
Continuous
 62
     0
370
    30
100
AcDbLine
 10
65.408817
 20
1179.187643
 30
0.0
 11
87.908817
 21
1179.187643
 31
0.0
  0
LINE
  5
65
330
4D
100
AcDbEntity
  8
0
  6
Continuous
 62
     0
370
    30
100
AcDbLine
 10
110.034964
 20
1183.460806
 30
0.0
 11
110.408817
 21
1179.187643
 31
0.0
  0
LINE
  5
66
330
4D
100
AcDbEntity
  8
0
  6
Continuous
 62
     0
370
    30
100
AcDbLine
 10
110.034964
 20
1183.460806
 30
0.0
 11
65.782671
 21
1183.460806
 31
0.0
  0
LINE
  5
67
330
4D
100
AcDbEntity
  8
0
  6
Continuous
 62
     0
370
    30
100
AcDbLine
 10
110.034964
 20
1183.460806
 30
0.0
 11
109.708817
 21
1183.759664
 31
0.0
  0
LINE
  5
68
330
4D
100
AcDbEntity
  8
0
  6
Continuous
 62
     0
370
    30
100
AcDbLine
 10
65.808817
 20
1079.759664
 30
0.0
 11
110.008817
 21
1079.759664
 31
0.0
  0
LINE
  5
69
330
4D
100
AcDbEntity
  8
0
  6
Continuous
 62
     0
370
    30
100
AcDbLine
 10
65.808817
 20
1079.759664
 30
0.0
 11
65.408817
 21
1095.035048
 31
0.0
  0
LINE
  5
6A
330
4D
100
AcDbEntity
  8
0
  6
Continuous
 62
     0
370
     0
100
AcDbLine
 10
87.908817
 20
1095.035048
 30
0.0
 11
65.408817
 21
1095.035048
 31
0.0
  0
LINE
  5
6B
330
4D
100
AcDbEntity
  8
0
  6
Continuous
 62
     0
370
     0
100
AcDbLine
 10
87.908817
 20
1178.759655
 30
0.0
 11
87.908817
 21
1122.759662
 31
0.0
  0
LINE
  5
6C
330
4D
100
AcDbEntity
  8
0
  6
Continuous
 62
     0
370
    30
100
AcDbLine
 10
65.408817
 20
1179.187643
 30
0.0
 11
65.408817
 21
1095.035048
 31
0.0
  0
LINE
  5
6D
330
4D
100
AcDbEntity
  8
0
  6
Continuous
 62
     0
370
    30
100
AcDbLine
 10
110.408819
 20
1095.035099
 30
0.0
 11
110.008817
 21
1079.759664
 31
0.0
  0
LINE
  5
6E
330
4D
100
AcDbEntity
  8
0
  6
Continuous
 62
     0
370
    30
100
AcDbLine
 10
65.782671
 20
1183.460806
 30
0.0
 11
66.108817
 21
1183.759664
 31
0.0
  0
LINE
  5
6F
330
4D
100
AcDbEntity
  8
0
  6
Continuous
 62
     0
370
    30
100
AcDbLine
 10
65.408817
 20
1179.187643
 30
0.0
 11
65.782671
 21
1183.460806
 31
0.0
  0
LINE
  5
70
330
4D
100
AcDbEntity
  8
0
  6
Continuous
 62
     0
370
    30
100
AcDbLine
 10
118.21687
 20
1173.259655
 30
0.0
 11
125.908817
 21
1172.856537
 31
0.0
  0
LINE
  5
71
330
4D
100
AcDbEntity
  8
0
  6
Continuous
 62
     0
370
    30
100
AcDbLine
 10
136.508818
 20
1238.759662
 30
0.0
 11
143.860837
 21
1238.759662
 31
0.0
  0
LINE
  5
72
330
4D
100
AcDbEntity
  8
0
  6
Continuous
 62
     0
370
    30
100
AcDbLine
 10
143.860837
 20
1238.759662
 30
0.0
 11
149.508818
 21
1238.759662
 31
0.0
  0
LINE
  5
73
330
4D
100
AcDbEntity
  8
0
  6
Continuous
 62
     0
370
    30
100
AcDbLine
 10
149.508818
 20
1178.759662
 30
0.0
 11
149.508818
 21
1238.759662
 31
0.0
  0
LINE
  5
74
330
4D
100
AcDbEntity
  8
0
  6
Continuous
 62
     0
370
    30
100
AcDbLine
 10
136.508818
 20
1178.759662
 30
0.0
 11
136.508818
 21
1238.759662
 31
0.0
  0
LINE
  5
75
330
4D
100
AcDbEntity
  8
0
  6
Continuous
 62
     0
370
    30
100
AcDbLine
 10
136.508816
 20
1178.759661
 30
0.0
 11
149.508816
 21
1178.759661
 31
0.0
  0
LINE
  5
76
330
4D
100
AcDbEntity
  8
0
  6
Continuous
 62
     0
370
    30
100
AcDbLine
 10
149.508816
 20
1178.759661
 30
0.0
 11
149.492884
 21
1177.846923
 31
0.0
  0
SPLINE
  5
77
330
4D
100
AcDbEntity
  8
0
  6
Continuous
 62
     0
370
     0
100
AcDbSpline
210
0.0
220
0.0
230
1.0
 70
     8
 71
     3
 72
    21
 73
    17
 74
     0
 42
0.0
 43
0.0
 40
0.0
 40
0.0
 40
0.0
 40
0.0
 40
1.912405789321918
 40
3.830350421158677
 40
6.32391116788351
 40
7.661351199193069
 40
8.952158795729051
 40
10.23687625134339
 40
11.6201887532878
 40
12.6699143264469
 40
13.90342270692967
 40
15.64836897466497
 40
17.34311723258501
 40
18.41361149052811
 40
19.47528666719966
 40
21.03953786596914
 40
21.03953786596914
 40
21.03953786596914
 40
21.03953786596914
 10
149.4928838648902
 20
1177.846923289636
 30
0.0
 10
149.4928838648902
 20
1177.846923211447
 30
0.0
 10
149.3080477054164
 20
1177.707171931997
 30
0.0
 10
148.4366437895994
 20
1177.093294213459
 30
0.0
 10
147.1522537691616
 20
1176.331866147197
 30
0.0
 10
145.7311113944085
 20
1175.746384278619
 30
0.0
 10
144.5338024581162
 20
1175.421067706874
 30
0.0
 10
143.2548032516547
 20
1175.271223429701
 30
0.0
 10
142.0412351605955
 20
1175.334596834237
 30
0.0
 10
140.8869810658578
 20
1175.567436159574
 30
0.0
 10
139.6985699513696
 20
1175.96271431789
 30
0.0
 10
138.490279930208
 20
1176.548363837743
 30
0.0
 10
137.5740651940057
 20
1177.111084195888
 30
0.0
 10
137.0049458148582
 20
1177.49811607
 30
0.0
 10
136.627998869095
 20
1177.769227566434
 30
0.0
 10
136.5247476658715
 20
1177.846923225682
 30
0.0
 10
136.5247476658715
 20
1177.846923289636
 30
0.0
  0
ARC
  5
78
330
4D
100
AcDbEntity
  8
0
  6
Continuous
 62
     0
370
    30
100
AcDbCircle
 10
154.492122
 20
1177.759661
 30
0.0
 40
5.000000000000002
100
AcDbArc
 50
179.0
 51
270.0
  0
ARC
  5
79
330
4D
100
AcDbEntity
  8
0
  6
Continuous
 62
     0
370
    30
100
AcDbCircle
 10
131.525509
 20
1177.759661
 30
0.0
 40
5.000000000000002
100
AcDbArc
 50
270.0
 51
1.0
  0
SPLINE
  5
7A
330
4D
100
AcDbEntity
  8
0
  6
Continuous
 62
     0
370
     0
100
AcDbSpline
210
0.0
220
0.0
230
1.0
 70
     8
 71
     3
 72
    21
 73
    17
 74
     0
 42
0.0
 43
0.0
 40
0.0
 40
0.0
 40
0.0
 40
0.0
 40
3.004295903647487
 40
6.01729305781994
 40
8.458208939345289
 40
9.934554958359266
 40
12.21528003185013
 40
14.06340335768736
 40
16.08163160756893
 40
18.25474785008434
 40
19.90381535291495
 40
21.8415966518898
 40
24.58282184243938
 40
27.24518841621357
 40
30.59472225158563
 40
33.05208433184011
 40
33.05208433184011
 40
33.05208433184011
 40
33.05208433184011
 10
154.4921223406722
 20
1172.75966125745
 30
0.0
 10
154.4921223406722
 20
1172.75966114462
 30
0.0
 10
154.1667266788723
 20
1172.645826170898
 30
0.0
 10
152.858932551984
 20
1172.219807817859
 30
0.0
 10
151.2598503094394
 20
1171.771215765874
 30
0.0
 10
149.5470907991544
 20
1171.368677486226
 30
0.0
 10
147.7821340882431
 20
1171.03812563223
 30
0.0
 10
145.6518429339741
 20
1170.77952260554
 30
0.0
 10
143.4458414756142
 20
1170.660938333394
 30
0.0
 10
141.2900028739995
 20
1170.712581748312
 30
0.0
 10
139.2407384283758
 20
1170.90229755015
 30
0.0
 10
137.1328877806066
 20
1171.224396139882
 30
0.0
 10
134.9937573090686
 20
1171.70148579779
 30
0.0
 10
132.9941034951404
 20
1172.268374814307
 30
0.0
 10
131.7811350163095
 20
1172.670911687171
 30
0.0
 10
131.5255091900895
 20
1172.759661165161
 30
0.0
 10
131.5255091900895
 20
1172.75966125745
 30
0.0
  0
LINE
  5
7B
330
4D
100
AcDbEntity
  8
0
  6
Continuous
 62
     0
370
    30
100
AcDbLine
 10
127.008816
 20
1151.288973
 30
0.0
 11
135.208816
 21
1128.759661
 31
0.0
  0
LINE
  5
7C
330
4D
100
AcDbEntity
  8
0
  6
Continuous
 62
     0
370
    30
100
AcDbLine
 10
127.008816
 20
1172.759661
 30
0.0
 11
127.008816
 21
1151.288973
 31
0.0
  0
LINE
  5
7D
330
4D
100
AcDbEntity
  8
0
  6
Continuous
 62
     0
370
    30
100
AcDbLine
 10
127.008816
 20
1172.759661
 30
0.0
 11
131.525509
 21
1172.759661
 31
0.0
  0
LINE
  5
7E
330
4D
100
AcDbEntity
  8
0
  6
Continuous
 62
     0
370
    30
100
AcDbLine
 10
154.492122
 20
1172.759661
 30
0.0
 11
157.508816
 21
1172.759661
 31
0.0
  0
LINE
  5
7F
330
4D
100
AcDbEntity
  8
0
  6
Continuous
 62
     0
370
     0
100
AcDbLine
 10
157.508816
 20
1172.759661
 30
0.0
 11
157.508816
 21
1128.759661
 31
0.0
  0
LINE
  5
80
330
4D
100
AcDbEntity
  8
0
  6
Continuous
 62
     0
370
    30
100
AcDbLine
 10
158.008816
 20
1172.259661
 30
0.0
 11
158.008816
 21
1129.259661
 31
0.0
  0
ARC
  5
81
330
4D
100
AcDbEntity
  8
0
  6
Continuous
 62
     0
370
    30
100
AcDbCircle
 10
157.508816
 20
1172.259661
 30
0.0
 40
0.5
100
AcDbArc
 50
0.0
 51
90.0
  0
ARC
  5
82
330
4D
100
AcDbEntity
  8
0
  6
Continuous
 62
     0
370
    30
100
AcDbCircle
 10
157.508779
 20
1129.259698
 30
0.0
 40
0.5000369078942255
100
AcDbArc
 50
270.004229
 51
359.995771
  0
LINE
  5
83
330
4D
100
AcDbEntity
  8
0
  6
Continuous
 62
     0
370
    30
100
AcDbLine
 10
158.005149
 20
1172.31972
 30
0.0
 11
158.008816
 21
1172.259661
 31
0.0
  0
LINE
  5
84
330
4D
100
AcDbEntity
  8
0
  6
Continuous
 62
     0
370
    30
100
AcDbLine
 10
135.208869
 20
1128.759661
 30
0.0
 11
157.508816
 21
1128.759661
 31
0.0
  0
LINE
  5
85
330
4D
100
AcDbEntity
  8
0
  6
Continuous
 62
     0
370
    30
100
AcDbLine
 10
136.508816
 20
1178.759661
 30
0.0
 11
136.524748
 21
1177.846923
 31
0.0
  0
LINE
  5
86
330
4D
100
AcDbEntity
  8
0
  6
Continuous
 62
     0
370
    30
100
AcDbLine
 10
82.317413
 20
1068.759674
 30
0.0
 11
117.408817
 21
1068.759674
 31
0.0
  0
LINE
  5
87
330
4D
100
AcDbEntity
  8
0
  6
Continuous
 62
     0
370
    30
100
AcDbLine
 10
58.408817
 20
1068.759674
 30
0.0
 11
82.317413
 21
1068.759674
 31
0.0
  0
LINE
  5
88
330
4D
100
AcDbEntity
  8
0
  6
Continuous
 62
     0
370
     0
100
AcDbLine
 10
57.908817
 20
1069.259674
 30
0.0
 11
82.222643
 21
1069.259674
 31
0.0
  0
LINE
  5
89
330
4D
100
AcDbEntity
  8
0
  6
Continuous
 62
     0
370
     0
100
AcDbLine
 10
82.222643
 20
1069.259674
 30
0.0
 11
117.908817
 21
1069.259674
 31
0.0
  0
LINE
  5
8A
330
4D
100
AcDbEntity
  8
0
  6
Continuous
 62
     0
370
     0
100
AcDbLine
 10
82.222643
 20
1074.259674
 30
0.0
 11
117.908817
 21
1074.259674
 31
0.0
  0
LINE
  5
8B
330
4D
100
AcDbEntity
  8
0
  6
Continuous
 62
     0
370
     0
100
AcDbLine
 10
57.908817
 20
1074.259674
 30
0.0
 11
82.222643
 21
1074.259674
 31
0.0
  0
LINE
  5
8C
330
4D
100
AcDbEntity
  8
0
  6
Continuous
 62
     0
370
    30
100
AcDbLine
 10
58.408817
 20
1074.759674
 30
0.0
 11
82.317413
 21
1074.759674
 31
0.0
  0
LINE
  5
8D
330
4D
100
AcDbEntity
  8
0
  6
Continuous
 62
     0
370
    30
100
AcDbLine
 10
82.317413
 20
1074.759674
 30
0.0
 11
117.408817
 21
1074.759674
 31
0.0
  0
ARC
  5
8E
330
4D
100
AcDbEntity
  8
0
  6
Continuous
 62
     0
370
    30
100
AcDbCircle
 10
117.408777
 20
1069.259712
 30
0.0
 40
0.5000377451441933
100
AcDbArc
 50
270.013032
 51
359.995676
  0
ARC
  5
8F
330
4D
100
AcDbEntity
  8
0
  6
Continuous
 62
     0
370
    30
100
AcDbCircle
 10
58.408844
 20
1069.259712
 30
0.0
 40
0.5000379012343419
100
AcDbArc
 50
180.004342
 51
269.986567
  0
ARC
  5
90
330
4D
100
AcDbEntity
  8
0
  6
Continuous
 62
     0
370
    30
100
AcDbCircle
 10
117.408777
 20
1074.259636
 30
0.0
 40
0.5000377451457424
100
AcDbArc
 50
0.004324
 51
89.986968
  0
ARC
  5
91
330
4D
100
AcDbEntity
  8
0
  6
Continuous
 62
     0
370
    30
100
AcDbCircle
 10
58.408844
 20
1074.259636
 30
0.0
 40
0.5000379012422579
100
AcDbArc
 50
90.013433
 51
179.995658
  0
LINE
  5
92
330
4D
100
AcDbEntity
  8
0
  6
Continuous
 62
     0
370
    30
100
AcDbLine
 10
57.908817
 20
1069.259674
 30
0.0
 11
57.908817
 21
1074.259674
 31
0.0
  0
LINE
  5
93
330
4D
100
AcDbEntity
  8
0
  6
Continuous
 62
     0
370
    30
100
AcDbLine
 10
117.908817
 20
1069.259674
 30
0.0
 11
117.908817
 21
1074.259674
 31
0.0
  0
ARC
  5
94
330
4D
100
AcDbEntity
  8
0
  6
Continuous
 62
     0
370
    30
100
AcDbCircle
 10
114.909077
 20
1079.759936
 30
0.0
 40
5.000261552262738
100
AcDbArc
 50
180.002996
 51
269.984394
  0
ARC
  5
95
330
4D
100
AcDbEntity
  8
0
  6
Continuous
 62
     0
370
    30
100
AcDbCircle
 10
60.908546
 20
1079.759937
 30
0.0
 40
5.000262731638403
100
AcDbArc
 50
270.015593
 51
359.99699
  0
LINE
  5
96
330
4D
100
AcDbEntity
  8
0
  6
Continuous
 62
     0
370
    30
100
AcDbLine
 10
85.408817
 20
1058.695811
 30
0.0
 11
85.408817
 21
1062.257968
 31
0.0
  0
ELLIPSE
  5
97
330
4D
100
AcDbEntity
  8
0
  6
Continuous
 62
     0
370
     0
100
AcDbEllipse
 10
87.908817
 20
1062.257968
 30
0.0
 11
2.5
 21
0.0
 31
0.0
210
0.0
220
0.0
230
1.0
 40
0.422618
 41
0.0
 42
3.141592653589791
  0
ELLIPSE
  5
98
330
4D
100
AcDbEntity
  8
0
  6
Continuous
 62
     0
370
     0
100
AcDbEllipse
 10
87.908817
 20
1058.695811
 30
0.0
 11
2.5
 21
0.0
 31
0.0
210
0.0
220
0.0
230
-1.0
 40
0.052336
 41
0.0
 42
3.141592653589774
  0
LINE
  5
99
330
4D
100
AcDbEntity
  8
0
  6
Continuous
 62
     0
370
    30
100
AcDbLine
 10
85.408817
 20
1062.257968
 30
0.0
 11
85.408817
 21
1068.759674
 31
0.0
  0
ELLIPSE
  5
9A
330
4D
100
AcDbEntity
  8
0
  6
Continuous
 62
     0
370
    30
100
AcDbEllipse
 10
87.908817
 20
768.963384
 30
0.0
 11
1.75
 21
0.0
 31
0.0
210
0.0
220
0.0
230
-1.0
 40
0.052336
 41
0.0
 42
3.141592653589774
  0
LINE
  5
9B
330
4D
100
AcDbEntity
  8
0
  6
Continuous
 62
     0
370
    30
100
AcDbLine
 10
85.408817
 20
769.712357
 30
0.0
 11
85.408817
 21
1058.695811
 31
0.0
  0
ELLIPSE
  5
9C
330
4D
100
AcDbEntity
  8
0
  6
Continuous
 62
     0
370
    30
100
AcDbEllipse
 10
87.908817
 20
769.712357
 30
0.0
 11
2.5
 21
0.0
 31
0.0
210
0.0
220
0.0
230
-1.0
 40
0.052336
 41
0.0
 42
3.141592653589774
  0
LINE
  5
9D
330
4D
100
AcDbEntity
  8
0
  6
Continuous
 62
     0
370
    30
100
AcDbLine
 10
85.412187
 20
769.705654
 30
0.0
 11
86.161102
 21
768.958767
 31
0.0
  0
LINE
  5
9E
330
4D
100
AcDbEntity
  8
0
  6
Continuous
 62
     0
370
    30
100
AcDbLine
 10
90.405406
 20
769.705557
 30
0.0
 11
89.656458
 21
768.958653
 31
0.0
  0
LINE
  5
9F
330
4D
100
AcDbEntity
  8
0
  6
Continuous
 62
     0
370
    30
100
AcDbLine
 10
90.408817
 20
1058.695811
 30
0.0
 11
90.408817
 21
769.712357
 31
0.0
  0
LINE
  5
A0
330
4D
100
AcDbEntity
  8
0
  6
Continuous
 62
     0
370
    30
100
AcDbLine
 10
90.408817
 20
1068.759674
 30
0.0
 11
90.408817
 21
1062.257968
 31
0.0
  0
LINE
  5
A1
330
4D
100
AcDbEntity
  8
0
  6
Continuous
 62
     0
370
    30
100
AcDbLine
 10
90.408817
 20
1062.257968
 30
0.0
 11
90.408817
 21
1058.695811
 31
0.0
  0
LINE
  5
A2
330
4D
100
AcDbEntity
  8
0
  6
Continuous
 62
     0
370
    30
100
AcDbLine
 10
76.908817
 20
1205.759668
 30
0.0
 11
76.908817
 21
1254.109665
 31
0.0
  0
LINE
  5
A3
330
4D
100
AcDbEntity
  8
0
  6
Continuous
 62
     0
370
    30
100
AcDbLine
 10
76.908817
 20
1387.909668
 30
0.0
 11
76.908817
 21
1297.909668
 31
0.0
  0
LINE
  5
A4
330
4D
100
AcDbEntity
  8
0
  6
Continuous
 62
     0
370
     0
100
AcDbLine
 10
76.908817
 20
1297.909668
 30
0.0
 11
98.908817
 21
1297.909668
 31
0.0
  0
LINE
  5
A5
330
4D
100
AcDbEntity
  8
0
  6
Continuous
 62
     0
370
    30
100
AcDbLine
 10
76.908817
 20
1297.909668
 30
0.0
 11
76.908817
 21
1273.909668
 31
0.0
  0
LINE
  5
A6
330
4D
100
AcDbEntity
  8
0
  6
Continuous
 62
     0
370
    30
100
AcDbLine
 10
76.908817
 20
1273.909668
 30
0.0
 11
98.908817
 21
1273.909668
 31
0.0
  0
LINE
  5
A7
330
4D
100
AcDbEntity
  8
0
  6
Continuous
 62
     0
370
    30
100
AcDbLine
 10
98.908817
 20
1273.909668
 30
0.0
 11
98.908817
 21
1297.909668
 31
0.0
  0
ARC
  5
A8
330
4D
100
AcDbEntity
  8
0
  6
Continuous
 62
     0
370
    30
100
AcDbCircle
 10
87.908543
 20
1387.909968
 30
0.0
 40
10.99972553469727
100
AcDbArc
 50
359.996742
 51
179.969148
  0
LINE
  5
A9
330
4D
100
AcDbEntity
  8
0
  6
Continuous
 62
     0
370
    30
100
AcDbLine
 10
98.908817
 20
1297.909668
 30
0.0
 11
98.908817
 21
1387.909342
 31
0.0
  0
LINE
  5
AA
330
4D
100
AcDbEntity
  8
0
  6
Continuous
 62
     0
370
    30
100
AcDbLine
 10
98.908817
 20
1254.109665
 30
0.0
 11
98.908817
 21
1205.759668
 31
0.0
  0
LINE
  5
AB
330
4D
100
AcDbEntity
  8
0
  6
Continuous
 62
     0
370
    30
100
AcDbLine
 10
93.24085
 20
1205.759668
 30
0.0
 11
109.408817
 21
1205.759668
 31
0.0
  0
LINE
  5
AC
330
4D
100
AcDbEntity
  8
0
  6
Continuous
 62
     0
370
    30
100
AcDbLine
 10
66.408817
 20
1205.759668
 30
0.0
 11
93.24085
 21
1205.759668
 31
0.0
  0
LINE
  5
AD
330
4D
100
AcDbEntity
  8
0
  6
Continuous
 62
     0
370
     0
100
AcDbLine
 10
93.364851
 20
1205.259668
 30
0.0
 11
109.908817
 21
1205.259668
 31
0.0
  0
LINE
  5
AE
330
4D
100
AcDbEntity
  8
0
  6
Continuous
 62
     0
370
     0
100
AcDbLine
 10
65.908817
 20
1205.259668
 30
0.0
 11
93.364851
 21
1205.259668
 31
0.0
  0
LINE
  5
AF
330
4D
100
AcDbEntity
  8
0
  6
Continuous
 62
     0
370
    30
100
AcDbLine
 10
93.364851
 20
1184.059668
 30
0.0
 11
109.908817
 21
1184.059668
 31
0.0
  0
LINE
  5
B0
330
4D
100
AcDbEntity
  8
0
  6
Continuous
 62
     0
370
    30
100
AcDbLine
 10
65.908817
 20
1184.059668
 30
0.0
 11
93.364851
 21
1184.059668
 31
0.0
  0
LINE
  5
B1
330
4D
100
AcDbEntity
  8
0
  6
Continuous
 62
     0
370
    30
100
AcDbLine
 10
66.208848
 20
1183.759692
 30
0.0
 11
65.908872
 21
1184.059668
 31
0.0
  0
LINE
  5
B2
330
4D
100
AcDbEntity
  8
0
  6
Continuous
 62
     0
370
    30
100
AcDbLine
 10
109.608789
 20
1183.759694
 30
0.0
 11
109.908762
 21
1184.059668
 31
0.0
  0
LINE
  5
B3
330
4D
100
AcDbEntity
  8
0
  6
Continuous
 62
     0
370
    30
100
AcDbLine
 10
109.908817
 20
1184.059668
 30
0.0
 11
109.908817
 21
1205.259668
 31
0.0
  0
LINE
  5
B4
330
4D
100
AcDbEntity
  8
0
  6
Continuous
 62
     0
370
    30
100
AcDbLine
 10
65.908817
 20
1184.059668
 30
0.0
 11
65.908817
 21
1205.259668
 31
0.0
  0
ARC
  5
B5
330
4D
100
AcDbEntity
  8
0
  6
Continuous
 62
     0
370
    30
100
AcDbCircle
 10
66.408909
 20
1205.259632
 30
0.0
 40
0.5000368064018407
100
AcDbArc
 50
90.009642
 51
179.995783
  0
ARC
  5
B6
330
4D
100
AcDbEntity
  8
0
  6
Continuous
 62
     0
370
    30
100
AcDbCircle
 10
109.408725
 20
1205.259631
 30
0.0
 40
0.5000368616060308
100
AcDbArc
 50
0.004223
 51
89.98977
  0
LINE
  5
B7
330
4D
100
AcDbEntity
  8
0
  6
Continuous
 62
     0
370
     0
100
AcDbLine
 10
93.72399
 20
1254.109665
 30
0.0
 11
76.908817
 21
1254.109665
 31
0.0
  0
LINE
  5
B8
330
4D
100
AcDbEntity
  8
0
  6
Continuous
 62
     0
370
     0
100
AcDbLine
 10
98.908817
 20
1254.109665
 30
0.0
 11
93.72399
 21
1254.109665
 31
0.0
  0
LINE
  5
B9
330
4D
100
AcDbEntity
  8
0
  6
Continuous
 62
     0
370
    30
100
AcDbLine
 10
93.61826
 20
1253.909665
 30
0.0
 11
77.108817
 21
1253.909665
 31
0.0
  0
LINE
  5
BA
330
4D
100
AcDbEntity
  8
0
  6
Continuous
 62
     0
370
    30
100
AcDbLine
 10
98.708817
 20
1253.909665
 30
0.0
 11
93.61826
 21
1253.909665
 31
0.0
  0
ARC
  5
BB
330
4D
100
AcDbEntity
  8
0
  6
Continuous
 62
     0
370
    30
100
AcDbCircle
 10
98.708517
 20
1254.109966
 30
0.0
 40
0.200300886758876
100
AcDbArc
 50
270.086004
 51
359.913996
  0
ARC
  5
BC
330
4D
100
AcDbEntity
  8
0
  6
Continuous
 62
     0
370
    30
100
AcDbCircle
 10
77.109118
 20
1254.109966
 30
0.0
 40
0.2003008867580283
100
AcDbArc
 50
180.086004
 51
269.913996
  0
LINE
  5
BD
330
4D
100
AcDbEntity
  8
0
  6
Continuous
 62
     0
370
    30
100
AcDbLine
 10
98.908817
 20
1273.909665
 30
0.0
 11
98.908817
 21
1254.109665
 31
0.0
  0
LINE
  5
BE
330
4D
100
AcDbEntity
  8
0
  6
Continuous
 62
     0
370
    30
100
AcDbLine
 10
76.908817
 20
1273.909665
 30
0.0
 11
76.908817
 21
1254.109665
 31
0.0
  0
ARC
  5
BF
330
4D
100
AcDbEntity
  8
0
  6
Continuous
 62
     0
370
    30
100
AcDbCircle
 10
124.53086
 20
1150.891809
 30
0.0
 40
20.52844235784443
100
AcDbArc
 50
273.848833
 51
296.894751
  0
ARC
  5
C0
330
4D
100
AcDbEntity
  8
0
  6
Continuous
 62
     0
370
    30
100
AcDbCircle
 10
124.547233
 20
1150.795925
 30
0.0
 40
20.35932260076549
100
AcDbArc
 50
83.055553
 51
86.165328
  0
LINE
  5
C1
330
4D
100
AcDbEntity
  8
0
  6
Continuous
 62
     0
370
    30
100
AcDbLine
 10
132.220362
 20
1153.234814
 30
0.0
 11
132.576103
 21
1153.234812
 31
0.0
  0
LINE
  5
C2
330
4D
100
AcDbEntity
  8
0
  6
Continuous
 62
     0
370
    30
100
AcDbLine
 10
132.576103
 20
1153.234812
 30
0.0
 11
132.576103
 21
1155.095102
 31
0.0
  0
LINE
  5
C3
330
4D
100
AcDbEntity
  8
0
  6
Continuous
 62
     0
370
    30
100
AcDbLine
 10
132.576103
 20
1155.095102
 30
0.0
 11
132.262943
 21
1155.095102
 31
0.0
  0
LINE
  5
C4
330
4D
100
AcDbEntity
  8
0
  6
Continuous
 62
     0
370
    30
100
AcDbLine
 10
132.262943
 20
1155.095102
 30
0.0
 11
132.262943
 21
1153.634738
 31
0.0
  0
ARC
  5
C5
330
4D
100
AcDbEntity
  8
0
  6
Continuous
 62
     0
370
    30
100
AcDbCircle
 10
39.455493
 20
1032.747652
 30
0.0
 40
152.4037743888633
100
AcDbArc
 50
52.485825
 51
53.382005
  0
LINE
  5
C6
330
4D
100
AcDbEntity
  8
0
  6
Continuous
 62
     0
370
    30
100
AcDbLine
 10
130.360836
 20
1155.071521
 30
0.0
 11
130.008816
 21
1155.071519
 31
0.0
  0
LINE
  5
C7
330
4D
100
AcDbEntity
  8
0
  6
Continuous
 62
     0
370
    30
100
AcDbLine
 10
130.008816
 20
1155.071519
 30
0.0
 11
130.008816
 21
1153.27314
 31
0.0
  0
LINE
  5
C8
330
4D
100
AcDbEntity
  8
0
  6
Continuous
 62
     0
370
    30
100
AcDbLine
 10
130.008816
 20
1153.27314
 30
0.0
 11
130.321768
 21
1153.27314
 31
0.0
  0
LINE
  5
C9
330
4D
100
AcDbEntity
  8
0
  6
Continuous
 62
     0
370
    30
100
AcDbLine
 10
130.321768
 20
1153.27314
 30
0.0
 11
130.321768
 21
1154.670363
 31
0.0
  0
ARC
  5
CA
330
4D
100
AcDbEntity
  8
0
  6
Continuous
 62
     0
370
    30
100
AcDbCircle
 10
26.879924
 20
1015.889536
 30
0.0
 40
173.0905346548271
100
AcDbArc
 50
52.512684
 51
53.300583
  0
LINE
  5
CB
330
4D
100
AcDbEntity
  8
0
  6
Continuous
 62
     0
370
    30
100
AcDbLine
 10
130.008453
 20
1155.318775
 30
0.0
 11
130.008453
 21
1155.649984
 31
0.0
  0
LINE
  5
CC
330
4D
100
AcDbEntity
  8
0
  6
Continuous
 62
     0
370
    30
100
AcDbLine
 10
130.008453
 20
1155.649984
 30
0.0
 11
131.597608
 21
1155.649978
 31
0.0
  0
SPLINE
  5
CD
330
4D
100
AcDbEntity
  8
0
  6
Continuous
 62
     0
370
    30
100
AcDbSpline
210
0.0
220
0.0
230
1.0
 70
     8
 71
     3
 72
    10
 73
     6
 74
     0
 42
0.0
 43
0.0
 40
0.0
 40
0.0
 40
0.0
 40
0.0
 40
0.1607383031801948
 40
0.3212678064986665
 40
0.4814978669279018
 40
0.4814978669279018
 40
0.4814978669279018
 40
0.4814978669279018
 10
131.5976077148121
 20
1155.649978050273
 30
0.0
 10
131.6511871476862
 20
1155.649969660667
 30
0.0
 10
131.7582526054017
 20
1155.65407771546
 30
0.0
 10
131.9178073095273
 20
1155.679500419529
 30
0.0
 10
132.0156559328896
 20
1155.726119173858
 30
0.0
 10
132.0598020571973
 20
1155.75539800932
 30
0.0
  0
SPLINE
  5
CE
330
4D
100
AcDbEntity
  8
0
  6
Continuous
 62
     0
370
    30
100
AcDbSpline
210
0.0
220
0.0
230
1.0
 70
     8
 71
     3
 72
    14
 73
    10
 74
     0
 42
0.0
 43
0.0
 40
0.0
 40
0.0
 40
0.0
 40
0.0
 40
0.2483063195049807
 40
0.4973415118280721
 40
0.7469539897613074
 40
0.9957853863575405
 40
1.243643039570703
 40
1.492316197299798
 40
1.742344279104773
 40
1.742344279104773
 40
1.742344279104773
 40
1.742344279104773
 10
132.0598020572018
 20
1155.755398009344
 30
0.0
 10
132.127120416639
 20
1155.802299213599
 30
0.0
 10
132.2433316292569
 20
1155.926536982577
 30
0.0
 10
132.3151712418816
 20
1156.16389201448
 30
0.0
 10
132.3168834328148
 20
1156.406530763183
 30
0.0
 10
132.2537598721345
 20
1156.645044574331
 30
0.0
 10
132.0757736134541
 20
1156.828254537756
 30
0.0
 10
131.8336344939276
 20
1156.906534581819
 30
0.0
 10
131.6668941790957
 20
1156.913966346438
 30
0.0
 10
131.5835517160887
 20
1156.913783627786
 30
0.0
  0
LINE
  5
CF
330
4D
100
AcDbEntity
  8
0
  6
Continuous
 62
     0
370
    30
100
AcDbLine
 10
131.583552
 20
1156.913784
 30
0.0
 11
130.008453
 21
1156.913793
 31
0.0
  0
LINE
  5
D0
330
4D
100
AcDbEntity
  8
0
  6
Continuous
 62
     0
370
    30
100
AcDbLine
 10
130.008453
 20
1156.913793
 30
0.0
 11
130.008453
 21
1157.217142
 31
0.0
  0
LINE
  5
D1
330
4D
100
AcDbEntity
  8
0
  6
Continuous
 62
     0
370
    30
100
AcDbLine
 10
130.008453
 20
1157.217142
 30
0.0
 11
131.59058
 21
1157.217127
 31
0.0
  0
SPLINE
  5
D2
330
4D
100
AcDbEntity
  8
0
  6
Continuous
 62
     0
370
    30
100
AcDbSpline
210
0.0
220
0.0
230
1.0
 70
     8
 71
     3
 72
    10
 73
     6
 74
     0
 42
0.0
 43
0.0
 40
0.0
 40
0.0
 40
0.0
 40
0.0
 40
0.2406503714594196
 40
0.4809889051886758
 40
0.721158888053054
 40
0.721158888053054
 40
0.721158888053054
 40
0.721158888053054
 10
131.5905797245312
 20
1157.217126881584
 30
0.0
 10
131.6707965149295
 20
1157.217126875816
 30
0.0
 10
131.8316307862963
 20
1157.209904608792
 30
0.0
 10
132.066736761443
 20
1157.15337371464
 30
0.0
 10
132.2091822748331
 20
1157.078624888327
 30
0.0
 10
132.2735358999058
 20
1157.032980950194
 30
0.0
  0
SPLINE
  5
D3
330
4D
100
AcDbEntity
  8
0
  6
Continuous
 62
     0
370
    30
100
AcDbSpline
210
0.0
220
0.0
230
1.0
 70
     8
 71
     3
 72
    14
 73
    10
 74
     0
 42
0.0
 43
0.0
 40
0.0
 40
0.0
 40
0.0
 40
0.0
 40
0.2658311356644136
 40
0.5318324899200813
 40
0.7981789482599619
 40
1.064703722663622
 40
1.331140912478696
 40
1.59725580011786
 40
1.863124513833546
 40
1.863124513833546
 40
1.863124513833546
 40
1.863124513833546
 10
132.2735358999057
 20
1157.032980950194
 30
0.0
 10
132.3448982279953
 20
1156.982632909056
 30
0.0
 10
132.4721608406807
 20
1156.859003135535
 30
0.0
 10
132.5888059592028
 20
1156.624596123084
 30
0.0
 10
132.6362144282092
 20
1156.369090396289
 30
0.0
 10
132.6238661660508
 20
1156.109448716027
 30
0.0
 10
132.5563776356398
 20
1155.856953930103
 30
0.0
 10
132.4262014303711
 20
1155.626911868808
 30
0.0
 10
132.2936692768405
 20
1155.506474659428
 30
0.0
 10
132.2199990567319
 20
1155.458354328568
 30
0.0
  0
SPLINE
  5
D4
330
4D
100
AcDbEntity
  8
0
  6
Continuous
 62
     0
370
    30
100
AcDbSpline
210
0.0
220
0.0
230
1.0
 70
     8
 71
     3
 72
    10
 73
     6
 74
     0
 42
0.0
 43
0.0
 40
0.0
 40
0.0
 40
0.0
 40
0.0
 40
0.2234824778642054
 40
0.4474133988426866
 40
0.6716368634533153
 40
0.6716368634533153
 40
0.6716368634533153
 40
0.6716368634533153
 10
132.2199990567325
 20
1155.458354328568
 30
0.0
 10
132.1576924497737
 20
1155.418467427176
 30
0.0
 10
132.019805761885
 20
1155.356125260432
 30
0.0
 10
131.7968754427055
 20
1155.323895946982
 30
0.0
 10
131.6475441677834
 20
1155.318753087429
 30
0.0
 10
131.5728030134287
 20
1155.318761143342
 30
0.0
  0
LINE
  5
D5
330
4D
100
AcDbEntity
  8
0
  6
Continuous
 62
     0
370
    30
100
AcDbLine
 10
131.572803
 20
1155.318761
 30
0.0
 11
130.008453
 21
1155.318775
 31
0.0
  0
SPLINE
  5
D6
330
4D
100
AcDbEntity
  8
0
  6
Continuous
 62
     0
370
    30
100
AcDbSpline
210
0.0
220
0.0
230
1.0
 70
     8
 71
     3
 72
    25
 73
    21
 74
     0
 42
0.0
 43
0.0
 40
0.0
 40
0.0
 40
0.0
 40
0.0
 40
0.2754117203151685
 40
0.4117111493874493
 40
0.5484227172847359
 40
0.6882255408435669
 40
0.828517537529593
 40
1.101530130229451
 40
1.374996099329444
 40
1.654519371669836
 40
2.206611179020704
 40
2.483601928484152
 40
2.760074308334973
 40
3.036299766838883
 40
3.172821653322534
 40
3.311285244432745
 40
3.451140522921229
 40
3.589993566819087
 40
3.726555894954437
 40
3.865086221907652
 40
3.865086221907652
 40
3.865086221907652
 40
3.865086221907652
 10
130.7021791263379
 20
1158.818741222729
 30
0.0
 10
130.6106142492822
 20
1158.812583369211
 30
0.0
 10
130.4719867433073
 20
1158.770592995718
 30
0.0
 10
130.3367857222207
 20
1158.651707517851
 30
0.0
 10
130.2752090280706
 20
1158.534032236479
 30
0.0
 10
130.250547167865
 20
1158.404556169427
 30
0.0
 10
130.2621936956635
 20
1158.230749261202
 30
0.0
 10
130.3579522306895
 20
1158.022849368407
 30
0.0
 10
130.5907457433435
 20
1157.867396438345
 30
0.0
 10
130.9448849149697
 20
1157.763866423472
 30
0.0
 10
131.3182923028326
 20
1157.744717558264
 30
0.0
 10
131.6862486239972
 20
1157.773112691912
 30
0.0
 10
131.9550859927154
 20
1157.840907184311
 30
0.0
 10
132.1572607534449
 20
1157.95846731327
 30
0.0
 10
132.2653563916224
 20
1158.101555048356
 30
0.0
 10
132.3128702444261
 20
1158.225324755854
 30
0.0
 10
132.3295759641198
 20
1158.35606452981
 30
0.0
 10
132.3156959178034
 20
1158.486370385628
 30
0.0
 10
132.26635507728
 20
1158.608794812684
 30
0.0
 10
132.2060942401667
 20
1158.676105394216
 30
0.0
 10
132.170617593816
 20
1158.703665900428
 30
0.0
  0
ARC
  5
D7
330
4D
100
AcDbEntity
  8
0
  6
Continuous
 62
     0
370
    30
100
AcDbCircle
 10
131.834683
 20
1158.215394
 30
0.0
 40
0.5926729910151223
100
AcDbArc
 50
55.471778
 51
83.628693
  0
LINE
  5
D8
330
4D
100
AcDbEntity
  8
0
  6
Continuous
 62
     0
370
    30
100
AcDbLine
 10
131.900453
 20
1158.804406
 30
0.0
 11
131.900453
 21
1159.116946
 31
0.0
  0
SPLINE
  5
D9
330
4D
100
AcDbEntity
  8
0
  6
Continuous
 62
     0
370
    30
100
AcDbSpline
210
0.0
220
0.0
230
1.0
 70
     8
 71
     3
 72
    26
 73
    22
 74
     0
 42
0.0
 43
0.0
 40
0.0
 40
0.0
 40
0.0
 40
0.0
 40
0.4329957280319827
 40
0.6503560515467744
 40
0.8672615756275351
 40
1.305446770178559
 40
1.739098905056484
 40
1.954088279332187
 40
2.172970668810697
 40
2.61441144428683
 40
3.050370624337332
 40
3.486677011425206
 40
3.927680242198664
 40
4.146685552390935
 40
4.362090948400036
 40
4.79543586142618
 40
5.017398464029136
 40
5.237524152879461
 40
5.453487952873494
 40
5.670035285782042
 40
6.104322691876692
 40
6.104322691876692
 40
6.104322691876692
 40
6.104322691876692
 10
131.9004530364825
 20
1159.116946058569
 30
0.0
 10
132.0446718155033
 20
1159.1116919915
 30
0.0
 10
132.2632883961836
 20
1159.033403263543
 30
0.0
 10
132.4665967192221
 20
1158.839005744679
 30
0.0
 10
132.6025403860268
 20
1158.595524123338
 30
0.0
 10
132.6435042318655
 20
1158.246036850767
 30
0.0
 10
132.525786736139
 20
1157.907250221058
 30
0.0
 10
132.3292097386175
 20
1157.701282706717
 30
0.0
 10
132.0824665829139
 20
1157.549386207903
 30
0.0
 10
131.7278022871855
 20
1157.443224899609
 30
0.0
 10
131.2886573738784
 20
1157.418720940806
 30
0.0
 10
130.8504785898778
 20
1157.45531687608
 30
0.0
 10
130.4995552307136
 20
1157.572240975522
 30
0.0
 10
130.2576717838295
 20
1157.730813523603
 30
0.0
 10
130.0646437048036
 20
1157.938941020107
 30
0.0
 10
129.9693513733503
 20
1158.210807315522
 30
0.0
 10
129.9691077821665
 20
1158.485781936181
 30
0.0
 10
130.0176675540853
 20
1158.68775049519
 30
0.0
 10
130.121395124258
 20
1158.869653780512
 30
0.0
 10
130.3353653459593
 20
1159.054990700852
 30
0.0
 10
130.5574252978806
 20
1159.121080273808
 30
0.0
 10
130.702179120255
 20
1159.122511360325
 30
0.0
  0
LINE
  5
DA
330
4D
100
AcDbEntity
  8
0
  6
Continuous
 62
     0
370
    30
100
AcDbLine
 10
130.702179
 20
1159.122511
 30
0.0
 11
130.702179
 21
1158.818741
 31
0.0
  0
LINE
  5
DB
330
4D
100
AcDbEntity
  8
0
  6
Continuous
 62
     0
370
    30
100
AcDbLine
 10
131.900453
 20
1160.507322
 30
0.0
 11
131.900453
 21
1160.786188
 31
0.0
  0
SPLINE
  5
DC
330
4D
100
AcDbEntity
  8
0
  6
Continuous
 62
     0
370
    30
100
AcDbSpline
210
0.0
220
0.0
230
1.0
 70
     8
 71
     3
 72
    28
 73
    24
 74
     0
 42
0.0
 43
0.0
 40
0.0
 40
0.0
 40
0.0
 40
0.0
 40
0.420447163056052
 40
0.6302954727550846
 40
0.8408442242622233
 40
1.264356009512049
 40
1.683146518034478
 40
1.891353215850199
 40
2.103180002565582
 40
2.318745009213892
 40
2.532573572134464
 40
2.954756629199497
 40
3.377480775805025
 40
3.805430969074709
 40
4.017368875573592
 40
4.226305843304226
 40
4.645601066209493
 40
4.859869049938898
 40
5.073392086735822
 40
5.283190324930735
 40
5.492725046528274
 40
5.705976211204709
 40
5.918133441981339
 40
5.918133441981339
 40
5.918133441981339
 40
5.918133441981339
 10
131.9004530338566
 20
1160.786188273756
 30
0.0
 10
132.0404487459205
 20
1160.780387162279
 30
0.0
 10
132.2532562159081
 20
1160.717537150917
 30
0.0
 10
132.4613408646657
 20
1160.545124442731
 30
0.0
 10
132.6013160703303
 20
1160.322184884659
 30
0.0
 10
132.6446108179069
 20
1159.993421297095
 30
0.0
 10
132.5097609478096
 20
1159.681645212349
 30
0.0
 10
132.3076629914777
 20
1159.50007561626
 30
0.0
 10
132.122162744969
 20
1159.402807093818
 30
0.0
 10
131.9203580908275
 20
1159.336136264238
 30
0.0
 10
131.642720753799
 20
1159.278963289119
 30
0.0
 10
131.2883940809042
 20
1159.259666152381
 30
0.0
 10
130.86428331007
 20
1159.293652759721
 30
0.0
 10
130.521088552678
 20
1159.390862892405
 30
0.0
 10
130.2777842871158
 20
1159.5271009298
 30
0.0
 10
130.0788421846756
 20
1159.711286375154
 30
0.0
 10
129.9697023100533
 20
1159.961558521579
 30
0.0
 10
129.9675449535485
 20
1160.219048050682
 30
0.0
 10
130.0198284265341
 20
1160.406911578542
 30
0.0
 10
130.1274995190873
 20
1160.573368497745
 30
0.0
 10
130.2924364045494
 20
1160.696395360221
 30
0.0
 10
130.4895809802345
 20
1160.770567258505
 30
0.0
 10
130.6314761321984
 20
1160.789819675794
 30
0.0
 10
130.7021791207078
 20
1160.791145514336
 30
0.0
  0
LINE
  5
DD
330
4D
100
AcDbEntity
  8
0
  6
Continuous
 62
     0
370
    30
100
AcDbLine
 10
130.702179
 20
1160.791146
 30
0.0
 11
130.702179
 21
1160.520131
 31
0.0
  0
SPLINE
  5
DE
330
4D
100
AcDbEntity
  8
0
  6
Continuous
 62
     0
370
    30
100
AcDbSpline
210
0.0
220
0.0
230
1.0
 70
     8
 71
     3
 72
    23
 73
    19
 74
     0
 42
0.0
 43
0.0
 40
0.0
 40
0.0
 40
0.0
 40
0.0
 40
0.1344406348959635
 40
0.2698087024253294
 40
0.4020113593220688
 40
0.5351093167956869
 40
0.8039622975256736
 40
1.068634646139707
 40
1.334722668476819
 40
1.605909583314183
 40
1.873103289376393
 40
2.143350905299619
 40
2.412004249781777
 40
2.680682206166634
 40
2.949290704837158
 40
3.213805505265973
 40
3.481377106834313
 40
3.74489199651304
 40
3.74489199651304
 40
3.74489199651304
 40
3.74489199651304
 10
130.7021791262222
 20
1160.520131410522
 30
0.0
 10
130.6575225225021
 20
1160.516774487118
 30
0.0
 10
130.5684206015482
 20
1160.501856914329
 30
0.0
 10
130.4437805131114
 20
1160.454546649534
 30
0.0
 10
130.3397100001703
 20
1160.375155951386
 30
0.0
 10
130.2549517717623
 20
1160.230913706458
 30
0.0
 10
130.2420689898164
 20
1160.019323918685
 30
0.0
 10
130.3718821050815
 20
1159.793507517546
 30
0.0
 10
130.6056890298439
 20
1159.659909279983
 30
0.0
 10
130.8656271628128
 20
1159.595271191071
 30
0.0
 10
131.1337652302204
 20
1159.564372465434
 30
0.0
 10
131.4027464908269
 20
1159.561460482121
 30
0.0
 10
131.6720041086299
 20
1159.579996922595
 30
0.0
 10
131.9340851754412
 20
1159.636396806937
 30
0.0
 10
132.1789724401312
 20
1159.751684009721
 30
0.0
 10
132.3254678374671
 20
1159.969651861556
 30
0.0
 10
132.3381065883827
 20
1160.219640250206
 30
0.0
 10
132.2403478918404
 20
1160.369269916573
 30
0.0
 10
132.1706175934224
 20
1160.417255770291
 30
0.0
  0
ARC
  5
DF
330
4D
100
AcDbEntity
  8
0
  6
Continuous
 62
     0
370
    30
100
AcDbCircle
 10
131.840661
 20
1159.877739
 30
0.0
 40
0.6324157082772557
100
AcDbArc
 50
58.550906
 51
84.574797
  0
LINE
  5
E0
330
4D
100
AcDbEntity
  8
0
  6
Continuous
 62
     0
370
    30
100
AcDbLine
 10
132.575896
 20
1162.001294
 30
0.0
 11
132.575896
 21
1162.22471
 31
0.0
  0
LINE
  5
E1
330
4D
100
AcDbEntity
  8
0
  6
Continuous
 62
     0
370
    30
100
AcDbLine
 10
132.575896
 20
1162.22471
 30
0.0
 11
130.008816
 21
1162.22471
 31
0.0
  0
LINE
  5
E2
330
4D
100
AcDbEntity
  8
0
  6
Continuous
 62
     0
370
    30
100
AcDbLine
 10
130.008816
 20
1162.22471
 30
0.0
 11
130.008816
 21
1162.001294
 31
0.0
  0
LINE
  5
E3
330
4D
100
AcDbEntity
  8
0
  6
Continuous
 62
     0
370
    30
100
AcDbLine
 10
130.008816
 20
1162.001294
 30
0.0
 11
131.110971
 21
1162.00129
 31
0.0
  0
LINE
  5
E4
330
4D
100
AcDbEntity
  8
0
  6
Continuous
 62
     0
370
    30
100
AcDbLine
 10
131.110971
 20
1162.00129
 30
0.0
 11
131.110971
 21
1161.197918
 31
0.0
  0
LINE
  5
E5
330
4D
100
AcDbEntity
  8
0
  6
Continuous
 62
     0
370
    30
100
AcDbLine
 10
131.110971
 20
1161.197918
 30
0.0
 11
130.008816
 21
1161.19792
 31
0.0
  0
LINE
  5
E6
330
4D
100
AcDbEntity
  8
0
  6
Continuous
 62
     0
370
    30
100
AcDbLine
 10
130.008816
 20
1161.19792
 30
0.0
 11
130.008816
 21
1160.952877
 31
0.0
  0
LINE
  5
E7
330
4D
100
AcDbEntity
  8
0
  6
Continuous
 62
     0
370
    30
100
AcDbLine
 10
130.008816
 20
1160.952877
 30
0.0
 11
132.575896
 21
1160.952877
 31
0.0
  0
LINE
  5
E8
330
4D
100
AcDbEntity
  8
0
  6
Continuous
 62
     0
370
    30
100
AcDbLine
 10
132.575896
 20
1160.952877
 30
0.0
 11
132.575896
 21
1161.19792
 31
0.0
  0
LINE
  5
E9
330
4D
100
AcDbEntity
  8
0
  6
Continuous
 62
     0
370
    30
100
AcDbLine
 10
132.575896
 20
1161.19792
 30
0.0
 11
131.416689
 21
1161.197916
 31
0.0
  0
LINE
  5
EA
330
4D
100
AcDbEntity
  8
0
  6
Continuous
 62
     0
370
    30
100
AcDbLine
 10
131.416689
 20
1161.197916
 30
0.0
 11
131.416689
 21
1162.001288
 31
0.0
  0
LINE
  5
EB
330
4D
100
AcDbEntity
  8
0
  6
Continuous
 62
     0
370
    30
100
AcDbLine
 10
131.416689
 20
1162.001288
 30
0.0
 11
132.575896
 21
1162.001294
 31
0.0
  0
LINE
  5
EC
330
4D
100
AcDbEntity
  8
0
  6
Continuous
 62
     0
370
    30
100
AcDbLine
 10
130.008816
 20
1165.237611
 30
0.0
 11
130.321975
 21
1165.23761
 31
0.0
  0
LINE
  5
ED
330
4D
100
AcDbEntity
  8
0
  6
Continuous
 62
     0
370
    30
100
AcDbLine
 10
130.321975
 20
1165.23761
 30
0.0
 11
130.321975
 21
1164.859379
 31
0.0
  0
LINE
  5
EE
330
4D
100
AcDbEntity
  8
0
  6
Continuous
 62
     0
370
    30
100
AcDbLine
 10
130.321975
 20
1164.859379
 30
0.0
 11
132.575896
 21
1164.859388
 31
0.0
  0
LINE
  5
EF
330
4D
100
AcDbEntity
  8
0
  6
Continuous
 62
     0
370
    30
100
AcDbLine
 10
132.575896
 20
1164.859388
 30
0.0
 11
132.575896
 21
1164.698287
 31
0.0
  0
LINE
  5
F0
330
4D
100
AcDbEntity
  8
0
  6
Continuous
 62
     0
370
    30
100
AcDbLine
 10
132.575896
 20
1164.698287
 30
0.0
 11
130.321975
 21
1164.698264
 31
0.0
  0
LINE
  5
F1
330
4D
100
AcDbEntity
  8
0
  6
Continuous
 62
     0
370
    30
100
AcDbLine
 10
130.321975
 20
1164.698264
 30
0.0
 11
130.321975
 21
1164.106973
 31
0.0
  0
LINE
  5
F2
330
4D
100
AcDbEntity
  8
0
  6
Continuous
 62
     0
370
    30
100
AcDbLine
 10
130.321975
 20
1164.106973
 30
0.0
 11
132.575896
 21
1164.107018
 31
0.0
  0
LINE
  5
F3
330
4D
100
AcDbEntity
  8
0
  6
Continuous
 62
     0
370
    30
100
AcDbLine
 10
132.575896
 20
1164.107018
 30
0.0
 11
132.575896
 21
1163.928231
 31
0.0
  0
LINE
  5
F4
330
4D
100
AcDbEntity
  8
0
  6
Continuous
 62
     0
370
    30
100
AcDbLine
 10
132.575896
 20
1163.928231
 30
0.0
 11
130.321975
 21
1163.928137
 31
0.0
  0
LINE
  5
F5
330
4D
100
AcDbEntity
  8
0
  6
Continuous
 62
     0
370
    30
100
AcDbLine
 10
130.321975
 20
1163.928137
 30
0.0
 11
130.321975
 21
1162.62988
 31
0.0
  0
LINE
  5
F6
330
4D
100
AcDbEntity
  8
0
  6
Continuous
 62
     0
370
    30
100
AcDbLine
 10
130.321975
 20
1162.62988
 30
0.0
 11
131.110971
 21
1162.629872
 31
0.0
  0
LINE
  5
F7
330
4D
100
AcDbEntity
  8
0
  6
Continuous
 62
     0
370
    30
100
AcDbLine
 10
131.110971
 20
1162.629872
 30
0.0
 11
131.110971
 21
1163.317024
 31
0.0
  0
LINE
  5
F8
330
4D
100
AcDbEntity
  8
0
  6
Continuous
 62
     0
370
    30
100
AcDbLine
 10
131.110971
 20
1163.317024
 30
0.0
 11
131.416689
 21
1163.317037
 31
0.0
  0
LINE
  5
F9
330
4D
100
AcDbEntity
  8
0
  6
Continuous
 62
     0
370
    30
100
AcDbLine
 10
131.416689
 20
1163.317037
 30
0.0
 11
131.416689
 21
1162.629876
 31
0.0
  0
LINE
  5
FA
330
4D
100
AcDbEntity
  8
0
  6
Continuous
 62
     0
370
    30
100
AcDbLine
 10
131.416689
 20
1162.629876
 30
0.0
 11
132.262943
 21
1162.62988
 31
0.0
  0
LINE
  5
FB
330
4D
100
AcDbEntity
  8
0
  6
Continuous
 62
     0
370
    30
100
AcDbLine
 10
132.262943
 20
1162.62988
 30
0.0
 11
132.262943
 21
1163.366195
 31
0.0
  0
LINE
  5
FC
330
4D
100
AcDbEntity
  8
0
  6
Continuous
 62
     0
370
    30
100
AcDbLine
 10
132.262943
 20
1163.366195
 30
0.0
 11
132.575896
 21
1163.366312
 31
0.0
  0
LINE
  5
FD
330
4D
100
AcDbEntity
  8
0
  6
Continuous
 62
     0
370
    30
100
AcDbLine
 10
132.575896
 20
1163.366312
 30
0.0
 11
132.575896
 21
1162.415274
 31
0.0
  0
LINE
  5
FE
330
4D
100
AcDbEntity
  8
0
  6
Continuous
 62
     0
370
    30
100
AcDbLine
 10
132.575896
 20
1162.415274
 30
0.0
 11
130.008816
 21
1162.415274
 31
0.0
  0
LINE
  5
FF
330
4D
100
AcDbEntity
  8
0
  6
Continuous
 62
     0
370
    30
100
AcDbLine
 10
130.008816
 20
1162.415274
 30
0.0
 11
130.008816
 21
1165.237611
 31
0.0
  0
LINE
  5
100
330
4D
100
AcDbEntity
  8
0
  6
Continuous
 62
     0
370
    30
100
AcDbLine
 10
132.575896
 20
1165.350402
 30
0.0
 11
132.575896
 21
1165.497756
 31
0.0
  0
LINE
  5
101
330
4D
100
AcDbEntity
  8
0
  6
Continuous
 62
     0
370
    30
100
AcDbLine
 10
132.575896
 20
1165.497756
 30
0.0
 11
130.008816
 21
1165.497756
 31
0.0
  0
LINE
  5
102
330
4D
100
AcDbEntity
  8
0
  6
Continuous
 62
     0
370
    30
100
AcDbLine
 10
130.008816
 20
1165.497756
 30
0.0
 11
130.008816
 21
1165.350402
 31
0.0
  0
LINE
  5
103
330
4D
100
AcDbEntity
  8
0
  6
Continuous
 62
     0
370
    30
100
AcDbLine
 10
130.008816
 20
1165.350402
 30
0.0
 11
132.575896
 21
1165.350402
 31
0.0
  0
LINE
  5
104
330
4D
100
AcDbEntity
  8
0
  6
Continuous
 62
     0
370
    30
100
AcDbLine
 10
131.900381
 20
1165.834812
 30
0.0
 11
131.900381
 21
1165.695044
 31
0.0
  0
LINE
  5
105
330
4D
100
AcDbEntity
  8
0
  6
Continuous
 62
     0
370
    30
100
AcDbLine
 10
131.900381
 20
1165.695044
 30
0.0
 11
132.575896
 21
1165.695044
 31
0.0
  0
LINE
  5
106
330
4D
100
AcDbEntity
  8
0
  6
Continuous
 62
     0
370
    30
100
AcDbLine
 10
132.575896
 20
1165.695044
 30
0.0
 11
132.575896
 21
1165.834812
 31
0.0
  0
LINE
  5
107
330
4D
100
AcDbEntity
  8
0
  6
Continuous
 62
     0
370
    30
100
AcDbLine
 10
132.575896
 20
1165.834812
 30
0.0
 11
131.900381
 21
1165.834812
 31
0.0
  0
ENDBLK
  5
109
330
4D
100
AcDbEntity
  8
0
100
AcDbBlockEnd
  0
BLOCK
  5
197
330
10B
100
AcDbEntity
  8
0
100
AcDbBlockBegin
  2
b
 70
     0
 10
50.557629
 20
801.345215
 30
0.0
  3
b
  1

  0
LINE
  5
10C
330
10B
100
AcDbEntity
  8
0
  6
Continuous
 62
     0
370
    30
100
AcDbLine
 10
98.908819
 20
548.814131
 30
0.0
 11
115.908822
 21
548.814131
 31
0.0
  0
LINE
  5
10D
330
10B
100
AcDbEntity
  8
0
  6
Continuous
 62
     0
370
     0
100
AcDbLine
 10
115.90882
 20
571.31413
 30
0.0
 11
115.908822
 21
548.814131
 31
0.0
  0
LINE
  5
10E
330
10B
100
AcDbEntity
  8
0
  6
Continuous
 62
     0
370
     0
100
AcDbLine
 10
110.408819
 20
571.31413
 30
0.0
 11
115.90882
 21
571.31413
 31
0.0
  0
LINE
  5
10F
330
10B
100
AcDbEntity
  8
0
  6
Continuous
 62
     0
370
    30
100
AcDbLine
 10
115.908822
 20
593.814131
 30
0.0
 11
87.908819
 21
593.81413
 31
0.0
  0
LINE
  5
110
330
10B
100
AcDbEntity
  8
0
  6
Continuous
 62
     0
370
     0
100
AcDbLine
 10
115.908822
 20
593.814131
 30
0.0
 11
115.90882
 21
571.31413
 31
0.0
  0
LINE
  5
111
330
10B
100
AcDbEntity
  8
0
  6
Continuous
 62
     0
370
     0
100
AcDbLine
 10
115.90882
 20
571.31413
 30
0.0
 11
118.216753
 21
571.31413
 31
0.0
  0
SPLINE
  5
112
330
10B
100
AcDbEntity
  8
0
  6
Continuous
 62
     0
370
     0
100
AcDbSpline
210
0.0
220
0.0
230
1.0
 70
     8
 71
     3
 72
    17
 73
    13
 74
     0
 42
0.0
 43
0.0
 40
0.0000008786908991
 40
0.0000008786908991
 40
0.0000008786908991
 40
0.0000008786908991
 40
1.722041878365568
 40
4.592242313609074
 40
9.497910929737008
 40
14.56034194697127
 40
19.62281862147591
 40
24.68543702431104
 40
27.84976335440597
 40
29.74847879832352
 40
33.12406851476702
 40
35.3434206042598
 40
35.3434206042598
 40
35.3434206042598
 40
35.3434206042598
 10
118.0526046210986
 20
593.8141311190195
 30
0.0
 10
118.0510857341146
 20
593.814131071502
 30
0.0
 10
118.047877768218
 20
593.7555117222471
 30
0.0
 10
118.0435122774342
 20
593.3120145516957
 30
0.0
 10
118.0462890619706
 20
591.9861628051185
 30
0.0
 10
118.0601276386269
 20
589.4171321257217
 30
0.0
 10
118.0851896965698
 20
585.9087601651526
 30
0.0
 10
118.1157539499054
 20
582.1950111336957
 30
0.0
 10
118.1430278363109
 20
579.0829826705096
 30
0.0
 10
118.1676678420516
 20
576.385895807309
 30
0.0
 10
118.1913789059436
 20
573.9190124750621
 30
0.0
 10
118.2094007110888
 20
572.0535824883809
 30
0.0
 10
118.2167533057277
 20
571.314130128065
 30
0.0
  0
LINE
  5
113
330
10B
100
AcDbEntity
  8
0
  6
Continuous
 62
     0
370
    30
100
AcDbLine
 10
118.052605
 20
593.814131
 30
0.0
 11
115.908822
 21
593.814131
 31
0.0
  0
LINE
  5
114
330
10B
100
AcDbEntity
  8
0
  6
Continuous
 62
     0
370
    30
100
AcDbLine
 10
118.500116
 20
548.814131
 30
0.0
 11
115.908822
 21
548.814131
 31
0.0
  0
SPLINE
  5
115
330
10B
100
AcDbEntity
  8
0
  6
Continuous
 62
     0
370
     0
100
AcDbSpline
210
0.0
220
0.0
230
1.0
 70
     8
 71
     3
 72
    17
 73
    13
 74
     0
 42
0.0
 43
0.0
 40
0.0
 40
0.0
 40
0.0
 40
0.0
 40
1.706339016653732
 40
4.550383530542367
 40
9.442487500490753
 40
14.50535991567011
 40
19.56799959870319
 40
24.63039839870083
 40
27.79445294476594
 40
29.69293249906594
 40
33.06807680507281
 40
35.34401262602155
 40
35.34401262602155
 40
35.34401262602155
 40
35.34401262602155
 10
118.2167533057277
 20
571.3141301280675
 30
0.0
 10
118.2224072333336
 20
570.7455131539964
 30
0.0
 10
118.237922260033
 20
569.2285547499522
 30
0.0
 10
118.2696317001433
 20
566.1054760030759
 30
0.0
 10
118.3142133313088
 20
562.0197497321278
 30
0.0
 10
118.3639158943061
 20
557.678942190473
 30
0.0
 10
118.4099668066634
 20
553.9761591252645
 30
0.0
 10
118.4445907668827
 20
551.5012426489303
 30
0.0
 10
118.4659472755106
 20
550.1657283177656
 30
0.0
 10
118.481139046547
 20
549.3517029363437
 30
0.0
 10
118.4924841858683
 20
548.9094625046855
 30
0.0
 10
118.4981075373736
 20
548.8141311146716
 30
0.0
 10
118.5001158704645
 20
548.8141311041212
 30
0.0
  0
ARC
  5
116
330
10B
100
AcDbEntity
  8
0
  6
Continuous
 62
     0
370
    30
100
AcDbCircle
 10
87.908525
 20
571.313835
 30
0.0
 40
22.50029451226934
100
AcDbArc
 50
0.00075
 51
89.99925
  0
ARC
  5
117
330
10B
100
AcDbEntity
  8
0
  6
Continuous
 62
     0
370
    30
100
AcDbCircle
 10
87.908149
 20
571.314605
 30
0.0
 40
22.50066973561767
100
AcDbArc
 50
299.268577
 51
359.998791
  0
LINE
  5
118
330
10B
100
AcDbEntity
  8
0
  6
Continuous
 62
     0
370
    30
100
AcDbLine
 10
125.908819
 20
571.302404
 30
0.0
 11
125.908819
 21
593.402405
 31
0.0
  0
LINE
  5
119
330
10B
100
AcDbEntity
  8
0
  6
Continuous
 62
     0
370
    30
100
AcDbLine
 10
125.908819
 20
549.202405
 30
0.0
 11
125.908819
 21
571.302404
 31
0.0
  0
ARC
  5
11A
330
10B
100
AcDbEntity
  8
0
  6
Continuous
 62
     0
370
    30
100
AcDbCircle
 10
87.908819
 20
571.31413
 30
0.0
 40
22.50000000745057
100
AcDbArc
 50
90.0
 51
240.732422
  0
ARC
  5
11B
330
10B
100
AcDbEntity
  8
0
  6
Continuous
 62
     0
370
    30
100
AcDbCircle
 10
87.908819
 20
571.31413
 30
0.0
 40
22.12614672386328
100
AcDbArc
 50
180.0
 51
240.188417
  0
ARC
  5
11C
330
10B
100
AcDbEntity
  8
0
  6
Continuous
 62
     0
370
    30
100
AcDbCircle
 10
87.908819
 20
571.31413
 30
0.0
 40
22.12614672386328
100
AcDbArc
 50
299.811583
 51
0.0
  0
ARC
  5
11D
330
10B
100
AcDbEntity
  8
0
  6
Continuous
 62
     0
370
    30
100
AcDbCircle
 10
87.908819
 20
571.31413
 30
0.0
 40
22.12614672386328
100
AcDbArc
 50
0.0
 51
180.0
  0
LINE
  5
11E
330
10B
100
AcDbEntity
  8
0
  6
Continuous
 62
     0
370
    30
100
AcDbLine
 10
118.052613
 20
593.814131
 30
0.0
 11
125.908819
 21
593.402405
 31
0.0
  0
LINE
  5
11F
330
10B
100
AcDbEntity
  8
0
  6
Continuous
 62
     0
370
    30
100
AcDbLine
 10
118.500125
 20
548.814131
 30
0.0
 11
125.908819
 21
549.202405
 31
0.0
  0
ARC
  5
120
330
10B
100
AcDbEntity
  8
0
  6
Continuous
 62
     0
370
    30
100
AcDbCircle
 10
143.00882
 20
571.314113
 30
0.0
 40
6.5
100
AcDbArc
 50
97.531999
 51
277.531999
  0
ARC
  5
121
330
10B
100
AcDbEntity
  8
0
  6
Continuous
 62
     0
370
    30
100
AcDbCircle
 10
143.00882
 20
571.314113
 30
0.0
 40
6.5
100
AcDbArc
 50
277.531999
 51
97.531999
  0
LINE
  5
122
330
10B
100
AcDbEntity
  8
0
  6
Continuous
 62
     0
370
     0
100
AcDbLine
 10
149.50882
 20
571.314123
 30
0.0
 11
154.492124
 21
571.314123
 31
0.0
  0
SPLINE
  5
123
330
10B
100
AcDbEntity
  8
0
  6
Continuous
 62
     0
370
     0
100
AcDbSpline
210
0.0
220
0.0
230
1.0
 70
     8
 71
     3
 72
    21
 73
    17
 74
     0
 42
0.0
 43
0.0
 40
0.0
 40
0.0
 40
0.0
 40
0.0
 40
3.004295903646847
 40
6.017293057819065
 40
8.458208939344342
 40
9.93455495835826
 40
12.21528003184906
 40
14.06340335768629
 40
16.08163160756787
 40
18.25474785008328
 40
19.90381535291387
 40
21.84159665188864
 40
24.58282184243805
 40
27.2451884162121
 40
30.59472225158421
 40
33.05208433184013
 40
33.05208433184013
 40
33.05208433184013
 40
33.05208433184013
 10
131.5255110974381
 20
571.3141239650015
 30
0.0
 10
131.5255110974381
 20
572.2138874684678
 30
0.0
 10
131.8509067592379
 20
574.0151757852278
 30
0.0
 10
133.1587008861259
 20
576.3045232677044
 30
0.0
 10
134.7577831286702
 20
577.8740839781731
 30
0.0
 10
136.470542638955
 20
579.0366783187401
 30
0.0
 10
138.2354993498662
 20
579.8573467767252
 30
0.0
 10
140.3657905041351
 20
580.4392206985028
 30
0.0
 10
142.5717919624949
 20
580.6913128445929
 30
0.0
 10
144.7276305641097
 20
580.582911704968
 30
0.0
 10
146.7768950097334
 20
580.1669139163401
 30
0.0
 10
148.8847456575026
 20
579.4116223016609
 30
0.0
 10
151.0238761290406
 20
578.1285118028849
 30
0.0
 10
153.0235299429691
 20
576.1286662209512
 30
0.0
 10
154.2364984218006
 20
573.7892575591438
 30
0.0
 10
154.4921242480208
 20
572.0500849973126
 30
0.0
 10
154.4921242480208
 20
571.3141239650015
 30
0.0
  0
LINE
  5
124
330
10B
100
AcDbEntity
  8
0
  6
Continuous
 62
     0
370
     0
100
AcDbLine
 10
131.525511
 20
571.314123
 30
0.0
 11
136.508818
 21
571.314123
 31
0.0
  0
SPLINE
  5
125
330
10B
100
AcDbEntity
  8
0
  6
Continuous
 62
     0
370
     0
100
AcDbSpline
210
0.0
220
0.0
230
1.0
 70
     8
 71
     3
 72
    21
 73
    17
 74
     0
 42
0.0
 43
0.0
 40
0.0
 40
0.0
 40
0.0
 40
0.0
 40
3.004295903647487
 40
6.01729305781994
 40
8.458208939345289
 40
9.934554958359266
 40
12.21528003185013
 40
14.06340335768736
 40
16.08163160756893
 40
18.25474785008434
 40
19.90381535291495
 40
21.8415966518898
 40
24.58282184243938
 40
27.24518841621357
 40
30.59472225158563
 40
33.05208433184011
 40
33.05208433184011
 40
33.05208433184011
 40
33.05208433184011
 10
154.4921242480208
 20
571.3141239650015
 30
0.0
 10
154.4921242480208
 20
570.414360461535
 30
0.0
 10
154.1667285862209
 20
568.613072183276
 30
0.0
 10
152.8589344593326
 20
566.3237248448877
 30
0.0
 10
151.259852216788
 20
564.7541642861424
 30
0.0
 10
149.547092706503
 20
563.5915700817225
 30
0.0
 10
147.7821359955917
 20
562.7709017355373
 30
0.0
 10
145.6518448413227
 20
562.1890279012247
 30
0.0
 10
143.4458433829629
 20
561.9369357952428
 30
0.0
 10
141.2900047813481
 20
562.045336917401
 30
0.0
 10
139.2407403357244
 20
562.461334641863
 30
0.0
 10
137.1328896879552
 20
563.2166261476018
 30
0.0
 10
134.9937592164172
 20
564.4997364850162
 30
0.0
 10
132.9941054024891
 20
566.4995818752162
 30
0.0
 10
131.7811369236582
 20
568.8389904008768
 30
0.0
 10
131.5255110974381
 20
570.5781629326907
 30
0.0
 10
131.5255110974381
 20
571.3141239650015
 30
0.0
  0
ARC
  5
126
330
10B
100
AcDbEntity
  8
0
  6
Continuous
 62
     0
370
    30
100
AcDbCircle
 10
127.201542
 20
590.394854
 30
0.0
 40
2.919273344350485
100
AcDbArc
 50
90.00106
 51
93.78531
  0
ARC
  5
127
330
10B
100
AcDbEntity
  8
0
  6
Continuous
 62
     0
370
    30
100
AcDbCircle
 10
127.20154
 20
552.233401
 30
0.0
 40
2.919273682631333
100
AcDbArc
 50
266.214743
 51
269.99866
  0
LINE
  5
128
330
10B
100
AcDbEntity
  8
0
  6
Continuous
 62
     0
370
    30
100
AcDbLine
 10
127.008818
 20
593.307759
 30
0.0
 11
127.008818
 21
571.314124
 31
0.0
  0
LINE
  5
129
330
10B
100
AcDbEntity
  8
0
  6
Continuous
 62
     0
370
    30
100
AcDbLine
 10
127.008818
 20
571.314124
 30
0.0
 11
127.008818
 21
549.320496
 31
0.0
  0
LINE
  5
12A
330
10B
100
AcDbEntity
  8
0
  6
Continuous
 62
     0
370
     0
100
AcDbLine
 10
157.508818
 20
593.314128
 30
0.0
 11
157.508818
 21
571.314124
 31
0.0
  0
LINE
  5
12B
330
10B
100
AcDbEntity
  8
0
  6
Continuous
 62
     0
370
     0
100
AcDbLine
 10
157.508818
 20
571.314124
 30
0.0
 11
157.508818
 21
549.314128
 31
0.0
  0
LINE
  5
12C
330
10B
100
AcDbEntity
  8
0
  6
Continuous
 62
     0
370
    30
100
AcDbLine
 10
158.008818
 20
571.314124
 30
0.0
 11
158.008818
 21
549.814128
 31
0.0
  0
LINE
  5
12D
330
10B
100
AcDbEntity
  8
0
  6
Continuous
 62
     0
370
    30
100
AcDbLine
 10
158.008818
 20
592.814128
 30
0.0
 11
158.008818
 21
571.314124
 31
0.0
  0
ARC
  5
12E
330
10B
100
AcDbEntity
  8
0
  6
Continuous
 62
     0
370
    30
100
AcDbCircle
 10
157.508781
 20
592.814091
 30
0.0
 40
0.5000369491425254
100
AcDbArc
 50
0.008983
 51
89.995767
  0
ARC
  5
12F
330
10B
100
AcDbEntity
  8
0
  6
Continuous
 62
     0
370
    30
100
AcDbCircle
 10
157.508781
 20
549.814165
 30
0.0
 40
0.5000369491412113
100
AcDbArc
 50
270.004233
 51
359.991017
  0
LINE
  5
130
330
10B
100
AcDbEntity
  8
0
  6
Continuous
 62
     0
370
    30
100
AcDbLine
 10
127.201471
 20
549.314128
 30
0.0
 11
157.508818
 21
549.314128
 31
0.0
  0
LINE
  5
131
330
10B
100
AcDbEntity
  8
0
  6
Continuous
 62
     0
370
    30
100
AcDbLine
 10
127.201474
 20
593.314128
 30
0.0
 11
157.508818
 21
593.314128
 31
0.0
  0
ARC
  5
132
330
10B
100
AcDbEntity
  8
0
  6
Continuous
 62
     0
370
     0
100
AcDbCircle
 10
87.908819
 20
571.314134
 30
0.0
 40
27.0
100
AcDbArc
 50
95.312775
 51
245.957924
  0
ARC
  5
133
330
10B
100
AcDbEntity
  8
0
  6
Continuous
 62
     0
370
     0
100
AcDbCircle
 10
87.908819
 20
571.314134
 30
0.0
 40
27.0
100
AcDbArc
 50
79.07411
 51
84.687225
  0
ARC
  5
134
330
10B
100
AcDbEntity
  8
0
  6
Continuous
 62
     0
370
     0
100
AcDbCircle
 10
87.908819
 20
571.314134
 30
0.0
 40
27.0
100
AcDbArc
 50
56.44269
 51
79.07411
  0
ARC
  5
135
330
10B
100
AcDbEntity
  8
0
  6
Continuous
 62
     0
370
     0
100
AcDbCircle
 10
87.908819
 20
571.314134
 30
0.0
 40
27.0
100
AcDbArc
 50
294.042076
 51
303.55731
  0
ARC
  5
136
330
10B
100
AcDbEntity
  8
0
  6
Continuous
 62
     0
370
    30
100
AcDbCircle
 10
87.908819
 20
571.314134
 30
0.0
 40
30.0
100
AcDbArc
 50
48.590378
 51
79.07411
  0
ARC
  5
137
330
10B
100
AcDbEntity
  8
0
  6
Continuous
 62
     0
370
    30
100
AcDbCircle
 10
87.908819
 20
571.314134
 30
0.0
 40
30.0
100
AcDbArc
 50
291.510188
 51
311.409622
  0
ARC
  5
138
330
10B
100
AcDbEntity
  8
0
  6
Continuous
 62
     0
370
    30
100
AcDbCircle
 10
87.908819
 20
571.314134
 30
0.0
 40
30.0
100
AcDbArc
 50
94.780192
 51
248.489812
  0
ARC
  5
139
330
10B
100
AcDbEntity
  8
0
  6
Continuous
 62
     0
370
    30
100
AcDbCircle
 10
87.908819
 20
571.314134
 30
0.0
 40
30.0
100
AcDbArc
 50
79.07411
 51
85.219808
  0
ARC
  5
13A
330
10B
100
AcDbEntity
  8
0
  6
Continuous
 62
     0
370
     0
100
AcDbCircle
 10
87.908819
 20
571.314134
 30
0.0
 40
29.5
100
AcDbArc
 50
94.861405
 51
248.106572
  0
ARC
  5
13B
330
10B
100
AcDbEntity
  8
0
  6
Continuous
 62
     0
370
     0
100
AcDbCircle
 10
87.908819
 20
571.314134
 30
0.0
 40
29.5
100
AcDbArc
 50
79.07411
 51
85.138595
  0
ARC
  5
13C
330
10B
100
AcDbEntity
  8
0
  6
Continuous
 62
     0
370
     0
100
AcDbCircle
 10
87.908819
 20
571.314134
 30
0.0
 40
29.5
100
AcDbArc
 50
49.703857
 51
79.07411
  0
ARC
  5
13D
330
10B
100
AcDbEntity
  8
0
  6
Continuous
 62
     0
370
     0
100
AcDbCircle
 10
87.908819
 20
571.314134
 30
0.0
 40
29.5
100
AcDbArc
 50
291.893428
 51
310.296143
  0
LINE
  5
13E
330
10B
100
AcDbEntity
  8
0
  6
Continuous
 62
     0
370
    30
100
AcDbLine
 10
85.408819
 20
593.674813
 30
0.0
 11
85.408819
 21
598.24704
 31
0.0
  0
ELLIPSE
  5
13F
330
10B
100
AcDbEntity
  8
0
  6
Continuous
 62
     0
370
     0
100
AcDbEllipse
 10
87.908819
 20
598.24704
 30
0.0
 11
2.5
 21
0.0
 31
0.0
210
0.0
220
0.0
230
-1.0
 40
0.906308
 41
0.0
 42
3.14159265358979
  0
LINE
  5
140
330
10B
100
AcDbEntity
  8
0
  6
Continuous
 62
     0
370
    30
100
AcDbLine
 10
85.408819
 20
598.24704
 30
0.0
 11
85.408819
 21
603.231732
 31
0.0
  0
LINE
  5
141
330
10B
100
AcDbEntity
  8
0
  6
Continuous
 62
     0
370
     0
100
AcDbLine
 10
90.408819
 20
603.231732
 30
0.0
 11
85.408819
 21
603.231732
 31
0.0
  0
LINE
  5
142
330
10B
100
AcDbEntity
  8
0
  6
Continuous
 62
     0
370
    30
100
AcDbLine
 10
88.908819
 20
614.726983
 30
0.0
 11
86.908819
 21
614.726983
 31
0.0
  0
LINE
  5
143
330
10B
100
AcDbEntity
  8
0
  6
Continuous
 62
     0
370
    30
100
AcDbLine
 10
85.408819
 20
603.231732
 30
0.0
 11
85.408819
 21
613.226983
 31
0.0
  0
LINE
  5
144
330
10B
100
AcDbEntity
  8
0
  6
Continuous
 62
     0
370
     0
100
AcDbLine
 10
90.408819
 20
613.226983
 30
0.0
 11
85.408819
 21
613.226983
 31
0.0
  0
ARC
  5
145
330
10B
100
AcDbEntity
  8
0
  6
Continuous
 62
     0
370
    30
100
AcDbCircle
 10
86.908819
 20
613.226983
 30
0.0
 40
1.5
100
AcDbArc
 50
90.0
 51
180.0
  0
ARC
  5
146
330
10B
100
AcDbEntity
  8
0
  6
Continuous
 62
     0
370
    30
100
AcDbCircle
 10
88.909676
 20
613.227839
 30
0.0
 40
1.499143644201526
100
AcDbArc
 50
359.967262
 51
90.032738
  0
LINE
  5
147
330
10B
100
AcDbEntity
  8
0
  6
Continuous
 62
     0
370
    30
100
AcDbLine
 10
90.408819
 20
613.226983
 30
0.0
 11
90.408819
 21
603.231732
 31
0.0
  0
LINE
  5
148
330
10B
100
AcDbEntity
  8
0
  6
Continuous
 62
     0
370
    30
100
AcDbLine
 10
90.408819
 20
603.231732
 30
0.0
 11
90.408819
 21
598.24704
 31
0.0
  0
LINE
  5
149
330
10B
100
AcDbEntity
  8
0
  6
Continuous
 62
     0
370
    30
100
AcDbLine
 10
90.408819
 20
598.24704
 30
0.0
 11
90.408819
 21
593.814133
 31
0.0
  0
ARC
  5
14A
330
10B
100
AcDbEntity
  8
0
  6
Continuous
 62
     0
370
    30
100
AcDbCircle
 10
87.908819
 20
571.314125
 30
0.0
 40
11.0
100
AcDbArc
 50
0.0
 51
180.0
  0
LINE
  5
14B
330
10B
100
AcDbEntity
  8
0
  6
Continuous
 62
     0
370
    30
100
AcDbLine
 10
76.908819
 20
571.314125
 30
0.0
 11
76.908819
 21
391.314125
 31
0.0
  0
ARC
  5
14C
330
10B
100
AcDbEntity
  8
0
  6
Continuous
 62
     0
370
    30
100
AcDbCircle
 10
87.908819
 20
391.314125
 30
0.0
 40
11.0
100
AcDbArc
 50
180.0
 51
360.0
  0
LINE
  5
14D
330
10B
100
AcDbEntity
  8
0
  6
Continuous
 62
     0
370
    30
100
AcDbLine
 10
98.908819
 20
391.314128
 30
0.0
 11
98.908819
 21
571.314125
 31
0.0
  0
ARC
  5
14E
330
10B
100
AcDbEntity
  8
0
  6
Continuous
 62
     0
370
    30
100
AcDbCircle
 10
87.908819
 20
571.314129
 30
0.0
 40
11.25
100
AcDbArc
 50
347.898508
 51
104.359285
  0
ARC
  5
14F
330
10B
100
AcDbEntity
  8
0
  6
Continuous
 62
     0
370
    30
100
AcDbCircle
 10
87.908819
 20
571.314129
 30
0.0
 40
11.25
100
AcDbArc
 50
104.359285
 51
192.101492
  0
ARC
  5
150
330
10B
100
AcDbEntity
  8
0
  6
Continuous
 62
     0
370
     0
100
AcDbCircle
 10
87.908819
 20
571.314129
 30
0.0
 40
21.5
100
AcDbArc
 50
300.772325
 51
104.359285
  0
ARC
  5
151
330
10B
100
AcDbEntity
  8
0
  6
Continuous
 62
     0
370
     0
100
AcDbCircle
 10
87.908819
 20
571.314129
 30
0.0
 40
21.5
100
AcDbArc
 50
104.359285
 51
239.227675
  0
ARC
  5
152
330
10B
100
AcDbEntity
  8
0
  6
Continuous
 62
     0
370
    30
100
AcDbCircle
 10
87.908819
 20
571.314129
 30
0.0
 40
22.0
100
AcDbArc
 50
300.0
 51
104.359285
  0
ARC
  5
153
330
10B
100
AcDbEntity
  8
0
  6
Continuous
 62
     0
370
    30
100
AcDbCircle
 10
87.908819
 20
571.314129
 30
0.0
 40
22.0
100
AcDbArc
 50
104.359285
 51
240.0
  0
ARC
  5
154
330
10B
100
AcDbEntity
  8
0
  6
Continuous
 62
     0
370
    30
100
AcDbCircle
 10
124.538415
 20
571.253008
 30
0.0
 40
20.42760338744059
100
AcDbArc
 50
84.746492
 51
86.153372
  0
LINE
  5
155
330
10B
100
AcDbEntity
  8
0
  6
Continuous
 62
     0
370
    30
100
AcDbLine
 10
126.408819
 20
591.624494
 30
0.0
 11
126.408819
 21
591.416651
 31
0.0
  0
ARC
  5
156
330
10B
100
AcDbEntity
  8
0
  6
Continuous
 62
     0
370
    30
100
AcDbCircle
 10
124.538425
 20
571.074977
 30
0.0
 40
20.42748326543045
100
AcDbArc
 50
84.746488
 51
86.153376
  0
LINE
  5
157
330
10B
100
AcDbEntity
  8
0
  6
Continuous
 62
     0
370
    30
100
AcDbLine
 10
126.408819
 20
591.624494
 30
0.0
 11
127.008818
 21
591.560553
 31
0.0
  0
ARC
  5
158
330
10B
100
AcDbEntity
  8
0
  6
Continuous
 62
     0
370
    30
100
AcDbCircle
 10
124.547234
 20
571.277873
 30
0.0
 40
20.35932260074868
100
AcDbArc
 50
273.834672
 51
276.944447
  0
LINE
  5
159
330
10B
100
AcDbEntity
  8
0
  6
Continuous
 62
     0
370
    30
100
AcDbLine
 10
132.220364
 20
549.45379
 30
0.0
 11
132.576105
 21
549.453807
 31
0.0
  0
LINE
  5
15A
330
10B
100
AcDbEntity
  8
0
  6
Continuous
 62
     0
370
    30
100
AcDbLine
 10
132.576105
 20
549.453807
 30
0.0
 11
132.576105
 21
549.74554
 31
0.0
  0
LINE
  5
15B
330
10B
100
AcDbEntity
  8
0
  6
Continuous
 62
     0
370
    30
100
AcDbLine
 10
132.576105
 20
549.74554
 30
0.0
 11
132.262945
 21
549.745541
 31
0.0
  0
LINE
  5
15C
330
10B
100
AcDbEntity
  8
0
  6
Continuous
 62
     0
370
    30
100
AcDbLine
 10
132.262945
 20
549.745541
 30
0.0
 11
132.262945
 21
549.502812
 31
0.0
  0
LINE
  5
15D
330
10B
100
AcDbEntity
  8
0
  6
Continuous
 62
     0
370
    30
100
AcDbLine
 10
130.360838
 20
549.740798
 30
0.0
 11
130.008818
 21
549.74081
 31
0.0
  0
LINE
  5
15E
330
10B
100
AcDbEntity
  8
0
  6
Continuous
 62
     0
370
    30
100
AcDbLine
 10
130.008818
 20
549.74081
 30
0.0
 11
130.008818
 21
549.458173
 31
0.0
  0
LINE
  5
15F
330
10B
100
AcDbEntity
  8
0
  6
Continuous
 62
     0
370
    30
100
AcDbLine
 10
130.008818
 20
549.458173
 30
0.0
 11
130.32177
 21
549.458177
 31
0.0
  0
LINE
  5
160
330
10B
100
AcDbEntity
  8
0
  6
Continuous
 62
     0
370
    30
100
AcDbLine
 10
130.008455
 20
549.864545
 30
0.0
 11
131.59761
 21
549.864573
 31
0.0
  0
SPLINE
  5
161
330
10B
100
AcDbEntity
  8
0
  6
Continuous
 62
     0
370
    30
100
AcDbSpline
210
0.0
220
0.0
230
1.0
 70
     8
 71
     3
 72
    10
 73
     6
 74
     0
 42
0.0
 43
0.0
 40
0.0
 40
0.0
 40
0.0
 40
0.0
 40
0.1607383031801948
 40
0.3212678064986665
 40
0.4814978669279018
 40
0.4814978669279018
 40
0.4814978669279018
 40
0.4814978669279018
 10
131.5976096221607
 20
549.8645734204525
 30
0.0
 10
131.6511890550348
 20
549.864583033953
 30
0.0
 10
131.7582545127503
 20
549.8655330733594
 30
0.0
 10
131.9178092168759
 20
549.8713096401414
 30
0.0
 10
132.0156578402383
 20
549.8820167188703
 30
0.0
 10
132.0598039645459
 20
549.8888357904201
 30
0.0
  0
SPLINE
  5
162
330
10B
100
AcDbEntity
  8
0
  6
Continuous
 62
     0
370
    30
100
AcDbSpline
210
0.0
220
0.0
230
1.0
 70
     8
 71
     3
 72
    14
 73
    10
 74
     0
 42
0.0
 43
0.0
 40
0.0
 40
0.0
 40
0.0
 40
0.0
 40
0.2483063195049807
 40
0.4973415118280721
 40
0.7469539897613074
 40
0.9957853863575405
 40
1.243643039570703
 40
1.492316197299798
 40
1.742344279104773
 40
1.742344279104773
 40
1.742344279104773
 40
1.742344279104773
 10
132.0598039645505
 20
549.8888357904257
 30
0.0
 10
132.1271223239876
 20
549.899752991951
 30
0.0
 10
132.2433335366056
 20
549.9290923055032
 30
0.0
 10
132.3151731492302
 20
549.9877327818433
 30
0.0
 10
132.3168853401634
 20
550.0506863469268
 30
0.0
 10
132.2537617794831
 20
550.1155631608908
 30
0.0
 10
132.0757755208027
 20
550.1675146969083
 30
0.0
 10
131.8336364012762
 20
550.1903595473707
 30
0.0
 10
131.6668960864443
 20
550.19252025546
 30
0.0
 10
131.5835536234373
 20
550.1924487980921
 30
0.0
  0
LINE
  5
163
330
10B
100
AcDbEntity
  8
0
  6
Continuous
 62
     0
370
    30
100
AcDbLine
 10
131.583554
 20
550.192449
 30
0.0
 11
130.008455
 21
550.192418
 31
0.0
  0
LINE
  5
164
330
10B
100
AcDbEntity
  8
0
  6
Continuous
 62
     0
370
    30
100
AcDbLine
 10
130.008455
 20
550.283176
 30
0.0
 11
131.590582
 21
550.283225
 31
0.0
  0
SPLINE
  5
165
330
10B
100
AcDbEntity
  8
0
  6
Continuous
 62
     0
370
    30
100
AcDbSpline
210
0.0
220
0.0
230
1.0
 70
     8
 71
     3
 72
    10
 73
     6
 74
     0
 42
0.0
 43
0.0
 40
0.0
 40
0.0
 40
0.0
 40
0.0
 40
0.2406503714594196
 40
0.4809889051886758
 40
0.721158888053054
 40
0.721158888053054
 40
0.721158888053054
 40
0.721158888053054
 10
131.5905816318798
 20
550.2832251981955
 30
0.0
 10
131.6707984222781
 20
550.2832214368002
 30
0.0
 10
131.8316326936449
 20
550.2809711650478
 30
0.0
 10
132.0667386687917
 20
550.2636085746133
 30
0.0
 10
132.2091841821817
 20
550.2410848133771
 30
0.0
 10
132.2735378072544
 20
550.2275087034495
 30
0.0
  0
SPLINE
  5
166
330
10B
100
AcDbEntity
  8
0
  6
Continuous
 62
     0
370
    30
100
AcDbSpline
210
0.0
220
0.0
230
1.0
 70
     8
 71
     3
 72
    14
 73
    10
 74
     0
 42
0.0
 43
0.0
 40
0.0
 40
0.0
 40
0.0
 40
0.0
 40
0.2658311356644136
 40
0.5318324899200813
 40
0.7981789482599619
 40
1.064703722663622
 40
1.331140912478696
 40
1.59725580011786
 40
1.863124513833546
 40
1.863124513833546
 40
1.863124513833546
 40
1.863124513833546
 10
132.2735378072544
 20
550.2275087034495
 30
0.0
 10
132.3449001353439
 20
550.2125323218792
 30
0.0
 10
132.4721627480294
 20
550.1761191592032
 30
0.0
 10
132.5888078665514
 20
550.1098132675379
 30
0.0
 10
132.6362163355578
 20
550.040708583173
 30
0.0
 10
132.6238680733995
 20
549.9739706410605
 30
0.0
 10
132.5563795429885
 20
549.9122992484624
 30
0.0
 10
132.4262033377198
 20
549.8589359474481
 30
0.0
 10
132.2936711841891
 20
549.832284318036
 30
0.0
 10
132.2200009640806
 20
549.8217414722392
 30
0.0
  0
SPLINE
  5
167
330
10B
100
AcDbEntity
  8
0
  6
Continuous
 62
     0
370
    30
100
AcDbSpline
210
0.0
220
0.0
230
1.0
 70
     8
 71
     3
 72
    10
 73
     6
 74
     0
 42
0.0
 43
0.0
 40
0.0
 40
0.0
 40
0.0
 40
0.0
 40
0.2234824778642054
 40
0.4474133988426866
 40
0.6716368634533153
 40
0.6716368634533153
 40
0.6716368634533153
 40
0.6716368634533153
 10
132.2200009640812
 20
549.8217414722392
 30
0.0
 10
132.1576943571224
 20
549.8130063955798
 30
0.0
 10
132.0198076692336
 20
549.7995628518394
 30
0.0
 10
131.7968773500541
 20
549.7928622552358
 30
0.0
 10
131.647546075132
 20
549.791774792639
 30
0.0
 10
131.5728049207773
 20
549.791771304131
 30
0.0
  0
LINE
  5
168
330
10B
100
AcDbEntity
  8
0
  6
Continuous
 62
     0
370
    30
100
AcDbLine
 10
131.572805
 20
549.791771
 30
0.0
 11
130.008455
 21
549.79171
 31
0.0
  0
SPLINE
  5
169
330
10B
100
AcDbEntity
  8
0
  6
Continuous
 62
     0
370
    30
100
AcDbSpline
210
0.0
220
0.0
230
1.0
 70
     8
 71
     3
 72
    25
 73
    21
 74
     0
 42
0.0
 43
0.0
 40
0.0
 40
0.0
 40
0.0
 40
0.0
 40
0.2754117203151685
 40
0.4117111493874493
 40
0.5484227172847359
 40
0.6882255408435669
 40
0.828517537529593
 40
1.101530130229451
 40
1.374996099329444
 40
1.654519371669836
 40
2.206611179020704
 40
2.483601928484152
 40
2.760074308334973
 40
3.036299766838883
 40
3.172821653322534
 40
3.311285244432745
 40
3.451140522921229
 40
3.589993566819087
 40
3.726555894954437
 40
3.865086221907652
 40
3.865086221907652
 40
3.865086221907652
 40
3.865086221907652
 10
130.7021810336865
 20
550.8433782614798
 30
0.0
 10
130.6106161566308
 20
550.8409469188317
 30
0.0
 10
130.4719886506559
 20
550.8244382461792
 30
0.0
 10
130.3367876295694
 20
550.7783109501074
 30
0.0
 10
130.2752109354192
 20
550.7333843753278
 30
0.0
 10
130.2505490752136
 20
550.6849249638627
 30
0.0
 10
130.2621956030121
 20
550.6211882686432
 30
0.0
 10
130.3579541380382
 20
550.5474039181788
 30
0.0
 10
130.5907476506922
 20
550.4938138558953
 30
0.0
 10
130.9448868223184
 20
550.4588844607379
 30
0.0
 10
131.3182942101813
 20
550.4524626922343
 30
0.0
 10
131.6862505313458
 20
550.4620339978137
 30
0.0
 10
131.955087900064
 20
550.4847975964077
 30
0.0
 10
132.1572626607935
 20
550.5251174049449
 30
0.0
 10
132.2653582989711
 20
550.5753139730436
 30
0.0
 10
132.3128721517747
 20
550.619462620939
 30
0.0
 10
132.3295778714684
 20
550.6670284453193
 30
0.0
 10
132.3156978251521
 20
550.7154315500668
 30
0.0
 10
132.2663569846287
 20
550.7618215364637
 30
0.0
 10
132.2060961475154
 20
550.7877921398757
 30
0.0
 10
132.1706195011647
 20
550.7984748663459
 30
0.0
  0
ARC
  5
16A
330
10B
100
AcDbEntity
  8
0
  6
Continuous
 62
     0
370
    30
100
AcDbCircle
 10
131.852019
 20
549.555754
 30
0.0
 40
1.282911366441333
100
AcDbArc
 50
75.620592
 51
87.836302
  0
SPLINE
  5
16B
330
10B
100
AcDbEntity
  8
0
  6
Continuous
 62
     0
370
    30
100
AcDbSpline
210
0.0
220
0.0
230
1.0
 70
     8
 71
     3
 72
    26
 73
    22
 74
     0
 42
0.0
 43
0.0
 40
0.0
 40
0.0
 40
0.0
 40
0.0
 40
0.4329957280319827
 40
0.6503560515467744
 40
0.8672615756275351
 40
1.305446770178559
 40
1.739098905056484
 40
1.954088279332187
 40
2.172970668810697
 40
2.61441144428683
 40
3.050370624337332
 40
3.486677011425206
 40
3.927680242198664
 40
4.146685552390935
 40
4.362090948400036
 40
4.79543586142618
 40
5.017398464029136
 40
5.237524152879461
 40
5.453487952873494
 40
5.670035285782042
 40
6.104322691876692
 40
6.104322691876692
 40
6.104322691876692
 40
6.104322691876692
 10
131.9004549438311
 20
550.9633242690525
 30
0.0
 10
132.0446737228519
 20
550.9610795840333
 30
0.0
 10
132.2632903035322
 20
550.9288626863234
 30
0.0
 10
132.4665986265707
 20
550.8511160213535
 30
0.0
 10
132.6025422933754
 20
550.756090310387
 30
0.0
 10
132.6435061392141
 20
550.6254016420219
 30
0.0
 10
132.5257886434876
 20
550.5069665470946
 30
0.0
 10
132.3292116459661
 20
550.4378382398726
 30
0.0
 10
132.0824684902625
 20
550.3878197062419
 30
0.0
 10
131.7278041945341
 20
550.3538496988205
 30
0.0
 10
131.288659281227
 20
550.3461783297079
 30
0.0
 10
130.8504804972264
 20
550.3576648602459
 30
0.0
 10
130.4995571380622
 20
550.3952533255693
 30
0.0
 10
130.2576736911781
 20
550.4476607818226
 30
0.0
 10
130.0646456121523
 20
550.5178917375545
 30
0.0
 10
129.969353280699
 20
550.6134181678002
 30
0.0
 10
129.9691096895152
 20
550.715030384933
 30
0.0
 10
130.0176694614339
 20
550.7919358593783
 30
0.0
 10
130.1213970316066
 20
550.8632508981578
 30
0.0
 10
130.3353672533079
 20
550.9376906137678
 30
0.0
 10
130.5574272052292
 20
550.964931237823
 30
0.0
 10
130.7021810276036
 20
550.9656059547233
 30
0.0
  0
SPLINE
  5
16C
330
10B
100
AcDbEntity
  8
0
  6
Continuous
 62
     0
370
    30
100
AcDbSpline
210
0.0
220
0.0
230
1.0
 70
     8
 71
     3
 72
    28
 73
    24
 74
     0
 42
0.0
 43
0.0
 40
0.0
 40
0.0
 40
0.0
 40
0.0
 40
0.420447163056052
 40
0.6302954727550846
 40
0.8408442242622233
 40
1.264356009512049
 40
1.683146518034478
 40
1.891353215850199
 40
2.103180002565582
 40
2.318745009213892
 40
2.532573572134464
 40
2.954756629199497
 40
3.377480775805025
 40
3.805430969074709
 40
4.017368875573592
 40
4.226305843304226
 40
4.645601066209493
 40
4.859869049938898
 40
5.073392086735822
 40
5.283190324930735
 40
5.492725046528274
 40
5.705976211204709
 40
5.918133441981339
 40
5.918133441981339
 40
5.918133441981339
 40
5.918133441981339
 10
131.9004549412053
 20
551.7317804997651
 30
0.0
 10
132.0404506532691
 20
551.7287300664209
 30
0.0
 10
132.2532581232567
 20
551.6964864652587
 30
0.0
 10
132.4613427720143
 20
551.609960909859
 30
0.0
 10
132.6013179776789
 20
551.5002663500044
 30
0.0
 10
132.6446127252555
 20
551.3440837731058
 30
0.0
 10
132.5097628551583
 20
551.2039244802476
 30
0.0
 10
132.3076648988263
 20
551.1247819773586
 30
0.0
 10
132.1221646523177
 20
551.0829553661297
 30
0.0
 10
131.9203599981761
 20
551.0546127900716
 30
0.0
 10
131.6427226611476
 20
551.0305809393695
 30
0.0
 10
131.2883959882529
 20
551.0225232118164
 30
0.0
 10
130.8642852174186
 20
551.0367054301198
 30
0.0
 10
130.5210904600266
 20
551.0777395768562
 30
0.0
 10
130.2777861944644
 20
551.1364830443493
 30
0.0
 10
130.0788440920243
 20
551.2171044752935
 30
0.0
 10
129.9697042174019
 20
551.3300941503163
 30
0.0
 10
129.9675468608972
 20
551.451228721375
 30
0.0
 10
130.0198303338827
 20
551.5418145116357
 30
0.0
 10
130.1275014264359
 20
551.6240223449353
 30
0.0
 10
130.2924383118981
 20
551.6859690775095
 30
0.0
 10
130.4895828875831
 20
551.723708169982
 30
0.0
 10
130.631478039547
 20
551.7335990396624
 30
0.0
 10
130.7021810280564
 20
551.734318351217
 30
0.0
  0
SPLINE
  5
16D
330
10B
100
AcDbEntity
  8
0
  6
Continuous
 62
     0
370
    30
100
AcDbSpline
210
0.0
220
0.0
230
1.0
 70
     8
 71
     3
 72
    23
 73
    19
 74
     0
 42
0.0
 43
0.0
 40
0.0
 40
0.0
 40
0.0
 40
0.0
 40
0.1344406348959635
 40
0.2698087024253294
 40
0.4020113593220688
 40
0.5351093167956869
 40
0.8039622975256736
 40
1.068634646139707
 40
1.334722668476819
 40
1.605909583314183
 40
1.873103289376393
 40
2.143350905299619
 40
2.412004249781777
 40
2.680682206166634
 40
2.949290704837158
 40
3.213805505265973
 40
3.481377106834313
 40
3.74489199651304
 40
3.74489199651304
 40
3.74489199651304
 40
3.74489199651304
 10
130.7021810335708
 20
551.5978012811851
 30
0.0
 10
130.6575244298507
 20
551.5961361621763
 30
0.0
 10
130.5684225088968
 20
551.5887721611788
 30
0.0
 10
130.4437824204601
 20
551.5654869604277
 30
0.0
 10
130.339711907519
 20
551.5266143321435
 30
0.0
 10
130.2549536791109
 20
551.4568624706357
 30
0.0
 10
130.242070897165
 20
551.3570507047679
 30
0.0
 10
130.3718840124301
 20
551.25427269311
 30
0.0
 10
130.6056909371925
 20
551.1947418300141
 30
0.0
 10
130.8656290701614
 20
551.1663865514992
 30
0.0
 10
131.1337671375691
 20
551.1528698929022
 30
0.0
 10
131.4027483981756
 20
551.1515836347519
 30
0.0
 10
131.6720060159785
 20
551.1597092056757
 30
0.0
 10
131.9340870827899
 20
551.1843754267733
 30
0.0
 10
132.1789743474798
 20
551.2355072293908
 30
0.0
 10
132.3254697448157
 20
551.3341744428017
 30
0.0
 10
132.3381084957313
 20
551.4511520895016
 30
0.0
 10
132.240349799189
 20
551.5237701254742
 30
0.0
 10
132.170619500771
 20
551.547235196741
 30
0.0
  0
ARC
  5
16E
330
10B
100
AcDbEntity
  8
0
  6
Continuous
 62
     0
370
    30
100
AcDbCircle
 10
131.852766
 20
550.453202
 30
0.0
 40
1.139271460751786
100
AcDbArc
 50
73.799661
 51
87.600968
  0
LINE
  5
16F
330
10B
100
AcDbEntity
  8
0
  6
Continuous
 62
     0
370
    30
100
AcDbLine
 10
132.575898
 20
552.403127
 30
0.0
 11
132.575898
 21
552.537742
 31
0.0
  0
LINE
  5
170
330
10B
100
AcDbEntity
  8
0
  6
Continuous
 62
     0
370
    30
100
AcDbLine
 10
132.575898
 20
552.537742
 30
0.0
 11
130.008818
 21
552.537742
 31
0.0
  0
LINE
  5
171
330
10B
100
AcDbEntity
  8
0
  6
Continuous
 62
     0
370
    30
100
AcDbLine
 10
130.008818
 20
552.537742
 30
0.0
 11
130.008818
 21
552.403127
 31
0.0
  0
LINE
  5
172
330
10B
100
AcDbEntity
  8
0
  6
Continuous
 62
     0
370
    30
100
AcDbLine
 10
130.008818
 20
552.403127
 30
0.0
 11
131.110973
 21
552.403133
 31
0.0
  0
LINE
  5
173
330
10B
100
AcDbEntity
  8
0
  6
Continuous
 62
     0
370
    30
100
AcDbLine
 10
131.110973
 20
552.403133
 30
0.0
 11
131.110973
 21
551.948109
 31
0.0
  0
LINE
  5
174
330
10B
100
AcDbEntity
  8
0
  6
Continuous
 62
     0
370
    30
100
AcDbLine
 10
131.110973
 20
551.948109
 30
0.0
 11
130.008818
 21
551.948104
 31
0.0
  0
LINE
  5
175
330
10B
100
AcDbEntity
  8
0
  6
Continuous
 62
     0
370
    30
100
AcDbLine
 10
130.008818
 20
551.948104
 30
0.0
 11
130.008818
 21
551.818017
 31
0.0
  0
LINE
  5
176
330
10B
100
AcDbEntity
  8
0
  6
Continuous
 62
     0
370
    30
100
AcDbLine
 10
130.008818
 20
551.818017
 30
0.0
 11
132.575898
 21
551.818017
 31
0.0
  0
LINE
  5
177
330
10B
100
AcDbEntity
  8
0
  6
Continuous
 62
     0
370
    30
100
AcDbLine
 10
132.575898
 20
551.818017
 30
0.0
 11
132.575898
 21
551.948104
 31
0.0
  0
LINE
  5
178
330
10B
100
AcDbEntity
  8
0
  6
Continuous
 62
     0
370
    30
100
AcDbLine
 10
132.575898
 20
551.948104
 30
0.0
 11
131.416691
 21
551.948112
 31
0.0
  0
LINE
  5
179
330
10B
100
AcDbEntity
  8
0
  6
Continuous
 62
     0
370
    30
100
AcDbLine
 10
131.416691
 20
551.948112
 30
0.0
 11
131.416691
 21
552.403136
 31
0.0
  0
LINE
  5
17A
330
10B
100
AcDbEntity
  8
0
  6
Continuous
 62
     0
370
    30
100
AcDbLine
 10
131.416691
 20
552.403136
 30
0.0
 11
132.575898
 21
552.403127
 31
0.0
  0
LINE
  5
17B
330
10B
100
AcDbEntity
  8
0
  6
Continuous
 62
     0
370
    30
100
AcDbLine
 10
130.008818
 20
554.749437
 30
0.0
 11
130.321977
 21
554.749438
 31
0.0
  0
LINE
  5
17C
330
10B
100
AcDbEntity
  8
0
  6
Continuous
 62
     0
370
    30
100
AcDbLine
 10
130.321977
 20
554.749438
 30
0.0
 11
130.321977
 21
554.426292
 31
0.0
  0
LINE
  5
17D
330
10B
100
AcDbEntity
  8
0
  6
Continuous
 62
     0
370
    30
100
AcDbLine
 10
130.321977
 20
554.426292
 30
0.0
 11
132.575898
 21
554.42628
 31
0.0
  0
LINE
  5
17E
330
10B
100
AcDbEntity
  8
0
  6
Continuous
 62
     0
370
    30
100
AcDbLine
 10
132.575898
 20
554.42628
 30
0.0
 11
132.575898
 21
554.293031
 31
0.0
  0
LINE
  5
17F
330
10B
100
AcDbEntity
  8
0
  6
Continuous
 62
     0
370
    30
100
AcDbLine
 10
132.575898
 20
554.293031
 30
0.0
 11
130.321977
 21
554.293059
 31
0.0
  0
LINE
  5
180
330
10B
100
AcDbEntity
  8
0
  6
Continuous
 62
     0
370
    30
100
AcDbLine
 10
130.321977
 20
554.293059
 30
0.0
 11
130.321977
 21
553.825581
 31
0.0
  0
LINE
  5
181
330
10B
100
AcDbEntity
  8
0
  6
Continuous
 62
     0
370
    30
100
AcDbLine
 10
130.321977
 20
553.825581
 30
0.0
 11
132.575898
 21
553.825522
 31
0.0
  0
LINE
  5
182
330
10B
100
AcDbEntity
  8
0
  6
Continuous
 62
     0
370
    30
100
AcDbLine
 10
132.575898
 20
553.825522
 30
0.0
 11
132.575898
 21
553.690402
 31
0.0
  0
LINE
  5
183
330
10B
100
AcDbEntity
  8
0
  6
Continuous
 62
     0
370
    30
100
AcDbLine
 10
132.575898
 20
553.690402
 30
0.0
 11
130.321977
 21
553.690527
 31
0.0
  0
LINE
  5
184
330
10B
100
AcDbEntity
  8
0
  6
Continuous
 62
     0
370
    30
100
AcDbLine
 10
130.321977
 20
553.690527
 30
0.0
 11
130.321977
 21
552.791224
 31
0.0
  0
LINE
  5
185
330
10B
100
AcDbEntity
  8
0
  6
Continuous
 62
     0
370
    30
100
AcDbLine
 10
130.321977
 20
552.791224
 30
0.0
 11
131.110973
 21
552.791237
 31
0.0
  0
LINE
  5
186
330
10B
100
AcDbEntity
  8
0
  6
Continuous
 62
     0
370
    30
100
AcDbLine
 10
131.110973
 20
552.791237
 30
0.0
 11
131.110973
 21
553.250095
 31
0.0
  0
LINE
  5
187
330
10B
100
AcDbEntity
  8
0
  6
Continuous
 62
     0
370
    30
100
AcDbLine
 10
131.110973
 20
553.250095
 30
0.0
 11
131.416691
 21
553.250077
 31
0.0
  0
LINE
  5
188
330
10B
100
AcDbEntity
  8
0
  6
Continuous
 62
     0
370
    30
100
AcDbLine
 10
131.416691
 20
553.250077
 30
0.0
 11
131.416691
 21
552.791231
 31
0.0
  0
LINE
  5
189
330
10B
100
AcDbEntity
  8
0
  6
Continuous
 62
     0
370
    30
100
AcDbLine
 10
131.416691
 20
552.791231
 30
0.0
 11
132.262945
 21
552.791224
 31
0.0
  0
LINE
  5
18A
330
10B
100
AcDbEntity
  8
0
  6
Continuous
 62
     0
370
    30
100
AcDbLine
 10
132.262945
 20
552.791224
 30
0.0
 11
132.262945
 21
553.284058
 31
0.0
  0
LINE
  5
18B
330
10B
100
AcDbEntity
  8
0
  6
Continuous
 62
     0
370
    30
100
AcDbLine
 10
132.262945
 20
553.284058
 30
0.0
 11
132.575898
 21
553.283889
 31
0.0
  0
LINE
  5
18C
330
10B
100
AcDbEntity
  8
0
  6
Continuous
 62
     0
370
    30
100
AcDbLine
 10
132.575898
 20
553.283889
 30
0.0
 11
132.575898
 21
552.655437
 31
0.0
  0
LINE
  5
18D
330
10B
100
AcDbEntity
  8
0
  6
Continuous
 62
     0
370
    30
100
AcDbLine
 10
132.575898
 20
552.655437
 30
0.0
 11
130.008818
 21
552.655437
 31
0.0
  0
LINE
  5
18E
330
10B
100
AcDbEntity
  8
0
  6
Continuous
 62
     0
370
    30
100
AcDbLine
 10
130.008818
 20
552.655437
 30
0.0
 11
130.008818
 21
554.749437
 31
0.0
  0
LINE
  5
18F
330
10B
100
AcDbEntity
  8
0
  6
Continuous
 62
     0
370
    30
100
AcDbLine
 10
132.575898
 20
554.8487
 30
0.0
 11
132.575898
 21
554.980464
 31
0.0
  0
LINE
  5
190
330
10B
100
AcDbEntity
  8
0
  6
Continuous
 62
     0
370
    30
100
AcDbLine
 10
132.575898
 20
554.980464
 30
0.0
 11
130.008818
 21
554.980464
 31
0.0
  0
LINE
  5
191
330
10B
100
AcDbEntity
  8
0
  6
Continuous
 62
     0
370
    30
100
AcDbLine
 10
130.008818
 20
554.980464
 30
0.0
 11
130.008818
 21
554.8487
 31
0.0
  0
LINE
  5
192
330
10B
100
AcDbEntity
  8
0
  6
Continuous
 62
     0
370
    30
100
AcDbLine
 10
130.008818
 20
554.8487
 30
0.0
 11
132.575898
 21
554.8487
 31
0.0
  0
LINE
  5
193
330
10B
100
AcDbEntity
  8
0
  6
Continuous
 62
     0
370
    30
100
AcDbLine
 10
131.900383
 20
555.291024
 30
0.0
 11
131.900383
 21
555.160665
 31
0.0
  0
LINE
  5
194
330
10B
100
AcDbEntity
  8
0
  6
Continuous
 62
     0
370
    30
100
AcDbLine
 10
131.900383
 20
555.160665
 30
0.0
 11
132.575898
 21
555.160665
 31
0.0
  0
LINE
  5
195
330
10B
100
AcDbEntity
  8
0
  6
Continuous
 62
     0
370
    30
100
AcDbLine
 10
132.575898
 20
555.160665
 30
0.0
 11
132.575898
 21
555.291024
 31
0.0
  0
LINE
  5
196
330
10B
100
AcDbEntity
  8
0
  6
Continuous
 62
     0
370
    30
100
AcDbLine
 10
132.575898
 20
555.291024
 30
0.0
 11
131.900383
 21
555.291024
 31
0.0
  0
ENDBLK
  5
198
330
10B
100
AcDbEntity
  8
0
100
AcDbBlockEnd
  0
BLOCK
  5
202
330
19A
100
AcDbEntity
  8
0
100
AcDbBlockBegin
  2
c
 70
     0
 10
353.461685
 20
229.885071
 30
0.0
  3
c
  1

  0
LINE
  5
19B
330
19A
100
AcDbEntity
  8
0
  6
Continuous
 62
     0
370
    30
100
AcDbLine
 10
433.374336
 20
1095.770055
 30
0.0
 11
433.374336
 21
1095.03517
 31
0.0
  0
LINE
  5
19C
330
19A
100
AcDbEntity
  8
0
  6
Continuous
 62
     0
370
    30
100
AcDbLine
 10
433.374336
 20
1122.759784
 30
0.0
 11
433.374336
 21
1108.784163
 31
0.0
  0
LINE
  5
19D
330
19A
100
AcDbEntity
  8
0
  6
Continuous
 62
     0
370
    30
100
AcDbLine
 10
478.374336
 20
1095.03517
 30
0.0
 11
478.374336
 21
1122.759784
 31
0.0
  0
LINE
  5
19E
330
19A
100
AcDbEntity
  8
0
  6
Continuous
 62
     0
370
    30
100
AcDbLine
 10
433.374336
 20
1179.187765
 30
0.0
 11
433.374336
 21
1178.759778
 31
0.0
  0
LINE
  5
19F
330
19A
100
AcDbEntity
  8
0
  6
Continuous
 62
     0
370
    30
100
AcDbLine
 10
478.374336
 20
1178.759778
 30
0.0
 11
478.374336
 21
1179.187765
 31
0.0
  0
LINE
  5
1A0
330
19A
100
AcDbEntity
  8
0
  6
Continuous
 62
     0
370
    30
100
AcDbLine
 10
455.874337
 20
1183.759786
 30
0.0
 11
434.074336
 21
1183.759786
 31
0.0
  0
LINE
  5
1A1
330
19A
100
AcDbEntity
  8
0
  6
Continuous
 62
     0
370
    30
100
AcDbLine
 10
477.674336
 20
1183.759786
 30
0.0
 11
455.874337
 21
1183.759786
 31
0.0
  0
LINE
  5
1A2
330
19A
100
AcDbEntity
  8
0
  6
Continuous
 62
     0
370
    30
100
AcDbLine
 10
433.374336
 20
1179.187765
 30
0.0
 11
478.374336
 21
1179.187765
 31
0.0
  0
LINE
  5
1A3
330
19A
100
AcDbEntity
  8
0
  6
Continuous
 62
     0
370
    30
100
AcDbLine
 10
478.000483
 20
1183.460928
 30
0.0
 11
455.874337
 21
1183.460928
 31
0.0
  0
LINE
  5
1A4
330
19A
100
AcDbEntity
  8
0
  6
Continuous
 62
     0
370
    30
100
AcDbLine
 10
455.874337
 20
1183.460928
 30
0.0
 11
433.74819
 21
1183.460928
 31
0.0
  0
LINE
  5
1A5
330
19A
100
AcDbEntity
  8
0
  6
Continuous
 62
     0
370
    30
100
AcDbLine
 10
433.774336
 20
1079.759786
 30
0.0
 11
455.874337
 21
1079.759786
 31
0.0
  0
LINE
  5
1A6
330
19A
100
AcDbEntity
  8
0
  6
Continuous
 62
     0
370
    30
100
AcDbLine
 10
455.874337
 20
1079.759786
 30
0.0
 11
477.974336
 21
1079.759786
 31
0.0
  0
LINE
  5
1A7
330
19A
100
AcDbEntity
  8
0
  6
Continuous
 62
     0
370
     0
100
AcDbLine
 10
455.874337
 20
1095.03517
 30
0.0
 11
433.374336
 21
1095.03517
 31
0.0
  0
LINE
  5
1A8
330
19A
100
AcDbEntity
  8
0
  6
Continuous
 62
     0
370
     0
100
AcDbLine
 10
478.374336
 20
1095.03517
 30
0.0
 11
455.874337
 21
1095.03517
 31
0.0
  0
SPLINE
  5
1A9
330
19A
100
AcDbEntity
  8
0
  6
Continuous
 62
     0
370
    30
100
AcDbSpline
210
0.0
220
0.0
230
1.0
 70
     8
 71
     3
 72
    29
 73
    25
 74
     0
 42
0.0
 43
0.0
 40
0.0
 40
0.0
 40
0.0
 40
0.0
 40
0.199810724005838
 40
0.4764780516774129
 40
0.74516467328743
 40
1.027751454945685
 40
1.419282748282137
 40
2.044298924046971
 40
2.441654921423724
 40
3.31769515701527
 40
4.147206465495073
 40
5.157764355515978
 40
7.289376443979248
 40
9.460851135399167
 40
10.52898710525869
 40
11.44815735488098
 40
12.08287298185412
 40
12.70505857056334
 40
12.9704510547345
 40
13.65005252153617
 40
14.10640190056527
 40
14.65589055812277
 40
14.94476018079234
 40
15.15602575123644
 40
15.15602575123644
 40
15.15602575123644
 40
15.15602575123644
 10
433.3743362352243
 20
1108.784163462864
 30
0.0
 10
433.3743362381318
 20
1108.784163462864
 30
0.0
 10
433.3750495904944
 20
1108.768839441225
 30
0.0
 10
433.3786434641906
 20
1108.691266944468
 30
0.0
 10
433.384950932339
 20
1108.553125356031
 30
0.0
 10
433.393843141169
 20
1108.354369432147
 30
0.0
 10
433.4077679492684
 20
1108.033641851529
 30
0.0
 10
433.4239633550805
 20
1107.639505485584
 30
0.0
 10
433.4454403220122
 20
1107.079462633959
 30
0.0
 10
433.4681259857462
 20
1106.428877555184
 30
0.0
 10
433.4938663280939
 20
1105.561902088084
 30
0.0
 10
433.5246520031868
 20
1104.267577820004
 30
0.0
 10
433.5476763126791
 20
1102.502033308912
 30
0.0
 10
433.5409645127937
 20
1100.707613585354
 30
0.0
 10
433.5166388536093
 20
1099.335553398202
 30
0.0
 10
433.4939611501173
 20
1098.485956934165
 30
0.0
 10
433.4707382393425
 20
1097.799828978248
 30
0.0
 10
433.4523571687764
 20
1097.336756462167
 30
0.0
 10
433.4324401175662
 20
1096.880670881739
 30
0.0
 10
433.4139845736403
 20
1096.496816390484
 30
0.0
 10
433.3932533402972
 20
1096.103060036861
 30
0.0
 10
433.3805163116348
 20
1095.876883935886
 30
0.0
 10
433.3751242344536
 20
1095.783603588309
 30
0.0
 10
433.3743362382997
 20
1095.770054755526
 30
0.0
 10
433.3743362352244
 20
1095.770054755526
 30
0.0
  0
LINE
  5
1AA
330
19A
100
AcDbEntity
  8
0
  6
Continuous
 62
     0
370
    30
100
AcDbLine
 10
433.374336
 20
1178.759778
 30
0.0
 11
433.374336
 21
1122.759784
 31
0.0
  0
LINE
  5
1AB
330
19A
100
AcDbEntity
  8
0
  6
Continuous
 62
     0
370
    30
100
AcDbLine
 10
478.374336
 20
1178.759778
 30
0.0
 11
478.374336
 21
1122.759784
 31
0.0
  0
LINE
  5
1AC
330
19A
100
AcDbEntity
  8
0
  6
Continuous
 62
     0
370
    30
100
AcDbLine
 10
433.374336
 20
1095.03517
 30
0.0
 11
433.774336
 21
1079.759786
 31
0.0
  0
LINE
  5
1AD
330
19A
100
AcDbEntity
  8
0
  6
Continuous
 62
     0
370
    30
100
AcDbLine
 10
478.374336
 20
1095.03517
 30
0.0
 11
477.974336
 21
1079.759786
 31
0.0
  0
LINE
  5
1AE
330
19A
100
AcDbEntity
  8
0
  6
Continuous
 62
     0
370
    30
100
AcDbLine
 10
433.74819
 20
1183.460928
 30
0.0
 11
434.074313
 21
1183.759765
 31
0.0
  0
LINE
  5
1AF
330
19A
100
AcDbEntity
  8
0
  6
Continuous
 62
     0
370
    30
100
AcDbLine
 10
478.000483
 20
1183.460928
 30
0.0
 11
477.674359
 21
1183.759765
 31
0.0
  0
LINE
  5
1B0
330
19A
100
AcDbEntity
  8
0
  6
Continuous
 62
     0
370
    30
100
AcDbLine
 10
433.374336
 20
1179.187765
 30
0.0
 11
433.74819
 21
1183.460928
 31
0.0
  0
LINE
  5
1B1
330
19A
100
AcDbEntity
  8
0
  6
Continuous
 62
     0
370
    30
100
AcDbLine
 10
478.374336
 20
1179.187765
 30
0.0
 11
478.000483
 21
1183.460928
 31
0.0
  0
LINE
  5
1B2
330
19A
100
AcDbEntity
  8
0
  6
Continuous
 62
     0
370
    30
100
AcDbLine
 10
484.839595
 20
1068.759796
 30
0.0
 11
485.374336
 21
1068.759796
 31
0.0
  0
LINE
  5
1B3
330
19A
100
AcDbEntity
  8
0
  6
Continuous
 62
     0
370
    30
100
AcDbLine
 10
426.374336
 20
1068.759796
 30
0.0
 11
484.839595
 21
1068.759796
 31
0.0
  0
LINE
  5
1B4
330
19A
100
AcDbEntity
  8
0
  6
Continuous
 62
     0
370
     0
100
AcDbLine
 10
425.874336
 20
1069.259796
 30
0.0
 11
485.330531
 21
1069.259796
 31
0.0
  0
LINE
  5
1B5
330
19A
100
AcDbEntity
  8
0
  6
Continuous
 62
     0
370
     0
100
AcDbLine
 10
485.330531
 20
1069.259796
 30
0.0
 11
485.874336
 21
1069.259796
 31
0.0
  0
LINE
  5
1B6
330
19A
100
AcDbEntity
  8
0
  6
Continuous
 62
     0
370
     0
100
AcDbLine
 10
485.330531
 20
1074.259796
 30
0.0
 11
485.874336
 21
1074.259796
 31
0.0
  0
LINE
  5
1B7
330
19A
100
AcDbEntity
  8
0
  6
Continuous
 62
     0
370
     0
100
AcDbLine
 10
425.874336
 20
1074.259796
 30
0.0
 11
485.330531
 21
1074.259796
 31
0.0
  0
LINE
  5
1B8
330
19A
100
AcDbEntity
  8
0
  6
Continuous
 62
     0
370
    30
100
AcDbLine
 10
426.374336
 20
1074.759796
 30
0.0
 11
484.839595
 21
1074.759796
 31
0.0
  0
LINE
  5
1B9
330
19A
100
AcDbEntity
  8
0
  6
Continuous
 62
     0
370
    30
100
AcDbLine
 10
484.839595
 20
1074.759796
 30
0.0
 11
485.374336
 21
1074.759796
 31
0.0
  0
ARC
  5
1BA
330
19A
100
AcDbEntity
  8
0
  6
Continuous
 62
     0
370
    30
100
AcDbCircle
 10
485.374297
 20
1069.259834
 30
0.0
 40
0.5000377434844239
100
AcDbArc
 50
270.012965
 51
359.995676
  0
ARC
  5
1BB
330
19A
100
AcDbEntity
  8
0
  6
Continuous
 62
     0
370
    30
100
AcDbCircle
 10
426.374391
 20
1069.259834
 30
0.0
 40
0.5000381596748548
100
AcDbArc
 50
180.004371
 51
269.98158
  0
ARC
  5
1BC
330
19A
100
AcDbEntity
  8
0
  6
Continuous
 62
     0
370
    30
100
AcDbCircle
 10
485.374297
 20
1074.259758
 30
0.0
 40
0.5000377434917614
100
AcDbArc
 50
0.004324
 51
89.987035
  0
ARC
  5
1BD
330
19A
100
AcDbEntity
  8
0
  6
Continuous
 62
     0
370
    30
100
AcDbCircle
 10
426.374391
 20
1074.259758
 30
0.0
 40
0.5000381596698406
100
AcDbArc
 50
90.01842
 51
179.995629
  0
LINE
  5
1BE
330
19A
100
AcDbEntity
  8
0
  6
Continuous
 62
     0
370
    30
100
AcDbLine
 10
425.874336
 20
1069.259796
 30
0.0
 11
425.874336
 21
1074.259796
 31
0.0
  0
LINE
  5
1BF
330
19A
100
AcDbEntity
  8
0
  6
Continuous
 62
     0
370
    30
100
AcDbLine
 10
485.874336
 20
1069.259796
 30
0.0
 11
485.874336
 21
1074.259796
 31
0.0
  0
ARC
  5
1C0
330
19A
100
AcDbEntity
  8
0
  6
Continuous
 62
     0
370
    30
100
AcDbCircle
 10
482.874597
 20
1079.760058
 30
0.0
 40
5.000261632243127
100
AcDbArc
 50
180.002997
 51
269.984395
  0
ARC
  5
1C1
330
19A
100
AcDbEntity
  8
0
  6
Continuous
 62
     0
370
    30
100
AcDbCircle
 10
428.87409
 20
1079.760056
 30
0.0
 40
5.00026013594671
100
AcDbArc
 50
270.015622
 51
359.99702
  0
LINE
  5
1C2
330
19A
100
AcDbEntity
  8
0
  6
Continuous
 62
     0
370
     0
100
AcDbLine
 10
452.027437
 20
1062.25809
 30
0.0
 11
449.761667
 21
1061.201544
 31
0.0
  0
LINE
  5
1C3
330
19A
100
AcDbEntity
  8
0
  6
Continuous
 62
     0
370
     0
100
AcDbLine
 10
454.293206
 20
1063.314635
 30
0.0
 11
452.027437
 21
1062.25809
 31
0.0
  0
LINE
  5
1C4
330
19A
100
AcDbEntity
  8
0
  6
Continuous
 62
     0
370
     0
100
AcDbLine
 10
455.216424
 20
1058.565093
 30
0.0
 11
452.71985
 21
1058.695933
 31
0.0
  0
LINE
  5
1C5
330
19A
100
AcDbEntity
  8
0
  6
Continuous
 62
     0
370
     0
100
AcDbLine
 10
452.71985
 20
1058.695933
 30
0.0
 11
450.223276
 21
1058.826773
 31
0.0
  0
LINE
  5
1C6
330
19A
100
AcDbEntity
  8
0
  6
Continuous
 62
     0
370
     0
100
AcDbLine
 10
428.94143
 20
1111.766193
 30
0.0
 11
426.67566
 21
1110.709647
 31
0.0
  0
LINE
  5
1C7
330
19A
100
AcDbEntity
  8
0
  6
Continuous
 62
     0
370
     0
100
AcDbLine
 10
431.207199
 20
1112.822738
 30
0.0
 11
428.94143
 21
1111.766193
 31
0.0
  0
LINE
  5
1C8
330
19A
100
AcDbEntity
  8
0
  6
Continuous
 62
     0
370
     0
100
AcDbLine
 10
423.956737
 20
1114.941792
 30
0.0
 11
423.956737
 21
1112.441792
 31
0.0
  0
LINE
  5
1C9
330
19A
100
AcDbEntity
  8
0
  6
Continuous
 62
     0
370
     0
100
AcDbLine
 10
423.956737
 20
1117.441792
 30
0.0
 11
423.956737
 21
1114.941792
 31
0.0
  0
LINE
  5
1CA
330
19A
100
AcDbEntity
  8
0
  6
Continuous
 62
     0
370
    30
100
AcDbLine
 10
437.535608
 20
768.963507
 30
0.0
 11
435.788007
 21
769.055095
 31
0.0
  0
LINE
  5
1CB
330
19A
100
AcDbEntity
  8
0
  6
Continuous
 62
     0
370
    30
100
AcDbLine
 10
439.28321
 20
768.871919
 30
0.0
 11
437.535608
 21
768.963507
 31
0.0
  0
LINE
  5
1CC
330
19A
100
AcDbEntity
  8
0
  6
Continuous
 62
     0
370
    30
100
AcDbLine
 10
440.071434
 20
769.581639
 30
0.0
 11
437.57486
 21
769.712479
 31
0.0
  0
LINE
  5
1CD
330
19A
100
AcDbEntity
  8
0
  6
Continuous
 62
     0
370
    30
100
AcDbLine
 10
437.57486
 20
769.712479
 30
0.0
 11
435.078286
 21
769.843319
 31
0.0
  0
LINE
  5
1CE
330
19A
100
AcDbEntity
  8
0
  6
Continuous
 62
     0
370
    30
100
AcDbLine
 10
412.461486
 20
1115.941793
 30
0.0
 11
412.461486
 21
1114.941793
 31
0.0
  0
LINE
  5
1CF
330
19A
100
AcDbEntity
  8
0
  6
Continuous
 62
     0
370
    30
100
AcDbLine
 10
412.461486
 20
1114.941793
 30
0.0
 11
412.461486
 21
1113.941793
 31
0.0
  0
LINE
  5
1D0
330
19A
100
AcDbEntity
  8
0
  6
Continuous
 62
     0
370
     0
100
AcDbLine
 10
413.961486
 20
1114.941793
 30
0.0
 11
413.961486
 21
1112.441793
 31
0.0
  0
LINE
  5
1D1
330
19A
100
AcDbEntity
  8
0
  6
Continuous
 62
     0
370
     0
100
AcDbLine
 10
413.961486
 20
1117.441793
 30
0.0
 11
413.961486
 21
1114.941793
 31
0.0
  0
ARC
  5
1D2
330
19A
100
AcDbEntity
  8
0
  6
Continuous
 62
     0
370
    30
100
AcDbCircle
 10
413.96063
 20
1115.942649
 30
0.0
 40
1.499143655346046
100
AcDbArc
 50
89.96726
 51
180.032737
  0
ARC
  5
1D3
330
19A
100
AcDbEntity
  8
0
  6
Continuous
 62
     0
370
    30
100
AcDbCircle
 10
413.96063
 20
1113.940936
 30
0.0
 40
1.499143655344854
100
AcDbArc
 50
179.967259
 51
270.032736
  0
LINE
  5
1D4
330
19A
100
AcDbEntity
  8
0
  6
Continuous
 62
     0
370
    30
100
AcDbLine
 10
413.961486
 20
1112.441793
 30
0.0
 11
423.956737
 21
1112.441792
 31
0.0
  0
LINE
  5
1D5
330
19A
100
AcDbEntity
  8
0
  6
Continuous
 62
     0
370
    30
100
AcDbLine
 10
413.961486
 20
1117.441793
 30
0.0
 11
423.956737
 21
1117.441792
 31
0.0
  0
LINE
  5
1D6
330
19A
100
AcDbEntity
  8
0
  6
Continuous
 62
     0
370
    30
100
AcDbLine
 10
440.071434
 20
769.581639
 30
0.0
 11
439.283241
 21
768.871946
 31
0.0
  0
LINE
  5
1D7
330
19A
100
AcDbEntity
  8
0
  6
Continuous
 62
     0
370
    30
100
AcDbLine
 10
435.078286
 20
769.843319
 30
0.0
 11
435.787979
 21
769.055125
 31
0.0
  0
LINE
  5
1D8
330
19A
100
AcDbEntity
  8
0
  6
Continuous
 62
     0
370
    30
100
AcDbLine
 10
450.223276
 20
1058.826773
 30
0.0
 11
435.078286
 21
769.843319
 31
0.0
  0
LINE
  5
1D9
330
19A
100
AcDbEntity
  8
0
  6
Continuous
 62
     0
370
    30
100
AcDbLine
 10
455.216424
 20
1058.565093
 30
0.0
 11
440.071434
 21
769.581639
 31
0.0
  0
ARC
  5
1DA
330
19A
100
AcDbEntity
  8
0
  6
Continuous
 62
     0
370
    30
100
AcDbCircle
 10
423.95748
 20
1109.442959
 30
0.0
 40
2.998833774731899
100
AcDbArc
 50
24.985804
 51
90.014195
  0
ARC
  5
1DB
330
19A
100
AcDbEntity
  8
0
  6
Continuous
 62
     0
370
    30
100
AcDbCircle
 10
423.956246
 20
1109.441023
 30
0.0
 40
8.000769788467746
100
AcDbArc
 50
25.003512
 51
89.996486
  0
LINE
  5
1DC
330
19A
100
AcDbEntity
  8
0
  6
Continuous
 62
     0
370
    30
100
AcDbLine
 10
446.237197
 20
1068.759796
 30
0.0
 11
449.761667
 21
1061.201544
 31
0.0
  0
LINE
  5
1DD
330
19A
100
AcDbEntity
  8
0
  6
Continuous
 62
     0
370
    30
100
AcDbLine
 10
426.67566
 20
1110.709647
 30
0.0
 11
433.402706
 21
1096.28345
 31
0.0
  0
LINE
  5
1DE
330
19A
100
AcDbEntity
  8
0
  6
Continuous
 62
     0
370
    30
100
AcDbLine
 10
451.754086
 20
1068.759796
 30
0.0
 11
454.293206
 21
1063.314635
 31
0.0
  0
LINE
  5
1DF
330
19A
100
AcDbEntity
  8
0
  6
Continuous
 62
     0
370
    30
100
AcDbLine
 10
431.207199
 20
1112.822738
 30
0.0
 11
433.404335
 21
1108.110965
 31
0.0
  0
ARC
  5
1E0
330
19A
100
AcDbEntity
  8
0
  6
Continuous
 62
     0
370
    30
100
AcDbCircle
 10
445.229299
 20
1059.088291
 30
0.0
 40
5.000820308132276
100
AcDbArc
 50
357.002342
 51
24.997657
  0
ARC
  5
1E1
330
19A
100
AcDbEntity
  8
0
  6
Continuous
 62
     0
370
    30
100
AcDbCircle
 10
445.228469
 20
1059.08813
 30
0.0
 40
10.00164061627513
100
AcDbArc
 50
357.002342
 51
24.997657
  0
LINE
  5
1E2
330
19A
100
AcDbEntity
  8
0
  6
Continuous
 62
     0
370
     0
100
AcDbLine
 10
455.874337
 20
1297.90979
 30
0.0
 11
444.874336
 21
1297.90979
 31
0.0
  0
LINE
  5
1E3
330
19A
100
AcDbEntity
  8
0
  6
Continuous
 62
     0
370
     0
100
AcDbLine
 10
466.874336
 20
1297.90979
 30
0.0
 11
455.874337
 21
1297.90979
 31
0.0
  0
LINE
  5
1E4
330
19A
100
AcDbEntity
  8
0
  6
Continuous
 62
     0
370
     0
100
AcDbLine
 10
635.874337
 20
1297.90979
 30
0.0
 11
646.874336
 21
1297.90979
 31
0.0
  0
LINE
  5
1E5
330
19A
100
AcDbEntity
  8
0
  6
Continuous
 62
     0
370
     0
100
AcDbLine
 10
624.874336
 20
1297.90979
 30
0.0
 11
635.874337
 21
1297.90979
 31
0.0
  0
LINE
  5
1E6
330
19A
100
AcDbEntity
  8
0
  6
Continuous
 62
     0
370
    30
100
AcDbLine
 10
624.874336
 20
1273.90979
 30
0.0
 11
635.874337
 21
1273.90979
 31
0.0
  0
LINE
  5
1E7
330
19A
100
AcDbEntity
  8
0
  6
Continuous
 62
     0
370
    30
100
AcDbLine
 10
646.874336
 20
1273.90979
 30
0.0
 11
646.874336
 21
1297.90979
 31
0.0
  0
LINE
  5
1E8
330
19A
100
AcDbEntity
  8
0
  6
Continuous
 62
     0
370
    30
100
AcDbLine
 10
624.874336
 20
1273.90979
 30
0.0
 11
624.874336
 21
1297.90979
 31
0.0
  0
ARC
  5
1E9
330
19A
100
AcDbEntity
  8
0
  6
Continuous
 62
     0
370
    30
100
AcDbCircle
 10
545.874336
 20
1297.909424
 30
0.0
 40
101.0000000006645
100
AcDbArc
 50
0.000208
 51
179.999792
  0
ARC
  5
1EA
330
19A
100
AcDbEntity
  8
0
  6
Continuous
 62
     0
370
    30
100
AcDbCircle
 10
545.874336
 20
1297.909307
 30
0.0
 40
79.00000000147892
100
AcDbArc
 50
0.000351
 51
179.999649
  0
LINE
  5
1EB
330
19A
100
AcDbEntity
  8
0
  6
Continuous
 62
     0
370
    30
100
AcDbLine
 10
444.874336
 20
1297.90979
 30
0.0
 11
444.874336
 21
1205.75979
 31
0.0
  0
LINE
  5
1EC
330
19A
100
AcDbEntity
  8
0
  6
Continuous
 62
     0
370
    30
100
AcDbLine
 10
466.874336
 20
1297.90979
 30
0.0
 11
466.874336
 21
1205.75979
 31
0.0
  0
LINE
  5
1ED
330
19A
100
AcDbEntity
  8
0
  6
Continuous
 62
     0
370
    30
100
AcDbLine
 10
434.374336
 20
1205.75979
 30
0.0
 11
435.046004
 21
1205.75979
 31
0.0
  0
LINE
  5
1EE
330
19A
100
AcDbEntity
  8
0
  6
Continuous
 62
     0
370
    30
100
AcDbLine
 10
435.046004
 20
1205.75979
 30
0.0
 11
477.374336
 21
1205.75979
 31
0.0
  0
LINE
  5
1EF
330
19A
100
AcDbEntity
  8
0
  6
Continuous
 62
     0
370
     0
100
AcDbLine
 10
433.874336
 20
1205.25979
 30
0.0
 11
434.561624
 21
1205.25979
 31
0.0
  0
LINE
  5
1F0
330
19A
100
AcDbEntity
  8
0
  6
Continuous
 62
     0
370
     0
100
AcDbLine
 10
434.561624
 20
1205.25979
 30
0.0
 11
477.874336
 21
1205.25979
 31
0.0
  0
LINE
  5
1F1
330
19A
100
AcDbEntity
  8
0
  6
Continuous
 62
     0
370
    30
100
AcDbLine
 10
433.874336
 20
1184.05979
 30
0.0
 11
434.561624
 21
1184.05979
 31
0.0
  0
LINE
  5
1F2
330
19A
100
AcDbEntity
  8
0
  6
Continuous
 62
     0
370
    30
100
AcDbLine
 10
434.561624
 20
1184.05979
 30
0.0
 11
477.874336
 21
1184.05979
 31
0.0
  0
LINE
  5
1F3
330
19A
100
AcDbEntity
  8
0
  6
Continuous
 62
     0
370
    30
100
AcDbLine
 10
477.574381
 20
1183.759818
 30
0.0
 11
477.874354
 21
1184.05979
 31
0.0
  0
LINE
  5
1F4
330
19A
100
AcDbEntity
  8
0
  6
Continuous
 62
     0
370
    30
100
AcDbLine
 10
434.174365
 20
1183.759816
 30
0.0
 11
433.874391
 21
1184.05979
 31
0.0
  0
LINE
  5
1F5
330
19A
100
AcDbEntity
  8
0
  6
Continuous
 62
     0
370
    30
100
AcDbLine
 10
433.874336
 20
1184.05979
 30
0.0
 11
433.874336
 21
1205.25979
 31
0.0
  0
LINE
  5
1F6
330
19A
100
AcDbEntity
  8
0
  6
Continuous
 62
     0
370
    30
100
AcDbLine
 10
477.874336
 20
1184.05979
 30
0.0
 11
477.874336
 21
1205.25979
 31
0.0
  0
ARC
  5
1F7
330
19A
100
AcDbEntity
  8
0
  6
Continuous
 62
     0
370
    30
100
AcDbCircle
 10
477.374317
 20
1205.259753
 30
0.0
 40
0.5000377307410568
100
AcDbArc
 50
0.004323
 51
89.989546
  0
ARC
  5
1F8
330
19A
100
AcDbEntity
  8
0
  6
Continuous
 62
     0
370
    30
100
AcDbCircle
 10
434.374428
 20
1205.259754
 30
0.0
 40
0.500036850237073
100
AcDbArc
 50
90.010087
 51
179.995778
  0
LINE
  5
1F9
330
19A
100
AcDbEntity
  8
0
  6
Continuous
 62
     0
370
    30
100
AcDbLine
 10
646.874337
 20
1273.909787
 30
0.0
 11
635.874337
 21
1273.909787
 31
0.0
  0
LINE
  5
1FA
330
19A
100
AcDbEntity
  8
0
  6
Continuous
 62
     0
370
     0
100
AcDbLine
 10
646.874337
 20
1254.109787
 30
0.0
 11
626.537112
 21
1254.109787
 31
0.0
  0
LINE
  5
1FB
330
19A
100
AcDbEntity
  8
0
  6
Continuous
 62
     0
370
     0
100
AcDbLine
 10
626.537112
 20
1254.109787
 30
0.0
 11
624.874337
 21
1254.109787
 31
0.0
  0
LINE
  5
1FC
330
19A
100
AcDbEntity
  8
0
  6
Continuous
 62
     0
370
    30
100
AcDbLine
 10
646.674337
 20
1253.909787
 30
0.0
 11
626.70688
 21
1253.909787
 31
0.0
  0
LINE
  5
1FD
330
19A
100
AcDbEntity
  8
0
  6
Continuous
 62
     0
370
    30
100
AcDbLine
 10
626.70688
 20
1253.909787
 30
0.0
 11
625.074337
 21
1253.909787
 31
0.0
  0
ARC
  5
1FE
330
19A
100
AcDbEntity
  8
0
  6
Continuous
 62
     0
370
    30
100
AcDbCircle
 10
625.074637
 20
1254.110088
 30
0.0
 40
0.2003008867700002
100
AcDbArc
 50
180.086004
 51
269.913996
  0
ARC
  5
1FF
330
19A
100
AcDbEntity
  8
0
  6
Continuous
 62
     0
370
    30
100
AcDbCircle
 10
646.674036
 20
1254.110088
 30
0.0
 40
0.2003008867399988
100
AcDbArc
 50
270.086004
 51
359.913996
  0
LINE
  5
200
330
19A
100
AcDbEntity
  8
0
  6
Continuous
 62
     0
370
    30
100
AcDbLine
 10
624.874337
 20
1273.909787
 30
0.0
 11
624.874337
 21
1254.109787
 31
0.0
  0
LINE
  5
201
330
19A
100
AcDbEntity
  8
0
  6
Continuous
 62
     0
370
    30
100
AcDbLine
 10
646.874337
 20
1273.909787
 30
0.0
 11
646.874337
 21
1254.109787
 31
0.0
  0
ENDBLK
  5
203
330
19A
100
AcDbEntity
  8
0
100
AcDbBlockEnd
  0
BLOCK
  5
2CD
330
205
100
AcDbEntity
  8
0
100
AcDbBlockBegin
  2
d
 70
     0
 10
348.203598
 20
217.830322
 30
0.0
  3
d
  1

  0
SPLINE
  5
206
330
205
100
AcDbEntity
  8
0
  6
Continuous
 62
     0
370
     0
100
AcDbSpline
210
0.0
220
0.0
230
1.0
 70
     8
 71
     3
 72
    16
 73
    12
 74
     0
 42
0.0
 43
0.0
 40
0.0
 40
0.0
 40
0.0
 40
0.0
 40
0.047619050732881
 40
0.142857152198643
 40
0.285714498032293
 40
0.428571514873237
 40
0.571428485126763
 40
0.714285501967706
 40
0.857142847801357
 40
0.9523809492671189
 40
1.0
 40
1.0
 40
1.0
 40
1.0
 10
467.3312015626781
 20
452.2008680210432
 30
0.0
 10
467.331201605744
 20
451.6320435903517
 30
0.0
 10
467.3865420915152
 20
449.9575210736287
 30
0.0
 10
467.829234118068
 20
446.814372851568
 30
0.0
 10
469.1416816588351
 20
443.2440203009598
 30
0.0
 10
471.5203761667334
 20
440.2450357707788
 30
0.0
 10
474.681550680184
 20
438.4199314527056
 30
0.0
 10
478.4680951387307
 20
437.8594148507177
 30
0.0
 10
482.2163351478831
 20
438.5079791038189
 30
0.0
 10
485.1597274467266
 20
439.6961713127446
 30
0.0
 10
486.6375767379794
 20
440.4855066085262
 30
0.0
 10
487.1301931667844
 20
440.7699188860322
 30
0.0
  0
SPLINE
  5
207
330
205
100
AcDbEntity
  8
0
  6
Continuous
 62
     0
370
     0
100
AcDbSpline
210
0.0
220
0.0
230
1.0
 70
     8
 71
     3
 72
    15
 73
    11
 74
     0
 42
0.0
 43
0.0
 40
0.0884212738460595
 40
0.0884212738460595
 40
0.0884212738460595
 40
0.0884212738460595
 40
0.142857143981364
 40
0.28571428663672
 40
0.428571428663563
 40
0.5714285713364371
 40
0.71428571336328
 40
0.8571428560186358
 40
0.952380952006212
 40
1.0
 40
1.0
 40
1.0
 40
1.0
 10
473.4212991327535
 20
466.8791056356002
 30
0.0
 10
473.8708619597319
 20
466.547033965734
 30
0.0
 10
475.4915501740237
 20
465.2681235537231
 30
0.0
 10
478.1809699752262
 20
462.6281876076869
 30
0.0
 10
481.2237022294322
 20
458.6641785770913
 30
0.0
 10
483.7639288125894
 20
454.2643775851831
 30
0.0
 10
485.6754956399317
 20
449.6472898908898
 30
0.0
 10
486.7299789770839
 20
445.56049681448
 30
0.0
 10
487.0858714201132
 20
442.623880136466
 30
0.0
 10
487.1301931321777
 20
441.2270119255279
 30
0.0
 10
487.1301931667844
 20
440.7699188860322
 30
0.0
  0
SPLINE
  5
208
330
205
100
AcDbEntity
  8
0
  6
Continuous
 62
     0
370
     0
100
AcDbSpline
210
0.0
220
0.0
230
1.0
 70
     8
 71
     3
 72
    12
 73
     8
 74
     0
 42
0.0
 43
0.0
 40
0.0
 40
0.0
 40
0.0
 40
0.0
 40
0.047619048741464
 40
0.142857146224391
 40
0.28571429152306
 40
0.428571433695539
 40
0.5085889540316344
 40
0.5085889540316344
 40
0.5085889540316344
 40
0.5085889540316344
 10
467.3312015626782
 20
452.2008680210433
 30
0.0
 10
467.7270557702933
 20
452.4294145789594
 30
0.0
 10
468.870296783253
 20
453.1406433485375
 30
0.0
 10
470.8796432053947
 20
454.7116891672445
 30
0.0
 10
472.8371853500227
 20
457.0594890601993
 30
0.0
 10
473.8024928158989
 20
459.5004515734049
 30
0.0
 10
473.931872232376
 20
461.0175053275142
 30
0.0
 10
473.9191744945071
 20
461.5617072184754
 30
0.0
  0
SPLINE
  5
209
330
205
100
AcDbEntity
  8
0
  6
Continuous
 62
     0
370
     0
100
AcDbSpline
210
0.0
220
0.0
230
1.0
 70
     8
 71
     3
 72
    16
 73
    12
 74
     0
 42
0.0
 43
0.0
 40
0.0
 40
0.0
 40
0.0
 40
0.0
 40
0.047619050732881
 40
0.142857152198643
 40
0.285714498032294
 40
0.4285715148732381
 40
0.571428485126764
 40
0.7142855019677079
 40
0.857142847801357
 40
0.9523809492671189
 40
1.0
 40
1.0
 40
1.0
 40
1.0
 10
487.1301931667844
 20
440.7699203136402
 30
0.0
 10
486.6375767379794
 20
440.4855081355907
 30
0.0
 10
485.1597274467266
 20
439.5683700591193
 30
0.0
 10
482.2163351478831
 20
437.357825595909
 30
0.0
 10
478.4680951387307
 20
433.6782950924673
 30
0.0
 10
474.681550680184
 20
428.7454535655986
 30
0.0
 10
471.5203761667334
 20
423.2701393349333
 30
0.0
 10
469.1416816588352
 20
417.5244749758422
 30
0.0
 10
467.8292341180677
 20
412.4386385433156
 30
0.0
 10
467.3865420915157
 20
408.7843135998585
 30
0.0
 10
467.3312016057443
 20
407.0458893944213
 30
0.0
 10
467.3312015626784
 20
406.4770649140016
 30
0.0
  0
SPLINE
  5
20A
330
205
100
AcDbEntity
  8
0
  6
Continuous
 62
     0
370
     0
100
AcDbSpline
210
0.0
220
0.0
230
1.0
 70
     8
 71
     3
 72
    12
 73
     8
 74
     0
 42
0.0
 43
0.0
 40
0.5000000022267408
 40
0.5000000022267408
 40
0.5000000022267408
 40
0.5000000022267408
 40
0.5714285713364371
 40
0.71428571336328
 40
0.8571428560186358
 40
0.952380952006212
 40
1.0
 40
1.0
 40
1.0
 40
1.0
 10
473.9212189271369
 20
415.6626502713923
 30
0.0
 10
473.9212189241983
 20
415.1768183319542
 30
0.0
 10
473.7798232304281
 20
413.7193224951633
 30
0.0
 10
472.8371852984694
 20
411.3356847181284
 30
0.0
 10
470.8796431533772
 20
408.9878853646985
 30
0.0
 10
468.8702967600325
 20
407.4168399655628
 30
0.0
 10
467.7270557640779
 20
406.7056114037791
 30
0.0
 10
467.3312015626782
 20
406.4770649140015
 30
0.0
  0
SPLINE
  5
20B
330
205
100
AcDbEntity
  8
0
  6
Continuous
 62
     0
370
     0
100
AcDbSpline
210
0.0
220
0.0
230
1.0
 70
     8
 71
     3
 72
    12
 73
     8
 74
     0
 42
0.0
 43
0.0
 40
0.0000000495751245
 40
0.0000000495751245
 40
0.0000000495751245
 40
0.0000000495751245
 40
0.047619047993788
 40
0.142857143981364
 40
0.28571428663672
 40
0.428571428663563
 40
0.5000000247875622
 40
0.5000000247875622
 40
0.5000000247875622
 40
0.5000000247875622
 10
487.1301931667842
 20
440.7699188860321
 30
0.0
 10
487.1301931014161
 20
440.3128263002055
 30
0.0
 10
487.0858713583612
 20
438.9671366500307
 30
0.0
 10
486.7299789770838
 20
436.4414691282957
 30
0.0
 10
485.6754956399317
 20
433.5722879208969
 30
0.0
 10
484.0825231737459
 20
431.5641202288718
 30
0.0
 10
482.8909921870714
 20
430.7129198504125
 30
0.0
 10
482.470249136502
 20
430.4700037746791
 30
0.0
  0
LINE
  5
20C
330
205
100
AcDbEntity
  8
0
  6
Continuous
 62
     0
370
     0
100
AcDbLine
 10
467.331202
 20
383.840013
 30
0.0
 11
467.331202
 21
406.477065
 31
0.0
  0
SPLINE
  5
20D
330
205
100
AcDbEntity
  8
0
  6
Continuous
 62
     0
370
     0
100
AcDbSpline
210
0.0
220
0.0
230
1.0
 70
     8
 71
     3
 72
    13
 73
     9
 74
     0
 42
0.0
 43
0.0
 40
0.0
 40
0.0
 40
0.0
 40
0.0
 40
2.29740697212077
 40
5.672394704060816
 40
7.570825306026248
 40
10.73487632639293
 40
15.79735799354364
 40
17.67142427283817
 40
17.67142427283817
 40
17.67142427283817
 40
17.67142427283817
 10
467.3312015626778
 20
383.8400125594562
 30
0.0
 10
467.8724740458997
 20
384.1525163733167
 30
0.0
 10
469.1415930099208
 20
384.9640996259378
 30
0.0
 10
470.5876053588178
 20
386.163015310535
 30
0.0
 10
471.915162916904
 20
387.5962089039047
 30
0.0
 10
473.1659237310826
 20
389.4112072827783
 30
0.0
 10
473.8252129529177
 20
391.3300119530152
 30
0.0
 10
473.9212152664893
 20
392.6649532009826
 30
0.0
 10
473.9211777575348
 20
393.0256203072224
 30
0.0
  0
SPLINE
  5
20E
330
205
100
AcDbEntity
  8
0
  6
Continuous
 62
     0
370
     0
100
AcDbSpline
210
0.0
220
0.0
230
1.0
 70
     8
 71
     3
 72
    12
 73
     8
 74
     0
 42
0.0
 43
0.0
 40
0.0
 40
0.0
 40
0.0
 40
0.0
 40
1.718754101383531
 40
4.583500439394577
 40
9.48624150281726
 40
14.5486632533614
 40
17.672645379926
 40
17.672645379926
 40
17.672645379926
 40
17.672645379926
 10
488.9625148846364
 20
441.8278117506935
 30
0.0
 10
488.963587966173
 20
441.3607596595779
 30
0.0
 10
488.9249668102599
 20
440.1384739022924
 30
0.0
 10
488.6147206038906
 20
437.7586946757152
 30
0.0
 10
487.6778623181706
 20
434.9556783702891
 30
0.0
 10
486.0884986993127
 20
432.7774355501516
 30
0.0
 10
484.809842558844
 20
431.8208218948524
 30
0.0
 10
484.2853804102676
 20
431.5180221411393
 30
0.0
  0
LINE
  5
20F
330
205
100
AcDbEntity
  8
0
  6
Continuous
 62
     0
370
     0
100
AcDbLine
 10
488.962515
 20
441.827812
 30
0.0
 11
487.130193
 21
440.76992
 31
0.0
  0
SPLINE
  5
210
330
205
100
AcDbEntity
  8
0
  6
Continuous
 62
     0
370
     0
100
AcDbSpline
210
0.0
220
0.0
230
1.0
 70
     8
 71
     3
 72
    17
 73
    13
 74
     0
 42
0.0
 43
0.0
 40
0.7970294811677403
 40
0.7970294811677403
 40
0.7970294811677403
 40
0.7970294811677403
 40
1.706339016653732
 40
4.550383530542367
 40
9.442487500490753
 40
14.50535991567011
 40
19.56799959870319
 40
24.63039839870083
 40
27.79445294476594
 40
29.69293249906594
 40
33.06807680507281
 40
35.34401262602155
 40
35.34401262602155
 40
35.34401262602155
 40
35.34401262602155
 10
473.4212991610506
 20
468.9353566652237
 30
0.0
 10
473.6376587681091
 20
468.8041839595676
 30
0.0
 10
474.5302348204283
 20
468.2424717479245
 30
0.0
 10
476.5727100507975
 20
466.7603709247947
 30
0.0
 10
479.4932788173467
 20
464.0386964872961
 30
0.0
 10
482.5978383642145
 20
460.1999513110576
 30
0.0
 10
485.2486643994491
 20
455.8500150096918
 30
0.0
 10
487.0231775743915
 20
451.8266108859339
 30
0.0
 10
487.9826302424834
 20
448.752008778163
 30
0.0
 10
488.568975397356
 20
446.2255744003986
 30
0.0
 10
488.8897089072291
 20
444.0212738246277
 30
0.0
 10
488.96109474779
 20
442.4461610395968
 30
0.0
 10
488.9625148846364
 20
441.8278117507024
 30
0.0
  0
SPLINE
  5
211
330
205
100
AcDbEntity
  8
0
  6
Continuous
 62
     0
370
    30
100
AcDbSpline
210
0.0
220
0.0
230
1.0
 70
     8
 71
     3
 72
    13
 73
     9
 74
     0
 42
0.0
 43
0.0
 40
16.2772408113582
 40
16.2772408113582
 40
16.2772408113582
 40
16.2772408113582
 40
19.54542891079017
 40
24.60790930299991
 40
27.77195984095973
 40
29.67039033576874
 40
33.04537789116455
 40
35.3427847996936
 40
35.3427847996936
 40
35.3427847996936
 40
35.3427847996936
 10
473.8779983079355
 20
462.5403134402468
 30
0.0
 10
473.9453930376122
 20
461.9125501388811
 30
0.0
 10
473.9162095701764
 20
460.3051582719789
 30
0.0
 10
473.1659230609412
 20
458.1215125830121
 30
0.0
 10
471.9151626009228
 20
456.3065143434156
 30
0.0
 10
470.5876052181037
 20
454.8733210049679
 30
0.0
 10
469.1415929403671
 20
453.674405640535
 30
0.0
 10
467.8724740297292
 20
452.8628224524383
 30
0.0
 10
467.3312015616594
 20
452.5503186448896
 30
0.0
  0
LINE
  5
212
330
205
100
AcDbEntity
  8
0
  6
Continuous
 62
     0
370
     0
100
AcDbLine
 10
467.331202
 20
452.200868
 30
0.0
 11
467.331202
 21
452.550319
 31
0.0
  0
ELLIPSE
  5
213
330
205
100
AcDbEntity
  8
0
  6
Continuous
 62
     0
370
    30
100
AcDbEllipse
 10
478.299649
 20
454.030652
 30
0.0
 11
11.05
 21
-19.1391614236361
 31
0.0
210
0.0
220
0.0
230
0.9999999999999999
 40
0.57735
 41
2.356194490192344
 42
2.673674186437009
  0
ELLIPSE
  5
214
330
205
100
AcDbEntity
  8
0
  6
Continuous
 62
     0
370
    30
100
AcDbEllipse
 10
478.299649
 20
454.030652
 30
0.0
 11
11.05
 21
-19.1391614236361
 31
0.0
210
0.0
220
0.0
230
0.9999999999999999
 40
0.57735
 41
0.0370664141853432
 42
2.356194490192344
  0
ELLIPSE
  5
215
330
205
100
AcDbEntity
  8
0
  6
Continuous
 62
     0
370
    30
100
AcDbEllipse
 10
451.421299
 20
465.468945
 30
0.0
 11
21.79999998807907
 21
0.0
 31
0.0
210
0.0
220
0.0
230
-1.0
 40
0.57735
 41
2.356194490192344
 42
2.659279498308472
  0
ELLIPSE
  5
216
330
205
100
AcDbEntity
  8
0
  6
Continuous
 62
     0
370
    30
100
AcDbEllipse
 10
451.421299
 20
465.468945
 30
0.0
 11
21.79999998807907
 21
0.0
 31
0.0
210
0.0
220
0.0
230
-1.0
 40
0.57735
 41
0.4823131724915363
 42
2.356194490192344
  0
ELLIPSE
  5
217
330
205
100
AcDbEntity
  8
0
  6
Continuous
 62
     0
370
    30
100
AcDbEllipse
 10
451.421299
 20
461.735905
 30
0.0
 11
-22.50000000745057
 21
0.0
 31
0.0
210
0.0
220
0.0
230
1.0
 40
0.57735
 41
6.22128193961797
 42
8.639379797371928
  0
ELLIPSE
  5
218
330
205
100
AcDbEntity
  8
0
  6
Continuous
 62
     0
370
    30
100
AcDbEllipse
 10
451.421299
 20
465.224928
 30
0.0
 11
22.12614672386328
 21
0.0
 31
0.0
210
0.0
220
0.0
230
-1.0
 40
0.57735
 41
6.176352015962983
 42
8.639379797371928
  0
ELLIPSE
  5
219
330
205
100
AcDbEntity
  8
0
  6
Continuous
 62
     0
370
    30
100
AcDbEllipse
 10
451.421299
 20
465.224928
 30
0.0
 11
22.12614672386328
 21
0.0
 31
0.0
210
0.0
220
0.0
230
-1.0
 40
0.57735
 41
2.356194490192344
 42
3.248425962073322
  0
ELLIPSE
  5
21A
330
205
100
AcDbEntity
  8
0
  6
Continuous
 62
     0
370
    30
100
AcDbEllipse
 10
451.421299
 20
380.5533
 30
0.0
 11
-22.1
 21
0.0
 31
0.0
210
0.0
220
0.0
230
1.0
 40
0.57735
 41
0.0185172932959308
 42
0.7853981633974473
  0
ELLIPSE
  5
21B
330
205
100
AcDbEntity
  8
0
  6
Continuous
 62
     0
370
    30
100
AcDbEllipse
 10
451.421299
 20
380.5533
 30
0.0
 11
-22.1
 21
0.0
 31
0.0
210
0.0
220
0.0
230
1.0
 40
0.57735
 41
0.785398163397448
 42
3.123075343014488
  0
ELLIPSE
  5
21C
330
205
100
AcDbEntity
  8
0
  6
Continuous
 62
     0
370
     0
100
AcDbEllipse
 10
451.421299
 20
393.025599
 30
0.0
 11
22.50000000745057
 21
0.0
 31
0.0
210
0.0
220
0.0
230
-1.0
 40
0.57735
 41
2.356194490192343
 42
3.141592662229476
  0
ELLIPSE
  5
21D
330
205
100
AcDbEntity
  8
0
  6
Continuous
 62
     0
370
     0
100
AcDbEllipse
 10
451.421299
 20
393.025599
 30
0.0
 11
22.50000000745057
 21
0.0
 31
0.0
210
0.0
220
0.0
230
-1.0
 40
0.57735
 41
0.7853981633974483
 42
2.356194490192343
  0
LINE
  5
21E
330
205
100
AcDbEntity
  8
0
  6
Continuous
 62
     0
370
     0
100
AcDbLine
 10
467.331202
 20
452.200868
 30
0.0
 11
467.331202
 21
406.477065
 31
0.0
  0
LINE
  5
21F
330
205
100
AcDbEntity
  8
0
  6
Continuous
 62
     0
370
    30
100
AcDbLine
 10
428.921299
 20
461.735905
 30
0.0
 11
428.921299
 21
393.025599
 31
0.0
  0
LINE
  5
220
330
205
100
AcDbEntity
  8
0
  6
Continuous
 62
     0
370
    30
100
AcDbLine
 10
428.925156
 20
392.785066
 30
0.0
 11
429.325088
 21
380.317043
 31
0.0
  0
LINE
  5
221
330
205
100
AcDbEntity
  8
0
  6
Continuous
 62
     0
370
    30
100
AcDbLine
 10
473.917442
 20
392.785086
 30
0.0
 11
473.51751
 21
380.317043
 31
0.0
  0
LINE
  5
222
330
205
100
AcDbEntity
  8
0
  6
Continuous
 62
     0
370
    30
100
AcDbLine
 10
428.964396
 20
462.53954
 30
0.0
 11
429.337533
 21
466.01521
 31
0.0
  0
LINE
  5
223
330
205
100
AcDbEntity
  8
0
  6
Continuous
 62
     0
370
    30
100
AcDbLine
 10
473.878202
 20
462.53954
 30
0.0
 11
473.505065
 21
466.015209
 31
0.0
  0
LINE
  5
224
330
205
100
AcDbEntity
  8
0
  6
Continuous
 62
     0
370
    30
100
AcDbLine
 10
484.700923
 20
431.775881
 30
0.0
 11
489.751549
 21
435.141056
 31
0.0
  0
LINE
  5
225
330
205
100
AcDbEntity
  8
0
  6
Continuous
 62
     0
370
    30
100
AcDbLine
 10
482.470303
 20
430.469943
 30
0.0
 11
484.286061
 21
431.518276
 31
0.0
  0
LINE
  5
226
330
205
100
AcDbEntity
  8
0
  6
Continuous
 62
     0
370
    30
100
AcDbLine
 10
473.921298
 20
415.66265
 30
0.0
 11
473.921299
 21
393.02562
 31
0.0
  0
SPLINE
  5
227
330
205
100
AcDbEntity
  8
0
  6
Continuous
 62
     0
370
    30
100
AcDbSpline
210
0.0
220
0.0
230
1.0
 70
     8
 71
     3
 72
    15
 73
    11
 74
     0
 42
0.0
 43
0.0
 40
0.0
 40
0.0
 40
0.0
 40
0.0
 40
1.874352420655152
 40
4.774810434643257
 40
8.427591300868317
 40
11.71691949032169
 40
15.14313580184041
 40
18.53223257181813
 40
21.69272308759975
 40
23.93191246643529
 40
23.93191246643529
 40
23.93191246643529
 40
23.93191246643529
 10
482.4702899782241
 20
430.4699355189204
 30
0.0
 10
482.3608417643707
 20
430.4067455897061
 30
0.0
 10
481.9258810029677
 20
430.1368262838505
 30
0.0
 10
480.6208015783481
 20
429.0946426078204
 30
0.0
 10
478.6883849602474
 20
426.9944781505449
 30
0.0
 10
476.7472258244392
 20
424.1440861011382
 30
0.0
 10
475.2234076600436
 20
421.1157814335596
 30
0.0
 10
474.270892159447
 20
418.2986447171126
 30
0.0
 10
473.9435437093071
 20
416.4344695380053
 30
0.0
 10
473.9212984089416
 20
415.81348109648
 30
0.0
 10
473.9212984592185
 20
415.6626472849614
 30
0.0
  0
ELLIPSE
  5
228
330
205
100
AcDbEntity
  8
0
  6
Continuous
 62
     0
370
    30
100
AcDbEllipse
 10
490.382893
 20
532.87073
 30
0.0
 11
-6.499999999999961
 21
7.058935174164559E-7
 31
0.0
210
0.0
220
0.0
230
1.0
 40
0.57735
 41
5.62924538873774
 42
8.770838042327528
  0
ELLIPSE
  5
229
330
205
100
AcDbEntity
  8
0
  6
Continuous
 62
     0
370
    30
100
AcDbEllipse
 10
490.382893
 20
532.87073
 30
0.0
 11
-6.499999999999961
 21
7.058935174164559E-7
 31
0.0
210
0.0
220
0.0
230
1.0
 40
0.57735
 41
2.487652735147944
 42
5.629245388737737
  0
LINE
  5
22A
330
205
100
AcDbEntity
  8
0
  6
Continuous
 62
     0
370
    30
100
AcDbLine
 10
496.882888
 20
483.880938
 30
0.0
 11
496.882893
 21
532.870729
 31
0.0
  0
LINE
  5
22B
330
205
100
AcDbEntity
  8
0
  6
Continuous
 62
     0
370
    30
100
AcDbLine
 10
483.882888
 20
483.880939
 30
0.0
 11
483.882893
 21
532.870731
 31
0.0
  0
ELLIPSE
  5
22C
330
205
100
AcDbEntity
  8
0
  6
Continuous
 62
     0
370
    30
100
AcDbEllipse
 10
490.382886
 20
483.880937
 30
0.0
 11
-6.499999999999962
 21
7.058935509729468E-7
 31
0.0
210
0.0
220
0.0
230
1.0
 40
0.57735
 41
6.283185298539899
 42
7.068583533276703
  0
ELLIPSE
  5
22D
330
205
100
AcDbEntity
  8
0
  6
Continuous
 62
     0
370
    30
100
AcDbEllipse
 10
490.382886
 20
483.880937
 30
0.0
 11
-6.499999999999962
 21
7.058935509729468E-7
 31
0.0
210
0.0
220
0.0
230
1.0
 40
0.57735
 41
0.7853982260971166
 42
3.141592644950106
  0
SPLINE
  5
22E
330
205
100
AcDbEntity
  8
0
  6
Continuous
 62
     0
370
     0
100
AcDbSpline
210
0.0
220
0.0
230
1.0
 70
     8
 71
     3
 72
    10
 73
     6
 74
     0
 42
0.0
 43
0.0
 40
0.0
 40
0.0
 40
0.0
 40
0.0
 40
1.91240578932151
 40
3.830350421158118
 40
5.180497437671887
 40
5.180497437671887
 40
5.180497437671887
 40
5.180497437671887
 10
485.7979578467827
 20
480.4885795167954
 30
0.0
 10
485.3570629555662
 20
480.7431303647645
 30
0.0
 10
484.605142449324
 20
481.2140637774476
 30
0.0
 10
484.0320269579796
 20
481.7172033681034
 30
0.0
 10
483.9229271805885
 20
481.9881767124727
 30
0.0
 10
483.9205797237544
 20
482.0984159611037
 30
0.0
  0
SPLINE
  5
22F
330
205
100
AcDbEntity
  8
0
  6
Continuous
 62
     0
370
     0
100
AcDbSpline
210
0.0
220
0.0
230
1.0
 70
     8
 71
     3
 72
    19
 73
    15
 74
     0
 42
0.0
 43
0.0
 40
5.343266495893237
 40
5.343266495893237
 40
5.343266495893237
 40
5.343266495893237
 40
6.32391116788351
 40
7.661351199193069
 40
8.952158795729051
 40
10.23687625134339
 40
11.6201887532878
 40
12.6699143264469
 40
13.90342270692967
 40
15.64836897466497
 40
17.34311723258501
 40
18.41361149052811
 40
19.47528666719966
 40
21.03953786596914
 40
21.03953786596914
 40
21.03953786596914
 40
21.03953786596914
 10
496.8441795496004
 20
482.0511055713783
 30
0.0
 10
496.8384061011459
 20
481.7710822166108
 30
0.0
 10
496.7715334839645
 20
481.1093033380482
 30
0.0
 10
496.4727546561072
 20
480.1273642919139
 30
0.0
 10
495.9162235947973
 20
479.2054591286276
 30
0.0
 10
495.1378313098186
 20
478.4882183048268
 30
0.0
 10
494.2271040666545
 20
478.0748968948789
 30
0.0
 10
493.208894665437
 20
477.9104283579313
 30
0.0
 10
492.0013553906523
 20
477.9600111363496
 30
0.0
 10
490.5221219282839
 20
478.3056631335763
 30
0.0
 10
489.0835890550114
 20
478.8475735241373
 30
0.0
 10
487.9085198158718
 20
479.3773262403801
 30
0.0
 10
486.8368051381854
 20
479.9096667155185
 30
0.0
 10
486.1585875656256
 20
480.280369799325
 30
0.0
 10
485.7979578467827
 20
480.4885795167954
 30
0.0
  0
ELLIPSE
  5
230
330
205
100
AcDbEntity
  8
0
  6
Continuous
 62
     0
370
     0
100
AcDbEllipse
 10
498.50281
 20
487.75248
 30
0.0
 11
2.500000470247435
 21
4.330126747424679
 31
0.0
210
0.0
220
0.0
230
1.0
 40
0.57735
 41
3.446483624628149
 42
3.926990879686896
  0
SPLINE
  5
231
330
205
100
AcDbEntity
  8
0
  6
Continuous
 62
     0
370
     0
100
AcDbSpline
210
0.0
220
0.0
230
1.0
 70
     8
 71
     3
 72
     8
 73
     4
 74
     0
 42
0.0
 43
0.0
 40
0.0
 40
0.0
 40
0.0
 40
0.0
 40
1.0
 40
1.0
 40
1.0
 40
1.0
 10
496.8828882871549
 20
484.307067696231
 30
0.0
 10
497.4771806203997
 20
484.1608136573344
 30
0.0
 10
498.0225718926745
 20
483.9472633108568
 30
0.0
 10
498.5028098683625
 20
483.6699977167805
 30
0.0
  0
SPLINE
  5
232
330
205
100
AcDbEntity
  8
0
  6
Continuous
 62
     0
370
     0
100
AcDbSpline
210
0.0
220
0.0
230
1.0
 70
     8
 71
     3
 72
    15
 73
    11
 74
     0
 42
0.0
 43
0.0
 40
0.0
 40
0.0
 40
0.0
 40
0.0
 40
3.004295903646847
 40
6.017293057819065
 40
8.458208939344342
 40
9.93455495835826
 40
12.21528003184906
 40
14.06340335768629
 40
16.08163160756787
 40
16.5054101384803
 40
16.5054101384803
 40
16.5054101384803
 40
16.5054101384803
 10
482.2629619686974
 20
474.2939171603103
 30
0.0
 10
481.6267330939322
 20
474.6612441645472
 30
0.0
 10
480.5831193928248
 20
475.436513763147
 30
0.0
 10
479.8890563721593
 20
476.557198608259
 30
0.0
 10
479.9099312615464
 20
477.4845181136437
 30
0.0
 10
480.2989567962683
 20
478.3297055095953
 30
0.0
 10
480.9666694335241
 20
479.1153882681252
 30
0.0
 10
482.0615657667178
 20
480.0114766513063
 30
0.0
 10
483.0429999895002
 20
480.6555422380517
 30
0.0
 10
483.6661977048715
 20
481.0224523388251
 30
0.0
 10
483.7761716221767
 20
481.0860616489207
 30
0.0
  0
ELLIPSE
  5
233
330
205
100
AcDbEntity
  8
0
  6
Continuous
 62
     0
370
     0
100
AcDbEllipse
 10
482.262962
 20
478.3764
 30
0.0
 11
2.500000470247433
 21
4.33012674742468
 31
0.0
210
0.0
220
0.0
230
1.0
 40
0.57735
 41
3.926990879686895
 42
5.515240499001734
  0
SPLINE
  5
234
330
205
100
AcDbEntity
  8
0
  6
Continuous
 62
     0
370
     0
100
AcDbSpline
210
0.0
220
0.0
230
1.0
 70
     8
 71
     3
 72
    21
 73
    17
 74
     0
 42
0.0
 43
0.0
 40
0.0
 40
0.0
 40
0.0
 40
0.0
 40
3.004295903647487
 40
6.01729305781994
 40
8.458208939345289
 40
9.934554958359266
 40
12.21528003185013
 40
14.06340335768736
 40
16.08163160756893
 40
18.25474785008434
 40
19.90381535291495
 40
21.8415966518898
 40
24.58282184243938
 40
27.24518841621357
 40
30.59472225158563
 40
33.05208433184011
 40
33.05208433184011
 40
33.05208433184011
 40
33.05208433184011
 10
498.5028098683625
 20
483.6699977167805
 30
0.0
 10
499.1390387431278
 20
483.3026707125434
 30
0.0
 10
500.1826524240477
 20
482.3415097607922
 30
0.0
 10
500.8767153691624
 20
480.5251403707647
 30
0.0
 10
500.8558404002213
 20
478.8652734793656
 30
0.0
 10
500.4668147941123
 20
477.3627441046494
 30
0.0
 10
499.7991020982359
 20
476.0372726308034
 30
0.0
 10
498.7042057191811
 20
474.7188874190344
 30
0.0
 10
497.3225831699561
 20
473.6185512687169
 30
0.0
 10
495.7215239054481
 20
472.8248550905267
 30
0.0
 10
493.978320301714
 20
472.3129790506753
 30
0.0
 10
491.9537730595118
 20
472.0237914961756
 30
0.0
 10
489.533883361902
 20
472.0638648228084
 30
0.0
 10
486.705810335791
 20
472.5268059873619
 30
0.0
 10
484.193900454142
 20
473.3153431983639
 30
0.0
 10
482.7833650053333
 20
473.9934622516677
 30
0.0
 10
482.2629619686974
 20
474.2939171603103
 30
0.0
  0
LINE
  5
235
330
205
100
AcDbEntity
  8
0
  6
Continuous
 62
     0
370
    30
100
AcDbLine
 10
494.621021
 20
445.94038
 30
0.0
 11
493.984433
 21
446.307915
 31
0.0
  0
SPLINE
  5
236
330
205
100
AcDbEntity
  8
0
  6
Continuous
 62
     0
370
    30
100
AcDbSpline
210
0.0
220
0.0
230
1.0
 70
     8
 71
     3
 72
     9
 73
     5
 74
     0
 42
0.0
 43
0.0
 40
0.0
 40
0.0
 40
0.0
 40
0.0
 40
1.884994507081518
 40
4.471886377056387
 40
4.471886377056387
 40
4.471886377056387
 40
4.471886377056387
 10
493.9844332478165
 20
446.3079146402285
 30
0.0
 10
494.0916464942615
 20
445.9409714122071
 30
0.0
 10
494.304177350234
 20
445.0971363310025
 30
0.0
 10
494.4151986462746
 20
444.3235175549762
 30
0.0
 10
494.4447107483934
 20
443.9026929104512
 30
0.0
  0
SPLINE
  5
237
330
205
100
AcDbEntity
  8
0
  6
Continuous
 62
     0
370
    30
100
AcDbSpline
210
0.0
220
0.0
230
1.0
 70
     8
 71
     3
 72
    11
 73
     7
 74
     0
 42
0.0
 43
0.0
 40
4.404563857902346
 40
4.404563857902346
 40
4.404563857902346
 40
4.404563857902346
 40
4.744068051412471
 40
9.96978525295273
 40
15.62697081957014
 40
18.76090241147
 40
18.76090241147
 40
18.76090241147
 40
18.76090241147
 10
494.4447195378611
 20
443.9026863320638
 30
0.0
 10
494.457821680769
 20
443.840731243813
 30
0.0
 10
494.6625573262171
 20
442.8320905538624
 30
0.0
 10
494.7423854780188
 20
441.0313457951871
 30
0.0
 10
494.0006444174303
 20
439.4901510412617
 30
0.0
 10
493.1142444459812
 20
438.9478058473592
 30
0.0
 10
492.747067457876
 20
438.8117282627154
 30
0.0
  0
SPLINE
  5
238
330
205
100
AcDbEntity
  8
0
  6
Continuous
 62
     0
370
    30
100
AcDbSpline
210
0.0
220
0.0
230
1.0
 70
    12
 71
     2
 72
     8
 73
     5
 74
     0
 42
0.0
 43
0.0
 40
0.0
 40
0.0
 40
0.0
 40
0.3333333333333333
 40
0.3333333333333333
 40
0.3343840844031123
 40
0.3343840844031123
 40
0.3343840844031123
 10
494.6210214801209
 20
445.9403801607675
 30
0.0
 41
1.0
 10
498.1699890844593
 20
437.1743744465525
 30
0.0
 41
0.861987242667228
 10
491.9719941392106
 20
437.3467508654965
 30
0.0
 41
1.0
 10
491.9551456046519
 20
437.3472194509145
 30
0.0
 41
0.9995649488427683
 10
491.938231900293
 20
437.3477760479704
 30
0.0
 41
0.9991326404683498
  0
ELLIPSE
  5
239
330
205
100
AcDbEntity
  8
0
  6
Continuous
 62
     0
370
    30
100
AcDbEllipse
 10
479.069175
 20
454.487061
 30
0.0
 11
-10.55000000745059
 21
18.27313603275645
 31
0.0
210
0.0
220
0.0
230
-0.9999999999999999
 40
0.57735
 41
0.785398288796773
 42
2.331105972374175
  0
ELLIPSE
  5
23A
330
205
100
AcDbEntity
  8
0
  6
Continuous
 62
     0
370
    30
100
AcDbEllipse
 10
479.069175
 20
454.487061
 30
0.0
 11
-10.55000000745059
 21
18.27313603275645
 31
0.0
210
0.0
220
0.0
230
-0.9999999999999999
 40
0.57735
 41
0.6669544039956052
 42
0.7853982887967718
  0
ELLIPSE
  5
23B
330
205
100
AcDbEntity
  8
0
  6
Continuous
 62
     0
370
    30
100
AcDbEllipse
 10
479.069175
 20
454.487061
 30
0.0
 11
-11.0
 21
19.05255888325765
 31
0.0
210
0.0
220
0.0
230
-0.9999999999999997
 40
0.57735
 41
0.4138490988239506
 42
0.7853982887967729
  0
ELLIPSE
  5
23C
330
205
100
AcDbEntity
  8
0
  6
Continuous
 62
     0
370
    30
100
AcDbEllipse
 10
479.069175
 20
454.487061
 30
0.0
 11
-11.0
 21
19.05255888325765
 31
0.0
210
0.0
220
0.0
230
-0.9999999999999997
 40
0.57735
 41
0.7853982887967731
 42
2.332132528298362
  0
ELLIPSE
  5
23D
330
205
100
AcDbEntity
  8
0
  6
Continuous
 62
     0
370
     0
100
AcDbEllipse
 10
500.635932
 20
466.938634
 30
0.0
 11
-11.0
 21
19.05255888325765
 31
0.0
210
0.0
220
0.0
230
-0.9999999999999997
 40
0.57735
 41
0.5417395394097217
 42
0.7853982887967721
  0
ELLIPSE
  5
23E
330
205
100
AcDbEntity
  8
0
  6
Continuous
 62
     0
370
     0
100
AcDbEllipse
 10
500.635932
 20
466.938634
 30
0.0
 11
-11.0
 21
19.05255888325765
 31
0.0
210
0.0
220
0.0
230
-0.9999999999999997
 40
0.57735
 41
0.7853982887967729
 42
3.141592622099949
  0
SPLINE
  5
23F
330
205
100
AcDbEntity
  8
0
  6
Continuous
 62
     0
370
    30
100
AcDbSpline
210
0.0
220
0.0
230
1.0
 70
     8
 71
     3
 72
    15
 73
    11
 74
     0
 42
0.0
 43
0.0
 40
0.0
 40
0.0
 40
0.0
 40
0.0
 40
3.604916580329949
 40
9.40474614464741
 40
17.66188983582949
 40
25.08417716696645
 40
33.34526373195439
 40
41.63782691759258
 40
47.73147479100489
 40
51.48905609367757
 40
51.48905609367757
 40
51.48905609367757
 40
51.48905609367757
 10
500.8859342539499
 20
484.9263220569567
 30
0.0
 10
501.7415366423494
 20
484.4323396634435
 30
0.0
 10
503.9726496897391
 20
482.9309815371361
 30
0.0
 10
507.9955448685333
 20
479.1820977297117
 30
0.0
 10
512.189145789102
 20
473.3013182955127
 30
0.0
 10
515.3779552101711
 20
465.9680069299962
 30
0.0
 10
516.7007184852705
 20
458.7218547648329
 30
0.0
 10
515.8966263560435
 20
452.907427420273
 30
0.0
 10
513.8602755060122
 20
449.510284837904
 30
0.0
 10
512.2889177920493
 20
448.2630765033799
 30
0.0
 10
511.6359327460546
 20
447.8860753733017
 30
0.0
  0
ARC
  5
240
330
205
100
AcDbEntity
  8
0
  6
Continuous
 62
     0
370
    30
100
AcDbCircle
 10
492.264754
 20
470.278528
 30
0.0
 40
16.99654746705365
100
AcDbArc
 50
59.52042
 51
74.233942
  0
LINE
  5
241
330
205
100
AcDbEntity
  8
0
  6
Continuous
 62
     0
370
    30
100
AcDbLine
 10
494.209075
 20
437.824674
 30
0.0
 11
511.635933
 21
447.886075
 31
0.0
  0
LINE
  5
242
330
205
100
AcDbEntity
  8
0
  6
Continuous
 62
     0
370
    30
100
AcDbLine
 10
473.421299
 20
476.62967
 30
0.0
 11
483.907978
 21
482.684157
 31
0.0
  0
SPLINE
  5
243
330
205
100
AcDbEntity
  8
0
  6
Continuous
 62
     0
370
    30
100
AcDbSpline
210
0.0
220
0.0
230
1.0
 70
     8
 71
     3
 72
    11
 73
     7
 74
     0
 42
0.0
 43
0.0
 40
17.65491075341988
 40
17.65491075341988
 40
17.65491075341988
 40
17.65491075341988
 40
17.74230589009743
 40
18.99714629575569
 40
20.14710018845693
 40
22.13160281073323
 40
22.13160281073323
 40
22.13160281073323
 40
22.13160281073323
 10
483.4068614516389
 20
480.3604043947767
 30
0.0
 10
483.4068425104534
 20
480.3604214936698
 30
0.0
 10
483.4100931766144
 20
480.3646073304242
 30
0.0
 10
483.5166515555411
 20
480.4876122378483
 30
0.0
 10
483.8113299780259
 20
481.0640715904694
 30
0.0
 10
483.9289066016104
 20
481.7078403029034
 30
0.0
 10
483.9205802792488
 20
482.098380884078
 30
0.0
  0
LINE
  5
244
330
205
100
AcDbEntity
  8
0
  6
Continuous
 62
     0
370
    30
100
AcDbLine
 10
483.883382
 20
483.834618
 30
0.0
 11
483.920501
 21
482.098414
 31
0.0
  0
LINE
  5
245
330
205
100
AcDbEntity
  8
0
  6
Continuous
 62
     0
370
    30
100
AcDbLine
 10
496.882391
 20
483.834617
 30
0.0
 11
496.844177
 21
482.047231
 31
0.0
  0
ELLIPSE
  5
246
330
205
100
AcDbEntity
  8
0
  6
Continuous
 62
     0
370
     0
100
AcDbEllipse
 10
451.421299
 20
376.470825
 30
0.0
 11
-27.0
 21
0.0
 31
0.0
210
0.0
220
0.0
230
1.0
 40
0.57735
 41
5.68134268981466
 42
8.448687043498577
  0
ELLIPSE
  5
247
330
205
100
AcDbEntity
  8
0
  6
Continuous
 62
     0
370
     0
100
AcDbEllipse
 10
451.421299
 20
376.470825
 30
0.0
 11
-27.0
 21
0.0
 31
0.0
210
0.0
220
0.0
230
1.0
 40
0.57735
 41
2.165501736318991
 42
3.743435253675346
  0
ELLIPSE
  5
248
330
205
100
AcDbEntity
  8
0
  6
Continuous
 62
     0
370
     0
100
AcDbEllipse
 10
451.421299
 20
371.980094
 30
0.0
 11
-30.0
 21
0.0
 31
0.0
210
0.0
220
0.0
230
1.0
 40
0.57735
 41
6.283185298539899
 42
8.448687043498577
  0
ELLIPSE
  5
249
330
205
100
AcDbEntity
  8
0
  6
Continuous
 62
     0
370
     0
100
AcDbEllipse
 10
451.421299
 20
371.980094
 30
0.0
 11
-30.0
 21
0.0
 31
0.0
210
0.0
220
0.0
230
1.0
 40
0.57735
 41
2.165501736318991
 42
3.141592644950105
  0
ELLIPSE
  5
24A
330
205
100
AcDbEntity
  8
0
  6
Continuous
 62
     0
370
     0
100
AcDbEllipse
 10
451.421299
 20
376.062577
 30
0.0
 11
-30.0
 21
0.0
 31
0.0
210
0.0
220
0.0
230
1.0
 40
0.57735
 41
2.165501736318991
 42
3.144255229841147
  0
ELLIPSE
  5
24B
330
205
100
AcDbEntity
  8
0
  6
Continuous
 62
     0
370
     0
100
AcDbEllipse
 10
451.421299
 20
376.062577
 30
0.0
 11
-30.0
 21
0.0
 31
0.0
210
0.0
220
0.0
230
1.0
 40
0.57735
 41
6.272843835037387
 42
8.448687043498577
  0
ELLIPSE
  5
24C
330
205
100
AcDbEntity
  8
0
  6
Continuous
 62
     0
370
     0
100
AcDbEllipse
 10
451.421299
 20
376.470825
 30
0.0
 11
-29.5
 21
0.0
 31
0.0
210
0.0
220
0.0
230
1.0
 40
0.57735
 41
5.571012861585292
 42
8.448687043498577
  0
ELLIPSE
  5
24D
330
205
100
AcDbEntity
  8
0
  6
Continuous
 62
     0
370
     0
100
AcDbEllipse
 10
451.421299
 20
376.470825
 30
0.0
 11
-29.5
 21
0.0
 31
0.0
210
0.0
220
0.0
230
1.0
 40
0.57735
 41
2.165501736318991
 42
3.853765081904712
  0
SPLINE
  5
24E
330
205
100
AcDbEntity
  8
0
  6
Continuous
 62
     0
370
    30
100
AcDbSpline
210
0.0
220
0.0
230
1.0
 70
     8
 71
     3
 72
    19
 73
    15
 74
     0
 42
0.0
 43
0.0
 40
0.0
 40
0.0
 40
0.0
 40
0.0
 40
5.008419750291293
 40
13.01691180164012
 40
22.69982874197278
 40
31.51526435782112
 40
39.40623550412077
 40
47.28770900161565
 40
55.15691031453166
 40
63.03443301896423
 40
72.04304352611442
 40
81.56010593724045
 40
89.09896267775846
 40
93.84829866228708
 40
93.84829866228708
 40
93.84829866228708
 40
93.84829866228708
 10
481.4212932819203
 20
371.9807994088263
 30
0.0
 10
481.4212932675175
 20
370.9869674097925
 30
0.0
 10
481.0460074422788
 20
368.3953635880722
 30
0.0
 10
478.7279278219899
 20
364.0874324723661
 30
0.0
 10
473.6463347474901
 20
359.768866784238
 30
0.0
 10
466.6231567433105
 20
356.5916072906974
 30
0.0
 10
458.9522984529084
 20
354.798176276535
 30
0.0
 10
451.0595276643469
 20
354.2479885690429
 30
0.0
 10
443.1964709699972
 20
354.9074263477206
 30
0.0
 10
435.5483535489933
 20
356.8178617039128
 30
0.0
 10
428.664816923932
 20
360.1063704848725
 30
0.0
 10
423.8662775693734
 20
364.4311491309901
 30
0.0
 10
421.7579934474269
 20
368.5895441472011
 30
0.0
 10
421.4213137262583
 20
371.0358816823236
 30
0.0
 10
421.4213137625138
 20
371.9784313481579
 30
0.0
  0
SPLINE
  5
24F
330
205
100
AcDbEntity
  8
0
  6
Continuous
 62
     0
370
    30
100
AcDbSpline
210
0.0
220
0.0
230
1.0
 70
     8
 71
     3
 72
    10
 73
     6
 74
     0
 42
0.0
 43
0.0
 40
0.0
 40
0.0
 40
0.0
 40
0.0
 40
5.008496504567288
 40
13.02191349700404
 40
21.73502101363708
 40
21.73502101363708
 40
21.73502101363708
 40
21.73502101363708
 10
481.4212932819203
 20
376.0632823134649
 30
0.0
 10
481.4212932963233
 20
377.0571276473102
 30
0.0
 10
481.0452291289502
 20
379.6497878501083
 30
0.0
 10
478.8251354002409
 20
383.7745608742209
 30
0.0
 10
475.6981976713096
 20
386.5232276589184
 30
0.0
 10
473.7571199350836
 20
387.7869683934982
 30
0.0
  0
SPLINE
  5
250
330
205
100
AcDbEntity
  8
0
  6
Continuous
 62
     0
370
    30
100
AcDbSpline
210
0.0
220
0.0
230
1.0
 70
     8
 71
     3
 72
    10
 73
     6
 74
     0
 42
0.0
 43
0.0
 40
0.0
 40
0.0
 40
0.0
 40
0.0
 40
5.007217914023217
 40
13.0131045163776
 40
21.74016779893708
 40
21.74016779893708
 40
21.74016779893708
 40
21.74016779893708
 10
421.4213137625138
 20
376.0609142629989
 30
0.0
 10
421.4213137769132
 20
377.0545223880208
 30
0.0
 10
421.7959377208351
 20
379.6452059081293
 30
0.0
 10
424.0157480372778
 20
383.7716280160626
 30
0.0
 10
427.1399703920815
 20
386.521521046109
 30
0.0
 10
429.0854619431808
 20
387.7874806941184
 30
0.0
  0
LINE
  5
251
330
205
100
AcDbEntity
  8
0
  6
Continuous
 62
     0
370
    30
100
AcDbLine
 10
421.421299
 20
371.980094
 30
0.0
 11
421.421299
 21
376.062577
 31
0.0
  0
LINE
  5
252
330
205
100
AcDbEntity
  8
0
  6
Continuous
 62
     0
370
    30
100
AcDbLine
 10
481.421299
 20
371.980094
 30
0.0
 11
481.421299
 21
376.062577
 31
0.0
  0
ELLIPSE
  5
253
330
205
100
AcDbEntity
  8
0
  6
Continuous
 62
     0
370
     0
100
AcDbEllipse
 10
428.852148
 20
422.309593
 30
0.0
 11
1.250000056244421
 21
2.165063476988364
 31
0.0
210
0.0
220
0.0
230
0.9999999999999999
 40
0.57735
 41
2.356194505190856
 42
3.141592630739634
  0
ELLIPSE
  5
254
330
205
100
AcDbEntity
  8
0
  6
Continuous
 62
     0
370
     0
100
AcDbEllipse
 10
428.852148
 20
422.309593
 30
0.0
 11
1.250000056244421
 21
2.165063476988364
 31
0.0
210
0.0
220
0.0
230
0.9999999999999999
 40
0.57735
 41
0.7462704008078178
 42
2.356194505190856
  0
ELLIPSE
  5
255
330
205
100
AcDbEntity
  8
0
  6
Continuous
 62
     0
370
    30
100
AcDbEllipse
 10
438.45386
 20
134.275955
 30
0.0
 11
1.74810233994316
 21
-0.08147520534034168
 31
0.0
210
0.0
220
0.0
230
-0.9999999999999997
 40
0.606775
 41
0.868476973931646
 42
2.32860727042788
  0
ELLIPSE
  5
256
330
205
100
AcDbEntity
  8
0
  6
Continuous
 62
     0
370
    30
100
AcDbEllipse
 10
438.481615
 20
134.871463
 30
0.0
 11
2.497289057061657
 21
-0.1163931504862024
 31
0.0
210
0.0
220
0.0
230
-1.0
 40
0.606775
 41
0.0000000103654599
 42
2.328607270427894
  0
ELLIPSE
  5
257
330
205
100
AcDbEntity
  8
0
  6
Continuous
 62
     0
370
    30
100
AcDbEllipse
 10
438.481615
 20
134.871463
 30
0.0
 11
2.497289057061657
 21
-0.1163931504862024
 31
0.0
210
0.0
220
0.0
230
-1.0
 40
0.606775
 41
2.328607270427894
 42
3.141592663955273
  0
ELLIPSE
  5
258
330
205
100
AcDbEntity
  8
0
  6
Continuous
 62
     0
370
     0
100
AcDbEllipse
 10
421.784439
 20
426.390137
 30
0.0
 11
1.250000056244421
 21
2.165063476988364
 31
0.0
210
0.0
220
0.0
230
0.9999999999999999
 40
0.57735
 41
2.356194505190856
 42
3.141592630739636
  0
ELLIPSE
  5
259
330
205
100
AcDbEntity
  8
0
  6
Continuous
 62
     0
370
     0
100
AcDbEllipse
 10
421.784439
 20
426.390137
 30
0.0
 11
1.250000056244421
 21
2.165063476988364
 31
0.0
210
0.0
220
0.0
230
0.9999999999999999
 40
0.57735
 41
6.283185284329429
 42
8.63937981237043
  0
SPLINE
  5
25A
330
205
100
AcDbEntity
  8
0
  6
Continuous
 62
     0
370
    30
100
AcDbSpline
210
0.0
220
0.0
230
1.0
 70
     8
 71
     3
 72
    12
 73
     8
 74
     0
 42
0.0
 43
0.0
 40
0.0
 40
0.0
 40
0.0
 40
0.0
 40
0.7346996491148331
 40
1.653477552454127
 40
3.687886908588909
 40
4.478732178767673
 40
5.259212403301918
 40
5.259212403301918
 40
5.259212403301918
 40
5.259212403301918
 10
423.0344201539198
 20
428.5552115787413
 30
0.0
 10
422.830435997873
 20
428.6729818981362
 30
0.0
 10
422.3121788227757
 20
428.8496965319178
 30
0.0
 10
421.1077671593328
 20
428.7283332346043
 30
0.0
 10
420.1395900436574
 20
427.8534783471105
 30
0.0
 10
419.6550511020157
 20
426.7421310300674
 30
0.0
 10
419.5773317466604
 20
426.2327669052519
 30
0.0
 10
419.5773318400026
 20
425.981888210426
 30
0.0
  0
ARC
  5
25B
330
205
100
AcDbEntity
  8
0
  6
Continuous
 62
     0
370
    30
100
AcDbCircle
 10
421.557895
 20
425.921754
 30
0.0
 40
1.981475885931462
100
AcDbArc
 50
178.260891
 51
238.879202
  0
LINE
  5
25C
330
205
100
AcDbEntity
  8
0
  6
Continuous
 62
     0
370
    30
100
AcDbLine
 10
420.534439
 20
424.225074
 30
0.0
 11
427.602148
 21
420.14453
 31
0.0
  0
LINE
  5
25D
330
205
100
AcDbEntity
  8
0
  6
Continuous
 62
     0
370
    30
100
AcDbLine
 10
423.034439
 20
428.555201
 30
0.0
 11
428.921299
 21
425.15642
 31
0.0
  0
LINE
  5
25E
330
205
100
AcDbEntity
  8
0
  6
Continuous
 62
     0
370
    30
100
AcDbLine
 10
436.812245
 20
133.791323
 30
0.0
 11
437.285252
 21
133.519884
 31
0.0
  0
LINE
  5
25F
330
205
100
AcDbEntity
  8
0
  6
Continuous
 62
     0
370
    30
100
AcDbLine
 10
440.041428
 20
133.639848
 30
0.0
 11
439.545737
 21
133.413827
 31
0.0
  0
LINE
  5
260
330
205
100
AcDbEntity
  8
0
  6
Continuous
 62
     0
370
    30
100
AcDbLine
 10
446.225194
 20
354.712192
 30
0.0
 11
435.984326
 21
134.987857
 31
0.0
  0
LINE
  5
261
330
205
100
AcDbEntity
  8
0
  6
Continuous
 62
     0
370
    30
100
AcDbLine
 10
451.218341
 20
354.448682
 30
0.0
 11
440.978904
 21
134.75507
 31
0.0
  0
ARC
  5
262
330
205
100
AcDbEntity
  8
0
  6
Continuous
 62
     0
370
    30
100
AcDbCircle
 10
425.062197
 20
416.071742
 30
0.0
 40
4.799891034903322
100
AcDbArc
 50
36.486406
 51
58.050706
  0
ELLIPSE
  5
263
330
205
100
AcDbEntity
  8
0
  6
Continuous
 62
     0
370
     0
100
AcDbEllipse
 10
451.421299
 20
558.672032
 30
0.0
 11
11.0
 21
0.0
 31
0.0
210
0.0
220
0.0
230
-1.0
 40
0.57735
 41
2.356194490192345
 42
3.141597942616591
  0
ELLIPSE
  5
264
330
205
100
AcDbEntity
  8
0
  6
Continuous
 62
     0
370
     0
100
AcDbEllipse
 10
451.421299
 20
558.672032
 30
0.0
 11
11.0
 21
0.0
 31
0.0
210
0.0
220
0.0
230
-1.0
 40
0.57735
 41
6.28318475264496
 42
8.63937979737193
  0
ELLIPSE
  5
265
330
205
100
AcDbEntity
  8
0
  6
Continuous
 62
     0
370
     0
100
AcDbEllipse
 10
578.70052
 20
485.18734
 30
0.0
 11
-11.0
 21
0.0
 31
0.0
210
0.0
220
0.0
230
1.0
 40
0.57735
 41
0.7853981633974481
 42
3.141594136107464
  0
ELLIPSE
  5
266
330
205
100
AcDbEntity
  8
0
  6
Continuous
 62
     0
370
     0
100
AcDbEllipse
 10
578.70052
 20
485.18734
 30
0.0
 11
-11.0
 21
0.0
 31
0.0
210
0.0
220
0.0
230
1.0
 40
0.57735
 41
6.283185298539896
 42
7.068583470577034
  0
ELLIPSE
  5
267
330
205
100
AcDbEntity
  8
0
  6
Continuous
 62
     0
370
    30
100
AcDbEllipse
 10
578.70052
 20
465.591422
 30
0.0
 11
-11.0
 21
0.0
 31
0.0
210
0.0
220
0.0
230
1.0
 40
0.57735
 41
0.7853981633974481
 42
3.141592644950105
  0
ELLIPSE
  5
268
330
205
100
AcDbEntity
  8
0
  6
Continuous
 62
     0
370
    30
100
AcDbEllipse
 10
578.70052
 20
465.591422
 30
0.0
 11
-11.0
 21
0.0
 31
0.0
210
0.0
220
0.0
230
1.0
 40
0.57735
 41
6.283185298539899
 42
7.068583470577034
  0
LINE
  5
269
330
205
100
AcDbEntity
  8
0
  6
Continuous
 62
     0
370
    30
100
AcDbLine
 10
589.70052
 20
465.591422
 30
0.0
 11
589.70052
 21
485.18734
 31
0.0
  0
LINE
  5
26A
330
205
100
AcDbEntity
  8
0
  6
Continuous
 62
     0
370
    30
100
AcDbLine
 10
567.70052
 20
465.591422
 30
0.0
 11
567.70052
 21
485.18734
 31
0.0
  0
SPLINE
  5
26B
330
205
100
AcDbEntity
  8
0
  6
Continuous
 62
     0
370
    30
100
AcDbSpline
210
0.0
220
0.0
230
1.0
 70
     8
 71
     3
 72
    22
 73
    18
 74
     0
 42
0.0
 43
0.0
 40
0.0
 40
0.0
 40
0.0
 40
0.0
 40
19.28754060164516
 40
48.67547227202304
 40
68.43149791504001
 40
93.07075306855809
 40
115.5101789494239
 40
135.8504612220493
 40
163.6048644880698
 40
182.2780553148712
 40
206.1320631804619
 40
226.7617355335752
 40
243.586677857147
 40
264.3943026423261
 40
279.0958313067514
 40
294.2318774785115
 40
309.602799857208
 40
309.602799857208
 40
309.602799857208
 40
309.602799857208
 10
589.7005195942913
 20
485.1873400264002
 30
0.0
 10
589.7005195974065
 20
490.6290918174713
 30
0.0
 10
588.528184246634
 20
504.9038605089715
 30
0.0
 10
582.8911016433522
 20
525.9782902717224
 30
0.0
 10
572.9546907563517
 20
548.3507840206563
 30
0.0
 10
561.1996649604106
 20
567.453070037104
 30
0.0
 10
547.0618028645014
 20
584.3838234607472
 30
0.0
 10
530.7622599750499
 20
599.0445889656669
 30
0.0
 10
514.3663259112625
 20
609.0122076550333
 30
0.0
 10
496.9139248667092
 20
614.7984172049192
 30
0.0
 10
481.457754098998
 20
615.7280432060979
 30
0.0
 10
467.5632873228278
 20
611.7397692398162
 30
0.0
 10
456.3046985355818
 20
604.0836571966447
 30
0.0
 10
448.6288121480495
 20
594.2659799463297
 30
0.0
 10
443.6542632891175
 20
582.8019187992068
 30
0.0
 10
441.0069979316111
 20
571.3832642241756
 30
0.0
 10
440.4213005014082
 20
563.0111222290485
 30
0.0
 10
440.4212989808667
 20
558.6720659545964
 30
0.0
  0
SPLINE
  5
26C
330
205
100
AcDbEntity
  8
0
  6
Continuous
 62
     0
370
    30
100
AcDbSpline
210
0.0
220
0.0
230
1.0
 70
     8
 71
     3
 72
    26
 73
    22
 74
     0
 42
0.0
 43
0.0
 40
0.0
 40
0.0
 40
0.0
 40
0.0
 40
7.110774186891152
 40
18.24440616097122
 40
44.72551505729333
 40
53.82961177976775
 40
68.73828297247606
 40
83.61676655533802
 40
109.8422492653761
 40
123.8190353851865
 40
145.3863333182731
 40
155.561899369813
 40
161.464942705524
 40
176.5581932794891
 40
188.8786083048114
 40
201.3645258956172
 40
216.9994776110913
 40
223.562250924841
 40
235.5165422760942
 40
249.9558750127578
 40
258.3300895589419
 40
258.3300895589419
 40
258.3300895589419
 40
258.3300895589419
 10
567.7005195942913
 20
485.1873401361389
 30
0.0
 10
567.700519592925
 20
487.026377811704
 30
0.0
 10
567.5237541974768
 20
491.8872325009377
 30
0.0
 10
565.9594050808599
 20
504.5250422772764
 30
0.0
 10
561.8680815582223
 20
518.7638390831451
 30
0.0
 10
555.2185972330124
 20
533.995268346484
 30
0.0
 10
549.035434331278
 20
545.4404269313587
 30
0.0
 10
538.539204194235
 20
560.8364273316317
 30
0.0
 10
526.5530107250067
 20
573.7563601959786
 30
0.0
 10
512.5038685860545
 20
584.614750148178
 30
0.0
 10
502.2286685485601
 20
589.9521232274533
 30
0.0
 10
494.526630849484
 20
592.2014902424391
 30
0.0
 10
488.5960361641104
 20
593.2041520099981
 30
0.0
 10
482.981256154669
 20
593.1240193347529
 30
0.0
 10
477.4839909928705
 20
591.5575517180115
 30
0.0
 10
472.7842005889768
 20
588.7675588682093
 30
0.0
 10
469.3208317197287
 20
585.0208051692556
 30
0.0
 10
466.4126410081841
 20
580.0435274602245
 30
0.0
 10
464.1112329905164
 20
574.1904647849994
 30
0.0
 10
462.6810213599953
 20
566.5364268146645
 30
0.0
 10
462.4212989791075
 20
560.8374990756737
 30
0.0
 10
462.4212989807128
 20
558.6720323100133
 30
0.0
  0
LINE
  5
26D
330
205
100
AcDbEntity
  8
0
  6
Continuous
 62
     0
370
    30
100
AcDbLine
 10
440.421299
 20
558.672032
 30
0.0
 11
440.421299
 21
482.070195
 31
0.0
  0
LINE
  5
26E
330
205
100
AcDbEntity
  8
0
  6
Continuous
 62
     0
370
    30
100
AcDbLine
 10
462.421299
 20
558.672032
 30
0.0
 11
462.421299
 21
482.070195
 31
0.0
  0
ELLIPSE
  5
26F
330
205
100
AcDbEntity
  8
0
  6
Continuous
 62
     0
370
    30
100
AcDbEllipse
 10
451.421299
 20
481.064033
 30
0.0
 11
-11.25
 21
0.0
 31
0.0
210
0.0
220
0.0
230
1.0
 40
0.57735
 41
6.07197441818057
 42
6.099884151425982
  0
ELLIPSE
  5
270
330
205
100
AcDbEntity
  8
0
  6
Continuous
 62
     0
370
    30
100
AcDbEllipse
 10
451.421299
 20
481.064033
 30
0.0
 11
-11.25
 21
0.0
 31
0.0
210
0.0
220
0.0
230
1.0
 40
0.57735
 41
3.324893792064016
 42
3.352803525309138
  0
ELLIPSE
  5
271
330
205
100
AcDbEntity
  8
0
  6
Continuous
 62
     0
370
    30
100
AcDbEllipse
 10
451.421299
 20
482.615376
 30
0.0
 11
-11.25
 21
0.0
 31
0.0
210
0.0
220
0.0
230
1.0
 40
0.57735
 41
3.204488036688409
 42
3.352803525309136
  0
ELLIPSE
  5
272
330
205
100
AcDbEntity
  8
0
  6
Continuous
 62
     0
370
    30
100
AcDbEllipse
 10
451.421299
 20
482.615376
 30
0.0
 11
-11.25
 21
0.0
 31
0.0
210
0.0
220
0.0
230
1.0
 40
0.57735
 41
6.071974418180572
 42
6.220289906801589
  0
ELLIPSE
  5
273
330
205
100
AcDbEntity
  8
0
  6
Continuous
 62
     0
370
    30
100
AcDbEllipse
 10
451.421299
 20
483.431873
 30
0.0
 11
-11.25
 21
0.0
 31
0.0
210
0.0
220
0.0
230
1.0
 40
0.57735
 41
2.606811293971979
 42
3.352803525309136
  0
ELLIPSE
  5
274
330
205
100
AcDbEntity
  8
0
  6
Continuous
 62
     0
370
    30
100
AcDbEllipse
 10
451.421299
 20
483.431873
 30
0.0
 11
-11.25
 21
0.0
 31
0.0
210
0.0
220
0.0
230
1.0
 40
0.57735
 41
6.071974418180574
 42
8.889996601151566
  0
ELLIPSE
  5
275
330
205
100
AcDbEntity
  8
0
  6
Continuous
 62
     0
370
     0
100
AcDbEllipse
 10
451.421299
 20
483.431873
 30
0.0
 11
-21.5
 21
0.0
 31
0.0
210
0.0
220
0.0
230
1.0
 40
0.57735
 41
5.249467357438626
 42
5.748403947561769
  0
ELLIPSE
  5
276
330
205
100
AcDbEntity
  8
0
  6
Continuous
 62
     0
370
     0
100
AcDbEllipse
 10
451.421299
 20
483.431873
 30
0.0
 11
-21.5
 21
0.0
 31
0.0
210
0.0
220
0.0
230
1.0
 40
0.57735
 41
2.606811293971979
 42
4.175310586051339
  0
ELLIPSE
  5
277
330
205
100
AcDbEntity
  8
0
  6
Continuous
 62
     0
370
     0
100
AcDbEllipse
 10
451.421299
 20
483.431873
 30
0.0
 11
-21.5
 21
0.0
 31
0.0
210
0.0
220
0.0
230
1.0
 40
0.57735
 41
5.748403947561773
 42
8.889996601151566
  0
ELLIPSE
  5
278
330
205
100
AcDbEntity
  8
0
  6
Continuous
 62
     0
370
     0
100
AcDbEllipse
 10
451.421299
 20
483.023624
 30
0.0
 11
-22.0
 21
0.0
 31
0.0
210
0.0
220
0.0
230
1.0
 40
0.57735
 41
2.606811293971979
 42
3.153975731114197
  0
ELLIPSE
  5
279
330
205
100
AcDbEntity
  8
0
  6
Continuous
 62
     0
370
     0
100
AcDbEllipse
 10
451.421299
 20
483.023624
 30
0.0
 11
-22.0
 21
0.0
 31
0.0
210
0.0
220
0.0
230
1.0
 40
0.57735
 41
6.269936603224567
 42
8.889996601151566
  0
ELLIPSE
  5
27A
330
205
100
AcDbEntity
  8
0
  6
Continuous
 62
     0
370
    30
100
AcDbEllipse
 10
451.421299
 20
465.713897
 30
0.0
 11
-22.0
 21
0.0
 31
0.0
210
0.0
220
0.0
230
1.0
 40
0.57735
 41
2.606811293971979
 42
3.141592644950105
  0
ELLIPSE
  5
27B
330
205
100
AcDbEntity
  8
0
  6
Continuous
 62
     0
370
    30
100
AcDbEllipse
 10
451.421299
 20
465.713897
 30
0.0
 11
-22.0
 21
0.0
 31
0.0
210
0.0
220
0.0
230
1.0
 40
0.57735
 41
6.283185298539899
 42
8.889996601151566
  0
ELLIPSE
  5
27C
330
205
100
AcDbEntity
  8
0
  6
Continuous
 62
     0
370
    30
100
AcDbEllipse
 10
451.421299
 20
465.468948
 30
0.0
 11
-21.69999998807907
 21
0.0
 31
0.0
210
0.0
220
0.0
230
1.0
 40
0.57735
 41
0.7785094401672097
 42
2.363083196143223
  0
LINE
  5
27D
330
205
100
AcDbEntity
  8
0
  6
Continuous
 62
     0
370
    30
100
AcDbLine
 10
473.421299
 20
465.713897
 30
0.0
 11
473.421299
 21
483.023624
 31
0.0
  0
LINE
  5
27E
330
205
100
AcDbEntity
  8
0
  6
Continuous
 62
     0
370
    30
100
AcDbLine
 10
429.421299
 20
465.713897
 30
0.0
 11
429.421299
 21
483.023625
 31
0.0
  0
SPLINE
  5
27F
330
205
100
AcDbEntity
  8
0
  6
Continuous
 62
     0
370
    30
100
AcDbSpline
210
0.0
220
0.0
230
1.0
 70
     8
 71
     3
 72
    12
 73
     8
 74
     0
 42
0.0
 43
0.0
 40
45.88044827786625
 40
45.88044827786625
 40
45.88044827786625
 40
45.88044827786625
 40
46.21433530191725
 40
52.83197543953683
 40
59.75328016514409
 40
65.27868758071031
 40
68.72116058967798
 40
68.72116058967798
 40
68.72116058967798
 40
68.72116058967798
 10
462.4212991434916
 20
494.2171497869382
 30
0.0
 10
462.5176978973413
 20
494.1846592220907
 30
0.0
 10
464.5158990725444
 20
493.4992400782623
 30
0.0
 10
468.1269256035537
 20
491.761315735975
 30
0.0
 10
471.6349216111123
 20
488.5798087418963
 30
0.0
 10
473.1755214693108
 20
485.5217244218767
 30
0.0
 10
473.4212203377047
 20
483.7153661307217
 30
0.0
 10
473.4212203129549
 20
483.024590886467
 30
0.0
  0
SPLINE
  5
280
330
205
100
AcDbEntity
  8
0
  6
Continuous
 62
     0
370
    30
100
AcDbSpline
210
0.0
220
0.0
230
1.0
 70
     8
 71
     3
 72
    11
 73
     7
 74
     0
 42
0.0
 43
0.0
 40
0.0
 40
0.0
 40
0.0
 40
0.0
 40
3.684081624716237
 40
9.552868407114593
 40
16.64052032707357
 40
22.84335554295348
 40
22.84335554295348
 40
22.84335554295348
 40
22.84335554295348
 10
429.4213539332864
 20
483.0229000231419
 30
0.0
 10
429.421353943878
 20
483.7620430851681
 30
0.0
 10
429.7008068751924
 20
485.6865028900306
 30
0.0
 10
431.4179889678831
 20
488.8696911949927
 30
0.0
 10
435.1067559087127
 20
492.001338688867
 30
0.0
 10
438.6305866317562
 20
493.6133855845895
 30
0.0
 10
440.4212991434905
 20
494.217098743604
 30
0.0
  0
ELLIPSE
  5
281
330
205
100
AcDbEntity
  8
0
  6
Continuous
 62
     0
370
     0
100
AcDbEllipse
 10
578.70052
 20
449.424788
 30
0.0
 11
11.00000000000004
 21
6.106226635438385E-16
 31
0.0
210
0.0
220
0.0
230
-1.0
 40
0.57735
 41
0.2283863609964667
 42
3.141592662229476
  0
ELLIPSE
  5
282
330
205
100
AcDbEntity
  8
0
  6
Continuous
 62
     0
370
     0
100
AcDbEllipse
 10
578.70052
 20
449.424788
 30
0.0
 11
11.00000000000004
 21
6.106226635438385E-16
 31
0.0
210
0.0
220
0.0
230
-1.0
 40
0.57735
 41
0.000000008639685
 42
0.2283863609964667
  0
SPLINE
  5
283
330
205
100
AcDbEntity
  8
0
  6
Continuous
 62
     0
370
    30
100
AcDbSpline
210
0.0
220
0.0
230
1.0
 70
     8
 71
     3
 72
    15
 73
    11
 74
     0
 42
0.0
 43
0.0
 40
2.434358749877681
 40
2.434358749877681
 40
2.434358749877681
 40
2.434358749877681
 40
2.990549046296433
 40
8.774334492632528
 40
13.97560352361337
 40
18.78472267887643
 40
23.00031048694553
 40
28.13090754454074
 40
32.20169619240398
 40
34.39351728639078
 40
34.39351728639078
 40
34.39351728639078
 40
34.39351728639078
 10
589.4234117500705
 20
447.9835977092419
 30
0.0
 10
589.3815036995111
 20
447.8758757188436
 30
0.0
 10
588.8503971279878
 20
446.6564914498598
 30
0.0
 10
586.786624168449
 20
444.6596663285518
 30
0.0
 10
582.112469576727
 20
443.0688856479952
 30
0.0
 10
577.2684142259375
 20
442.8601326258585
 30
0.0
 10
572.7295387229711
 20
443.7827056300362
 30
0.0
 10
569.400693599966
 20
445.6287148984084
 30
0.0
 10
567.9170493383126
 20
447.7381883237684
 30
0.0
 10
567.7005202068169
 20
448.9884779431186
 30
0.0
 10
567.7005198854467
 20
449.4247847022436
 30
0.0
  0
LINE
  5
284
330
205
100
AcDbEntity
  8
0
  6
Continuous
 62
     0
370
    30
100
AcDbLine
 10
589.70052
 20
465.59142
 30
0.0
 11
589.70052
 21
449.424787
 31
0.0
  0
LINE
  5
285
330
205
100
AcDbEntity
  8
0
  6
Continuous
 62
     0
370
    30
100
AcDbLine
 10
567.70052
 20
465.59142
 30
0.0
 11
567.70052
 21
449.424788
 31
0.0
  0
ARC
  5
286
330
205
100
AcDbEntity
  8
0
  6
Continuous
 62
     0
370
    30
100
AcDbCircle
 10
477.314168
 20
453.52031
 30
0.0
 40
20.43303566240165
100
AcDbArc
 50
322.358678
 51
327.928763
  0
LINE
  5
287
330
205
100
AcDbEntity
  8
0
  6
Continuous
 62
     0
370
    30
100
AcDbLine
 10
498.211888
 20
449.711174
 30
0.0
 11
498.463423
 21
449.85641
 31
0.0
  0
ARC
  5
288
330
205
100
AcDbEntity
  8
0
  6
Continuous
 62
     0
370
    30
100
AcDbCircle
 10
473.297051
 20
447.519041
 30
0.0
 40
25.27468239471616
100
AcDbArc
 50
5.306219
 51
9.049482
  0
LINE
  5
289
330
205
100
AcDbEntity
  8
0
  6
Continuous
 62
     0
370
    30
100
AcDbLine
 10
498.257136
 20
451.49443
 30
0.0
 11
498.035698
 21
451.366583
 31
0.0
  0
ARC
  5
28A
330
205
100
AcDbEntity
  8
0
  6
Continuous
 62
     0
370
    30
100
AcDbCircle
 10
472.661212
 20
447.337206
 30
0.0
 40
25.69242041089763
100
AcDbArc
 50
6.117315
 51
9.023024
  0
ARC
  5
28B
330
205
100
AcDbEntity
  8
0
  6
Continuous
 62
     0
370
    30
100
AcDbCircle
 10
461.249556
 20
339.371473
 30
0.0
 40
116.7097775849379
100
AcDbArc
 50
71.538706
 51
72.320162
  0
LINE
  5
28C
330
205
100
AcDbEntity
  8
0
  6
Continuous
 62
     0
370
    30
100
AcDbLine
 10
496.694059
 20
450.568862
 30
0.0
 11
496.445135
 21
450.425153
 31
0.0
  0
ARC
  5
28D
330
205
100
AcDbEntity
  8
0
  6
Continuous
 62
     0
370
    30
100
AcDbCircle
 10
471.470319
 20
446.469089
 30
0.0
 40
25.28619873109421
100
AcDbArc
 50
5.383309
 51
9.000989
  0
LINE
  5
28E
330
205
100
AcDbEntity
  8
0
  6
Continuous
 62
     0
370
    30
100
AcDbLine
 10
496.644989
 20
448.841397
 30
0.0
 11
496.866278
 21
448.969161
 31
0.0
  0
ARC
  5
28F
330
205
100
AcDbEntity
  8
0
  6
Continuous
 62
     0
370
    30
100
AcDbCircle
 10
453.209415
 20
313.301296
 30
0.0
 40
143.6414885660139
100
AcDbArc
 50
71.741953
 51
72.367313
  0
LINE
  5
290
330
205
100
AcDbEntity
  8
0
  6
Continuous
 62
     0
370
    30
100
AcDbLine
 10
496.408887
 20
450.647668
 30
0.0
 11
496.357385
 21
450.947835
 31
0.0
  0
LINE
  5
291
330
205
100
AcDbEntity
  8
0
  6
Continuous
 62
     0
370
    30
100
AcDbLine
 10
496.357385
 20
450.947835
 30
0.0
 11
497.481066
 21
451.596611
 31
0.0
  0
SPLINE
  5
292
330
205
100
AcDbEntity
  8
0
  6
Continuous
 62
     0
370
    30
100
AcDbSpline
210
0.0
220
0.0
230
1.0
 70
     8
 71
     3
 72
    10
 73
     6
 74
     0
 42
0.0
 43
0.0
 40
0.0
 40
0.0
 40
0.0
 40
0.0
 40
0.1607383031802
 40
0.3212678064986678
 40
0.4814978669279015
 40
0.4814978669279015
 40
0.4814978669279015
 40
0.4814978669279015
 10
497.4810664967331
 20
451.5966107740023
 30
0.0
 10
497.5189460792794
 20
451.618481560488
 30
0.0
 10
497.5939810110272
 20
451.6659329152973
 30
0.0
 10
497.7027185739553
 20
451.7541866754099
 30
0.0
 10
497.7643369496478
 20
451.8365684095567
 30
0.0
 10
497.7907311608696
 20
451.8812809332098
 30
0.0
  0
SPLINE
  5
293
330
205
100
AcDbEntity
  8
0
  6
Continuous
 62
     0
370
    30
100
AcDbSpline
210
0.0
220
0.0
230
1.0
 70
     8
 71
     3
 72
    14
 73
    10
 74
     0
 42
0.0
 43
0.0
 40
0.0
 40
0.0
 40
0.0
 40
0.0
 40
0.2483063195049803
 40
0.4973415118280775
 40
0.7469539897613078
 40
0.9957853863575374
 40
1.243643039570712
 40
1.492316197299791
 40
1.742344279104765
 40
1.742344279104765
 40
1.742344279104765
 40
1.742344279104765
 10
497.7907311608689
 20
451.8812809332337
 30
0.0
 10
497.8306128006454
 20
451.9515151410027
 30
0.0
 10
497.8920405057295
 20
452.1123756102969
 30
0.0
 10
497.9013736971656
 20
452.3594434598072
 30
0.0
 10
497.8580694987152
 20
452.583956857199
 30
0.0
 10
497.7675595584376
 20
452.7794183354177
 30
0.0
 10
497.604968978893
 20
452.8775551873489
 30
0.0
 10
497.4175970143885
 20
452.8519440666244
 30
0.0
 10
497.298165955502
 20
452.7908227340607
 30
0.0
 10
497.239284462744
 20
452.7566199545092
 30
0.0
  0
LINE
  5
294
330
205
100
AcDbEntity
  8
0
  6
Continuous
 62
     0
370
    30
100
AcDbLine
 10
497.239284
 20
452.75662
 30
0.0
 11
496.125543
 21
452.113583
 31
0.0
  0
LINE
  5
295
330
205
100
AcDbEntity
  8
0
  6
Continuous
 62
     0
370
    30
100
AcDbLine
 10
496.125543
 20
452.113583
 30
0.0
 11
496.061367
 21
452.398319
 31
0.0
  0
LINE
  5
296
330
205
100
AcDbEntity
  8
0
  6
Continuous
 62
     0
370
    30
100
AcDbLine
 10
496.061367
 20
452.398319
 30
0.0
 11
497.180065
 21
453.044227
 31
0.0
  0
SPLINE
  5
297
330
205
100
AcDbEntity
  8
0
  6
Continuous
 62
     0
370
    30
100
AcDbSpline
210
0.0
220
0.0
230
1.0
 70
     8
 71
     3
 72
    10
 73
     6
 74
     0
 42
0.0
 43
0.0
 40
0.0
 40
0.0
 40
0.0
 40
0.0
 40
0.2406503714594215
 40
0.4809889051886851
 40
0.7211588880530552
 40
0.7211588880530552
 40
0.7211588880530552
 40
0.7211588880530552
 10
497.1800653977111
 20
453.0442271720846
 30
0.0
 10
497.2367898938749
 20
453.0769739993384
 30
0.0
 10
497.3521080804444
 20
453.1358186896149
 30
0.0
 10
497.5306303169506
 20
453.1785547713828
 30
0.0
 10
497.6472812120366
 20
453.1664804592423
 30
0.0
 10
497.7023858575222
 20
453.149942172754
 30
0.0
  0
SPLINE
  5
298
330
205
100
AcDbEntity
  8
0
  6
Continuous
 62
     0
370
    30
100
AcDbSpline
210
0.0
220
0.0
230
1.0
 70
     8
 71
     3
 72
    14
 73
    10
 74
     0
 42
0.0
 43
0.0
 40
0.0
 40
0.0
 40
0.0
 40
0.0
 40
0.2658311356644095
 40
0.5318324899200899
 40
0.7981789482599693
 40
1.064703722663629
 40
1.331140912478703
 40
1.597255800117859
 40
1.863124513833541
 40
1.863124513833541
 40
1.863124513833541
 40
1.863124513833541
 10
497.7023858575222
 20
453.149942172754
 30
0.0
 10
497.7634365461578
 20
453.131852634683
 30
0.0
 10
497.8791728006531
 20
453.0679984777516
 30
0.0
 10
498.0085387078267
 20
452.8971568526649
 30
0.0
 10
498.0909259565702
 20
452.6796798529397
 30
0.0
 10
498.1293852761176
 20
452.4353964964137
 30
0.0
 10
498.1252719463272
 20
452.1765060447336
 30
0.0
 10
498.0709570279566
 20
451.9137477944391
 30
0.0
 10
497.9960881950793
 20
451.7504247153583
 30
0.0
 10
497.9514504021123
 20
451.6767547886888
 30
0.0
  0
SPLINE
  5
299
330
205
100
AcDbEntity
  8
0
  6
Continuous
 62
     0
370
    30
100
AcDbSpline
210
0.0
220
0.0
230
1.0
 70
     8
 71
     3
 72
    10
 73
     6
 74
     0
 42
0.0
 43
0.0
 40
0.0
 40
0.0
 40
0.0
 40
0.0
 40
0.2234824778642142
 40
0.4474133988426941
 40
0.671636863453323
 40
0.671636863453323
 40
0.671636863453323
 40
0.671636863453323
 10
497.9514504021127
 20
451.6767547886892
 30
0.0
 10
497.9135696109923
 20
451.6151846234786
 30
0.0
 10
497.8255750218198
 20
451.5025021480134
 30
0.0
 10
497.6726775196885
 20
451.3824405943949
 30
0.0
 10
497.5678533148832
 20
451.3168332746158
 30
0.0
 10
497.5150058045527
 20
451.2863254795717
 30
0.0
  0
LINE
  5
29A
330
205
100
AcDbEntity
  8
0
  6
Continuous
 62
     0
370
    30
100
AcDbLine
 10
497.515006
 20
451.286325
 30
0.0
 11
496.408887
 21
450.647668
 31
0.0
  0
SPLINE
  5
29B
330
205
100
AcDbEntity
  8
0
  6
Continuous
 62
     0
370
    30
100
AcDbSpline
210
0.0
220
0.0
230
1.0
 70
     8
 71
     3
 72
    25
 73
    21
 74
     0
 42
0.0
 43
0.0
 40
0.0
 40
0.0
 40
0.0
 40
0.0
 40
0.2754117203151599
 40
0.4117111493874385
 40
0.5484227172847349
 40
0.6882255408435608
 40
0.828517537529587
 40
1.101530130229459
 40
1.374996099329446
 40
1.654519371669829
 40
2.206611179020701
 40
2.483601928484151
 40
2.760074308334967
 40
3.036299766838877
 40
3.172821653322529
 40
3.311285244432747
 40
3.451140522921225
 40
3.589993566819079
 40
3.726555894954432
 40
3.865086221907658
 40
3.865086221907658
 40
3.865086221907658
 40
3.865086221907658
 10
496.155783231264
 20
454.2179333391994
 30
0.0
 10
496.0927563048435
 20
454.1745316767419
 30
0.0
 10
496.0064052509886
 20
454.0769125998899
 30
0.0
 10
495.9434206196797
 20
453.9058160360755
 30
0.0
 10
495.9316472110024
 20
453.7662547916064
 30
0.0
 10
495.9484746248755
 20
453.63068638908
 30
0.0
 10
496.0017786184314
 20
453.4675079178712
 30
0.0
 10
496.1216635488895
 20
453.306729285801
 30
0.0
 10
496.3241673215531
 20
453.2529619993948
 30
0.0
 10
496.5992803466724
 20
453.298746939923
 30
0.0
 10
496.8678601194233
 20
453.4329332083384
 30
0.0
 10
497.1212765933416
 20
453.6102427466046
 30
0.0
 10
497.295277022773
 20
453.7846423154672
 30
0.0
 10
497.4097257534033
 20
453.979627754263
 30
0.0
 10
497.4506665740578
 20
454.1610809258931
 30
0.0
 10
497.4530461294429
 20
454.2995595303059
 30
0.0
 10
497.43122473611
 20
454.4325468590591
 30
0.0
 10
497.3871838936114
 20
454.5530351267209
 30
0.0
 10
497.3194919729436
 20
454.6517895738662
 30
0.0
 10
497.2585171345161
 20
454.6927495054607
 30
0.0
 10
497.2258775281273
 20
454.7051304896381
 30
0.0
  0
SPLINE
  5
29C
330
205
100
AcDbEntity
  8
0
  6
Continuous
 62
     0
370
    30
100
AcDbSpline
210
0.0
220
0.0
230
1.0
 70
     8
 71
     3
 72
     8
 73
     4
 74
     0
 42
0.0
 43
0.0
 40
0.0
 40
0.0
 40
0.0
 40
0.0
 40
1.0
 40
1.0
 40
1.0
 40
1.0
 10
497.2258775281246
 20
454.7051304896484
 30
0.0
 10
497.1569416446595
 20
454.7297093796479
 30
0.0
 10
497.0786840485006
 20
454.7188077106164
 30
0.0
 10
497.0070701666546
 20
454.6931248034399
 30
0.0
  0
LINE
  5
29D
330
205
100
AcDbEntity
  8
0
  6
Continuous
 62
     0
370
    30
100
AcDbLine
 10
497.00707
 20
454.693125
 30
0.0
 11
496.918276
 21
454.999578
 31
0.0
  0
SPLINE
  5
29E
330
205
100
AcDbEntity
  8
0
  6
Continuous
 62
     0
370
    30
100
AcDbSpline
210
0.0
220
0.0
230
1.0
 70
     8
 71
     3
 72
    26
 73
    22
 74
     0
 42
0.0
 43
0.0
 40
0.0
 40
0.0
 40
0.0
 40
0.0
 40
0.4329957280319897
 40
0.6503560515467781
 40
0.8672615756275532
 40
1.30544677017856
 40
1.739098905056486
 40
1.954088279332204
 40
2.172970668810715
 40
2.614411444286846
 40
3.050370624337348
 40
3.48667701142522
 40
3.927680242198689
 40
4.146685552390961
 40
4.362090948400045
 40
4.795435861426188
 40
5.017398464029146
 40
5.237524152879468
 40
5.453487952873516
 40
5.670035285782057
 40
6.10432269187669
 40
6.10432269187669
 40
6.10432269187669
 40
6.10432269187669
 10
496.9182761942982
 20
454.9995776012636
 30
0.0
 10
497.0218415030793
 20
455.0532483545386
 30
0.0
 10
497.1992075590174
 20
455.0654232263548
 30
0.0
 10
497.397943452933
 20
454.9579586456471
 30
0.0
 10
497.5612634737273
 20
454.7758614154789
 30
0.0
 10
497.6826401413306
 20
454.4538762407014
 30
0.0
 10
497.683147571063
 20
454.0808492184113
 30
0.0
 10
497.5930277442651
 20
453.8042037070655
 30
0.0
 10
497.4539224346659
 20
453.5590282800725
 30
0.0
 10
497.2271573319975
 20
453.3136886430525
 30
0.0
 10
496.9220594637524
 20
453.1112692605844
 30
0.0
 10
496.6040980694466
 20
452.966953334234
 30
0.0
 10
496.3293787201662
 20
452.93450302899
 30
0.0
 10
496.1212836220151
 20
452.9866237258979
 30
0.0
 10
495.9351313668964
 20
453.1064274032462
 30
0.0
 10
495.8002021181184
 20
453.3285008792053
 30
0.0
 10
495.7281791768553
 20
453.5944002899723
 30
0.0
 10
495.7081357321387
 20
453.8105279038026
 30
0.0
 10
495.7310548472599
 20
454.0305121634375
 30
0.0
 10
495.829717808571
 20
454.2995819923816
 30
0.0
 10
495.9674758743686
 20
454.4553204378684
 30
0.0
 10
496.0693551868324
 20
454.5158598676862
 30
0.0
  0
LINE
  5
29F
330
205
100
AcDbEntity
  8
0
  6
Continuous
 62
     0
370
    30
100
AcDbLine
 10
496.069355
 20
454.51586
 30
0.0
 11
496.155783
 21
454.217933
 31
0.0
  0
LINE
  5
2A0
330
205
100
AcDbEntity
  8
0
  6
Continuous
 62
     0
370
    30
100
AcDbLine
 10
496.474107
 20
456.391256
 30
0.0
 11
496.374896
 21
456.676229
 31
0.0
  0
SPLINE
  5
2A1
330
205
100
AcDbEntity
  8
0
  6
Continuous
 62
     0
370
    30
100
AcDbSpline
210
0.0
220
0.0
230
1.0
 70
     8
 71
     3
 72
    28
 73
    24
 74
     0
 42
0.0
 43
0.0
 40
0.0
 40
0.0
 40
0.0
 40
0.0
 40
0.4204471630560343
 40
0.6302954727550704
 40
0.840844224262211
 40
1.264356009512046
 40
1.683146518034478
 40
1.891353215850194
 40
2.103180002565582
 40
2.31874500921389
 40
2.532573572134457
 40
2.954756629199493
 40
3.377480775805023
 40
3.805430969074711
 40
4.017368875573588
 40
4.226305843304237
 40
4.645601066209491
 40
4.859869049938903
 40
5.073392086735828
 40
5.283190324930742
 40
5.492725046528286
 40
5.70597621120472
 40
5.918133441981349
 40
5.918133441981349
 40
5.918133441981349
 40
5.918133441981349
 10
496.3748955290655
 20
456.6762291339052
 30
0.0
 10
496.4760444286854
 20
456.727400222039
 30
0.0
 10
496.6493217047752
 20
456.7497982922964
 30
0.0
 10
496.8576425832706
 20
456.6586501945316
 30
0.0
 10
497.0341857744172
 20
456.4889828255199
 30
0.0
 10
497.1752375534081
 20
456.1744622111385
 30
0.0
 10
497.1789918918832
 20
455.8076260777263
 30
0.0
 10
497.0920492625818
 20
455.5445591833927
 30
0.0
 10
496.9904566638043
 20
455.3723339646034
 30
0.0
 10
496.8678004541734
 20
455.2239402457301
 30
0.0
 10
496.688474296813
 20
455.0541027758273
 30
0.0
 10
496.4436251780442
 20
454.8904039173408
 30
0.0
 10
496.1337052322278
 20
454.7508012358542
 30
0.0
 10
495.8620143655862
 20
454.7068164258116
 30
0.0
 10
495.6484343610898
 20
454.7427076896699
 30
0.0
 10
495.4507530851683
 20
454.8447902674799
 30
0.0
 10
495.2936837665768
 20
455.0507082982353
 30
0.0
 10
495.2065032005725
 20
455.3095198674141
 30
0.0
 10
495.1794193664854
 20
455.5212359314252
 30
0.0
 10
495.1974246046299
 20
455.734665186671
 30
0.0
 10
495.2702496363298
 20
455.9277410506378
 30
0.0
 10
495.3829663321751
 20
456.0841930092947
 30
0.0
 10
495.4763074547284
 20
456.1618789263815
 30
0.0
 10
495.5257933872346
 20
456.1921195009436
 30
0.0
  0
LINE
  5
2A2
330
205
100
AcDbEntity
  8
0
  6
Continuous
 62
     0
370
    30
100
AcDbLine
 10
495.525793
 20
456.19212
 30
0.0
 11
495.622326
 21
455.915105
 31
0.0
  0
SPLINE
  5
2A3
330
205
100
AcDbEntity
  8
0
  6
Continuous
 62
     0
370
    30
100
AcDbSpline
210
0.0
220
0.0
230
1.0
 70
     8
 71
     3
 72
    23
 73
    19
 74
     0
 42
0.0
 43
0.0
 40
0.0
 40
0.0
 40
0.0
 40
0.0
 40
0.1344406348959691
 40
0.2698087024253305
 40
0.4020113593220785
 40
0.5351093167957036
 40
0.8039622975256804
 40
1.068634646139707
 40
1.334722668476824
 40
1.605909583314207
 40
1.873103289376405
 40
2.143350905299621
 40
2.41200424978178
 40
2.680682206166646
 40
2.949290704837172
 40
3.213805505265991
 40
3.481377106834338
 40
3.74489199651306
 40
3.74489199651306
 40
3.74489199651306
 40
3.74489199651306
 10
495.6223255454777
 20
455.915104548752
 30
0.0
 10
495.5919259752088
 20
455.8934528680949
 30
0.0
 10
495.5341285381887
 20
455.8418906729257
 30
0.0
 10
495.462459811262
 20
455.7428717562062
 30
0.0
 10
495.416357947356
 20
455.6196932281561
 30
0.0
 10
495.4057468480182
 20
455.4388414457051
 30
0.0
 10
495.467214928571
 20
455.2200717471636
 30
0.0
 10
495.6316816986416
 20
455.0467304585171
 30
0.0
 10
495.8391028417439
 20
455.0087958561888
 30
0.0
 10
496.0429570699735
 20
455.0505623808723
 30
0.0
 10
496.2421170376395
 20
455.1292824313462
 30
0.0
 10
496.433225032977
 20
455.2361908339936
 30
0.0
 10
496.6178732735374
 20
455.3645669871947
 30
0.0
 10
496.7857509191527
 20
455.5276813910154
 30
0.0
 10
496.9227567167127
 20
455.7426622781441
 30
0.0
 10
496.9565763431609
 20
456.0207195045317
 30
0.0
 10
496.8827975946833
 20
456.2777498463395
 30
0.0
 10
496.7623230471409
 20
456.3896583283051
 30
0.0
 10
496.6964239677783
 20
456.4099509147626
 30
0.0
  0
SPLINE
  5
2A4
330
205
100
AcDbEntity
  8
0
  6
Continuous
 62
     0
370
    30
100
AcDbSpline
210
0.0
220
0.0
230
1.0
 70
     8
 71
     3
 72
     8
 73
     4
 74
     0
 42
0.0
 43
0.0
 40
0.0
 40
0.0
 40
0.0
 40
0.0
 40
1.0
 40
1.0
 40
1.0
 40
1.0
 10
496.6964239677755
 20
456.4099509147715
 30
0.0
 10
496.6241732344631
 20
456.4311727215718
 30
0.0
 10
496.5456172259769
 20
456.4176488589492
 30
0.0
 10
496.4741066332119
 20
456.3912563348455
 30
0.0
  0
LINE
  5
2A5
330
205
100
AcDbEntity
  8
0
  6
Continuous
 62
     0
370
    30
100
AcDbLine
 10
496.377792
 20
458.218183
 30
0.0
 11
496.282605
 21
458.455558
 31
0.0
  0
LINE
  5
2A6
330
205
100
AcDbEntity
  8
0
  6
Continuous
 62
     0
370
    30
100
AcDbLine
 10
496.282605
 20
458.455558
 30
0.0
 11
494.467405
 21
457.407552
 31
0.0
  0
LINE
  5
2A7
330
205
100
AcDbEntity
  8
0
  6
Continuous
 62
     0
370
    30
100
AcDbLine
 10
494.467405
 20
457.407552
 30
0.0
 11
494.562593
 21
457.170177
 31
0.0
  0
LINE
  5
2A8
330
205
100
AcDbEntity
  8
0
  6
Continuous
 62
     0
370
    30
100
AcDbLine
 10
494.562593
 20
457.170177
 30
0.0
 11
495.341929
 21
457.62013
 31
0.0
  0
ARC
  5
2A9
330
205
100
AcDbEntity
  8
0
  6
Continuous
 62
     0
370
    30
100
AcDbCircle
 10
464.109507
 20
445.198957
 30
0.0
 40
33.61175046364505
100
AcDbArc
 50
20.15166
 51
21.687776
  0
LINE
  5
2AA
330
205
100
AcDbEntity
  8
0
  6
Continuous
 62
     0
370
    30
100
AcDbLine
 10
495.663681
 20
456.778416
 30
0.0
 11
494.884342
 21
456.328463
 31
0.0
  0
LINE
  5
2AB
330
205
100
AcDbEntity
  8
0
  6
Continuous
 62
     0
370
    30
100
AcDbLine
 10
494.884342
 20
456.328463
 30
0.0
 11
494.976328
 21
456.075278
 31
0.0
  0
LINE
  5
2AC
330
205
100
AcDbEntity
  8
0
  6
Continuous
 62
     0
370
    30
100
AcDbLine
 10
494.976328
 20
456.075278
 30
0.0
 11
496.791528
 21
457.123284
 31
0.0
  0
LINE
  5
2AD
330
205
100
AcDbEntity
  8
0
  6
Continuous
 62
     0
370
    30
100
AcDbLine
 10
496.791528
 20
457.123284
 30
0.0
 11
496.699542
 21
457.376469
 31
0.0
  0
LINE
  5
2AE
330
205
100
AcDbEntity
  8
0
  6
Continuous
 62
     0
370
    30
100
AcDbLine
 10
496.699542
 20
457.376469
 30
0.0
 11
495.879854
 21
456.903225
 31
0.0
  0
ARC
  5
2AF
330
205
100
AcDbEntity
  8
0
  6
Continuous
 62
     0
370
    30
100
AcDbCircle
 10
464.298651
 20
445.313439
 30
0.0
 40
33.64068182062248
100
AcDbArc
 50
20.152312
 51
21.687107
  0
LINE
  5
2B0
330
205
100
AcDbEntity
  8
0
  6
Continuous
 62
     0
370
    30
100
AcDbLine
 10
495.558103
 20
457.744938
 30
0.0
 11
496.377792
 21
458.218183
 31
0.0
  0
LINE
  5
2B1
330
205
100
AcDbEntity
  8
0
  6
Continuous
 62
     0
370
    30
100
AcDbLine
 10
492.903501
 20
460.770496
 30
0.0
 11
493.124937
 21
460.898342
 31
0.0
  0
ARC
  5
2B2
330
205
100
AcDbEntity
  8
0
  6
Continuous
 62
     0
370
    30
100
AcDbCircle
 10
453.764714
 20
440.213048
 30
0.0
 40
44.46468896214073
100
AcDbArc
 50
27.08391
 51
27.723634
  0
LINE
  5
2B3
330
205
100
AcDbEntity
  8
0
  6
Continuous
 62
     0
370
    30
100
AcDbLine
 10
493.353436
 20
460.457594
 30
0.0
 11
494.947206
 21
461.377756
 31
0.0
  0
LINE
  5
2B4
330
205
100
AcDbEntity
  8
0
  6
Continuous
 62
     0
370
    30
100
AcDbLine
 10
494.947206
 20
461.377756
 30
0.0
 11
495.041428
 21
461.191819
 31
0.0
  0
LINE
  5
2B5
330
205
100
AcDbEntity
  8
0
  6
Continuous
 62
     0
370
    30
100
AcDbLine
 10
495.041428
 20
461.191819
 30
0.0
 11
493.447645
 21
460.271652
 31
0.0
  0
ARC
  5
2B6
330
205
100
AcDbEntity
  8
0
  6
Continuous
 62
     0
370
    30
100
AcDbCircle
 10
459.833643
 20
443.359106
 30
0.0
 40
37.62891676442834
100
AcDbArc
 50
25.566226
 51
26.708793
  0
LINE
  5
2B7
330
205
100
AcDbEntity
  8
0
  6
Continuous
 62
     0
370
    30
100
AcDbLine
 10
493.778202
 20
459.598018
 30
0.0
 11
495.372007
 21
460.51819
 31
0.0
  0
LINE
  5
2B8
330
205
100
AcDbEntity
  8
0
  6
Continuous
 62
     0
370
    30
100
AcDbLine
 10
495.372007
 20
460.51819
 30
0.0
 11
495.467551
 21
460.317049
 31
0.0
  0
LINE
  5
2B9
330
205
100
AcDbEntity
  8
0
  6
Continuous
 62
     0
370
    30
100
AcDbLine
 10
495.467551
 20
460.317049
 30
0.0
 11
493.8737
 21
459.396864
 31
0.0
  0
ARC
  5
2BA
330
205
100
AcDbEntity
  8
0
  6
Continuous
 62
     0
370
    30
100
AcDbCircle
 10
461.339287
 20
444.045186
 30
0.0
 40
35.97446396091419
100
AcDbArc
 50
22.772102
 51
25.260735
  0
LINE
  5
2BB
330
205
100
AcDbEntity
  8
0
  6
Continuous
 62
     0
370
    30
100
AcDbLine
 10
494.509603
 20
457.969702
 30
0.0
 11
495.067499
 21
458.291807
 31
0.0
  0
ARC
  5
2BC
330
205
100
AcDbEntity
  8
0
  6
Continuous
 62
     0
370
    30
100
AcDbCircle
 10
461.939486
 20
444.373735
 30
0.0
 40
35.93296469511704
100
AcDbArc
 50
22.788738
 51
24.089405
  0
LINE
  5
2BD
330
205
100
AcDbEntity
  8
0
  6
Continuous
 62
     0
370
    30
100
AcDbLine
 10
494.743037
 20
459.040193
 30
0.0
 11
494.959225
 21
459.165005
 31
0.0
  0
ARC
  5
2BE
330
205
100
AcDbEntity
  8
0
  6
Continuous
 62
     0
370
    30
100
AcDbCircle
 10
461.859629
 20
444.370629
 30
0.0
 40
36.25543830934196
100
AcDbArc
 50
22.793897
 51
24.082993
  0
LINE
  5
2BF
330
205
100
AcDbEntity
  8
0
  6
Continuous
 62
     0
370
    30
100
AcDbLine
 10
495.283678
 20
458.416617
 30
0.0
 11
495.882075
 21
458.762099
 31
0.0
  0
ARC
  5
2C0
330
205
100
AcDbEntity
  8
0
  6
Continuous
 62
     0
370
    30
100
AcDbCircle
 10
461.447935
 20
444.284019
 30
0.0
 40
37.35404652730382
100
AcDbArc
 50
22.804668
 51
24.146524
  0
LINE
  5
2C1
330
205
100
AcDbEntity
  8
0
  6
Continuous
 62
     0
370
    30
100
AcDbLine
 10
495.533589
 20
459.564497
 30
0.0
 11
495.754999
 21
459.692286
 31
0.0
  0
ARC
  5
2C2
330
205
100
AcDbEntity
  8
0
  6
Continuous
 62
     0
370
    30
100
AcDbCircle
 10
460.633201
 20
443.972487
 30
0.0
 40
38.47925186139831
100
AcDbArc
 50
22.437711
 51
24.112313
  0
LINE
  5
2C3
330
205
100
AcDbEntity
  8
0
  6
Continuous
 62
     0
370
    30
100
AcDbLine
 10
496.199382
 20
458.659202
 30
0.0
 11
494.384182
 21
457.611196
 31
0.0
  0
ARC
  5
2C4
330
205
100
AcDbEntity
  8
0
  6
Continuous
 62
     0
370
    30
100
AcDbCircle
 10
459.922866
 20
443.386711
 30
0.0
 40
37.28160699426305
100
AcDbArc
 50
22.429206
 51
27.793296
  0
LINE
  5
2C5
330
205
100
AcDbEntity
  8
0
  6
Continuous
 62
     0
370
    30
100
AcDbLine
 10
494.648511
 20
461.951119
 30
0.0
 11
494.55534
 21
462.125226
 31
0.0
  0
LINE
  5
2C6
330
205
100
AcDbEntity
  8
0
  6
Continuous
 62
     0
370
    30
100
AcDbLine
 10
494.55534
 20
462.125226
 30
0.0
 11
492.74014
 21
461.07722
 31
0.0
  0
LINE
  5
2C7
330
205
100
AcDbEntity
  8
0
  6
Continuous
 62
     0
370
    30
100
AcDbLine
 10
492.74014
 20
461.07722
 30
0.0
 11
492.833311
 21
460.903113
 31
0.0
  0
LINE
  5
2C8
330
205
100
AcDbEntity
  8
0
  6
Continuous
 62
     0
370
    30
100
AcDbLine
 10
492.833311
 20
460.903113
 30
0.0
 11
494.648511
 21
461.951119
 31
0.0
  0
LINE
  5
2C9
330
205
100
AcDbEntity
  8
0
  6
Continuous
 62
     0
370
    30
100
AcDbLine
 10
493.858079
 20
462.25144
 30
0.0
 11
493.950257
 21
462.0841
 31
0.0
  0
LINE
  5
2CA
330
205
100
AcDbEntity
  8
0
  6
Continuous
 62
     0
370
    30
100
AcDbLine
 10
493.950257
 20
462.0841
 30
0.0
 11
494.427918
 21
462.359877
 31
0.0
  0
LINE
  5
2CB
330
205
100
AcDbEntity
  8
0
  6
Continuous
 62
     0
370
    30
100
AcDbLine
 10
494.427918
 20
462.359877
 30
0.0
 11
494.33574
 21
462.527217
 31
0.0
  0
LINE
  5
2CC
330
205
100
AcDbEntity
  8
0
  6
Continuous
 62
     0
370
    30
100
AcDbLine
 10
494.33574
 20
462.527217
 30
0.0
 11
493.858079
 21
462.25144
 31
0.0
  0
ENDBLK
  5
2CE
330
205
100
AcDbEntity
  8
0
100
AcDbBlockEnd
  0
BLOCK
  5
35D
330
2D0
100
AcDbEntity
  8
0
100
AcDbBlockBegin
  2
e
 70
     0
 10
-229.847717
 20
-0.000122
 30
0.0
  3
e
  1

  0
LINE
  5
2D1
330
2D0
100
AcDbEntity
  8
0
  6
Continuous
 62
     0
370
    30
100
AcDbLine
 10
-231.903748
 20
1178.759686
 30
0.0
 11
-231.903749
 21
1150.759688
 31
0.0
  0
SPLINE
  5
2D2
330
2D0
100
AcDbEntity
  8
0
  6
Continuous
 62
     0
370
     0
100
AcDbSpline
210
0.0
220
0.0
230
1.0
 70
     8
 71
     3
 72
    14
 73
    10
 74
     0
 42
0.0
 43
0.0
 40
0.0
 40
0.0
 40
0.0
 40
0.0
 40
0.047619048741464
 40
0.142857146224391
 40
0.28571429152306
 40
0.428571433695539
 40
0.5714285733023969
 40
0.714285714258222
 40
0.8134511510728426
 40
0.8134511510728426
 40
0.8134511510728426
 40
0.8134511510728426
 10
-231.9037475660434
 20
1178.759686008989
 30
0.0
 10
-231.9037475905141
 20
1178.759686039105
 30
0.0
 10
-231.8410674421197
 20
1178.759686132431
 30
0.0
 10
-231.3377599450596
 20
1178.759686317492
 30
0.0
 10
-229.8464958254718
 20
1178.759686564734
 30
0.0
 10
-227.1431326251228
 20
1178.759686843685
 30
0.0
 10
-223.5507102258521
 20
1178.759687124151
 30
0.0
 10
-219.6863241166543
 20
1178.759687376823
 30
0.0
 10
-217.0223623568011
 20
1178.759687537935
 30
0.0
 10
-215.9037554061105
 20
1178.7596876036
 30
0.0
  0
SPLINE
  5
2D3
330
2D0
100
AcDbEntity
  8
0
  6
Continuous
 62
     0
370
    30
100
AcDbSpline
210
0.0
220
0.0
230
1.0
 70
     8
 71
     3
 72
    16
 73
    12
 74
     0
 42
0.0
 43
0.0
 40
0.0
 40
0.0
 40
0.0
 40
0.0
 40
0.047619050732881
 40
0.142857152198643
 40
0.285714498032294
 40
0.4285715148732381
 40
0.571428485126764
 40
0.7142855019677079
 40
0.857142847801357
 40
0.9523809492671189
 40
1.0
 40
1.0
 40
1.0
 40
1.0
 10
-231.9037487899624
 20
1150.759690205283
 30
0.0
 10
-231.9037487595102
 20
1150.759690266187
 30
0.0
 10
-231.9037486681537
 20
1150.681427366087
 30
0.0
 10
-231.9037484862013
 20
1150.055367025992
 30
0.0
 10
-231.9037482544954
 20
1148.199286840759
 30
0.0
 10
-231.9037480204217
 20
1144.835305743242
 30
0.0
 10
-231.9037478250066
 20
1140.364730654952
 30
0.0
 10
-231.9037476779624
 20
1135.009748715324
 30
0.0
 10
-231.9037475968304
 20
1129.708937183879
 30
0.0
 10
-231.9037475694645
 20
1125.546351984934
 30
0.0
 10
-231.9037475660434
 20
1123.456357487784
 30
0.0
 10
-231.9037475660434
 20
1122.759692653121
 30
0.0
  0
LINE
  5
2D4
330
2D0
100
AcDbEntity
  8
0
  6
Continuous
 62
     0
370
     0
100
AcDbLine
 10
-209.403749
 20
1122.759691
 30
0.0
 11
-231.903748
 21
1122.759693
 31
0.0
  0
SPLINE
  5
2D5
330
2D0
100
AcDbEntity
  8
0
  6
Continuous
 62
     0
370
     0
100
AcDbSpline
210
0.0
220
0.0
230
1.0
 70
     8
 71
     3
 72
    16
 73
    12
 74
     0
 42
0.0
 43
0.0
 40
0.0
 40
0.0
 40
0.0
 40
0.0
 40
0.047618587247776
 40
0.142855761743327
 40
0.285714973445752
 40
0.428572131040739
 40
0.5714278689592599
 40
0.7142850265542481
 40
0.8571442382566719
 40
0.952381412752224
 40
1.0
 40
1.0
 40
1.0
 40
1.0
 10
-209.4037487825118
 20
1128.259690197832
 30
0.0
 10
-209.4037487765302
 20
1128.259690209795
 30
0.0
 10
-209.4037487585853
 20
1128.244368787287
 30
0.0
 10
-209.4037487228445
 20
1128.121318718748
 30
0.0
 10
-209.4037486773305
 20
1127.756772039793
 30
0.0
 10
-209.4037486313513
 20
1127.09598617889
 30
0.0
 10
-209.4037485929663
 20
1126.217839895552
 30
0.0
 10
-209.4037485640824
 20
1125.165957762729
 30
0.0
 10
-209.4037485481475
 20
1124.124719798486
 30
0.0
 10
-209.4037485427689
 20
1123.307065903869
 30
0.0
 10
-209.4037485420991
 20
1122.896534490883
 30
0.0
 10
-209.4037485420991
 20
1122.759690686108
 30
0.0
  0
LINE
  5
2D6
330
2D0
100
AcDbEntity
  8
0
  6
Continuous
 62
     0
370
     0
100
AcDbLine
 10
-186.903748
 20
1122.759693
 30
0.0
 11
-209.403749
 21
1122.759691
 31
0.0
  0
SPLINE
  5
2D7
330
2D0
100
AcDbEntity
  8
0
  6
Continuous
 62
     0
370
    30
100
AcDbSpline
210
0.0
220
0.0
230
1.0
 70
     8
 71
     3
 72
    16
 73
    12
 74
     0
 42
0.0
 43
0.0
 40
0.0
 40
0.0
 40
0.0
 40
0.0
 40
0.047619008806062
 40
0.142857026418187
 40
0.285714359327475
 40
0.428571395213536
 40
0.571428604786464
 40
0.7142856406725249
 40
0.8571429735818132
 40
0.9523809911939379
 40
1.0
 40
1.0
 40
1.0
 40
1.0
 10
-186.9037487750613
 20
1150.759690205283
 30
0.0
 10
-186.9037487446091
 20
1150.759690266187
 30
0.0
 10
-186.9037486532524
 20
1150.681688883335
 30
0.0
 10
-186.9037484712997
 20
1150.055256482955
 30
0.0
 10
-186.9037482395928
 20
1148.199392188129
 30
0.0
 10
-186.9037480055172
 20
1144.83538514329
 30
0.0
 10
-186.9037478101021
 20
1140.364809241481
 30
0.0
 10
-186.9037476630566
 20
1135.009783928663
 30
0.0
 10
-186.9037475819342
 20
1129.708949248972
 30
0.0
 10
-186.9037475545519
 20
1125.546355380481
 30
0.0
 10
-186.9037475511423
 20
1123.456358336666
 30
0.0
 10
-186.9037475511423
 20
1122.759692653121
 30
0.0
  0
SPLINE
  5
2D8
330
2D0
100
AcDbEntity
  8
0
  6
Continuous
 62
     0
370
    30
100
AcDbSpline
210
0.0
220
0.0
230
1.0
 70
     8
 71
     3
 72
    16
 73
    12
 74
     0
 42
0.0
 43
0.0
 40
0.0
 40
0.0
 40
0.0
 40
0.0
 40
0.047619050732881
 40
0.142857152198643
 40
0.285714498032292
 40
0.428571514873236
 40
0.5714284851267609
 40
0.714285501967704
 40
0.857142847801358
 40
0.9523809492671189
 40
1.0
 40
1.0
 40
1.0
 40
1.0
 10
-186.9037487750613
 20
1150.759688456827
 30
0.0
 10
-186.9037487446092
 20
1150.759688395922
 30
0.0
 10
-186.9037486532526
 20
1150.837951296022
 30
0.0
 10
-186.9037484713002
 20
1151.464011636117
 30
0.0
 10
-186.9037482395943
 20
1153.32009182135
 30
0.0
 10
-186.9037480055206
 20
1156.684072918868
 30
0.0
 10
-186.9037478101056
 20
1161.154648007157
 30
0.0
 10
-186.9037476630612
 20
1166.509629946785
 30
0.0
 10
-186.9037475819294
 20
1171.810441478231
 30
0.0
 10
-186.9037475545632
 20
1175.973026677176
 30
0.0
 10
-186.9037475511423
 20
1178.063021174325
 30
0.0
 10
-186.9037475511423
 20
1178.759686008989
 30
0.0
  0
LINE
  5
2D9
330
2D0
100
AcDbEntity
  8
0
  6
Continuous
 62
     0
370
     0
100
AcDbLine
 10
-202.903755
 20
1178.759688
 30
0.0
 11
-186.903748
 21
1178.759686
 31
0.0
  0
LINE
  5
2DA
330
2D0
100
AcDbEntity
  8
0
  6
Continuous
 62
     0
370
     0
100
AcDbLine
 10
-209.403749
 20
1095.035129
 30
0.0
 11
-186.903748
 21
1095.035079
 31
0.0
  0
LINE
  5
2DB
330
2D0
100
AcDbEntity
  8
0
  6
Continuous
 62
     0
370
    30
100
AcDbLine
 10
-186.903748
 20
1095.769963
 30
0.0
 11
-186.903748
 21
1095.035079
 31
0.0
  0
SPLINE
  5
2DC
330
2D0
100
AcDbEntity
  8
0
  6
Continuous
 62
     0
370
    30
100
AcDbSpline
210
0.0
220
0.0
230
1.0
 70
     8
 71
     3
 72
    17
 73
    13
 74
     0
 42
0.0
 43
0.0
 40
0.0
 40
0.0
 40
0.0
 40
0.0
 40
1.535824290284057
 40
2.803572939901752
 40
3.91900901896954
 40
4.518925964074081
 40
5.371007942962693
 40
5.929872977631576
 40
6.328834574960304
 40
6.604308284557048
 40
6.966692699928828
 40
7.268403902947318
 40
7.268403902947318
 40
7.268403902947318
 40
7.268403902947318
 10
-187.0724355834201
 20
1101.915265161619
 30
0.0
 10
-187.0724355824971
 20
1101.403562163172
 30
0.0
 10
-187.0666740419363
 20
1100.468494123015
 30
0.0
 10
-187.0430660797864
 20
1099.176141200364
 30
0.0
 10
-187.0150852195582
 20
1098.215092354907
 30
0.0
 10
-186.9856519824194
 20
1097.419730636805
 30
0.0
 10
-186.9597654357633
 20
1096.829285891448
 30
0.0
 10
-186.9362149015765
 20
1096.358021203371
 30
0.0
 10
-186.9217015872003
 20
1096.087439167552
 30
0.0
 10
-186.9116164263442
 20
1095.906526784331
 30
0.0
 10
-186.905259122993
 20
1095.795899942019
 30
0.0
 10
-186.9037475555308
 20
1095.769963202791
 30
0.0
 10
-186.9037475511431
 20
1095.769963202791
 30
0.0
  0
SPLINE
  5
2DD
330
2D0
100
AcDbEntity
  8
0
  6
Continuous
 62
     0
370
    30
100
AcDbSpline
210
0.0
220
0.0
230
1.0
 70
     8
 71
     3
 72
    18
 73
    14
 74
     0
 42
0.0
 43
0.0
 40
0.0
 40
0.0
 40
0.0
 40
0.0
 40
0.379513728632184
 40
0.7984142484970149
 40
1.15331321210091
 40
1.69194921153377
 40
1.990624660889136
 40
2.398271493991997
 40
3.457913429612937
 40
4.093584975492366
 40
4.968211675375637
 40
6.076977041509018
 40
7.887360801192564
 40
7.887360801192564
 40
7.887360801192564
 40
7.887360801192564
 10
-186.9037475511772
 20
1108.78407191013
 30
0.0
 10
-186.9037475567434
 20
1108.784071909996
 30
0.0
 10
-186.9060906079644
 20
1108.733888914144
 30
0.0
 10
-186.9148786733508
 20
1108.542241212273
 30
0.0
 10
-186.9278620350452
 20
1108.250036570871
 30
0.0
 10
-186.9411787696875
 20
1107.937225545485
 30
0.0
 10
-186.9553479321529
 20
1107.586825719593
 30
0.0
 10
-186.9753881495635
 20
1107.067898072984
 30
0.0
 10
-186.9980097214927
 20
1106.414741891186
 30
0.0
 10
-187.0221302574284
 20
1105.593963405081
 30
0.0
 10
-187.0430491144542
 20
1104.742477764279
 30
0.0
 10
-187.0653649345218
 20
1103.491903234476
 30
0.0
 10
-187.0724355845079
 20
1102.518390829355
 30
0.0
 10
-187.0724355834201
 20
1101.915265161619
 30
0.0
  0
LINE
  5
2DE
330
2D0
100
AcDbEntity
  8
0
  6
Continuous
 62
     0
370
    30
100
AcDbLine
 10
-186.903748
 20
1122.759693
 30
0.0
 11
-186.903748
 21
1108.784072
 31
0.0
  0
LINE
  5
2DF
330
2D0
100
AcDbEntity
  8
0
  6
Continuous
 62
     0
370
     0
100
AcDbLine
 10
-209.403749
 20
1095.035129
 30
0.0
 11
-209.403749
 21
1122.759691
 31
0.0
  0
LINE
  5
2E0
330
2D0
100
AcDbEntity
  8
0
  6
Continuous
 62
     0
370
    30
100
AcDbLine
 10
-231.903748
 20
1095.035079
 30
0.0
 11
-231.903748
 21
1122.759693
 31
0.0
  0
SPLINE
  5
2E1
330
2D0
100
AcDbEntity
  8
0
  6
Continuous
 62
     0
370
     0
100
AcDbSpline
210
0.0
220
0.0
230
1.0
 70
     8
 71
     3
 72
    17
 73
    13
 74
     0
 42
0.0
 43
0.0
 40
0.0
 40
0.0
 40
0.0
 40
0.0
 40
2.29740697212077
 40
5.672394704060816
 40
7.570825306026248
 40
10.73487632639293
 40
15.79735799354364
 40
20.85983959218921
 40
25.92232114553888
 40
30.80867799359263
 40
33.64249516971228
 40
35.34278548042192
 40
35.34278548042192
 40
35.34278548042192
 40
35.34278548042192
 10
-231.9037475660434
 20
1095.035078878469
 30
0.0
 10
-231.9037475995023
 20
1095.035078878428
 30
0.0
 10
-231.8071679299541
 20
1095.035078926968
 30
0.0
 10
-231.3612878041762
 20
1095.035079390668
 30
0.0
 10
-230.5447173731245
 20
1095.035080393309
 30
0.0
 10
-229.2062307903163
 20
1095.035082177437
 30
0.0
 10
-226.7277053328648
 20
1095.035084805519
 30
0.0
 10
-223.0215246160222
 20
1095.035090605993
 30
0.0
 10
-218.679878401515
 20
1095.035088198232
 30
0.0
 10
-214.5981086542694
 20
1095.035110367746
 30
0.0
 10
-211.4819894297556
 20
1095.035071200784
 30
0.0
 10
-209.9703787998293
 20
1095.035129077638
 30
0.0
 10
-209.4037485420992
 20
1095.035129077638
 30
0.0
  0
ARC
  5
2E2
330
2D0
100
AcDbEntity
  8
0
  6
Continuous
 62
     0
370
    30
100
AcDbCircle
 10
-209.40395
 20
1150.759543
 30
0.0
 40
22.50020156876768
100
AcDbArc
 50
0.000375
 51
70.001301
  0
ARC
  5
2E3
330
2D0
100
AcDbEntity
  8
0
  6
Continuous
 62
     0
370
    30
100
AcDbCircle
 10
-209.404053
 20
1150.759994
 30
0.0
 40
22.50030388123655
100
AcDbArc
 50
270.000774
 51
359.999227
  0
LINE
  5
2E4
330
2D0
100
AcDbEntity
  8
0
  6
Continuous
 62
     0
370
    30
100
AcDbLine
 10
-209.415475
 20
1128.259693
 30
0.0
 11
-209.403749
 21
1128.25969
 31
0.0
  0
ARC
  5
2E5
330
2D0
100
AcDbEntity
  8
0
  6
Continuous
 62
     0
370
    30
100
AcDbCircle
 10
-209.403446
 20
1150.759993
 30
0.0
 40
22.50030312198653
100
AcDbArc
 50
180.000771
 51
269.969367
  0
ARC
  5
2E6
330
2D0
100
AcDbEntity
  8
0
  6
Continuous
 62
     0
370
    30
100
AcDbCircle
 10
-209.403291
 20
1150.759229
 30
0.0
 40
22.50045817905426
100
AcDbArc
 50
109.999673
 51
179.998826
  0
LINE
  5
2E7
330
2D0
100
AcDbEntity
  8
0
  6
Continuous
 62
     0
370
    30
100
AcDbLine
 10
-186.903748
 20
1179.187674
 30
0.0
 11
-186.903748
 21
1178.759686
 31
0.0
  0
LINE
  5
2E8
330
2D0
100
AcDbEntity
  8
0
  6
Continuous
 62
     0
370
    30
100
AcDbLine
 10
-186.903748
 20
1179.187674
 30
0.0
 11
-202.903755
 21
1179.187675
 31
0.0
  0
LINE
  5
2E9
330
2D0
100
AcDbEntity
  8
0
  6
Continuous
 62
     0
370
    30
100
AcDbLine
 10
-215.903755
 20
1179.187675
 30
0.0
 11
-231.903748
 21
1179.187674
 31
0.0
  0
LINE
  5
2EA
330
2D0
100
AcDbEntity
  8
0
  6
Continuous
 62
     0
370
    30
100
AcDbLine
 10
-231.903748
 20
1178.759686
 30
0.0
 11
-231.903748
 21
1179.187674
 31
0.0
  0
ARC
  5
2EB
330
2D0
100
AcDbEntity
  8
0
  6
Continuous
 62
     0
370
    30
100
AcDbCircle
 10
-209.415476
 20
1150.756568
 30
0.0
 40
22.1
100
AcDbArc
 50
270.0
 51
67.153039
  0
ARC
  5
2EC
330
2D0
100
AcDbEntity
  8
0
  6
Continuous
 62
     0
370
    30
100
AcDbCircle
 10
-209.415476
 20
1150.756568
 30
0.0
 40
22.1
100
AcDbArc
 50
112.684744
 51
270.0
  0
LINE
  5
2ED
330
2D0
100
AcDbEntity
  8
0
  6
Continuous
 62
     0
370
    30
100
AcDbLine
 10
-187.603748
 20
1183.759695
 30
0.0
 11
-202.903756
 21
1183.759695
 31
0.0
  0
LINE
  5
2EE
330
2D0
100
AcDbEntity
  8
0
  6
Continuous
 62
     0
370
    30
100
AcDbLine
 10
-215.903756
 20
1183.759695
 30
0.0
 11
-231.203748
 21
1183.759695
 31
0.0
  0
LINE
  5
2EF
330
2D0
100
AcDbEntity
  8
0
  6
Continuous
 62
     0
370
    30
100
AcDbLine
 10
-215.903756
 20
1183.460836
 30
0.0
 11
-231.529894
 21
1183.460836
 31
0.0
  0
LINE
  5
2F0
330
2D0
100
AcDbEntity
  8
0
  6
Continuous
 62
     0
370
    30
100
AcDbLine
 10
-187.277601
 20
1183.460836
 30
0.0
 11
-202.903756
 21
1183.460836
 31
0.0
  0
LINE
  5
2F1
330
2D0
100
AcDbEntity
  8
0
  6
Continuous
 62
     0
370
    30
100
AcDbLine
 10
-209.403749
 20
1079.759695
 30
0.0
 11
-187.303748
 21
1079.759695
 31
0.0
  0
LINE
  5
2F2
330
2D0
100
AcDbEntity
  8
0
  6
Continuous
 62
     0
370
    30
100
AcDbLine
 10
-231.503748
 20
1079.759695
 30
0.0
 11
-209.403749
 21
1079.759695
 31
0.0
  0
LINE
  5
2F3
330
2D0
100
AcDbEntity
  8
0
  6
Continuous
 62
     0
370
    30
100
AcDbLine
 10
-186.903748
 20
1095.035079
 30
0.0
 11
-187.303748
 21
1079.759695
 31
0.0
  0
LINE
  5
2F4
330
2D0
100
AcDbEntity
  8
0
  6
Continuous
 62
     0
370
    30
100
AcDbLine
 10
-231.903748
 20
1095.035079
 30
0.0
 11
-231.503748
 21
1079.759695
 31
0.0
  0
LINE
  5
2F5
330
2D0
100
AcDbEntity
  8
0
  6
Continuous
 62
     0
370
    30
100
AcDbLine
 10
-187.277601
 20
1183.460836
 30
0.0
 11
-187.603725
 21
1183.759674
 31
0.0
  0
LINE
  5
2F6
330
2D0
100
AcDbEntity
  8
0
  6
Continuous
 62
     0
370
    30
100
AcDbLine
 10
-231.529894
 20
1183.460836
 30
0.0
 11
-231.20377
 21
1183.759674
 31
0.0
  0
LINE
  5
2F7
330
2D0
100
AcDbEntity
  8
0
  6
Continuous
 62
     0
370
    30
100
AcDbLine
 10
-186.903748
 20
1179.187674
 30
0.0
 11
-187.277601
 21
1183.460836
 31
0.0
  0
LINE
  5
2F8
330
2D0
100
AcDbEntity
  8
0
  6
Continuous
 62
     0
370
    30
100
AcDbLine
 10
-231.903748
 20
1179.187674
 30
0.0
 11
-231.529894
 21
1183.460836
 31
0.0
  0
LINE
  5
2F9
330
2D0
100
AcDbEntity
  8
0
  6
Continuous
 62
     0
370
    30
100
AcDbLine
 10
-215.847674
 20
1178.759692
 30
0.0
 11
-202.903757
 21
1178.759693
 31
0.0
  0
LINE
  5
2FA
330
2D0
100
AcDbEntity
  8
0
  6
Continuous
 62
     0
370
    30
100
AcDbLine
 10
-215.903764
 20
1238.759692
 30
0.0
 11
-215.847681
 21
1238.759692
 31
0.0
  0
LINE
  5
2FB
330
2D0
100
AcDbEntity
  8
0
  6
Continuous
 62
     0
370
    30
100
AcDbLine
 10
-215.847681
 20
1238.759692
 30
0.0
 11
-202.903764
 21
1238.759693
 31
0.0
  0
LINE
  5
2FC
330
2D0
100
AcDbEntity
  8
0
  6
Continuous
 62
     0
370
    30
100
AcDbLine
 10
-202.903757
 20
1178.759693
 30
0.0
 11
-202.903764
 21
1238.759693
 31
0.0
  0
LINE
  5
2FD
330
2D0
100
AcDbEntity
  8
0
  6
Continuous
 62
     0
370
    30
100
AcDbLine
 10
-215.903757
 20
1178.759692
 30
0.0
 11
-215.903764
 21
1238.759692
 31
0.0
  0
LINE
  5
2FE
330
2D0
100
AcDbEntity
  8
0
  6
Continuous
 62
     0
370
    30
100
AcDbLine
 10
-215.903757
 20
1178.759691
 30
0.0
 11
-215.847674
 21
1178.759691
 31
0.0
  0
SPLINE
  5
2FF
330
2D0
100
AcDbEntity
  8
0
  6
Continuous
 62
     0
370
     0
100
AcDbSpline
210
0.0
220
0.0
230
1.0
 70
     8
 71
     3
 72
    15
 73
    11
 74
     0
 42
0.0
 43
0.0
 40
10.51976893298457
 40
10.51976893298457
 40
10.51976893298457
 40
10.51976893298457
 40
11.62018875328712
 40
12.66991432644621
 40
13.90342270692893
 40
15.64836897466411
 40
17.34311723258407
 40
18.41361149052697
 40
19.47528666719875
 40
21.03953786596914
 40
21.03953786596914
 40
21.03953786596914
 40
21.03953786596914
 10
-202.9641106751356
 20
1175.304174406386
 30
0.0
 10
-202.9641707068154
 20
1175.304327601325
 30
0.0
 10
-203.021674891405
 20
1175.352593688986
 30
0.0
 10
-203.2853423521598
 20
1175.567468211642
 30
0.0
 10
-203.8046498082525
 20
1175.962746239717
 30
0.0
 10
-204.6883120111843
 20
1176.548395537948
 30
0.0
 10
-205.8064901554618
 20
1177.111115615655
 30
0.0
 10
-206.8991697529769
 20
1177.498147215725
 30
0.0
 10
-208.0378563238636
 20
1177.769258426578
 30
0.0
 10
-208.8937496339935
 20
1177.846953871169
 30
0.0
 10
-209.4037570733763
 20
1177.846953807214
 30
0.0
  0
SPLINE
  5
300
330
2D0
100
AcDbEntity
  8
0
  6
Continuous
 62
     0
370
     0
100
AcDbSpline
210
0.0
220
0.0
230
1.0
 70
     8
 71
     3
 72
    14
 73
    10
 74
     0
 42
0.0
 43
0.0
 40
0.0
 40
0.0
 40
0.0
 40
0.0
 40
1.912405789321918
 40
3.830350421158677
 40
6.32391116788351
 40
7.661351199193069
 40
8.952158795729051
 40
10.23687625134339
 40
10.51976893298457
 40
10.51976893298457
 40
10.51976893298457
 40
10.51976893298457
 10
-209.4037570733763
 20
1177.846953807214
 30
0.0
 10
-210.0272766081156
 20
1177.846953729025
 30
0.0
 10
-211.2754889022148
 20
1177.707202449575
 30
0.0
 10
-213.1362915710754
 20
1177.093324731037
 30
0.0
 10
-214.4723659126334
 20
1176.331896664775
 30
0.0
 10
-215.2938356037308
 20
1175.746414796197
 30
0.0
 10
-215.7040907129007
 20
1175.421098224452
 30
0.0
 10
-215.8327473340608
 20
1175.312905470057
 30
0.0
 10
-215.8434176997931
 20
1175.304133408424
 30
0.0
 10
-215.8434022670358
 20
1175.304172791331
 30
0.0
  0
LINE
  5
301
330
2D0
100
AcDbEntity
  8
0
  6
Continuous
 62
     0
370
     0
100
AcDbLine
 10
-209.403757
 20
1177.846954
 30
0.0
 11
-209.403757
 21
1172.759692
 31
0.0
  0
ARC
  5
302
330
2D0
100
AcDbEntity
  8
0
  6
Continuous
 62
     0
370
    30
100
AcDbCircle
 10
-209.403754
 20
1150.759692
 30
0.0
 40
22.0
100
AcDbArc
 50
270.000007
 51
90.000007
  0
ARC
  5
303
330
2D0
100
AcDbEntity
  8
0
  6
Continuous
 62
     0
370
    30
100
AcDbCircle
 10
-209.403754
 20
1150.759692
 30
0.0
 40
22.0
100
AcDbArc
 50
90.000007
 51
270.000007
  0
ARC
  5
304
330
2D0
100
AcDbEntity
  8
0
  6
Continuous
 62
     0
370
     0
100
AcDbCircle
 10
-209.403754
 20
1150.759692
 30
0.0
 40
21.5
100
AcDbArc
 50
90.000007
 51
270.000007
  0
ARC
  5
305
330
2D0
100
AcDbEntity
  8
0
  6
Continuous
 62
     0
370
     0
100
AcDbCircle
 10
-209.403754
 20
1150.759692
 30
0.0
 40
21.5
100
AcDbArc
 50
270.000007
 51
90.000007
  0
SPLINE
  5
306
330
2D0
100
AcDbEntity
  8
0
  6
Continuous
 62
     0
370
    30
100
AcDbSpline
210
0.0
220
0.0
230
1.0
 70
     8
 71
     3
 72
    18
 73
    14
 74
     0
 42
0.0
 43
0.0
 40
1.062771965689222
 40
1.062771965689222
 40
1.062771965689222
 40
1.062771965689222
 40
1.15278694556269
 40
1.369419972446693
 40
1.496338862799866
 40
1.686593611603636
 40
2.229652032535512
 40
2.934669082084802
 40
3.2869321714359
 40
3.639100897691612
 40
4.343364277904396
 40
5.047911622239654
 40
6.771249075136793
 40
6.771249075136793
 40
6.771249075136793
 40
6.771249075136793
 10
-218.6826508286625
 20
1170.707522989501
 30
0.0
 10
-218.6599276526981
 20
1170.71855041428
 30
0.0
 10
-218.5622195686873
 20
1170.766010659927
 30
0.0
 10
-218.4382793345131
 20
1170.831963314437
 30
0.0
 10
-218.2830895065304
 20
1170.920845329813
 30
0.0
 10
-218.0393229201295
 20
1171.071165362149
 30
0.0
 10
-217.6495713359797
 20
1171.352262773851
 30
0.0
 10
-217.2583734761241
 20
1171.716897005228
 30
0.0
 10
-216.9502202063671
 20
1172.072071209306
 30
0.0
 10
-216.6678737600924
 20
1172.44773898455
 30
0.0
 10
-216.3660320886542
 20
1172.953105785636
 30
0.0
 10
-215.9602312383198
 20
1173.91755172127
 30
0.0
 10
-215.8334200506682
 20
1174.732530493744
 30
0.0
 10
-215.8434022678624
 20
1175.304172786485
 30
0.0
  0
SPLINE
  5
307
330
2D0
100
AcDbEntity
  8
0
  6
Continuous
 62
     0
370
    30
100
AcDbSpline
210
0.0
220
0.0
230
1.0
 70
     8
 71
     3
 72
    19
 73
    15
 74
     0
 42
0.0
 43
0.0
 40
0.8364736344684843
 40
0.8364736344684843
 40
0.8364736344684843
 40
0.8364736344684843
 40
1.061025725230382
 40
1.152786945561737
 40
1.369419972553527
 40
1.49633886301265
 40
1.686593611975078
 40
2.22965203306583
 40
2.934669082614557
 40
3.28693217196548
 40
3.639100898221086
 40
4.343364278433918
 40
5.047911622769554
 40
6.771249075125921
 40
6.771249075125921
 40
6.771249075125921
 40
6.771249075125921
 10
-200.0492274429238
 20
1170.67090526934
 30
0.0
 10
-200.0492449750575
 20
1170.670869133719
 30
0.0
 10
-200.0748794405574
 20
1170.683254626486
 30
0.0
 10
-200.2447930517745
 20
1170.765747325117
 30
0.0
 10
-200.3692324861366
 20
1170.831965580338
 30
0.0
 10
-200.524422336517
 20
1170.92084755686
 30
0.0
 10
-200.7681889607286
 20
1171.071167528149
 30
0.0
 10
-201.1579406154379
 20
1171.352264842199
 30
0.0
 10
-201.549138566742
 20
1171.716898975543
 30
0.0
 10
-201.8572919255378
 20
1172.07207310237
 30
0.0
 10
-202.1396384659888
 20
1172.447740806832
 30
0.0
 10
-202.4414802641176
 20
1172.95310753225
 30
0.0
 10
-202.8472813561594
 20
1173.917553365987
 30
0.0
 10
-202.974092748133
 20
1174.732532106472
 30
0.0
 10
-202.964110674309
 20
1175.30417440154
 30
0.0
  0
LINE
  5
308
330
2D0
100
AcDbEntity
  8
0
  6
Continuous
 62
     0
370
    30
100
AcDbLine
 10
-202.903757
 20
1178.759693
 30
0.0
 11
-202.964072
 21
1175.304195
 31
0.0
  0
LINE
  5
309
330
2D0
100
AcDbEntity
  8
0
  6
Continuous
 62
     0
370
    30
100
AcDbLine
 10
-215.903757
 20
1178.759691
 30
0.0
 11
-215.843441
 21
1175.304194
 31
0.0
  0
LINE
  5
30A
330
2D0
100
AcDbEntity
  8
0
  6
Continuous
 62
     0
370
    30
100
AcDbLine
 10
-238.903748
 20
1068.759705
 30
0.0
 11
-180.438489
 21
1068.759705
 31
0.0
  0
LINE
  5
30B
330
2D0
100
AcDbEntity
  8
0
  6
Continuous
 62
     0
370
    30
100
AcDbLine
 10
-180.438489
 20
1068.759705
 30
0.0
 11
-179.903748
 21
1068.759705
 31
0.0
  0
LINE
  5
30C
330
2D0
100
AcDbEntity
  8
0
  6
Continuous
 62
     0
370
     0
100
AcDbLine
 10
-179.947553
 20
1069.259705
 30
0.0
 11
-179.403748
 21
1069.259705
 31
0.0
  0
LINE
  5
30D
330
2D0
100
AcDbEntity
  8
0
  6
Continuous
 62
     0
370
     0
100
AcDbLine
 10
-239.403748
 20
1069.259705
 30
0.0
 11
-179.947553
 21
1069.259705
 31
0.0
  0
LINE
  5
30E
330
2D0
100
AcDbEntity
  8
0
  6
Continuous
 62
     0
370
     0
100
AcDbLine
 10
-239.403748
 20
1074.259705
 30
0.0
 11
-179.947553
 21
1074.259705
 31
0.0
  0
LINE
  5
30F
330
2D0
100
AcDbEntity
  8
0
  6
Continuous
 62
     0
370
     0
100
AcDbLine
 10
-179.947553
 20
1074.259705
 30
0.0
 11
-179.403748
 21
1074.259705
 31
0.0
  0
LINE
  5
310
330
2D0
100
AcDbEntity
  8
0
  6
Continuous
 62
     0
370
    30
100
AcDbLine
 10
-180.438489
 20
1074.759705
 30
0.0
 11
-179.903748
 21
1074.759705
 31
0.0
  0
LINE
  5
311
330
2D0
100
AcDbEntity
  8
0
  6
Continuous
 62
     0
370
    30
100
AcDbLine
 10
-238.903748
 20
1074.759705
 30
0.0
 11
-180.438489
 21
1074.759705
 31
0.0
  0
ARC
  5
312
330
2D0
100
AcDbEntity
  8
0
  6
Continuous
 62
     0
370
    30
100
AcDbCircle
 10
-238.903708
 20
1069.259742
 30
0.0
 40
0.5000377434849728
100
AcDbArc
 50
180.004324
 51
269.987035
  0
ARC
  5
313
330
2D0
100
AcDbEntity
  8
0
  6
Continuous
 62
     0
370
    30
100
AcDbCircle
 10
-179.903802
 20
1069.259743
 30
0.0
 40
0.5000381596801768
100
AcDbArc
 50
270.01842
 51
359.995629
  0
ARC
  5
314
330
2D0
100
AcDbEntity
  8
0
  6
Continuous
 62
     0
370
    30
100
AcDbCircle
 10
-238.903708
 20
1074.259667
 30
0.0
 40
0.5000377434920403
100
AcDbArc
 50
90.012965
 51
179.995676
  0
ARC
  5
315
330
2D0
100
AcDbEntity
  8
0
  6
Continuous
 62
     0
370
    30
100
AcDbCircle
 10
-179.903802
 20
1074.259666
 30
0.0
 40
0.5000381596751413
100
AcDbArc
 50
0.004371
 51
89.98158
  0
LINE
  5
316
330
2D0
100
AcDbEntity
  8
0
  6
Continuous
 62
     0
370
    30
100
AcDbLine
 10
-179.403748
 20
1069.259705
 30
0.0
 11
-179.403748
 21
1074.259705
 31
0.0
  0
LINE
  5
317
330
2D0
100
AcDbEntity
  8
0
  6
Continuous
 62
     0
370
    30
100
AcDbLine
 10
-239.403748
 20
1069.259705
 30
0.0
 11
-239.403748
 21
1074.259705
 31
0.0
  0
ARC
  5
318
330
2D0
100
AcDbEntity
  8
0
  6
Continuous
 62
     0
370
    30
100
AcDbCircle
 10
-236.404008
 20
1079.759966
 30
0.0
 40
5.000261632247478
100
AcDbArc
 50
270.015605
 51
359.997003
  0
ARC
  5
319
330
2D0
100
AcDbEntity
  8
0
  6
Continuous
 62
     0
370
    30
100
AcDbCircle
 10
-182.403502
 20
1079.759965
 30
0.0
 40
5.000260135973766
100
AcDbArc
 50
180.00298
 51
269.984378
  0
LINE
  5
31A
330
2D0
100
AcDbEntity
  8
0
  6
Continuous
 62
     0
370
     0
100
AcDbLine
 10
-203.291079
 20
1061.201452
 30
0.0
 11
-205.556848
 21
1062.257998
 31
0.0
  0
LINE
  5
31B
330
2D0
100
AcDbEntity
  8
0
  6
Continuous
 62
     0
370
     0
100
AcDbLine
 10
-205.556848
 20
1062.257998
 30
0.0
 11
-207.822618
 21
1063.314544
 31
0.0
  0
LINE
  5
31C
330
2D0
100
AcDbEntity
  8
0
  6
Continuous
 62
     0
370
     0
100
AcDbLine
 10
-206.249261
 20
1058.695841
 30
0.0
 11
-208.745835
 21
1058.565001
 31
0.0
  0
LINE
  5
31D
330
2D0
100
AcDbEntity
  8
0
  6
Continuous
 62
     0
370
     0
100
AcDbLine
 10
-203.752688
 20
1058.826681
 30
0.0
 11
-206.249261
 21
1058.695841
 31
0.0
  0
LINE
  5
31E
330
2D0
100
AcDbEntity
  8
0
  6
Continuous
 62
     0
370
     0
100
AcDbLine
 10
-180.205071
 20
1110.709556
 30
0.0
 11
-182.470841
 21
1111.766101
 31
0.0
  0
LINE
  5
31F
330
2D0
100
AcDbEntity
  8
0
  6
Continuous
 62
     0
370
     0
100
AcDbLine
 10
-182.470841
 20
1111.766101
 30
0.0
 11
-184.73661
 21
1112.822647
 31
0.0
  0
LINE
  5
320
330
2D0
100
AcDbEntity
  8
0
  6
Continuous
 62
     0
370
     0
100
AcDbLine
 10
-177.486148
 20
1112.441701
 30
0.0
 11
-177.486148
 21
1114.941701
 31
0.0
  0
LINE
  5
321
330
2D0
100
AcDbEntity
  8
0
  6
Continuous
 62
     0
370
     0
100
AcDbLine
 10
-177.486148
 20
1114.941701
 30
0.0
 11
-177.486148
 21
1117.441701
 31
0.0
  0
LINE
  5
322
330
2D0
100
AcDbEntity
  8
0
  6
Continuous
 62
     0
370
    30
100
AcDbLine
 10
-189.317418
 20
769.055003
 30
0.0
 11
-191.06502
 21
768.963415
 31
0.0
  0
LINE
  5
323
330
2D0
100
AcDbEntity
  8
0
  6
Continuous
 62
     0
370
    30
100
AcDbLine
 10
-191.06502
 20
768.963415
 30
0.0
 11
-192.812621
 21
768.871827
 31
0.0
  0
LINE
  5
324
330
2D0
100
AcDbEntity
  8
0
  6
Continuous
 62
     0
370
    30
100
AcDbLine
 10
-191.104272
 20
769.712387
 30
0.0
 11
-193.600845
 21
769.581547
 31
0.0
  0
LINE
  5
325
330
2D0
100
AcDbEntity
  8
0
  6
Continuous
 62
     0
370
    30
100
AcDbLine
 10
-188.607698
 20
769.843227
 30
0.0
 11
-191.104272
 21
769.712387
 31
0.0
  0
LINE
  5
326
330
2D0
100
AcDbEntity
  8
0
  6
Continuous
 62
     0
370
    30
100
AcDbLine
 10
-165.990898
 20
1114.941701
 30
0.0
 11
-165.990898
 21
1115.941701
 31
0.0
  0
LINE
  5
327
330
2D0
100
AcDbEntity
  8
0
  6
Continuous
 62
     0
370
    30
100
AcDbLine
 10
-165.990898
 20
1113.941701
 30
0.0
 11
-165.990898
 21
1114.941701
 31
0.0
  0
LINE
  5
328
330
2D0
100
AcDbEntity
  8
0
  6
Continuous
 62
     0
370
     0
100
AcDbLine
 10
-167.490898
 20
1112.441701
 30
0.0
 11
-167.490898
 21
1114.941701
 31
0.0
  0
LINE
  5
329
330
2D0
100
AcDbEntity
  8
0
  6
Continuous
 62
     0
370
     0
100
AcDbLine
 10
-167.490898
 20
1114.941701
 30
0.0
 11
-167.490898
 21
1117.441701
 31
0.0
  0
ARC
  5
32A
330
2D0
100
AcDbEntity
  8
0
  6
Continuous
 62
     0
370
    30
100
AcDbCircle
 10
-167.490041
 20
1115.942558
 30
0.0
 40
1.499143655317904
100
AcDbArc
 50
359.967263
 51
90.03274
  0
ARC
  5
32B
330
2D0
100
AcDbEntity
  8
0
  6
Continuous
 62
     0
370
    30
100
AcDbCircle
 10
-167.490041
 20
1113.940844
 30
0.0
 40
1.499143655317454
100
AcDbArc
 50
269.967264
 51
0.032741
  0
LINE
  5
32C
330
2D0
100
AcDbEntity
  8
0
  6
Continuous
 62
     0
370
    30
100
AcDbLine
 10
-167.490898
 20
1112.441701
 30
0.0
 11
-177.486148
 21
1112.441701
 31
0.0
  0
LINE
  5
32D
330
2D0
100
AcDbEntity
  8
0
  6
Continuous
 62
     0
370
    30
100
AcDbLine
 10
-167.490898
 20
1117.441701
 30
0.0
 11
-177.486148
 21
1117.441701
 31
0.0
  0
LINE
  5
32E
330
2D0
100
AcDbEntity
  8
0
  6
Continuous
 62
     0
370
    30
100
AcDbLine
 10
-193.600845
 20
769.581547
 30
0.0
 11
-192.812652
 21
768.871855
 31
0.0
  0
LINE
  5
32F
330
2D0
100
AcDbEntity
  8
0
  6
Continuous
 62
     0
370
    30
100
AcDbLine
 10
-188.607698
 20
769.843227
 30
0.0
 11
-189.31739
 21
769.055034
 31
0.0
  0
LINE
  5
330
330
2D0
100
AcDbEntity
  8
0
  6
Continuous
 62
     0
370
    30
100
AcDbLine
 10
-203.752688
 20
1058.826681
 30
0.0
 11
-188.607698
 21
769.843227
 31
0.0
  0
LINE
  5
331
330
2D0
100
AcDbEntity
  8
0
  6
Continuous
 62
     0
370
    30
100
AcDbLine
 10
-208.745835
 20
1058.565001
 30
0.0
 11
-193.600845
 21
769.581547
 31
0.0
  0
ARC
  5
332
330
2D0
100
AcDbEntity
  8
0
  6
Continuous
 62
     0
370
    30
100
AcDbCircle
 10
-177.486891
 20
1109.442867
 30
0.0
 40
2.998833774731899
100
AcDbArc
 50
89.985805
 51
155.014196
  0
ARC
  5
333
330
2D0
100
AcDbEntity
  8
0
  6
Continuous
 62
     0
370
    30
100
AcDbCircle
 10
-177.485658
 20
1109.440931
 30
0.0
 40
8.000769788467746
100
AcDbArc
 50
90.003514
 51
154.996488
  0
LINE
  5
334
330
2D0
100
AcDbEntity
  8
0
  6
Continuous
 62
     0
370
    30
100
AcDbLine
 10
-199.766608
 20
1068.759705
 30
0.0
 11
-203.291079
 21
1061.201452
 31
0.0
  0
LINE
  5
335
330
2D0
100
AcDbEntity
  8
0
  6
Continuous
 62
     0
370
    30
100
AcDbLine
 10
-180.205071
 20
1110.709556
 30
0.0
 11
-186.932118
 21
1096.283358
 31
0.0
  0
LINE
  5
336
330
2D0
100
AcDbEntity
  8
0
  6
Continuous
 62
     0
370
    30
100
AcDbLine
 10
-205.283498
 20
1068.759705
 30
0.0
 11
-207.822618
 21
1063.314544
 31
0.0
  0
LINE
  5
337
330
2D0
100
AcDbEntity
  8
0
  6
Continuous
 62
     0
370
    30
100
AcDbLine
 10
-184.73661
 20
1112.822647
 30
0.0
 11
-186.933745
 21
1108.110877
 31
0.0
  0
ARC
  5
338
330
2D0
100
AcDbEntity
  8
0
  6
Continuous
 62
     0
370
    30
100
AcDbCircle
 10
-198.75871
 20
1059.0882
 30
0.0
 40
5.000820308132276
100
AcDbArc
 50
155.002343
 51
182.997658
  0
ARC
  5
339
330
2D0
100
AcDbEntity
  8
0
  6
Continuous
 62
     0
370
    30
100
AcDbCircle
 10
-198.75788
 20
1059.088039
 30
0.0
 40
10.00164061627513
100
AcDbArc
 50
155.002343
 51
182.997658
  0
LINE
  5
33A
330
2D0
100
AcDbEntity
  8
0
  6
Continuous
 62
     0
370
     0
100
AcDbLine
 10
-198.403748
 20
1297.909698
 30
0.0
 11
-209.403748
 21
1297.909698
 31
0.0
  0
LINE
  5
33B
330
2D0
100
AcDbEntity
  8
0
  6
Continuous
 62
     0
370
     0
100
AcDbLine
 10
-209.403748
 20
1297.909698
 30
0.0
 11
-220.403748
 21
1297.909698
 31
0.0
  0
LINE
  5
33C
330
2D0
100
AcDbEntity
  8
0
  6
Continuous
 62
     0
370
     0
100
AcDbLine
 10
-400.403748
 20
1297.909698
 30
0.0
 11
-389.403748
 21
1297.909698
 31
0.0
  0
LINE
  5
33D
330
2D0
100
AcDbEntity
  8
0
  6
Continuous
 62
     0
370
     0
100
AcDbLine
 10
-389.403748
 20
1297.909698
 30
0.0
 11
-378.403748
 21
1297.909698
 31
0.0
  0
LINE
  5
33E
330
2D0
100
AcDbEntity
  8
0
  6
Continuous
 62
     0
370
    30
100
AcDbLine
 10
-400.403748
 20
1273.909698
 30
0.0
 11
-398.740973
 21
1273.909698
 31
0.0
  0
LINE
  5
33F
330
2D0
100
AcDbEntity
  8
0
  6
Continuous
 62
     0
370
    30
100
AcDbLine
 10
-400.403748
 20
1273.909698
 30
0.0
 11
-400.403748
 21
1297.909698
 31
0.0
  0
LINE
  5
340
330
2D0
100
AcDbEntity
  8
0
  6
Continuous
 62
     0
370
    30
100
AcDbLine
 10
-378.403748
 20
1273.909698
 30
0.0
 11
-378.403748
 21
1297.909698
 31
0.0
  0
ARC
  5
341
330
2D0
100
AcDbEntity
  8
0
  6
Continuous
 62
     0
370
    30
100
AcDbCircle
 10
-299.403748
 20
1297.909332
 30
0.0
 40
101.0000000006645
100
AcDbArc
 50
0.000208
 51
179.999792
  0
ARC
  5
342
330
2D0
100
AcDbEntity
  8
0
  6
Continuous
 62
     0
370
    30
100
AcDbCircle
 10
-299.403748
 20
1297.909215
 30
0.0
 40
79.00000000147892
100
AcDbArc
 50
0.000351
 51
179.999649
  0
LINE
  5
343
330
2D0
100
AcDbEntity
  8
0
  6
Continuous
 62
     0
370
    30
100
AcDbLine
 10
-198.403748
 20
1297.909698
 30
0.0
 11
-198.403748
 21
1205.759699
 31
0.0
  0
LINE
  5
344
330
2D0
100
AcDbEntity
  8
0
  6
Continuous
 62
     0
370
    30
100
AcDbLine
 10
-220.403748
 20
1297.909698
 30
0.0
 11
-220.403748
 21
1205.759699
 31
0.0
  0
LINE
  5
345
330
2D0
100
AcDbEntity
  8
0
  6
Continuous
 62
     0
370
    30
100
AcDbLine
 10
-202.903759
 20
1205.759699
 30
0.0
 11
-187.903748
 21
1205.759699
 31
0.0
  0
LINE
  5
346
330
2D0
100
AcDbEntity
  8
0
  6
Continuous
 62
     0
370
    30
100
AcDbLine
 10
-230.23208
 20
1205.759699
 30
0.0
 11
-215.903759
 21
1205.759699
 31
0.0
  0
LINE
  5
347
330
2D0
100
AcDbEntity
  8
0
  6
Continuous
 62
     0
370
    30
100
AcDbLine
 10
-230.903748
 20
1205.759699
 30
0.0
 11
-230.23208
 21
1205.759699
 31
0.0
  0
LINE
  5
348
330
2D0
100
AcDbEntity
  8
0
  6
Continuous
 62
     0
370
     0
100
AcDbLine
 10
-202.903759
 20
1205.259699
 30
0.0
 11
-187.403748
 21
1205.259699
 31
0.0
  0
LINE
  5
349
330
2D0
100
AcDbEntity
  8
0
  6
Continuous
 62
     0
370
     0
100
AcDbLine
 10
-230.71646
 20
1205.259699
 30
0.0
 11
-215.903759
 21
1205.259699
 31
0.0
  0
LINE
  5
34A
330
2D0
100
AcDbEntity
  8
0
  6
Continuous
 62
     0
370
     0
100
AcDbLine
 10
-231.403748
 20
1205.259699
 30
0.0
 11
-230.71646
 21
1205.259699
 31
0.0
  0
LINE
  5
34B
330
2D0
100
AcDbEntity
  8
0
  6
Continuous
 62
     0
370
    30
100
AcDbLine
 10
-202.903756
 20
1184.059699
 30
0.0
 11
-187.403748
 21
1184.059699
 31
0.0
  0
LINE
  5
34C
330
2D0
100
AcDbEntity
  8
0
  6
Continuous
 62
     0
370
    30
100
AcDbLine
 10
-230.71646
 20
1184.059699
 30
0.0
 11
-215.903756
 21
1184.059699
 31
0.0
  0
LINE
  5
34D
330
2D0
100
AcDbEntity
  8
0
  6
Continuous
 62
     0
370
    30
100
AcDbLine
 10
-231.403748
 20
1184.059699
 30
0.0
 11
-230.71646
 21
1184.059699
 31
0.0
  0
LINE
  5
34E
330
2D0
100
AcDbEntity
  8
0
  6
Continuous
 62
     0
370
    30
100
AcDbLine
 10
-231.103793
 20
1183.759726
 30
0.0
 11
-231.403766
 21
1184.059699
 31
0.0
  0
LINE
  5
34F
330
2D0
100
AcDbEntity
  8
0
  6
Continuous
 62
     0
370
    30
100
AcDbLine
 10
-187.703777
 20
1183.759724
 30
0.0
 11
-187.403803
 21
1184.059699
 31
0.0
  0
LINE
  5
350
330
2D0
100
AcDbEntity
  8
0
  6
Continuous
 62
     0
370
    30
100
AcDbLine
 10
-187.403748
 20
1184.059699
 30
0.0
 11
-187.403748
 21
1205.259699
 31
0.0
  0
LINE
  5
351
330
2D0
100
AcDbEntity
  8
0
  6
Continuous
 62
     0
370
    30
100
AcDbLine
 10
-231.403748
 20
1184.059699
 30
0.0
 11
-231.403748
 21
1205.259699
 31
0.0
  0
ARC
  5
352
330
2D0
100
AcDbEntity
  8
0
  6
Continuous
 62
     0
370
    30
100
AcDbCircle
 10
-230.903728
 20
1205.259661
 30
0.0
 40
0.5000377307416861
100
AcDbArc
 50
90.010454
 51
179.995677
  0
ARC
  5
353
330
2D0
100
AcDbEntity
  8
0
  6
Continuous
 62
     0
370
    30
100
AcDbCircle
 10
-187.903839
 20
1205.259662
 30
0.0
 40
0.5000368502383084
100
AcDbArc
 50
0.004222
 51
89.989913
  0
LINE
  5
354
330
2D0
100
AcDbEntity
  8
0
  6
Continuous
 62
     0
370
    30
100
AcDbLine
 10
-378.403748
 20
1273.909696
 30
0.0
 11
-398.740973
 21
1273.909696
 31
0.0
  0
LINE
  5
355
330
2D0
100
AcDbEntity
  8
0
  6
Continuous
 62
     0
370
     0
100
AcDbLine
 10
-398.740973
 20
1254.109696
 30
0.0
 11
-400.403748
 21
1254.109696
 31
0.0
  0
LINE
  5
356
330
2D0
100
AcDbEntity
  8
0
  6
Continuous
 62
     0
370
     0
100
AcDbLine
 10
-378.403748
 20
1254.109696
 30
0.0
 11
-398.740973
 21
1254.109696
 31
0.0
  0
LINE
  5
357
330
2D0
100
AcDbEntity
  8
0
  6
Continuous
 62
     0
370
    30
100
AcDbLine
 10
-398.571205
 20
1253.909696
 30
0.0
 11
-400.203748
 21
1253.909696
 31
0.0
  0
LINE
  5
358
330
2D0
100
AcDbEntity
  8
0
  6
Continuous
 62
     0
370
    30
100
AcDbLine
 10
-378.603748
 20
1253.909696
 30
0.0
 11
-398.571205
 21
1253.909696
 31
0.0
  0
ARC
  5
359
330
2D0
100
AcDbEntity
  8
0
  6
Continuous
 62
     0
370
    30
100
AcDbCircle
 10
-378.604049
 20
1254.109996
 30
0.0
 40
0.2003008867700002
100
AcDbArc
 50
270.086004
 51
359.913996
  0
ARC
  5
35A
330
2D0
100
AcDbEntity
  8
0
  6
Continuous
 62
     0
370
    30
100
AcDbCircle
 10
-400.203447
 20
1254.109996
 30
0.0
 40
0.2003008867399988
100
AcDbArc
 50
180.086004
 51
269.913996
  0
LINE
  5
35B
330
2D0
100
AcDbEntity
  8
0
  6
Continuous
 62
     0
370
    30
100
AcDbLine
 10
-378.403748
 20
1273.909696
 30
0.0
 11
-378.403748
 21
1254.109696
 31
0.0
  0
LINE
  5
35C
330
2D0
100
AcDbEntity
  8
0
  6
Continuous
 62
     0
370
    30
100
AcDbLine
 10
-400.403748
 20
1273.909696
 30
0.0
 11
-400.403748
 21
1254.109696
 31
0.0
  0
ENDBLK
  5
35E
330
2D0
100
AcDbEntity
  8
0
100
AcDbBlockEnd
  0
ENDSEC
  0
SECTION
  2
ENTITIES
  0
INSERT
  5
10A
330
1F
100
AcDbEntity
  8
0
  6
Continuous
 62
     7
420
 16777215
370
     0
100
AcDbBlockReference
  2
a
 10
50.557632
 20
229.884827
 30
0.0
  0
INSERT
  5
199
330
1F
100
AcDbEntity
  8
0
  6
Continuous
 62
     7
420
 16777215
370
     0
100
AcDbBlockReference
  2
b
 10
50.557629
 20
801.345215
 30
0.0
  0
INSERT
  5
204
330
1F
100
AcDbEntity
  8
0
  6
Continuous
 62
     7
420
 16777215
370
     0
100
AcDbBlockReference
  2
c
 10
353.461685
 20
229.885071
 30
0.0
  0
INSERT
  5
2CF
330
1F
100
AcDbEntity
  8
0
  6
Continuous
 62
     7
420
 16777215
370
     0
100
AcDbBlockReference
  2
d
 10
348.203598
 20
217.830322
 30
0.0
  0
INSERT
  5
35F
330
1F
100
AcDbEntity
  8
0
  6
Continuous
 62
     7
420
 16777215
370
     0
100
AcDbBlockReference
  2
e
 10
-229.847717
 20
-0.000122
 30
0.0
  0
ENDSEC
  0
SECTION
  2
OBJECTS
  0
DICTIONARY
  5
C
330
0
100
AcDbDictionary
281
     1
  3
ACAD_GROUP
350
D
  3
ACAD_LAYOUT
350
1A
  3
ACAD_MATERIAL
350
3B
  3
ACAD_MLEADERSTYLE
350
361
  3
ACAD_MLINESTYLE
350
17
  3
ACAD_PLOTSETTINGS
350
19
  3
ACAD_PLOTSTYLENAME
350
E
  3
ACAD_TABLESTYLE
350
360
  3
ACAD_VISUALSTYLE
350
2A
  0
DICTIONARY
  5
D
102
{ACAD_REACTORS
330
C
102
}
330
C
100
AcDbDictionary
281
     1
  0
DICTIONARY
  5
1A
102
{ACAD_REACTORS
330
C
102
}
330
C
100
AcDbDictionary
281
     1
  3
Layout1
350
1E
  3
Layout2
350
26
  3
Model
350
22
  0
DICTIONARY
  5
3B
102
{ACAD_REACTORS
330
C
102
}
330
C
100
AcDbDictionary
281
     1
  3
ByBlock
350
3D
  3
ByLayer
350
3C
  3
Global
350
3E
  0
DICTIONARY
  5
361
102
{ACAD_REACTORS
330
C
102
}
330
C
100
AcDbDictionary
281
     1
  0
DICTIONARY
  5
17
102
{ACAD_REACTORS
330
C
102
}
330
C
100
AcDbDictionary
281
     1
  3
Standard
350
18
  0
DICTIONARY
  5
19
102
{ACAD_REACTORS
330
C
102
}
330
C
100
AcDbDictionary
281
     1
  0
ACDBDICTIONARYWDFLT
  5
E
102
{ACAD_REACTORS
330
C
102
}
330
C
100
AcDbDictionary
281
     1
  3
Normal
350
F
100
AcDbDictionaryWithDefault
340
F
  0
DICTIONARY
  5
360
102
{ACAD_REACTORS
330
C
102
}
330
C
100
AcDbDictionary
281
     1
  0
DICTIONARY
  5
2A
102
{ACAD_REACTORS
330
C
102
}
330
C
100
AcDbDictionary
281
     1
  3
2dWireframe
350
2F
  3
3D Hidden
350
31
  3
3dWireframe
350
30
  3
Basic
350
32
  3
Brighten
350
36
  3
ColorChange
350
3A
  3
Conceptual
350
34
  3
Dim
350
35
  3
Facepattern
350
39
  3
Flat
350
2B
  3
FlatWithEdges
350
2C
  3
Gouraud
350
2D
  3
GouraudWithEdges
350
2E
  3
Linepattern
350
38
  3
Realistic
350
33
  3
Thicken
350
37
  0
LAYOUT
  5
1E
102
{ACAD_REACTORS
330
1A
102
}
330
1A
100
AcDbPlotSettings
  1

  2
none_device
  4

  6

 40
0.0
 41
0.0
 42
0.0
 43
0.0
 44
0.0
 45
0.0
 46
0.0
 47
0.0
 48
0.0
 49
0.0
140
0.0
141
0.0
142
1.0
143
1.0
 70
   688
 72
     0
 73
     0
 74
     5
  7

 75
    16
 76
     0
 77
     2
 78
   300
147
1.0
148
0.0
149
0.0
100
AcDbLayout
  1
Layout1
 70
     1
 71
     1
 10
0.0
 20
0.0
 11
420.0
 21
297.0
 12
0.0
 22
0.0
 32
0.0
 14
1.000000E+20
 24
1.000000E+20
 34
1.000000E+20
 15
-1.000000E+20
 25
-1.000000E+20
 35
-1.000000E+20
146
0.0
 13
0.0
 23
0.0
 33
0.0
 16
1.0
 26
0.0
 36
0.0
 17
0.0
 27
1.0
 37
0.0
 76
     0
330
1B
  0
LAYOUT
  5
26
102
{ACAD_REACTORS
330
1A
102
}
330
1A
100
AcDbPlotSettings
  1

  2
none_device
  4

  6

 40
0.0
 41
0.0
 42
0.0
 43
0.0
 44
0.0
 45
0.0
 46
0.0
 47
0.0
 48
0.0
 49
0.0
140
0.0
141
0.0
142
1.0
143
1.0
 70
   688
 72
     0
 73
     0
 74
     5
  7

 75
    16
 76
     0
 77
     2
 78
   300
147
1.0
148
0.0
149
0.0
100
AcDbLayout
  1
Layout2
 70
     1
 71
     2
 10
0.0
 20
0.0
 11
0.0
 21
0.0
 12
0.0
 22
0.0
 32
0.0
 14
0.0
 24
0.0
 34
0.0
 15
0.0
 25
0.0
 35
0.0
146
0.0
 13
0.0
 23
0.0
 33
0.0
 16
1.0
 26
0.0
 36
0.0
 17
0.0
 27
1.0
 37
0.0
 76
     0
330
23
  0
LAYOUT
  5
22
102
{ACAD_REACTORS
330
1A
102
}
330
1A
100
AcDbPlotSettings
  1

  2
none_device
  4

  6

 40
0.0
 41
0.0
 42
0.0
 43
0.0
 44
0.0
 45
0.0
 46
0.0
 47
0.0
 48
0.0
 49
0.0
140
0.0
141
0.0
142
1.0
143
1.0
 70
  1712
 72
     0
 73
     0
 74
     0
  7

 75
     0
 76
     0
 77
     2
 78
   300
147
1.0
148
0.0
149
0.0
100
AcDbLayout
  1
Model
 70
     1
 71
     0
 10
0.0
 20
0.0
 11
420.0
 21
297.0
 12
0.0
 22
0.0
 32
0.0
 14
1.000000E+20
 24
1.000000E+20
 34
1.000000E+20
 15
-1.000000E+20
 25
-1.000000E+20
 35
-1.000000E+20
146
0.0
 13
0.0
 23
0.0
 33
0.0
 16
1.0
 26
0.0
 36
0.0
 17
0.0
 27
1.0
 37
0.0
 76
     0
330
1F
331
29
  0
MATERIAL
  5
3D
102
{ACAD_REACTORS
330
3B
102
}
330
3B
100
AcDbMaterial
  1
ByBlock
 72
     1
 94
      127
  0
MATERIAL
  5
3C
102
{ACAD_REACTORS
330
3B
102
}
330
3B
100
AcDbMaterial
  1
ByLayer
 72
     1
 94
      127
  0
MATERIAL
  5
3E
102
{ACAD_REACTORS
330
3B
102
}
330
3B
100
AcDbMaterial
  1
Global
 72
     1
 94
      127
  0
MLINESTYLE
  5
18
102
{ACAD_REACTORS
330
17
102
}
330
17
100
AcDbMlineStyle
  2
Standard
 70
     0
  3

 62
   256
 51
90.0
 52
90.0
 71
     2
 49
0.5
 62
   256
  6
BYLAYER
 49
-0.5
 62
   256
  6
BYLAYER
  0
ACDBPLACEHOLDER
  5
F
102
{ACAD_REACTORS
330
E
102
}
330
E
  0
VISUALSTYLE
  5
2F
102
{ACAD_REACTORS
330
2A
102
}
330
2A
100
AcDbVisualStyle
  2
2dWireframe
 70
     4
177
     2
291
     0
 71
     0
176
     1
 72
     2
176
     1
 73
     0
176
     1
 90
        0
176
     1
 40
-0.6
176
     1
 41
-30.0
176
     1
 62
     5
 63
     7
421
 16777215
176
     1
 74
     1
176
     1
 91
        4
176
     1
 64
     7
176
     1
 65
   257
176
     1
 75
     1
176
     1
175
     1
176
     1
 42
1.0
176
     1
 92
        0
176
     1
 66
   257
176
     1
 43
1.0
176
     1
 76
     1
176
     1
 77
     6
176
     1
 78
     2
176
     1
 67
     7
176
     1
 79
     5
176
     1
170
     0
176
     1
171
     0
176
     1
290
     0
176
     1
 93
        1
176
     1
 44
0.0
176
     1
173
     0
176
     1
  0
VISUALSTYLE
  5
31
102
{ACAD_REACTORS
330
2A
102
}
330
2A
100
AcDbVisualStyle
  2
3D Hidden
 70
     6
177
     2
291
     0
 71
     1
176
     1
 72
     2
176
     1
 73
     2
176
     1
 90
        0
176
     1
 40
-0.6
176
     1
 41
-30.0
176
     1
 62
     5
 63
     7
421
 16777215
176
     1
 74
     2
176
     1
 91
        2
176
     1
 64
     7
176
     1
 65
   257
176
     1
 75
     2
176
     1
175
     1
176
     1
 42
40.0
176
     1
 92
        0
176
     1
 66
   257
176
     1
 43
1.0
176
     1
 76
     1
176
     1
 77
     6
176
     1
 78
     2
176
     1
 67
     7
176
     1
 79
     3
176
     1
170
     0
176
     1
171
     0
176
     1
290
     0
176
     1
 93
        1
176
     1
 44
0.0
176
     1
173
     0
176
     1
  0
VISUALSTYLE
  5
30
102
{ACAD_REACTORS
330
2A
102
}
330
2A
100
AcDbVisualStyle
  2
3dWireframe
 70
     5
177
     2
291
     0
 71
     0
176
     1
 72
     2
176
     1
 73
     0
176
     1
 90
        0
176
     1
 40
-0.6
176
     1
 41
-30.0
176
     1
 62
     5
 63
     7
421
 16777215
176
     1
 74
     1
176
     1
 91
        4
176
     1
 64
     7
176
     1
 65
   257
176
     1
 75
     1
176
     1
175
     1
176
     1
 42
1.0
176
     1
 92
        0
176
     1
 66
   257
176
     1
 43
1.0
176
     1
 76
     1
176
     1
 77
     6
176
     1
 78
     2
176
     1
 67
     7
176
     1
 79
     5
176
     1
170
     0
176
     1
171
     0
176
     1
290
     0
176
     1
 93
        1
176
     1
 44
0.0
176
     1
173
     0
176
     1
  0
VISUALSTYLE
  5
32
102
{ACAD_REACTORS
330
2A
102
}
330
2A
100
AcDbVisualStyle
  2
Basic
 70
     7
177
     2
291
     1
 71
     1
176
     1
 72
     0
176
     1
 73
     1
176
     1
 90
        0
176
     1
 40
-0.6
176
     1
 41
-30.0
176
     1
 62
     5
 63
     7
421
 16777215
176
     1
 74
     0
176
     1
 91
        4
176
     1
 64
     7
176
     1
 65
   257
176
     1
 75
     1
176
     1
175
     1
176
     1
 42
1.0
176
     1
 92
        8
176
     1
 66
     7
176
     1
 43
1.0
176
     1
 76
     1
176
     1
 77
     6
176
     1
 78
     2
176
     1
 67
     7
176
     1
 79
     5
176
     1
170
     0
176
     1
171
     0
176
     1
290
     0
176
     1
 93
        1
176
     1
 44
0.0
176
     1
173
     0
176
     1
  0
VISUALSTYLE
  5
36
102
{ACAD_REACTORS
330
2A
102
}
330
2A
100
AcDbVisualStyle
  2
Brighten
 70
    12
177
     2
291
     1
 71
     2
176
     1
 72
     2
176
     1
 73
     0
176
     1
 90
        0
176
     1
 40
-0.6
176
     1
 41
-30.0
176
     1
 62
     5
 63
     7
421
 16777215
176
     1
 74
     1
176
     1
 91
        4
176
     1
 64
     7
176
     1
 65
   257
176
     1
 75
     1
176
     1
175
     1
176
     1
 42
1.0
176
     1
 92
        8
176
     1
 66
     7
176
     1
 43
1.0
176
     1
 76
     1
176
     1
 77
     6
176
     1
 78
     2
176
     1
 67
     7
176
     1
 79
     5
176
     1
170
     0
176
     1
171
     0
176
     1
290
     0
176
     1
 93
        1
176
     1
 44
50.0
176
     1
173
     0
176
     1
  0
VISUALSTYLE
  5
3A
102
{ACAD_REACTORS
330
2A
102
}
330
2A
100
AcDbVisualStyle
  2
ColorChange
 70
    16
177
     2
291
     1
 71
     2
176
     1
 72
     2
176
     1
 73
     3
176
     1
 90
        0
176
     1
 40
-0.6
176
     1
 41
-30.0
176
     1
 62
     5
 63
     8
421
  8421504
176
     1
 74
     1
176
     1
 91
        4
176
     1
 64
     7
176
     1
 65
   257
176
     1
 75
     1
176
     1
175
     1
176
     1
 42
1.0
176
     1
 92
        8
176
     1
 66
     8
424
  8421504
176
     1
 43
1.0
176
     1
 76
     1
176
     1
 77
     6
176
     1
 78
     2
176
     1
 67
     7
176
     1
 79
     5
176
     1
170
     0
176
     1
171
     0
176
     1
290
     0
176
     1
 93
        1
176
     1
 44
0.0
176
     1
173
     0
176
     1
  0
VISUALSTYLE
  5
34
102
{ACAD_REACTORS
330
2A
102
}
330
2A
100
AcDbVisualStyle
  2
Conceptual
 70
     9
177
     2
291
     0
 71
     3
176
     1
 72
     2
176
     1
 73
     0
176
     1
 90
        0
176
     1
 40
-0.6
176
     1
 41
-30.0
176
     1
 62
     5
 63
     7
421
 16777215
176
     1
 74
     2
176
     1
 91
        2
176
     1
 64
     7
176
     1
 65
   257
176
     1
 75
     1
176
     1
175
     1
176
     1
 42
40.0
176
     1
 92
        8
176
     1
 66
     7
176
     1
 43
1.0
176
     1
 76
     1
176
     1
 77
     6
176
     1
 78
     2
176
     1
 67
     7
176
     1
 79
     3
176
     1
170
     0
176
     1
171
     0
176
     1
290
     0
176
     1
 93
        1
176
     1
 44
0.0
176
     1
173
     0
176
     1
  0
VISUALSTYLE
  5
35
102
{ACAD_REACTORS
330
2A
102
}
330
2A
100
AcDbVisualStyle
  2
Dim
 70
    11
177
     2
291
     1
 71
     2
176
     1
 72
     2
176
     1
 73
     0
176
     1
 90
        0
176
     1
 40
-0.6
176
     1
 41
-30.0
176
     1
 62
     5
 63
     7
421
 16777215
176
     1
 74
     1
176
     1
 91
        4
176
     1
 64
     7
176
     1
 65
   257
176
     1
 75
     1
176
     1
175
     1
176
     1
 42
1.0
176
     1
 92
        8
176
     1
 66
     7
176
     1
 43
1.0
176
     1
 76
     1
176
     1
 77
     6
176
     1
 78
     2
176
     1
 67
     7
176
     1
 79
     5
176
     1
170
     0
176
     1
171
     0
176
     1
290
     0
176
     1
 93
        1
176
     1
 44
-50.0
176
     1
173
     0
176
     1
  0
VISUALSTYLE
  5
39
102
{ACAD_REACTORS
330
2A
102
}
330
2A
100
AcDbVisualStyle
  2
Facepattern
 70
    15
177
     2
291
     1
 71
     2
176
     1
 72
     2
176
     1
 73
     0
176
     1
 90
        0
176
     1
 40
-0.6
176
     1
 41
-30.0
176
     1
 62
     5
 63
     7
421
 16777215
176
     1
 74
     1
176
     1
 91
        4
176
     1
 64
     7
176
     1
 65
   257
176
     1
 75
     1
176
     1
175
     1
176
     1
 42
1.0
176
     1
 92
        8
176
     1
 66
     7
176
     1
 43
1.0
176
     1
 76
     1
176
     1
 77
     6
176
     1
 78
     2
176
     1
 67
     7
176
     1
 79
     5
176
     1
170
     0
176
     1
171
     0
176
     1
290
     0
176
     1
 93
        1
176
     1
 44
0.0
176
     1
173
     0
176
     1
  0
VISUALSTYLE
  5
2B
102
{ACAD_REACTORS
330
2A
102
}
330
2A
100
AcDbVisualStyle
  2
Flat
 70
     0
177
     2
291
     1
 71
     2
176
     1
 72
     1
176
     1
 73
     1
176
     1
 90
        2
176
     1
 40
-0.6
176
     1
 41
30.0
176
     1
 62
     5
 63
     7
421
 16777215
176
     1
 74
     0
176
     1
 91
        4
176
     1
 64
     7
176
     1
 65
   257
176
     1
 75
     1
176
     1
175
     1
176
     1
 42
1.0
176
     1
 92
        8
176
     1
 66
     7
176
     1
 43
1.0
176
     1
 76
     1
176
     1
 77
     6
176
     1
 78
     2
176
     1
 67
     7
176
     1
 79
     5
176
     1
170
     0
176
     1
171
     0
176
     1
290
     0
176
     1
 93
       13
176
     1
 44
0.0
176
     1
173
     0
176
     1
  0
VISUALSTYLE
  5
2C
102
{ACAD_REACTORS
330
2A
102
}
330
2A
100
AcDbVisualStyle
  2
FlatWithEdges
 70
     1
177
     2
291
     1
 71
     2
176
     1
 72
     1
176
     1
 73
     1
176
     1
 90
        2
176
     1
 40
-0.6
176
     1
 41
30.0
176
     1
 62
     5
 63
     7
421
 16777215
176
     1
 74
     1
176
     1
 91
        4
176
     1
 64
     7
176
     1
 65
   257
176
     1
 75
     1
176
     1
175
     1
176
     1
 42
1.0
176
     1
 92
        0
176
     1
 66
   257
176
     1
 43
1.0
176
     1
 76
     1
176
     1
 77
     6
176
     1
 78
     2
176
     1
 67
     7
176
     1
 79
     5
176
     1
170
     0
176
     1
171
     0
176
     1
290
     0
176
     1
 93
       13
176
     1
 44
0.0
176
     1
173
     0
176
     1
  0
VISUALSTYLE
  5
2D
102
{ACAD_REACTORS
330
2A
102
}
330
2A
100
AcDbVisualStyle
  2
Gouraud
 70
     2
177
     2
291
     1
 71
     2
176
     1
 72
     2
176
     1
 73
     1
176
     1
 90
        2
176
     1
 40
-0.6
176
     1
 41
30.0
176
     1
 62
     5
 63
     7
421
 16777215
176
     1
 74
     0
176
     1
 91
        4
176
     1
 64
     7
176
     1
 65
   257
176
     1
 75
     1
176
     1
175
     1
176
     1
 42
1.0
176
     1
 92
        0
176
     1
 66
     7
176
     1
 43
1.0
176
     1
 76
     1
176
     1
 77
     6
176
     1
 78
     2
176
     1
 67
     7
176
     1
 79
     5
176
     1
170
     0
176
     1
171
     0
176
     1
290
     0
176
     1
 93
       13
176
     1
 44
0.0
176
     1
173
     0
176
     1
  0
VISUALSTYLE
  5
2E
102
{ACAD_REACTORS
330
2A
102
}
330
2A
100
AcDbVisualStyle
  2
GouraudWithEdges
 70
     3
177
     2
291
     1
 71
     2
176
     1
 72
     2
176
     1
 73
     1
176
     1
 90
        2
176
     1
 40
-0.6
176
     1
 41
30.0
176
     1
 62
     5
 63
     7
421
 16777215
176
     1
 74
     1
176
     1
 91
        4
176
     1
 64
     7
176
     1
 65
   257
176
     1
 75
     1
176
     1
175
     1
176
     1
 42
1.0
176
     1
 92
        0
176
     1
 66
   257
176
     1
 43
1.0
176
     1
 76
     1
176
     1
 77
     6
176
     1
 78
     2
176
     1
 67
     7
176
     1
 79
     5
176
     1
170
     0
176
     1
171
     0
176
     1
290
     0
176
     1
 93
       13
176
     1
 44
0.0
176
     1
173
     0
176
     1
  0
VISUALSTYLE
  5
38
102
{ACAD_REACTORS
330
2A
102
}
330
2A
100
AcDbVisualStyle
  2
Linepattern
 70
    14
177
     2
291
     1
 71
     2
176
     1
 72
     2
176
     1
 73
     0
176
     1
 90
        0
176
     1
 40
-0.6
176
     1
 41
-30.0
176
     1
 62
     5
 63
     7
421
 16777215
176
     1
 74
     1
176
     1
 91
        4
176
     1
 64
     7
176
     1
 65
   257
176
     1
 75
     7
176
     1
175
     7
176
     1
 42
1.0
176
     1
 92
        8
176
     1
 66
     7
176
     1
 43
1.0
176
     1
 76
     1
176
     1
 77
     6
176
     1
 78
     2
176
     1
 67
     7
176
     1
 79
     5
176
     1
170
     0
176
     1
171
     0
176
     1
290
     0
176
     1
 93
        1
176
     1
 44
0.0
176
     1
173
     0
176
     1
  0
VISUALSTYLE
  5
33
102
{ACAD_REACTORS
330
2A
102
}
330
2A
100
AcDbVisualStyle
  2
Realistic
 70
     8
177
     2
291
     0
 71
     2
176
     1
 72
     2
176
     1
 73
     0
176
     1
 90
        0
176
     1
 40
-0.6
176
     1
 41
-30.0
176
     1
 62
     5
 63
     7
421
 16777215
176
     1
 74
     1
176
     1
 91
        0
176
     1
 64
     7
176
     1
 65
   257
176
     1
 75
     1
176
     1
175
     1
176
     1
 42
1.0
176
     1
 92
        8
176
     1
 66
     8
424
  7895160
176
     1
 43
1.0
176
     1
 76
     1
176
     1
 77
     6
176
     1
 78
     2
176
     1
 67
     7
176
     1
 79
     5
176
     1
170
     0
176
     1
171
     0
176
     1
290
     0
176
     1
 93
       13
176
     1
 44
0.0
176
     1
173
     0
176
     1
  0
VISUALSTYLE
  5
37
102
{ACAD_REACTORS
330
2A
102
}
330
2A
100
AcDbVisualStyle
  2
Thicken
 70
    13
177
     2
291
     1
 71
     2
176
     1
 72
     2
176
     1
 73
     0
176
     1
 90
        0
176
     1
 40
-0.6
176
     1
 41
-30.0
176
     1
 62
     5
 63
     7
421
 16777215
176
     1
 74
     1
176
     1
 91
        4
176
     1
 64
     7
176
     1
 65
   257
176
     1
 75
     1
176
     1
175
     1
176
     1
 42
1.0
176
     1
 92
       12
176
     1
 66
     7
176
     1
 43
1.0
176
     1
 76
     1
176
     1
 77
     6
176
     1
 78
     2
176
     1
 67
     7
176
     1
 79
     5
176
     1
170
     0
176
     1
171
     0
176
     1
290
     0
176
     1
 93
        1
176
     1
 44
0.0
176
     1
173
     0
176
     1
  0
ENDSEC
  0
EOF
