  0
SECTION
  2
HEADER
  9
$ACADVER
  1
AC1024
  9
$ACADMAINTVER
 70
     6
  9
$DWGCODEPAGE
  3
ANSI_1252
  9
$INSBASE
 10
0.0
 20
0.0
 30
0.0
  9
$EXTMIN
 10
1.000000E+20
 20
1.000000E+20
 30
1.000000E+20
  9
$EXTMAX
 10
-1.000000E+20
 20
-1.000000E+20
 30
-1.000000E+20
  9
$LIMMIN
 10
0.0
 20
0.0
  9
$LIMMAX
 10
420.0
 20
297.0
  9
$ORTHOMODE
 70
     0
  9
$REGENMODE
 70
     1
  9
$FILLMODE
 70
     1
  9
$QTEXTMODE
 70
     0
  9
$MIRRTEXT
 70
     1
  9
$LTSCALE
 40
1.0
  9
$ATTMODE
 70
     1
  9
$TEXTSIZE
 40
2.5
  9
$TRACEWID
 40
1.0
  9
$TEXTSTYLE
  7
Standard
  9
$CLAYER
  8
0
  9
$CELTYPE
  6
ByLayer
  9
$CECOLOR
 62
   256
  9
$CELTSCALE
 40
1.0
  9
$DISPSILH
 70
     0
  9
$DIMSCALE
 40
1.0
  9
$DIMASZ
 40
2.5
  9
$DIMEXO
 40
0.625
  9
$DIMDLI
 40
3.75
  9
$DIMRND
 40
0.0
  9
$DIMDLE
 40
0.0
  9
$DIMEXE
 40
1.25
  9
$DIMTP
 40
0.0
  9
$DIMTM
 40
0.0
  9
$DIMTXT
 40
2.5
  9
$DIMCEN
 40
2.5
  9
$DIMTSZ
 40
0.0
  9
$DIMTOL
 70
     0
  9
$DIMLIM
 70
     0
  9
$DIMTIH
 70
     0
  9
$DIMTOH
 70
     0
  9
$DIMSE1
 70
     0
  9
$DIMSE2
 70
     0
  9
$DIMTAD
 70
     1
  9
$DIMZIN
 70
     8
  9
$DIMBLK
  1

  9
$DIMASO
 70
     1
  9
$DIMSHO
 70
     1
  9
$DIMPOST
  1

  9
$DIMAPOST
  1

  9
$DIMALT
 70
     0
  9
$DIMALTD
 70
     3
  9
$DIMALTF
 40
0.03937
  9
$DIMLFAC
 40
1.0
  9
$DIMTOFL
 70
     1
  9
$DIMTVP
 40
0.0
  9
$DIMTIX
 70
     0
  9
$DIMSOXD
 70
     0
  9
$DIMSAH
 70
     0
  9
$DIMBLK1
  1

  9
$DIMBLK2
  1

  9
$DIMSTYLE
  2
ISO-25
  9
$DIMCLRD
 70
     0
  9
$DIMCLRE
 70
     0
  9
$DIMCLRT
 70
     0
  9
$DIMTFAC
 40
1.0
  9
$DIMGAP
 40
0.625
  9
$DIMJUST
 70
     0
  9
$DIMSD1
 70
     0
  9
$DIMSD2
 70
     0
  9
$DIMTOLJ
 70
     0
  9
$DIMTZIN
 70
     8
  9
$DIMALTZ
 70
     0
  9
$DIMALTTZ
 70
     0
  9
$DIMUPT
 70
     0
  9
$DIMDEC
 70
     2
  9
$DIMTDEC
 70
     2
  9
$DIMALTU
 70
     2
  9
$DIMALTTD
 70
     3
  9
$DIMTXSTY
  7
Standard
  9
$DIMAUNIT
 70
     0
  9
$DIMADEC
 70
     0
  9
$DIMALTRND
 40
0.0
  9
$DIMAZIN
 70
     0
  9
$DIMDSEP
 70
    44
  9
$DIMATFIT
 70
     3
  9
$DIMFRAC
 70
     0
  9
$DIMLDRBLK
  1

  9
$DIMLUNIT
 70
     2
  9
$DIMLWD
 70
    -2
  9
$DIMLWE
 70
    -2
  9
$DIMTMOVE
 70
     0
  9
$DIMFXL
 40
1.0
  9
$DIMFXLON
 70
     0
  9
$DIMJOGANG
 40
0.785398
  9
$DIMTFILL
 70
     0
  9
$DIMTFILLCLR
 70
     0
  9
$DIMARCSYM
 70
     0
  9
$DIMLTYPE
  6

  9
$DIMLTEX1
  6

  9
$DIMLTEX2
  6

  9
$DIMTXTDIRECTION
 70
     0
  9
$LUNITS
 70
     2
  9
$LUPREC
 70
     4
  9
$SKETCHINC
 40
1.0
  9
$FILLETRAD
 40
10.0
  9
$AUNITS
 70
     0
  9
$AUPREC
 70
     0
  9
$MENU
  1
.
  9
$ELEVATION
 40
0.0
  9
$PELEVATION
 40
0.0
  9
$THICKNESS
 40
0.0
  9
$LIMCHECK
 70
     0
  9
$CHAMFERA
 40
10.0
  9
$CHAMFERB
 40
10.0
  9
$CHAMFERC
 40
20.0
  9
$CHAMFERD
 40
0.0
  9
$SKPOLY
 70
     0
  9
$TDCREATE
 40
2457128.600082685
  9
$TDUCREATE
 40
2457128.516749352
  9
$TDUPDATE
 40
2457128.600082697
  9
$TDUUPDATE
 40
2457128.516749363
  9
$TDINDWG
 40
0.0000000116
  9
$TDUSRTIMER
 40
0.0000000116
  9
$USRTIMER
 70
     1
  9
$ANGBASE
 50
0.0
  9
$ANGDIR
 70
     0
  9
$PDMODE
 70
     0
  9
$PDSIZE
 40
0.0
  9
$PLINEWID
 40
0.0
  9
$SPLFRAME
 70
     0
  9
$SPLINETYPE
 70
     6
  9
$SPLINESEGS
 70
     8
  9
$HANDSEED
  5
2F2
  9
$SURFTAB1
 70
     6
  9
$SURFTAB2
 70
     6
  9
$SURFTYPE
 70
     6
  9
$SURFU
 70
     6
  9
$SURFV
 70
     6
  9
$UCSBASE
  2

  9
$UCSNAME
  2

  9
$UCSORG
 10
0.0
 20
0.0
 30
0.0
  9
$UCSXDIR
 10
1.0
 20
0.0
 30
0.0
  9
$UCSYDIR
 10
0.0
 20
1.0
 30
0.0
  9
$UCSORTHOREF
  2

  9
$UCSORTHOVIEW
 70
     0
  9
$UCSORGTOP
 10
0.0
 20
0.0
 30
0.0
  9
$UCSORGBOTTOM
 10
0.0
 20
0.0
 30
0.0
  9
$UCSORGLEFT
 10
0.0
 20
0.0
 30
0.0
  9
$UCSORGRIGHT
 10
0.0
 20
0.0
 30
0.0
  9
$UCSORGFRONT
 10
0.0
 20
0.0
 30
0.0
  9
$UCSORGBACK
 10
0.0
 20
0.0
 30
0.0
  9
$PUCSBASE
  2

  9
$PUCSNAME
  2

  9
$PUCSORG
 10
0.0
 20
0.0
 30
0.0
  9
$PUCSXDIR
 10
1.0
 20
0.0
 30
0.0
  9
$PUCSYDIR
 10
0.0
 20
1.0
 30
0.0
  9
$PUCSORTHOREF
  2

  9
$PUCSORTHOVIEW
 70
     0
  9
$PUCSORGTOP
 10
0.0
 20
0.0
 30
0.0
  9
$PUCSORGBOTTOM
 10
0.0
 20
0.0
 30
0.0
  9
$PUCSORGLEFT
 10
0.0
 20
0.0
 30
0.0
  9
$PUCSORGRIGHT
 10
0.0
 20
0.0
 30
0.0
  9
$PUCSORGFRONT
 10
0.0
 20
0.0
 30
0.0
  9
$PUCSORGBACK
 10
0.0
 20
0.0
 30
0.0
  9
$USERI1
 70
     0
  9
$USERI2
 70
     0
  9
$USERI3
 70
     0
  9
$USERI4
 70
     0
  9
$USERI5
 70
     0
  9
$USERR1
 40
0.0
  9
$USERR2
 40
0.0
  9
$USERR3
 40
0.0
  9
$USERR4
 40
0.0
  9
$USERR5
 40
0.0
  9
$WORLDVIEW
 70
     1
  9
$SHADEDGE
 70
     3
  9
$SHADEDIF
 70
    70
  9
$TILEMODE
 70
     1
  9
$MAXACTVP
 70
    64
  9
$PINSBASE
 10
0.0
 20
0.0
 30
0.0
  9
$PLIMCHECK
 70
     0
  9
$PEXTMIN
 10
1.000000E+20
 20
1.000000E+20
 30
1.000000E+20
  9
$PEXTMAX
 10
-1.000000E+20
 20
-1.000000E+20
 30
-1.000000E+20
  9
$PLIMMIN
 10
0.0
 20
0.0
  9
$PLIMMAX
 10
420.0
 20
297.0
  9
$UNITMODE
 70
     0
  9
$VISRETAIN
 70
     1
  9
$PLINEGEN
 70
     0
  9
$PSLTSCALE
 70
     1
  9
$TREEDEPTH
 70
  3020
  9
$CMLSTYLE
  2
Standard
  9
$CMLJUST
 70
     0
  9
$CMLSCALE
 40
20.0
  9
$PROXYGRAPHICS
 70
     1
  9
$MEASUREMENT
 70
     1
  9
$CELWEIGHT
370
    -1
  9
$ENDCAPS
280
     0
  9
$JOINSTYLE
280
     0
  9
$LWDISPLAY
290
     0
  9
$INSUNITS
 70
     4
  9
$HYPERLINKBASE
  1

  9
$STYLESHEET
  1

  9
$XEDIT
290
     1
  9
$CEPSNTYPE
380
     0
  9
$PSTYLEMODE
290
     1
  9
$FINGERPRINTGUID
  2
{7121669F-2797-4018-AE7E-1AE9B700F7C8}
  9
$VERSIONGUID
  2
{FAEB1C32-E019-11D5-929B-00C0DF256EC4}
  9
$EXTNAMES
290
     1
  9
$PSVPSCALE
 40
0.0
  9
$OLESTARTUP
290
     0
  9
$SORTENTS
280
   127
  9
$INDEXCTL
280
     0
  9
$HIDETEXT
280
     1
  9
$XCLIPFRAME
280
     2
  9
$HALOGAP
280
     0
  9
$OBSCOLOR
 70
   257
  9
$OBSLTYPE
280
     0
  9
$INTERSECTIONDISPLAY
280
     0
  9
$INTERSECTIONCOLOR
 70
   257
  9
$DIMASSOC
280
     2
  9
$PROJECTNAME
  1

  9
$CAMERADISPLAY
290
     0
  9
$LENSLENGTH
 40
50.0
  9
$CAMERAHEIGHT
 40
0.0
  9
$STEPSPERSEC
 40
2.0
  9
$STEPSIZE
 40
6.0
  9
$3DDWFPREC
 40
2.0
  9
$PSOLWIDTH
 40
5.0
  9
$PSOLHEIGHT
 40
80.0
  9
$LOFTANG1
 40
1.570796
  9
$LOFTANG2
 40
1.570796
  9
$LOFTMAG1
 40
0.0
  9
$LOFTMAG2
 40
0.0
  9
$LOFTPARAM
 70
     7
  9
$LOFTNORMALS
280
     1
  9
$LATITUDE
 40
37.795
  9
$LONGITUDE
 40
-122.394
  9
$NORTHDIRECTION
 40
0.0
  9
$TIMEZONE
 70
 -8000
  9
$LIGHTGLYPHDISPLAY
280
     1
  9
$TILEMODELIGHTSYNCH
280
     1
  9
$SOLIDHIST
280
     1
  9
$SHOWHIST
280
     1
  9
$DWFFRAME
280
     2
  9
$DGNFRAME
280
     2
  9
$REALWORLDSCALE
290
     1
  9
$INTERFERECOLOR
 62
   256
  9
$CSHADOW
280
     0
  9
$SHADOWPLANELOCATION
 40
0.0
  0
ENDSEC
  0
SECTION
  2
CLASSES
  0
CLASS
  1
ACDBDICTIONARYWDFLT
  2
AcDbDictionaryWithDefault
  3
ObjectDBX Classes
 90
        0
 91
        4
280
     0
281
     0
  0
CLASS
  1
VISUALSTYLE
  2
AcDbVisualStyle
  3
ObjectDBX Classes
 90
     4095
 91
        4
280
     0
281
     0
  0
CLASS
  1
MATERIAL
  2
AcDbMaterial
  3
ObjectDBX Classes
 90
     1153
 91
        4
280
     0
281
     0
  0
ENDSEC
  0
SECTION
  2
TABLES
  0
TABLE
  2
VPORT
  5
8
330
0
100
AcDbSymbolTable
 70
     1
  0
VPORT
  5
29
330
8
100
AcDbSymbolTableRecord
100
AcDbViewportTableRecord
  2
*Active
 70
     0
 10
0.0
 20
0.0
 11
1.0
 21
1.0
 12
344.186916
 22
148.5
 13
0.0
 23
0.0
 14
10.0
 24
10.0
 15
10.0
 25
10.0
 16
0.0
 26
0.0
 36
1.0
 17
0.0
 27
0.0
 37
0.0
 40
297.0
 41
1.972973
 42
50.0
 43
0.0
 44
0.0
 50
0.0
 51
0.0
 71
     0
 72
   100
 73
     1
 74
     3
 75
     0
 76
     0
 77
     0
 78
     0
281
     0
 65
     1
110
0.0
120
0.0
130
0.0
111
1.0
121
0.0
131
0.0
112
0.0
122
1.0
132
0.0
 79
     0
146
0.0
 60
     3
 61
     5
292
     1
282
     1
141
0.0
142
0.0
 63
   250
  0
ENDTAB
  0
TABLE
  2
LTYPE
  5
5
330
0
100
AcDbSymbolTable
 70
     1
  0
LTYPE
  5
14
330
5
100
AcDbSymbolTableRecord
100
AcDbLinetypeTableRecord
  2
ByBlock
 70
     0
  3

 72
    65
 73
     0
 40
0.0
  0
LTYPE
  5
15
330
5
100
AcDbSymbolTableRecord
100
AcDbLinetypeTableRecord
  2
ByLayer
 70
     0
  3

 72
    65
 73
     0
 40
0.0
  0
LTYPE
  5
16
330
5
100
AcDbSymbolTableRecord
100
AcDbLinetypeTableRecord
  2
Continuous
 70
     0
  3
Solid line
 72
    65
 73
     0
 40
0.0
  0
ENDTAB
  0
TABLE
  2
LAYER
  5
2
330
0
100
AcDbSymbolTable
 70
     1
  0
LAYER
  5
10
330
2
100
AcDbSymbolTableRecord
100
AcDbLayerTableRecord
  2
0
 70
     0
 62
   102
  6
Continuous
370
     0
390
F
347
3E
  0
ENDTAB
  0
TABLE
  2
STYLE
  5
3
330
0
100
AcDbSymbolTable
 70
     4
  0
STYLE
  5
11
330
3
100
AcDbSymbolTableRecord
100
AcDbTextStyleTableRecord
  2
Standard
 70
     0
 40
0.0
 41
1.0
 50
0.0
 71
     0
 42
2.5
  3
txt
  4

1001
ACAD
1000
txt
1071
        0
  0
STYLE
  5
3F
330
3
100
AcDbSymbolTableRecord
100
AcDbTextStyleTableRecord
  2
Default
 70
     0
 40
0.0
 41
1.0
 50
0.0
 71
     0
 42
0.2
  3

  4

1001
ACAD
1000
txt
1071
        0
  0
STYLE
  5
40
330
3
100
AcDbSymbolTableRecord
100
AcDbTextStyleTableRecord
  2
ISO
 70
     0
 40
0.0
 41
1.0
 50
0.0
 71
     0
 42
0.2
  3

  4

1001
ACAD
1000
txt
1071
        0
  0
STYLE
  5
41
330
3
100
AcDbSymbolTableRecord
100
AcDbTextStyleTableRecord
  2
GIANLU
 70
     0
 40
0.0
 41
1.0
 50
0.0
 71
     0
 42
0.2
  3

  4

1001
ACAD
1000
Arial
1071
 33554432
  0
ENDTAB
  0
TABLE
  2
VIEW
  5
6
330
0
100
AcDbSymbolTable
 70
     0
  0
ENDTAB
  0
TABLE
  2
UCS
  5
7
330
0
100
AcDbSymbolTable
 70
     0
  0
ENDTAB
  0
TABLE
  2
APPID
  5
9
330
0
100
AcDbSymbolTable
 70
     1
  0
APPID
  5
12
330
9
100
AcDbSymbolTableRecord
100
AcDbRegAppTableRecord
  2
ACAD
 70
     0
  0
ENDTAB
  0
TABLE
  2
DIMSTYLE
  5
A
330
0
100
AcDbSymbolTable
 70
     5
100
AcDbDimStyleTable
  0
DIMSTYLE
105
27
330
A
100
AcDbSymbolTableRecord
100
AcDbDimStyleTableRecord
  2
ISO-25
 70
     0
 41
2.5
 42
0.625
 43
3.75
 44
1.25
 73
     0
 74
     0
 77
     1
 78
     8
140
2.5
141
2.5
143
0.03937
147
0.625
171
     3
172
     1
271
     2
272
     2
274
     3
278
    44
283
     0
284
     8
340
11
  0
DIMSTYLE
105
42
330
A
100
AcDbSymbolTableRecord
100
AcDbDimStyleTableRecord
  2
Default
 70
     0
  3
<>
 41
4.375
 42
1.05
 44
2.1
 49
10.01
 73
     0
 74
     0
 77
     1
 78
     8
140
3.5
146
0.4
147
1.75
172
     1
178
     2
271
     2
272
     3
284
     8
340
3F
341
43
342
43
  0
DIMSTYLE
105
4A
330
A
100
AcDbSymbolTableRecord
100
AcDbDimStyleTableRecord
  2
DefaultDimensionStyle
 70
     0
  3
<>
 41
2.5
 42
0.875
 44
1.75
 49
10.01
 73
     0
 74
     0
 77
     1
 78
     8
140
3.5
147
1.75
172
     1
178
     2
271
     2
272
     2
278
    44
284
     8
340
11
  0
DIMSTYLE
105
4B
330
A
100
AcDbSymbolTableRecord
100
AcDbDimStyleTableRecord
  2
ISO
 70
     0
  3
<>
 41
4.375
 42
1.05
 44
2.1
 49
10.01
 73
     0
 74
     0
 77
     1
 78
     8
140
3.5
146
0.4
147
1.75
172
     1
178
     2
271
     2
272
     3
284
     8
340
40
341
43
342
43
  0
DIMSTYLE
105
4C
330
A
100
AcDbSymbolTableRecord
100
AcDbDimStyleTableRecord
  2
zucchetti_unico
 70
     0
  3
<>
 41
3.5
 42
1.05
 44
2.1
 49
10.01
 73
     0
 74
     0
 77
     1
 78
     8
140
3.5
146
0.6
147
1.75
172
     1
178
     2
271
     2
272
     2
284
     8
340
11
  0
ENDTAB
  0
TABLE
  2
BLOCK_RECORD
  5
1
330
0
100
AcDbSymbolTable
 70
     7
  0
BLOCK_RECORD
  5
1F
330
1
100
AcDbSymbolTableRecord
100
AcDbBlockTableRecord
  2
*Model_Space
340
22
 70
     0
280
     1
281
     0
  0
BLOCK_RECORD
  5
1B
330
1
100
AcDbSymbolTableRecord
100
AcDbBlockTableRecord
  2
*Paper_Space
340
1E
 70
     0
280
     1
281
     0
  0
BLOCK_RECORD
  5
23
330
1
100
AcDbSymbolTableRecord
100
AcDbBlockTableRecord
  2
*Paper_Space0
340
26
 70
     0
280
     1
281
     0
  0
BLOCK_RECORD
  5
43
330
1
100
AcDbSymbolTableRecord
100
AcDbBlockTableRecord
  2
_CLOSED
340
0
 70
     0
280
     1
281
     0
  0
BLOCK_RECORD
  5
4D
330
1
100
AcDbSymbolTableRecord
100
AcDbBlockTableRecord
  2
a
340
0
102
{BLKREFS
331
FE
102
}
 70
     0
280
     1
281
     0
  0
BLOCK_RECORD
  5
FF
330
1
100
AcDbSymbolTableRecord
100
AcDbBlockTableRecord
  2
b
340
0
102
{BLKREFS
331
17E
102
}
 70
     0
280
     1
281
     0
  0
BLOCK_RECORD
  5
17F
330
1
100
AcDbSymbolTableRecord
100
AcDbBlockTableRecord
  2
c
340
0
102
{BLKREFS
331
1C7
102
}
 70
     0
280
     1
281
     0
  0
BLOCK_RECORD
  5
1C8
330
1
100
AcDbSymbolTableRecord
100
AcDbBlockTableRecord
  2
d
340
0
102
{BLKREFS
331
282
102
}
 70
     0
280
     1
281
     0
  0
BLOCK_RECORD
  5
283
330
1
100
AcDbSymbolTableRecord
100
AcDbBlockTableRecord
  2
e
340
0
102
{BLKREFS
331
2EF
102
}
 70
     0
280
     1
281
     0
  0
ENDTAB
  0
ENDSEC
  0
SECTION
  2
BLOCKS
  0
BLOCK
  5
20
330
1F
100
AcDbEntity
  8
0
100
AcDbBlockBegin
  2
*Model_Space
 70
     0
 10
0.0
 20
0.0
 30
0.0
  3
*Model_Space
  1

  0
ENDBLK
  5
21
330
1F
100
AcDbEntity
  8
0
100
AcDbBlockEnd
  0
BLOCK
  5
1C
330
1B
100
AcDbEntity
 67
     1
  8
0
100
AcDbBlockBegin
  2
*Paper_Space
 70
     0
 10
0.0
 20
0.0
 30
0.0
  3
*Paper_Space
  1

  0
ENDBLK
  5
1D
330
1B
100
AcDbEntity
 67
     1
  8
0
100
AcDbBlockEnd
  0
BLOCK
  5
24
330
23
100
AcDbEntity
  8
0
100
AcDbBlockBegin
  2
*Paper_Space0
 70
     0
 10
0.0
 20
0.0
 30
0.0
  3
*Paper_Space0
  1

  0
ENDBLK
  5
25
330
23
100
AcDbEntity
  8
0
100
AcDbBlockEnd
  0
BLOCK
  5
44
330
43
100
AcDbEntity
  8
0
100
AcDbBlockBegin
  2
_CLOSED
 70
     0
 10
0.0
 20
0.0
 30
0.0
  3
_CLOSED
  1

  0
LINE
  5
46
330
43
100
AcDbEntity
  8
0
  6
ByBlock
 62
     0
370
    -2
100
AcDbLine
 10
-1.0
 20
0.166667
 30
0.0
 11
0.0
 21
0.0
 31
0.0
  0
LINE
  5
47
330
43
100
AcDbEntity
  8
0
  6
ByBlock
 62
     0
370
    -2
100
AcDbLine
 10
0.0
 20
0.0
 30
0.0
 11
-1.0
 21
-0.166667
 31
0.0
  0
LINE
  5
48
330
43
100
AcDbEntity
  8
0
  6
ByBlock
 62
     0
370
    -2
100
AcDbLine
 10
-1.0
 20
0.166667
 30
0.0
 11
-1.0
 21
-0.166667
 31
0.0
  0
LINE
  5
49
330
43
100
AcDbEntity
  8
0
  6
ByBlock
 62
     0
370
    -2
100
AcDbLine
 10
0.0
 20
0.0
 30
0.0
 11
-1.0
 21
0.0
 31
0.0
  0
ENDBLK
  5
45
330
43
100
AcDbEntity
  8
0
100
AcDbBlockEnd
  0
BLOCK
  5
FC
330
4D
100
AcDbEntity
  8
0
100
AcDbBlockBegin
  2
a
 70
     0
 10
711.020386
 20
177.690475
 30
0.0
  3
a
  1

  0
ARC
  5
4E
330
4D
100
AcDbEntity
  8
0
  6
Continuous
 62
     0
370
     0
100
AcDbCircle
 10
446.140681
 20
587.770712
 30
0.0
 40
28.000487382772
100
AcDbArc
 50
180.001002
 51
269.999008
  0
LINE
  5
4F
330
4D
100
AcDbEntity
  8
0
  6
Continuous
 62
     0
370
     0
100
AcDbLine
 10
446.140194
 20
582.270225
 30
0.0
 11
446.140196
 21
559.770225
 31
0.0
  0
ARC
  5
50
330
4D
100
AcDbEntity
  8
0
  6
Continuous
 62
     0
370
    30
100
AcDbCircle
 10
446.140237
 20
587.770267
 30
0.0
 40
5.500042687151561
100
AcDbArc
 50
180.00045
 51
269.99956
  0
LINE
  5
51
330
4D
100
AcDbEntity
  8
0
  6
Continuous
 62
     0
370
     0
100
AcDbLine
 10
418.140194
 20
587.770222
 30
0.0
 11
440.640194
 21
587.770224
 31
0.0
  0
ARC
  5
52
330
4D
100
AcDbEntity
  8
0
  6
Continuous
 62
     0
370
     0
100
AcDbCircle
 10
446.140681
 20
531.769739
 30
0.0
 40
28.00048738277118
100
AcDbArc
 50
90.000992
 51
179.998998
  0
LINE
  5
53
330
4D
100
AcDbEntity
  8
0
  6
Continuous
 62
     0
370
     0
100
AcDbLine
 10
440.640194
 20
531.770227
 30
0.0
 11
418.140194
 21
531.770229
 31
0.0
  0
ARC
  5
54
330
4D
100
AcDbEntity
  8
0
  6
Continuous
 62
     0
370
    30
100
AcDbCircle
 10
446.140237
 20
531.770184
 30
0.0
 40
5.50004268715152
100
AcDbArc
 50
90.00044
 51
179.99955
  0
LINE
  5
55
330
4D
100
AcDbEntity
  8
0
  6
Continuous
 62
     0
370
     0
100
AcDbLine
 10
446.140196
 20
559.770225
 30
0.0
 11
446.140194
 21
537.270226
 31
0.0
  0
LINE
  5
56
330
4D
100
AcDbEntity
  8
0
  6
Continuous
 62
     0
370
    30
100
AcDbLine
 10
440.640196
 20
496.402718
 30
0.0
 11
440.640194
 21
531.770227
 31
0.0
  0
LINE
  5
57
330
4D
100
AcDbEntity
  8
0
  6
Continuous
 62
     0
370
     0
100
AcDbLine
 10
418.140194
 20
496.402686
 30
0.0
 11
418.140194
 21
531.770229
 31
0.0
  0
LINE
  5
58
330
4D
100
AcDbEntity
  8
0
  6
Continuous
 62
     0
370
     0
100
AcDbLine
 10
418.140194
 20
496.402686
 30
0.0
 11
440.640195
 21
496.402718
 31
0.0
  0
LINE
  5
59
330
4D
100
AcDbEntity
  8
0
  6
Continuous
 62
     0
370
    30
100
AcDbLine
 10
446.140194
 20
582.270225
 30
0.0
 11
448.448128
 21
582.270225
 31
0.0
  0
LINE
  5
5A
330
4D
100
AcDbEntity
  8
0
  6
Continuous
 62
     0
370
    30
100
AcDbLine
 10
448.567259
 20
537.270226
 30
0.0
 11
446.140194
 21
537.270226
 31
0.0
  0
SPLINE
  5
5B
330
4D
100
AcDbEntity
  8
0
  6
Continuous
 62
     0
370
     0
100
AcDbSpline
210
0.0
220
0.0
230
1.0
 70
     8
 71
     3
 72
    17
 73
    13
 74
     0
 42
0.0
 43
0.0
 40
0.0
 40
0.0
 40
0.0
 40
0.0
 40
1.718754101383531
 40
4.583500439394577
 40
9.48624150281726
 40
14.5486632533614
 40
19.61113947222288
 40
24.67377023188959
 40
27.83809520497009
 40
29.73680122144633
 40
33.11237746459108
 40
35.33169583367232
 40
35.33169583367232
 40
35.33169583367232
 40
35.33169583367232
 10
448.7314906110651
 20
559.7702263991409
 30
0.0
 10
448.7330081775276
 20
559.1974479626433
 30
0.0
 10
448.7367882591707
 20
557.6693703871463
 30
0.0
 10
448.74013908724
 20
554.5320199599213
 30
0.0
 10
448.7383446577722
 20
550.438375698048
 30
0.0
 10
448.7240365678675
 20
546.0995025608894
 30
0.0
 10
448.6988987184073
 20
542.4035618275088
 30
0.0
 10
448.668695061956
 20
539.9358489834519
 30
0.0
 10
448.6410943486887
 20
538.60639277001
 30
0.0
 10
448.6163730578648
 20
537.7976392412546
 30
0.0
 10
448.5933369628011
 20
537.3636077905892
 30
0.0
 10
448.5747315939528
 20
537.2706147429719
 30
0.0
 10
448.5673756885278
 20
537.270229236304
 30
0.0
  0
LINE
  5
5C
330
4D
100
AcDbEntity
  8
0
  6
Continuous
 62
     0
370
     0
100
AcDbLine
 10
448.731491
 20
559.770226
 30
0.0
 11
446.140196
 21
559.770226
 31
0.0
  0
SPLINE
  5
5D
330
4D
100
AcDbEntity
  8
0
  6
Continuous
 62
     0
370
     0
100
AcDbSpline
210
0.0
220
0.0
230
1.0
 70
     8
 71
     3
 72
    17
 73
    13
 74
     0
 42
0.0
 43
0.0
 40
0.0
 40
0.0
 40
0.0
 40
0.0
 40
1.706339016653732
 40
4.550383530542367
 40
9.442487500490753
 40
14.50535991567011
 40
19.56799959870319
 40
24.63039839870083
 40
27.79445294476594
 40
29.69293249906594
 40
33.06807680507281
 40
35.34401262602155
 40
35.34401262602155
 40
35.34401262602155
 40
35.34401262602155
 10
448.4481280463283
 20
582.270224859891
 30
0.0
 10
448.4537819739342
 20
582.2702248603854
 30
0.0
 10
448.4692970006336
 20
582.2126741025211
 30
0.0
 10
448.5010064407439
 20
581.7758195330246
 30
0.0
 10
448.5455880719094
 20
580.4630350726836
 30
0.0
 10
448.5952906349067
 20
577.9071041506968
 30
0.0
 10
448.641341547264
 20
574.4079081276218
 30
0.0
 10
448.6759655074833
 20
570.7004109006009
 30
0.0
 10
448.6973220161111
 20
567.5918867167462
 30
0.0
 10
448.7125137871476
 20
564.8970660337618
 30
0.0
 10
448.7238589264689
 20
562.4128079090443
 30
0.0
 10
448.7294822779742
 20
560.5285506641505
 30
0.0
 10
448.7314906110651
 20
559.770226399152
 30
0.0
  0
LINE
  5
5E
330
4D
100
AcDbEntity
  8
0
  6
Continuous
 62
     0
370
    30
100
AcDbLine
 10
440.640194
 20
587.770224
 30
0.0
 11
440.640194
 21
588.19821
 31
0.0
  0
LINE
  5
5F
330
4D
100
AcDbEntity
  8
0
  6
Continuous
 62
     0
370
    30
100
AcDbLine
 10
440.640194
 20
588.19821
 30
0.0
 11
418.140194
 21
588.19821
 31
0.0
  0
LINE
  5
60
330
4D
100
AcDbEntity
  8
0
  6
Continuous
 62
     0
370
     0
100
AcDbLine
 10
418.140194
 20
587.770222
 30
0.0
 11
418.140194
 21
588.19821
 31
0.0
  0
LINE
  5
61
330
4D
100
AcDbEntity
  8
0
  6
Continuous
 62
     0
370
    30
100
AcDbLine
 10
456.140194
 20
537.667104
 30
0.0
 11
456.140194
 21
581.867104
 31
0.0
  0
LINE
  5
62
330
4D
100
AcDbEntity
  8
0
  6
Continuous
 62
     0
370
    30
100
AcDbLine
 10
456.140194
 20
537.667104
 30
0.0
 11
448.567376
 21
537.270229
 31
0.0
  0
LINE
  5
63
330
4D
100
AcDbEntity
  8
0
  6
Continuous
 62
     0
370
    30
100
AcDbLine
 10
439.940194
 20
592.770231
 30
0.0
 11
396.340194
 21
592.770231
 31
0.0
  0
LINE
  5
64
330
4D
100
AcDbEntity
  8
0
  6
Continuous
 62
     0
370
    30
100
AcDbLine
 10
395.640194
 20
588.19821
 30
0.0
 11
418.140194
 21
588.19821
 31
0.0
  0
LINE
  5
65
330
4D
100
AcDbEntity
  8
0
  6
Continuous
 62
     0
370
    30
100
AcDbLine
 10
440.266341
 20
592.471373
 30
0.0
 11
440.640194
 21
588.19821
 31
0.0
  0
LINE
  5
66
330
4D
100
AcDbEntity
  8
0
  6
Continuous
 62
     0
370
    30
100
AcDbLine
 10
440.266341
 20
592.471373
 30
0.0
 11
396.014047
 21
592.471373
 31
0.0
  0
LINE
  5
67
330
4D
100
AcDbEntity
  8
0
  6
Continuous
 62
     0
370
    30
100
AcDbLine
 10
440.266341
 20
592.471373
 30
0.0
 11
439.940194
 21
592.770231
 31
0.0
  0
LINE
  5
68
330
4D
100
AcDbEntity
  8
0
  6
Continuous
 62
     0
370
    30
100
AcDbLine
 10
396.040194
 20
488.770231
 30
0.0
 11
440.240194
 21
488.770231
 31
0.0
  0
LINE
  5
69
330
4D
100
AcDbEntity
  8
0
  6
Continuous
 62
     0
370
    30
100
AcDbLine
 10
396.040194
 20
488.770231
 30
0.0
 11
395.640194
 21
496.402686
 31
0.0
  0
LINE
  5
6A
330
4D
100
AcDbEntity
  8
0
  6
Continuous
 62
     0
370
     0
100
AcDbLine
 10
418.140194
 20
496.402686
 30
0.0
 11
395.640194
 21
496.402686
 31
0.0
  0
LINE
  5
6B
330
4D
100
AcDbEntity
  8
0
  6
Continuous
 62
     0
370
     0
100
AcDbLine
 10
418.140194
 20
587.770222
 30
0.0
 11
418.140194
 21
531.770229
 31
0.0
  0
LINE
  5
6C
330
4D
100
AcDbEntity
  8
0
  6
Continuous
 62
     0
370
    30
100
AcDbLine
 10
395.640194
 20
588.19821
 30
0.0
 11
395.640194
 21
496.402686
 31
0.0
  0
LINE
  5
6D
330
4D
100
AcDbEntity
  8
0
  6
Continuous
 62
     0
370
    30
100
AcDbLine
 10
440.640196
 20
496.402718
 30
0.0
 11
440.240194
 21
488.770231
 31
0.0
  0
LINE
  5
6E
330
4D
100
AcDbEntity
  8
0
  6
Continuous
 62
     0
370
    30
100
AcDbLine
 10
396.014047
 20
592.471373
 30
0.0
 11
396.340194
 21
592.770231
 31
0.0
  0
LINE
  5
6F
330
4D
100
AcDbEntity
  8
0
  6
Continuous
 62
     0
370
    30
100
AcDbLine
 10
395.640194
 20
588.19821
 30
0.0
 11
396.014047
 21
592.471373
 31
0.0
  0
LINE
  5
70
330
4D
100
AcDbEntity
  8
0
  6
Continuous
 62
     0
370
    30
100
AcDbLine
 10
448.448246
 20
582.270222
 30
0.0
 11
456.140194
 21
581.867104
 31
0.0
  0
LINE
  5
71
330
4D
100
AcDbEntity
  8
0
  6
Continuous
 62
     0
370
    30
100
AcDbLine
 10
466.740195
 20
647.770229
 30
0.0
 11
474.092214
 21
647.770229
 31
0.0
  0
LINE
  5
72
330
4D
100
AcDbEntity
  8
0
  6
Continuous
 62
     0
370
    30
100
AcDbLine
 10
474.092214
 20
647.770229
 30
0.0
 11
479.740195
 21
647.770229
 31
0.0
  0
LINE
  5
73
330
4D
100
AcDbEntity
  8
0
  6
Continuous
 62
     0
370
    30
100
AcDbLine
 10
479.740195
 20
587.770229
 30
0.0
 11
479.740195
 21
647.770229
 31
0.0
  0
LINE
  5
74
330
4D
100
AcDbEntity
  8
0
  6
Continuous
 62
     0
370
    30
100
AcDbLine
 10
466.740195
 20
587.770229
 30
0.0
 11
466.740195
 21
647.770229
 31
0.0
  0
LINE
  5
75
330
4D
100
AcDbEntity
  8
0
  6
Continuous
 62
     0
370
    30
100
AcDbLine
 10
466.740192
 20
587.770228
 30
0.0
 11
479.740192
 21
587.770228
 31
0.0
  0
LINE
  5
76
330
4D
100
AcDbEntity
  8
0
  6
Continuous
 62
     0
370
    30
100
AcDbLine
 10
479.740192
 20
587.770228
 30
0.0
 11
479.724261
 21
586.85749
 31
0.0
  0
SPLINE
  5
77
330
4D
100
AcDbEntity
  8
0
  6
Continuous
 62
     0
370
     0
100
AcDbSpline
210
0.0
220
0.0
230
1.0
 70
     8
 71
     3
 72
    21
 73
    17
 74
     0
 42
0.0
 43
0.0
 40
0.0
 40
0.0
 40
0.0
 40
0.0
 40
1.912405789321918
 40
3.830350421158677
 40
6.32391116788351
 40
7.661351199193069
 40
8.952158795729051
 40
10.23687625134339
 40
11.6201887532878
 40
12.6699143264469
 40
13.90342270692967
 40
15.64836897466497
 40
17.34311723258501
 40
18.41361149052811
 40
19.47528666719966
 40
21.03953786596914
 40
21.03953786596914
 40
21.03953786596914
 40
21.03953786596914
 10
479.7242605128394
 20
586.8574900010619
 30
0.0
 10
479.7242605128394
 20
586.8574899228731
 30
0.0
 10
479.5394243533656
 20
586.7177386434228
 30
0.0
 10
478.6680204375486
 20
586.1038609248849
 30
0.0
 10
477.3836304171108
 20
585.3424328586225
 30
0.0
 10
475.9624880423577
 20
584.7569509900447
 30
0.0
 10
474.7651791060655
 20
584.4316344182994
 30
0.0
 10
473.4861798996039
 20
584.2817901411266
 30
0.0
 10
472.2726118085448
 20
584.3451635456629
 30
0.0
 10
471.118357713807
 20
584.5780028710001
 30
0.0
 10
469.9299465993188
 20
584.9732810293161
 30
0.0
 10
468.7216565781573
 20
585.5589305491685
 30
0.0
 10
467.8054418419549
 20
586.1216509073136
 30
0.0
 10
467.2363224628074
 20
586.5086827814259
 30
0.0
 10
466.8593755170442
 20
586.7797942778598
 30
0.0
 10
466.7561243138207
 20
586.8574899371074
 30
0.0
 10
466.7561243138207
 20
586.8574900010619
 30
0.0
  0
ARC
  5
78
330
4D
100
AcDbEntity
  8
0
  6
Continuous
 62
     0
370
    30
100
AcDbCircle
 10
484.723499
 20
586.770228
 30
0.0
 40
5.000000000000002
100
AcDbArc
 50
179.0
 51
270.0
  0
ARC
  5
79
330
4D
100
AcDbEntity
  8
0
  6
Continuous
 62
     0
370
    30
100
AcDbCircle
 10
461.756886
 20
586.770228
 30
0.0
 40
5.000000000000002
100
AcDbArc
 50
270.0
 51
1.0
  0
SPLINE
  5
7A
330
4D
100
AcDbEntity
  8
0
  6
Continuous
 62
     0
370
     0
100
AcDbSpline
210
0.0
220
0.0
230
1.0
 70
     8
 71
     3
 72
    21
 73
    17
 74
     0
 42
0.0
 43
0.0
 40
0.0
 40
0.0
 40
0.0
 40
0.0
 40
3.004295903647487
 40
6.01729305781994
 40
8.458208939345289
 40
9.934554958359266
 40
12.21528003185013
 40
14.06340335768736
 40
16.08163160756893
 40
18.25474785008434
 40
19.90381535291495
 40
21.8415966518898
 40
24.58282184243938
 40
27.24518841621357
 40
30.59472225158563
 40
33.05208433184011
 40
33.05208433184011
 40
33.05208433184011
 40
33.05208433184011
 10
484.7234989886214
 20
581.7702279688756
 30
0.0
 10
484.7234989886214
 20
581.770227856046
 30
0.0
 10
484.3981033268215
 20
581.6563928823241
 30
0.0
 10
483.0903091999332
 20
581.2303745292845
 30
0.0
 10
481.4912269573886
 20
580.7817824773
 30
0.0
 10
479.7784674471036
 20
580.3792441976512
 30
0.0
 10
478.0135107361923
 20
580.0486923436554
 30
0.0
 10
475.8832195819233
 20
579.7900893169655
 30
0.0
 10
473.6772181235634
 20
579.6715050448199
 30
0.0
 10
471.5213795219487
 20
579.723148459738
 30
0.0
 10
469.472115076325
 20
579.912864261576
 30
0.0
 10
467.3642644285558
 20
580.234962851308
 30
0.0
 10
465.2251339570178
 20
580.7120525092157
 30
0.0
 10
463.2254801430896
 20
581.2789415257329
 30
0.0
 10
462.0125116642587
 20
581.6814783985965
 30
0.0
 10
461.7568858380387
 20
581.7702278765867
 30
0.0
 10
461.7568858380387
 20
581.7702279688756
 30
0.0
  0
LINE
  5
7B
330
4D
100
AcDbEntity
  8
0
  6
Continuous
 62
     0
370
    30
100
AcDbLine
 10
457.240192
 20
560.29954
 30
0.0
 11
465.440192
 21
537.770228
 31
0.0
  0
LINE
  5
7C
330
4D
100
AcDbEntity
  8
0
  6
Continuous
 62
     0
370
    30
100
AcDbLine
 10
457.240192
 20
581.770228
 30
0.0
 11
457.240192
 21
560.29954
 31
0.0
  0
LINE
  5
7D
330
4D
100
AcDbEntity
  8
0
  6
Continuous
 62
     0
370
    30
100
AcDbLine
 10
457.240192
 20
581.770228
 30
0.0
 11
461.756886
 21
581.770228
 31
0.0
  0
LINE
  5
7E
330
4D
100
AcDbEntity
  8
0
  6
Continuous
 62
     0
370
    30
100
AcDbLine
 10
484.723499
 20
581.770228
 30
0.0
 11
487.740192
 21
581.770228
 31
0.0
  0
LINE
  5
7F
330
4D
100
AcDbEntity
  8
0
  6
Continuous
 62
     0
370
     0
100
AcDbLine
 10
487.740192
 20
581.770228
 30
0.0
 11
487.740192
 21
537.770228
 31
0.0
  0
LINE
  5
80
330
4D
100
AcDbEntity
  8
0
  6
Continuous
 62
     0
370
    30
100
AcDbLine
 10
488.240192
 20
581.270228
 30
0.0
 11
488.240192
 21
538.270228
 31
0.0
  0
ARC
  5
81
330
4D
100
AcDbEntity
  8
0
  6
Continuous
 62
     0
370
    30
100
AcDbCircle
 10
487.740192
 20
581.270228
 30
0.0
 40
0.5
100
AcDbArc
 50
0.0
 51
90.0
  0
ARC
  5
82
330
4D
100
AcDbEntity
  8
0
  6
Continuous
 62
     0
370
    30
100
AcDbCircle
 10
487.740156
 20
538.270265
 30
0.0
 40
0.5000369078942255
100
AcDbArc
 50
270.004229
 51
359.995771
  0
LINE
  5
83
330
4D
100
AcDbEntity
  8
0
  6
Continuous
 62
     0
370
    30
100
AcDbLine
 10
488.236526
 20
581.330287
 30
0.0
 11
488.240192
 21
581.270228
 31
0.0
  0
LINE
  5
84
330
4D
100
AcDbEntity
  8
0
  6
Continuous
 62
     0
370
    30
100
AcDbLine
 10
465.440245
 20
537.770228
 30
0.0
 11
487.740192
 21
537.770228
 31
0.0
  0
LINE
  5
85
330
4D
100
AcDbEntity
  8
0
  6
Continuous
 62
     0
370
    30
100
AcDbLine
 10
466.740192
 20
587.770228
 30
0.0
 11
466.756124
 21
586.85749
 31
0.0
  0
LINE
  5
86
330
4D
100
AcDbEntity
  8
0
  6
Continuous
 62
     0
370
    30
100
AcDbLine
 10
412.548789
 20
477.770241
 30
0.0
 11
447.640194
 21
477.770241
 31
0.0
  0
LINE
  5
87
330
4D
100
AcDbEntity
  8
0
  6
Continuous
 62
     0
370
    30
100
AcDbLine
 10
388.640194
 20
477.770241
 30
0.0
 11
412.548789
 21
477.770241
 31
0.0
  0
LINE
  5
88
330
4D
100
AcDbEntity
  8
0
  6
Continuous
 62
     0
370
     0
100
AcDbLine
 10
388.140194
 20
478.270241
 30
0.0
 11
412.45402
 21
478.270241
 31
0.0
  0
LINE
  5
89
330
4D
100
AcDbEntity
  8
0
  6
Continuous
 62
     0
370
     0
100
AcDbLine
 10
412.45402
 20
478.270241
 30
0.0
 11
448.140194
 21
478.270241
 31
0.0
  0
LINE
  5
8A
330
4D
100
AcDbEntity
  8
0
  6
Continuous
 62
     0
370
     0
100
AcDbLine
 10
412.45402
 20
483.270241
 30
0.0
 11
448.140194
 21
483.270241
 31
0.0
  0
LINE
  5
8B
330
4D
100
AcDbEntity
  8
0
  6
Continuous
 62
     0
370
     0
100
AcDbLine
 10
388.140194
 20
483.270241
 30
0.0
 11
412.45402
 21
483.270241
 31
0.0
  0
LINE
  5
8C
330
4D
100
AcDbEntity
  8
0
  6
Continuous
 62
     0
370
    30
100
AcDbLine
 10
388.640194
 20
483.770241
 30
0.0
 11
412.548789
 21
483.770241
 31
0.0
  0
LINE
  5
8D
330
4D
100
AcDbEntity
  8
0
  6
Continuous
 62
     0
370
    30
100
AcDbLine
 10
412.548789
 20
483.770241
 30
0.0
 11
447.640194
 21
483.770241
 31
0.0
  0
ARC
  5
8E
330
4D
100
AcDbEntity
  8
0
  6
Continuous
 62
     0
370
    30
100
AcDbCircle
 10
447.640154
 20
478.270279
 30
0.0
 40
0.5000377451441933
100
AcDbArc
 50
270.013032
 51
359.995676
  0
ARC
  5
8F
330
4D
100
AcDbEntity
  8
0
  6
Continuous
 62
     0
370
    30
100
AcDbCircle
 10
388.64022
 20
478.270279
 30
0.0
 40
0.5000379012343419
100
AcDbArc
 50
180.004342
 51
269.986567
  0
ARC
  5
90
330
4D
100
AcDbEntity
  8
0
  6
Continuous
 62
     0
370
    30
100
AcDbCircle
 10
447.640154
 20
483.270203
 30
0.0
 40
0.5000377451457424
100
AcDbArc
 50
0.004324
 51
89.986968
  0
ARC
  5
91
330
4D
100
AcDbEntity
  8
0
  6
Continuous
 62
     0
370
    30
100
AcDbCircle
 10
388.64022
 20
483.270203
 30
0.0
 40
0.5000379012422579
100
AcDbArc
 50
90.013433
 51
179.995658
  0
LINE
  5
92
330
4D
100
AcDbEntity
  8
0
  6
Continuous
 62
     0
370
    30
100
AcDbLine
 10
388.140194
 20
478.270241
 30
0.0
 11
388.140194
 21
483.270241
 31
0.0
  0
LINE
  5
93
330
4D
100
AcDbEntity
  8
0
  6
Continuous
 62
     0
370
    30
100
AcDbLine
 10
448.140194
 20
478.270241
 30
0.0
 11
448.140194
 21
483.270241
 31
0.0
  0
ARC
  5
94
330
4D
100
AcDbEntity
  8
0
  6
Continuous
 62
     0
370
    30
100
AcDbCircle
 10
445.140454
 20
488.770502
 30
0.0
 40
5.000261552262738
100
AcDbArc
 50
180.002996
 51
269.984394
  0
ARC
  5
95
330
4D
100
AcDbEntity
  8
0
  6
Continuous
 62
     0
370
    30
100
AcDbCircle
 10
391.139923
 20
488.770503
 30
0.0
 40
5.000262731638403
100
AcDbArc
 50
270.015593
 51
359.99699
  0
LINE
  5
96
330
4D
100
AcDbEntity
  8
0
  6
Continuous
 62
     0
370
    30
100
AcDbLine
 10
407.140194
 20
614.770235
 30
0.0
 11
407.140194
 21
663.120232
 31
0.0
  0
LINE
  5
97
330
4D
100
AcDbEntity
  8
0
  6
Continuous
 62
     0
370
    30
100
AcDbLine
 10
407.140194
 20
796.920235
 30
0.0
 11
407.140194
 21
706.920235
 31
0.0
  0
LINE
  5
98
330
4D
100
AcDbEntity
  8
0
  6
Continuous
 62
     0
370
     0
100
AcDbLine
 10
407.140194
 20
706.920235
 30
0.0
 11
429.140194
 21
706.920235
 31
0.0
  0
LINE
  5
99
330
4D
100
AcDbEntity
  8
0
  6
Continuous
 62
     0
370
    30
100
AcDbLine
 10
407.140194
 20
706.920235
 30
0.0
 11
407.140194
 21
682.920235
 31
0.0
  0
LINE
  5
9A
330
4D
100
AcDbEntity
  8
0
  6
Continuous
 62
     0
370
    30
100
AcDbLine
 10
407.140194
 20
682.920235
 30
0.0
 11
429.140194
 21
682.920235
 31
0.0
  0
LINE
  5
9B
330
4D
100
AcDbEntity
  8
0
  6
Continuous
 62
     0
370
    30
100
AcDbLine
 10
429.140194
 20
682.920235
 30
0.0
 11
429.140194
 21
706.920235
 31
0.0
  0
ARC
  5
9C
330
4D
100
AcDbEntity
  8
0
  6
Continuous
 62
     0
370
    30
100
AcDbCircle
 10
418.13992
 20
796.920535
 30
0.0
 40
10.99972553469727
100
AcDbArc
 50
359.996742
 51
179.969148
  0
LINE
  5
9D
330
4D
100
AcDbEntity
  8
0
  6
Continuous
 62
     0
370
    30
100
AcDbLine
 10
429.140194
 20
706.920235
 30
0.0
 11
429.140194
 21
796.919909
 31
0.0
  0
LINE
  5
9E
330
4D
100
AcDbEntity
  8
0
  6
Continuous
 62
     0
370
    30
100
AcDbLine
 10
429.140194
 20
663.120232
 30
0.0
 11
429.140194
 21
614.770235
 31
0.0
  0
LINE
  5
9F
330
4D
100
AcDbEntity
  8
0
  6
Continuous
 62
     0
370
    30
100
AcDbLine
 10
423.472227
 20
614.770235
 30
0.0
 11
439.640194
 21
614.770235
 31
0.0
  0
LINE
  5
A0
330
4D
100
AcDbEntity
  8
0
  6
Continuous
 62
     0
370
    30
100
AcDbLine
 10
396.640194
 20
614.770235
 30
0.0
 11
423.472227
 21
614.770235
 31
0.0
  0
LINE
  5
A1
330
4D
100
AcDbEntity
  8
0
  6
Continuous
 62
     0
370
     0
100
AcDbLine
 10
423.596228
 20
614.270235
 30
0.0
 11
440.140194
 21
614.270235
 31
0.0
  0
LINE
  5
A2
330
4D
100
AcDbEntity
  8
0
  6
Continuous
 62
     0
370
     0
100
AcDbLine
 10
396.140194
 20
614.270235
 30
0.0
 11
423.596228
 21
614.270235
 31
0.0
  0
LINE
  5
A3
330
4D
100
AcDbEntity
  8
0
  6
Continuous
 62
     0
370
    30
100
AcDbLine
 10
423.596228
 20
593.070235
 30
0.0
 11
440.140194
 21
593.070235
 31
0.0
  0
LINE
  5
A4
330
4D
100
AcDbEntity
  8
0
  6
Continuous
 62
     0
370
    30
100
AcDbLine
 10
396.140194
 20
593.070235
 30
0.0
 11
423.596228
 21
593.070235
 31
0.0
  0
LINE
  5
A5
330
4D
100
AcDbEntity
  8
0
  6
Continuous
 62
     0
370
    30
100
AcDbLine
 10
396.440225
 20
592.770258
 30
0.0
 11
396.140249
 21
593.070235
 31
0.0
  0
LINE
  5
A6
330
4D
100
AcDbEntity
  8
0
  6
Continuous
 62
     0
370
    30
100
AcDbLine
 10
439.840165
 20
592.770261
 30
0.0
 11
440.140139
 21
593.070235
 31
0.0
  0
LINE
  5
A7
330
4D
100
AcDbEntity
  8
0
  6
Continuous
 62
     0
370
    30
100
AcDbLine
 10
440.140194
 20
593.070235
 30
0.0
 11
440.140194
 21
614.270235
 31
0.0
  0
LINE
  5
A8
330
4D
100
AcDbEntity
  8
0
  6
Continuous
 62
     0
370
    30
100
AcDbLine
 10
396.140194
 20
593.070235
 30
0.0
 11
396.140194
 21
614.270235
 31
0.0
  0
ARC
  5
A9
330
4D
100
AcDbEntity
  8
0
  6
Continuous
 62
     0
370
    30
100
AcDbCircle
 10
396.640286
 20
614.270198
 30
0.0
 40
0.5000368064018407
100
AcDbArc
 50
90.009642
 51
179.995783
  0
ARC
  5
AA
330
4D
100
AcDbEntity
  8
0
  6
Continuous
 62
     0
370
    30
100
AcDbCircle
 10
439.640102
 20
614.270198
 30
0.0
 40
0.5000368616060308
100
AcDbArc
 50
0.004223
 51
89.98977
  0
LINE
  5
AB
330
4D
100
AcDbEntity
  8
0
  6
Continuous
 62
     0
370
     0
100
AcDbLine
 10
423.955367
 20
663.120232
 30
0.0
 11
407.140194
 21
663.120232
 31
0.0
  0
LINE
  5
AC
330
4D
100
AcDbEntity
  8
0
  6
Continuous
 62
     0
370
     0
100
AcDbLine
 10
429.140194
 20
663.120232
 30
0.0
 11
423.955367
 21
663.120232
 31
0.0
  0
LINE
  5
AD
330
4D
100
AcDbEntity
  8
0
  6
Continuous
 62
     0
370
    30
100
AcDbLine
 10
423.849636
 20
662.920232
 30
0.0
 11
407.340194
 21
662.920232
 31
0.0
  0
LINE
  5
AE
330
4D
100
AcDbEntity
  8
0
  6
Continuous
 62
     0
370
    30
100
AcDbLine
 10
428.940194
 20
662.920232
 30
0.0
 11
423.849636
 21
662.920232
 31
0.0
  0
ARC
  5
AF
330
4D
100
AcDbEntity
  8
0
  6
Continuous
 62
     0
370
    30
100
AcDbCircle
 10
428.939893
 20
663.120533
 30
0.0
 40
0.200300886758876
100
AcDbArc
 50
270.086004
 51
359.913996
  0
ARC
  5
B0
330
4D
100
AcDbEntity
  8
0
  6
Continuous
 62
     0
370
    30
100
AcDbCircle
 10
407.340495
 20
663.120533
 30
0.0
 40
0.2003008867580283
100
AcDbArc
 50
180.086004
 51
269.913996
  0
LINE
  5
B1
330
4D
100
AcDbEntity
  8
0
  6
Continuous
 62
     0
370
    30
100
AcDbLine
 10
429.140194
 20
682.920232
 30
0.0
 11
429.140194
 21
663.120232
 31
0.0
  0
LINE
  5
B2
330
4D
100
AcDbEntity
  8
0
  6
Continuous
 62
     0
370
    30
100
AcDbLine
 10
407.140194
 20
682.920232
 30
0.0
 11
407.140194
 21
663.120232
 31
0.0
  0
ARC
  5
B3
330
4D
100
AcDbEntity
  8
0
  6
Continuous
 62
     0
370
    30
100
AcDbCircle
 10
454.762237
 20
559.902376
 30
0.0
 40
20.52844235784443
100
AcDbArc
 50
273.848833
 51
296.894751
  0
ARC
  5
B4
330
4D
100
AcDbEntity
  8
0
  6
Continuous
 62
     0
370
    30
100
AcDbCircle
 10
454.778609
 20
559.806491
 30
0.0
 40
20.35932260076549
100
AcDbArc
 50
83.055553
 51
86.165328
  0
LINE
  5
B5
330
4D
100
AcDbEntity
  8
0
  6
Continuous
 62
     0
370
    30
100
AcDbLine
 10
462.451738
 20
562.24538
 30
0.0
 11
462.807479
 21
562.245378
 31
0.0
  0
LINE
  5
B6
330
4D
100
AcDbEntity
  8
0
  6
Continuous
 62
     0
370
    30
100
AcDbLine
 10
462.807479
 20
562.245378
 30
0.0
 11
462.807479
 21
564.105668
 31
0.0
  0
LINE
  5
B7
330
4D
100
AcDbEntity
  8
0
  6
Continuous
 62
     0
370
    30
100
AcDbLine
 10
462.807479
 20
564.105668
 30
0.0
 11
462.49432
 21
564.105668
 31
0.0
  0
LINE
  5
B8
330
4D
100
AcDbEntity
  8
0
  6
Continuous
 62
     0
370
    30
100
AcDbLine
 10
462.49432
 20
564.105668
 30
0.0
 11
462.49432
 21
562.645305
 31
0.0
  0
ARC
  5
B9
330
4D
100
AcDbEntity
  8
0
  6
Continuous
 62
     0
370
    30
100
AcDbCircle
 10
369.686869
 20
441.758219
 30
0.0
 40
152.4037743888633
100
AcDbArc
 50
52.485825
 51
53.382005
  0
LINE
  5
BA
330
4D
100
AcDbEntity
  8
0
  6
Continuous
 62
     0
370
    30
100
AcDbLine
 10
460.592212
 20
564.082088
 30
0.0
 11
460.240192
 21
564.082086
 31
0.0
  0
LINE
  5
BB
330
4D
100
AcDbEntity
  8
0
  6
Continuous
 62
     0
370
    30
100
AcDbLine
 10
460.240192
 20
564.082086
 30
0.0
 11
460.240192
 21
562.283707
 31
0.0
  0
LINE
  5
BC
330
4D
100
AcDbEntity
  8
0
  6
Continuous
 62
     0
370
    30
100
AcDbLine
 10
460.240192
 20
562.283707
 30
0.0
 11
460.553145
 21
562.283706
 31
0.0
  0
LINE
  5
BD
330
4D
100
AcDbEntity
  8
0
  6
Continuous
 62
     0
370
    30
100
AcDbLine
 10
460.553145
 20
562.283706
 30
0.0
 11
460.553145
 21
563.68093
 31
0.0
  0
ARC
  5
BE
330
4D
100
AcDbEntity
  8
0
  6
Continuous
 62
     0
370
    30
100
AcDbCircle
 10
357.111301
 20
424.900103
 30
0.0
 40
173.0905346548271
100
AcDbArc
 50
52.512684
 51
53.300583
  0
LINE
  5
BF
330
4D
100
AcDbEntity
  8
0
  6
Continuous
 62
     0
370
    30
100
AcDbLine
 10
460.23983
 20
564.329341
 30
0.0
 11
460.23983
 21
564.660551
 31
0.0
  0
LINE
  5
C0
330
4D
100
AcDbEntity
  8
0
  6
Continuous
 62
     0
370
    30
100
AcDbLine
 10
460.23983
 20
564.660551
 30
0.0
 11
461.828984
 21
564.660545
 31
0.0
  0
SPLINE
  5
C1
330
4D
100
AcDbEntity
  8
0
  6
Continuous
 62
     0
370
    30
100
AcDbSpline
210
0.0
220
0.0
230
1.0
 70
     8
 71
     3
 72
    10
 73
     6
 74
     0
 42
0.0
 43
0.0
 40
0.0
 40
0.0
 40
0.0
 40
0.0
 40
0.1607383031801948
 40
0.3212678064986665
 40
0.4814978669279018
 40
0.4814978669279018
 40
0.4814978669279018
 40
0.4814978669279018
 10
461.8289843627613
 20
564.6605447616986
 30
0.0
 10
461.8825637956354
 20
564.6605363720932
 30
0.0
 10
461.9896292533509
 20
564.6646444268856
 30
0.0
 10
462.1491839574765
 20
564.6900671309552
 30
0.0
 10
462.2470325808389
 20
564.7366858852832
 30
0.0
 10
462.2911787051465
 20
564.7659647207458
 30
0.0
  0
SPLINE
  5
C2
330
4D
100
AcDbEntity
  8
0
  6
Continuous
 62
     0
370
    30
100
AcDbSpline
210
0.0
220
0.0
230
1.0
 70
     8
 71
     3
 72
    14
 73
    10
 74
     0
 42
0.0
 43
0.0
 40
0.0
 40
0.0
 40
0.0
 40
0.0
 40
0.2483063195049807
 40
0.4973415118280721
 40
0.7469539897613074
 40
0.9957853863575405
 40
1.243643039570703
 40
1.492316197299798
 40
1.742344279104773
 40
1.742344279104773
 40
1.742344279104773
 40
1.742344279104773
 10
462.2911787051511
 20
564.76596472077
 30
0.0
 10
462.3584970645882
 20
564.812865925025
 30
0.0
 10
462.4747082772062
 20
564.9371036940024
 30
0.0
 10
462.5465478898308
 20
565.1744587259059
 30
0.0
 10
462.548260080764
 20
565.4170974746088
 30
0.0
 10
462.4851365200838
 20
565.655611285757
 30
0.0
 10
462.3071502614033
 20
565.8388212491816
 30
0.0
 10
462.0650111418768
 20
565.9171012932447
 30
0.0
 10
461.8982708270449
 20
565.9245330578639
 30
0.0
 10
461.8149283640379
 20
565.9243503392122
 30
0.0
  0
LINE
  5
C3
330
4D
100
AcDbEntity
  8
0
  6
Continuous
 62
     0
370
    30
100
AcDbLine
 10
461.814928
 20
565.92435
 30
0.0
 11
460.23983
 21
565.924359
 31
0.0
  0
LINE
  5
C4
330
4D
100
AcDbEntity
  8
0
  6
Continuous
 62
     0
370
    30
100
AcDbLine
 10
460.23983
 20
565.924359
 30
0.0
 11
460.23983
 21
566.227708
 31
0.0
  0
LINE
  5
C5
330
4D
100
AcDbEntity
  8
0
  6
Continuous
 62
     0
370
    30
100
AcDbLine
 10
460.23983
 20
566.227708
 30
0.0
 11
461.821956
 21
566.227694
 31
0.0
  0
SPLINE
  5
C6
330
4D
100
AcDbEntity
  8
0
  6
Continuous
 62
     0
370
    30
100
AcDbSpline
210
0.0
220
0.0
230
1.0
 70
     8
 71
     3
 72
    10
 73
     6
 74
     0
 42
0.0
 43
0.0
 40
0.0
 40
0.0
 40
0.0
 40
0.0
 40
0.2406503714594196
 40
0.4809889051886758
 40
0.721158888053054
 40
0.721158888053054
 40
0.721158888053054
 40
0.721158888053054
 10
461.8219563724804
 20
566.2276935930101
 30
0.0
 10
461.9021731628787
 20
566.2276935872421
 30
0.0
 10
462.0630074342455
 20
566.2204713202175
 30
0.0
 10
462.2981134093923
 20
566.1639404260654
 30
0.0
 10
462.4405589227823
 20
566.0891915997524
 30
0.0
 10
462.504912547855
 20
566.0435476616195
 30
0.0
  0
SPLINE
  5
C7
330
4D
100
AcDbEntity
  8
0
  6
Continuous
 62
     0
370
    30
100
AcDbSpline
210
0.0
220
0.0
230
1.0
 70
     8
 71
     3
 72
    14
 73
    10
 74
     0
 42
0.0
 43
0.0
 40
0.0
 40
0.0
 40
0.0
 40
0.0
 40
0.2658311356644136
 40
0.5318324899200813
 40
0.7981789482599619
 40
1.064703722663622
 40
1.331140912478696
 40
1.59725580011786
 40
1.863124513833546
 40
1.863124513833546
 40
1.863124513833546
 40
1.863124513833546
 10
462.5049125478549
 20
566.0435476616195
 30
0.0
 10
462.5762748759445
 20
565.9931996204818
 30
0.0
 10
462.70353748863
 20
565.8695698469604
 30
0.0
 10
462.820182607152
 20
565.6351628345101
 30
0.0
 10
462.8675910761584
 20
565.3796571077146
 30
0.0
 10
462.8552428140001
 20
565.120015427453
 30
0.0
 10
462.787754283589
 20
564.8675206415286
 30
0.0
 10
462.6575780783203
 20
564.6374785802337
 30
0.0
 10
462.5250459247897
 20
564.5170413708533
 30
0.0
 10
462.4513757046811
 20
564.4689210399933
 30
0.0
  0
SPLINE
  5
C8
330
4D
100
AcDbEntity
  8
0
  6
Continuous
 62
     0
370
    30
100
AcDbSpline
210
0.0
220
0.0
230
1.0
 70
     8
 71
     3
 72
    10
 73
     6
 74
     0
 42
0.0
 43
0.0
 40
0.0
 40
0.0
 40
0.0
 40
0.0
 40
0.2234824778642054
 40
0.4474133988426866
 40
0.6716368634533153
 40
0.6716368634533153
 40
0.6716368634533153
 40
0.6716368634533153
 10
462.4513757046818
 20
564.4689210399936
 30
0.0
 10
462.389069097723
 20
564.4290341386021
 30
0.0
 10
462.2511824098342
 20
564.3666919718576
 30
0.0
 10
462.0282520906547
 20
564.3344626584078
 30
0.0
 10
461.8789208157326
 20
564.3293197988544
 30
0.0
 10
461.8041796613779
 20
564.3293278547679
 30
0.0
  0
LINE
  5
C9
330
4D
100
AcDbEntity
  8
0
  6
Continuous
 62
     0
370
    30
100
AcDbLine
 10
461.80418
 20
564.329328
 30
0.0
 11
460.23983
 21
564.329341
 31
0.0
  0
SPLINE
  5
CA
330
4D
100
AcDbEntity
  8
0
  6
Continuous
 62
     0
370
    30
100
AcDbSpline
210
0.0
220
0.0
230
1.0
 70
     8
 71
     3
 72
    25
 73
    21
 74
     0
 42
0.0
 43
0.0
 40
0.0
 40
0.0
 40
0.0
 40
0.0
 40
0.2754117203151685
 40
0.4117111493874493
 40
0.5484227172847359
 40
0.6882255408435669
 40
0.828517537529593
 40
1.101530130229451
 40
1.374996099329444
 40
1.654519371669836
 40
2.206611179020704
 40
2.483601928484152
 40
2.760074308334973
 40
3.036299766838883
 40
3.172821653322534
 40
3.311285244432745
 40
3.451140522921229
 40
3.589993566819087
 40
3.726555894954437
 40
3.865086221907652
 40
3.865086221907652
 40
3.865086221907652
 40
3.865086221907652
 10
460.9335557742871
 20
567.8293079341548
 30
0.0
 10
460.8419908972314
 20
567.8231500806365
 30
0.0
 10
460.7033633912565
 20
567.7811597071435
 30
0.0
 10
460.5681623701699
 20
567.6622742292766
 30
0.0
 10
460.5065856760198
 20
567.5445989479049
 30
0.0
 10
460.4819238158142
 20
567.4151228808529
 30
0.0
 10
460.4935703436126
 20
567.2413159726275
 30
0.0
 10
460.5893288786388
 20
567.0334160798332
 30
0.0
 10
460.8221223912927
 20
566.877963149771
 30
0.0
 10
461.176261562919
 20
566.7744331348981
 30
0.0
 10
461.5496689507819
 20
566.7552842696898
 30
0.0
 10
461.9176252719465
 20
566.7836794033377
 30
0.0
 10
462.1864626406646
 20
566.8514738957372
 30
0.0
 10
462.3886374013941
 20
566.9690340246957
 30
0.0
 10
462.4967330395716
 20
567.1121217597821
 30
0.0
 10
462.5442468923753
 20
567.2358914672794
 30
0.0
 10
462.560952612069
 20
567.3666312412356
 30
0.0
 10
462.5470725657526
 20
567.4969370970539
 30
0.0
 10
462.4977317252292
 20
567.6193615241096
 30
0.0
 10
462.437470888116
 20
567.6866721056422
 30
0.0
 10
462.4019942417652
 20
567.7142326118541
 30
0.0
  0
ARC
  5
CB
330
4D
100
AcDbEntity
  8
0
  6
Continuous
 62
     0
370
    30
100
AcDbCircle
 10
462.06606
 20
567.225961
 30
0.0
 40
0.5926729910151223
100
AcDbArc
 50
55.471778
 51
83.628693
  0
LINE
  5
CC
330
4D
100
AcDbEntity
  8
0
  6
Continuous
 62
     0
370
    30
100
AcDbLine
 10
462.13183
 20
567.814973
 30
0.0
 11
462.13183
 21
568.127513
 31
0.0
  0
SPLINE
  5
CD
330
4D
100
AcDbEntity
  8
0
  6
Continuous
 62
     0
370
    30
100
AcDbSpline
210
0.0
220
0.0
230
1.0
 70
     8
 71
     3
 72
    26
 73
    22
 74
     0
 42
0.0
 43
0.0
 40
0.0
 40
0.0
 40
0.0
 40
0.0
 40
0.4329957280319827
 40
0.6503560515467744
 40
0.8672615756275351
 40
1.305446770178559
 40
1.739098905056484
 40
1.954088279332187
 40
2.172970668810697
 40
2.61441144428683
 40
3.050370624337332
 40
3.486677011425206
 40
3.927680242198664
 40
4.146685552390935
 40
4.362090948400036
 40
4.79543586142618
 40
5.017398464029136
 40
5.237524152879461
 40
5.453487952873494
 40
5.670035285782042
 40
6.104322691876692
 40
6.104322691876692
 40
6.104322691876692
 40
6.104322691876692
 10
462.1318296844318
 20
568.1275127699944
 30
0.0
 10
462.2760484634525
 20
568.1222587029256
 30
0.0
 10
462.4946650441328
 20
568.0439699749684
 30
0.0
 10
462.6979733671713
 20
567.8495724561047
 30
0.0
 10
462.833917033976
 20
567.606090834764
 30
0.0
 10
462.8748808798147
 20
567.2566035621926
 30
0.0
 10
462.7571633840882
 20
566.9178169324836
 30
0.0
 10
462.5605863865667
 20
566.7118494181427
 30
0.0
 10
462.3138432308631
 20
566.5599529193288
 30
0.0
 10
461.9591789351347
 20
566.4537916110346
 30
0.0
 10
461.5200340218276
 20
566.4292876522318
 30
0.0
 10
461.081855237827
 20
566.4658835875056
 30
0.0
 10
460.7309318786628
 20
566.5828076869477
 30
0.0
 10
460.4890484317787
 20
566.7413802350287
 30
0.0
 10
460.2960203527529
 20
566.9495077315332
 30
0.0
 10
460.2007280212995
 20
567.2213740269482
 30
0.0
 10
460.2004844301158
 20
567.4963486476067
 30
0.0
 10
460.2490442020345
 20
567.6983172066153
 30
0.0
 10
460.3527717722072
 20
567.8802204919383
 30
0.0
 10
460.5667419939085
 20
568.0655574122775
 30
0.0
 10
460.7888019458298
 20
568.1316469852334
 30
0.0
 10
460.9335557682042
 20
568.133078071751
 30
0.0
  0
LINE
  5
CE
330
4D
100
AcDbEntity
  8
0
  6
Continuous
 62
     0
370
    30
100
AcDbLine
 10
460.933556
 20
568.133078
 30
0.0
 11
460.933556
 21
567.829308
 31
0.0
  0
LINE
  5
CF
330
4D
100
AcDbEntity
  8
0
  6
Continuous
 62
     0
370
    30
100
AcDbLine
 10
462.13183
 20
569.517889
 30
0.0
 11
462.13183
 21
569.796755
 31
0.0
  0
SPLINE
  5
D0
330
4D
100
AcDbEntity
  8
0
  6
Continuous
 62
     0
370
    30
100
AcDbSpline
210
0.0
220
0.0
230
1.0
 70
     8
 71
     3
 72
    28
 73
    24
 74
     0
 42
0.0
 43
0.0
 40
0.0
 40
0.0
 40
0.0
 40
0.0
 40
0.420447163056052
 40
0.6302954727550846
 40
0.8408442242622233
 40
1.264356009512049
 40
1.683146518034478
 40
1.891353215850199
 40
2.103180002565582
 40
2.318745009213892
 40
2.532573572134464
 40
2.954756629199497
 40
3.377480775805025
 40
3.805430969074709
 40
4.017368875573592
 40
4.226305843304226
 40
4.645601066209493
 40
4.859869049938898
 40
5.073392086735822
 40
5.283190324930735
 40
5.492725046528274
 40
5.705976211204709
 40
5.918133441981339
 40
5.918133441981339
 40
5.918133441981339
 40
5.918133441981339
 10
462.1318296818059
 20
569.7967549851822
 30
0.0
 10
462.2718253938697
 20
569.7909538737046
 30
0.0
 10
462.4846328638573
 20
569.7281038623423
 30
0.0
 10
462.6927175126149
 20
569.555691154157
 30
0.0
 10
462.8326927182795
 20
569.332751596085
 30
0.0
 10
462.8759874658562
 20
569.0039880085208
 30
0.0
 10
462.7411375957589
 20
568.692211923775
 30
0.0
 10
462.5390396394268
 20
568.5106423276857
 30
0.0
 10
462.3535393929183
 20
568.4133738052437
 30
0.0
 10
462.1517347387767
 20
568.3467029756641
 30
0.0
 10
461.8740974017482
 20
568.2895300005453
 30
0.0
 10
461.5197707288535
 20
568.270232863807
 30
0.0
 10
461.0956599580192
 20
568.3042194711463
 30
0.0
 10
460.7524652006272
 20
568.4014296038307
 30
0.0
 10
460.509160935065
 20
568.5376676412259
 30
0.0
 10
460.3102188326249
 20
568.7218530865796
 30
0.0
 10
460.2010789580025
 20
568.9721252330044
 30
0.0
 10
460.1989216014978
 20
569.2296147621082
 30
0.0
 10
460.2512050744833
 20
569.4174782899679
 30
0.0
 10
460.3588761670365
 20
569.5839352091707
 30
0.0
 10
460.5238130524987
 20
569.7069620716468
 30
0.0
 10
460.7209576281837
 20
569.781133969931
 30
0.0
 10
460.8628527801476
 20
569.8003863872195
 30
0.0
 10
460.933555768657
 20
569.8017122257613
 30
0.0
  0
LINE
  5
D1
330
4D
100
AcDbEntity
  8
0
  6
Continuous
 62
     0
370
    30
100
AcDbLine
 10
460.933556
 20
569.801712
 30
0.0
 11
460.933556
 21
569.530698
 31
0.0
  0
SPLINE
  5
D2
330
4D
100
AcDbEntity
  8
0
  6
Continuous
 62
     0
370
    30
100
AcDbSpline
210
0.0
220
0.0
230
1.0
 70
     8
 71
     3
 72
    23
 73
    19
 74
     0
 42
0.0
 43
0.0
 40
0.0
 40
0.0
 40
0.0
 40
0.0
 40
0.1344406348959635
 40
0.2698087024253294
 40
0.4020113593220688
 40
0.5351093167956869
 40
0.8039622975256736
 40
1.068634646139707
 40
1.334722668476819
 40
1.605909583314183
 40
1.873103289376393
 40
2.143350905299619
 40
2.412004249781777
 40
2.680682206166634
 40
2.949290704837158
 40
3.213805505265973
 40
3.481377106834313
 40
3.74489199651304
 40
3.74489199651304
 40
3.74489199651304
 40
3.74489199651304
 10
460.9335557741714
 20
569.5306981219478
 30
0.0
 10
460.8888991704513
 20
569.5273411985439
 30
0.0
 10
460.7997972494974
 20
569.5124236257545
 30
0.0
 10
460.6751571610606
 20
569.4651133609593
 30
0.0
 10
460.5710866481195
 20
569.3857226628123
 30
0.0
 10
460.4863284197115
 20
569.2414804178838
 30
0.0
 10
460.4734456377656
 20
569.0298906301107
 30
0.0
 10
460.6032587530307
 20
568.804074228972
 30
0.0
 10
460.8370656777931
 20
568.6704759914089
 30
0.0
 10
461.097003810762
 20
568.6058379024967
 30
0.0
 10
461.3651418781697
 20
568.5749391768601
 30
0.0
 10
461.6341231387761
 20
568.5720271935468
 30
0.0
 10
461.9033807565791
 20
568.5905636340203
 30
0.0
 10
462.1654618233904
 20
568.6469635183628
 30
0.0
 10
462.4103490880804
 20
568.7622507211472
 30
0.0
 10
462.5568444854163
 20
568.9802185729816
 30
0.0
 10
462.5694832363318
 20
569.2302069616313
 30
0.0
 10
462.4717245397896
 20
569.3798366279987
 30
0.0
 10
462.4019942413717
 20
569.4278224817165
 30
0.0
  0
ARC
  5
D3
330
4D
100
AcDbEntity
  8
0
  6
Continuous
 62
     0
370
    30
100
AcDbCircle
 10
462.072037
 20
568.888306
 30
0.0
 40
0.6324157082772557
100
AcDbArc
 50
58.550906
 51
84.574797
  0
LINE
  5
D4
330
4D
100
AcDbEntity
  8
0
  6
Continuous
 62
     0
370
    30
100
AcDbLine
 10
462.807273
 20
571.011861
 30
0.0
 11
462.807273
 21
571.235276
 31
0.0
  0
LINE
  5
D5
330
4D
100
AcDbEntity
  8
0
  6
Continuous
 62
     0
370
    30
100
AcDbLine
 10
462.807273
 20
571.235276
 30
0.0
 11
460.240192
 21
571.235276
 31
0.0
  0
LINE
  5
D6
330
4D
100
AcDbEntity
  8
0
  6
Continuous
 62
     0
370
    30
100
AcDbLine
 10
460.240192
 20
571.235276
 30
0.0
 11
460.240192
 21
571.011861
 31
0.0
  0
LINE
  5
D7
330
4D
100
AcDbEntity
  8
0
  6
Continuous
 62
     0
370
    30
100
AcDbLine
 10
460.240192
 20
571.011861
 30
0.0
 11
461.342348
 21
571.011857
 31
0.0
  0
LINE
  5
D8
330
4D
100
AcDbEntity
  8
0
  6
Continuous
 62
     0
370
    30
100
AcDbLine
 10
461.342348
 20
571.011857
 30
0.0
 11
461.342348
 21
570.208485
 31
0.0
  0
LINE
  5
D9
330
4D
100
AcDbEntity
  8
0
  6
Continuous
 62
     0
370
    30
100
AcDbLine
 10
461.342348
 20
570.208485
 30
0.0
 11
460.240192
 21
570.208487
 31
0.0
  0
LINE
  5
DA
330
4D
100
AcDbEntity
  8
0
  6
Continuous
 62
     0
370
    30
100
AcDbLine
 10
460.240192
 20
570.208487
 30
0.0
 11
460.240192
 21
569.963443
 31
0.0
  0
LINE
  5
DB
330
4D
100
AcDbEntity
  8
0
  6
Continuous
 62
     0
370
    30
100
AcDbLine
 10
460.240192
 20
569.963443
 30
0.0
 11
462.807273
 21
569.963443
 31
0.0
  0
LINE
  5
DC
330
4D
100
AcDbEntity
  8
0
  6
Continuous
 62
     0
370
    30
100
AcDbLine
 10
462.807273
 20
569.963443
 30
0.0
 11
462.807273
 21
570.208487
 31
0.0
  0
LINE
  5
DD
330
4D
100
AcDbEntity
  8
0
  6
Continuous
 62
     0
370
    30
100
AcDbLine
 10
462.807273
 20
570.208487
 30
0.0
 11
461.648066
 21
570.208483
 31
0.0
  0
LINE
  5
DE
330
4D
100
AcDbEntity
  8
0
  6
Continuous
 62
     0
370
    30
100
AcDbLine
 10
461.648066
 20
570.208483
 30
0.0
 11
461.648066
 21
571.011855
 31
0.0
  0
LINE
  5
DF
330
4D
100
AcDbEntity
  8
0
  6
Continuous
 62
     0
370
    30
100
AcDbLine
 10
461.648066
 20
571.011855
 30
0.0
 11
462.807273
 21
571.011861
 31
0.0
  0
LINE
  5
E0
330
4D
100
AcDbEntity
  8
0
  6
Continuous
 62
     0
370
    30
100
AcDbLine
 10
460.240192
 20
574.248178
 30
0.0
 11
460.553352
 21
574.248177
 31
0.0
  0
LINE
  5
E1
330
4D
100
AcDbEntity
  8
0
  6
Continuous
 62
     0
370
    30
100
AcDbLine
 10
460.553352
 20
574.248177
 30
0.0
 11
460.553352
 21
573.869946
 31
0.0
  0
LINE
  5
E2
330
4D
100
AcDbEntity
  8
0
  6
Continuous
 62
     0
370
    30
100
AcDbLine
 10
460.553352
 20
573.869946
 30
0.0
 11
462.807272
 21
573.869955
 31
0.0
  0
LINE
  5
E3
330
4D
100
AcDbEntity
  8
0
  6
Continuous
 62
     0
370
    30
100
AcDbLine
 10
462.807272
 20
573.869955
 30
0.0
 11
462.807272
 21
573.708853
 31
0.0
  0
LINE
  5
E4
330
4D
100
AcDbEntity
  8
0
  6
Continuous
 62
     0
370
    30
100
AcDbLine
 10
462.807272
 20
573.708853
 30
0.0
 11
460.553352
 21
573.70883
 31
0.0
  0
LINE
  5
E5
330
4D
100
AcDbEntity
  8
0
  6
Continuous
 62
     0
370
    30
100
AcDbLine
 10
460.553352
 20
573.70883
 30
0.0
 11
460.553352
 21
573.11754
 31
0.0
  0
LINE
  5
E6
330
4D
100
AcDbEntity
  8
0
  6
Continuous
 62
     0
370
    30
100
AcDbLine
 10
460.553352
 20
573.11754
 30
0.0
 11
462.807273
 21
573.117585
 31
0.0
  0
LINE
  5
E7
330
4D
100
AcDbEntity
  8
0
  6
Continuous
 62
     0
370
    30
100
AcDbLine
 10
462.807273
 20
573.117585
 30
0.0
 11
462.807273
 21
572.938798
 31
0.0
  0
LINE
  5
E8
330
4D
100
AcDbEntity
  8
0
  6
Continuous
 62
     0
370
    30
100
AcDbLine
 10
462.807273
 20
572.938798
 30
0.0
 11
460.553352
 21
572.938704
 31
0.0
  0
LINE
  5
E9
330
4D
100
AcDbEntity
  8
0
  6
Continuous
 62
     0
370
    30
100
AcDbLine
 10
460.553352
 20
572.938704
 30
0.0
 11
460.553352
 21
571.640447
 31
0.0
  0
LINE
  5
EA
330
4D
100
AcDbEntity
  8
0
  6
Continuous
 62
     0
370
    30
100
AcDbLine
 10
460.553352
 20
571.640447
 30
0.0
 11
461.342348
 21
571.640438
 31
0.0
  0
LINE
  5
EB
330
4D
100
AcDbEntity
  8
0
  6
Continuous
 62
     0
370
    30
100
AcDbLine
 10
461.342348
 20
571.640438
 30
0.0
 11
461.342348
 21
572.327591
 31
0.0
  0
LINE
  5
EC
330
4D
100
AcDbEntity
  8
0
  6
Continuous
 62
     0
370
    30
100
AcDbLine
 10
461.342348
 20
572.327591
 30
0.0
 11
461.648066
 21
572.327604
 31
0.0
  0
LINE
  5
ED
330
4D
100
AcDbEntity
  8
0
  6
Continuous
 62
     0
370
    30
100
AcDbLine
 10
461.648066
 20
572.327604
 30
0.0
 11
461.648066
 21
571.640442
 31
0.0
  0
LINE
  5
EE
330
4D
100
AcDbEntity
  8
0
  6
Continuous
 62
     0
370
    30
100
AcDbLine
 10
461.648066
 20
571.640442
 30
0.0
 11
462.49432
 21
571.640447
 31
0.0
  0
LINE
  5
EF
330
4D
100
AcDbEntity
  8
0
  6
Continuous
 62
     0
370
    30
100
AcDbLine
 10
462.49432
 20
571.640447
 30
0.0
 11
462.49432
 21
572.376762
 31
0.0
  0
LINE
  5
F0
330
4D
100
AcDbEntity
  8
0
  6
Continuous
 62
     0
370
    30
100
AcDbLine
 10
462.49432
 20
572.376762
 30
0.0
 11
462.807273
 21
572.376879
 31
0.0
  0
LINE
  5
F1
330
4D
100
AcDbEntity
  8
0
  6
Continuous
 62
     0
370
    30
100
AcDbLine
 10
462.807273
 20
572.376879
 30
0.0
 11
462.807273
 21
571.425841
 31
0.0
  0
LINE
  5
F2
330
4D
100
AcDbEntity
  8
0
  6
Continuous
 62
     0
370
    30
100
AcDbLine
 10
462.807273
 20
571.425841
 30
0.0
 11
460.240192
 21
571.425841
 31
0.0
  0
LINE
  5
F3
330
4D
100
AcDbEntity
  8
0
  6
Continuous
 62
     0
370
    30
100
AcDbLine
 10
460.240192
 20
571.425841
 30
0.0
 11
460.240192
 21
574.248178
 31
0.0
  0
LINE
  5
F4
330
4D
100
AcDbEntity
  8
0
  6
Continuous
 62
     0
370
    30
100
AcDbLine
 10
462.807273
 20
574.360969
 30
0.0
 11
462.807273
 21
574.508323
 31
0.0
  0
LINE
  5
F5
330
4D
100
AcDbEntity
  8
0
  6
Continuous
 62
     0
370
    30
100
AcDbLine
 10
462.807273
 20
574.508323
 30
0.0
 11
460.240192
 21
574.508323
 31
0.0
  0
LINE
  5
F6
330
4D
100
AcDbEntity
  8
0
  6
Continuous
 62
     0
370
    30
100
AcDbLine
 10
460.240192
 20
574.508323
 30
0.0
 11
460.240192
 21
574.360969
 31
0.0
  0
LINE
  5
F7
330
4D
100
AcDbEntity
  8
0
  6
Continuous
 62
     0
370
    30
100
AcDbLine
 10
460.240192
 20
574.360969
 30
0.0
 11
462.807273
 21
574.360969
 31
0.0
  0
LINE
  5
F8
330
4D
100
AcDbEntity
  8
0
  6
Continuous
 62
     0
370
    30
100
AcDbLine
 10
462.131758
 20
574.845379
 30
0.0
 11
462.131758
 21
574.70561
 31
0.0
  0
LINE
  5
F9
330
4D
100
AcDbEntity
  8
0
  6
Continuous
 62
     0
370
    30
100
AcDbLine
 10
462.131758
 20
574.70561
 30
0.0
 11
462.807273
 21
574.70561
 31
0.0
  0
LINE
  5
FA
330
4D
100
AcDbEntity
  8
0
  6
Continuous
 62
     0
370
    30
100
AcDbLine
 10
462.807273
 20
574.70561
 30
0.0
 11
462.807273
 21
574.845379
 31
0.0
  0
LINE
  5
FB
330
4D
100
AcDbEntity
  8
0
  6
Continuous
 62
     0
370
    30
100
AcDbLine
 10
462.807273
 20
574.845379
 30
0.0
 11
462.131758
 21
574.845379
 31
0.0
  0
ENDBLK
  5
FD
330
4D
100
AcDbEntity
  8
0
100
AcDbBlockEnd
  0
BLOCK
  5
17C
330
FF
100
AcDbEntity
  8
0
100
AcDbBlockBegin
  2
b
 70
     0
 10
711.020386
 20
177.690475
 30
0.0
  3
b
  1

  0
LINE
  5
100
330
FF
100
AcDbEntity
  8
0
  6
Continuous
 62
     0
370
    30
100
AcDbLine
 10
429.140198
 20
253.570215
 30
0.0
 11
446.1402
 21
253.570216
 31
0.0
  0
LINE
  5
101
330
FF
100
AcDbEntity
  8
0
  6
Continuous
 62
     0
370
     0
100
AcDbLine
 10
446.140198
 20
276.070215
 30
0.0
 11
446.1402
 21
253.570216
 31
0.0
  0
LINE
  5
102
330
FF
100
AcDbEntity
  8
0
  6
Continuous
 62
     0
370
     0
100
AcDbLine
 10
440.640198
 20
276.070214
 30
0.0
 11
446.140198
 21
276.070215
 31
0.0
  0
LINE
  5
103
330
FF
100
AcDbEntity
  8
0
  6
Continuous
 62
     0
370
    30
100
AcDbLine
 10
446.1402
 20
298.570216
 30
0.0
 11
418.140198
 21
298.570214
 31
0.0
  0
LINE
  5
104
330
FF
100
AcDbEntity
  8
0
  6
Continuous
 62
     0
370
     0
100
AcDbLine
 10
446.1402
 20
298.570216
 30
0.0
 11
446.140198
 21
276.070215
 31
0.0
  0
LINE
  5
105
330
FF
100
AcDbEntity
  8
0
  6
Continuous
 62
     0
370
     0
100
AcDbLine
 10
446.140198
 20
276.070215
 30
0.0
 11
448.448132
 21
276.070215
 31
0.0
  0
SPLINE
  5
106
330
FF
100
AcDbEntity
  8
0
  6
Continuous
 62
     0
370
     0
100
AcDbSpline
210
0.0
220
0.0
230
1.0
 70
     8
 71
     3
 72
    17
 73
    13
 74
     0
 42
0.0
 43
0.0
 40
0.0000008786908991
 40
0.0000008786908991
 40
0.0000008786908991
 40
0.0000008786908991
 40
1.722041878365568
 40
4.592242313609074
 40
9.497910929737008
 40
14.56034194697127
 40
19.62281862147591
 40
24.68543702431104
 40
27.84976335440597
 40
29.74847879832352
 40
33.12406851476702
 40
35.3434206042598
 40
35.3434206042598
 40
35.3434206042598
 40
35.3434206042598
 10
448.2839831763965
 20
298.5702155611581
 30
0.0
 10
448.2824642894125
 20
298.5702155136406
 30
0.0
 10
448.2792563235159
 20
298.5115961643857
 30
0.0
 10
448.2748908327321
 20
298.0680989938343
 30
0.0
 10
448.2776676172684
 20
296.7422472472572
 30
0.0
 10
448.2915061939248
 20
294.1732165678603
 30
0.0
 10
448.3165682518677
 20
290.6648446072912
 30
0.0
 10
448.3471325052033
 20
286.9510955758345
 30
0.0
 10
448.3744063916088
 20
283.8390671126483
 30
0.0
 10
448.3990463973494
 20
281.1419802494477
 30
0.0
 10
448.4227574612414
 20
278.6750969172008
 30
0.0
 10
448.4407792663867
 20
276.8096669305197
 30
0.0
 10
448.4481318610256
 20
276.0702145702037
 30
0.0
  0
LINE
  5
107
330
FF
100
AcDbEntity
  8
0
  6
Continuous
 62
     0
370
    30
100
AcDbLine
 10
448.283983
 20
298.570216
 30
0.0
 11
446.1402
 21
298.570216
 31
0.0
  0
LINE
  5
108
330
FF
100
AcDbEntity
  8
0
  6
Continuous
 62
     0
370
    30
100
AcDbLine
 10
448.731494
 20
253.570216
 30
0.0
 11
446.1402
 21
253.570216
 31
0.0
  0
SPLINE
  5
109
330
FF
100
AcDbEntity
  8
0
  6
Continuous
 62
     0
370
     0
100
AcDbSpline
210
0.0
220
0.0
230
1.0
 70
     8
 71
     3
 72
    17
 73
    13
 74
     0
 42
0.0
 43
0.0
 40
0.0
 40
0.0
 40
0.0
 40
0.0
 40
1.706339016653732
 40
4.550383530542367
 40
9.442487500490753
 40
14.50535991567011
 40
19.56799959870319
 40
24.63039839870083
 40
27.79445294476594
 40
29.69293249906594
 40
33.06807680507281
 40
35.34401262602155
 40
35.34401262602155
 40
35.34401262602155
 40
35.34401262602155
 10
448.4481318610256
 20
276.0702145702062
 30
0.0
 10
448.4537857886315
 20
275.5015975961351
 30
0.0
 10
448.4693008153308
 20
273.9846391920909
 30
0.0
 10
448.5010102554412
 20
270.8615604452145
 30
0.0
 10
448.5455918866067
 20
266.7758341742665
 30
0.0
 10
448.595294449604
 20
262.4350266326117
 30
0.0
 10
448.6413453619613
 20
258.7322435674033
 30
0.0
 10
448.6759693221805
 20
256.257327091069
 30
0.0
 10
448.6973258308084
 20
254.9218127599043
 30
0.0
 10
448.7125176018449
 20
254.1077873784824
 30
0.0
 10
448.7238627411662
 20
253.6655469468241
 30
0.0
 10
448.7294860926714
 20
253.5702155568102
 30
0.0
 10
448.7314944257623
 20
253.5702155462598
 30
0.0
  0
ARC
  5
10A
330
FF
100
AcDbEntity
  8
0
  6
Continuous
 62
     0
370
    30
100
AcDbCircle
 10
418.139903
 20
276.06992
 30
0.0
 40
22.50029451226934
100
AcDbArc
 50
0.00075
 51
89.99925
  0
ARC
  5
10B
330
FF
100
AcDbEntity
  8
0
  6
Continuous
 62
     0
370
    30
100
AcDbCircle
 10
418.139528
 20
276.070689
 30
0.0
 40
22.50066973561767
100
AcDbArc
 50
299.268577
 51
359.998791
  0
LINE
  5
10C
330
FF
100
AcDbEntity
  8
0
  6
Continuous
 62
     0
370
    30
100
AcDbLine
 10
456.140198
 20
276.058488
 30
0.0
 11
456.140198
 21
298.158489
 31
0.0
  0
LINE
  5
10D
330
FF
100
AcDbEntity
  8
0
  6
Continuous
 62
     0
370
    30
100
AcDbLine
 10
456.140198
 20
253.958489
 30
0.0
 11
456.140198
 21
276.058488
 31
0.0
  0
ARC
  5
10E
330
FF
100
AcDbEntity
  8
0
  6
Continuous
 62
     0
370
    30
100
AcDbCircle
 10
418.140198
 20
276.070214
 30
0.0
 40
22.50000000745057
100
AcDbArc
 50
90.0
 51
240.732422
  0
ARC
  5
10F
330
FF
100
AcDbEntity
  8
0
  6
Continuous
 62
     0
370
    30
100
AcDbCircle
 10
418.140198
 20
276.070214
 30
0.0
 40
22.12614672386328
100
AcDbArc
 50
180.0
 51
240.188417
  0
ARC
  5
110
330
FF
100
AcDbEntity
  8
0
  6
Continuous
 62
     0
370
    30
100
AcDbCircle
 10
418.140198
 20
276.070214
 30
0.0
 40
22.12614672386328
100
AcDbArc
 50
299.811583
 51
0.0
  0
ARC
  5
111
330
FF
100
AcDbEntity
  8
0
  6
Continuous
 62
     0
370
    30
100
AcDbCircle
 10
418.140198
 20
276.070214
 30
0.0
 40
22.12614672386328
100
AcDbArc
 50
0.0
 51
180.0
  0
LINE
  5
112
330
FF
100
AcDbEntity
  8
0
  6
Continuous
 62
     0
370
    30
100
AcDbLine
 10
448.283992
 20
298.570215
 30
0.0
 11
456.140198
 21
298.158489
 31
0.0
  0
LINE
  5
113
330
FF
100
AcDbEntity
  8
0
  6
Continuous
 62
     0
370
    30
100
AcDbLine
 10
448.731503
 20
253.570216
 30
0.0
 11
456.140198
 21
253.958489
 31
0.0
  0
ARC
  5
114
330
FF
100
AcDbEntity
  8
0
  6
Continuous
 62
     0
370
    30
100
AcDbCircle
 10
473.240199
 20
276.070197
 30
0.0
 40
6.5
100
AcDbArc
 50
97.531999
 51
277.531999
  0
ARC
  5
115
330
FF
100
AcDbEntity
  8
0
  6
Continuous
 62
     0
370
    30
100
AcDbCircle
 10
473.240199
 20
276.070197
 30
0.0
 40
6.5
100
AcDbArc
 50
277.531999
 51
97.531999
  0
LINE
  5
116
330
FF
100
AcDbEntity
  8
0
  6
Continuous
 62
     0
370
     0
100
AcDbLine
 10
479.740199
 20
276.070208
 30
0.0
 11
484.723503
 21
276.070208
 31
0.0
  0
SPLINE
  5
117
330
FF
100
AcDbEntity
  8
0
  6
Continuous
 62
     0
370
     0
100
AcDbSpline
210
0.0
220
0.0
230
1.0
 70
     8
 71
     3
 72
    21
 73
    17
 74
     0
 42
0.0
 43
0.0
 40
0.0
 40
0.0
 40
0.0
 40
0.0
 40
3.004295903646847
 40
6.017293057819065
 40
8.458208939344342
 40
9.93455495835826
 40
12.21528003184906
 40
14.06340335768629
 40
16.08163160756787
 40
18.25474785008328
 40
19.90381535291387
 40
21.84159665188864
 40
24.58282184243805
 40
27.2451884162121
 40
30.59472225158421
 40
33.05208433184013
 40
33.05208433184013
 40
33.05208433184013
 40
33.05208433184013
 10
461.756889652736
 20
276.0702084071402
 30
0.0
 10
461.756889652736
 20
276.9699719106064
 30
0.0
 10
462.0822853145357
 20
278.7712602273665
 30
0.0
 10
463.3900794414237
 20
281.0606077098431
 30
0.0
 10
464.9891616839681
 20
282.6301684203117
 30
0.0
 10
466.7019211942529
 20
283.7927627608788
 30
0.0
 10
468.466877905164
 20
284.6134312188639
 30
0.0
 10
470.5971690594329
 20
285.1953051406416
 30
0.0
 10
472.8031705177928
 20
285.4473972867315
 30
0.0
 10
474.9590091194075
 20
285.3389961471066
 30
0.0
 10
477.0082735650312
 20
284.9229983584788
 30
0.0
 10
479.1161242128004
 20
284.1677067437996
 30
0.0
 10
481.2552546843385
 20
282.8845962450235
 30
0.0
 10
483.2549084982669
 20
280.8847506630899
 30
0.0
 10
484.4678769770985
 20
278.5453420012825
 30
0.0
 10
484.7235028033186
 20
276.8061694394513
 30
0.0
 10
484.7235028033186
 20
276.0702084071402
 30
0.0
  0
LINE
  5
118
330
FF
100
AcDbEntity
  8
0
  6
Continuous
 62
     0
370
     0
100
AcDbLine
 10
461.75689
 20
276.070208
 30
0.0
 11
466.740196
 21
276.070208
 31
0.0
  0
SPLINE
  5
119
330
FF
100
AcDbEntity
  8
0
  6
Continuous
 62
     0
370
     0
100
AcDbSpline
210
0.0
220
0.0
230
1.0
 70
     8
 71
     3
 72
    21
 73
    17
 74
     0
 42
0.0
 43
0.0
 40
0.0
 40
0.0
 40
0.0
 40
0.0
 40
3.004295903647487
 40
6.01729305781994
 40
8.458208939345289
 40
9.934554958359266
 40
12.21528003185013
 40
14.06340335768736
 40
16.08163160756893
 40
18.25474785008434
 40
19.90381535291495
 40
21.8415966518898
 40
24.58282184243938
 40
27.24518841621357
 40
30.59472225158563
 40
33.05208433184011
 40
33.05208433184011
 40
33.05208433184011
 40
33.05208433184011
 10
484.7235028033186
 20
276.0702084071401
 30
0.0
 10
484.7235028033186
 20
275.1704449036737
 30
0.0
 10
484.3981071415187
 20
273.3691566254147
 30
0.0
 10
483.0903130146305
 20
271.0798092870264
 30
0.0
 10
481.4912307720859
 20
269.5102487282811
 30
0.0
 10
479.7784712618009
 20
268.3476545238612
 30
0.0
 10
478.0135145508896
 20
267.526986177676
 30
0.0
 10
475.8832233966206
 20
266.9451123433633
 30
0.0
 10
473.6772219382607
 20
266.6930202373815
 30
0.0
 10
471.521383336646
 20
266.8014213595396
 30
0.0
 10
469.4721188910223
 20
267.2174190840017
 30
0.0
 10
467.3642682432531
 20
267.9727105897405
 30
0.0
 10
465.2251377717151
 20
269.2558209271549
 30
0.0
 10
463.2254839577869
 20
271.2556663173549
 30
0.0
 10
462.012515478956
 20
273.5950748430155
 30
0.0
 10
461.756889652736
 20
275.3342473748294
 30
0.0
 10
461.756889652736
 20
276.0702084071402
 30
0.0
  0
ARC
  5
11A
330
FF
100
AcDbEntity
  8
0
  6
Continuous
 62
     0
370
    30
100
AcDbCircle
 10
457.432921
 20
295.150939
 30
0.0
 40
2.919273344350485
100
AcDbArc
 50
90.00106
 51
93.78531
  0
ARC
  5
11B
330
FF
100
AcDbEntity
  8
0
  6
Continuous
 62
     0
370
    30
100
AcDbCircle
 10
457.432918
 20
256.989486
 30
0.0
 40
2.919273682631333
100
AcDbArc
 50
266.214743
 51
269.99866
  0
LINE
  5
11C
330
FF
100
AcDbEntity
  8
0
  6
Continuous
 62
     0
370
    30
100
AcDbLine
 10
457.240196
 20
298.063844
 30
0.0
 11
457.240196
 21
276.070208
 31
0.0
  0
LINE
  5
11D
330
FF
100
AcDbEntity
  8
0
  6
Continuous
 62
     0
370
    30
100
AcDbLine
 10
457.240196
 20
276.070208
 30
0.0
 11
457.240196
 21
254.076581
 31
0.0
  0
LINE
  5
11E
330
FF
100
AcDbEntity
  8
0
  6
Continuous
 62
     0
370
     0
100
AcDbLine
 10
487.740196
 20
298.070212
 30
0.0
 11
487.740196
 21
276.070208
 31
0.0
  0
LINE
  5
11F
330
FF
100
AcDbEntity
  8
0
  6
Continuous
 62
     0
370
     0
100
AcDbLine
 10
487.740196
 20
276.070208
 30
0.0
 11
487.740196
 21
254.070212
 31
0.0
  0
LINE
  5
120
330
FF
100
AcDbEntity
  8
0
  6
Continuous
 62
     0
370
    30
100
AcDbLine
 10
488.240196
 20
276.070208
 30
0.0
 11
488.240196
 21
254.570212
 31
0.0
  0
LINE
  5
121
330
FF
100
AcDbEntity
  8
0
  6
Continuous
 62
     0
370
    30
100
AcDbLine
 10
488.240196
 20
297.570212
 30
0.0
 11
488.240196
 21
276.070208
 31
0.0
  0
ARC
  5
122
330
FF
100
AcDbEntity
  8
0
  6
Continuous
 62
     0
370
    30
100
AcDbCircle
 10
487.740159
 20
297.570175
 30
0.0
 40
0.5000369491425254
100
AcDbArc
 50
0.008983
 51
89.995767
  0
ARC
  5
123
330
FF
100
AcDbEntity
  8
0
  6
Continuous
 62
     0
370
    30
100
AcDbCircle
 10
487.740159
 20
254.570249
 30
0.0
 40
0.5000369491412113
100
AcDbArc
 50
270.004233
 51
359.991017
  0
LINE
  5
124
330
FF
100
AcDbEntity
  8
0
  6
Continuous
 62
     0
370
    30
100
AcDbLine
 10
457.43285
 20
254.070212
 30
0.0
 11
487.740196
 21
254.070212
 31
0.0
  0
LINE
  5
125
330
FF
100
AcDbEntity
  8
0
  6
Continuous
 62
     0
370
    30
100
AcDbLine
 10
457.432852
 20
298.070212
 30
0.0
 11
487.740196
 21
298.070212
 31
0.0
  0
ARC
  5
126
330
FF
100
AcDbEntity
  8
0
  6
Continuous
 62
     0
370
     0
100
AcDbCircle
 10
418.140198
 20
276.070219
 30
0.0
 40
27.0
100
AcDbArc
 50
79.07411
 51
245.957924
  0
ARC
  5
127
330
FF
100
AcDbEntity
  8
0
  6
Continuous
 62
     0
370
     0
100
AcDbCircle
 10
418.140198
 20
276.070219
 30
0.0
 40
27.0
100
AcDbArc
 50
56.44269
 51
79.07411
  0
ARC
  5
128
330
FF
100
AcDbEntity
  8
0
  6
Continuous
 62
     0
370
     0
100
AcDbCircle
 10
418.140198
 20
276.070219
 30
0.0
 40
27.0
100
AcDbArc
 50
294.042076
 51
303.55731
  0
ARC
  5
129
330
FF
100
AcDbEntity
  8
0
  6
Continuous
 62
     0
370
    30
100
AcDbCircle
 10
418.140198
 20
276.070219
 30
0.0
 40
30.0
100
AcDbArc
 50
48.590378
 51
79.07411
  0
ARC
  5
12A
330
FF
100
AcDbEntity
  8
0
  6
Continuous
 62
     0
370
    30
100
AcDbCircle
 10
418.140198
 20
276.070219
 30
0.0
 40
30.0
100
AcDbArc
 50
291.510188
 51
311.409622
  0
ARC
  5
12B
330
FF
100
AcDbEntity
  8
0
  6
Continuous
 62
     0
370
    30
100
AcDbCircle
 10
418.140198
 20
276.070219
 30
0.0
 40
30.0
100
AcDbArc
 50
79.07411
 51
248.489812
  0
ARC
  5
12C
330
FF
100
AcDbEntity
  8
0
  6
Continuous
 62
     0
370
     0
100
AcDbCircle
 10
418.140198
 20
276.070219
 30
0.0
 40
29.5
100
AcDbArc
 50
79.07411
 51
248.106572
  0
ARC
  5
12D
330
FF
100
AcDbEntity
  8
0
  6
Continuous
 62
     0
370
     0
100
AcDbCircle
 10
418.140198
 20
276.070219
 30
0.0
 40
29.5
100
AcDbArc
 50
49.703857
 51
79.07411
  0
ARC
  5
12E
330
FF
100
AcDbEntity
  8
0
  6
Continuous
 62
     0
370
     0
100
AcDbCircle
 10
418.140198
 20
276.070219
 30
0.0
 40
29.5
100
AcDbArc
 50
291.893428
 51
310.296143
  0
ARC
  5
12F
330
FF
100
AcDbEntity
  8
0
  6
Continuous
 62
     0
370
    30
100
AcDbCircle
 10
418.140198
 20
276.070209
 30
0.0
 40
11.0
100
AcDbArc
 50
0.0
 51
180.0
  0
LINE
  5
130
330
FF
100
AcDbEntity
  8
0
  6
Continuous
 62
     0
370
    30
100
AcDbLine
 10
407.140198
 20
276.070209
 30
0.0
 11
407.140198
 21
96.070209
 31
0.0
  0
ARC
  5
131
330
FF
100
AcDbEntity
  8
0
  6
Continuous
 62
     0
370
    30
100
AcDbCircle
 10
418.140198
 20
96.070209
 30
0.0
 40
11.0
100
AcDbArc
 50
180.0
 51
360.0
  0
LINE
  5
132
330
FF
100
AcDbEntity
  8
0
  6
Continuous
 62
     0
370
    30
100
AcDbLine
 10
429.140198
 20
96.070213
 30
0.0
 11
429.140198
 21
276.070209
 31
0.0
  0
ARC
  5
133
330
FF
100
AcDbEntity
  8
0
  6
Continuous
 62
     0
370
    30
100
AcDbCircle
 10
418.140198
 20
276.070213
 30
0.0
 40
11.25
100
AcDbArc
 50
347.898508
 51
104.359285
  0
ARC
  5
134
330
FF
100
AcDbEntity
  8
0
  6
Continuous
 62
     0
370
    30
100
AcDbCircle
 10
418.140198
 20
276.070213
 30
0.0
 40
11.25
100
AcDbArc
 50
104.359285
 51
192.101492
  0
ARC
  5
135
330
FF
100
AcDbEntity
  8
0
  6
Continuous
 62
     0
370
     0
100
AcDbCircle
 10
418.140198
 20
276.070213
 30
0.0
 40
21.5
100
AcDbArc
 50
300.772325
 51
104.359285
  0
ARC
  5
136
330
FF
100
AcDbEntity
  8
0
  6
Continuous
 62
     0
370
     0
100
AcDbCircle
 10
418.140198
 20
276.070213
 30
0.0
 40
21.5
100
AcDbArc
 50
104.359285
 51
239.227675
  0
ARC
  5
137
330
FF
100
AcDbEntity
  8
0
  6
Continuous
 62
     0
370
    30
100
AcDbCircle
 10
418.140198
 20
276.070213
 30
0.0
 40
22.0
100
AcDbArc
 50
300.0
 51
104.359285
  0
ARC
  5
138
330
FF
100
AcDbEntity
  8
0
  6
Continuous
 62
     0
370
    30
100
AcDbCircle
 10
418.140198
 20
276.070213
 30
0.0
 40
22.0
100
AcDbArc
 50
104.359285
 51
240.0
  0
ARC
  5
139
330
FF
100
AcDbEntity
  8
0
  6
Continuous
 62
     0
370
    30
100
AcDbCircle
 10
454.769794
 20
276.009093
 30
0.0
 40
20.42760338744059
100
AcDbArc
 50
84.746492
 51
86.153372
  0
LINE
  5
13A
330
FF
100
AcDbEntity
  8
0
  6
Continuous
 62
     0
370
    30
100
AcDbLine
 10
456.640198
 20
296.380579
 30
0.0
 11
456.640198
 21
296.172735
 31
0.0
  0
ARC
  5
13B
330
FF
100
AcDbEntity
  8
0
  6
Continuous
 62
     0
370
    30
100
AcDbCircle
 10
454.769803
 20
275.831061
 30
0.0
 40
20.42748326543045
100
AcDbArc
 50
84.746488
 51
86.153376
  0
LINE
  5
13C
330
FF
100
AcDbEntity
  8
0
  6
Continuous
 62
     0
370
    30
100
AcDbLine
 10
456.640198
 20
296.380579
 30
0.0
 11
457.240196
 21
296.316637
 31
0.0
  0
ARC
  5
13D
330
FF
100
AcDbEntity
  8
0
  6
Continuous
 62
     0
370
    30
100
AcDbCircle
 10
454.778613
 20
276.033957
 30
0.0
 40
20.35932260074868
100
AcDbArc
 50
273.834672
 51
276.944447
  0
LINE
  5
13E
330
FF
100
AcDbEntity
  8
0
  6
Continuous
 62
     0
370
    30
100
AcDbLine
 10
462.451742
 20
254.209874
 30
0.0
 11
462.807483
 21
254.209891
 31
0.0
  0
LINE
  5
13F
330
FF
100
AcDbEntity
  8
0
  6
Continuous
 62
     0
370
    30
100
AcDbLine
 10
462.807483
 20
254.209891
 30
0.0
 11
462.807483
 21
254.501624
 31
0.0
  0
LINE
  5
140
330
FF
100
AcDbEntity
  8
0
  6
Continuous
 62
     0
370
    30
100
AcDbLine
 10
462.807483
 20
254.501624
 30
0.0
 11
462.494324
 21
254.501625
 31
0.0
  0
LINE
  5
141
330
FF
100
AcDbEntity
  8
0
  6
Continuous
 62
     0
370
    30
100
AcDbLine
 10
462.494324
 20
254.501625
 30
0.0
 11
462.494324
 21
254.258896
 31
0.0
  0
LINE
  5
142
330
FF
100
AcDbEntity
  8
0
  6
Continuous
 62
     0
370
    30
100
AcDbLine
 10
460.592216
 20
254.496883
 30
0.0
 11
460.240196
 21
254.496895
 31
0.0
  0
LINE
  5
143
330
FF
100
AcDbEntity
  8
0
  6
Continuous
 62
     0
370
    30
100
AcDbLine
 10
460.240196
 20
254.496895
 30
0.0
 11
460.240196
 21
254.214258
 31
0.0
  0
LINE
  5
144
330
FF
100
AcDbEntity
  8
0
  6
Continuous
 62
     0
370
    30
100
AcDbLine
 10
460.240196
 20
254.214258
 30
0.0
 11
460.553149
 21
254.214261
 31
0.0
  0
LINE
  5
145
330
FF
100
AcDbEntity
  8
0
  6
Continuous
 62
     0
370
    30
100
AcDbLine
 10
460.239833
 20
254.620629
 30
0.0
 11
461.828988
 21
254.620658
 31
0.0
  0
SPLINE
  5
146
330
FF
100
AcDbEntity
  8
0
  6
Continuous
 62
     0
370
    30
100
AcDbSpline
210
0.0
220
0.0
230
1.0
 70
     8
 71
     3
 72
    10
 73
     6
 74
     0
 42
0.0
 43
0.0
 40
0.0
 40
0.0
 40
0.0
 40
0.0
 40
0.1607383031801948
 40
0.3212678064986665
 40
0.4814978669279018
 40
0.4814978669279018
 40
0.4814978669279018
 40
0.4814978669279018
 10
461.8289881774585
 20
254.6206578625912
 30
0.0
 10
461.8825676103327
 20
254.6206674760916
 30
0.0
 10
461.9896330680481
 20
254.6216175154981
 30
0.0
 10
462.1491877721737
 20
254.6273940822801
 30
0.0
 10
462.2470363955362
 20
254.638101161009
 30
0.0
 10
462.2911825198438
 20
254.6449202325588
 30
0.0
  0
SPLINE
  5
147
330
FF
100
AcDbEntity
  8
0
  6
Continuous
 62
     0
370
    30
100
AcDbSpline
210
0.0
220
0.0
230
1.0
 70
     8
 71
     3
 72
    14
 73
    10
 74
     0
 42
0.0
 43
0.0
 40
0.0
 40
0.0
 40
0.0
 40
0.0
 40
0.2483063195049807
 40
0.4973415118280721
 40
0.7469539897613074
 40
0.9957853863575405
 40
1.243643039570703
 40
1.492316197299798
 40
1.742344279104773
 40
1.742344279104773
 40
1.742344279104773
 40
1.742344279104773
 10
462.2911825198483
 20
254.6449202325644
 30
0.0
 10
462.3585008792855
 20
254.6558374340896
 30
0.0
 10
462.4747120919034
 20
254.6851767476418
 30
0.0
 10
462.546551704528
 20
254.743817223982
 30
0.0
 10
462.5482638954613
 20
254.8067707890655
 30
0.0
 10
462.485140334781
 20
254.8716476030295
 30
0.0
 10
462.3071540761006
 20
254.9235991390469
 30
0.0
 10
462.0650149565741
 20
254.9464439895094
 30
0.0
 10
461.8982746417422
 20
254.9486046975986
 30
0.0
 10
461.8149321787351
 20
254.9485332402307
 30
0.0
  0
LINE
  5
148
330
FF
100
AcDbEntity
  8
0
  6
Continuous
 62
     0
370
    30
100
AcDbLine
 10
461.814932
 20
254.948533
 30
0.0
 11
460.239833
 21
254.948502
 31
0.0
  0
LINE
  5
149
330
FF
100
AcDbEntity
  8
0
  6
Continuous
 62
     0
370
    30
100
AcDbLine
 10
460.239833
 20
255.039261
 30
0.0
 11
461.82196
 21
255.03931
 31
0.0
  0
SPLINE
  5
14A
330
FF
100
AcDbEntity
  8
0
  6
Continuous
 62
     0
370
    30
100
AcDbSpline
210
0.0
220
0.0
230
1.0
 70
     8
 71
     3
 72
    10
 73
     6
 74
     0
 42
0.0
 43
0.0
 40
0.0
 40
0.0
 40
0.0
 40
0.0
 40
0.2406503714594196
 40
0.4809889051886758
 40
0.721158888053054
 40
0.721158888053054
 40
0.721158888053054
 40
0.721158888053054
 10
461.8219601871776
 20
255.0393096403342
 30
0.0
 10
461.9021769775759
 20
255.0393058789388
 30
0.0
 10
462.0630112489428
 20
255.0370556071865
 30
0.0
 10
462.2981172240895
 20
255.019693016752
 30
0.0
 10
462.4405627374796
 20
254.9971692555158
 30
0.0
 10
462.5049163625523
 20
254.9835931455882
 30
0.0
  0
SPLINE
  5
14B
330
FF
100
AcDbEntity
  8
0
  6
Continuous
 62
     0
370
    30
100
AcDbSpline
210
0.0
220
0.0
230
1.0
 70
     8
 71
     3
 72
    14
 73
    10
 74
     0
 42
0.0
 43
0.0
 40
0.0
 40
0.0
 40
0.0
 40
0.0
 40
0.2658311356644136
 40
0.5318324899200813
 40
0.7981789482599619
 40
1.064703722663622
 40
1.331140912478696
 40
1.59725580011786
 40
1.863124513833546
 40
1.863124513833546
 40
1.863124513833546
 40
1.863124513833546
 10
462.5049163625522
 20
254.9835931455882
 30
0.0
 10
462.5762786906418
 20
254.9686167640178
 30
0.0
 10
462.7035413033273
 20
254.9322036013418
 30
0.0
 10
462.8201864218493
 20
254.8658977096765
 30
0.0
 10
462.8675948908557
 20
254.7967930253117
 30
0.0
 10
462.8552466286973
 20
254.7300550831991
 30
0.0
 10
462.7877580982863
 20
254.6683836906011
 30
0.0
 10
462.6575818930176
 20
254.6150203895868
 30
0.0
 10
462.525049739487
 20
254.5883687601747
 30
0.0
 10
462.4513795193784
 20
254.5778259143779
 30
0.0
  0
SPLINE
  5
14C
330
FF
100
AcDbEntity
  8
0
  6
Continuous
 62
     0
370
    30
100
AcDbSpline
210
0.0
220
0.0
230
1.0
 70
     8
 71
     3
 72
    10
 73
     6
 74
     0
 42
0.0
 43
0.0
 40
0.0
 40
0.0
 40
0.0
 40
0.0
 40
0.2234824778642054
 40
0.4474133988426866
 40
0.6716368634533153
 40
0.6716368634533153
 40
0.6716368634533153
 40
0.6716368634533153
 10
462.451379519379
 20
254.5778259143779
 30
0.0
 10
462.3890729124203
 20
254.5690908377184
 30
0.0
 10
462.2511862245315
 20
254.555647293978
 30
0.0
 10
462.028255905352
 20
254.5489466973745
 30
0.0
 10
461.8789246304299
 20
254.5478592347776
 30
0.0
 10
461.8041834760752
 20
254.5478557462696
 30
0.0
  0
LINE
  5
14D
330
FF
100
AcDbEntity
  8
0
  6
Continuous
 62
     0
370
    30
100
AcDbLine
 10
461.804183
 20
254.547856
 30
0.0
 11
460.239833
 21
254.547794
 31
0.0
  0
SPLINE
  5
14E
330
FF
100
AcDbEntity
  8
0
  6
Continuous
 62
     0
370
    30
100
AcDbSpline
210
0.0
220
0.0
230
1.0
 70
     8
 71
     3
 72
    25
 73
    21
 74
     0
 42
0.0
 43
0.0
 40
0.0
 40
0.0
 40
0.0
 40
0.0
 40
0.2754117203151685
 40
0.4117111493874493
 40
0.5484227172847359
 40
0.6882255408435669
 40
0.828517537529593
 40
1.101530130229451
 40
1.374996099329444
 40
1.654519371669836
 40
2.206611179020704
 40
2.483601928484152
 40
2.760074308334973
 40
3.036299766838883
 40
3.172821653322534
 40
3.311285244432745
 40
3.451140522921229
 40
3.589993566819087
 40
3.726555894954437
 40
3.865086221907652
 40
3.865086221907652
 40
3.865086221907652
 40
3.865086221907652
 10
460.9335595889843
 20
255.5994627036185
 30
0.0
 10
460.8419947119287
 20
255.5970313609704
 30
0.0
 10
460.7033672059538
 20
255.5805226883179
 30
0.0
 10
460.5681661848672
 20
255.5343953922461
 30
0.0
 10
460.5065894907171
 20
255.4894688174664
 30
0.0
 10
460.4819276305114
 20
255.4410094060014
 30
0.0
 10
460.4935741583099
 20
255.3772727107819
 30
0.0
 10
460.589332693336
 20
255.3034883603175
 30
0.0
 10
460.82212620599
 20
255.249898298034
 30
0.0
 10
461.1762653776162
 20
255.2149689028765
 30
0.0
 10
461.5496727654792
 20
255.208547134373
 30
0.0
 10
461.9176290866437
 20
255.2181184399524
 30
0.0
 10
462.1864664553618
 20
255.2408820385464
 30
0.0
 10
462.3886412160914
 20
255.2812018470836
 30
0.0
 10
462.4967368542689
 20
255.3313984151823
 30
0.0
 10
462.5442507070726
 20
255.3755470630776
 30
0.0
 10
462.5609564267663
 20
255.4231128874579
 30
0.0
 10
462.5470763804499
 20
255.4715159922055
 30
0.0
 10
462.4977355399265
 20
255.5179059786023
 30
0.0
 10
462.4374747028132
 20
255.5438765820143
 30
0.0
 10
462.4019980564625
 20
255.5545593084846
 30
0.0
  0
ARC
  5
14F
330
FF
100
AcDbEntity
  8
0
  6
Continuous
 62
     0
370
    30
100
AcDbCircle
 10
462.083398
 20
254.311838
 30
0.0
 40
1.282911366441333
100
AcDbArc
 50
75.620592
 51
87.836302
  0
SPLINE
  5
150
330
FF
100
AcDbEntity
  8
0
  6
Continuous
 62
     0
370
    30
100
AcDbSpline
210
0.0
220
0.0
230
1.0
 70
     8
 71
     3
 72
    26
 73
    22
 74
     0
 42
0.0
 43
0.0
 40
0.0
 40
0.0
 40
0.0
 40
0.0
 40
0.4329957280319827
 40
0.6503560515467744
 40
0.8672615756275351
 40
1.305446770178559
 40
1.739098905056484
 40
1.954088279332187
 40
2.172970668810697
 40
2.61441144428683
 40
3.050370624337332
 40
3.486677011425206
 40
3.927680242198664
 40
4.146685552390935
 40
4.362090948400036
 40
4.79543586142618
 40
5.017398464029136
 40
5.237524152879461
 40
5.453487952873494
 40
5.670035285782042
 40
6.104322691876692
 40
6.104322691876692
 40
6.104322691876692
 40
6.104322691876692
 10
462.131833499129
 20
255.7194087111912
 30
0.0
 10
462.2760522781498
 20
255.717164026172
 30
0.0
 10
462.49466885883
 20
255.6849471284621
 30
0.0
 10
462.6979771818686
 20
255.6072004634921
 30
0.0
 10
462.8339208486733
 20
255.5121747525256
 30
0.0
 10
462.874884694512
 20
255.3814860841605
 30
0.0
 10
462.7571671987855
 20
255.2630509892333
 30
0.0
 10
462.5605902012639
 20
255.1939226820112
 30
0.0
 10
462.3138470455604
 20
255.1439041483806
 30
0.0
 10
461.9591827498319
 20
255.1099341409591
 30
0.0
 10
461.5200378365249
 20
255.1022627718465
 30
0.0
 10
461.0818590525242
 20
255.1137493023845
 30
0.0
 10
460.73093569336
 20
255.151337767708
 30
0.0
 10
460.4890522464759
 20
255.2037452239612
 30
0.0
 10
460.2960241674501
 20
255.2739761796932
 30
0.0
 10
460.2007318359968
 20
255.3695026099388
 30
0.0
 10
460.200488244813
 20
255.4711148270717
 30
0.0
 10
460.2490480167318
 20
255.548020301517
 30
0.0
 10
460.3527755869045
 20
255.6193353402965
 30
0.0
 10
460.5667458086058
 20
255.6937750559065
 30
0.0
 10
460.7888057605271
 20
255.7210156799617
 30
0.0
 10
460.9335595829015
 20
255.7216903968619
 30
0.0
  0
SPLINE
  5
151
330
FF
100
AcDbEntity
  8
0
  6
Continuous
 62
     0
370
    30
100
AcDbSpline
210
0.0
220
0.0
230
1.0
 70
     8
 71
     3
 72
    28
 73
    24
 74
     0
 42
0.0
 43
0.0
 40
0.0
 40
0.0
 40
0.0
 40
0.0
 40
0.420447163056052
 40
0.6302954727550846
 40
0.8408442242622233
 40
1.264356009512049
 40
1.683146518034478
 40
1.891353215850199
 40
2.103180002565582
 40
2.318745009213892
 40
2.532573572134464
 40
2.954756629199497
 40
3.377480775805025
 40
3.805430969074709
 40
4.017368875573592
 40
4.226305843304226
 40
4.645601066209493
 40
4.859869049938898
 40
5.073392086735822
 40
5.283190324930735
 40
5.492725046528274
 40
5.705976211204709
 40
5.918133441981339
 40
5.918133441981339
 40
5.918133441981339
 40
5.918133441981339
 10
462.1318334965031
 20
256.4878649419038
 30
0.0
 10
462.2718292085669
 20
256.4848145085596
 30
0.0
 10
462.4846366785546
 20
256.4525709073973
 30
0.0
 10
462.6927213273122
 20
256.3660453519976
 30
0.0
 10
462.8326965329767
 20
256.2563507921431
 30
0.0
 10
462.8759912805534
 20
256.1001682152445
 30
0.0
 10
462.7411414104561
 20
255.9600089223862
 30
0.0
 10
462.5390434541241
 20
255.8808664194973
 30
0.0
 10
462.3535432076155
 20
255.8390398082684
 30
0.0
 10
462.1517385534739
 20
255.8106972322103
 30
0.0
 10
461.8741012164455
 20
255.7866653815082
 30
0.0
 10
461.5197745435507
 20
255.7786076539551
 30
0.0
 10
461.0956637727165
 20
255.7927898722585
 30
0.0
 10
460.7524690153245
 20
255.8338240189949
 30
0.0
 10
460.5091647497622
 20
255.892567486488
 30
0.0
 10
460.3102226473221
 20
255.9731889174322
 30
0.0
 10
460.2010827726997
 20
256.086178592455
 30
0.0
 10
460.198925416195
 20
256.2073131635136
 30
0.0
 10
460.2512088891806
 20
256.2978989537744
 30
0.0
 10
460.3588799817338
 20
256.3801067870739
 30
0.0
 10
460.5238168671959
 20
256.4420535196481
 30
0.0
 10
460.7209614428809
 20
256.4797926121207
 30
0.0
 10
460.8628565948449
 20
256.4896834818011
 30
0.0
 10
460.9335595833543
 20
256.4904027933557
 30
0.0
  0
SPLINE
  5
152
330
FF
100
AcDbEntity
  8
0
  6
Continuous
 62
     0
370
    30
100
AcDbSpline
210
0.0
220
0.0
230
1.0
 70
     8
 71
     3
 72
    23
 73
    19
 74
     0
 42
0.0
 43
0.0
 40
0.0
 40
0.0
 40
0.0
 40
0.0
 40
0.1344406348959635
 40
0.2698087024253294
 40
0.4020113593220688
 40
0.5351093167956869
 40
0.8039622975256736
 40
1.068634646139707
 40
1.334722668476819
 40
1.605909583314183
 40
1.873103289376393
 40
2.143350905299619
 40
2.412004249781777
 40
2.680682206166634
 40
2.949290704837158
 40
3.213805505265973
 40
3.481377106834313
 40
3.74489199651304
 40
3.74489199651304
 40
3.74489199651304
 40
3.74489199651304
 10
460.9335595888687
 20
256.3538857233237
 30
0.0
 10
460.8889029851485
 20
256.352220604315
 30
0.0
 10
460.7998010641946
 20
256.3448566033175
 30
0.0
 10
460.6751609757579
 20
256.3215714025663
 30
0.0
 10
460.5710904628168
 20
256.2826987742822
 30
0.0
 10
460.4863322344088
 20
256.2129469127743
 30
0.0
 10
460.4734494524629
 20
256.1131351469065
 30
0.0
 10
460.6032625677279
 20
256.0103571352487
 30
0.0
 10
460.8370694924904
 20
255.9508262721528
 30
0.0
 10
461.0970076254593
 20
255.9224709936378
 30
0.0
 10
461.3651456928669
 20
255.9089543350409
 30
0.0
 10
461.6341269534734
 20
255.9076680768905
 30
0.0
 10
461.9033845712763
 20
255.9157936478144
 30
0.0
 10
462.1654656380877
 20
255.9404598689119
 30
0.0
 10
462.4103529027776
 20
255.9915916715294
 30
0.0
 10
462.5568483001136
 20
256.0902588849403
 30
0.0
 10
462.5694870510291
 20
256.2072365316404
 30
0.0
 10
462.4717283544869
 20
256.2798545676129
 30
0.0
 10
462.4019980560689
 20
256.3033196388797
 30
0.0
  0
ARC
  5
153
330
FF
100
AcDbEntity
  8
0
  6
Continuous
 62
     0
370
    30
100
AcDbCircle
 10
462.084145
 20
255.209286
 30
0.0
 40
1.139271460751786
100
AcDbArc
 50
73.799661
 51
87.600968
  0
LINE
  5
154
330
FF
100
AcDbEntity
  8
0
  6
Continuous
 62
     0
370
    30
100
AcDbLine
 10
462.807276
 20
257.159211
 30
0.0
 11
462.807276
 21
257.293827
 31
0.0
  0
LINE
  5
155
330
FF
100
AcDbEntity
  8
0
  6
Continuous
 62
     0
370
    30
100
AcDbLine
 10
462.807276
 20
257.293827
 30
0.0
 11
460.240196
 21
257.293827
 31
0.0
  0
LINE
  5
156
330
FF
100
AcDbEntity
  8
0
  6
Continuous
 62
     0
370
    30
100
AcDbLine
 10
460.240196
 20
257.293827
 30
0.0
 11
460.240196
 21
257.159211
 31
0.0
  0
LINE
  5
157
330
FF
100
AcDbEntity
  8
0
  6
Continuous
 62
     0
370
    30
100
AcDbLine
 10
460.240196
 20
257.159211
 30
0.0
 11
461.342352
 21
257.159218
 31
0.0
  0
LINE
  5
158
330
FF
100
AcDbEntity
  8
0
  6
Continuous
 62
     0
370
    30
100
AcDbLine
 10
461.342352
 20
257.159218
 30
0.0
 11
461.342352
 21
256.704193
 31
0.0
  0
LINE
  5
159
330
FF
100
AcDbEntity
  8
0
  6
Continuous
 62
     0
370
    30
100
AcDbLine
 10
461.342352
 20
256.704193
 30
0.0
 11
460.240196
 21
256.704189
 31
0.0
  0
LINE
  5
15A
330
FF
100
AcDbEntity
  8
0
  6
Continuous
 62
     0
370
    30
100
AcDbLine
 10
460.240196
 20
256.704189
 30
0.0
 11
460.240196
 21
256.574101
 31
0.0
  0
LINE
  5
15B
330
FF
100
AcDbEntity
  8
0
  6
Continuous
 62
     0
370
    30
100
AcDbLine
 10
460.240196
 20
256.574101
 30
0.0
 11
462.807276
 21
256.574101
 31
0.0
  0
LINE
  5
15C
330
FF
100
AcDbEntity
  8
0
  6
Continuous
 62
     0
370
    30
100
AcDbLine
 10
462.807276
 20
256.574101
 30
0.0
 11
462.807276
 21
256.704189
 31
0.0
  0
LINE
  5
15D
330
FF
100
AcDbEntity
  8
0
  6
Continuous
 62
     0
370
    30
100
AcDbLine
 10
462.807276
 20
256.704189
 30
0.0
 11
461.64807
 21
256.704196
 31
0.0
  0
LINE
  5
15E
330
FF
100
AcDbEntity
  8
0
  6
Continuous
 62
     0
370
    30
100
AcDbLine
 10
461.64807
 20
256.704196
 30
0.0
 11
461.64807
 21
257.159221
 31
0.0
  0
LINE
  5
15F
330
FF
100
AcDbEntity
  8
0
  6
Continuous
 62
     0
370
    30
100
AcDbLine
 10
461.64807
 20
257.159221
 30
0.0
 11
462.807276
 21
257.159211
 31
0.0
  0
LINE
  5
160
330
FF
100
AcDbEntity
  8
0
  6
Continuous
 62
     0
370
    30
100
AcDbLine
 10
460.240196
 20
259.505521
 30
0.0
 11
460.553356
 21
259.505523
 31
0.0
  0
LINE
  5
161
330
FF
100
AcDbEntity
  8
0
  6
Continuous
 62
     0
370
    30
100
AcDbLine
 10
460.553356
 20
259.505523
 30
0.0
 11
460.553356
 21
259.182376
 31
0.0
  0
LINE
  5
162
330
FF
100
AcDbEntity
  8
0
  6
Continuous
 62
     0
370
    30
100
AcDbLine
 10
460.553356
 20
259.182376
 30
0.0
 11
462.807276
 21
259.182365
 31
0.0
  0
LINE
  5
163
330
FF
100
AcDbEntity
  8
0
  6
Continuous
 62
     0
370
    30
100
AcDbLine
 10
462.807276
 20
259.182365
 30
0.0
 11
462.807276
 21
259.049116
 31
0.0
  0
LINE
  5
164
330
FF
100
AcDbEntity
  8
0
  6
Continuous
 62
     0
370
    30
100
AcDbLine
 10
462.807276
 20
259.049116
 30
0.0
 11
460.553356
 21
259.049144
 31
0.0
  0
LINE
  5
165
330
FF
100
AcDbEntity
  8
0
  6
Continuous
 62
     0
370
    30
100
AcDbLine
 10
460.553356
 20
259.049144
 30
0.0
 11
460.553356
 21
258.581666
 31
0.0
  0
LINE
  5
166
330
FF
100
AcDbEntity
  8
0
  6
Continuous
 62
     0
370
    30
100
AcDbLine
 10
460.553356
 20
258.581666
 30
0.0
 11
462.807276
 21
258.581607
 31
0.0
  0
LINE
  5
167
330
FF
100
AcDbEntity
  8
0
  6
Continuous
 62
     0
370
    30
100
AcDbLine
 10
462.807276
 20
258.581607
 30
0.0
 11
462.807276
 21
258.446486
 31
0.0
  0
LINE
  5
168
330
FF
100
AcDbEntity
  8
0
  6
Continuous
 62
     0
370
    30
100
AcDbLine
 10
462.807276
 20
258.446486
 30
0.0
 11
460.553356
 21
258.446612
 31
0.0
  0
LINE
  5
169
330
FF
100
AcDbEntity
  8
0
  6
Continuous
 62
     0
370
    30
100
AcDbLine
 10
460.553356
 20
258.446612
 30
0.0
 11
460.553356
 21
257.547309
 31
0.0
  0
LINE
  5
16A
330
FF
100
AcDbEntity
  8
0
  6
Continuous
 62
     0
370
    30
100
AcDbLine
 10
460.553356
 20
257.547309
 30
0.0
 11
461.342352
 21
257.547322
 31
0.0
  0
LINE
  5
16B
330
FF
100
AcDbEntity
  8
0
  6
Continuous
 62
     0
370
    30
100
AcDbLine
 10
461.342352
 20
257.547322
 30
0.0
 11
461.342352
 21
258.00618
 31
0.0
  0
LINE
  5
16C
330
FF
100
AcDbEntity
  8
0
  6
Continuous
 62
     0
370
    30
100
AcDbLine
 10
461.342352
 20
258.00618
 30
0.0
 11
461.64807
 21
258.006161
 31
0.0
  0
LINE
  5
16D
330
FF
100
AcDbEntity
  8
0
  6
Continuous
 62
     0
370
    30
100
AcDbLine
 10
461.64807
 20
258.006161
 30
0.0
 11
461.64807
 21
257.547316
 31
0.0
  0
LINE
  5
16E
330
FF
100
AcDbEntity
  8
0
  6
Continuous
 62
     0
370
    30
100
AcDbLine
 10
461.64807
 20
257.547316
 30
0.0
 11
462.494324
 21
257.547309
 31
0.0
  0
LINE
  5
16F
330
FF
100
AcDbEntity
  8
0
  6
Continuous
 62
     0
370
    30
100
AcDbLine
 10
462.494324
 20
257.547309
 30
0.0
 11
462.494324
 21
258.040142
 31
0.0
  0
LINE
  5
170
330
FF
100
AcDbEntity
  8
0
  6
Continuous
 62
     0
370
    30
100
AcDbLine
 10
462.494324
 20
258.040142
 30
0.0
 11
462.807276
 21
258.039973
 31
0.0
  0
LINE
  5
171
330
FF
100
AcDbEntity
  8
0
  6
Continuous
 62
     0
370
    30
100
AcDbLine
 10
462.807276
 20
258.039973
 30
0.0
 11
462.807276
 21
257.411522
 31
0.0
  0
LINE
  5
172
330
FF
100
AcDbEntity
  8
0
  6
Continuous
 62
     0
370
    30
100
AcDbLine
 10
462.807276
 20
257.411522
 30
0.0
 11
460.240196
 21
257.411522
 31
0.0
  0
LINE
  5
173
330
FF
100
AcDbEntity
  8
0
  6
Continuous
 62
     0
370
    30
100
AcDbLine
 10
460.240196
 20
257.411522
 30
0.0
 11
460.240196
 21
259.505521
 31
0.0
  0
LINE
  5
174
330
FF
100
AcDbEntity
  8
0
  6
Continuous
 62
     0
370
    30
100
AcDbLine
 10
462.807276
 20
259.604784
 30
0.0
 11
462.807276
 21
259.736548
 31
0.0
  0
LINE
  5
175
330
FF
100
AcDbEntity
  8
0
  6
Continuous
 62
     0
370
    30
100
AcDbLine
 10
462.807276
 20
259.736548
 30
0.0
 11
460.240196
 21
259.736548
 31
0.0
  0
LINE
  5
176
330
FF
100
AcDbEntity
  8
0
  6
Continuous
 62
     0
370
    30
100
AcDbLine
 10
460.240196
 20
259.736548
 30
0.0
 11
460.240196
 21
259.604784
 31
0.0
  0
LINE
  5
177
330
FF
100
AcDbEntity
  8
0
  6
Continuous
 62
     0
370
    30
100
AcDbLine
 10
460.240196
 20
259.604784
 30
0.0
 11
462.807276
 21
259.604784
 31
0.0
  0
LINE
  5
178
330
FF
100
AcDbEntity
  8
0
  6
Continuous
 62
     0
370
    30
100
AcDbLine
 10
462.131762
 20
260.047109
 30
0.0
 11
462.131762
 21
259.916749
 31
0.0
  0
LINE
  5
179
330
FF
100
AcDbEntity
  8
0
  6
Continuous
 62
     0
370
    30
100
AcDbLine
 10
462.131762
 20
259.916749
 30
0.0
 11
462.807276
 21
259.916749
 31
0.0
  0
LINE
  5
17A
330
FF
100
AcDbEntity
  8
0
  6
Continuous
 62
     0
370
    30
100
AcDbLine
 10
462.807276
 20
259.916749
 30
0.0
 11
462.807276
 21
260.047109
 31
0.0
  0
LINE
  5
17B
330
FF
100
AcDbEntity
  8
0
  6
Continuous
 62
     0
370
    30
100
AcDbLine
 10
462.807276
 20
260.047109
 30
0.0
 11
462.131762
 21
260.047109
 31
0.0
  0
ENDBLK
  5
17D
330
FF
100
AcDbEntity
  8
0
100
AcDbBlockEnd
  0
BLOCK
  5
1C5
330
17F
100
AcDbEntity
  8
0
100
AcDbBlockBegin
  2
c
 70
     0
 10
989.76001
 20
177.690506
 30
0.0
  3
c
  1

  0
LINE
  5
180
330
17F
100
AcDbEntity
  8
0
  6
Continuous
 62
     0
370
    30
100
AcDbLine
 10
725.72963
 20
531.770244
 30
0.0
 11
725.72963
 21
496.402701
 31
0.0
  0
LINE
  5
181
330
17F
100
AcDbEntity
  8
0
  6
Continuous
 62
     0
370
    30
100
AcDbLine
 10
770.72963
 20
496.402701
 30
0.0
 11
770.72963
 21
531.770244
 31
0.0
  0
LINE
  5
182
330
17F
100
AcDbEntity
  8
0
  6
Continuous
 62
     0
370
    30
100
AcDbLine
 10
725.72963
 20
588.198225
 30
0.0
 11
725.72963
 21
587.770237
 31
0.0
  0
LINE
  5
183
330
17F
100
AcDbEntity
  8
0
  6
Continuous
 62
     0
370
    30
100
AcDbLine
 10
770.72963
 20
587.770237
 30
0.0
 11
770.72963
 21
588.198225
 31
0.0
  0
LINE
  5
184
330
17F
100
AcDbEntity
  8
0
  6
Continuous
 62
     0
370
    30
100
AcDbLine
 10
748.22963
 20
592.770246
 30
0.0
 11
726.42963
 21
592.770246
 31
0.0
  0
LINE
  5
185
330
17F
100
AcDbEntity
  8
0
  6
Continuous
 62
     0
370
    30
100
AcDbLine
 10
770.02963
 20
592.770246
 30
0.0
 11
748.22963
 21
592.770246
 31
0.0
  0
LINE
  5
186
330
17F
100
AcDbEntity
  8
0
  6
Continuous
 62
     0
370
    30
100
AcDbLine
 10
725.72963
 20
588.198225
 30
0.0
 11
770.72963
 21
588.198225
 31
0.0
  0
LINE
  5
187
330
17F
100
AcDbEntity
  8
0
  6
Continuous
 62
     0
370
    30
100
AcDbLine
 10
770.355776
 20
592.471388
 30
0.0
 11
748.22963
 21
592.471388
 31
0.0
  0
LINE
  5
188
330
17F
100
AcDbEntity
  8
0
  6
Continuous
 62
     0
370
    30
100
AcDbLine
 10
748.22963
 20
592.471388
 30
0.0
 11
726.103483
 21
592.471388
 31
0.0
  0
LINE
  5
189
330
17F
100
AcDbEntity
  8
0
  6
Continuous
 62
     0
370
    30
100
AcDbLine
 10
726.12963
 20
488.770246
 30
0.0
 11
748.22963
 21
488.770246
 31
0.0
  0
LINE
  5
18A
330
17F
100
AcDbEntity
  8
0
  6
Continuous
 62
     0
370
    30
100
AcDbLine
 10
748.22963
 20
488.770246
 30
0.0
 11
770.32963
 21
488.770246
 31
0.0
  0
LINE
  5
18B
330
17F
100
AcDbEntity
  8
0
  6
Continuous
 62
     0
370
     0
100
AcDbLine
 10
748.229631
 20
496.402701
 30
0.0
 11
725.72963
 21
496.402701
 31
0.0
  0
LINE
  5
18C
330
17F
100
AcDbEntity
  8
0
  6
Continuous
 62
     0
370
     0
100
AcDbLine
 10
770.72963
 20
496.402701
 30
0.0
 11
748.229631
 21
496.402701
 31
0.0
  0
LINE
  5
18D
330
17F
100
AcDbEntity
  8
0
  6
Continuous
 62
     0
370
    30
100
AcDbLine
 10
725.72963
 20
587.770237
 30
0.0
 11
725.72963
 21
531.770244
 31
0.0
  0
LINE
  5
18E
330
17F
100
AcDbEntity
  8
0
  6
Continuous
 62
     0
370
    30
100
AcDbLine
 10
770.72963
 20
587.770237
 30
0.0
 11
770.72963
 21
531.770244
 31
0.0
  0
LINE
  5
18F
330
17F
100
AcDbEntity
  8
0
  6
Continuous
 62
     0
370
    30
100
AcDbLine
 10
725.72963
 20
496.402701
 30
0.0
 11
726.12963
 21
488.770246
 31
0.0
  0
LINE
  5
190
330
17F
100
AcDbEntity
  8
0
  6
Continuous
 62
     0
370
    30
100
AcDbLine
 10
770.72963
 20
496.402701
 30
0.0
 11
770.32963
 21
488.770246
 31
0.0
  0
LINE
  5
191
330
17F
100
AcDbEntity
  8
0
  6
Continuous
 62
     0
370
    30
100
AcDbLine
 10
726.103483
 20
592.471388
 30
0.0
 11
726.429607
 21
592.770225
 31
0.0
  0
LINE
  5
192
330
17F
100
AcDbEntity
  8
0
  6
Continuous
 62
     0
370
    30
100
AcDbLine
 10
770.355776
 20
592.471388
 30
0.0
 11
770.029652
 21
592.770225
 31
0.0
  0
LINE
  5
193
330
17F
100
AcDbEntity
  8
0
  6
Continuous
 62
     0
370
    30
100
AcDbLine
 10
725.72963
 20
588.198225
 30
0.0
 11
726.103483
 21
592.471388
 31
0.0
  0
LINE
  5
194
330
17F
100
AcDbEntity
  8
0
  6
Continuous
 62
     0
370
    30
100
AcDbLine
 10
770.72963
 20
588.198225
 30
0.0
 11
770.355776
 21
592.471388
 31
0.0
  0
LINE
  5
195
330
17F
100
AcDbEntity
  8
0
  6
Continuous
 62
     0
370
    30
100
AcDbLine
 10
777.194888
 20
477.770256
 30
0.0
 11
777.72963
 21
477.770256
 31
0.0
  0
LINE
  5
196
330
17F
100
AcDbEntity
  8
0
  6
Continuous
 62
     0
370
    30
100
AcDbLine
 10
718.72963
 20
477.770256
 30
0.0
 11
777.194888
 21
477.770256
 31
0.0
  0
LINE
  5
197
330
17F
100
AcDbEntity
  8
0
  6
Continuous
 62
     0
370
     0
100
AcDbLine
 10
718.22963
 20
478.270256
 30
0.0
 11
777.685825
 21
478.270256
 31
0.0
  0
LINE
  5
198
330
17F
100
AcDbEntity
  8
0
  6
Continuous
 62
     0
370
     0
100
AcDbLine
 10
777.685825
 20
478.270256
 30
0.0
 11
778.22963
 21
478.270256
 31
0.0
  0
LINE
  5
199
330
17F
100
AcDbEntity
  8
0
  6
Continuous
 62
     0
370
     0
100
AcDbLine
 10
777.685825
 20
483.270256
 30
0.0
 11
778.22963
 21
483.270256
 31
0.0
  0
LINE
  5
19A
330
17F
100
AcDbEntity
  8
0
  6
Continuous
 62
     0
370
     0
100
AcDbLine
 10
718.22963
 20
483.270256
 30
0.0
 11
777.685825
 21
483.270256
 31
0.0
  0
LINE
  5
19B
330
17F
100
AcDbEntity
  8
0
  6
Continuous
 62
     0
370
    30
100
AcDbLine
 10
718.72963
 20
483.770256
 30
0.0
 11
777.194888
 21
483.770256
 31
0.0
  0
LINE
  5
19C
330
17F
100
AcDbEntity
  8
0
  6
Continuous
 62
     0
370
    30
100
AcDbLine
 10
777.194888
 20
483.770256
 30
0.0
 11
777.72963
 21
483.770256
 31
0.0
  0
ARC
  5
19D
330
17F
100
AcDbEntity
  8
0
  6
Continuous
 62
     0
370
    30
100
AcDbCircle
 10
777.72959
 20
478.270294
 30
0.0
 40
0.5000377434844239
100
AcDbArc
 50
270.012965
 51
359.995676
  0
ARC
  5
19E
330
17F
100
AcDbEntity
  8
0
  6
Continuous
 62
     0
370
    30
100
AcDbCircle
 10
718.729684
 20
478.270294
 30
0.0
 40
0.5000381596748548
100
AcDbArc
 50
180.004371
 51
269.98158
  0
ARC
  5
19F
330
17F
100
AcDbEntity
  8
0
  6
Continuous
 62
     0
370
    30
100
AcDbCircle
 10
777.72959
 20
483.270218
 30
0.0
 40
0.5000377434917614
100
AcDbArc
 50
0.004324
 51
89.987035
  0
ARC
  5
1A0
330
17F
100
AcDbEntity
  8
0
  6
Continuous
 62
     0
370
    30
100
AcDbCircle
 10
718.729684
 20
483.270218
 30
0.0
 40
0.5000381596698406
100
AcDbArc
 50
90.01842
 51
179.995629
  0
LINE
  5
1A1
330
17F
100
AcDbEntity
  8
0
  6
Continuous
 62
     0
370
    30
100
AcDbLine
 10
718.22963
 20
478.270256
 30
0.0
 11
718.22963
 21
483.270256
 31
0.0
  0
LINE
  5
1A2
330
17F
100
AcDbEntity
  8
0
  6
Continuous
 62
     0
370
    30
100
AcDbLine
 10
778.22963
 20
478.270256
 30
0.0
 11
778.22963
 21
483.270256
 31
0.0
  0
ARC
  5
1A3
330
17F
100
AcDbEntity
  8
0
  6
Continuous
 62
     0
370
    30
100
AcDbCircle
 10
775.22989
 20
488.770518
 30
0.0
 40
5.000261632243127
100
AcDbArc
 50
180.002997
 51
269.984395
  0
ARC
  5
1A4
330
17F
100
AcDbEntity
  8
0
  6
Continuous
 62
     0
370
    30
100
AcDbCircle
 10
721.229384
 20
488.770516
 30
0.0
 40
5.00026013594671
100
AcDbArc
 50
270.015622
 51
359.99702
  0
LINE
  5
1A5
330
17F
100
AcDbEntity
  8
0
  6
Continuous
 62
     0
370
     0
100
AcDbLine
 10
748.22963
 20
706.92025
 30
0.0
 11
737.22963
 21
706.92025
 31
0.0
  0
LINE
  5
1A6
330
17F
100
AcDbEntity
  8
0
  6
Continuous
 62
     0
370
     0
100
AcDbLine
 10
759.22963
 20
706.92025
 30
0.0
 11
748.22963
 21
706.92025
 31
0.0
  0
LINE
  5
1A7
330
17F
100
AcDbEntity
  8
0
  6
Continuous
 62
     0
370
     0
100
AcDbLine
 10
928.22963
 20
706.92025
 30
0.0
 11
939.22963
 21
706.92025
 31
0.0
  0
LINE
  5
1A8
330
17F
100
AcDbEntity
  8
0
  6
Continuous
 62
     0
370
     0
100
AcDbLine
 10
917.22963
 20
706.92025
 30
0.0
 11
928.22963
 21
706.92025
 31
0.0
  0
LINE
  5
1A9
330
17F
100
AcDbEntity
  8
0
  6
Continuous
 62
     0
370
    30
100
AcDbLine
 10
917.22963
 20
682.92025
 30
0.0
 11
928.22963
 21
682.92025
 31
0.0
  0
LINE
  5
1AA
330
17F
100
AcDbEntity
  8
0
  6
Continuous
 62
     0
370
    30
100
AcDbLine
 10
939.22963
 20
682.92025
 30
0.0
 11
939.22963
 21
706.92025
 31
0.0
  0
LINE
  5
1AB
330
17F
100
AcDbEntity
  8
0
  6
Continuous
 62
     0
370
    30
100
AcDbLine
 10
917.22963
 20
682.92025
 30
0.0
 11
917.22963
 21
706.92025
 31
0.0
  0
ARC
  5
1AC
330
17F
100
AcDbEntity
  8
0
  6
Continuous
 62
     0
370
    30
100
AcDbCircle
 10
838.22963
 20
706.919884
 30
0.0
 40
101.0000000006645
100
AcDbArc
 50
0.000208
 51
179.999792
  0
ARC
  5
1AD
330
17F
100
AcDbEntity
  8
0
  6
Continuous
 62
     0
370
    30
100
AcDbCircle
 10
838.22963
 20
706.919767
 30
0.0
 40
79.00000000147892
100
AcDbArc
 50
0.000351
 51
179.999649
  0
LINE
  5
1AE
330
17F
100
AcDbEntity
  8
0
  6
Continuous
 62
     0
370
    30
100
AcDbLine
 10
737.22963
 20
706.92025
 30
0.0
 11
737.22963
 21
614.77025
 31
0.0
  0
LINE
  5
1AF
330
17F
100
AcDbEntity
  8
0
  6
Continuous
 62
     0
370
    30
100
AcDbLine
 10
759.22963
 20
706.92025
 30
0.0
 11
759.22963
 21
614.77025
 31
0.0
  0
LINE
  5
1B0
330
17F
100
AcDbEntity
  8
0
  6
Continuous
 62
     0
370
    30
100
AcDbLine
 10
726.72963
 20
614.77025
 30
0.0
 11
727.401298
 21
614.77025
 31
0.0
  0
LINE
  5
1B1
330
17F
100
AcDbEntity
  8
0
  6
Continuous
 62
     0
370
    30
100
AcDbLine
 10
727.401298
 20
614.77025
 30
0.0
 11
769.72963
 21
614.77025
 31
0.0
  0
LINE
  5
1B2
330
17F
100
AcDbEntity
  8
0
  6
Continuous
 62
     0
370
     0
100
AcDbLine
 10
726.22963
 20
614.27025
 30
0.0
 11
726.916918
 21
614.27025
 31
0.0
  0
LINE
  5
1B3
330
17F
100
AcDbEntity
  8
0
  6
Continuous
 62
     0
370
     0
100
AcDbLine
 10
726.916918
 20
614.27025
 30
0.0
 11
770.22963
 21
614.27025
 31
0.0
  0
LINE
  5
1B4
330
17F
100
AcDbEntity
  8
0
  6
Continuous
 62
     0
370
    30
100
AcDbLine
 10
726.22963
 20
593.07025
 30
0.0
 11
726.916918
 21
593.07025
 31
0.0
  0
LINE
  5
1B5
330
17F
100
AcDbEntity
  8
0
  6
Continuous
 62
     0
370
    30
100
AcDbLine
 10
726.916918
 20
593.07025
 30
0.0
 11
770.22963
 21
593.07025
 31
0.0
  0
LINE
  5
1B6
330
17F
100
AcDbEntity
  8
0
  6
Continuous
 62
     0
370
    30
100
AcDbLine
 10
769.929675
 20
592.770278
 30
0.0
 11
770.229648
 21
593.07025
 31
0.0
  0
LINE
  5
1B7
330
17F
100
AcDbEntity
  8
0
  6
Continuous
 62
     0
370
    30
100
AcDbLine
 10
726.529659
 20
592.770276
 30
0.0
 11
726.229684
 21
593.07025
 31
0.0
  0
LINE
  5
1B8
330
17F
100
AcDbEntity
  8
0
  6
Continuous
 62
     0
370
    30
100
AcDbLine
 10
726.22963
 20
593.07025
 30
0.0
 11
726.22963
 21
614.27025
 31
0.0
  0
LINE
  5
1B9
330
17F
100
AcDbEntity
  8
0
  6
Continuous
 62
     0
370
    30
100
AcDbLine
 10
770.22963
 20
593.07025
 30
0.0
 11
770.22963
 21
614.27025
 31
0.0
  0
ARC
  5
1BA
330
17F
100
AcDbEntity
  8
0
  6
Continuous
 62
     0
370
    30
100
AcDbCircle
 10
769.72961
 20
614.270213
 30
0.0
 40
0.5000377307410568
100
AcDbArc
 50
0.004323
 51
89.989546
  0
ARC
  5
1BB
330
17F
100
AcDbEntity
  8
0
  6
Continuous
 62
     0
370
    30
100
AcDbCircle
 10
726.729721
 20
614.270213
 30
0.0
 40
0.500036850237073
100
AcDbArc
 50
90.010087
 51
179.995778
  0
LINE
  5
1BC
330
17F
100
AcDbEntity
  8
0
  6
Continuous
 62
     0
370
    30
100
AcDbLine
 10
939.22963
 20
682.920247
 30
0.0
 11
928.22963
 21
682.920247
 31
0.0
  0
LINE
  5
1BD
330
17F
100
AcDbEntity
  8
0
  6
Continuous
 62
     0
370
     0
100
AcDbLine
 10
939.22963
 20
663.120247
 30
0.0
 11
918.892405
 21
663.120247
 31
0.0
  0
LINE
  5
1BE
330
17F
100
AcDbEntity
  8
0
  6
Continuous
 62
     0
370
     0
100
AcDbLine
 10
918.892405
 20
663.120247
 30
0.0
 11
917.22963
 21
663.120247
 31
0.0
  0
LINE
  5
1BF
330
17F
100
AcDbEntity
  8
0
  6
Continuous
 62
     0
370
    30
100
AcDbLine
 10
939.02963
 20
662.920247
 30
0.0
 11
919.062173
 21
662.920247
 31
0.0
  0
LINE
  5
1C0
330
17F
100
AcDbEntity
  8
0
  6
Continuous
 62
     0
370
    30
100
AcDbLine
 10
919.062173
 20
662.920247
 30
0.0
 11
917.42963
 21
662.920247
 31
0.0
  0
ARC
  5
1C1
330
17F
100
AcDbEntity
  8
0
  6
Continuous
 62
     0
370
    30
100
AcDbCircle
 10
917.429931
 20
663.120548
 30
0.0
 40
0.2003008867700002
100
AcDbArc
 50
180.086004
 51
269.913996
  0
ARC
  5
1C2
330
17F
100
AcDbEntity
  8
0
  6
Continuous
 62
     0
370
    30
100
AcDbCircle
 10
939.029329
 20
663.120548
 30
0.0
 40
0.2003008867399988
100
AcDbArc
 50
270.086004
 51
359.913996
  0
LINE
  5
1C3
330
17F
100
AcDbEntity
  8
0
  6
Continuous
 62
     0
370
    30
100
AcDbLine
 10
917.22963
 20
682.920247
 30
0.0
 11
917.22963
 21
663.120247
 31
0.0
  0
LINE
  5
1C4
330
17F
100
AcDbEntity
  8
0
  6
Continuous
 62
     0
370
    30
100
AcDbLine
 10
939.22963
 20
682.920247
 30
0.0
 11
939.22963
 21
663.120247
 31
0.0
  0
ENDBLK
  5
1C6
330
17F
100
AcDbEntity
  8
0
100
AcDbBlockEnd
  0
BLOCK
  5
280
330
1C8
100
AcDbEntity
  8
0
100
AcDbBlockBegin
  2
d
 70
     0
 10
987.544067
 20
162.566589
 30
0.0
  3
d
  1

  0
SPLINE
  5
1C9
330
1C8
100
AcDbEntity
  8
0
  6
Continuous
 62
     0
370
     0
100
AcDbSpline
210
0.0
220
0.0
230
1.0
 70
     8
 71
     3
 72
    16
 73
    12
 74
     0
 42
0.0
 43
0.0
 40
0.0
 40
0.0
 40
0.0
 40
0.0
 40
0.047619050732881
 40
0.142857152198643
 40
0.285714498032293
 40
0.428571514873237
 40
0.571428485126763
 40
0.714285501967706
 40
0.857142847801357
 40
0.9523809492671189
 40
1.0
 40
1.0
 40
1.0
 40
1.0
 10
753.4803180787914
 20
203.4197858677229
 30
0.0
 10
753.4803181218572
 20
202.8509614370314
 30
0.0
 10
753.5356586076284
 20
201.1764389203084
 30
0.0
 10
753.9783506341812
 20
198.0332906982477
 30
0.0
 10
755.2907981749483
 20
194.4629381476396
 30
0.0
 10
757.6694926828467
 20
191.4639536174584
 30
0.0
 10
760.8306671962973
 20
189.6388492993853
 30
0.0
 10
764.617211654844
 20
189.0783326973974
 30
0.0
 10
768.3654516639963
 20
189.7268969504986
 30
0.0
 10
771.3088439628399
 20
190.9150891594243
 30
0.0
 10
772.7866932540927
 20
191.7044244552059
 30
0.0
 10
773.2793096828976
 20
191.9888367327119
 30
0.0
  0
SPLINE
  5
1CA
330
1C8
100
AcDbEntity
  8
0
  6
Continuous
 62
     0
370
     0
100
AcDbSpline
210
0.0
220
0.0
230
1.0
 70
     8
 71
     3
 72
    15
 73
    11
 74
     0
 42
0.0
 43
0.0
 40
0.0884212738460595
 40
0.0884212738460595
 40
0.0884212738460595
 40
0.0884212738460595
 40
0.142857143981364
 40
0.28571428663672
 40
0.428571428663563
 40
0.5714285713364371
 40
0.71428571336328
 40
0.8571428560186358
 40
0.952380952006212
 40
1.0
 40
1.0
 40
1.0
 40
1.0
 10
759.5704156488669
 20
218.0980234822799
 30
0.0
 10
760.0199784758452
 20
217.7659518124136
 30
0.0
 10
761.6406666901369
 20
216.4870414004027
 30
0.0
 10
764.3300864913394
 20
213.8471054543666
 30
0.0
 10
767.3728187455455
 20
209.883096423771
 30
0.0
 10
769.9130453287028
 20
205.4832954318628
 30
0.0
 10
771.824612156045
 20
200.8662077375695
 30
0.0
 10
772.8790954931972
 20
196.7794146611597
 30
0.0
 10
773.2349879362264
 20
193.8427979831457
 30
0.0
 10
773.279309648291
 20
192.4459297722076
 30
0.0
 10
773.2793096828976
 20
191.9888367327119
 30
0.0
  0
SPLINE
  5
1CB
330
1C8
100
AcDbEntity
  8
0
  6
Continuous
 62
     0
370
     0
100
AcDbSpline
210
0.0
220
0.0
230
1.0
 70
     8
 71
     3
 72
    12
 73
     8
 74
     0
 42
0.0
 43
0.0
 40
0.0
 40
0.0
 40
0.0
 40
0.0
 40
0.047619048741464
 40
0.142857146224391
 40
0.28571429152306
 40
0.428571433695539
 40
0.5085889540316344
 40
0.5085889540316344
 40
0.5085889540316344
 40
0.5085889540316344
 10
753.4803180787915
 20
203.419785867723
 30
0.0
 10
753.8761722864066
 20
203.6483324256391
 30
0.0
 10
755.0194132993663
 20
204.3595611952172
 30
0.0
 10
757.028759721508
 20
205.9306070139242
 30
0.0
 10
758.986301866136
 20
208.278406906879
 30
0.0
 10
759.9516093320121
 20
210.7193694200846
 30
0.0
 10
760.0809887484893
 20
212.2364231741938
 30
0.0
 10
760.0682910106204
 20
212.780625065155
 30
0.0
  0
SPLINE
  5
1CC
330
1C8
100
AcDbEntity
  8
0
  6
Continuous
 62
     0
370
     0
100
AcDbSpline
210
0.0
220
0.0
230
1.0
 70
     8
 71
     3
 72
    16
 73
    12
 74
     0
 42
0.0
 43
0.0
 40
0.0
 40
0.0
 40
0.0
 40
0.0
 40
0.047619050732881
 40
0.142857152198643
 40
0.285714498032294
 40
0.4285715148732381
 40
0.571428485126764
 40
0.7142855019677079
 40
0.857142847801357
 40
0.9523809492671189
 40
1.0
 40
1.0
 40
1.0
 40
1.0
 10
773.2793096828977
 20
191.9888381603199
 30
0.0
 10
772.7866932540927
 20
191.7044259822704
 30
0.0
 10
771.3088439628399
 20
190.7872879057989
 30
0.0
 10
768.3654516639963
 20
188.5767434425887
 30
0.0
 10
764.6172116548439
 20
184.897212939147
 30
0.0
 10
760.8306671962973
 20
179.9643714122782
 30
0.0
 10
757.6694926828467
 20
174.4890571816129
 30
0.0
 10
755.2907981749485
 20
168.7433928225219
 30
0.0
 10
753.978350634181
 20
163.6575563899953
 30
0.0
 10
753.5356586076289
 20
160.0032314465382
 30
0.0
 10
753.4803181218576
 20
158.264807241101
 30
0.0
 10
753.4803180787917
 20
157.6959827606813
 30
0.0
  0
SPLINE
  5
1CD
330
1C8
100
AcDbEntity
  8
0
  6
Continuous
 62
     0
370
     0
100
AcDbSpline
210
0.0
220
0.0
230
1.0
 70
     8
 71
     3
 72
    12
 73
     8
 74
     0
 42
0.0
 43
0.0
 40
0.4999999993810943
 40
0.4999999993810943
 40
0.4999999993810943
 40
0.4999999993810943
 40
0.5714285713364371
 40
0.71428571336328
 40
0.8571428560186358
 40
0.952380952006212
 40
1.0
 40
1.0
 40
1.0
 40
1.0
 10
760.0703354432503
 20
166.8815681761373
 30
0.0
 10
760.070335444067
 20
166.395736217344
 30
0.0
 10
759.9289397540522
 20
164.9382403608354
 30
0.0
 10
758.9863018145827
 20
162.5546025648081
 30
0.0
 10
757.0287596694905
 20
160.2068032113781
 30
0.0
 10
755.0194132761458
 20
158.6357578122425
 30
0.0
 10
753.8761722801912
 20
157.9245292504588
 30
0.0
 10
753.4803180787915
 20
157.6959827606811
 30
0.0
  0
SPLINE
  5
1CE
330
1C8
100
AcDbEntity
  8
0
  6
Continuous
 62
     0
370
     0
100
AcDbSpline
210
0.0
220
0.0
230
1.0
 70
     8
 71
     3
 72
    12
 73
     8
 74
     0
 42
0.0
 43
0.0
 40
0.0000000495751245
 40
0.0000000495751245
 40
0.0000000495751245
 40
0.0000000495751245
 40
0.047619047993788
 40
0.142857143981364
 40
0.28571428663672
 40
0.428571428663563
 40
0.5000000247875622
 40
0.5000000247875622
 40
0.5000000247875622
 40
0.5000000247875622
 10
773.2793096828975
 20
191.9888367327118
 30
0.0
 10
773.2793096175294
 20
191.5317441468852
 30
0.0
 10
773.2349878744744
 20
190.1860544967104
 30
0.0
 10
772.8790954931972
 20
187.6603869749754
 30
0.0
 10
771.824612156045
 20
184.7912057675766
 30
0.0
 10
770.2316396898591
 20
182.7830380755515
 30
0.0
 10
769.0401087031848
 20
181.9318376970921
 30
0.0
 10
768.6193656526154
 20
181.6889216213587
 30
0.0
  0
LINE
  5
1CF
330
1C8
100
AcDbEntity
  8
0
  6
Continuous
 62
     0
370
     0
100
AcDbLine
 10
753.480318
 20
128.818505
 30
0.0
 11
753.480318
 21
157.695983
 31
0.0
  0
SPLINE
  5
1D0
330
1C8
100
AcDbEntity
  8
0
  6
Continuous
 62
     0
370
     0
100
AcDbSpline
210
0.0
220
0.0
230
1.0
 70
     8
 71
     3
 72
    13
 73
     9
 74
     0
 42
0.0
 43
0.0
 40
0.0
 40
0.0
 40
0.0
 40
0.0
 40
2.297407004499248
 40
5.672395173834614
 40
7.570826023835553
 40
10.73487736145179
 40
15.79735940500662
 40
17.67140400169188
 40
17.67140400169188
 40
17.67140400169188
 40
17.67140400169188
 10
753.4803180787056
 20
128.8185048573773
 30
0.0
 10
754.0215905697683
 20
129.1310086791546
 30
0.0
 10
755.2907096451615
 20
129.9425921383762
 30
0.0
 10
756.7367221568213
 20
131.1415086574995
 30
0.0
 10
758.0642798943773
 20
132.574703521533
 30
0.0
 10
759.3150408331314
 20
134.3897034429103
 30
0.0
 10
759.9743286473263
 20
136.3085054175728
 30
0.0
 10
760.0703317227084
 20
137.6434426435603
 30
0.0
 10
760.0702947989271
 20
138.0041056115494
 30
0.0
  0
SPLINE
  5
1D1
330
1C8
100
AcDbEntity
  8
0
  6
Continuous
 62
     0
370
     0
100
AcDbSpline
210
0.0
220
0.0
230
1.0
 70
     8
 71
     3
 72
    12
 73
     8
 74
     0
 42
0.0
 43
0.0
 40
0.0
 40
0.0
 40
0.0
 40
0.0
 40
1.718754101383531
 40
4.583500439394577
 40
9.48624150281726
 40
14.5486632533614
 40
17.672645379926
 40
17.672645379926
 40
17.672645379926
 40
17.672645379926
 10
775.1116314007497
 20
193.0467295973731
 30
0.0
 10
775.1127044822863
 20
192.5796775062576
 30
0.0
 10
775.0740833263732
 20
191.3573917489721
 30
0.0
 10
774.7638371200039
 20
188.9776125223949
 30
0.0
 10
773.8269788342839
 20
186.1745962169688
 30
0.0
 10
772.2376152154259
 20
183.9963533968313
 30
0.0
 10
770.9589590749572
 20
183.0397397415321
 30
0.0
 10
770.4344969263809
 20
182.736939987819
 30
0.0
  0
LINE
  5
1D2
330
1C8
100
AcDbEntity
  8
0
  6
Continuous
 62
     0
370
     0
100
AcDbLine
 10
775.111631
 20
193.04673
 30
0.0
 11
773.27931
 21
191.988838
 31
0.0
  0
SPLINE
  5
1D3
330
1C8
100
AcDbEntity
  8
0
  6
Continuous
 62
     0
370
     0
100
AcDbSpline
210
0.0
220
0.0
230
1.0
 70
     8
 71
     3
 72
    17
 73
    13
 74
     0
 42
0.0
 43
0.0
 40
0.7970294811677403
 40
0.7970294811677403
 40
0.7970294811677403
 40
0.7970294811677403
 40
1.706339016653732
 40
4.550383530542367
 40
9.442487500490753
 40
14.50535991567011
 40
19.56799959870319
 40
24.63039839870083
 40
27.79445294476594
 40
29.69293249906594
 40
33.06807680507281
 40
35.34401262602155
 40
35.34401262602155
 40
35.34401262602155
 40
35.34401262602155
 10
759.5704156771639
 20
220.1542745119034
 30
0.0
 10
759.7867752842224
 20
220.0231018062473
 30
0.0
 10
760.6793513365417
 20
219.4613895946042
 30
0.0
 10
762.7218265669107
 20
217.9792887714744
 30
0.0
 10
765.64239533346
 20
215.2576143339757
 30
0.0
 10
768.7469548803278
 20
211.4188691577373
 30
0.0
 10
771.3977809155624
 20
207.0689328563715
 30
0.0
 10
773.1722940905048
 20
203.0455287326136
 30
0.0
 10
774.1317467585966
 20
199.9709266248427
 30
0.0
 10
774.7180919134694
 20
197.4444922470783
 30
0.0
 10
775.0388254233424
 20
195.2401916713073
 30
0.0
 10
775.1102112639032
 20
193.6650788862765
 30
0.0
 10
775.1116314007497
 20
193.0467295973821
 30
0.0
  0
SPLINE
  5
1D4
330
1C8
100
AcDbEntity
  8
0
  6
Continuous
 62
     0
370
    30
100
AcDbSpline
210
0.0
220
0.0
230
1.0
 70
     8
 71
     3
 72
    13
 73
     9
 74
     0
 42
0.0
 43
0.0
 40
16.2772408113582
 40
16.2772408113582
 40
16.2772408113582
 40
16.2772408113582
 40
19.54542891079017
 40
24.60790930299991
 40
27.77195984095973
 40
29.67039033576874
 40
33.04537789116455
 40
35.3427847996936
 40
35.3427847996936
 40
35.3427847996936
 40
35.3427847996936
 10
760.0271148240488
 20
213.7592312869265
 30
0.0
 10
760.0945095537256
 20
213.1314679855607
 30
0.0
 10
760.0653260862898
 20
211.5240761186586
 30
0.0
 10
759.3150395770544
 20
209.3404304296918
 30
0.0
 10
758.0642791170361
 20
207.5254321900953
 30
0.0
 10
756.736721734217
 20
206.0922388516475
 30
0.0
 10
755.2907094564804
 20
204.8933234872146
 30
0.0
 10
754.0215905458425
 20
204.0817402991179
 30
0.0
 10
753.4803180777727
 20
203.7692364915693
 30
0.0
  0
LINE
  5
1D5
330
1C8
100
AcDbEntity
  8
0
  6
Continuous
 62
     0
370
     0
100
AcDbLine
 10
753.480318
 20
203.419786
 30
0.0
 11
753.480318
 21
203.769236
 31
0.0
  0
ELLIPSE
  5
1D6
330
1C8
100
AcDbEntity
  8
0
  6
Continuous
 62
     0
370
    30
100
AcDbEllipse
 10
764.448765
 20
205.24957
 30
0.0
 11
11.05
 21
-19.1391614236361
 31
0.0
210
0.0
220
0.0
230
0.9999999999999999
 40
0.57735
 41
2.356194490192344
 42
2.673674186437009
  0
ELLIPSE
  5
1D7
330
1C8
100
AcDbEntity
  8
0
  6
Continuous
 62
     0
370
    30
100
AcDbEllipse
 10
764.448765
 20
205.24957
 30
0.0
 11
11.05
 21
-19.1391614236361
 31
0.0
210
0.0
220
0.0
230
0.9999999999999999
 40
0.57735
 41
0.0370664141853432
 42
2.356194490192344
  0
ELLIPSE
  5
1D8
330
1C8
100
AcDbEntity
  8
0
  6
Continuous
 62
     0
370
    30
100
AcDbEllipse
 10
737.570415
 20
216.687863
 30
0.0
 11
21.79999998807907
 21
0.0
 31
0.0
210
0.0
220
0.0
230
-1.0
 40
0.57735
 41
2.356194490192344
 42
2.659279498308472
  0
ELLIPSE
  5
1D9
330
1C8
100
AcDbEntity
  8
0
  6
Continuous
 62
     0
370
    30
100
AcDbEllipse
 10
737.570415
 20
216.687863
 30
0.0
 11
21.79999998807907
 21
0.0
 31
0.0
210
0.0
220
0.0
230
-1.0
 40
0.57735
 41
0.4823131724915363
 42
2.356194490192344
  0
ELLIPSE
  5
1DA
330
1C8
100
AcDbEntity
  8
0
  6
Continuous
 62
     0
370
    30
100
AcDbEllipse
 10
737.570415
 20
212.954823
 30
0.0
 11
-22.50000000745057
 21
0.0
 31
0.0
210
0.0
220
0.0
230
1.0
 40
0.57735
 41
6.22128193961797
 42
8.639379797371928
  0
ELLIPSE
  5
1DB
330
1C8
100
AcDbEntity
  8
0
  6
Continuous
 62
     0
370
    30
100
AcDbEllipse
 10
737.570415
 20
216.443846
 30
0.0
 11
22.12614672386328
 21
0.0
 31
0.0
210
0.0
220
0.0
230
-1.0
 40
0.57735
 41
6.176352015962983
 42
8.639379797371928
  0
ELLIPSE
  5
1DC
330
1C8
100
AcDbEntity
  8
0
  6
Continuous
 62
     0
370
    30
100
AcDbEllipse
 10
737.570415
 20
216.443846
 30
0.0
 11
22.12614672386328
 21
0.0
 31
0.0
210
0.0
220
0.0
230
-1.0
 40
0.57735
 41
2.356194490192344
 42
3.248425962073322
  0
ELLIPSE
  5
1DD
330
1C8
100
AcDbEntity
  8
0
  6
Continuous
 62
     0
370
    30
100
AcDbEllipse
 10
737.570415
 20
131.772218
 30
0.0
 11
-22.1
 21
0.0
 31
0.0
210
0.0
220
0.0
230
1.0
 40
0.57735
 41
0.0370663765978954
 42
0.7853981633974473
  0
ELLIPSE
  5
1DE
330
1C8
100
AcDbEntity
  8
0
  6
Continuous
 62
     0
370
    30
100
AcDbEllipse
 10
737.570415
 20
131.772218
 30
0.0
 11
-22.1
 21
0.0
 31
0.0
210
0.0
220
0.0
230
1.0
 40
0.57735
 41
0.785398163397448
 42
3.104526259712522
  0
ELLIPSE
  5
1DF
330
1C8
100
AcDbEntity
  8
0
  6
Continuous
 62
     0
370
     0
100
AcDbEllipse
 10
737.570415
 20
138.004091
 30
0.0
 11
22.50000000745057
 21
0.0
 31
0.0
210
0.0
220
0.0
230
-1.0
 40
0.57735
 41
2.356194490192344
 42
3.141592662229477
  0
ELLIPSE
  5
1E0
330
1C8
100
AcDbEntity
  8
0
  6
Continuous
 62
     0
370
     0
100
AcDbEllipse
 10
737.570415
 20
138.004091
 30
0.0
 11
22.50000000745057
 21
0.0
 31
0.0
210
0.0
220
0.0
230
-1.0
 40
0.57735
 41
0.785398163397448
 42
2.356194490192344
  0
LINE
  5
1E1
330
1C8
100
AcDbEntity
  8
0
  6
Continuous
 62
     0
370
     0
100
AcDbLine
 10
753.480318
 20
203.419786
 30
0.0
 11
753.480318
 21
157.695983
 31
0.0
  0
LINE
  5
1E2
330
1C8
100
AcDbEntity
  8
0
  6
Continuous
 62
     0
370
    30
100
AcDbLine
 10
715.070415
 20
212.954823
 30
0.0
 11
715.070415
 21
138.004092
 31
0.0
  0
LINE
  5
1E3
330
1C8
100
AcDbEntity
  8
0
  6
Continuous
 62
     0
370
    30
100
AcDbLine
 10
715.08587
 20
137.522695
 30
0.0
 11
715.485596
 21
131.29938
 31
0.0
  0
LINE
  5
1E4
330
1C8
100
AcDbEntity
  8
0
  6
Continuous
 62
     0
370
    30
100
AcDbLine
 10
760.054962
 20
137.522708
 30
0.0
 11
759.655235
 21
131.29938
 31
0.0
  0
LINE
  5
1E5
330
1C8
100
AcDbEntity
  8
0
  6
Continuous
 62
     0
370
    30
100
AcDbLine
 10
715.113512
 20
213.758458
 30
0.0
 11
715.486649
 21
217.234128
 31
0.0
  0
LINE
  5
1E6
330
1C8
100
AcDbEntity
  8
0
  6
Continuous
 62
     0
370
    30
100
AcDbLine
 10
760.027319
 20
213.758457
 30
0.0
 11
759.654182
 21
217.234127
 31
0.0
  0
LINE
  5
1E7
330
1C8
100
AcDbEntity
  8
0
  6
Continuous
 62
     0
370
    30
100
AcDbLine
 10
770.85004
 20
182.994799
 30
0.0
 11
775.900665
 21
186.359974
 31
0.0
  0
LINE
  5
1E8
330
1C8
100
AcDbEntity
  8
0
  6
Continuous
 62
     0
370
    30
100
AcDbLine
 10
768.619419
 20
181.688861
 30
0.0
 11
770.435178
 21
182.737194
 31
0.0
  0
LINE
  5
1E9
330
1C8
100
AcDbEntity
  8
0
  6
Continuous
 62
     0
370
    30
100
AcDbLine
 10
760.070415
 20
166.881568
 30
0.0
 11
760.070416
 21
138.004106
 31
0.0
  0
SPLINE
  5
1EA
330
1C8
100
AcDbEntity
  8
0
  6
Continuous
 62
     0
370
    30
100
AcDbSpline
210
0.0
220
0.0
230
1.0
 70
     8
 71
     3
 72
    15
 73
    11
 74
     0
 42
0.0
 43
0.0
 40
0.0
 40
0.0
 40
0.0
 40
0.0
 40
1.874352420655152
 40
4.774810434643257
 40
8.427591300868317
 40
11.71691949032169
 40
15.14313580184041
 40
18.53223257181813
 40
21.69272308759975
 40
23.93191246643529
 40
23.93191246643529
 40
23.93191246643529
 40
23.93191246643529
 10
768.6194064943373
 20
181.6888533656001
 30
0.0
 10
768.5099582804839
 20
181.6256634363858
 30
0.0
 10
768.0749975190811
 20
181.3557441305302
 30
0.0
 10
766.7699180944614
 20
180.3135604545001
 30
0.0
 10
764.8375014763608
 20
178.2133959972246
 30
0.0
 10
762.8963423405525
 20
175.3630039478179
 30
0.0
 10
761.3725241761568
 20
172.3346992802392
 30
0.0
 10
760.4200086755602
 20
169.5175625637923
 30
0.0
 10
760.0926602254203
 20
167.6533873846849
 30
0.0
 10
760.0704149250548
 20
167.0323989431597
 30
0.0
 10
760.0704149753318
 20
166.8815651316411
 30
0.0
  0
ELLIPSE
  5
1EB
330
1C8
100
AcDbEntity
  8
0
  6
Continuous
 62
     0
370
    30
100
AcDbEllipse
 10
776.53201
 20
284.089648
 30
0.0
 11
-6.499999999999961
 21
7.058935174164559E-7
 31
0.0
210
0.0
220
0.0
230
1.0
 40
0.57735
 41
5.62924538873774
 42
8.770838042327528
  0
ELLIPSE
  5
1EC
330
1C8
100
AcDbEntity
  8
0
  6
Continuous
 62
     0
370
    30
100
AcDbEllipse
 10
776.53201
 20
284.089648
 30
0.0
 11
-6.499999999999961
 21
7.058935174164559E-7
 31
0.0
210
0.0
220
0.0
230
1.0
 40
0.57735
 41
2.487652735147944
 42
5.629245388737737
  0
LINE
  5
1ED
330
1C8
100
AcDbEntity
  8
0
  6
Continuous
 62
     0
370
    30
100
AcDbLine
 10
783.032005
 20
235.099855
 30
0.0
 11
783.03201
 21
284.089647
 31
0.0
  0
LINE
  5
1EE
330
1C8
100
AcDbEntity
  8
0
  6
Continuous
 62
     0
370
    30
100
AcDbLine
 10
770.032005
 20
235.099857
 30
0.0
 11
770.03201
 21
284.089649
 31
0.0
  0
ELLIPSE
  5
1EF
330
1C8
100
AcDbEntity
  8
0
  6
Continuous
 62
     0
370
    30
100
AcDbEllipse
 10
776.532003
 20
235.099854
 30
0.0
 11
-6.499999999999962
 21
7.058935509729468E-7
 31
0.0
210
0.0
220
0.0
230
1.0
 40
0.57735
 41
6.283185298539899
 42
7.068583533276703
  0
ELLIPSE
  5
1F0
330
1C8
100
AcDbEntity
  8
0
  6
Continuous
 62
     0
370
    30
100
AcDbEllipse
 10
776.532003
 20
235.099854
 30
0.0
 11
-6.499999999999962
 21
7.058935509729468E-7
 31
0.0
210
0.0
220
0.0
230
1.0
 40
0.57735
 41
0.7853982260971166
 42
3.141592644950106
  0
SPLINE
  5
1F1
330
1C8
100
AcDbEntity
  8
0
  6
Continuous
 62
     0
370
     0
100
AcDbSpline
210
0.0
220
0.0
230
1.0
 70
     8
 71
     3
 72
    10
 73
     6
 74
     0
 42
0.0
 43
0.0
 40
0.0
 40
0.0
 40
0.0
 40
0.0
 40
1.91240578932151
 40
3.830350421158118
 40
5.180497437671887
 40
5.180497437671887
 40
5.180497437671887
 40
5.180497437671887
 10
771.9470743628959
 20
231.7074973634751
 30
0.0
 10
771.5061794716795
 20
231.9620482114442
 30
0.0
 10
770.7542589654373
 20
232.4329816241273
 30
0.0
 10
770.1811434740929
 20
232.936121214783
 30
0.0
 10
770.0720436967018
 20
233.2070945591524
 30
0.0
 10
770.0696962398677
 20
233.3173338077834
 30
0.0
  0
SPLINE
  5
1F2
330
1C8
100
AcDbEntity
  8
0
  6
Continuous
 62
     0
370
     0
100
AcDbSpline
210
0.0
220
0.0
230
1.0
 70
     8
 71
     3
 72
    19
 73
    15
 74
     0
 42
0.0
 43
0.0
 40
5.343266495893237
 40
5.343266495893237
 40
5.343266495893237
 40
5.343266495893237
 40
6.32391116788351
 40
7.661351199193069
 40
8.952158795729051
 40
10.23687625134339
 40
11.6201887532878
 40
12.6699143264469
 40
13.90342270692967
 40
15.64836897466497
 40
17.34311723258501
 40
18.41361149052811
 40
19.47528666719966
 40
21.03953786596914
 40
21.03953786596914
 40
21.03953786596914
 40
21.03953786596914
 10
782.9932960657138
 20
233.2700234180581
 30
0.0
 10
782.9875226172592
 20
232.9900000632906
 30
0.0
 10
782.9206500000777
 20
232.328221184728
 30
0.0
 10
782.6218711722205
 20
231.3462821385936
 30
0.0
 10
782.0653401109106
 20
230.4243769753073
 30
0.0
 10
781.286947825932
 20
229.7071361515065
 30
0.0
 10
780.3762205827677
 20
229.2938147415585
 30
0.0
 10
779.3580111815503
 20
229.129346204611
 30
0.0
 10
778.1504719067656
 20
229.1789289830293
 30
0.0
 10
776.6712384443972
 20
229.5245809802559
 30
0.0
 10
775.2327055711247
 20
230.0664913708169
 30
0.0
 10
774.0576363319851
 20
230.5962440870598
 30
0.0
 10
772.9859216542986
 20
231.1285845621982
 30
0.0
 10
772.3077040817388
 20
231.4992876460047
 30
0.0
 10
771.9470743628959
 20
231.7074973634751
 30
0.0
  0
ELLIPSE
  5
1F3
330
1C8
100
AcDbEntity
  8
0
  6
Continuous
 62
     0
370
     0
100
AcDbEllipse
 10
784.651927
 20
238.971398
 30
0.0
 11
2.500000470247435
 21
4.330126747424679
 31
0.0
210
0.0
220
0.0
230
1.0
 40
0.57735
 41
3.446483624628149
 42
3.926990879686896
  0
SPLINE
  5
1F4
330
1C8
100
AcDbEntity
  8
0
  6
Continuous
 62
     0
370
     0
100
AcDbSpline
210
0.0
220
0.0
230
1.0
 70
     8
 71
     3
 72
     8
 73
     4
 74
     0
 42
0.0
 43
0.0
 40
0.0
 40
0.0
 40
0.0
 40
0.0
 40
1.0
 40
1.0
 40
1.0
 40
1.0
 10
783.0320048032683
 20
235.5259855429108
 30
0.0
 10
783.626297136513
 20
235.3797315040142
 30
0.0
 10
784.1716884087876
 20
235.1661811575365
 30
0.0
 10
784.6519263844757
 20
234.8889155634602
 30
0.0
  0
SPLINE
  5
1F5
330
1C8
100
AcDbEntity
  8
0
  6
Continuous
 62
     0
370
     0
100
AcDbSpline
210
0.0
220
0.0
230
1.0
 70
     8
 71
     3
 72
    15
 73
    11
 74
     0
 42
0.0
 43
0.0
 40
0.0
 40
0.0
 40
0.0
 40
0.0
 40
3.004295903646847
 40
6.017293057819065
 40
8.458208939344342
 40
9.93455495835826
 40
12.21528003184906
 40
14.06340335768629
 40
16.08163160756787
 40
16.5054101384803
 40
16.5054101384803
 40
16.5054101384803
 40
16.5054101384803
 10
768.4120784848106
 20
225.5128350069899
 30
0.0
 10
767.7758496100455
 20
225.8801620112269
 30
0.0
 10
766.732235908938
 20
226.6554316098267
 30
0.0
 10
766.0381728882726
 20
227.7761164549387
 30
0.0
 10
766.0590477776597
 20
228.7034359603234
 30
0.0
 10
766.4480733123817
 20
229.548623356275
 30
0.0
 10
767.1157859496374
 20
230.3343061148049
 30
0.0
 10
768.210682282831
 20
231.230394497986
 30
0.0
 10
769.1921165056135
 20
231.8744600847314
 30
0.0
 10
769.8153142209849
 20
232.2413701855048
 30
0.0
 10
769.9252881382902
 20
232.3049794956003
 30
0.0
  0
ELLIPSE
  5
1F6
330
1C8
100
AcDbEntity
  8
0
  6
Continuous
 62
     0
370
     0
100
AcDbEllipse
 10
768.412079
 20
229.595318
 30
0.0
 11
2.500000470247433
 21
4.33012674742468
 31
0.0
210
0.0
220
0.0
230
1.0
 40
0.57735
 41
3.926990879686895
 42
5.515240499001734
  0
SPLINE
  5
1F7
330
1C8
100
AcDbEntity
  8
0
  6
Continuous
 62
     0
370
     0
100
AcDbSpline
210
0.0
220
0.0
230
1.0
 70
     8
 71
     3
 72
    21
 73
    17
 74
     0
 42
0.0
 43
0.0
 40
0.0
 40
0.0
 40
0.0
 40
0.0
 40
3.004295903647487
 40
6.01729305781994
 40
8.458208939345289
 40
9.934554958359266
 40
12.21528003185013
 40
14.06340335768736
 40
16.08163160756893
 40
18.25474785008434
 40
19.90381535291495
 40
21.8415966518898
 40
24.58282184243938
 40
27.24518841621357
 40
30.59472225158563
 40
33.05208433184011
 40
33.05208433184011
 40
33.05208433184011
 40
33.05208433184011
 10
784.6519263844758
 20
234.8889155634602
 30
0.0
 10
785.2881552592411
 20
234.5215885592231
 30
0.0
 10
786.331768940161
 20
233.5604276074719
 30
0.0
 10
787.0258318852757
 20
231.7440582174444
 30
0.0
 10
787.0049569163345
 20
230.0841913260453
 30
0.0
 10
786.6159313102256
 20
228.5816619513291
 30
0.0
 10
785.9482186143491
 20
227.2561904774832
 30
0.0
 10
784.8533222352944
 20
225.9378052657142
 30
0.0
 10
783.4716996860694
 20
224.8374691153966
 30
0.0
 10
781.8706404215613
 20
224.0437729372064
 30
0.0
 10
780.1274368178273
 20
223.5318968973549
 30
0.0
 10
778.1028895756251
 20
223.2427093428554
 30
0.0
 10
775.6829998780153
 20
223.2827826694881
 30
0.0
 10
772.8549268519043
 20
223.7457238340415
 30
0.0
 10
770.3430169702553
 20
224.5342610450436
 30
0.0
 10
768.9324815214466
 20
225.2123800983474
 30
0.0
 10
768.4120784848106
 20
225.5128350069899
 30
0.0
  0
LINE
  5
1F8
330
1C8
100
AcDbEntity
  8
0
  6
Continuous
 62
     0
370
    30
100
AcDbLine
 10
780.770138
 20
197.159298
 30
0.0
 11
780.13355
 21
197.526832
 31
0.0
  0
SPLINE
  5
1F9
330
1C8
100
AcDbEntity
  8
0
  6
Continuous
 62
     0
370
    30
100
AcDbSpline
210
0.0
220
0.0
230
1.0
 70
     8
 71
     3
 72
     9
 73
     5
 74
     0
 42
0.0
 43
0.0
 40
0.0
 40
0.0
 40
0.0
 40
0.0
 40
1.884994507081518
 40
4.471886377056387
 40
4.471886377056387
 40
4.471886377056387
 40
4.471886377056387
 10
780.1335497639298
 20
197.5268324869082
 30
0.0
 10
780.2407630103747
 20
197.1598892588868
 30
0.0
 10
780.4532938663473
 20
196.3160541776822
 30
0.0
 10
780.5643151623879
 20
195.5424354016559
 30
0.0
 10
780.5938272645067
 20
195.1216107571309
 30
0.0
  0
SPLINE
  5
1FA
330
1C8
100
AcDbEntity
  8
0
  6
Continuous
 62
     0
370
    30
100
AcDbSpline
210
0.0
220
0.0
230
1.0
 70
     8
 71
     3
 72
    11
 73
     7
 74
     0
 42
0.0
 43
0.0
 40
4.404563857902346
 40
4.404563857902346
 40
4.404563857902346
 40
4.404563857902346
 40
4.744068051412471
 40
9.96978525295273
 40
15.62697081957014
 40
18.76090241147
 40
18.76090241147
 40
18.76090241147
 40
18.76090241147
 10
780.5938360539744
 20
195.1216041787435
 30
0.0
 10
780.6069381968823
 20
195.0596490904927
 30
0.0
 10
780.8116738423304
 20
194.0510084005421
 30
0.0
 10
780.8915019941321
 20
192.2502636418668
 30
0.0
 10
780.1497609335436
 20
190.7090688879414
 30
0.0
 10
779.2633609620945
 20
190.166723694039
 30
0.0
 10
778.8961839739892
 20
190.030646109395
 30
0.0
  0
SPLINE
  5
1FB
330
1C8
100
AcDbEntity
  8
0
  6
Continuous
 62
     0
370
    30
100
AcDbSpline
210
0.0
220
0.0
230
1.0
 70
    12
 71
     2
 72
     8
 73
     5
 74
     0
 42
0.0
 43
0.0
 40
0.0
 40
0.0
 40
0.0
 40
0.3333333333333333
 40
0.3333333333333333
 40
0.3343840844031123
 40
0.3343840844031123
 40
0.3343840844031123
 10
780.7701379962342
 20
197.1592980074471
 30
0.0
 41
1.0
 10
784.3191056005726
 20
188.3932922932322
 30
0.0
 41
0.861987242667228
 10
778.1211106553238
 20
188.5656687121761
 30
0.0
 41
1.0
 10
778.1042621207653
 20
188.5661372975941
 30
0.0
 41
0.9995649488427683
 10
778.0873484164063
 20
188.5666938946501
 30
0.0
 41
0.9991326404683498
  0
ELLIPSE
  5
1FC
330
1C8
100
AcDbEntity
  8
0
  6
Continuous
 62
     0
370
    30
100
AcDbEllipse
 10
765.218292
 20
205.705979
 30
0.0
 11
-10.55000000745059
 21
18.27313603275645
 31
0.0
210
0.0
220
0.0
230
-0.9999999999999999
 40
0.57735
 41
0.785398288796773
 42
2.331105972374175
  0
ELLIPSE
  5
1FD
330
1C8
100
AcDbEntity
  8
0
  6
Continuous
 62
     0
370
    30
100
AcDbEllipse
 10
765.218292
 20
205.705979
 30
0.0
 11
-10.55000000745059
 21
18.27313603275645
 31
0.0
210
0.0
220
0.0
230
-0.9999999999999999
 40
0.57735
 41
0.6669544039956052
 42
0.7853982887967718
  0
ELLIPSE
  5
1FE
330
1C8
100
AcDbEntity
  8
0
  6
Continuous
 62
     0
370
    30
100
AcDbEllipse
 10
765.218292
 20
205.705979
 30
0.0
 11
-11.0
 21
19.05255888325765
 31
0.0
210
0.0
220
0.0
230
-0.9999999999999997
 40
0.57735
 41
0.4138490988239506
 42
0.7853982887967729
  0
ELLIPSE
  5
1FF
330
1C8
100
AcDbEntity
  8
0
  6
Continuous
 62
     0
370
    30
100
AcDbEllipse
 10
765.218292
 20
205.705979
 30
0.0
 11
-11.0
 21
19.05255888325765
 31
0.0
210
0.0
220
0.0
230
-0.9999999999999997
 40
0.57735
 41
0.7853982887967731
 42
2.332132528298362
  0
ELLIPSE
  5
200
330
1C8
100
AcDbEntity
  8
0
  6
Continuous
 62
     0
370
     0
100
AcDbEllipse
 10
786.785049
 20
218.157552
 30
0.0
 11
-11.0
 21
19.05255888325765
 31
0.0
210
0.0
220
0.0
230
-0.9999999999999997
 40
0.57735
 41
0.5417395394097217
 42
0.7853982887967721
  0
ELLIPSE
  5
201
330
1C8
100
AcDbEntity
  8
0
  6
Continuous
 62
     0
370
     0
100
AcDbEllipse
 10
786.785049
 20
218.157552
 30
0.0
 11
-11.0
 21
19.05255888325765
 31
0.0
210
0.0
220
0.0
230
-0.9999999999999997
 40
0.57735
 41
0.7853982887967729
 42
3.141592622099949
  0
SPLINE
  5
202
330
1C8
100
AcDbEntity
  8
0
  6
Continuous
 62
     0
370
    30
100
AcDbSpline
210
0.0
220
0.0
230
1.0
 70
     8
 71
     3
 72
    15
 73
    11
 74
     0
 42
0.0
 43
0.0
 40
0.0
 40
0.0
 40
0.0
 40
0.0
 40
3.604916580329949
 40
9.40474614464741
 40
17.66188983582949
 40
25.08417716696645
 40
33.34526373195439
 40
41.63782691759258
 40
47.73147479100489
 40
51.48905609367757
 40
51.48905609367757
 40
51.48905609367757
 40
51.48905609367757
 10
787.0350507700632
 20
236.1452399036365
 30
0.0
 10
787.8906531584627
 20
235.6512575101232
 30
0.0
 10
790.1217662058523
 20
234.1498993838158
 30
0.0
 10
794.1446613846465
 20
230.4010155763914
 30
0.0
 10
798.3382623052153
 20
224.5202361421924
 30
0.0
 10
801.5270717262844
 20
217.1869247766759
 30
0.0
 10
802.8498350013838
 20
209.9407726115126
 30
0.0
 10
802.0457428721568
 20
204.1263452669527
 30
0.0
 10
800.0093920221254
 20
200.7292026845837
 30
0.0
 10
798.4380343081626
 20
199.4819943500596
 30
0.0
 10
797.7850492621678
 20
199.1049932199814
 30
0.0
  0
ARC
  5
203
330
1C8
100
AcDbEntity
  8
0
  6
Continuous
 62
     0
370
    30
100
AcDbCircle
 10
778.41387
 20
221.497446
 30
0.0
 40
16.99654746705365
100
AcDbArc
 50
59.52042
 51
74.233942
  0
LINE
  5
204
330
1C8
100
AcDbEntity
  8
0
  6
Continuous
 62
     0
370
    30
100
AcDbLine
 10
780.358192
 20
189.043592
 30
0.0
 11
797.785049
 21
199.104993
 31
0.0
  0
LINE
  5
205
330
1C8
100
AcDbEntity
  8
0
  6
Continuous
 62
     0
370
    30
100
AcDbLine
 10
759.570416
 20
227.848588
 30
0.0
 11
770.057095
 21
233.903075
 31
0.0
  0
SPLINE
  5
206
330
1C8
100
AcDbEntity
  8
0
  6
Continuous
 62
     0
370
    30
100
AcDbSpline
210
0.0
220
0.0
230
1.0
 70
     8
 71
     3
 72
    11
 73
     7
 74
     0
 42
0.0
 43
0.0
 40
17.65491075341988
 40
17.65491075341988
 40
17.65491075341988
 40
17.65491075341988
 40
17.74230589009743
 40
18.99714629575569
 40
20.14710018845693
 40
22.13160281073323
 40
22.13160281073323
 40
22.13160281073323
 40
22.13160281073323
 10
769.5559779677521
 20
231.5793222414565
 30
0.0
 10
769.5559590265667
 20
231.5793393403495
 30
0.0
 10
769.5592096927277
 20
231.5835251771039
 30
0.0
 10
769.6657680716544
 20
231.706530084528
 30
0.0
 10
769.9604464941392
 20
232.2829894371491
 30
0.0
 10
770.0780231177237
 20
232.9267581495831
 30
0.0
 10
770.069696795362
 20
233.3172987307577
 30
0.0
  0
LINE
  5
207
330
1C8
100
AcDbEntity
  8
0
  6
Continuous
 62
     0
370
    30
100
AcDbLine
 10
770.032498
 20
235.053536
 30
0.0
 11
770.069617
 21
233.317332
 31
0.0
  0
LINE
  5
208
330
1C8
100
AcDbEntity
  8
0
  6
Continuous
 62
     0
370
    30
100
AcDbLine
 10
783.031508
 20
235.053535
 30
0.0
 11
782.993294
 21
233.266149
 31
0.0
  0
ELLIPSE
  5
209
330
1C8
100
AcDbEntity
  8
0
  6
Continuous
 62
     0
370
     0
100
AcDbEllipse
 10
737.570415
 20
127.689743
 30
0.0
 11
-27.0
 21
0.0
 31
0.0
210
0.0
220
0.0
230
1.0
 40
0.57735
 41
5.691586848344715
 42
8.448687043498577
  0
ELLIPSE
  5
20A
330
1C8
100
AcDbEntity
  8
0
  6
Continuous
 62
     0
370
     0
100
AcDbEllipse
 10
737.570415
 20
127.689743
 30
0.0
 11
-27.0
 21
0.0
 31
0.0
210
0.0
220
0.0
230
1.0
 40
0.57735
 41
2.165501736318991
 42
3.73319109514529
  0
ELLIPSE
  5
20B
330
1C8
100
AcDbEntity
  8
0
  6
Continuous
 62
     0
370
     0
100
AcDbEllipse
 10
737.570415
 20
123.199012
 30
0.0
 11
-30.0
 21
0.0
 31
0.0
210
0.0
220
0.0
230
1.0
 40
0.57735
 41
6.283185298539899
 42
8.448687043498577
  0
ELLIPSE
  5
20C
330
1C8
100
AcDbEntity
  8
0
  6
Continuous
 62
     0
370
     0
100
AcDbEllipse
 10
737.570415
 20
123.199012
 30
0.0
 11
-30.0
 21
0.0
 31
0.0
210
0.0
220
0.0
230
1.0
 40
0.57735
 41
2.165501736318991
 42
3.141592644950105
  0
ELLIPSE
  5
20D
330
1C8
100
AcDbEntity
  8
0
  6
Continuous
 62
     0
370
     0
100
AcDbEllipse
 10
737.570415
 20
127.281495
 30
0.0
 11
-30.0
 21
0.0
 31
0.0
210
0.0
220
0.0
230
1.0
 40
0.57735
 41
2.165501736318991
 42
3.144255229841147
  0
ELLIPSE
  5
20E
330
1C8
100
AcDbEntity
  8
0
  6
Continuous
 62
     0
370
     0
100
AcDbEllipse
 10
737.570415
 20
127.281495
 30
0.0
 11
-30.0
 21
0.0
 31
0.0
210
0.0
220
0.0
230
1.0
 40
0.57735
 41
6.272843835037387
 42
8.448687043498577
  0
ELLIPSE
  5
20F
330
1C8
100
AcDbEntity
  8
0
  6
Continuous
 62
     0
370
     0
100
AcDbEllipse
 10
737.570415
 20
127.689743
 30
0.0
 11
-29.5
 21
0.0
 31
0.0
210
0.0
220
0.0
230
1.0
 40
0.57735
 41
5.579884921951916
 42
8.448687043498577
  0
ELLIPSE
  5
210
330
1C8
100
AcDbEntity
  8
0
  6
Continuous
 62
     0
370
     0
100
AcDbEllipse
 10
737.570415
 20
127.689743
 30
0.0
 11
-29.5
 21
0.0
 31
0.0
210
0.0
220
0.0
230
1.0
 40
0.57735
 41
2.165501736318991
 42
3.844892984866644
  0
SPLINE
  5
211
330
1C8
100
AcDbEntity
  8
0
  6
Continuous
 62
     0
370
    30
100
AcDbSpline
210
0.0
220
0.0
230
1.0
 70
     8
 71
     3
 72
    19
 73
    15
 74
     0
 42
0.0
 43
0.0
 40
0.0
 40
0.0
 40
0.0
 40
0.0
 40
5.008419750291293
 40
13.01691180164012
 40
22.69982874197278
 40
31.51526435782112
 40
39.40623550412077
 40
47.28770900161565
 40
55.15691031453166
 40
63.03443301896423
 40
72.04304352611442
 40
81.56010593724045
 40
89.09896267775846
 40
93.84829866228708
 40
93.84829866228708
 40
93.84829866228708
 40
93.84829866228708
 10
767.5704097980336
 20
123.199717255506
 30
0.0
 10
767.5704097836308
 20
122.2058852564722
 30
0.0
 10
767.1951239583921
 20
119.6142814347519
 30
0.0
 10
764.8770443381031
 20
115.3063503190458
 30
0.0
 10
759.7954512636034
 20
110.9877846309177
 30
0.0
 10
752.7722732594237
 20
107.8105251373771
 30
0.0
 10
745.1014149690217
 20
106.0170941232147
 30
0.0
 10
737.2086441804602
 20
105.4669064157226
 30
0.0
 10
729.3455874861105
 20
106.1263441944003
 30
0.0
 10
721.6974700651066
 20
108.0367795505925
 30
0.0
 10
714.8139334400453
 20
111.3252883315522
 30
0.0
 10
710.0153940854867
 20
115.6500669776698
 30
0.0
 10
707.9071099635402
 20
119.8084619938808
 30
0.0
 10
707.5704302423717
 20
122.2547995290033
 30
0.0
 10
707.5704302786271
 20
123.1973491948376
 30
0.0
  0
SPLINE
  5
212
330
1C8
100
AcDbEntity
  8
0
  6
Continuous
 62
     0
370
    30
100
AcDbSpline
210
0.0
220
0.0
230
1.0
 70
     8
 71
     3
 72
    10
 73
     6
 74
     0
 42
0.0
 43
0.0
 40
0.0
 40
0.0
 40
0.0
 40
0.0
 40
5.008496504567288
 40
13.02191349700404
 40
21.4882374319136
 40
21.4882374319136
 40
21.4882374319136
 40
21.4882374319136
 10
767.5704097980336
 20
127.2822001601446
 30
0.0
 10
767.5704098124365
 20
128.2760454939899
 30
0.0
 10
767.1943456450634
 20
130.868705696788
 30
0.0
 10
764.9994592847662
 20
134.9466452598219
 30
0.0
 10
761.939275264444
 20
137.6609450530143
 30
0.0
 10
760.0704163651728
 20
138.8981031638097
 30
0.0
  0
SPLINE
  5
213
330
1C8
100
AcDbEntity
  8
0
  6
Continuous
 62
     0
370
    30
100
AcDbSpline
210
0.0
220
0.0
230
1.0
 70
     8
 71
     3
 72
    10
 73
     6
 74
     0
 42
0.0
 43
0.0
 40
0.0
 40
0.0
 40
0.0
 40
0.0
 40
5.007217914023217
 40
13.0131045163776
 40
21.49356692647167
 40
21.49356692647167
 40
21.49356692647167
 40
21.49356692647167
 10
707.5704302786271
 20
127.2798321096787
 30
0.0
 10
707.5704302930264
 20
128.2734402347004
 30
0.0
 10
707.9450542369484
 20
130.864123754809
 30
0.0
 10
710.1396850255326
 20
134.9437394488549
 30
0.0
 10
713.1973082937806
 20
137.659293565158
 30
0.0
 10
715.0704156590577
 20
138.8986799366664
 30
0.0
  0
LINE
  5
214
330
1C8
100
AcDbEntity
  8
0
  6
Continuous
 62
     0
370
    30
100
AcDbLine
 10
707.570415
 20
123.199012
 30
0.0
 11
707.570415
 21
127.281495
 31
0.0
  0
LINE
  5
215
330
1C8
100
AcDbEntity
  8
0
  6
Continuous
 62
     0
370
    30
100
AcDbLine
 10
767.570415
 20
123.199012
 30
0.0
 11
767.570415
 21
127.281495
 31
0.0
  0
ELLIPSE
  5
216
330
1C8
100
AcDbEntity
  8
0
  6
Continuous
 62
     0
370
     0
100
AcDbEllipse
 10
737.570415
 20
309.89095
 30
0.0
 11
11.0
 21
0.0
 31
0.0
210
0.0
220
0.0
230
-1.0
 40
0.57735
 41
2.356194490192345
 42
3.141597942616591
  0
ELLIPSE
  5
217
330
1C8
100
AcDbEntity
  8
0
  6
Continuous
 62
     0
370
     0
100
AcDbEllipse
 10
737.570415
 20
309.89095
 30
0.0
 11
11.0
 21
0.0
 31
0.0
210
0.0
220
0.0
230
-1.0
 40
0.57735
 41
6.28318475264496
 42
8.63937979737193
  0
ELLIPSE
  5
218
330
1C8
100
AcDbEntity
  8
0
  6
Continuous
 62
     0
370
     0
100
AcDbEllipse
 10
864.849636
 20
236.406258
 30
0.0
 11
-11.0
 21
0.0
 31
0.0
210
0.0
220
0.0
230
1.0
 40
0.57735
 41
0.7853981633974481
 42
3.141594136107464
  0
ELLIPSE
  5
219
330
1C8
100
AcDbEntity
  8
0
  6
Continuous
 62
     0
370
     0
100
AcDbEllipse
 10
864.849636
 20
236.406258
 30
0.0
 11
-11.0
 21
0.0
 31
0.0
210
0.0
220
0.0
230
1.0
 40
0.57735
 41
6.283185298539896
 42
7.068583470577034
  0
ELLIPSE
  5
21A
330
1C8
100
AcDbEntity
  8
0
  6
Continuous
 62
     0
370
    30
100
AcDbEllipse
 10
864.849636
 20
216.81034
 30
0.0
 11
-11.0
 21
0.0
 31
0.0
210
0.0
220
0.0
230
1.0
 40
0.57735
 41
0.7853981633974481
 42
3.141592644950105
  0
ELLIPSE
  5
21B
330
1C8
100
AcDbEntity
  8
0
  6
Continuous
 62
     0
370
    30
100
AcDbEllipse
 10
864.849636
 20
216.81034
 30
0.0
 11
-11.0
 21
0.0
 31
0.0
210
0.0
220
0.0
230
1.0
 40
0.57735
 41
6.283185298539899
 42
7.068583470577034
  0
LINE
  5
21C
330
1C8
100
AcDbEntity
  8
0
  6
Continuous
 62
     0
370
    30
100
AcDbLine
 10
875.849636
 20
216.81034
 30
0.0
 11
875.849636
 21
236.406258
 31
0.0
  0
LINE
  5
21D
330
1C8
100
AcDbEntity
  8
0
  6
Continuous
 62
     0
370
    30
100
AcDbLine
 10
853.849636
 20
216.81034
 30
0.0
 11
853.849636
 21
236.406258
 31
0.0
  0
SPLINE
  5
21E
330
1C8
100
AcDbEntity
  8
0
  6
Continuous
 62
     0
370
    30
100
AcDbSpline
210
0.0
220
0.0
230
1.0
 70
     8
 71
     3
 72
    22
 73
    18
 74
     0
 42
0.0
 43
0.0
 40
0.0
 40
0.0
 40
0.0
 40
0.0
 40
19.28754060164516
 40
48.67547227202304
 40
68.43149791504001
 40
93.07075306855809
 40
115.5101789494239
 40
135.8504612220493
 40
163.6048644880698
 40
182.2780553148712
 40
206.1320631804619
 40
226.7617355335752
 40
243.586677857147
 40
264.3943026423261
 40
279.0958313067514
 40
294.2318774785115
 40
309.602799857208
 40
309.602799857208
 40
309.602799857208
 40
309.602799857208
 10
875.8496361104046
 20
236.4062578730799
 30
0.0
 10
875.8496361135198
 20
241.848009664151
 30
0.0
 10
874.6773007627473
 20
256.1227783556512
 30
0.0
 10
869.0402181594654
 20
277.197208118402
 30
0.0
 10
859.103807272465
 20
299.569701867336
 30
0.0
 10
847.3487814765239
 20
318.6719878837837
 30
0.0
 10
833.2109193806147
 20
335.6027413074269
 30
0.0
 10
816.9113764911632
 20
350.2635068123466
 30
0.0
 10
800.5154424273758
 20
360.231125501713
 30
0.0
 10
783.0630413828225
 20
366.0173350515989
 30
0.0
 10
767.6068706151113
 20
366.9469610527776
 30
0.0
 10
753.7124038389411
 20
362.9586870864958
 30
0.0
 10
742.4538150516952
 20
355.3025750433244
 30
0.0
 10
734.7779286641627
 20
345.4848977930094
 30
0.0
 10
729.8033798052309
 20
334.0208366458864
 30
0.0
 10
727.1561144477243
 20
322.6021820708553
 30
0.0
 10
726.5704170175215
 20
314.2300400757282
 30
0.0
 10
726.57041549698
 20
309.8909838012761
 30
0.0
  0
SPLINE
  5
21F
330
1C8
100
AcDbEntity
  8
0
  6
Continuous
 62
     0
370
    30
100
AcDbSpline
210
0.0
220
0.0
230
1.0
 70
     8
 71
     3
 72
    26
 73
    22
 74
     0
 42
0.0
 43
0.0
 40
0.0
 40
0.0
 40
0.0
 40
0.0
 40
7.110774186891152
 40
18.24440616097122
 40
44.72551505729333
 40
53.82961177976775
 40
68.73828297247606
 40
83.61676655533802
 40
109.8422492653761
 40
123.8190353851865
 40
145.3863333182731
 40
155.561899369813
 40
161.464942705524
 40
176.5581932794891
 40
188.8786083048114
 40
201.3645258956172
 40
216.9994776110913
 40
223.562250924841
 40
235.5165422760942
 40
249.9558750127578
 40
258.3300895589419
 40
258.3300895589419
 40
258.3300895589419
 40
258.3300895589419
 10
853.8496361104046
 20
236.4062579828186
 30
0.0
 10
853.8496361090383
 20
238.2452956583836
 30
0.0
 10
853.6728707135901
 20
243.1061503476174
 30
0.0
 10
852.1085215969732
 20
255.7439601239561
 30
0.0
 10
848.0171980743356
 20
269.9827569298248
 30
0.0
 10
841.3677137491256
 20
285.2141861931636
 30
0.0
 10
835.1845508473913
 20
296.6593447780384
 30
0.0
 10
824.6883207103483
 20
312.0553451783114
 30
0.0
 10
812.70212724112
 20
324.9752780426583
 30
0.0
 10
798.6529851021678
 20
335.8336679948576
 30
0.0
 10
788.3777850646734
 20
341.171041074133
 30
0.0
 10
780.6757473655973
 20
343.4204080891188
 30
0.0
 10
774.7451526802238
 20
344.4230698566778
 30
0.0
 10
769.1303726707823
 20
344.3429371814326
 30
0.0
 10
763.6331075089838
 20
342.7764695646912
 30
0.0
 10
758.93331710509
 20
339.9864767148891
 30
0.0
 10
755.469948235842
 20
336.2397230159353
 30
0.0
 10
752.5617575242974
 20
331.2624453069042
 30
0.0
 10
750.2603495066296
 20
325.4093826316791
 30
0.0
 10
748.8301378761086
 20
317.7553446613442
 30
0.0
 10
748.5704154952207
 20
312.0564169223534
 30
0.0
 10
748.5704154968262
 20
309.890950156693
 30
0.0
  0
LINE
  5
220
330
1C8
100
AcDbEntity
  8
0
  6
Continuous
 62
     0
370
    30
100
AcDbLine
 10
726.570415
 20
309.89095
 30
0.0
 11
726.570415
 21
233.289113
 31
0.0
  0
LINE
  5
221
330
1C8
100
AcDbEntity
  8
0
  6
Continuous
 62
     0
370
    30
100
AcDbLine
 10
748.570415
 20
309.89095
 30
0.0
 11
748.570415
 21
233.289113
 31
0.0
  0
ELLIPSE
  5
222
330
1C8
100
AcDbEntity
  8
0
  6
Continuous
 62
     0
370
    30
100
AcDbEllipse
 10
737.570415
 20
232.282951
 30
0.0
 11
-11.25
 21
0.0
 31
0.0
210
0.0
220
0.0
230
1.0
 40
0.57735
 41
6.07197441818057
 42
6.099884151425982
  0
ELLIPSE
  5
223
330
1C8
100
AcDbEntity
  8
0
  6
Continuous
 62
     0
370
    30
100
AcDbEllipse
 10
737.570415
 20
232.282951
 30
0.0
 11
-11.25
 21
0.0
 31
0.0
210
0.0
220
0.0
230
1.0
 40
0.57735
 41
3.324893792064016
 42
3.352803525309138
  0
ELLIPSE
  5
224
330
1C8
100
AcDbEntity
  8
0
  6
Continuous
 62
     0
370
    30
100
AcDbEllipse
 10
737.570415
 20
233.834294
 30
0.0
 11
-11.25
 21
0.0
 31
0.0
210
0.0
220
0.0
230
1.0
 40
0.57735
 41
3.204488036688409
 42
3.352803525309136
  0
ELLIPSE
  5
225
330
1C8
100
AcDbEntity
  8
0
  6
Continuous
 62
     0
370
    30
100
AcDbEllipse
 10
737.570415
 20
233.834294
 30
0.0
 11
-11.25
 21
0.0
 31
0.0
210
0.0
220
0.0
230
1.0
 40
0.57735
 41
6.071974418180572
 42
6.220289906801589
  0
ELLIPSE
  5
226
330
1C8
100
AcDbEntity
  8
0
  6
Continuous
 62
     0
370
    30
100
AcDbEllipse
 10
737.570415
 20
234.650791
 30
0.0
 11
-11.25
 21
0.0
 31
0.0
210
0.0
220
0.0
230
1.0
 40
0.57735
 41
2.606811293971979
 42
3.352803525309136
  0
ELLIPSE
  5
227
330
1C8
100
AcDbEntity
  8
0
  6
Continuous
 62
     0
370
    30
100
AcDbEllipse
 10
737.570415
 20
234.650791
 30
0.0
 11
-11.25
 21
0.0
 31
0.0
210
0.0
220
0.0
230
1.0
 40
0.57735
 41
6.071974418180574
 42
8.889996601151566
  0
ELLIPSE
  5
228
330
1C8
100
AcDbEntity
  8
0
  6
Continuous
 62
     0
370
     0
100
AcDbEllipse
 10
737.570415
 20
234.650791
 30
0.0
 11
-21.5
 21
0.0
 31
0.0
210
0.0
220
0.0
230
1.0
 40
0.57735
 41
5.249467357438626
 42
5.748403947561769
  0
ELLIPSE
  5
229
330
1C8
100
AcDbEntity
  8
0
  6
Continuous
 62
     0
370
     0
100
AcDbEllipse
 10
737.570415
 20
234.650791
 30
0.0
 11
-21.5
 21
0.0
 31
0.0
210
0.0
220
0.0
230
1.0
 40
0.57735
 41
2.606811293971979
 42
4.175310586051339
  0
ELLIPSE
  5
22A
330
1C8
100
AcDbEntity
  8
0
  6
Continuous
 62
     0
370
     0
100
AcDbEllipse
 10
737.570415
 20
234.650791
 30
0.0
 11
-21.5
 21
0.0
 31
0.0
210
0.0
220
0.0
230
1.0
 40
0.57735
 41
5.748403947561773
 42
8.889996601151566
  0
ELLIPSE
  5
22B
330
1C8
100
AcDbEntity
  8
0
  6
Continuous
 62
     0
370
     0
100
AcDbEllipse
 10
737.570415
 20
234.242542
 30
0.0
 11
-22.0
 21
0.0
 31
0.0
210
0.0
220
0.0
230
1.0
 40
0.57735
 41
2.606811293971979
 42
3.153975731114197
  0
ELLIPSE
  5
22C
330
1C8
100
AcDbEntity
  8
0
  6
Continuous
 62
     0
370
     0
100
AcDbEllipse
 10
737.570415
 20
234.242542
 30
0.0
 11
-22.0
 21
0.0
 31
0.0
210
0.0
220
0.0
230
1.0
 40
0.57735
 41
6.269936603224567
 42
8.889996601151566
  0
ELLIPSE
  5
22D
330
1C8
100
AcDbEntity
  8
0
  6
Continuous
 62
     0
370
    30
100
AcDbEllipse
 10
737.570415
 20
216.932815
 30
0.0
 11
-22.0
 21
0.0
 31
0.0
210
0.0
220
0.0
230
1.0
 40
0.57735
 41
2.606811293971979
 42
3.141592644950105
  0
ELLIPSE
  5
22E
330
1C8
100
AcDbEntity
  8
0
  6
Continuous
 62
     0
370
    30
100
AcDbEllipse
 10
737.570415
 20
216.932815
 30
0.0
 11
-22.0
 21
0.0
 31
0.0
210
0.0
220
0.0
230
1.0
 40
0.57735
 41
6.283185298539899
 42
8.889996601151566
  0
ELLIPSE
  5
22F
330
1C8
100
AcDbEntity
  8
0
  6
Continuous
 62
     0
370
    30
100
AcDbEllipse
 10
737.570415
 20
216.687866
 30
0.0
 11
-21.69999998807907
 21
0.0
 31
0.0
210
0.0
220
0.0
230
1.0
 40
0.57735
 41
0.7785094401672097
 42
2.363083196143223
  0
LINE
  5
230
330
1C8
100
AcDbEntity
  8
0
  6
Continuous
 62
     0
370
    30
100
AcDbLine
 10
759.570415
 20
216.932815
 30
0.0
 11
759.570415
 21
234.242542
 31
0.0
  0
LINE
  5
231
330
1C8
100
AcDbEntity
  8
0
  6
Continuous
 62
     0
370
    30
100
AcDbLine
 10
715.570415
 20
216.932815
 30
0.0
 11
715.570415
 21
234.242542
 31
0.0
  0
SPLINE
  5
232
330
1C8
100
AcDbEntity
  8
0
  6
Continuous
 62
     0
370
    30
100
AcDbSpline
210
0.0
220
0.0
230
1.0
 70
     8
 71
     3
 72
    12
 73
     8
 74
     0
 42
0.0
 43
0.0
 40
45.88044827786625
 40
45.88044827786625
 40
45.88044827786625
 40
45.88044827786625
 40
46.21433530191725
 40
52.83197543953683
 40
59.75328016514409
 40
65.27868758071031
 40
68.72116058967798
 40
68.72116058967798
 40
68.72116058967798
 40
68.72116058967798
 10
748.5704156596048
 20
245.4360676336179
 30
0.0
 10
748.6668144134546
 20
245.4035770687704
 30
0.0
 10
750.6650155886578
 20
244.7181579249421
 30
0.0
 10
754.276042119667
 20
242.9802335826547
 30
0.0
 10
757.7840381272256
 20
239.798726588576
 30
0.0
 10
759.324637985424
 20
236.7406422685564
 30
0.0
 10
759.5703368538179
 20
234.9342839774015
 30
0.0
 10
759.5703368290682
 20
234.2435087331467
 30
0.0
  0
SPLINE
  5
233
330
1C8
100
AcDbEntity
  8
0
  6
Continuous
 62
     0
370
    30
100
AcDbSpline
210
0.0
220
0.0
230
1.0
 70
     8
 71
     3
 72
    11
 73
     7
 74
     0
 42
0.0
 43
0.0
 40
0.0
 40
0.0
 40
0.0
 40
0.0
 40
3.684081624716237
 40
9.552868407114593
 40
16.64052032707357
 40
22.84335554295348
 40
22.84335554295348
 40
22.84335554295348
 40
22.84335554295348
 10
715.5704704493996
 20
234.2418178698216
 30
0.0
 10
715.5704704599913
 20
234.9809609318478
 30
0.0
 10
715.8499233913058
 20
236.9054207367103
 30
0.0
 10
717.5671054839963
 20
240.0886090416724
 30
0.0
 10
721.255872424826
 20
243.2202565355467
 30
0.0
 10
724.7797031478694
 20
244.8323034312693
 30
0.0
 10
726.5704156596037
 20
245.4360165902837
 30
0.0
  0
ELLIPSE
  5
234
330
1C8
100
AcDbEntity
  8
0
  6
Continuous
 62
     0
370
     0
100
AcDbEllipse
 10
864.849636
 20
200.643705
 30
0.0
 11
11.00000000000004
 21
6.106226635438385E-16
 31
0.0
210
0.0
220
0.0
230
-1.0
 40
0.57735
 41
0.2283863609964667
 42
3.141592662229476
  0
ELLIPSE
  5
235
330
1C8
100
AcDbEntity
  8
0
  6
Continuous
 62
     0
370
     0
100
AcDbEllipse
 10
864.849636
 20
200.643705
 30
0.0
 11
11.00000000000004
 21
6.106226635438385E-16
 31
0.0
210
0.0
220
0.0
230
-1.0
 40
0.57735
 41
0.000000008639685
 42
0.2283863609964667
  0
SPLINE
  5
236
330
1C8
100
AcDbEntity
  8
0
  6
Continuous
 62
     0
370
    30
100
AcDbSpline
210
0.0
220
0.0
230
1.0
 70
     8
 71
     3
 72
    15
 73
    11
 74
     0
 42
0.0
 43
0.0
 40
2.434358749877681
 40
2.434358749877681
 40
2.434358749877681
 40
2.434358749877681
 40
2.990549046296433
 40
8.774334492632528
 40
13.97560352361337
 40
18.78472267887643
 40
23.00031048694553
 40
28.13090754454074
 40
32.20169619240398
 40
34.39351728639078
 40
34.39351728639078
 40
34.39351728639078
 40
34.39351728639078
 10
875.5725282661838
 20
199.2025155559215
 30
0.0
 10
875.5306202156243
 20
199.0947935655232
 30
0.0
 10
874.9995136441011
 20
197.8754092965395
 30
0.0
 10
872.9357406845622
 20
195.8785841752315
 30
0.0
 10
868.2615860928403
 20
194.2878034946749
 30
0.0
 10
863.4175307420508
 20
194.0790504725381
 30
0.0
 10
858.8786552390844
 20
195.0016234767158
 30
0.0
 10
855.5498101160792
 20
196.8476327450881
 30
0.0
 10
854.0661658544259
 20
198.9571061704481
 30
0.0
 10
853.8496367229302
 20
200.2073957897983
 30
0.0
 10
853.84963640156
 20
200.6437025489233
 30
0.0
  0
LINE
  5
237
330
1C8
100
AcDbEntity
  8
0
  6
Continuous
 62
     0
370
    30
100
AcDbLine
 10
875.849636
 20
216.810338
 30
0.0
 11
875.849636
 21
200.643705
 31
0.0
  0
LINE
  5
238
330
1C8
100
AcDbEntity
  8
0
  6
Continuous
 62
     0
370
    30
100
AcDbLine
 10
853.849636
 20
216.810338
 30
0.0
 11
853.849636
 21
200.643705
 31
0.0
  0
ARC
  5
239
330
1C8
100
AcDbEntity
  8
0
  6
Continuous
 62
     0
370
    30
100
AcDbCircle
 10
763.463284
 20
204.739228
 30
0.0
 40
20.43303566240165
100
AcDbArc
 50
322.358678
 51
327.928763
  0
LINE
  5
23A
330
1C8
100
AcDbEntity
  8
0
  6
Continuous
 62
     0
370
    30
100
AcDbLine
 10
784.361005
 20
200.930092
 30
0.0
 11
784.612539
 21
201.075328
 31
0.0
  0
ARC
  5
23B
330
1C8
100
AcDbEntity
  8
0
  6
Continuous
 62
     0
370
    30
100
AcDbCircle
 10
759.446168
 20
198.737959
 30
0.0
 40
25.27468239471616
100
AcDbArc
 50
5.306219
 51
9.049482
  0
LINE
  5
23C
330
1C8
100
AcDbEntity
  8
0
  6
Continuous
 62
     0
370
    30
100
AcDbLine
 10
784.406253
 20
202.713348
 30
0.0
 11
784.184815
 21
202.585501
 31
0.0
  0
ARC
  5
23D
330
1C8
100
AcDbEntity
  8
0
  6
Continuous
 62
     0
370
    30
100
AcDbCircle
 10
758.810328
 20
198.556124
 30
0.0
 40
25.69242041089763
100
AcDbArc
 50
6.117315
 51
9.023024
  0
ARC
  5
23E
330
1C8
100
AcDbEntity
  8
0
  6
Continuous
 62
     0
370
    30
100
AcDbCircle
 10
747.398672
 20
90.59039
 30
0.0
 40
116.7097775849379
100
AcDbArc
 50
71.538706
 51
72.320162
  0
LINE
  5
23F
330
1C8
100
AcDbEntity
  8
0
  6
Continuous
 62
     0
370
    30
100
AcDbLine
 10
782.843176
 20
201.78778
 30
0.0
 11
782.594251
 21
201.644071
 31
0.0
  0
ARC
  5
240
330
1C8
100
AcDbEntity
  8
0
  6
Continuous
 62
     0
370
    30
100
AcDbCircle
 10
757.619436
 20
197.688007
 30
0.0
 40
25.28619873109421
100
AcDbArc
 50
5.383309
 51
9.000989
  0
LINE
  5
241
330
1C8
100
AcDbEntity
  8
0
  6
Continuous
 62
     0
370
    30
100
AcDbLine
 10
782.794106
 20
200.060315
 30
0.0
 11
783.015394
 21
200.188078
 31
0.0
  0
ARC
  5
242
330
1C8
100
AcDbEntity
  8
0
  6
Continuous
 62
     0
370
    30
100
AcDbCircle
 10
739.358532
 20
64.520214
 30
0.0
 40
143.6414885660139
100
AcDbArc
 50
71.741953
 51
72.367313
  0
LINE
  5
243
330
1C8
100
AcDbEntity
  8
0
  6
Continuous
 62
     0
370
    30
100
AcDbLine
 10
782.558003
 20
201.866586
 30
0.0
 11
782.506501
 21
202.166752
 31
0.0
  0
LINE
  5
244
330
1C8
100
AcDbEntity
  8
0
  6
Continuous
 62
     0
370
    30
100
AcDbLine
 10
782.506501
 20
202.166752
 30
0.0
 11
783.630183
 21
202.815529
 31
0.0
  0
SPLINE
  5
245
330
1C8
100
AcDbEntity
  8
0
  6
Continuous
 62
     0
370
    30
100
AcDbSpline
210
0.0
220
0.0
230
1.0
 70
     8
 71
     3
 72
    10
 73
     6
 74
     0
 42
0.0
 43
0.0
 40
0.0
 40
0.0
 40
0.0
 40
0.0
 40
0.1607383031802
 40
0.3212678064986678
 40
0.4814978669279015
 40
0.4814978669279015
 40
0.4814978669279015
 40
0.4814978669279015
 10
783.6301830128464
 20
202.815528620682
 30
0.0
 10
783.6680625953927
 20
202.8373994071677
 30
0.0
 10
783.7430975271404
 20
202.884850761977
 30
0.0
 10
783.8518350900686
 20
202.9731045220895
 30
0.0
 10
783.913453465761
 20
203.0554862562364
 30
0.0
 10
783.9398476769829
 20
203.1001987798895
 30
0.0
  0
SPLINE
  5
246
330
1C8
100
AcDbEntity
  8
0
  6
Continuous
 62
     0
370
    30
100
AcDbSpline
210
0.0
220
0.0
230
1.0
 70
     8
 71
     3
 72
    14
 73
    10
 74
     0
 42
0.0
 43
0.0
 40
0.0
 40
0.0
 40
0.0
 40
0.0
 40
0.2483063195049803
 40
0.4973415118280775
 40
0.7469539897613078
 40
0.9957853863575374
 40
1.243643039570712
 40
1.492316197299791
 40
1.742344279104765
 40
1.742344279104765
 40
1.742344279104765
 40
1.742344279104765
 10
783.9398476769821
 20
203.1001987799134
 30
0.0
 10
783.9797293167587
 20
203.1704329876823
 30
0.0
 10
784.0411570218428
 20
203.3312934569766
 30
0.0
 10
784.0504902132789
 20
203.5783613064868
 30
0.0
 10
784.0071860148284
 20
203.8028747038787
 30
0.0
 10
783.9166760745509
 20
203.9983361820974
 30
0.0
 10
783.7540854950063
 20
204.0964730340286
 30
0.0
 10
783.5667135305018
 20
204.070861913304
 30
0.0
 10
783.4472824716153
 20
204.0097405807404
 30
0.0
 10
783.3884009788572
 20
203.9755378011889
 30
0.0
  0
LINE
  5
247
330
1C8
100
AcDbEntity
  8
0
  6
Continuous
 62
     0
370
    30
100
AcDbLine
 10
783.388401
 20
203.975538
 30
0.0
 11
782.27466
 21
203.332501
 31
0.0
  0
LINE
  5
248
330
1C8
100
AcDbEntity
  8
0
  6
Continuous
 62
     0
370
    30
100
AcDbLine
 10
782.27466
 20
203.332501
 30
0.0
 11
782.210484
 21
203.617237
 31
0.0
  0
LINE
  5
249
330
1C8
100
AcDbEntity
  8
0
  6
Continuous
 62
     0
370
    30
100
AcDbLine
 10
782.210484
 20
203.617237
 30
0.0
 11
783.329182
 21
204.263145
 31
0.0
  0
SPLINE
  5
24A
330
1C8
100
AcDbEntity
  8
0
  6
Continuous
 62
     0
370
    30
100
AcDbSpline
210
0.0
220
0.0
230
1.0
 70
     8
 71
     3
 72
    10
 73
     6
 74
     0
 42
0.0
 43
0.0
 40
0.0
 40
0.0
 40
0.0
 40
0.0
 40
0.2406503714594215
 40
0.4809889051886851
 40
0.7211588880530552
 40
0.7211588880530552
 40
0.7211588880530552
 40
0.7211588880530552
 10
783.3291819138244
 20
204.2631450187643
 30
0.0
 10
783.3859064099881
 20
204.2958918460181
 30
0.0
 10
783.5012245965577
 20
204.3547365362946
 30
0.0
 10
783.679746833064
 20
204.3974726180625
 30
0.0
 10
783.7963977281499
 20
204.385398305922
 30
0.0
 10
783.8515023736355
 20
204.3688600194337
 30
0.0
  0
SPLINE
  5
24B
330
1C8
100
AcDbEntity
  8
0
  6
Continuous
 62
     0
370
    30
100
AcDbSpline
210
0.0
220
0.0
230
1.0
 70
     8
 71
     3
 72
    14
 73
    10
 74
     0
 42
0.0
 43
0.0
 40
0.0
 40
0.0
 40
0.0
 40
0.0
 40
0.2658311356644095
 40
0.5318324899200899
 40
0.7981789482599693
 40
1.064703722663629
 40
1.331140912478703
 40
1.597255800117859
 40
1.863124513833541
 40
1.863124513833541
 40
1.863124513833541
 40
1.863124513833541
 10
783.8515023736354
 20
204.3688600194337
 30
0.0
 10
783.9125530622712
 20
204.3507704813626
 30
0.0
 10
784.0282893167664
 20
204.2869163244312
 30
0.0
 10
784.15765522394
 20
204.1160746993446
 30
0.0
 10
784.2400424726835
 20
203.8985976996194
 30
0.0
 10
784.2785017922308
 20
203.6543143430933
 30
0.0
 10
784.2743884624405
 20
203.3954238914133
 30
0.0
 10
784.2200735440699
 20
203.1326656411188
 30
0.0
 10
784.1452047111925
 20
202.969342562038
 30
0.0
 10
784.1005669182256
 20
202.8956726353684
 30
0.0
  0
SPLINE
  5
24C
330
1C8
100
AcDbEntity
  8
0
  6
Continuous
 62
     0
370
    30
100
AcDbSpline
210
0.0
220
0.0
230
1.0
 70
     8
 71
     3
 72
    10
 73
     6
 74
     0
 42
0.0
 43
0.0
 40
0.0
 40
0.0
 40
0.0
 40
0.0
 40
0.2234824778642142
 40
0.4474133988426941
 40
0.671636863453323
 40
0.671636863453323
 40
0.671636863453323
 40
0.671636863453323
 10
784.1005669182259
 20
202.8956726353689
 30
0.0
 10
784.0626861271056
 20
202.8341024701583
 30
0.0
 10
783.974691537933
 20
202.7214199946931
 30
0.0
 10
783.8217940358018
 20
202.6013584410746
 30
0.0
 10
783.7169698309965
 20
202.5357511212954
 30
0.0
 10
783.664122320666
 20
202.5052433262514
 30
0.0
  0
LINE
  5
24D
330
1C8
100
AcDbEntity
  8
0
  6
Continuous
 62
     0
370
    30
100
AcDbLine
 10
783.664122
 20
202.505243
 30
0.0
 11
782.558003
 21
201.866586
 31
0.0
  0
SPLINE
  5
24E
330
1C8
100
AcDbEntity
  8
0
  6
Continuous
 62
     0
370
    30
100
AcDbSpline
210
0.0
220
0.0
230
1.0
 70
     8
 71
     3
 72
    25
 73
    21
 74
     0
 42
0.0
 43
0.0
 40
0.0
 40
0.0
 40
0.0
 40
0.0
 40
0.2754117203151599
 40
0.4117111493874385
 40
0.5484227172847349
 40
0.6882255408435608
 40
0.828517537529587
 40
1.101530130229459
 40
1.374996099329446
 40
1.654519371669829
 40
2.206611179020701
 40
2.483601928484151
 40
2.760074308334967
 40
3.036299766838877
 40
3.172821653322529
 40
3.311285244432747
 40
3.451140522921225
 40
3.589993566819079
 40
3.726555894954432
 40
3.865086221907658
 40
3.865086221907658
 40
3.865086221907658
 40
3.865086221907658
 10
782.3048997473772
 20
205.4368511858791
 30
0.0
 10
782.2418728209568
 20
205.3934495234216
 30
0.0
 10
782.1555217671018
 20
205.2958304465696
 30
0.0
 10
782.092537135793
 20
205.1247338827552
 30
0.0
 10
782.0807637271157
 20
204.9851726382861
 30
0.0
 10
782.0975911409888
 20
204.8496042357597
 30
0.0
 10
782.1508951345447
 20
204.6864257645508
 30
0.0
 10
782.2707800650028
 20
204.5256471324807
 30
0.0
 10
782.4732838376665
 20
204.4718798460745
 30
0.0
 10
782.7483968627857
 20
204.5176647866027
 30
0.0
 10
783.0169766355366
 20
204.6518510550181
 30
0.0
 10
783.2703931094549
 20
204.8291605932843
 30
0.0
 10
783.4443935388863
 20
205.0035601621469
 30
0.0
 10
783.5588422695166
 20
205.1985456009427
 30
0.0
 10
783.5997830901711
 20
205.3799987725728
 30
0.0
 10
783.6021626455562
 20
205.5184773769856
 30
0.0
 10
783.5803412522232
 20
205.6514647057388
 30
0.0
 10
783.5363004097246
 20
205.7719529734006
 30
0.0
 10
783.4686084890568
 20
205.8707074205459
 30
0.0
 10
783.4076336506294
 20
205.9116673521404
 30
0.0
 10
783.3749940442406
 20
205.9240483363178
 30
0.0
  0
SPLINE
  5
24F
330
1C8
100
AcDbEntity
  8
0
  6
Continuous
 62
     0
370
    30
100
AcDbSpline
210
0.0
220
0.0
230
1.0
 70
     8
 71
     3
 72
     8
 73
     4
 74
     0
 42
0.0
 43
0.0
 40
0.0
 40
0.0
 40
0.0
 40
0.0
 40
1.0
 40
1.0
 40
1.0
 40
1.0
 10
783.3749940442378
 20
205.924048336328
 30
0.0
 10
783.3060581607729
 20
205.9486272263276
 30
0.0
 10
783.2278005646139
 20
205.9377255572961
 30
0.0
 10
783.1561866827678
 20
205.9120426501196
 30
0.0
  0
LINE
  5
250
330
1C8
100
AcDbEntity
  8
0
  6
Continuous
 62
     0
370
    30
100
AcDbLine
 10
783.156187
 20
205.912043
 30
0.0
 11
783.067393
 21
206.218495
 31
0.0
  0
SPLINE
  5
251
330
1C8
100
AcDbEntity
  8
0
  6
Continuous
 62
     0
370
    30
100
AcDbSpline
210
0.0
220
0.0
230
1.0
 70
     8
 71
     3
 72
    26
 73
    22
 74
     0
 42
0.0
 43
0.0
 40
0.0
 40
0.0
 40
0.0
 40
0.0
 40
0.4329957280319897
 40
0.6503560515467781
 40
0.8672615756275532
 40
1.30544677017856
 40
1.739098905056486
 40
1.954088279332204
 40
2.172970668810715
 40
2.614411444286846
 40
3.050370624337348
 40
3.48667701142522
 40
3.927680242198689
 40
4.146685552390961
 40
4.362090948400045
 40
4.795435861426188
 40
5.017398464029146
 40
5.237524152879468
 40
5.453487952873516
 40
5.670035285782057
 40
6.10432269187669
 40
6.10432269187669
 40
6.10432269187669
 40
6.10432269187669
 10
783.0673927104115
 20
206.2184954479433
 30
0.0
 10
783.1709580191925
 20
206.2721662012183
 30
0.0
 10
783.3483240751307
 20
206.2843410730345
 30
0.0
 10
783.5470599690464
 20
206.1768764923268
 30
0.0
 10
783.7103799898405
 20
205.9947792621586
 30
0.0
 10
783.831756657444
 20
205.6727940873811
 30
0.0
 10
783.8322640871763
 20
205.299767065091
 30
0.0
 10
783.7421442603784
 20
205.0231215537452
 30
0.0
 10
783.6030389507791
 20
204.7779461267523
 30
0.0
 10
783.3762738481108
 20
204.5326064897322
 30
0.0
 10
783.0711759798658
 20
204.3301871072641
 30
0.0
 10
782.7532145855599
 20
204.1858711809137
 30
0.0
 10
782.4784952362795
 20
204.1534208756697
 30
0.0
 10
782.2704001381285
 20
204.2055415725775
 30
0.0
 10
782.0842478830097
 20
204.3253452499259
 30
0.0
 10
781.9493186342316
 20
204.547418725885
 30
0.0
 10
781.8772956929686
 20
204.813318136652
 30
0.0
 10
781.857252248252
 20
205.0294457504823
 30
0.0
 10
781.8801713633732
 20
205.2494300101172
 30
0.0
 10
781.9788343246844
 20
205.5184998390613
 30
0.0
 10
782.1165923904819
 20
205.6742382845481
 30
0.0
 10
782.2184717029456
 20
205.7347777143659
 30
0.0
  0
LINE
  5
252
330
1C8
100
AcDbEntity
  8
0
  6
Continuous
 62
     0
370
    30
100
AcDbLine
 10
782.218472
 20
205.734778
 30
0.0
 11
782.3049
 21
205.436851
 31
0.0
  0
LINE
  5
253
330
1C8
100
AcDbEntity
  8
0
  6
Continuous
 62
     0
370
    30
100
AcDbLine
 10
782.623223
 20
207.610174
 30
0.0
 11
782.524012
 21
207.895147
 31
0.0
  0
SPLINE
  5
254
330
1C8
100
AcDbEntity
  8
0
  6
Continuous
 62
     0
370
    30
100
AcDbSpline
210
0.0
220
0.0
230
1.0
 70
     8
 71
     3
 72
    28
 73
    24
 74
     0
 42
0.0
 43
0.0
 40
0.0
 40
0.0
 40
0.0
 40
0.0
 40
0.4204471630560343
 40
0.6302954727550704
 40
0.840844224262211
 40
1.264356009512046
 40
1.683146518034478
 40
1.891353215850194
 40
2.103180002565582
 40
2.31874500921389
 40
2.532573572134457
 40
2.954756629199493
 40
3.377480775805023
 40
3.805430969074711
 40
4.017368875573588
 40
4.226305843304237
 40
4.645601066209491
 40
4.859869049938903
 40
5.073392086735828
 40
5.283190324930742
 40
5.492725046528286
 40
5.70597621120472
 40
5.918133441981349
 40
5.918133441981349
 40
5.918133441981349
 40
5.918133441981349
 10
782.5240120451788
 20
207.8951469805849
 30
0.0
 10
782.6251609447986
 20
207.9463180687187
 30
0.0
 10
782.7984382208884
 20
207.968716138976
 30
0.0
 10
783.0067590993839
 20
207.8775680412112
 30
0.0
 10
783.1833022905305
 20
207.7079006721996
 30
0.0
 10
783.3243540695214
 20
207.3933800578182
 30
0.0
 10
783.3281084079965
 20
207.026543924406
 30
0.0
 10
783.2411657786952
 20
206.7634770300724
 30
0.0
 10
783.1395731799175
 20
206.5912518112831
 30
0.0
 10
783.0169169702867
 20
206.4428580924099
 30
0.0
 10
782.8375908129262
 20
206.273020622507
 30
0.0
 10
782.5927416941574
 20
206.1093217640205
 30
0.0
 10
782.2828217483411
 20
205.9697190825339
 30
0.0
 10
782.0111308816995
 20
205.9257342724913
 30
0.0
 10
781.7975508772031
 20
205.9616255363496
 30
0.0
 10
781.5998696012816
 20
206.0637081141596
 30
0.0
 10
781.4428002826901
 20
206.269626144915
 30
0.0
 10
781.3556197166859
 20
206.5284377140938
 30
0.0
 10
781.3285358825987
 20
206.7401537781049
 30
0.0
 10
781.3465411207432
 20
206.9535830333506
 30
0.0
 10
781.419366152443
 20
207.1466588973175
 30
0.0
 10
781.5320828482884
 20
207.3031108559744
 30
0.0
 10
781.6254239708417
 20
207.3807967730612
 30
0.0
 10
781.6749099033478
 20
207.4110373476233
 30
0.0
  0
LINE
  5
255
330
1C8
100
AcDbEntity
  8
0
  6
Continuous
 62
     0
370
    30
100
AcDbLine
 10
781.67491
 20
207.411037
 30
0.0
 11
781.771442
 21
207.134022
 31
0.0
  0
SPLINE
  5
256
330
1C8
100
AcDbEntity
  8
0
  6
Continuous
 62
     0
370
    30
100
AcDbSpline
210
0.0
220
0.0
230
1.0
 70
     8
 71
     3
 72
    23
 73
    19
 74
     0
 42
0.0
 43
0.0
 40
0.0
 40
0.0
 40
0.0
 40
0.0
 40
0.1344406348959691
 40
0.2698087024253305
 40
0.4020113593220785
 40
0.5351093167957036
 40
0.8039622975256804
 40
1.068634646139707
 40
1.334722668476824
 40
1.605909583314207
 40
1.873103289376405
 40
2.143350905299621
 40
2.41200424978178
 40
2.680682206166646
 40
2.949290704837172
 40
3.213805505265991
 40
3.481377106834338
 40
3.74489199651306
 40
3.74489199651306
 40
3.74489199651306
 40
3.74489199651306
 10
781.771442061591
 20
207.1340223954317
 30
0.0
 10
781.7410424913221
 20
207.1123707147746
 30
0.0
 10
781.683245054302
 20
207.0608085196054
 30
0.0
 10
781.6115763273754
 20
206.9617896028858
 30
0.0
 10
781.5654744634693
 20
206.8386110748358
 30
0.0
 10
781.5548633641315
 20
206.6577592923848
 30
0.0
 10
781.6163314446842
 20
206.4389895938433
 30
0.0
 10
781.7807982147549
 20
206.2656483051967
 30
0.0
 10
781.9882193578571
 20
206.2277137028685
 30
0.0
 10
782.1920735860867
 20
206.269480227552
 30
0.0
 10
782.3912335537527
 20
206.3482002780258
 30
0.0
 10
782.5823415490902
 20
206.4551086806733
 30
0.0
 10
782.7669897896507
 20
206.5834848338744
 30
0.0
 10
782.9348674352659
 20
206.7465992376952
 30
0.0
 10
783.071873232826
 20
206.9615801248237
 30
0.0
 10
783.1056928592741
 20
207.2396373512113
 30
0.0
 10
783.0319141107966
 20
207.4966676930192
 30
0.0
 10
782.9114395632541
 20
207.6085761749848
 30
0.0
 10
782.8455404838917
 20
207.6288687614423
 30
0.0
  0
SPLINE
  5
257
330
1C8
100
AcDbEntity
  8
0
  6
Continuous
 62
     0
370
    30
100
AcDbSpline
210
0.0
220
0.0
230
1.0
 70
     8
 71
     3
 72
     8
 73
     4
 74
     0
 42
0.0
 43
0.0
 40
0.0
 40
0.0
 40
0.0
 40
0.0
 40
1.0
 40
1.0
 40
1.0
 40
1.0
 10
782.8455404838887
 20
207.6288687614512
 30
0.0
 10
782.7732897505764
 20
207.6500905682516
 30
0.0
 10
782.6947337420902
 20
207.636566705629
 30
0.0
 10
782.6232231493252
 20
207.6101741815252
 30
0.0
  0
LINE
  5
258
330
1C8
100
AcDbEntity
  8
0
  6
Continuous
 62
     0
370
    30
100
AcDbLine
 10
782.526909
 20
209.437101
 30
0.0
 11
782.431721
 21
209.674476
 31
0.0
  0
LINE
  5
259
330
1C8
100
AcDbEntity
  8
0
  6
Continuous
 62
     0
370
    30
100
AcDbLine
 10
782.431721
 20
209.674476
 30
0.0
 11
780.616521
 21
208.62647
 31
0.0
  0
LINE
  5
25A
330
1C8
100
AcDbEntity
  8
0
  6
Continuous
 62
     0
370
    30
100
AcDbLine
 10
780.616521
 20
208.62647
 30
0.0
 11
780.711709
 21
208.389095
 31
0.0
  0
LINE
  5
25B
330
1C8
100
AcDbEntity
  8
0
  6
Continuous
 62
     0
370
    30
100
AcDbLine
 10
780.711709
 20
208.389095
 30
0.0
 11
781.491046
 21
208.839048
 31
0.0
  0
ARC
  5
25C
330
1C8
100
AcDbEntity
  8
0
  6
Continuous
 62
     0
370
    30
100
AcDbCircle
 10
750.258623
 20
196.417875
 30
0.0
 40
33.61175046364505
100
AcDbArc
 50
20.15166
 51
21.687776
  0
LINE
  5
25D
330
1C8
100
AcDbEntity
  8
0
  6
Continuous
 62
     0
370
    30
100
AcDbLine
 10
781.812797
 20
207.997334
 30
0.0
 11
781.033459
 21
207.547381
 31
0.0
  0
LINE
  5
25E
330
1C8
100
AcDbEntity
  8
0
  6
Continuous
 62
     0
370
    30
100
AcDbLine
 10
781.033459
 20
207.547381
 30
0.0
 11
781.125444
 21
207.294195
 31
0.0
  0
LINE
  5
25F
330
1C8
100
AcDbEntity
  8
0
  6
Continuous
 62
     0
370
    30
100
AcDbLine
 10
781.125444
 20
207.294195
 30
0.0
 11
782.940644
 21
208.342202
 31
0.0
  0
LINE
  5
260
330
1C8
100
AcDbEntity
  8
0
  6
Continuous
 62
     0
370
    30
100
AcDbLine
 10
782.940644
 20
208.342202
 30
0.0
 11
782.848658
 21
208.595387
 31
0.0
  0
LINE
  5
261
330
1C8
100
AcDbEntity
  8
0
  6
Continuous
 62
     0
370
    30
100
AcDbLine
 10
782.848658
 20
208.595387
 30
0.0
 11
782.02897
 21
208.122143
 31
0.0
  0
ARC
  5
262
330
1C8
100
AcDbEntity
  8
0
  6
Continuous
 62
     0
370
    30
100
AcDbCircle
 10
750.447768
 20
196.532357
 30
0.0
 40
33.64068182062248
100
AcDbArc
 50
20.152312
 51
21.687107
  0
LINE
  5
263
330
1C8
100
AcDbEntity
  8
0
  6
Continuous
 62
     0
370
    30
100
AcDbLine
 10
781.707219
 20
208.963856
 30
0.0
 11
782.526909
 21
209.437101
 31
0.0
  0
LINE
  5
264
330
1C8
100
AcDbEntity
  8
0
  6
Continuous
 62
     0
370
    30
100
AcDbLine
 10
779.052617
 20
211.989414
 30
0.0
 11
779.274053
 21
212.11726
 31
0.0
  0
ARC
  5
265
330
1C8
100
AcDbEntity
  8
0
  6
Continuous
 62
     0
370
    30
100
AcDbCircle
 10
739.91383
 20
191.431966
 30
0.0
 40
44.46468896214073
100
AcDbArc
 50
27.08391
 51
27.723634
  0
LINE
  5
266
330
1C8
100
AcDbEntity
  8
0
  6
Continuous
 62
     0
370
    30
100
AcDbLine
 10
779.502552
 20
211.676512
 30
0.0
 11
781.096323
 21
212.596674
 31
0.0
  0
LINE
  5
267
330
1C8
100
AcDbEntity
  8
0
  6
Continuous
 62
     0
370
    30
100
AcDbLine
 10
781.096323
 20
212.596674
 30
0.0
 11
781.190544
 21
212.410737
 31
0.0
  0
LINE
  5
268
330
1C8
100
AcDbEntity
  8
0
  6
Continuous
 62
     0
370
    30
100
AcDbLine
 10
781.190544
 20
212.410737
 30
0.0
 11
779.596762
 21
211.49057
 31
0.0
  0
ARC
  5
269
330
1C8
100
AcDbEntity
  8
0
  6
Continuous
 62
     0
370
    30
100
AcDbCircle
 10
745.982759
 20
194.578024
 30
0.0
 40
37.62891676442834
100
AcDbArc
 50
25.566226
 51
26.708793
  0
LINE
  5
26A
330
1C8
100
AcDbEntity
  8
0
  6
Continuous
 62
     0
370
    30
100
AcDbLine
 10
779.927319
 20
210.816936
 30
0.0
 11
781.521123
 21
211.737108
 31
0.0
  0
LINE
  5
26B
330
1C8
100
AcDbEntity
  8
0
  6
Continuous
 62
     0
370
    30
100
AcDbLine
 10
781.521123
 20
211.737108
 30
0.0
 11
781.616668
 21
211.535967
 31
0.0
  0
LINE
  5
26C
330
1C8
100
AcDbEntity
  8
0
  6
Continuous
 62
     0
370
    30
100
AcDbLine
 10
781.616668
 20
211.535967
 30
0.0
 11
780.022816
 21
210.615782
 31
0.0
  0
ARC
  5
26D
330
1C8
100
AcDbEntity
  8
0
  6
Continuous
 62
     0
370
    30
100
AcDbCircle
 10
747.488403
 20
195.264104
 30
0.0
 40
35.97446396091419
100
AcDbArc
 50
22.772102
 51
25.260735
  0
LINE
  5
26E
330
1C8
100
AcDbEntity
  8
0
  6
Continuous
 62
     0
370
    30
100
AcDbLine
 10
780.65872
 20
209.18862
 30
0.0
 11
781.216615
 21
209.510725
 31
0.0
  0
ARC
  5
26F
330
1C8
100
AcDbEntity
  8
0
  6
Continuous
 62
     0
370
    30
100
AcDbCircle
 10
748.088603
 20
195.592653
 30
0.0
 40
35.93296469511704
100
AcDbArc
 50
22.788738
 51
24.089405
  0
LINE
  5
270
330
1C8
100
AcDbEntity
  8
0
  6
Continuous
 62
     0
370
    30
100
AcDbLine
 10
780.892154
 20
210.259111
 30
0.0
 11
781.108342
 21
210.383923
 31
0.0
  0
ARC
  5
271
330
1C8
100
AcDbEntity
  8
0
  6
Continuous
 62
     0
370
    30
100
AcDbCircle
 10
748.008746
 20
195.589547
 30
0.0
 40
36.25543830934196
100
AcDbArc
 50
22.793897
 51
24.082993
  0
LINE
  5
272
330
1C8
100
AcDbEntity
  8
0
  6
Continuous
 62
     0
370
    30
100
AcDbLine
 10
781.432795
 20
209.635535
 30
0.0
 11
782.031191
 21
209.981017
 31
0.0
  0
ARC
  5
273
330
1C8
100
AcDbEntity
  8
0
  6
Continuous
 62
     0
370
    30
100
AcDbCircle
 10
747.597052
 20
195.502937
 30
0.0
 40
37.35404652730382
100
AcDbArc
 50
22.804668
 51
24.146524
  0
LINE
  5
274
330
1C8
100
AcDbEntity
  8
0
  6
Continuous
 62
     0
370
    30
100
AcDbLine
 10
781.682705
 20
210.783414
 30
0.0
 11
781.904116
 21
210.911204
 31
0.0
  0
ARC
  5
275
330
1C8
100
AcDbEntity
  8
0
  6
Continuous
 62
     0
370
    30
100
AcDbCircle
 10
746.782317
 20
195.191405
 30
0.0
 40
38.47925186139831
100
AcDbArc
 50
22.437711
 51
24.112313
  0
LINE
  5
276
330
1C8
100
AcDbEntity
  8
0
  6
Continuous
 62
     0
370
    30
100
AcDbLine
 10
782.348498
 20
209.87812
 30
0.0
 11
780.533298
 21
208.830114
 31
0.0
  0
ARC
  5
277
330
1C8
100
AcDbEntity
  8
0
  6
Continuous
 62
     0
370
    30
100
AcDbCircle
 10
746.071983
 20
194.605629
 30
0.0
 40
37.28160699426305
100
AcDbArc
 50
22.429206
 51
27.793296
  0
LINE
  5
278
330
1C8
100
AcDbEntity
  8
0
  6
Continuous
 62
     0
370
    30
100
AcDbLine
 10
780.797627
 20
213.170037
 30
0.0
 11
780.704456
 21
213.344144
 31
0.0
  0
LINE
  5
279
330
1C8
100
AcDbEntity
  8
0
  6
Continuous
 62
     0
370
    30
100
AcDbLine
 10
780.704456
 20
213.344144
 30
0.0
 11
778.889257
 21
212.296138
 31
0.0
  0
LINE
  5
27A
330
1C8
100
AcDbEntity
  8
0
  6
Continuous
 62
     0
370
    30
100
AcDbLine
 10
778.889257
 20
212.296138
 30
0.0
 11
778.982427
 21
212.122031
 31
0.0
  0
LINE
  5
27B
330
1C8
100
AcDbEntity
  8
0
  6
Continuous
 62
     0
370
    30
100
AcDbLine
 10
778.982427
 20
212.122031
 30
0.0
 11
780.797627
 21
213.170037
 31
0.0
  0
LINE
  5
27C
330
1C8
100
AcDbEntity
  8
0
  6
Continuous
 62
     0
370
    30
100
AcDbLine
 10
780.007196
 20
213.470357
 30
0.0
 11
780.099374
 21
213.303018
 31
0.0
  0
LINE
  5
27D
330
1C8
100
AcDbEntity
  8
0
  6
Continuous
 62
     0
370
    30
100
AcDbLine
 10
780.099374
 20
213.303018
 30
0.0
 11
780.577035
 21
213.578795
 31
0.0
  0
LINE
  5
27E
330
1C8
100
AcDbEntity
  8
0
  6
Continuous
 62
     0
370
    30
100
AcDbLine
 10
780.577035
 20
213.578795
 30
0.0
 11
780.484857
 21
213.746135
 31
0.0
  0
LINE
  5
27F
330
1C8
100
AcDbEntity
  8
0
  6
Continuous
 62
     0
370
    30
100
AcDbLine
 10
780.484857
 20
213.746135
 30
0.0
 11
780.007196
 21
213.470357
 31
0.0
  0
ENDBLK
  5
281
330
1C8
100
AcDbEntity
  8
0
100
AcDbBlockEnd
  0
BLOCK
  5
2ED
330
283
100
AcDbEntity
  8
0
100
AcDbBlockBegin
  2
e
 70
     0
 10
406.536774
 20
0.0
 30
0.0
  3
e
  1

  0
LINE
  5
284
330
283
100
AcDbEntity
  8
0
  6
Continuous
 62
     0
370
    30
100
AcDbLine
 10
97.966309
 20
587.77026
 30
0.0
 11
97.966307
 21
559.770263
 31
0.0
  0
SPLINE
  5
285
330
283
100
AcDbEntity
  8
0
  6
Continuous
 62
     0
370
     0
100
AcDbSpline
210
0.0
220
0.0
230
1.0
 70
     8
 71
     3
 72
    14
 73
    10
 74
     0
 42
0.0
 43
0.0
 40
0.0
 40
0.0
 40
0.0
 40
0.0
 40
0.047619048741464
 40
0.142857146224391
 40
0.28571429152306
 40
0.428571433695539
 40
0.5714285733023969
 40
0.714285714258222
 40
0.8134511510728426
 40
0.8134511510728426
 40
0.8134511510728426
 40
0.8134511510728426
 10
97.9663085863003
 20
587.7702603498092
 30
0.0
 10
97.96630856182969
 20
587.7702603799253
 30
0.0
 10
98.0289887102241
 20
587.7702604732515
 30
0.0
 10
98.5322962072841
 20
587.7702606583123
 30
0.0
 10
100.023560326872
 20
587.7702609055546
 30
0.0
 10
102.726923527221
 20
587.7702611845054
 30
0.0
 10
106.3193459264916
 20
587.7702614649717
 30
0.0
 10
110.1837320356894
 20
587.7702617176434
 30
0.0
 10
112.8476937955426
 20
587.770261878755
 30
0.0
 10
113.9663007462332
 20
587.7702619444204
 30
0.0
  0
SPLINE
  5
286
330
283
100
AcDbEntity
  8
0
  6
Continuous
 62
     0
370
    30
100
AcDbSpline
210
0.0
220
0.0
230
1.0
 70
     8
 71
     3
 72
    16
 73
    12
 74
     0
 42
0.0
 43
0.0
 40
0.0
 40
0.0
 40
0.0
 40
0.0
 40
0.047619050732881
 40
0.142857152198643
 40
0.285714498032294
 40
0.4285715148732381
 40
0.571428485126764
 40
0.7142855019677079
 40
0.857142847801357
 40
0.9523809492671189
 40
1.0
 40
1.0
 40
1.0
 40
1.0
 10
97.96630736238133
 20
559.7702645461028
 30
0.0
 10
97.96630739283351
 20
559.7702646070072
 30
0.0
 10
97.96630748419008
 20
559.6920017069075
 30
0.0
 10
97.96630766614247
 20
559.0659413668121
 30
0.0
 10
97.96630789784831
 20
557.2098611815794
 30
0.0
 10
97.96630813192202
 20
553.8458800840622
 30
0.0
 10
97.9663083273371
 20
549.3753049957725
 30
0.0
 10
97.96630847438138
 20
544.0203230561443
 30
0.0
 10
97.9663085555134
 20
538.7195115246991
 30
0.0
 10
97.9663085828792
 20
534.556926325754
 30
0.0
 10
97.9663085863003
 20
532.4669318286047
 30
0.0
 10
97.9663085863003
 20
531.7702669939409
 30
0.0
  0
LINE
  5
287
330
283
100
AcDbEntity
  8
0
  6
Continuous
 62
     0
370
     0
100
AcDbLine
 10
120.466308
 20
531.770265
 30
0.0
 11
97.966309
 21
531.770267
 31
0.0
  0
SPLINE
  5
288
330
283
100
AcDbEntity
  8
0
  6
Continuous
 62
     0
370
     0
100
AcDbSpline
210
0.0
220
0.0
230
1.0
 70
     8
 71
     3
 72
    16
 73
    12
 74
     0
 42
0.0
 43
0.0
 40
0.0
 40
0.0
 40
0.0
 40
0.0
 40
0.047618587247776
 40
0.142855761743327
 40
0.285714973445752
 40
0.428572131040739
 40
0.5714278689592599
 40
0.7142850265542481
 40
0.8571442382566719
 40
0.952381412752224
 40
1.0
 40
1.0
 40
1.0
 40
1.0
 10
120.466307369832
 20
537.2702645386523
 30
0.0
 10
120.4663073758136
 20
537.2702645506156
 30
0.0
 10
120.4663073937585
 20
537.2549431281075
 30
0.0
 10
120.4663074294993
 20
537.1318930595683
 30
0.0
 10
120.4663074750132
 20
536.7673463806136
 30
0.0
 10
120.4663075209925
 20
536.1065605197099
 30
0.0
 10
120.4663075593775
 20
535.2284142363724
 30
0.0
 10
120.4663075882614
 20
534.1765321035499
 30
0.0
 10
120.4663076041962
 20
533.1352941393066
 30
0.0
 10
120.4663076095749
 20
532.3176402446899
 30
0.0
 10
120.4663076102446
 20
531.9071088317035
 30
0.0
 10
120.4663076102446
 20
531.7702650269282
 30
0.0
  0
LINE
  5
289
330
283
100
AcDbEntity
  8
0
  6
Continuous
 62
     0
370
     0
100
AcDbLine
 10
142.966309
 20
531.770267
 30
0.0
 11
120.466308
 21
531.770265
 31
0.0
  0
SPLINE
  5
28A
330
283
100
AcDbEntity
  8
0
  6
Continuous
 62
     0
370
    30
100
AcDbSpline
210
0.0
220
0.0
230
1.0
 70
     8
 71
     3
 72
    16
 73
    12
 74
     0
 42
0.0
 43
0.0
 40
0.0
 40
0.0
 40
0.0
 40
0.0
 40
0.047619008806062
 40
0.142857026418187
 40
0.285714359327475
 40
0.428571395213536
 40
0.571428604786464
 40
0.7142856406725249
 40
0.8571429735818132
 40
0.9523809911939379
 40
1.0
 40
1.0
 40
1.0
 40
1.0
 10
142.9663073772824
 20
559.7702645461028
 30
0.0
 10
142.9663074077347
 20
559.7702646070072
 30
0.0
 10
142.9663074990913
 20
559.6922632241552
 30
0.0
 10
142.9663076810441
 20
559.0658308237757
 30
0.0
 10
142.9663079127509
 20
557.209966528949
 30
0.0
 10
142.9663081468266
 20
553.8459594841104
 30
0.0
 10
142.9663083422417
 20
549.3753835823009
 30
0.0
 10
142.9663084892871
 20
544.0203582694836
 30
0.0
 10
142.9663085704096
 20
538.7195235897922
 30
0.0
 10
142.9663085977919
 20
534.5569297213018
 30
0.0
 10
142.9663086012014
 20
532.4669326774859
 30
0.0
 10
142.9663086012014
 20
531.7702669939408
 30
0.0
  0
SPLINE
  5
28B
330
283
100
AcDbEntity
  8
0
  6
Continuous
 62
     0
370
    30
100
AcDbSpline
210
0.0
220
0.0
230
1.0
 70
     8
 71
     3
 72
    16
 73
    12
 74
     0
 42
0.0
 43
0.0
 40
0.0
 40
0.0
 40
0.0
 40
0.0
 40
0.047619050732881
 40
0.142857152198643
 40
0.285714498032292
 40
0.428571514873236
 40
0.5714284851267609
 40
0.714285501967704
 40
0.857142847801358
 40
0.9523809492671189
 40
1.0
 40
1.0
 40
1.0
 40
1.0
 10
142.9663073772824
 20
559.7702627976472
 30
0.0
 10
142.9663074077346
 20
559.7702627367428
 30
0.0
 10
142.9663074990912
 20
559.8485256368425
 30
0.0
 10
142.9663076810436
 20
560.4745859769378
 30
0.0
 10
142.9663079127494
 20
562.3306661621706
 30
0.0
 10
142.9663081468232
 20
565.6946472596878
 30
0.0
 10
142.9663083422382
 20
570.1652223479775
 30
0.0
 10
142.9663084892825
 20
575.5202042876058
 30
0.0
 10
142.9663085704144
 20
580.8210158190509
 30
0.0
 10
142.9663085977805
 20
584.9836010179961
 30
0.0
 10
142.9663086012015
 20
587.0735955151454
 30
0.0
 10
142.9663086012015
 20
587.7702603498092
 30
0.0
  0
LINE
  5
28C
330
283
100
AcDbEntity
  8
0
  6
Continuous
 62
     0
370
     0
100
AcDbLine
 10
126.966301
 20
587.770262
 30
0.0
 11
142.966309
 21
587.77026
 31
0.0
  0
LINE
  5
28D
330
283
100
AcDbEntity
  8
0
  6
Continuous
 62
     0
370
     0
100
AcDbLine
 10
120.466308
 20
496.402756
 30
0.0
 11
120.466308
 21
531.770265
 31
0.0
  0
LINE
  5
28E
330
283
100
AcDbEntity
  8
0
  6
Continuous
 62
     0
370
     0
100
AcDbLine
 10
120.466308
 20
496.402756
 30
0.0
 11
142.966309
 21
496.402724
 31
0.0
  0
LINE
  5
28F
330
283
100
AcDbEntity
  8
0
  6
Continuous
 62
     0
370
    30
100
AcDbLine
 10
142.966309
 20
531.770267
 30
0.0
 11
142.966309
 21
496.402724
 31
0.0
  0
LINE
  5
290
330
283
100
AcDbEntity
  8
0
  6
Continuous
 62
     0
370
    30
100
AcDbLine
 10
97.966309
 20
496.402724
 30
0.0
 11
97.966309
 21
531.770267
 31
0.0
  0
SPLINE
  5
291
330
283
100
AcDbEntity
  8
0
  6
Continuous
 62
     0
370
     0
100
AcDbSpline
210
0.0
220
0.0
230
1.0
 70
     8
 71
     3
 72
    17
 73
    13
 74
     0
 42
0.0
 43
0.0
 40
0.0
 40
0.0
 40
0.0
 40
0.0
 40
2.297407004499248
 40
5.672395173834614
 40
7.570826023835553
 40
10.73487736145179
 40
15.79735940500662
 40
20.85984094734004
 40
25.92232241247725
 40
30.80867906996199
 40
33.64249601588607
 40
35.34278618556472
 40
35.34278618556472
 40
35.34278618556472
 40
35.34278618556472
 10
97.9663085862971
 20
496.4027240332094
 30
0.0
 10
97.96630855260972
 20
496.4027240375488
 30
0.0
 10
98.06288822100505
 20
496.4027242615225
 30
0.0
 10
98.5087683583834
 20
496.4027256206133
 30
0.0
 10
99.32533886316794
 20
496.4027279788565
 30
0.0
 10
100.663825562877
 20
496.4027314471687
 30
0.0
 10
103.1423511862575
 20
496.4027361445795
 30
0.0
 10
106.8485320484029
 20
496.4027413743984
 30
0.0
 10
111.1901782339475
 20
496.4027432283938
 30
0.0
 10
115.2719478492076
 20
496.4027504853063
 30
0.0
 10
118.3880668862319
 20
496.4027402372847
 30
0.0
 10
119.8996774008936
 20
496.4027560301477
 30
0.0
 10
120.4663076102446
 20
496.4027560301477
 30
0.0
  0
ARC
  5
292
330
283
100
AcDbEntity
  8
0
  6
Continuous
 62
     0
370
    30
100
AcDbCircle
 10
120.466106
 20
559.770117
 30
0.0
 40
22.50020156876768
100
AcDbArc
 50
0.000375
 51
70.001301
  0
ARC
  5
293
330
283
100
AcDbEntity
  8
0
  6
Continuous
 62
     0
370
    30
100
AcDbCircle
 10
120.466003
 20
559.770568
 30
0.0
 40
22.50030388123655
100
AcDbArc
 50
270.000774
 51
359.999227
  0
LINE
  5
294
330
283
100
AcDbEntity
  8
0
  6
Continuous
 62
     0
370
    30
100
AcDbLine
 10
120.454581
 20
537.270267
 30
0.0
 11
120.466307
 21
537.270264
 31
0.0
  0
ARC
  5
295
330
283
100
AcDbEntity
  8
0
  6
Continuous
 62
     0
370
    30
100
AcDbCircle
 10
120.46661
 20
559.770567
 30
0.0
 40
22.50030312198653
100
AcDbArc
 50
180.000771
 51
269.969367
  0
ARC
  5
296
330
283
100
AcDbEntity
  8
0
  6
Continuous
 62
     0
370
    30
100
AcDbCircle
 10
120.466765
 20
559.769803
 30
0.0
 40
22.50045817905426
100
AcDbArc
 50
109.999673
 51
179.998826
  0
LINE
  5
297
330
283
100
AcDbEntity
  8
0
  6
Continuous
 62
     0
370
    30
100
AcDbLine
 10
142.966309
 20
588.198248
 30
0.0
 11
142.966309
 21
587.77026
 31
0.0
  0
LINE
  5
298
330
283
100
AcDbEntity
  8
0
  6
Continuous
 62
     0
370
    30
100
AcDbLine
 10
142.966309
 20
588.198248
 30
0.0
 11
126.966301
 21
588.198249
 31
0.0
  0
LINE
  5
299
330
283
100
AcDbEntity
  8
0
  6
Continuous
 62
     0
370
    30
100
AcDbLine
 10
113.966301
 20
588.198249
 30
0.0
 11
97.966309
 21
588.198248
 31
0.0
  0
LINE
  5
29A
330
283
100
AcDbEntity
  8
0
  6
Continuous
 62
     0
370
    30
100
AcDbLine
 10
97.966309
 20
587.77026
 30
0.0
 11
97.966309
 21
588.198248
 31
0.0
  0
ARC
  5
29B
330
283
100
AcDbEntity
  8
0
  6
Continuous
 62
     0
370
    30
100
AcDbCircle
 10
120.45458
 20
559.767142
 30
0.0
 40
22.1
100
AcDbArc
 50
270.0
 51
67.153039
  0
ARC
  5
29C
330
283
100
AcDbEntity
  8
0
  6
Continuous
 62
     0
370
    30
100
AcDbCircle
 10
120.45458
 20
559.767142
 30
0.0
 40
22.1
100
AcDbArc
 50
112.684744
 51
270.0
  0
LINE
  5
29D
330
283
100
AcDbEntity
  8
0
  6
Continuous
 62
     0
370
    30
100
AcDbLine
 10
142.266309
 20
592.770269
 30
0.0
 11
126.9663
 21
592.770269
 31
0.0
  0
LINE
  5
29E
330
283
100
AcDbEntity
  8
0
  6
Continuous
 62
     0
370
    30
100
AcDbLine
 10
113.9663
 20
592.770269
 30
0.0
 11
98.666309
 21
592.770269
 31
0.0
  0
LINE
  5
29F
330
283
100
AcDbEntity
  8
0
  6
Continuous
 62
     0
370
    30
100
AcDbLine
 10
113.9663
 20
592.471411
 30
0.0
 11
98.340162
 21
592.471411
 31
0.0
  0
LINE
  5
2A0
330
283
100
AcDbEntity
  8
0
  6
Continuous
 62
     0
370
    30
100
AcDbLine
 10
142.592455
 20
592.471411
 30
0.0
 11
126.9663
 21
592.471411
 31
0.0
  0
LINE
  5
2A1
330
283
100
AcDbEntity
  8
0
  6
Continuous
 62
     0
370
    30
100
AcDbLine
 10
120.466308
 20
488.770269
 30
0.0
 11
142.566309
 21
488.770269
 31
0.0
  0
LINE
  5
2A2
330
283
100
AcDbEntity
  8
0
  6
Continuous
 62
     0
370
    30
100
AcDbLine
 10
98.366309
 20
488.770269
 30
0.0
 11
120.466308
 21
488.770269
 31
0.0
  0
LINE
  5
2A3
330
283
100
AcDbEntity
  8
0
  6
Continuous
 62
     0
370
    30
100
AcDbLine
 10
142.966309
 20
496.402724
 30
0.0
 11
142.566309
 21
488.770269
 31
0.0
  0
LINE
  5
2A4
330
283
100
AcDbEntity
  8
0
  6
Continuous
 62
     0
370
    30
100
AcDbLine
 10
97.966309
 20
496.402724
 30
0.0
 11
98.366309
 21
488.770269
 31
0.0
  0
LINE
  5
2A5
330
283
100
AcDbEntity
  8
0
  6
Continuous
 62
     0
370
    30
100
AcDbLine
 10
142.592455
 20
592.471411
 30
0.0
 11
142.266331
 21
592.770248
 31
0.0
  0
LINE
  5
2A6
330
283
100
AcDbEntity
  8
0
  6
Continuous
 62
     0
370
    30
100
AcDbLine
 10
98.340162
 20
592.471411
 30
0.0
 11
98.666286
 21
592.770248
 31
0.0
  0
LINE
  5
2A7
330
283
100
AcDbEntity
  8
0
  6
Continuous
 62
     0
370
    30
100
AcDbLine
 10
142.966309
 20
588.198248
 30
0.0
 11
142.592455
 21
592.471411
 31
0.0
  0
LINE
  5
2A8
330
283
100
AcDbEntity
  8
0
  6
Continuous
 62
     0
370
    30
100
AcDbLine
 10
97.966309
 20
588.198248
 30
0.0
 11
98.340162
 21
592.471411
 31
0.0
  0
LINE
  5
2A9
330
283
100
AcDbEntity
  8
0
  6
Continuous
 62
     0
370
    30
100
AcDbLine
 10
114.022382
 20
587.770266
 30
0.0
 11
126.966299
 21
587.770268
 31
0.0
  0
LINE
  5
2AA
330
283
100
AcDbEntity
  8
0
  6
Continuous
 62
     0
370
    30
100
AcDbLine
 10
113.966292
 20
647.770266
 30
0.0
 11
114.022375
 21
647.770266
 31
0.0
  0
LINE
  5
2AB
330
283
100
AcDbEntity
  8
0
  6
Continuous
 62
     0
370
    30
100
AcDbLine
 10
114.022375
 20
647.770266
 30
0.0
 11
126.966292
 21
647.770268
 31
0.0
  0
LINE
  5
2AC
330
283
100
AcDbEntity
  8
0
  6
Continuous
 62
     0
370
    30
100
AcDbLine
 10
126.966299
 20
587.770268
 30
0.0
 11
126.966292
 21
647.770268
 31
0.0
  0
LINE
  5
2AD
330
283
100
AcDbEntity
  8
0
  6
Continuous
 62
     0
370
    30
100
AcDbLine
 10
113.966299
 20
587.770266
 30
0.0
 11
113.966292
 21
647.770266
 31
0.0
  0
LINE
  5
2AE
330
283
100
AcDbEntity
  8
0
  6
Continuous
 62
     0
370
    30
100
AcDbLine
 10
113.966299
 20
587.770265
 30
0.0
 11
114.022382
 21
587.770265
 31
0.0
  0
SPLINE
  5
2AF
330
283
100
AcDbEntity
  8
0
  6
Continuous
 62
     0
370
     0
100
AcDbSpline
210
0.0
220
0.0
230
1.0
 70
     8
 71
     3
 72
    15
 73
    11
 74
     0
 42
0.0
 43
0.0
 40
10.51976893298457
 40
10.51976893298457
 40
10.51976893298457
 40
10.51976893298457
 40
11.62018875328712
 40
12.66991432644621
 40
13.90342270692893
 40
15.64836897466411
 40
17.34311723258407
 40
18.41361149052697
 40
19.47528666719875
 40
21.03953786596914
 40
21.03953786596914
 40
21.03953786596914
 40
21.03953786596914
 10
126.9059454772082
 20
584.3147487472057
 30
0.0
 10
126.9058854455284
 20
584.3149019421451
 30
0.0
 10
126.8483812609387
 20
584.3631680298066
 30
0.0
 10
126.5847138001839
 20
584.5780425524626
 30
0.0
 10
126.0654063440912
 20
584.973320580537
 30
0.0
 10
125.1817441411594
 20
585.558969878768
 30
0.0
 10
124.063565996882
 20
586.1216899564755
 30
0.0
 10
122.9708863993669
 20
586.5087215565453
 30
0.0
 10
121.8321998284802
 20
586.7798327673984
 30
0.0
 10
120.9763065183503
 20
586.8575282119892
 30
0.0
 10
120.4662990789675
 20
586.8575281480346
 30
0.0
  0
SPLINE
  5
2B0
330
283
100
AcDbEntity
  8
0
  6
Continuous
 62
     0
370
     0
100
AcDbSpline
210
0.0
220
0.0
230
1.0
 70
     8
 71
     3
 72
    14
 73
    10
 74
     0
 42
0.0
 43
0.0
 40
0.0
 40
0.0
 40
0.0
 40
0.0
 40
1.912405789321918
 40
3.830350421158677
 40
6.32391116788351
 40
7.661351199193069
 40
8.952158795729051
 40
10.23687625134339
 40
10.51976893298457
 40
10.51976893298457
 40
10.51976893298457
 40
10.51976893298457
 10
120.4662990789675
 20
586.8575281480346
 30
0.0
 10
119.8427795442281
 20
586.8575280698457
 30
0.0
 10
118.5945672501289
 20
586.7177767903954
 30
0.0
 10
116.7337645812684
 20
586.1038990718575
 30
0.0
 10
115.3976902397104
 20
585.342471005595
 30
0.0
 10
114.576220548613
 20
584.7569891370174
 30
0.0
 10
114.1659654394431
 20
584.4316725652722
 30
0.0
 10
114.037308818283
 20
584.3234798108776
 30
0.0
 10
114.0266384525506
 20
584.3147077492442
 30
0.0
 10
114.0266538853079
 20
584.3147471321513
 30
0.0
  0
LINE
  5
2B1
330
283
100
AcDbEntity
  8
0
  6
Continuous
 62
     0
370
     0
100
AcDbLine
 10
120.466299
 20
586.857528
 30
0.0
 11
120.466299
 21
581.770266
 31
0.0
  0
ARC
  5
2B2
330
283
100
AcDbEntity
  8
0
  6
Continuous
 62
     0
370
    30
100
AcDbCircle
 10
120.466302
 20
559.770266
 30
0.0
 40
22.0
100
AcDbArc
 50
270.000007
 51
90.000007
  0
ARC
  5
2B3
330
283
100
AcDbEntity
  8
0
  6
Continuous
 62
     0
370
    30
100
AcDbCircle
 10
120.466302
 20
559.770266
 30
0.0
 40
22.0
100
AcDbArc
 50
90.000007
 51
270.000007
  0
ARC
  5
2B4
330
283
100
AcDbEntity
  8
0
  6
Continuous
 62
     0
370
     0
100
AcDbCircle
 10
120.466302
 20
559.770266
 30
0.0
 40
21.5
100
AcDbArc
 50
90.000007
 51
270.000007
  0
ARC
  5
2B5
330
283
100
AcDbEntity
  8
0
  6
Continuous
 62
     0
370
     0
100
AcDbCircle
 10
120.466302
 20
559.770266
 30
0.0
 40
21.5
100
AcDbArc
 50
270.000007
 51
90.000007
  0
SPLINE
  5
2B6
330
283
100
AcDbEntity
  8
0
  6
Continuous
 62
     0
370
    30
100
AcDbSpline
210
0.0
220
0.0
230
1.0
 70
     8
 71
     3
 72
    18
 73
    14
 74
     0
 42
0.0
 43
0.0
 40
1.062771965689222
 40
1.062771965689222
 40
1.062771965689222
 40
1.062771965689222
 40
1.15278694556269
 40
1.369419972446693
 40
1.496338862799866
 40
1.686593611603636
 40
2.229652032535512
 40
2.934669082084802
 40
3.2869321714359
 40
3.639100897691612
 40
4.343364277904396
 40
5.047911622239654
 40
6.771249075136793
 40
6.771249075136793
 40
6.771249075136793
 40
6.771249075136793
 10
111.1874053236813
 20
579.7180973303208
 30
0.0
 10
111.2101284996456
 20
579.7291247551002
 30
0.0
 10
111.3078365836565
 20
579.7765850007477
 30
0.0
 10
111.4317768178306
 20
579.8425376552572
 30
0.0
 10
111.5869666458134
 20
579.9314196706331
 30
0.0
 10
111.8307332322143
 20
580.0817397029697
 30
0.0
 10
112.220484816364
 20
580.3628371146712
 30
0.0
 10
112.6116826762197
 20
580.7274713460482
 30
0.0
 10
112.9198359459767
 20
581.0826455501265
 30
0.0
 10
113.2021823922513
 20
581.4583133253703
 30
0.0
 10
113.5040240636896
 20
581.9636801264562
 30
0.0
 10
113.9098249140239
 20
582.9281260620907
 30
0.0
 10
114.0366361016755
 20
583.7431048345638
 30
0.0
 10
114.0266538844813
 20
584.3147471273057
 30
0.0
  0
SPLINE
  5
2B7
330
283
100
AcDbEntity
  8
0
  6
Continuous
 62
     0
370
    30
100
AcDbSpline
210
0.0
220
0.0
230
1.0
 70
     8
 71
     3
 72
    19
 73
    15
 74
     0
 42
0.0
 43
0.0
 40
0.8364736344684843
 40
0.8364736344684843
 40
0.8364736344684843
 40
0.8364736344684843
 40
1.061025725230382
 40
1.152786945561737
 40
1.369419972553527
 40
1.49633886301265
 40
1.686593611975078
 40
2.22965203306583
 40
2.934669082614557
 40
3.28693217196548
 40
3.639100898221086
 40
4.343364278433918
 40
5.047911622769554
 40
6.771249075125921
 40
6.771249075125921
 40
6.771249075125921
 40
6.771249075125921
 10
129.82082870942
 20
579.6814796101601
 30
0.0
 10
129.8208111772862
 20
579.681443474539
 30
0.0
 10
129.7951767117864
 20
579.6938289673061
 30
0.0
 10
129.6252631005693
 20
579.776321665937
 30
0.0
 10
129.5008236662072
 20
579.8425399211584
 30
0.0
 10
129.3456338158268
 20
579.9314218976805
 30
0.0
 10
129.1018671916152
 20
580.0817418689694
 30
0.0
 10
128.7121155369059
 20
580.3628391830198
 30
0.0
 10
128.3209175856018
 20
580.7274733163637
 30
0.0
 10
128.012764226806
 20
581.0826474431905
 30
0.0
 10
127.730417686355
 20
581.4583151476526
 30
0.0
 10
127.4285758882262
 20
581.9636818730698
 30
0.0
 10
127.0227747961844
 20
582.9281277068077
 30
0.0
 10
126.8959634042108
 20
583.7431064472925
 30
0.0
 10
126.9059454780348
 20
584.3147487423602
 30
0.0
  0
LINE
  5
2B8
330
283
100
AcDbEntity
  8
0
  6
Continuous
 62
     0
370
    30
100
AcDbLine
 10
126.966299
 20
587.770267
 30
0.0
 11
126.905984
 21
584.31477
 31
0.0
  0
LINE
  5
2B9
330
283
100
AcDbEntity
  8
0
  6
Continuous
 62
     0
370
    30
100
AcDbLine
 10
113.966299
 20
587.770265
 30
0.0
 11
114.026616
 21
584.314768
 31
0.0
  0
LINE
  5
2BA
330
283
100
AcDbEntity
  8
0
  6
Continuous
 62
     0
370
    30
100
AcDbLine
 10
90.966309
 20
477.770279
 30
0.0
 11
149.431567
 21
477.770279
 31
0.0
  0
LINE
  5
2BB
330
283
100
AcDbEntity
  8
0
  6
Continuous
 62
     0
370
    30
100
AcDbLine
 10
149.431567
 20
477.770279
 30
0.0
 11
149.966309
 21
477.770279
 31
0.0
  0
LINE
  5
2BC
330
283
100
AcDbEntity
  8
0
  6
Continuous
 62
     0
370
     0
100
AcDbLine
 10
149.922503
 20
478.270279
 30
0.0
 11
150.466309
 21
478.270279
 31
0.0
  0
LINE
  5
2BD
330
283
100
AcDbEntity
  8
0
  6
Continuous
 62
     0
370
     0
100
AcDbLine
 10
90.466309
 20
478.270279
 30
0.0
 11
149.922503
 21
478.270279
 31
0.0
  0
LINE
  5
2BE
330
283
100
AcDbEntity
  8
0
  6
Continuous
 62
     0
370
     0
100
AcDbLine
 10
90.466309
 20
483.270279
 30
0.0
 11
149.922503
 21
483.270279
 31
0.0
  0
LINE
  5
2BF
330
283
100
AcDbEntity
  8
0
  6
Continuous
 62
     0
370
     0
100
AcDbLine
 10
149.922503
 20
483.270279
 30
0.0
 11
150.466309
 21
483.270279
 31
0.0
  0
LINE
  5
2C0
330
283
100
AcDbEntity
  8
0
  6
Continuous
 62
     0
370
    30
100
AcDbLine
 10
149.431567
 20
483.770279
 30
0.0
 11
149.966309
 21
483.770279
 31
0.0
  0
LINE
  5
2C1
330
283
100
AcDbEntity
  8
0
  6
Continuous
 62
     0
370
    30
100
AcDbLine
 10
90.966309
 20
483.770279
 30
0.0
 11
149.431567
 21
483.770279
 31
0.0
  0
ARC
  5
2C2
330
283
100
AcDbEntity
  8
0
  6
Continuous
 62
     0
370
    30
100
AcDbCircle
 10
90.966348
 20
478.270317
 30
0.0
 40
0.5000377434849728
100
AcDbArc
 50
180.004324
 51
269.987035
  0
ARC
  5
2C3
330
283
100
AcDbEntity
  8
0
  6
Continuous
 62
     0
370
    30
100
AcDbCircle
 10
149.966254
 20
478.270317
 30
0.0
 40
0.5000381596801768
100
AcDbArc
 50
270.01842
 51
359.995629
  0
ARC
  5
2C4
330
283
100
AcDbEntity
  8
0
  6
Continuous
 62
     0
370
    30
100
AcDbCircle
 10
90.966348
 20
483.270241
 30
0.0
 40
0.5000377434920403
100
AcDbArc
 50
90.012965
 51
179.995676
  0
ARC
  5
2C5
330
283
100
AcDbEntity
  8
0
  6
Continuous
 62
     0
370
    30
100
AcDbCircle
 10
149.966254
 20
483.270241
 30
0.0
 40
0.5000381596751413
100
AcDbArc
 50
0.004371
 51
89.98158
  0
LINE
  5
2C6
330
283
100
AcDbEntity
  8
0
  6
Continuous
 62
     0
370
    30
100
AcDbLine
 10
150.466309
 20
478.270279
 30
0.0
 11
150.466309
 21
483.270279
 31
0.0
  0
LINE
  5
2C7
330
283
100
AcDbEntity
  8
0
  6
Continuous
 62
     0
370
    30
100
AcDbLine
 10
90.466309
 20
478.270279
 30
0.0
 11
90.466309
 21
483.270279
 31
0.0
  0
ARC
  5
2C8
330
283
100
AcDbEntity
  8
0
  6
Continuous
 62
     0
370
    30
100
AcDbCircle
 10
93.466048
 20
488.770541
 30
0.0
 40
5.000261632247478
100
AcDbArc
 50
270.015605
 51
359.997003
  0
ARC
  5
2C9
330
283
100
AcDbEntity
  8
0
  6
Continuous
 62
     0
370
    30
100
AcDbCircle
 10
147.466554
 20
488.770539
 30
0.0
 40
5.000260135973766
100
AcDbArc
 50
180.00298
 51
269.984378
  0
LINE
  5
2CA
330
283
100
AcDbEntity
  8
0
  6
Continuous
 62
     0
370
     0
100
AcDbLine
 10
131.466309
 20
706.920273
 30
0.0
 11
120.466308
 21
706.920273
 31
0.0
  0
LINE
  5
2CB
330
283
100
AcDbEntity
  8
0
  6
Continuous
 62
     0
370
     0
100
AcDbLine
 10
120.466308
 20
706.920273
 30
0.0
 11
109.466309
 21
706.920273
 31
0.0
  0
LINE
  5
2CC
330
283
100
AcDbEntity
  8
0
  6
Continuous
 62
     0
370
     0
100
AcDbLine
 10
-70.533691
 20
706.920273
 30
0.0
 11
-59.533692
 21
706.920273
 31
0.0
  0
LINE
  5
2CD
330
283
100
AcDbEntity
  8
0
  6
Continuous
 62
     0
370
     0
100
AcDbLine
 10
-59.533692
 20
706.920273
 30
0.0
 11
-48.533691
 21
706.920273
 31
0.0
  0
LINE
  5
2CE
330
283
100
AcDbEntity
  8
0
  6
Continuous
 62
     0
370
    30
100
AcDbLine
 10
-70.533691
 20
682.920273
 30
0.0
 11
-68.870917
 21
682.920273
 31
0.0
  0
LINE
  5
2CF
330
283
100
AcDbEntity
  8
0
  6
Continuous
 62
     0
370
    30
100
AcDbLine
 10
-70.533691
 20
682.920273
 30
0.0
 11
-70.533691
 21
706.920273
 31
0.0
  0
LINE
  5
2D0
330
283
100
AcDbEntity
  8
0
  6
Continuous
 62
     0
370
    30
100
AcDbLine
 10
-48.533691
 20
682.920273
 30
0.0
 11
-48.533691
 21
706.920273
 31
0.0
  0
ARC
  5
2D1
330
283
100
AcDbEntity
  8
0
  6
Continuous
 62
     0
370
    30
100
AcDbCircle
 10
30.466309
 20
706.919906
 30
0.0
 40
101.0000000006645
100
AcDbArc
 50
0.000208
 51
179.999792
  0
ARC
  5
2D2
330
283
100
AcDbEntity
  8
0
  6
Continuous
 62
     0
370
    30
100
AcDbCircle
 10
30.466309
 20
706.919789
 30
0.0
 40
79.00000000147892
100
AcDbArc
 50
0.000351
 51
179.999649
  0
LINE
  5
2D3
330
283
100
AcDbEntity
  8
0
  6
Continuous
 62
     0
370
    30
100
AcDbLine
 10
131.466309
 20
706.920273
 30
0.0
 11
131.466309
 21
614.770273
 31
0.0
  0
LINE
  5
2D4
330
283
100
AcDbEntity
  8
0
  6
Continuous
 62
     0
370
    30
100
AcDbLine
 10
109.466309
 20
706.920273
 30
0.0
 11
109.466309
 21
614.770273
 31
0.0
  0
LINE
  5
2D5
330
283
100
AcDbEntity
  8
0
  6
Continuous
 62
     0
370
    30
100
AcDbLine
 10
126.966297
 20
614.770273
 30
0.0
 11
141.966309
 21
614.770273
 31
0.0
  0
LINE
  5
2D6
330
283
100
AcDbEntity
  8
0
  6
Continuous
 62
     0
370
    30
100
AcDbLine
 10
99.637976
 20
614.770273
 30
0.0
 11
113.966297
 21
614.770273
 31
0.0
  0
LINE
  5
2D7
330
283
100
AcDbEntity
  8
0
  6
Continuous
 62
     0
370
    30
100
AcDbLine
 10
98.966309
 20
614.770273
 30
0.0
 11
99.637976
 21
614.770273
 31
0.0
  0
LINE
  5
2D8
330
283
100
AcDbEntity
  8
0
  6
Continuous
 62
     0
370
     0
100
AcDbLine
 10
126.966297
 20
614.270273
 30
0.0
 11
142.466309
 21
614.270273
 31
0.0
  0
LINE
  5
2D9
330
283
100
AcDbEntity
  8
0
  6
Continuous
 62
     0
370
     0
100
AcDbLine
 10
99.153596
 20
614.270273
 30
0.0
 11
113.966297
 21
614.270273
 31
0.0
  0
LINE
  5
2DA
330
283
100
AcDbEntity
  8
0
  6
Continuous
 62
     0
370
     0
100
AcDbLine
 10
98.466309
 20
614.270273
 30
0.0
 11
99.153596
 21
614.270273
 31
0.0
  0
LINE
  5
2DB
330
283
100
AcDbEntity
  8
0
  6
Continuous
 62
     0
370
    30
100
AcDbLine
 10
126.9663
 20
593.070273
 30
0.0
 11
142.466309
 21
593.070273
 31
0.0
  0
LINE
  5
2DC
330
283
100
AcDbEntity
  8
0
  6
Continuous
 62
     0
370
    30
100
AcDbLine
 10
99.153596
 20
593.070273
 30
0.0
 11
113.9663
 21
593.070273
 31
0.0
  0
LINE
  5
2DD
330
283
100
AcDbEntity
  8
0
  6
Continuous
 62
     0
370
    30
100
AcDbLine
 10
98.466309
 20
593.070273
 30
0.0
 11
99.153596
 21
593.070273
 31
0.0
  0
LINE
  5
2DE
330
283
100
AcDbEntity
  8
0
  6
Continuous
 62
     0
370
    30
100
AcDbLine
 10
98.766263
 20
592.7703
 30
0.0
 11
98.46629
 21
593.070273
 31
0.0
  0
LINE
  5
2DF
330
283
100
AcDbEntity
  8
0
  6
Continuous
 62
     0
370
    30
100
AcDbLine
 10
142.16628
 20
592.770298
 30
0.0
 11
142.466254
 21
593.070273
 31
0.0
  0
LINE
  5
2E0
330
283
100
AcDbEntity
  8
0
  6
Continuous
 62
     0
370
    30
100
AcDbLine
 10
142.466309
 20
593.070273
 30
0.0
 11
142.466309
 21
614.270273
 31
0.0
  0
LINE
  5
2E1
330
283
100
AcDbEntity
  8
0
  6
Continuous
 62
     0
370
    30
100
AcDbLine
 10
98.466309
 20
593.070273
 30
0.0
 11
98.466309
 21
614.270273
 31
0.0
  0
ARC
  5
2E2
330
283
100
AcDbEntity
  8
0
  6
Continuous
 62
     0
370
    30
100
AcDbCircle
 10
98.966328
 20
614.270235
 30
0.0
 40
0.5000377307416861
100
AcDbArc
 50
90.010454
 51
179.995677
  0
ARC
  5
2E3
330
283
100
AcDbEntity
  8
0
  6
Continuous
 62
     0
370
    30
100
AcDbCircle
 10
141.966217
 20
614.270236
 30
0.0
 40
0.5000368502383084
100
AcDbArc
 50
0.004222
 51
89.989913
  0
LINE
  5
2E4
330
283
100
AcDbEntity
  8
0
  6
Continuous
 62
     0
370
    30
100
AcDbLine
 10
-48.533692
 20
682.92027
 30
0.0
 11
-68.870917
 21
682.92027
 31
0.0
  0
LINE
  5
2E5
330
283
100
AcDbEntity
  8
0
  6
Continuous
 62
     0
370
     0
100
AcDbLine
 10
-68.870917
 20
663.12027
 30
0.0
 11
-70.533692
 21
663.12027
 31
0.0
  0
LINE
  5
2E6
330
283
100
AcDbEntity
  8
0
  6
Continuous
 62
     0
370
     0
100
AcDbLine
 10
-48.533692
 20
663.12027
 30
0.0
 11
-68.870917
 21
663.12027
 31
0.0
  0
LINE
  5
2E7
330
283
100
AcDbEntity
  8
0
  6
Continuous
 62
     0
370
    30
100
AcDbLine
 10
-68.701149
 20
662.92027
 30
0.0
 11
-70.333692
 21
662.92027
 31
0.0
  0
LINE
  5
2E8
330
283
100
AcDbEntity
  8
0
  6
Continuous
 62
     0
370
    30
100
AcDbLine
 10
-48.733692
 20
662.92027
 30
0.0
 11
-68.701149
 21
662.92027
 31
0.0
  0
ARC
  5
2E9
330
283
100
AcDbEntity
  8
0
  6
Continuous
 62
     0
370
    30
100
AcDbCircle
 10
-48.733992
 20
663.120571
 30
0.0
 40
0.2003008867700002
100
AcDbArc
 50
270.086004
 51
359.913996
  0
ARC
  5
2EA
330
283
100
AcDbEntity
  8
0
  6
Continuous
 62
     0
370
    30
100
AcDbCircle
 10
-70.333391
 20
663.120571
 30
0.0
 40
0.2003008867399988
100
AcDbArc
 50
180.086004
 51
269.913996
  0
LINE
  5
2EB
330
283
100
AcDbEntity
  8
0
  6
Continuous
 62
     0
370
    30
100
AcDbLine
 10
-48.533692
 20
682.92027
 30
0.0
 11
-48.533692
 21
663.12027
 31
0.0
  0
LINE
  5
2EC
330
283
100
AcDbEntity
  8
0
  6
Continuous
 62
     0
370
    30
100
AcDbLine
 10
-70.533692
 20
682.92027
 30
0.0
 11
-70.533692
 21
663.12027
 31
0.0
  0
ENDBLK
  5
2EE
330
283
100
AcDbEntity
  8
0
100
AcDbBlockEnd
  0
ENDSEC
  0
SECTION
  2
ENTITIES
  0
INSERT
  5
FE
330
1F
100
AcDbEntity
  8
0
  6
Continuous
 62
     7
420
 16777215
370
     0
100
AcDbBlockReference
  2
a
 10
711.020386
 20
177.690475
 30
0.0
  0
INSERT
  5
17E
330
1F
100
AcDbEntity
  8
0
  6
Continuous
 62
     7
420
 16777215
370
     0
100
AcDbBlockReference
  2
b
 10
711.020386
 20
177.690475
 30
0.0
  0
INSERT
  5
1C7
330
1F
100
AcDbEntity
  8
0
  6
Continuous
 62
     7
420
 16777215
370
     0
100
AcDbBlockReference
  2
c
 10
989.76001
 20
177.690506
 30
0.0
  0
INSERT
  5
282
330
1F
100
AcDbEntity
  8
0
  6
Continuous
 62
     7
420
 16777215
370
     0
100
AcDbBlockReference
  2
d
 10
987.544067
 20
162.566589
 30
0.0
  0
INSERT
  5
2EF
330
1F
100
AcDbEntity
  8
0
  6
Continuous
 62
     7
420
 16777215
370
     0
100
AcDbBlockReference
  2
e
 10
406.536774
 20
0.0
 30
0.0
  0
ENDSEC
  0
SECTION
  2
OBJECTS
  0
DICTIONARY
  5
C
330
0
100
AcDbDictionary
281
     1
  3
ACAD_GROUP
350
D
  3
ACAD_LAYOUT
350
1A
  3
ACAD_MATERIAL
350
3B
  3
ACAD_MLEADERSTYLE
350
2F1
  3
ACAD_MLINESTYLE
350
17
  3
ACAD_PLOTSETTINGS
350
19
  3
ACAD_PLOTSTYLENAME
350
E
  3
ACAD_TABLESTYLE
350
2F0
  3
ACAD_VISUALSTYLE
350
2A
  0
DICTIONARY
  5
D
102
{ACAD_REACTORS
330
C
102
}
330
C
100
AcDbDictionary
281
     1
  0
DICTIONARY
  5
1A
102
{ACAD_REACTORS
330
C
102
}
330
C
100
AcDbDictionary
281
     1
  3
Layout1
350
1E
  3
Layout2
350
26
  3
Model
350
22
  0
DICTIONARY
  5
3B
102
{ACAD_REACTORS
330
C
102
}
330
C
100
AcDbDictionary
281
     1
  3
ByBlock
350
3D
  3
ByLayer
350
3C
  3
Global
350
3E
  0
DICTIONARY
  5
2F1
102
{ACAD_REACTORS
330
C
102
}
330
C
100
AcDbDictionary
281
     1
  0
DICTIONARY
  5
17
102
{ACAD_REACTORS
330
C
102
}
330
C
100
AcDbDictionary
281
     1
  3
Standard
350
18
  0
DICTIONARY
  5
19
102
{ACAD_REACTORS
330
C
102
}
330
C
100
AcDbDictionary
281
     1
  0
ACDBDICTIONARYWDFLT
  5
E
102
{ACAD_REACTORS
330
C
102
}
330
C
100
AcDbDictionary
281
     1
  3
Normal
350
F
100
AcDbDictionaryWithDefault
340
F
  0
DICTIONARY
  5
2F0
102
{ACAD_REACTORS
330
C
102
}
330
C
100
AcDbDictionary
281
     1
  0
DICTIONARY
  5
2A
102
{ACAD_REACTORS
330
C
102
}
330
C
100
AcDbDictionary
281
     1
  3
2dWireframe
350
2F
  3
3D Hidden
350
31
  3
3dWireframe
350
30
  3
Basic
350
32
  3
Brighten
350
36
  3
ColorChange
350
3A
  3
Conceptual
350
34
  3
Dim
350
35
  3
Facepattern
350
39
  3
Flat
350
2B
  3
FlatWithEdges
350
2C
  3
Gouraud
350
2D
  3
GouraudWithEdges
350
2E
  3
Linepattern
350
38
  3
Realistic
350
33
  3
Thicken
350
37
  0
LAYOUT
  5
1E
102
{ACAD_REACTORS
330
1A
102
}
330
1A
100
AcDbPlotSettings
  1

  2
none_device
  4

  6

 40
0.0
 41
0.0
 42
0.0
 43
0.0
 44
0.0
 45
0.0
 46
0.0
 47
0.0
 48
0.0
 49
0.0
140
0.0
141
0.0
142
1.0
143
1.0
 70
   688
 72
     0
 73
     0
 74
     5
  7

 75
    16
 76
     0
 77
     2
 78
   300
147
1.0
148
0.0
149
0.0
100
AcDbLayout
  1
Layout1
 70
     1
 71
     1
 10
0.0
 20
0.0
 11
420.0
 21
297.0
 12
0.0
 22
0.0
 32
0.0
 14
1.000000E+20
 24
1.000000E+20
 34
1.000000E+20
 15
-1.000000E+20
 25
-1.000000E+20
 35
-1.000000E+20
146
0.0
 13
0.0
 23
0.0
 33
0.0
 16
1.0
 26
0.0
 36
0.0
 17
0.0
 27
1.0
 37
0.0
 76
     0
330
1B
  0
LAYOUT
  5
26
102
{ACAD_REACTORS
330
1A
102
}
330
1A
100
AcDbPlotSettings
  1

  2
none_device
  4

  6

 40
0.0
 41
0.0
 42
0.0
 43
0.0
 44
0.0
 45
0.0
 46
0.0
 47
0.0
 48
0.0
 49
0.0
140
0.0
141
0.0
142
1.0
143
1.0
 70
   688
 72
     0
 73
     0
 74
     5
  7

 75
    16
 76
     0
 77
     2
 78
   300
147
1.0
148
0.0
149
0.0
100
AcDbLayout
  1
Layout2
 70
     1
 71
     2
 10
0.0
 20
0.0
 11
0.0
 21
0.0
 12
0.0
 22
0.0
 32
0.0
 14
0.0
 24
0.0
 34
0.0
 15
0.0
 25
0.0
 35
0.0
146
0.0
 13
0.0
 23
0.0
 33
0.0
 16
1.0
 26
0.0
 36
0.0
 17
0.0
 27
1.0
 37
0.0
 76
     0
330
23
  0
LAYOUT
  5
22
102
{ACAD_REACTORS
330
1A
102
}
330
1A
100
AcDbPlotSettings
  1

  2
none_device
  4

  6

 40
0.0
 41
0.0
 42
0.0
 43
0.0
 44
0.0
 45
0.0
 46
0.0
 47
0.0
 48
0.0
 49
0.0
140
0.0
141
0.0
142
1.0
143
1.0
 70
  1712
 72
     0
 73
     0
 74
     0
  7

 75
     0
 76
     0
 77
     2
 78
   300
147
1.0
148
0.0
149
0.0
100
AcDbLayout
  1
Model
 70
     1
 71
     0
 10
0.0
 20
0.0
 11
420.0
 21
297.0
 12
0.0
 22
0.0
 32
0.0
 14
1.000000E+20
 24
1.000000E+20
 34
1.000000E+20
 15
-1.000000E+20
 25
-1.000000E+20
 35
-1.000000E+20
146
0.0
 13
0.0
 23
0.0
 33
0.0
 16
1.0
 26
0.0
 36
0.0
 17
0.0
 27
1.0
 37
0.0
 76
     0
330
1F
331
29
  0
MATERIAL
  5
3D
102
{ACAD_REACTORS
330
3B
102
}
330
3B
100
AcDbMaterial
  1
ByBlock
 72
     1
 94
      127
  0
MATERIAL
  5
3C
102
{ACAD_REACTORS
330
3B
102
}
330
3B
100
AcDbMaterial
  1
ByLayer
 72
     1
 94
      127
  0
MATERIAL
  5
3E
102
{ACAD_REACTORS
330
3B
102
}
330
3B
100
AcDbMaterial
  1
Global
 72
     1
 94
      127
  0
MLINESTYLE
  5
18
102
{ACAD_REACTORS
330
17
102
}
330
17
100
AcDbMlineStyle
  2
Standard
 70
     0
  3

 62
   256
 51
90.0
 52
90.0
 71
     2
 49
0.5
 62
   256
  6
BYLAYER
 49
-0.5
 62
   256
  6
BYLAYER
  0
ACDBPLACEHOLDER
  5
F
102
{ACAD_REACTORS
330
E
102
}
330
E
  0
VISUALSTYLE
  5
2F
102
{ACAD_REACTORS
330
2A
102
}
330
2A
100
AcDbVisualStyle
  2
2dWireframe
 70
     4
177
     2
291
     0
 71
     0
176
     1
 72
     2
176
     1
 73
     0
176
     1
 90
        0
176
     1
 40
-0.6
176
     1
 41
-30.0
176
     1
 62
     5
 63
     7
421
 16777215
176
     1
 74
     1
176
     1
 91
        4
176
     1
 64
     7
176
     1
 65
   257
176
     1
 75
     1
176
     1
175
     1
176
     1
 42
1.0
176
     1
 92
        0
176
     1
 66
   257
176
     1
 43
1.0
176
     1
 76
     1
176
     1
 77
     6
176
     1
 78
     2
176
     1
 67
     7
176
     1
 79
     5
176
     1
170
     0
176
     1
171
     0
176
     1
290
     0
176
     1
 93
        1
176
     1
 44
0.0
176
     1
173
     0
176
     1
  0
VISUALSTYLE
  5
31
102
{ACAD_REACTORS
330
2A
102
}
330
2A
100
AcDbVisualStyle
  2
3D Hidden
 70
     6
177
     2
291
     0
 71
     1
176
     1
 72
     2
176
     1
 73
     2
176
     1
 90
        0
176
     1
 40
-0.6
176
     1
 41
-30.0
176
     1
 62
     5
 63
     7
421
 16777215
176
     1
 74
     2
176
     1
 91
        2
176
     1
 64
     7
176
     1
 65
   257
176
     1
 75
     2
176
     1
175
     1
176
     1
 42
40.0
176
     1
 92
        0
176
     1
 66
   257
176
     1
 43
1.0
176
     1
 76
     1
176
     1
 77
     6
176
     1
 78
     2
176
     1
 67
     7
176
     1
 79
     3
176
     1
170
     0
176
     1
171
     0
176
     1
290
     0
176
     1
 93
        1
176
     1
 44
0.0
176
     1
173
     0
176
     1
  0
VISUALSTYLE
  5
30
102
{ACAD_REACTORS
330
2A
102
}
330
2A
100
AcDbVisualStyle
  2
3dWireframe
 70
     5
177
     2
291
     0
 71
     0
176
     1
 72
     2
176
     1
 73
     0
176
     1
 90
        0
176
     1
 40
-0.6
176
     1
 41
-30.0
176
     1
 62
     5
 63
     7
421
 16777215
176
     1
 74
     1
176
     1
 91
        4
176
     1
 64
     7
176
     1
 65
   257
176
     1
 75
     1
176
     1
175
     1
176
     1
 42
1.0
176
     1
 92
        0
176
     1
 66
   257
176
     1
 43
1.0
176
     1
 76
     1
176
     1
 77
     6
176
     1
 78
     2
176
     1
 67
     7
176
     1
 79
     5
176
     1
170
     0
176
     1
171
     0
176
     1
290
     0
176
     1
 93
        1
176
     1
 44
0.0
176
     1
173
     0
176
     1
  0
VISUALSTYLE
  5
32
102
{ACAD_REACTORS
330
2A
102
}
330
2A
100
AcDbVisualStyle
  2
Basic
 70
     7
177
     2
291
     1
 71
     1
176
     1
 72
     0
176
     1
 73
     1
176
     1
 90
        0
176
     1
 40
-0.6
176
     1
 41
-30.0
176
     1
 62
     5
 63
     7
421
 16777215
176
     1
 74
     0
176
     1
 91
        4
176
     1
 64
     7
176
     1
 65
   257
176
     1
 75
     1
176
     1
175
     1
176
     1
 42
1.0
176
     1
 92
        8
176
     1
 66
     7
176
     1
 43
1.0
176
     1
 76
     1
176
     1
 77
     6
176
     1
 78
     2
176
     1
 67
     7
176
     1
 79
     5
176
     1
170
     0
176
     1
171
     0
176
     1
290
     0
176
     1
 93
        1
176
     1
 44
0.0
176
     1
173
     0
176
     1
  0
VISUALSTYLE
  5
36
102
{ACAD_REACTORS
330
2A
102
}
330
2A
100
AcDbVisualStyle
  2
Brighten
 70
    12
177
     2
291
     1
 71
     2
176
     1
 72
     2
176
     1
 73
     0
176
     1
 90
        0
176
     1
 40
-0.6
176
     1
 41
-30.0
176
     1
 62
     5
 63
     7
421
 16777215
176
     1
 74
     1
176
     1
 91
        4
176
     1
 64
     7
176
     1
 65
   257
176
     1
 75
     1
176
     1
175
     1
176
     1
 42
1.0
176
     1
 92
        8
176
     1
 66
     7
176
     1
 43
1.0
176
     1
 76
     1
176
     1
 77
     6
176
     1
 78
     2
176
     1
 67
     7
176
     1
 79
     5
176
     1
170
     0
176
     1
171
     0
176
     1
290
     0
176
     1
 93
        1
176
     1
 44
50.0
176
     1
173
     0
176
     1
  0
VISUALSTYLE
  5
3A
102
{ACAD_REACTORS
330
2A
102
}
330
2A
100
AcDbVisualStyle
  2
ColorChange
 70
    16
177
     2
291
     1
 71
     2
176
     1
 72
     2
176
     1
 73
     3
176
     1
 90
        0
176
     1
 40
-0.6
176
     1
 41
-30.0
176
     1
 62
     5
 63
     8
421
  8421504
176
     1
 74
     1
176
     1
 91
        4
176
     1
 64
     7
176
     1
 65
   257
176
     1
 75
     1
176
     1
175
     1
176
     1
 42
1.0
176
     1
 92
        8
176
     1
 66
     8
424
  8421504
176
     1
 43
1.0
176
     1
 76
     1
176
     1
 77
     6
176
     1
 78
     2
176
     1
 67
     7
176
     1
 79
     5
176
     1
170
     0
176
     1
171
     0
176
     1
290
     0
176
     1
 93
        1
176
     1
 44
0.0
176
     1
173
     0
176
     1
  0
VISUALSTYLE
  5
34
102
{ACAD_REACTORS
330
2A
102
}
330
2A
100
AcDbVisualStyle
  2
Conceptual
 70
     9
177
     2
291
     0
 71
     3
176
     1
 72
     2
176
     1
 73
     0
176
     1
 90
        0
176
     1
 40
-0.6
176
     1
 41
-30.0
176
     1
 62
     5
 63
     7
421
 16777215
176
     1
 74
     2
176
     1
 91
        2
176
     1
 64
     7
176
     1
 65
   257
176
     1
 75
     1
176
     1
175
     1
176
     1
 42
40.0
176
     1
 92
        8
176
     1
 66
     7
176
     1
 43
1.0
176
     1
 76
     1
176
     1
 77
     6
176
     1
 78
     2
176
     1
 67
     7
176
     1
 79
     3
176
     1
170
     0
176
     1
171
     0
176
     1
290
     0
176
     1
 93
        1
176
     1
 44
0.0
176
     1
173
     0
176
     1
  0
VISUALSTYLE
  5
35
102
{ACAD_REACTORS
330
2A
102
}
330
2A
100
AcDbVisualStyle
  2
Dim
 70
    11
177
     2
291
     1
 71
     2
176
     1
 72
     2
176
     1
 73
     0
176
     1
 90
        0
176
     1
 40
-0.6
176
     1
 41
-30.0
176
     1
 62
     5
 63
     7
421
 16777215
176
     1
 74
     1
176
     1
 91
        4
176
     1
 64
     7
176
     1
 65
   257
176
     1
 75
     1
176
     1
175
     1
176
     1
 42
1.0
176
     1
 92
        8
176
     1
 66
     7
176
     1
 43
1.0
176
     1
 76
     1
176
     1
 77
     6
176
     1
 78
     2
176
     1
 67
     7
176
     1
 79
     5
176
     1
170
     0
176
     1
171
     0
176
     1
290
     0
176
     1
 93
        1
176
     1
 44
-50.0
176
     1
173
     0
176
     1
  0
VISUALSTYLE
  5
39
102
{ACAD_REACTORS
330
2A
102
}
330
2A
100
AcDbVisualStyle
  2
Facepattern
 70
    15
177
     2
291
     1
 71
     2
176
     1
 72
     2
176
     1
 73
     0
176
     1
 90
        0
176
     1
 40
-0.6
176
     1
 41
-30.0
176
     1
 62
     5
 63
     7
421
 16777215
176
     1
 74
     1
176
     1
 91
        4
176
     1
 64
     7
176
     1
 65
   257
176
     1
 75
     1
176
     1
175
     1
176
     1
 42
1.0
176
     1
 92
        8
176
     1
 66
     7
176
     1
 43
1.0
176
     1
 76
     1
176
     1
 77
     6
176
     1
 78
     2
176
     1
 67
     7
176
     1
 79
     5
176
     1
170
     0
176
     1
171
     0
176
     1
290
     0
176
     1
 93
        1
176
     1
 44
0.0
176
     1
173
     0
176
     1
  0
VISUALSTYLE
  5
2B
102
{ACAD_REACTORS
330
2A
102
}
330
2A
100
AcDbVisualStyle
  2
Flat
 70
     0
177
     2
291
     1
 71
     2
176
     1
 72
     1
176
     1
 73
     1
176
     1
 90
        2
176
     1
 40
-0.6
176
     1
 41
30.0
176
     1
 62
     5
 63
     7
421
 16777215
176
     1
 74
     0
176
     1
 91
        4
176
     1
 64
     7
176
     1
 65
   257
176
     1
 75
     1
176
     1
175
     1
176
     1
 42
1.0
176
     1
 92
        8
176
     1
 66
     7
176
     1
 43
1.0
176
     1
 76
     1
176
     1
 77
     6
176
     1
 78
     2
176
     1
 67
     7
176
     1
 79
     5
176
     1
170
     0
176
     1
171
     0
176
     1
290
     0
176
     1
 93
       13
176
     1
 44
0.0
176
     1
173
     0
176
     1
  0
VISUALSTYLE
  5
2C
102
{ACAD_REACTORS
330
2A
102
}
330
2A
100
AcDbVisualStyle
  2
FlatWithEdges
 70
     1
177
     2
291
     1
 71
     2
176
     1
 72
     1
176
     1
 73
     1
176
     1
 90
        2
176
     1
 40
-0.6
176
     1
 41
30.0
176
     1
 62
     5
 63
     7
421
 16777215
176
     1
 74
     1
176
     1
 91
        4
176
     1
 64
     7
176
     1
 65
   257
176
     1
 75
     1
176
     1
175
     1
176
     1
 42
1.0
176
     1
 92
        0
176
     1
 66
   257
176
     1
 43
1.0
176
     1
 76
     1
176
     1
 77
     6
176
     1
 78
     2
176
     1
 67
     7
176
     1
 79
     5
176
     1
170
     0
176
     1
171
     0
176
     1
290
     0
176
     1
 93
       13
176
     1
 44
0.0
176
     1
173
     0
176
     1
  0
VISUALSTYLE
  5
2D
102
{ACAD_REACTORS
330
2A
102
}
330
2A
100
AcDbVisualStyle
  2
Gouraud
 70
     2
177
     2
291
     1
 71
     2
176
     1
 72
     2
176
     1
 73
     1
176
     1
 90
        2
176
     1
 40
-0.6
176
     1
 41
30.0
176
     1
 62
     5
 63
     7
421
 16777215
176
     1
 74
     0
176
     1
 91
        4
176
     1
 64
     7
176
     1
 65
   257
176
     1
 75
     1
176
     1
175
     1
176
     1
 42
1.0
176
     1
 92
        0
176
     1
 66
     7
176
     1
 43
1.0
176
     1
 76
     1
176
     1
 77
     6
176
     1
 78
     2
176
     1
 67
     7
176
     1
 79
     5
176
     1
170
     0
176
     1
171
     0
176
     1
290
     0
176
     1
 93
       13
176
     1
 44
0.0
176
     1
173
     0
176
     1
  0
VISUALSTYLE
  5
2E
102
{ACAD_REACTORS
330
2A
102
}
330
2A
100
AcDbVisualStyle
  2
GouraudWithEdges
 70
     3
177
     2
291
     1
 71
     2
176
     1
 72
     2
176
     1
 73
     1
176
     1
 90
        2
176
     1
 40
-0.6
176
     1
 41
30.0
176
     1
 62
     5
 63
     7
421
 16777215
176
     1
 74
     1
176
     1
 91
        4
176
     1
 64
     7
176
     1
 65
   257
176
     1
 75
     1
176
     1
175
     1
176
     1
 42
1.0
176
     1
 92
        0
176
     1
 66
   257
176
     1
 43
1.0
176
     1
 76
     1
176
     1
 77
     6
176
     1
 78
     2
176
     1
 67
     7
176
     1
 79
     5
176
     1
170
     0
176
     1
171
     0
176
     1
290
     0
176
     1
 93
       13
176
     1
 44
0.0
176
     1
173
     0
176
     1
  0
VISUALSTYLE
  5
38
102
{ACAD_REACTORS
330
2A
102
}
330
2A
100
AcDbVisualStyle
  2
Linepattern
 70
    14
177
     2
291
     1
 71
     2
176
     1
 72
     2
176
     1
 73
     0
176
     1
 90
        0
176
     1
 40
-0.6
176
     1
 41
-30.0
176
     1
 62
     5
 63
     7
421
 16777215
176
     1
 74
     1
176
     1
 91
        4
176
     1
 64
     7
176
     1
 65
   257
176
     1
 75
     7
176
     1
175
     7
176
     1
 42
1.0
176
     1
 92
        8
176
     1
 66
     7
176
     1
 43
1.0
176
     1
 76
     1
176
     1
 77
     6
176
     1
 78
     2
176
     1
 67
     7
176
     1
 79
     5
176
     1
170
     0
176
     1
171
     0
176
     1
290
     0
176
     1
 93
        1
176
     1
 44
0.0
176
     1
173
     0
176
     1
  0
VISUALSTYLE
  5
33
102
{ACAD_REACTORS
330
2A
102
}
330
2A
100
AcDbVisualStyle
  2
Realistic
 70
     8
177
     2
291
     0
 71
     2
176
     1
 72
     2
176
     1
 73
     0
176
     1
 90
        0
176
     1
 40
-0.6
176
     1
 41
-30.0
176
     1
 62
     5
 63
     7
421
 16777215
176
     1
 74
     1
176
     1
 91
        0
176
     1
 64
     7
176
     1
 65
   257
176
     1
 75
     1
176
     1
175
     1
176
     1
 42
1.0
176
     1
 92
        8
176
     1
 66
     8
424
  7895160
176
     1
 43
1.0
176
     1
 76
     1
176
     1
 77
     6
176
     1
 78
     2
176
     1
 67
     7
176
     1
 79
     5
176
     1
170
     0
176
     1
171
     0
176
     1
290
     0
176
     1
 93
       13
176
     1
 44
0.0
176
     1
173
     0
176
     1
  0
VISUALSTYLE
  5
37
102
{ACAD_REACTORS
330
2A
102
}
330
2A
100
AcDbVisualStyle
  2
Thicken
 70
    13
177
     2
291
     1
 71
     2
176
     1
 72
     2
176
     1
 73
     0
176
     1
 90
        0
176
     1
 40
-0.6
176
     1
 41
-30.0
176
     1
 62
     5
 63
     7
421
 16777215
176
     1
 74
     1
176
     1
 91
        4
176
     1
 64
     7
176
     1
 65
   257
176
     1
 75
     1
176
     1
175
     1
176
     1
 42
1.0
176
     1
 92
       12
176
     1
 66
     7
176
     1
 43
1.0
176
     1
 76
     1
176
     1
 77
     6
176
     1
 78
     2
176
     1
 67
     7
176
     1
 79
     5
176
     1
170
     0
176
     1
171
     0
176
     1
290
     0
176
     1
 93
        1
176
     1
 44
0.0
176
     1
173
     0
176
     1
  0
ENDSEC
  0
EOF
