  0
SECTION
  2
HEADER
  9
$ACADVER
  1
AC1024
  9
$ACADMAINTVER
 70
     6
  9
$DWGCODEPAGE
  3
ANSI_1252
  9
$INSBASE
 10
0.0
 20
0.0
 30
0.0
  9
$EXTMIN
 10
1.000000E+20
 20
1.000000E+20
 30
1.000000E+20
  9
$EXTMAX
 10
-1.000000E+20
 20
-1.000000E+20
 30
-1.000000E+20
  9
$LIMMIN
 10
0.0
 20
0.0
  9
$LIMMAX
 10
420.0
 20
297.0
  9
$ORTHOMODE
 70
     0
  9
$REGENMODE
 70
     1
  9
$FILLMODE
 70
     1
  9
$QTEXTMODE
 70
     0
  9
$MIRRTEXT
 70
     1
  9
$LTSCALE
 40
1.0
  9
$ATTMODE
 70
     1
  9
$TEXTSIZE
 40
2.5
  9
$TRACEWID
 40
1.0
  9
$TEXTSTYLE
  7
Standard
  9
$CLAYER
  8
0
  9
$CELTYPE
  6
ByLayer
  9
$CECOLOR
 62
   256
  9
$CELTSCALE
 40
1.0
  9
$DISPSILH
 70
     0
  9
$DIMSCALE
 40
1.0
  9
$DIMASZ
 40
2.5
  9
$DIMEXO
 40
0.625
  9
$DIMDLI
 40
3.75
  9
$DIMRND
 40
0.0
  9
$DIMDLE
 40
0.0
  9
$DIMEXE
 40
1.25
  9
$DIMTP
 40
0.0
  9
$DIMTM
 40
0.0
  9
$DIMTXT
 40
2.5
  9
$DIMCEN
 40
2.5
  9
$DIMTSZ
 40
0.0
  9
$DIMTOL
 70
     0
  9
$DIMLIM
 70
     0
  9
$DIMTIH
 70
     0
  9
$DIMTOH
 70
     0
  9
$DIMSE1
 70
     0
  9
$DIMSE2
 70
     0
  9
$DIMTAD
 70
     1
  9
$DIMZIN
 70
     8
  9
$DIMBLK
  1

  9
$DIMASO
 70
     1
  9
$DIMSHO
 70
     1
  9
$DIMPOST
  1

  9
$DIMAPOST
  1

  9
$DIMALT
 70
     0
  9
$DIMALTD
 70
     3
  9
$DIMALTF
 40
0.03937
  9
$DIMLFAC
 40
1.0
  9
$DIMTOFL
 70
     1
  9
$DIMTVP
 40
0.0
  9
$DIMTIX
 70
     0
  9
$DIMSOXD
 70
     0
  9
$DIMSAH
 70
     0
  9
$DIMBLK1
  1

  9
$DIMBLK2
  1

  9
$DIMSTYLE
  2
ISO-25
  9
$DIMCLRD
 70
     0
  9
$DIMCLRE
 70
     0
  9
$DIMCLRT
 70
     0
  9
$DIMTFAC
 40
1.0
  9
$DIMGAP
 40
0.625
  9
$DIMJUST
 70
     0
  9
$DIMSD1
 70
     0
  9
$DIMSD2
 70
     0
  9
$DIMTOLJ
 70
     0
  9
$DIMTZIN
 70
     8
  9
$DIMALTZ
 70
     0
  9
$DIMALTTZ
 70
     0
  9
$DIMUPT
 70
     0
  9
$DIMDEC
 70
     2
  9
$DIMTDEC
 70
     2
  9
$DIMALTU
 70
     2
  9
$DIMALTTD
 70
     3
  9
$DIMTXSTY
  7
Standard
  9
$DIMAUNIT
 70
     0
  9
$DIMADEC
 70
     0
  9
$DIMALTRND
 40
0.0
  9
$DIMAZIN
 70
     0
  9
$DIMDSEP
 70
    44
  9
$DIMATFIT
 70
     3
  9
$DIMFRAC
 70
     0
  9
$DIMLDRBLK
  1

  9
$DIMLUNIT
 70
     2
  9
$DIMLWD
 70
    -2
  9
$DIMLWE
 70
    -2
  9
$DIMTMOVE
 70
     0
  9
$DIMFXL
 40
1.0
  9
$DIMFXLON
 70
     0
  9
$DIMJOGANG
 40
0.785398
  9
$DIMTFILL
 70
     0
  9
$DIMTFILLCLR
 70
     0
  9
$DIMARCSYM
 70
     0
  9
$DIMLTYPE
  6

  9
$DIMLTEX1
  6

  9
$DIMLTEX2
  6

  9
$DIMTXTDIRECTION
 70
     0
  9
$LUNITS
 70
     2
  9
$LUPREC
 70
     4
  9
$SKETCHINC
 40
1.0
  9
$FILLETRAD
 40
10.0
  9
$AUNITS
 70
     0
  9
$AUPREC
 70
     0
  9
$MENU
  1
.
  9
$ELEVATION
 40
0.0
  9
$PELEVATION
 40
0.0
  9
$THICKNESS
 40
0.0
  9
$LIMCHECK
 70
     0
  9
$CHAMFERA
 40
10.0
  9
$CHAMFERB
 40
10.0
  9
$CHAMFERC
 40
20.0
  9
$CHAMFERD
 40
0.0
  9
$SKPOLY
 70
     0
  9
$TDCREATE
 40
2457128.600356227
  9
$TDUCREATE
 40
2457128.517022893
  9
$TDUPDATE
 40
2457128.600356238
  9
$TDUUPDATE
 40
2457128.517022905
  9
$TDINDWG
 40
0.0000000116
  9
$TDUSRTIMER
 40
0.0000000116
  9
$USRTIMER
 70
     1
  9
$ANGBASE
 50
0.0
  9
$ANGDIR
 70
     0
  9
$PDMODE
 70
     0
  9
$PDSIZE
 40
0.0
  9
$PLINEWID
 40
0.0
  9
$SPLFRAME
 70
     0
  9
$SPLINETYPE
 70
     6
  9
$SPLINESEGS
 70
     8
  9
$HANDSEED
  5
306
  9
$SURFTAB1
 70
     6
  9
$SURFTAB2
 70
     6
  9
$SURFTYPE
 70
     6
  9
$SURFU
 70
     6
  9
$SURFV
 70
     6
  9
$UCSBASE
  2

  9
$UCSNAME
  2

  9
$UCSORG
 10
0.0
 20
0.0
 30
0.0
  9
$UCSXDIR
 10
1.0
 20
0.0
 30
0.0
  9
$UCSYDIR
 10
0.0
 20
1.0
 30
0.0
  9
$UCSORTHOREF
  2

  9
$UCSORTHOVIEW
 70
     0
  9
$UCSORGTOP
 10
0.0
 20
0.0
 30
0.0
  9
$UCSORGBOTTOM
 10
0.0
 20
0.0
 30
0.0
  9
$UCSORGLEFT
 10
0.0
 20
0.0
 30
0.0
  9
$UCSORGRIGHT
 10
0.0
 20
0.0
 30
0.0
  9
$UCSORGFRONT
 10
0.0
 20
0.0
 30
0.0
  9
$UCSORGBACK
 10
0.0
 20
0.0
 30
0.0
  9
$PUCSBASE
  2

  9
$PUCSNAME
  2

  9
$PUCSORG
 10
0.0
 20
0.0
 30
0.0
  9
$PUCSXDIR
 10
1.0
 20
0.0
 30
0.0
  9
$PUCSYDIR
 10
0.0
 20
1.0
 30
0.0
  9
$PUCSORTHOREF
  2

  9
$PUCSORTHOVIEW
 70
     0
  9
$PUCSORGTOP
 10
0.0
 20
0.0
 30
0.0
  9
$PUCSORGBOTTOM
 10
0.0
 20
0.0
 30
0.0
  9
$PUCSORGLEFT
 10
0.0
 20
0.0
 30
0.0
  9
$PUCSORGRIGHT
 10
0.0
 20
0.0
 30
0.0
  9
$PUCSORGFRONT
 10
0.0
 20
0.0
 30
0.0
  9
$PUCSORGBACK
 10
0.0
 20
0.0
 30
0.0
  9
$USERI1
 70
     0
  9
$USERI2
 70
     0
  9
$USERI3
 70
     0
  9
$USERI4
 70
     0
  9
$USERI5
 70
     0
  9
$USERR1
 40
0.0
  9
$USERR2
 40
0.0
  9
$USERR3
 40
0.0
  9
$USERR4
 40
0.0
  9
$USERR5
 40
0.0
  9
$WORLDVIEW
 70
     1
  9
$SHADEDGE
 70
     3
  9
$SHADEDIF
 70
    70
  9
$TILEMODE
 70
     1
  9
$MAXACTVP
 70
    64
  9
$PINSBASE
 10
0.0
 20
0.0
 30
0.0
  9
$PLIMCHECK
 70
     0
  9
$PEXTMIN
 10
1.000000E+20
 20
1.000000E+20
 30
1.000000E+20
  9
$PEXTMAX
 10
-1.000000E+20
 20
-1.000000E+20
 30
-1.000000E+20
  9
$PLIMMIN
 10
0.0
 20
0.0
  9
$PLIMMAX
 10
420.0
 20
297.0
  9
$UNITMODE
 70
     0
  9
$VISRETAIN
 70
     1
  9
$PLINEGEN
 70
     0
  9
$PSLTSCALE
 70
     1
  9
$TREEDEPTH
 70
  3020
  9
$CMLSTYLE
  2
Standard
  9
$CMLJUST
 70
     0
  9
$CMLSCALE
 40
20.0
  9
$PROXYGRAPHICS
 70
     1
  9
$MEASUREMENT
 70
     1
  9
$CELWEIGHT
370
    -1
  9
$ENDCAPS
280
     0
  9
$JOINSTYLE
280
     0
  9
$LWDISPLAY
290
     0
  9
$INSUNITS
 70
     4
  9
$HYPERLINKBASE
  1

  9
$STYLESHEET
  1

  9
$XEDIT
290
     1
  9
$CEPSNTYPE
380
     0
  9
$PSTYLEMODE
290
     1
  9
$FINGERPRINTGUID
  2
{C4175F20-F8E8-44EE-A6F9-DFB0B72EE7DB}
  9
$VERSIONGUID
  2
{FAEB1C32-E019-11D5-929B-00C0DF256EC4}
  9
$EXTNAMES
290
     1
  9
$PSVPSCALE
 40
0.0
  9
$OLESTARTUP
290
     0
  9
$SORTENTS
280
   127
  9
$INDEXCTL
280
     0
  9
$HIDETEXT
280
     1
  9
$XCLIPFRAME
280
     2
  9
$HALOGAP
280
     0
  9
$OBSCOLOR
 70
   257
  9
$OBSLTYPE
280
     0
  9
$INTERSECTIONDISPLAY
280
     0
  9
$INTERSECTIONCOLOR
 70
   257
  9
$DIMASSOC
280
     2
  9
$PROJECTNAME
  1

  9
$CAMERADISPLAY
290
     0
  9
$LENSLENGTH
 40
50.0
  9
$CAMERAHEIGHT
 40
0.0
  9
$STEPSPERSEC
 40
2.0
  9
$STEPSIZE
 40
6.0
  9
$3DDWFPREC
 40
2.0
  9
$PSOLWIDTH
 40
5.0
  9
$PSOLHEIGHT
 40
80.0
  9
$LOFTANG1
 40
1.570796
  9
$LOFTANG2
 40
1.570796
  9
$LOFTMAG1
 40
0.0
  9
$LOFTMAG2
 40
0.0
  9
$LOFTPARAM
 70
     7
  9
$LOFTNORMALS
280
     1
  9
$LATITUDE
 40
37.795
  9
$LONGITUDE
 40
-122.394
  9
$NORTHDIRECTION
 40
0.0
  9
$TIMEZONE
 70
 -8000
  9
$LIGHTGLYPHDISPLAY
280
     1
  9
$TILEMODELIGHTSYNCH
280
     1
  9
$SOLIDHIST
280
     1
  9
$SHOWHIST
280
     1
  9
$DWFFRAME
280
     2
  9
$DGNFRAME
280
     2
  9
$REALWORLDSCALE
290
     1
  9
$INTERFERECOLOR
 62
   256
  9
$CSHADOW
280
     0
  9
$SHADOWPLANELOCATION
 40
0.0
  0
ENDSEC
  0
SECTION
  2
CLASSES
  0
CLASS
  1
ACDBDICTIONARYWDFLT
  2
AcDbDictionaryWithDefault
  3
ObjectDBX Classes
 90
        0
 91
        4
280
     0
281
     0
  0
CLASS
  1
VISUALSTYLE
  2
AcDbVisualStyle
  3
ObjectDBX Classes
 90
     4095
 91
        4
280
     0
281
     0
  0
CLASS
  1
MATERIAL
  2
AcDbMaterial
  3
ObjectDBX Classes
 90
     1153
 91
        4
280
     0
281
     0
  0
ENDSEC
  0
SECTION
  2
TABLES
  0
TABLE
  2
VPORT
  5
8
330
0
100
AcDbSymbolTable
 70
     1
  0
VPORT
  5
29
330
8
100
AcDbSymbolTableRecord
100
AcDbViewportTableRecord
  2
*Active
 70
     0
 10
0.0
 20
0.0
 11
1.0
 21
1.0
 12
344.186916
 22
148.5
 13
0.0
 23
0.0
 14
10.0
 24
10.0
 15
10.0
 25
10.0
 16
0.0
 26
0.0
 36
1.0
 17
0.0
 27
0.0
 37
0.0
 40
297.0
 41
1.972973
 42
50.0
 43
0.0
 44
0.0
 50
0.0
 51
0.0
 71
     0
 72
   100
 73
     1
 74
     3
 75
     0
 76
     0
 77
     0
 78
     0
281
     0
 65
     1
110
0.0
120
0.0
130
0.0
111
1.0
121
0.0
131
0.0
112
0.0
122
1.0
132
0.0
 79
     0
146
0.0
 60
     3
 61
     5
292
     1
282
     1
141
0.0
142
0.0
 63
   250
  0
ENDTAB
  0
TABLE
  2
LTYPE
  5
5
330
0
100
AcDbSymbolTable
 70
     1
  0
LTYPE
  5
14
330
5
100
AcDbSymbolTableRecord
100
AcDbLinetypeTableRecord
  2
ByBlock
 70
     0
  3

 72
    65
 73
     0
 40
0.0
  0
LTYPE
  5
15
330
5
100
AcDbSymbolTableRecord
100
AcDbLinetypeTableRecord
  2
ByLayer
 70
     0
  3

 72
    65
 73
     0
 40
0.0
  0
LTYPE
  5
16
330
5
100
AcDbSymbolTableRecord
100
AcDbLinetypeTableRecord
  2
Continuous
 70
     0
  3
Solid line
 72
    65
 73
     0
 40
0.0
  0
ENDTAB
  0
TABLE
  2
LAYER
  5
2
330
0
100
AcDbSymbolTable
 70
     1
  0
LAYER
  5
10
330
2
100
AcDbSymbolTableRecord
100
AcDbLayerTableRecord
  2
0
 70
     0
 62
   102
  6
Continuous
370
     0
390
F
347
3E
  0
ENDTAB
  0
TABLE
  2
STYLE
  5
3
330
0
100
AcDbSymbolTable
 70
     4
  0
STYLE
  5
11
330
3
100
AcDbSymbolTableRecord
100
AcDbTextStyleTableRecord
  2
Standard
 70
     0
 40
0.0
 41
1.0
 50
0.0
 71
     0
 42
2.5
  3
txt
  4

1001
ACAD
1000
txt
1071
        0
  0
STYLE
  5
3F
330
3
100
AcDbSymbolTableRecord
100
AcDbTextStyleTableRecord
  2
Default
 70
     0
 40
0.0
 41
1.0
 50
0.0
 71
     0
 42
0.2
  3

  4

1001
ACAD
1000
txt
1071
        0
  0
STYLE
  5
40
330
3
100
AcDbSymbolTableRecord
100
AcDbTextStyleTableRecord
  2
ISO
 70
     0
 40
0.0
 41
1.0
 50
0.0
 71
     0
 42
0.2
  3

  4

1001
ACAD
1000
txt
1071
        0
  0
STYLE
  5
41
330
3
100
AcDbSymbolTableRecord
100
AcDbTextStyleTableRecord
  2
GIANLU
 70
     0
 40
0.0
 41
1.0
 50
0.0
 71
     0
 42
0.2
  3

  4

1001
ACAD
1000
Arial
1071
 33554432
  0
ENDTAB
  0
TABLE
  2
VIEW
  5
6
330
0
100
AcDbSymbolTable
 70
     0
  0
ENDTAB
  0
TABLE
  2
UCS
  5
7
330
0
100
AcDbSymbolTable
 70
     0
  0
ENDTAB
  0
TABLE
  2
APPID
  5
9
330
0
100
AcDbSymbolTable
 70
     1
  0
APPID
  5
12
330
9
100
AcDbSymbolTableRecord
100
AcDbRegAppTableRecord
  2
ACAD
 70
     0
  0
ENDTAB
  0
TABLE
  2
DIMSTYLE
  5
A
330
0
100
AcDbSymbolTable
 70
     5
100
AcDbDimStyleTable
  0
DIMSTYLE
105
27
330
A
100
AcDbSymbolTableRecord
100
AcDbDimStyleTableRecord
  2
ISO-25
 70
     0
 41
2.5
 42
0.625
 43
3.75
 44
1.25
 73
     0
 74
     0
 77
     1
 78
     8
140
2.5
141
2.5
143
0.03937
147
0.625
171
     3
172
     1
271
     2
272
     2
274
     3
278
    44
283
     0
284
     8
340
11
  0
DIMSTYLE
105
42
330
A
100
AcDbSymbolTableRecord
100
AcDbDimStyleTableRecord
  2
Default
 70
     0
  3
<>
 41
4.375
 42
1.05
 44
2.1
 49
10.01
 73
     0
 74
     0
 77
     1
 78
     8
140
3.5
146
0.4
147
1.75
172
     1
178
     2
271
     2
272
     3
284
     8
340
3F
341
43
342
43
  0
DIMSTYLE
105
4A
330
A
100
AcDbSymbolTableRecord
100
AcDbDimStyleTableRecord
  2
DefaultDimensionStyle
 70
     0
  3
<>
 41
2.5
 42
0.875
 44
1.75
 49
10.01
 73
     0
 74
     0
 77
     1
 78
     8
140
3.5
147
1.75
172
     1
178
     2
271
     2
272
     2
278
    44
284
     8
340
11
  0
DIMSTYLE
105
4B
330
A
100
AcDbSymbolTableRecord
100
AcDbDimStyleTableRecord
  2
ISO
 70
     0
  3
<>
 41
4.375
 42
1.05
 44
2.1
 49
10.01
 73
     0
 74
     0
 77
     1
 78
     8
140
3.5
146
0.4
147
1.75
172
     1
178
     2
271
     2
272
     3
284
     8
340
40
341
43
342
43
  0
DIMSTYLE
105
4C
330
A
100
AcDbSymbolTableRecord
100
AcDbDimStyleTableRecord
  2
zucchetti_unico
 70
     0
  3
<>
 41
3.5
 42
1.05
 44
2.1
 49
10.01
 73
     0
 74
     0
 77
     1
 78
     8
140
3.5
146
0.6
147
1.75
172
     1
178
     2
271
     2
272
     2
284
     8
340
11
  0
ENDTAB
  0
TABLE
  2
BLOCK_RECORD
  5
1
330
0
100
AcDbSymbolTable
 70
     7
  0
BLOCK_RECORD
  5
1F
330
1
100
AcDbSymbolTableRecord
100
AcDbBlockTableRecord
  2
*Model_Space
340
22
 70
     0
280
     1
281
     0
  0
BLOCK_RECORD
  5
1B
330
1
100
AcDbSymbolTableRecord
100
AcDbBlockTableRecord
  2
*Paper_Space
340
1E
 70
     0
280
     1
281
     0
  0
BLOCK_RECORD
  5
23
330
1
100
AcDbSymbolTableRecord
100
AcDbBlockTableRecord
  2
*Paper_Space0
340
26
 70
     0
280
     1
281
     0
  0
BLOCK_RECORD
  5
43
330
1
100
AcDbSymbolTableRecord
100
AcDbBlockTableRecord
  2
_CLOSED
340
0
 70
     0
280
     1
281
     0
  0
BLOCK_RECORD
  5
4D
330
1
100
AcDbSymbolTableRecord
100
AcDbBlockTableRecord
  2
a
340
0
102
{BLKREFS
331
102
102
}
 70
     0
280
     1
281
     0
  0
BLOCK_RECORD
  5
103
330
1
100
AcDbSymbolTableRecord
100
AcDbBlockTableRecord
  2
b
340
0
102
{BLKREFS
331
185
102
}
 70
     0
280
     1
281
     0
  0
BLOCK_RECORD
  5
186
330
1
100
AcDbSymbolTableRecord
100
AcDbBlockTableRecord
  2
c
340
0
102
{BLKREFS
331
1D2
102
}
 70
     0
280
     1
281
     0
  0
BLOCK_RECORD
  5
1D3
330
1
100
AcDbSymbolTableRecord
100
AcDbBlockTableRecord
  2
d
340
0
102
{BLKREFS
331
292
102
}
 70
     0
280
     1
281
     0
  0
BLOCK_RECORD
  5
293
330
1
100
AcDbSymbolTableRecord
100
AcDbBlockTableRecord
  2
e
340
0
102
{BLKREFS
331
303
102
}
 70
     0
280
     1
281
     0
  0
ENDTAB
  0
ENDSEC
  0
SECTION
  2
BLOCKS
  0
BLOCK
  5
20
330
1F
100
AcDbEntity
  8
0
100
AcDbBlockBegin
  2
*Model_Space
 70
     0
 10
0.0
 20
0.0
 30
0.0
  3
*Model_Space
  1

  0
ENDBLK
  5
21
330
1F
100
AcDbEntity
  8
0
100
AcDbBlockEnd
  0
BLOCK
  5
1C
330
1B
100
AcDbEntity
 67
     1
  8
0
100
AcDbBlockBegin
  2
*Paper_Space
 70
     0
 10
0.0
 20
0.0
 30
0.0
  3
*Paper_Space
  1

  0
ENDBLK
  5
1D
330
1B
100
AcDbEntity
 67
     1
  8
0
100
AcDbBlockEnd
  0
BLOCK
  5
24
330
23
100
AcDbEntity
  8
0
100
AcDbBlockBegin
  2
*Paper_Space0
 70
     0
 10
0.0
 20
0.0
 30
0.0
  3
*Paper_Space0
  1

  0
ENDBLK
  5
25
330
23
100
AcDbEntity
  8
0
100
AcDbBlockEnd
  0
BLOCK
  5
44
330
43
100
AcDbEntity
  8
0
100
AcDbBlockBegin
  2
_CLOSED
 70
     0
 10
0.0
 20
0.0
 30
0.0
  3
_CLOSED
  1

  0
LINE
  5
46
330
43
100
AcDbEntity
  8
0
  6
ByBlock
 62
     0
370
    -2
100
AcDbLine
 10
-1.0
 20
0.166667
 30
0.0
 11
0.0
 21
0.0
 31
0.0
  0
LINE
  5
47
330
43
100
AcDbEntity
  8
0
  6
ByBlock
 62
     0
370
    -2
100
AcDbLine
 10
0.0
 20
0.0
 30
0.0
 11
-1.0
 21
-0.166667
 31
0.0
  0
LINE
  5
48
330
43
100
AcDbEntity
  8
0
  6
ByBlock
 62
     0
370
    -2
100
AcDbLine
 10
-1.0
 20
0.166667
 30
0.0
 11
-1.0
 21
-0.166667
 31
0.0
  0
LINE
  5
49
330
43
100
AcDbEntity
  8
0
  6
ByBlock
 62
     0
370
    -2
100
AcDbLine
 10
0.0
 20
0.0
 30
0.0
 11
-1.0
 21
0.0
 31
0.0
  0
ENDBLK
  5
45
330
43
100
AcDbEntity
  8
0
100
AcDbBlockEnd
  0
BLOCK
  5
100
330
4D
100
AcDbEntity
  8
0
100
AcDbBlockBegin
  2
a
 70
     0
 10
20.520897
 20
179.416
 30
0.0
  3
a
  1

  0
ARC
  5
4E
330
4D
100
AcDbEntity
  8
0
  6
Continuous
 62
     0
370
     0
100
AcDbCircle
 10
106.081748
 20
722.197729
 30
0.0
 40
28.000487382772
100
AcDbArc
 50
180.001002
 51
269.999008
  0
LINE
  5
4F
330
4D
100
AcDbEntity
  8
0
  6
Continuous
 62
     0
370
     0
100
AcDbLine
 10
106.081261
 20
716.697242
 30
0.0
 11
106.081263
 21
694.197242
 31
0.0
  0
ARC
  5
50
330
4D
100
AcDbEntity
  8
0
  6
Continuous
 62
     0
370
    30
100
AcDbCircle
 10
106.081303
 20
722.197285
 30
0.0
 40
5.500042687151561
100
AcDbArc
 50
180.00045
 51
269.99956
  0
LINE
  5
51
330
4D
100
AcDbEntity
  8
0
  6
Continuous
 62
     0
370
     0
100
AcDbLine
 10
78.081261
 20
722.197239
 30
0.0
 11
100.581261
 21
722.197241
 31
0.0
  0
ARC
  5
52
330
4D
100
AcDbEntity
  8
0
  6
Continuous
 62
     0
370
     0
100
AcDbCircle
 10
106.081748
 20
666.196756
 30
0.0
 40
28.00048738277118
100
AcDbArc
 50
90.000992
 51
179.998998
  0
LINE
  5
53
330
4D
100
AcDbEntity
  8
0
  6
Continuous
 62
     0
370
     0
100
AcDbLine
 10
100.581261
 20
666.197244
 30
0.0
 11
78.081261
 21
666.197246
 31
0.0
  0
ARC
  5
54
330
4D
100
AcDbEntity
  8
0
  6
Continuous
 62
     0
370
    30
100
AcDbCircle
 10
106.081303
 20
666.197201
 30
0.0
 40
5.50004268715152
100
AcDbArc
 50
90.00044
 51
179.99955
  0
LINE
  5
55
330
4D
100
AcDbEntity
  8
0
  6
Continuous
 62
     0
370
     0
100
AcDbLine
 10
106.081263
 20
694.197242
 30
0.0
 11
106.081261
 21
671.697244
 31
0.0
  0
LINE
  5
56
330
4D
100
AcDbEntity
  8
0
  6
Continuous
 62
     0
370
    30
100
AcDbLine
 10
100.581262
 20
630.829735
 30
0.0
 11
100.581261
 21
666.197244
 31
0.0
  0
LINE
  5
57
330
4D
100
AcDbEntity
  8
0
  6
Continuous
 62
     0
370
     0
100
AcDbLine
 10
78.081261
 20
630.829703
 30
0.0
 11
78.081261
 21
666.197246
 31
0.0
  0
LINE
  5
58
330
4D
100
AcDbEntity
  8
0
  6
Continuous
 62
     0
370
     0
100
AcDbLine
 10
78.081261
 20
630.829703
 30
0.0
 11
100.581262
 21
630.829735
 31
0.0
  0
LINE
  5
59
330
4D
100
AcDbEntity
  8
0
  6
Continuous
 62
     0
370
    30
100
AcDbLine
 10
106.081261
 20
716.697242
 30
0.0
 11
108.389195
 21
716.697242
 31
0.0
  0
LINE
  5
5A
330
4D
100
AcDbEntity
  8
0
  6
Continuous
 62
     0
370
    30
100
AcDbLine
 10
108.508326
 20
671.697243
 30
0.0
 11
106.081261
 21
671.697244
 31
0.0
  0
SPLINE
  5
5B
330
4D
100
AcDbEntity
  8
0
  6
Continuous
 62
     0
370
     0
100
AcDbSpline
210
0.0
220
0.0
230
1.0
 70
     8
 71
     3
 72
    17
 73
    13
 74
     0
 42
0.0
 43
0.0
 40
0.0
 40
0.0
 40
0.0
 40
0.0
 40
1.718754101383531
 40
4.583500439394577
 40
9.48624150281726
 40
14.5486632533614
 40
19.61113947222288
 40
24.67377023188959
 40
27.83809520497009
 40
29.73680122144633
 40
33.11237746459108
 40
35.33169583367232
 40
35.33169583367232
 40
35.33169583367232
 40
35.33169583367232
 10
108.6725573530084
 20
694.1972436110551
 30
0.0
 10
108.6740749194709
 20
693.6244651745574
 30
0.0
 10
108.6778550011141
 20
692.0963875990603
 30
0.0
 10
108.6812058291833
 20
688.9590371718353
 30
0.0
 10
108.6794113997155
 20
684.8653929099621
 30
0.0
 10
108.6651033098109
 20
680.5265197728035
 30
0.0
 10
108.6399654603507
 20
676.8305790394228
 30
0.0
 10
108.6097618038993
 20
674.3628661953659
 30
0.0
 10
108.5821610906321
 20
673.033409981924
 30
0.0
 10
108.5574397998082
 20
672.2246564531687
 30
0.0
 10
108.5344037047444
 20
671.7906250025032
 30
0.0
 10
108.5157983358962
 20
671.6976319548859
 30
0.0
 10
108.5084424304712
 20
671.6972464482179
 30
0.0
  0
LINE
  5
5C
330
4D
100
AcDbEntity
  8
0
  6
Continuous
 62
     0
370
     0
100
AcDbLine
 10
108.672557
 20
694.197244
 30
0.0
 11
106.081263
 21
694.197244
 31
0.0
  0
SPLINE
  5
5D
330
4D
100
AcDbEntity
  8
0
  6
Continuous
 62
     0
370
     0
100
AcDbSpline
210
0.0
220
0.0
230
1.0
 70
     8
 71
     3
 72
    17
 73
    13
 74
     0
 42
0.0
 43
0.0
 40
0.0
 40
0.0
 40
0.0
 40
0.0
 40
1.706339016653732
 40
4.550383530542367
 40
9.442487500490753
 40
14.50535991567011
 40
19.56799959870319
 40
24.63039839870083
 40
27.79445294476594
 40
29.69293249906594
 40
33.06807680507281
 40
35.34401262602155
 40
35.34401262602155
 40
35.34401262602155
 40
35.34401262602155
 10
108.3891947882716
 20
716.697242071805
 30
0.0
 10
108.3948487158776
 20
716.6972420722994
 30
0.0
 10
108.4103637425769
 20
716.6396913144351
 30
0.0
 10
108.4420731826873
 20
716.2028367449386
 30
0.0
 10
108.4866548138528
 20
714.8900522845977
 30
0.0
 10
108.53635737685
 20
712.3341213626109
 30
0.0
 10
108.5824082892074
 20
708.8349253395359
 30
0.0
 10
108.6170322494266
 20
705.1274281125151
 30
0.0
 10
108.6383887580545
 20
702.0189039286603
 30
0.0
 10
108.6535805290909
 20
699.3240832456758
 30
0.0
 10
108.6649256684123
 20
696.8398251209584
 30
0.0
 10
108.6705490199175
 20
694.9555678760647
 30
0.0
 10
108.6725573530084
 20
694.197243611066
 30
0.0
  0
LINE
  5
5E
330
4D
100
AcDbEntity
  8
0
  6
Continuous
 62
     0
370
    30
100
AcDbLine
 10
100.581261
 20
722.197241
 30
0.0
 11
100.581261
 21
722.625227
 31
0.0
  0
LINE
  5
5F
330
4D
100
AcDbEntity
  8
0
  6
Continuous
 62
     0
370
    30
100
AcDbLine
 10
100.581261
 20
722.625227
 30
0.0
 11
78.081261
 21
722.625227
 31
0.0
  0
LINE
  5
60
330
4D
100
AcDbEntity
  8
0
  6
Continuous
 62
     0
370
     0
100
AcDbLine
 10
78.081261
 20
722.197239
 30
0.0
 11
78.081261
 21
722.625227
 31
0.0
  0
LINE
  5
61
330
4D
100
AcDbEntity
  8
0
  6
Continuous
 62
     0
370
    30
100
AcDbLine
 10
116.081261
 20
672.094121
 30
0.0
 11
116.081261
 21
716.294121
 31
0.0
  0
LINE
  5
62
330
4D
100
AcDbEntity
  8
0
  6
Continuous
 62
     0
370
    30
100
AcDbLine
 10
116.081261
 20
672.094121
 30
0.0
 11
108.508442
 21
671.697246
 31
0.0
  0
LINE
  5
63
330
4D
100
AcDbEntity
  8
0
  6
Continuous
 62
     0
370
    30
100
AcDbLine
 10
99.881261
 20
727.197248
 30
0.0
 11
56.281261
 21
727.197248
 31
0.0
  0
LINE
  5
64
330
4D
100
AcDbEntity
  8
0
  6
Continuous
 62
     0
370
    30
100
AcDbLine
 10
55.581261
 20
722.625227
 30
0.0
 11
78.081261
 21
722.625227
 31
0.0
  0
LINE
  5
65
330
4D
100
AcDbEntity
  8
0
  6
Continuous
 62
     0
370
    30
100
AcDbLine
 10
100.207407
 20
726.89839
 30
0.0
 11
100.581261
 21
722.625227
 31
0.0
  0
LINE
  5
66
330
4D
100
AcDbEntity
  8
0
  6
Continuous
 62
     0
370
    30
100
AcDbLine
 10
100.207407
 20
726.89839
 30
0.0
 11
55.955114
 21
726.89839
 31
0.0
  0
LINE
  5
67
330
4D
100
AcDbEntity
  8
0
  6
Continuous
 62
     0
370
    30
100
AcDbLine
 10
100.207407
 20
726.89839
 30
0.0
 11
99.881261
 21
727.197248
 31
0.0
  0
LINE
  5
68
330
4D
100
AcDbEntity
  8
0
  6
Continuous
 62
     0
370
    30
100
AcDbLine
 10
55.981261
 20
623.197248
 30
0.0
 11
100.181261
 21
623.197248
 31
0.0
  0
LINE
  5
69
330
4D
100
AcDbEntity
  8
0
  6
Continuous
 62
     0
370
    30
100
AcDbLine
 10
55.981261
 20
623.197248
 30
0.0
 11
55.581261
 21
630.829703
 31
0.0
  0
LINE
  5
6A
330
4D
100
AcDbEntity
  8
0
  6
Continuous
 62
     0
370
     0
100
AcDbLine
 10
78.081261
 20
630.829703
 30
0.0
 11
55.581261
 21
630.829703
 31
0.0
  0
LINE
  5
6B
330
4D
100
AcDbEntity
  8
0
  6
Continuous
 62
     0
370
     0
100
AcDbLine
 10
78.081261
 20
722.197239
 30
0.0
 11
78.081261
 21
666.197246
 31
0.0
  0
LINE
  5
6C
330
4D
100
AcDbEntity
  8
0
  6
Continuous
 62
     0
370
    30
100
AcDbLine
 10
55.581261
 20
722.625227
 30
0.0
 11
55.581261
 21
630.829703
 31
0.0
  0
LINE
  5
6D
330
4D
100
AcDbEntity
  8
0
  6
Continuous
 62
     0
370
    30
100
AcDbLine
 10
100.581262
 20
630.829735
 30
0.0
 11
100.181261
 21
623.197248
 31
0.0
  0
LINE
  5
6E
330
4D
100
AcDbEntity
  8
0
  6
Continuous
 62
     0
370
    30
100
AcDbLine
 10
55.955114
 20
726.89839
 30
0.0
 11
56.281261
 21
727.197248
 31
0.0
  0
LINE
  5
6F
330
4D
100
AcDbEntity
  8
0
  6
Continuous
 62
     0
370
    30
100
AcDbLine
 10
55.581261
 20
722.625227
 30
0.0
 11
55.955114
 21
726.89839
 31
0.0
  0
LINE
  5
70
330
4D
100
AcDbEntity
  8
0
  6
Continuous
 62
     0
370
    30
100
AcDbLine
 10
108.389313
 20
716.697239
 30
0.0
 11
116.081261
 21
716.294121
 31
0.0
  0
LINE
  5
71
330
4D
100
AcDbEntity
  8
0
  6
Continuous
 62
     0
370
    30
100
AcDbLine
 10
126.681262
 20
782.197246
 30
0.0
 11
134.033281
 21
782.197246
 31
0.0
  0
LINE
  5
72
330
4D
100
AcDbEntity
  8
0
  6
Continuous
 62
     0
370
    30
100
AcDbLine
 10
134.033281
 20
782.197246
 30
0.0
 11
139.681262
 21
782.197246
 31
0.0
  0
LINE
  5
73
330
4D
100
AcDbEntity
  8
0
  6
Continuous
 62
     0
370
    30
100
AcDbLine
 10
139.681262
 20
722.197246
 30
0.0
 11
139.681262
 21
782.197246
 31
0.0
  0
LINE
  5
74
330
4D
100
AcDbEntity
  8
0
  6
Continuous
 62
     0
370
    30
100
AcDbLine
 10
126.681262
 20
722.197246
 30
0.0
 11
126.681262
 21
782.197246
 31
0.0
  0
LINE
  5
75
330
4D
100
AcDbEntity
  8
0
  6
Continuous
 62
     0
370
    30
100
AcDbLine
 10
126.681259
 20
722.197245
 30
0.0
 11
139.681259
 21
722.197245
 31
0.0
  0
LINE
  5
76
330
4D
100
AcDbEntity
  8
0
  6
Continuous
 62
     0
370
    30
100
AcDbLine
 10
139.681259
 20
722.197245
 30
0.0
 11
139.665327
 21
721.284507
 31
0.0
  0
SPLINE
  5
77
330
4D
100
AcDbEntity
  8
0
  6
Continuous
 62
     0
370
     0
100
AcDbSpline
210
0.0
220
0.0
230
1.0
 70
     8
 71
     3
 72
    21
 73
    17
 74
     0
 42
0.0
 43
0.0
 40
0.0
 40
0.0
 40
0.0
 40
0.0
 40
1.912405789321918
 40
3.830350421158677
 40
6.32391116788351
 40
7.661351199193069
 40
8.952158795729051
 40
10.23687625134339
 40
11.6201887532878
 40
12.6699143264469
 40
13.90342270692967
 40
15.64836897466497
 40
17.34311723258501
 40
18.41361149052811
 40
19.47528666719966
 40
21.03953786596914
 40
21.03953786596914
 40
21.03953786596914
 40
21.03953786596914
 10
139.6653272547828
 20
721.284507212976
 30
0.0
 10
139.6653272547828
 20
721.2845071347871
 30
0.0
 10
139.480491095309
 20
721.1447558553368
 30
0.0
 10
138.609087179492
 20
720.530878136799
 30
0.0
 10
137.3246971590542
 20
719.7694500705364
 30
0.0
 10
135.9035547843011
 20
719.1839682019588
 30
0.0
 10
134.7062458480088
 20
718.8586516302136
 30
0.0
 10
133.4272466415472
 20
718.7088073530407
 30
0.0
 10
132.2136785504881
 20
718.7721807575771
 30
0.0
 10
131.0594244557504
 20
719.0050200829143
 30
0.0
 10
129.8710133412622
 20
719.4002982412302
 30
0.0
 10
128.6627233201006
 20
719.9859477610826
 30
0.0
 10
127.7465085838983
 20
720.5486681192276
 30
0.0
 10
127.1773892047508
 20
720.9356999933399
 30
0.0
 10
126.8004422589875
 20
721.2068114897738
 30
0.0
 10
126.697191055764
 20
721.2845071490215
 30
0.0
 10
126.697191055764
 20
721.2845072129761
 30
0.0
  0
ARC
  5
78
330
4D
100
AcDbEntity
  8
0
  6
Continuous
 62
     0
370
    30
100
AcDbCircle
 10
144.664566
 20
721.197245
 30
0.0
 40
5.000000000000002
100
AcDbArc
 50
179.0
 51
270.0
  0
ARC
  5
79
330
4D
100
AcDbEntity
  8
0
  6
Continuous
 62
     0
370
    30
100
AcDbCircle
 10
121.697953
 20
721.197245
 30
0.0
 40
5.000000000000002
100
AcDbArc
 50
270.0
 51
1.0
  0
SPLINE
  5
7A
330
4D
100
AcDbEntity
  8
0
  6
Continuous
 62
     0
370
     0
100
AcDbSpline
210
0.0
220
0.0
230
1.0
 70
     8
 71
     3
 72
    21
 73
    17
 74
     0
 42
0.0
 43
0.0
 40
0.0
 40
0.0
 40
0.0
 40
0.0
 40
3.004295903647487
 40
6.01729305781994
 40
8.458208939345289
 40
9.934554958359266
 40
12.21528003185013
 40
14.06340335768736
 40
16.08163160756893
 40
18.25474785008434
 40
19.90381535291495
 40
21.8415966518898
 40
24.58282184243938
 40
27.24518841621357
 40
30.59472225158563
 40
33.05208433184011
 40
33.05208433184011
 40
33.05208433184011
 40
33.05208433184011
 10
144.6645657305647
 20
716.1972451807897
 30
0.0
 10
144.6645657305647
 20
716.1972450679599
 30
0.0
 10
144.3391700687648
 20
716.0834100942382
 30
0.0
 10
143.0313759418765
 20
715.6573917411986
 30
0.0
 10
141.432293699332
 20
715.2087996892141
 30
0.0
 10
139.719534189047
 20
714.8062614095653
 30
0.0
 10
137.9545774781356
 20
714.4757095555694
 30
0.0
 10
135.8242863238667
 20
714.2171065288795
 30
0.0
 10
133.6182848655068
 20
714.098522256734
 30
0.0
 10
131.462446263892
 20
714.150165671652
 30
0.0
 10
129.4131818182684
 20
714.3398814734901
 30
0.0
 10
127.3053311704992
 20
714.661980063222
 30
0.0
 10
125.1662006989612
 20
715.1390697211298
 30
0.0
 10
123.166546885033
 20
715.7059587376469
 30
0.0
 10
121.9535784062021
 20
716.1084956105105
 30
0.0
 10
121.6979525799821
 20
716.1972450885006
 30
0.0
 10
121.6979525799821
 20
716.1972451807897
 30
0.0
  0
LINE
  5
7B
330
4D
100
AcDbEntity
  8
0
  6
Continuous
 62
     0
370
    30
100
AcDbLine
 10
117.181259
 20
694.726557
 30
0.0
 11
125.381259
 21
672.197245
 31
0.0
  0
LINE
  5
7C
330
4D
100
AcDbEntity
  8
0
  6
Continuous
 62
     0
370
    30
100
AcDbLine
 10
117.181259
 20
716.197245
 30
0.0
 11
117.181259
 21
694.726557
 31
0.0
  0
LINE
  5
7D
330
4D
100
AcDbEntity
  8
0
  6
Continuous
 62
     0
370
    30
100
AcDbLine
 10
117.181259
 20
716.197245
 30
0.0
 11
121.697953
 21
716.197245
 31
0.0
  0
LINE
  5
7E
330
4D
100
AcDbEntity
  8
0
  6
Continuous
 62
     0
370
    30
100
AcDbLine
 10
144.664566
 20
716.197245
 30
0.0
 11
147.681259
 21
716.197245
 31
0.0
  0
LINE
  5
7F
330
4D
100
AcDbEntity
  8
0
  6
Continuous
 62
     0
370
     0
100
AcDbLine
 10
147.681259
 20
716.197245
 30
0.0
 11
147.681259
 21
672.197245
 31
0.0
  0
LINE
  5
80
330
4D
100
AcDbEntity
  8
0
  6
Continuous
 62
     0
370
    30
100
AcDbLine
 10
148.181259
 20
715.697245
 30
0.0
 11
148.181259
 21
672.697245
 31
0.0
  0
ARC
  5
81
330
4D
100
AcDbEntity
  8
0
  6
Continuous
 62
     0
370
    30
100
AcDbCircle
 10
147.681259
 20
715.697245
 30
0.0
 40
0.5
100
AcDbArc
 50
0.0
 51
90.0
  0
ARC
  5
82
330
4D
100
AcDbEntity
  8
0
  6
Continuous
 62
     0
370
    30
100
AcDbCircle
 10
147.681222
 20
672.697282
 30
0.0
 40
0.5000369078942255
100
AcDbArc
 50
270.004229
 51
359.995771
  0
LINE
  5
83
330
4D
100
AcDbEntity
  8
0
  6
Continuous
 62
     0
370
    30
100
AcDbLine
 10
148.177592
 20
715.757304
 30
0.0
 11
148.181259
 21
715.697245
 31
0.0
  0
LINE
  5
84
330
4D
100
AcDbEntity
  8
0
  6
Continuous
 62
     0
370
    30
100
AcDbLine
 10
125.381312
 20
672.197245
 30
0.0
 11
147.681259
 21
672.197245
 31
0.0
  0
LINE
  5
85
330
4D
100
AcDbEntity
  8
0
  6
Continuous
 62
     0
370
    30
100
AcDbLine
 10
126.681259
 20
722.197245
 30
0.0
 11
126.697191
 21
721.284507
 31
0.0
  0
LINE
  5
86
330
4D
100
AcDbEntity
  8
0
  6
Continuous
 62
     0
370
    30
100
AcDbLine
 10
68.141548
 20
558.197258
 30
0.0
 11
100.081261
 21
558.197258
 31
0.0
  0
LINE
  5
87
330
4D
100
AcDbEntity
  8
0
  6
Continuous
 62
     0
370
    30
100
AcDbLine
 10
64.75301
 20
547.197258
 30
0.0
 11
107.581261
 21
547.197258
 31
0.0
  0
LINE
  5
88
330
4D
100
AcDbEntity
  8
0
  6
Continuous
 62
     0
370
    30
100
AcDbLine
 10
48.581261
 20
547.197258
 30
0.0
 11
64.75301
 21
547.197258
 31
0.0
  0
LINE
  5
89
330
4D
100
AcDbEntity
  8
0
  6
Continuous
 62
     0
370
     0
100
AcDbLine
 10
48.081261
 20
547.697258
 30
0.0
 11
64.527107
 21
547.697258
 31
0.0
  0
LINE
  5
8A
330
4D
100
AcDbEntity
  8
0
  6
Continuous
 62
     0
370
     0
100
AcDbLine
 10
64.527107
 20
547.697258
 30
0.0
 11
108.081261
 21
547.697258
 31
0.0
  0
LINE
  5
8B
330
4D
100
AcDbEntity
  8
0
  6
Continuous
 62
     0
370
     0
100
AcDbLine
 10
64.527107
 20
552.697258
 30
0.0
 11
108.081261
 21
552.697258
 31
0.0
  0
LINE
  5
8C
330
4D
100
AcDbEntity
  8
0
  6
Continuous
 62
     0
370
     0
100
AcDbLine
 10
48.081261
 20
552.697258
 30
0.0
 11
64.527107
 21
552.697258
 31
0.0
  0
LINE
  5
8D
330
4D
100
AcDbEntity
  8
0
  6
Continuous
 62
     0
370
    30
100
AcDbLine
 10
48.581261
 20
553.197258
 30
0.0
 11
64.75301
 21
553.197258
 31
0.0
  0
LINE
  5
8E
330
4D
100
AcDbEntity
  8
0
  6
Continuous
 62
     0
370
    30
100
AcDbLine
 10
64.75301
 20
553.197258
 30
0.0
 11
107.581261
 21
553.197258
 31
0.0
  0
ARC
  5
8F
330
4D
100
AcDbEntity
  8
0
  6
Continuous
 62
     0
370
    30
100
AcDbCircle
 10
107.581225
 20
547.697296
 30
0.0
 40
0.5000377456519915
100
AcDbArc
 50
270.012642
 51
359.995676
  0
ARC
  5
90
330
4D
100
AcDbEntity
  8
0
  6
Continuous
 62
     0
370
    30
100
AcDbCircle
 10
48.581329
 20
547.697295
 30
0.0
 40
0.5000374279315658
100
AcDbArc
 50
180.004288
 51
269.987748
  0
ARC
  5
91
330
4D
100
AcDbEntity
  8
0
  6
Continuous
 62
     0
370
    30
100
AcDbCircle
 10
107.581225
 20
552.69722
 30
0.0
 40
0.500037745664982
100
AcDbArc
 50
0.004324
 51
89.987358
  0
ARC
  5
92
330
4D
100
AcDbEntity
  8
0
  6
Continuous
 62
     0
370
    30
100
AcDbCircle
 10
48.581329
 20
552.697221
 30
0.0
 40
0.5000374279284532
100
AcDbArc
 50
90.012252
 51
179.995712
  0
LINE
  5
93
330
4D
100
AcDbEntity
  8
0
  6
Continuous
 62
     0
370
    30
100
AcDbLine
 10
48.081261
 20
547.697258
 30
0.0
 11
48.081261
 21
552.697258
 31
0.0
  0
LINE
  5
94
330
4D
100
AcDbEntity
  8
0
  6
Continuous
 62
     0
370
    30
100
AcDbLine
 10
108.081261
 20
547.697258
 30
0.0
 11
108.081261
 21
552.697258
 31
0.0
  0
ARC
  5
95
330
4D
100
AcDbEntity
  8
0
  6
Continuous
 62
     0
370
    30
100
AcDbCircle
 10
105.081519
 20
558.197519
 30
0.0
 40
5.00026142218981
100
AcDbArc
 50
180.002995
 51
269.984392
  0
ARC
  5
96
330
4D
100
AcDbEntity
  8
0
  6
Continuous
 62
     0
370
    30
100
AcDbCircle
 10
51.081024
 20
558.197517
 30
0.0
 40
5.000259210336148
100
AcDbArc
 50
270.015633
 51
359.997031
  0
LINE
  5
97
330
4D
100
AcDbEntity
  8
0
  6
Continuous
 62
     0
370
    30
100
AcDbLine
 10
67.081261
 20
749.197252
 30
0.0
 11
67.081261
 21
797.547249
 31
0.0
  0
LINE
  5
98
330
4D
100
AcDbEntity
  8
0
  6
Continuous
 62
     0
370
    30
100
AcDbLine
 10
67.081261
 20
931.347252
 30
0.0
 11
67.081261
 21
841.347252
 31
0.0
  0
LINE
  5
99
330
4D
100
AcDbEntity
  8
0
  6
Continuous
 62
     0
370
     0
100
AcDbLine
 10
67.081261
 20
841.347252
 30
0.0
 11
89.081261
 21
841.347252
 31
0.0
  0
LINE
  5
9A
330
4D
100
AcDbEntity
  8
0
  6
Continuous
 62
     0
370
    30
100
AcDbLine
 10
67.081261
 20
841.347252
 30
0.0
 11
67.081261
 21
817.347252
 31
0.0
  0
LINE
  5
9B
330
4D
100
AcDbEntity
  8
0
  6
Continuous
 62
     0
370
    30
100
AcDbLine
 10
67.081261
 20
817.347252
 30
0.0
 11
89.081261
 21
817.347252
 31
0.0
  0
LINE
  5
9C
330
4D
100
AcDbEntity
  8
0
  6
Continuous
 62
     0
370
    30
100
AcDbLine
 10
89.081261
 20
817.347252
 30
0.0
 11
89.081261
 21
841.347252
 31
0.0
  0
ARC
  5
9D
330
4D
100
AcDbEntity
  8
0
  6
Continuous
 62
     0
370
    30
100
AcDbCircle
 10
78.080986
 20
931.347552
 30
0.0
 40
10.99972553469727
100
AcDbArc
 50
359.996742
 51
179.969148
  0
LINE
  5
9E
330
4D
100
AcDbEntity
  8
0
  6
Continuous
 62
     0
370
    30
100
AcDbLine
 10
89.081261
 20
841.347252
 30
0.0
 11
89.081261
 21
931.346926
 31
0.0
  0
LINE
  5
9F
330
4D
100
AcDbEntity
  8
0
  6
Continuous
 62
     0
370
    30
100
AcDbLine
 10
89.081261
 20
797.547249
 30
0.0
 11
89.081261
 21
749.197252
 31
0.0
  0
LINE
  5
A0
330
4D
100
AcDbEntity
  8
0
  6
Continuous
 62
     0
370
    30
100
AcDbLine
 10
83.413294
 20
749.197252
 30
0.0
 11
99.581261
 21
749.197252
 31
0.0
  0
LINE
  5
A1
330
4D
100
AcDbEntity
  8
0
  6
Continuous
 62
     0
370
    30
100
AcDbLine
 10
56.581261
 20
749.197252
 30
0.0
 11
83.413294
 21
749.197252
 31
0.0
  0
LINE
  5
A2
330
4D
100
AcDbEntity
  8
0
  6
Continuous
 62
     0
370
     0
100
AcDbLine
 10
83.537295
 20
748.697252
 30
0.0
 11
100.081261
 21
748.697252
 31
0.0
  0
LINE
  5
A3
330
4D
100
AcDbEntity
  8
0
  6
Continuous
 62
     0
370
     0
100
AcDbLine
 10
56.081261
 20
748.697252
 30
0.0
 11
83.537295
 21
748.697252
 31
0.0
  0
LINE
  5
A4
330
4D
100
AcDbEntity
  8
0
  6
Continuous
 62
     0
370
    30
100
AcDbLine
 10
83.537295
 20
727.497252
 30
0.0
 11
100.081261
 21
727.497252
 31
0.0
  0
LINE
  5
A5
330
4D
100
AcDbEntity
  8
0
  6
Continuous
 62
     0
370
    30
100
AcDbLine
 10
56.081261
 20
727.497252
 30
0.0
 11
83.537295
 21
727.497252
 31
0.0
  0
LINE
  5
A6
330
4D
100
AcDbEntity
  8
0
  6
Continuous
 62
     0
370
    30
100
AcDbLine
 10
56.381292
 20
727.197276
 30
0.0
 11
56.081316
 21
727.497252
 31
0.0
  0
LINE
  5
A7
330
4D
100
AcDbEntity
  8
0
  6
Continuous
 62
     0
370
    30
100
AcDbLine
 10
99.781232
 20
727.197278
 30
0.0
 11
100.081205
 21
727.497252
 31
0.0
  0
LINE
  5
A8
330
4D
100
AcDbEntity
  8
0
  6
Continuous
 62
     0
370
    30
100
AcDbLine
 10
100.081261
 20
727.497252
 30
0.0
 11
100.081261
 21
748.697252
 31
0.0
  0
LINE
  5
A9
330
4D
100
AcDbEntity
  8
0
  6
Continuous
 62
     0
370
    30
100
AcDbLine
 10
56.081261
 20
727.497252
 30
0.0
 11
56.081261
 21
748.697252
 31
0.0
  0
ARC
  5
AA
330
4D
100
AcDbEntity
  8
0
  6
Continuous
 62
     0
370
    30
100
AcDbCircle
 10
56.581352
 20
748.697215
 30
0.0
 40
0.5000368064018407
100
AcDbArc
 50
90.009642
 51
179.995783
  0
ARC
  5
AB
330
4D
100
AcDbEntity
  8
0
  6
Continuous
 62
     0
370
    30
100
AcDbCircle
 10
99.581169
 20
748.697215
 30
0.0
 40
0.5000368616060308
100
AcDbArc
 50
0.004223
 51
89.98977
  0
LINE
  5
AC
330
4D
100
AcDbEntity
  8
0
  6
Continuous
 62
     0
370
     0
100
AcDbLine
 10
83.896433
 20
797.547249
 30
0.0
 11
67.081261
 21
797.547249
 31
0.0
  0
LINE
  5
AD
330
4D
100
AcDbEntity
  8
0
  6
Continuous
 62
     0
370
     0
100
AcDbLine
 10
89.081261
 20
797.547249
 30
0.0
 11
83.896433
 21
797.547249
 31
0.0
  0
LINE
  5
AE
330
4D
100
AcDbEntity
  8
0
  6
Continuous
 62
     0
370
    30
100
AcDbLine
 10
83.790703
 20
797.347249
 30
0.0
 11
67.281261
 21
797.347249
 31
0.0
  0
LINE
  5
AF
330
4D
100
AcDbEntity
  8
0
  6
Continuous
 62
     0
370
    30
100
AcDbLine
 10
88.881261
 20
797.347249
 30
0.0
 11
83.790703
 21
797.347249
 31
0.0
  0
ARC
  5
B0
330
4D
100
AcDbEntity
  8
0
  6
Continuous
 62
     0
370
    30
100
AcDbCircle
 10
88.88096
 20
797.54755
 30
0.0
 40
0.200300886758876
100
AcDbArc
 50
270.086004
 51
359.913996
  0
ARC
  5
B1
330
4D
100
AcDbEntity
  8
0
  6
Continuous
 62
     0
370
    30
100
AcDbCircle
 10
67.281561
 20
797.54755
 30
0.0
 40
0.2003008867580283
100
AcDbArc
 50
180.086004
 51
269.913996
  0
LINE
  5
B2
330
4D
100
AcDbEntity
  8
0
  6
Continuous
 62
     0
370
    30
100
AcDbLine
 10
89.081261
 20
817.347249
 30
0.0
 11
89.081261
 21
797.547249
 31
0.0
  0
LINE
  5
B3
330
4D
100
AcDbEntity
  8
0
  6
Continuous
 62
     0
370
    30
100
AcDbLine
 10
67.081261
 20
817.347249
 30
0.0
 11
67.081261
 21
797.547249
 31
0.0
  0
ARC
  5
B4
330
4D
100
AcDbEntity
  8
0
  6
Continuous
 62
     0
370
    30
100
AcDbCircle
 10
114.703303
 20
694.329393
 30
0.0
 40
20.52844235784443
100
AcDbArc
 50
273.848833
 51
296.894751
  0
ARC
  5
B5
330
4D
100
AcDbEntity
  8
0
  6
Continuous
 62
     0
370
    30
100
AcDbCircle
 10
114.719676
 20
694.233509
 30
0.0
 40
20.35932260076549
100
AcDbArc
 50
83.055553
 51
86.165328
  0
LINE
  5
B6
330
4D
100
AcDbEntity
  8
0
  6
Continuous
 62
     0
370
    30
100
AcDbLine
 10
56.081265
 20
558.197258
 30
0.0
 11
68.141548
 21
558.197258
 31
0.0
  0
LINE
  5
B7
330
4D
100
AcDbEntity
  8
0
  6
Continuous
 62
     0
370
    30
100
AcDbLine
 10
100.081257
 20
558.197258
 30
0.0
 11
100.081257
 21
623.197258
 31
0.0
  0
LINE
  5
B8
330
4D
100
AcDbEntity
  8
0
  6
Continuous
 62
     0
370
    30
100
AcDbLine
 10
56.081265
 20
558.197258
 30
0.0
 11
56.081265
 21
623.197258
 31
0.0
  0
LINE
  5
B9
330
4D
100
AcDbEntity
  8
0
  6
Continuous
 62
     0
370
    30
100
AcDbLine
 10
122.392805
 20
696.672398
 30
0.0
 11
122.748546
 21
696.672396
 31
0.0
  0
LINE
  5
BA
330
4D
100
AcDbEntity
  8
0
  6
Continuous
 62
     0
370
    30
100
AcDbLine
 10
122.748546
 20
696.672396
 30
0.0
 11
122.748546
 21
698.532686
 31
0.0
  0
LINE
  5
BB
330
4D
100
AcDbEntity
  8
0
  6
Continuous
 62
     0
370
    30
100
AcDbLine
 10
122.748546
 20
698.532686
 30
0.0
 11
122.435387
 21
698.532685
 31
0.0
  0
LINE
  5
BC
330
4D
100
AcDbEntity
  8
0
  6
Continuous
 62
     0
370
    30
100
AcDbLine
 10
122.435387
 20
698.532685
 30
0.0
 11
122.435387
 21
697.072322
 31
0.0
  0
ARC
  5
BD
330
4D
100
AcDbEntity
  8
0
  6
Continuous
 62
     0
370
    30
100
AcDbCircle
 10
29.627936
 20
576.185236
 30
0.0
 40
152.4037743888633
100
AcDbArc
 50
52.485825
 51
53.382005
  0
LINE
  5
BE
330
4D
100
AcDbEntity
  8
0
  6
Continuous
 62
     0
370
    30
100
AcDbLine
 10
120.533279
 20
698.509105
 30
0.0
 11
120.181259
 21
698.509103
 31
0.0
  0
LINE
  5
BF
330
4D
100
AcDbEntity
  8
0
  6
Continuous
 62
     0
370
    30
100
AcDbLine
 10
120.181259
 20
698.509103
 30
0.0
 11
120.181259
 21
696.710724
 31
0.0
  0
LINE
  5
C0
330
4D
100
AcDbEntity
  8
0
  6
Continuous
 62
     0
370
    30
100
AcDbLine
 10
120.181259
 20
696.710724
 30
0.0
 11
120.494212
 21
696.710724
 31
0.0
  0
LINE
  5
C1
330
4D
100
AcDbEntity
  8
0
  6
Continuous
 62
     0
370
    30
100
AcDbLine
 10
120.494212
 20
696.710724
 30
0.0
 11
120.494212
 21
698.107947
 31
0.0
  0
ARC
  5
C2
330
4D
100
AcDbEntity
  8
0
  6
Continuous
 62
     0
370
    30
100
AcDbCircle
 10
17.052367
 20
559.32712
 30
0.0
 40
173.0905346548271
100
AcDbArc
 50
52.512684
 51
53.300583
  0
LINE
  5
C3
330
4D
100
AcDbEntity
  8
0
  6
Continuous
 62
     0
370
    30
100
AcDbLine
 10
120.180896
 20
698.756359
 30
0.0
 11
120.180896
 21
699.087568
 31
0.0
  0
LINE
  5
C4
330
4D
100
AcDbEntity
  8
0
  6
Continuous
 62
     0
370
    30
100
AcDbLine
 10
120.180896
 20
699.087568
 30
0.0
 11
121.770051
 21
699.087562
 31
0.0
  0
SPLINE
  5
C5
330
4D
100
AcDbEntity
  8
0
  6
Continuous
 62
     0
370
    30
100
AcDbSpline
210
0.0
220
0.0
230
1.0
 70
     8
 71
     3
 72
    10
 73
     6
 74
     0
 42
0.0
 43
0.0
 40
0.0
 40
0.0
 40
0.0
 40
0.0
 40
0.1607383031801948
 40
0.3212678064986665
 40
0.4814978669279018
 40
0.4814978669279018
 40
0.4814978669279018
 40
0.4814978669279018
 10
121.7700511047046
 20
699.0875619736127
 30
0.0
 10
121.8236305375787
 20
699.0875535840072
 30
0.0
 10
121.9306959952942
 20
699.0916616387998
 30
0.0
 10
122.0902506994198
 20
699.1170843428692
 30
0.0
 10
122.1880993227822
 20
699.1637030971973
 30
0.0
 10
122.2322454470899
 20
699.1929819326599
 30
0.0
  0
SPLINE
  5
C6
330
4D
100
AcDbEntity
  8
0
  6
Continuous
 62
     0
370
    30
100
AcDbSpline
210
0.0
220
0.0
230
1.0
 70
     8
 71
     3
 72
    14
 73
    10
 74
     0
 42
0.0
 43
0.0
 40
0.0
 40
0.0
 40
0.0
 40
0.0
 40
0.2483063195049807
 40
0.4973415118280721
 40
0.7469539897613074
 40
0.9957853863575405
 40
1.243643039570703
 40
1.492316197299798
 40
1.742344279104773
 40
1.742344279104773
 40
1.742344279104773
 40
1.742344279104773
 10
122.2322454470944
 20
699.192981932684
 30
0.0
 10
122.2995638065316
 20
699.239883136939
 30
0.0
 10
122.4157750191495
 20
699.3641209059165
 30
0.0
 10
122.4876146317741
 20
699.6014759378199
 30
0.0
 10
122.4893268227074
 20
699.8441146865229
 30
0.0
 10
122.4262032620271
 20
700.0826284976711
 30
0.0
 10
122.2482170033467
 20
700.2658384610957
 30
0.0
 10
122.0060778838202
 20
700.3441185051589
 30
0.0
 10
121.8393375689883
 20
700.3515502697779
 30
0.0
 10
121.7559951059812
 20
700.3513675511263
 30
0.0
  0
LINE
  5
C7
330
4D
100
AcDbEntity
  8
0
  6
Continuous
 62
     0
370
    30
100
AcDbLine
 10
121.755995
 20
700.351368
 30
0.0
 11
120.180896
 21
700.351377
 31
0.0
  0
LINE
  5
C8
330
4D
100
AcDbEntity
  8
0
  6
Continuous
 62
     0
370
    30
100
AcDbLine
 10
120.180896
 20
700.351377
 30
0.0
 11
120.180896
 21
700.654726
 31
0.0
  0
LINE
  5
C9
330
4D
100
AcDbEntity
  8
0
  6
Continuous
 62
     0
370
    30
100
AcDbLine
 10
120.180896
 20
700.654726
 30
0.0
 11
121.763023
 21
700.654711
 31
0.0
  0
SPLINE
  5
CA
330
4D
100
AcDbEntity
  8
0
  6
Continuous
 62
     0
370
    30
100
AcDbSpline
210
0.0
220
0.0
230
1.0
 70
     8
 71
     3
 72
    10
 73
     6
 74
     0
 42
0.0
 43
0.0
 40
0.0
 40
0.0
 40
0.0
 40
0.0
 40
0.2406503714594196
 40
0.4809889051886758
 40
0.721158888053054
 40
0.721158888053054
 40
0.721158888053054
 40
0.721158888053054
 10
121.7630231144238
 20
700.6547108049242
 30
0.0
 10
121.8432399048221
 20
700.6547107991561
 30
0.0
 10
122.0040741761889
 20
700.6474885321314
 30
0.0
 10
122.2391801513356
 20
700.5909576379795
 30
0.0
 10
122.3816256647256
 20
700.5162088116666
 30
0.0
 10
122.4459792897984
 20
700.4705648735336
 30
0.0
  0
SPLINE
  5
CB
330
4D
100
AcDbEntity
  8
0
  6
Continuous
 62
     0
370
    30
100
AcDbSpline
210
0.0
220
0.0
230
1.0
 70
     8
 71
     3
 72
    14
 73
    10
 74
     0
 42
0.0
 43
0.0
 40
0.0
 40
0.0
 40
0.0
 40
0.0
 40
0.2658311356644136
 40
0.5318324899200813
 40
0.7981789482599619
 40
1.064703722663622
 40
1.331140912478696
 40
1.59725580011786
 40
1.863124513833546
 40
1.863124513833546
 40
1.863124513833546
 40
1.863124513833546
 10
122.4459792897983
 20
700.4705648735336
 30
0.0
 10
122.5173416178879
 20
700.4202168323959
 30
0.0
 10
122.6446042305733
 20
700.2965870588745
 30
0.0
 10
122.7612493490954
 20
700.0621800464241
 30
0.0
 10
122.8086578181018
 20
699.8066743196287
 30
0.0
 10
122.7963095559434
 20
699.5470326393671
 30
0.0
 10
122.7288210255324
 20
699.2945378534426
 30
0.0
 10
122.5986448202637
 20
699.0644957921478
 30
0.0
 10
122.4661126667331
 20
698.9440585827674
 30
0.0
 10
122.3924424466245
 20
698.8959382519074
 30
0.0
  0
SPLINE
  5
CC
330
4D
100
AcDbEntity
  8
0
  6
Continuous
 62
     0
370
    30
100
AcDbSpline
210
0.0
220
0.0
230
1.0
 70
     8
 71
     3
 72
    10
 73
     6
 74
     0
 42
0.0
 43
0.0
 40
0.0
 40
0.0
 40
0.0
 40
0.0
 40
0.2234824778642054
 40
0.4474133988426866
 40
0.6716368634533153
 40
0.6716368634533153
 40
0.6716368634533153
 40
0.6716368634533153
 10
122.3924424466251
 20
698.8959382519076
 30
0.0
 10
122.3301358396663
 20
698.8560513505162
 30
0.0
 10
122.1922491517776
 20
698.7937091837715
 30
0.0
 10
121.9693188325981
 20
698.7614798703219
 30
0.0
 10
121.8199875576759
 20
698.7563370107684
 30
0.0
 10
121.7452464033213
 20
698.756345066682
 30
0.0
  0
LINE
  5
CD
330
4D
100
AcDbEntity
  8
0
  6
Continuous
 62
     0
370
    30
100
AcDbLine
 10
121.745246
 20
698.756345
 30
0.0
 11
120.180896
 21
698.756359
 31
0.0
  0
SPLINE
  5
CE
330
4D
100
AcDbEntity
  8
0
  6
Continuous
 62
     0
370
    30
100
AcDbSpline
210
0.0
220
0.0
230
1.0
 70
     8
 71
     3
 72
    25
 73
    21
 74
     0
 42
0.0
 43
0.0
 40
0.0
 40
0.0
 40
0.0
 40
0.0
 40
0.2754117203151685
 40
0.4117111493874493
 40
0.5484227172847359
 40
0.6882255408435669
 40
0.828517537529593
 40
1.101530130229451
 40
1.374996099329444
 40
1.654519371669836
 40
2.206611179020704
 40
2.483601928484152
 40
2.760074308334973
 40
3.036299766838883
 40
3.172821653322534
 40
3.311285244432745
 40
3.451140522921229
 40
3.589993566819087
 40
3.726555894954437
 40
3.865086221907652
 40
3.865086221907652
 40
3.865086221907652
 40
3.865086221907652
 10
120.8746225162304
 20
702.2563251460689
 30
0.0
 10
120.7830576391748
 20
702.2501672925506
 30
0.0
 10
120.6444301331999
 20
702.2081769190576
 30
0.0
 10
120.5092291121133
 20
702.0892914411907
 30
0.0
 10
120.4476524179632
 20
701.9716161598188
 30
0.0
 10
120.4229905577575
 20
701.842140092767
 30
0.0
 10
120.434637085556
 20
701.6683331845416
 30
0.0
 10
120.5303956205821
 20
701.4604332917472
 30
0.0
 10
120.7631891332361
 20
701.304980361685
 30
0.0
 10
121.1173283048623
 20
701.2014503468122
 30
0.0
 10
121.4907356927252
 20
701.1823014816039
 30
0.0
 10
121.8586920138898
 20
701.2106966152518
 30
0.0
 10
122.1275293826079
 20
701.2784911076512
 30
0.0
 10
122.3297041433375
 20
701.3960512366098
 30
0.0
 10
122.437799781515
 20
701.5391389716962
 30
0.0
 10
122.4853136343187
 20
701.6629086791935
 30
0.0
 10
122.5020193540124
 20
701.7936484531497
 30
0.0
 10
122.488139307696
 20
701.923954308968
 30
0.0
 10
122.4387984671726
 20
702.0463787360237
 30
0.0
 10
122.3785376300593
 20
702.1136893175561
 30
0.0
 10
122.3430609837086
 20
702.1412498237681
 30
0.0
  0
ARC
  5
CF
330
4D
100
AcDbEntity
  8
0
  6
Continuous
 62
     0
370
    30
100
AcDbCircle
 10
122.007127
 20
701.652978
 30
0.0
 40
0.5926729910151223
100
AcDbArc
 50
55.471778
 51
83.628693
  0
LINE
  5
D0
330
4D
100
AcDbEntity
  8
0
  6
Continuous
 62
     0
370
    30
100
AcDbLine
 10
122.072896
 20
702.24199
 30
0.0
 11
122.072896
 21
702.55453
 31
0.0
  0
SPLINE
  5
D1
330
4D
100
AcDbEntity
  8
0
  6
Continuous
 62
     0
370
    30
100
AcDbSpline
210
0.0
220
0.0
230
1.0
 70
     8
 71
     3
 72
    26
 73
    22
 74
     0
 42
0.0
 43
0.0
 40
0.0
 40
0.0
 40
0.0
 40
0.0
 40
0.4329957280319827
 40
0.6503560515467744
 40
0.8672615756275351
 40
1.305446770178559
 40
1.739098905056484
 40
1.954088279332187
 40
2.172970668810697
 40
2.61441144428683
 40
3.050370624337332
 40
3.486677011425206
 40
3.927680242198664
 40
4.146685552390935
 40
4.362090948400036
 40
4.79543586142618
 40
5.017398464029136
 40
5.237524152879461
 40
5.453487952873494
 40
5.670035285782042
 40
6.104322691876692
 40
6.104322691876692
 40
6.104322691876692
 40
6.104322691876692
 10
122.0728964263751
 20
702.5545299819084
 30
0.0
 10
122.2171152053959
 20
702.5492759148397
 30
0.0
 10
122.4357317860761
 20
702.4709871868824
 30
0.0
 10
122.6390401091146
 20
702.2765896680188
 30
0.0
 10
122.7749837759194
 20
702.0331080466781
 30
0.0
 10
122.8159476217581
 20
701.6836207741067
 30
0.0
 10
122.6982301260316
 20
701.3448341443976
 30
0.0
 10
122.50165312851
 20
701.1388666300568
 30
0.0
 10
122.2549099728065
 20
700.9869701312429
 30
0.0
 10
121.900245677078
 20
700.8808088229486
 30
0.0
 10
121.461100763771
 20
700.856304864146
 30
0.0
 10
121.0229219797703
 20
700.8929007994196
 30
0.0
 10
120.6719986206061
 20
701.0098248988618
 30
0.0
 10
120.430115173722
 20
701.1683974469428
 30
0.0
 10
120.2370870946962
 20
701.3765249434472
 30
0.0
 10
120.1417947632429
 20
701.6483912388622
 30
0.0
 10
120.1415511720591
 20
701.9233658595208
 30
0.0
 10
120.1901109439778
 20
702.1253344185294
 30
0.0
 10
120.2938385141506
 20
702.3072377038524
 30
0.0
 10
120.5078087358519
 20
702.4925746241917
 30
0.0
 10
120.7298686877731
 20
702.5586641971474
 30
0.0
 10
120.8746225101476
 20
702.5600952836651
 30
0.0
  0
LINE
  5
D2
330
4D
100
AcDbEntity
  8
0
  6
Continuous
 62
     0
370
    30
100
AcDbLine
 10
120.874623
 20
702.560095
 30
0.0
 11
120.874623
 21
702.256325
 31
0.0
  0
LINE
  5
D3
330
4D
100
AcDbEntity
  8
0
  6
Continuous
 62
     0
370
    30
100
AcDbLine
 10
122.072896
 20
703.944906
 30
0.0
 11
122.072896
 21
704.223772
 31
0.0
  0
SPLINE
  5
D4
330
4D
100
AcDbEntity
  8
0
  6
Continuous
 62
     0
370
    30
100
AcDbSpline
210
0.0
220
0.0
230
1.0
 70
     8
 71
     3
 72
    28
 73
    24
 74
     0
 42
0.0
 43
0.0
 40
0.0
 40
0.0
 40
0.0
 40
0.0
 40
0.420447163056052
 40
0.6302954727550846
 40
0.8408442242622233
 40
1.264356009512049
 40
1.683146518034478
 40
1.891353215850199
 40
2.103180002565582
 40
2.318745009213892
 40
2.532573572134464
 40
2.954756629199497
 40
3.377480775805025
 40
3.805430969074709
 40
4.017368875573592
 40
4.226305843304226
 40
4.645601066209493
 40
4.859869049938898
 40
5.073392086735822
 40
5.283190324930735
 40
5.492725046528274
 40
5.705976211204709
 40
5.918133441981339
 40
5.918133441981339
 40
5.918133441981339
 40
5.918133441981339
 10
122.0728964237492
 20
704.2237721970963
 30
0.0
 10
122.212892135813
 20
704.2179710856186
 30
0.0
 10
122.4256996058006
 20
704.1551210742564
 30
0.0
 10
122.6337842545583
 20
703.982708366071
 30
0.0
 10
122.7737594602228
 20
703.7597688079991
 30
0.0
 10
122.8170542077995
 20
703.4310052204348
 30
0.0
 10
122.6822043377022
 20
703.119229135689
 30
0.0
 10
122.4801063813702
 20
702.9376595395997
 30
0.0
 10
122.2946061348616
 20
702.8403910171579
 30
0.0
 10
122.0928014807201
 20
702.7737201875781
 30
0.0
 10
121.8151641436915
 20
702.7165472124593
 30
0.0
 10
121.4608374707968
 20
702.6972500757211
 30
0.0
 10
121.0367266999626
 20
702.7312366830604
 30
0.0
 10
120.6935319425706
 20
702.8284468157448
 30
0.0
 10
120.4502276770083
 20
702.9646848531399
 30
0.0
 10
120.2512855745682
 20
703.1488702984936
 30
0.0
 10
120.1421456999459
 20
703.3991424449184
 30
0.0
 10
120.1399883434411
 20
703.6566319740223
 30
0.0
 10
120.1922718164267
 20
703.844495501882
 30
0.0
 10
120.2999429089799
 20
704.0109524210848
 30
0.0
 10
120.464879794442
 20
704.1339792835607
 30
0.0
 10
120.6620243701271
 20
704.2081511818451
 30
0.0
 10
120.803919522091
 20
704.2274035991336
 30
0.0
 10
120.8746225106004
 20
704.2287294376754
 30
0.0
  0
LINE
  5
D5
330
4D
100
AcDbEntity
  8
0
  6
Continuous
 62
     0
370
    30
100
AcDbLine
 10
120.874623
 20
704.228729
 30
0.0
 11
120.874623
 21
703.957715
 31
0.0
  0
SPLINE
  5
D6
330
4D
100
AcDbEntity
  8
0
  6
Continuous
 62
     0
370
    30
100
AcDbSpline
210
0.0
220
0.0
230
1.0
 70
     8
 71
     3
 72
    23
 73
    19
 74
     0
 42
0.0
 43
0.0
 40
0.0
 40
0.0
 40
0.0
 40
0.0
 40
0.1344406348959635
 40
0.2698087024253294
 40
0.4020113593220688
 40
0.5351093167956869
 40
0.8039622975256736
 40
1.068634646139707
 40
1.334722668476819
 40
1.605909583314183
 40
1.873103289376393
 40
2.143350905299619
 40
2.412004249781777
 40
2.680682206166634
 40
2.949290704837158
 40
3.213805505265973
 40
3.481377106834313
 40
3.74489199651304
 40
3.74489199651304
 40
3.74489199651304
 40
3.74489199651304
 10
120.8746225161148
 20
703.9577153338619
 30
0.0
 10
120.8299659123947
 20
703.954358410458
 30
0.0
 10
120.7408639914407
 20
703.9394408376686
 30
0.0
 10
120.616223903004
 20
703.8921305728734
 30
0.0
 10
120.5121533900629
 20
703.8127398747264
 30
0.0
 10
120.4273951616549
 20
703.6684976297979
 30
0.0
 10
120.414512379709
 20
703.4569078420246
 30
0.0
 10
120.544325494974
 20
703.2310914408862
 30
0.0
 10
120.7781324197365
 20
703.097493203323
 30
0.0
 10
121.0380705527054
 20
703.0328551144107
 30
0.0
 10
121.306208620113
 20
703.0019563887741
 30
0.0
 10
121.5751898807195
 20
702.9990444054608
 30
0.0
 10
121.8444474985224
 20
703.0175808459344
 30
0.0
 10
122.1065285653338
 20
703.0739807302768
 30
0.0
 10
122.3514158300237
 20
703.1892679330614
 30
0.0
 10
122.4979112273597
 20
703.4072357848956
 30
0.0
 10
122.5105499782752
 20
703.6572241735454
 30
0.0
 10
122.412791281733
 20
703.8068538399126
 30
0.0
 10
122.343060983315
 20
703.8548396936305
 30
0.0
  0
ARC
  5
D7
330
4D
100
AcDbEntity
  8
0
  6
Continuous
 62
     0
370
    30
100
AcDbCircle
 10
122.013104
 20
703.315323
 30
0.0
 40
0.6324157082772557
100
AcDbArc
 50
58.550906
 51
84.574797
  0
LINE
  5
D8
330
4D
100
AcDbEntity
  8
0
  6
Continuous
 62
     0
370
    30
100
AcDbLine
 10
122.748339
 20
705.438878
 30
0.0
 11
122.748339
 21
705.662294
 31
0.0
  0
LINE
  5
D9
330
4D
100
AcDbEntity
  8
0
  6
Continuous
 62
     0
370
    30
100
AcDbLine
 10
122.748339
 20
705.662294
 30
0.0
 11
120.181259
 21
705.662294
 31
0.0
  0
LINE
  5
DA
330
4D
100
AcDbEntity
  8
0
  6
Continuous
 62
     0
370
    30
100
AcDbLine
 10
120.181259
 20
705.662294
 30
0.0
 11
120.181259
 21
705.438878
 31
0.0
  0
LINE
  5
DB
330
4D
100
AcDbEntity
  8
0
  6
Continuous
 62
     0
370
    30
100
AcDbLine
 10
120.181259
 20
705.438878
 30
0.0
 11
121.283415
 21
705.438874
 31
0.0
  0
LINE
  5
DC
330
4D
100
AcDbEntity
  8
0
  6
Continuous
 62
     0
370
    30
100
AcDbLine
 10
121.283415
 20
705.438874
 30
0.0
 11
121.283415
 21
704.635502
 31
0.0
  0
LINE
  5
DD
330
4D
100
AcDbEntity
  8
0
  6
Continuous
 62
     0
370
    30
100
AcDbLine
 10
121.283415
 20
704.635502
 30
0.0
 11
120.181259
 21
704.635504
 31
0.0
  0
LINE
  5
DE
330
4D
100
AcDbEntity
  8
0
  6
Continuous
 62
     0
370
    30
100
AcDbLine
 10
120.181259
 20
704.635504
 30
0.0
 11
120.181259
 21
704.39046
 31
0.0
  0
LINE
  5
DF
330
4D
100
AcDbEntity
  8
0
  6
Continuous
 62
     0
370
    30
100
AcDbLine
 10
120.181259
 20
704.39046
 30
0.0
 11
122.748339
 21
704.39046
 31
0.0
  0
LINE
  5
E0
330
4D
100
AcDbEntity
  8
0
  6
Continuous
 62
     0
370
    30
100
AcDbLine
 10
122.748339
 20
704.39046
 30
0.0
 11
122.748339
 21
704.635504
 31
0.0
  0
LINE
  5
E1
330
4D
100
AcDbEntity
  8
0
  6
Continuous
 62
     0
370
    30
100
AcDbLine
 10
122.748339
 20
704.635504
 30
0.0
 11
121.589133
 21
704.6355
 31
0.0
  0
LINE
  5
E2
330
4D
100
AcDbEntity
  8
0
  6
Continuous
 62
     0
370
    30
100
AcDbLine
 10
121.589133
 20
704.6355
 30
0.0
 11
121.589133
 21
705.438872
 31
0.0
  0
LINE
  5
E3
330
4D
100
AcDbEntity
  8
0
  6
Continuous
 62
     0
370
    30
100
AcDbLine
 10
121.589133
 20
705.438872
 30
0.0
 11
122.748339
 21
705.438878
 31
0.0
  0
LINE
  5
E4
330
4D
100
AcDbEntity
  8
0
  6
Continuous
 62
     0
370
    30
100
AcDbLine
 10
120.181259
 20
708.675195
 30
0.0
 11
120.494419
 21
708.675194
 31
0.0
  0
LINE
  5
E5
330
4D
100
AcDbEntity
  8
0
  6
Continuous
 62
     0
370
    30
100
AcDbLine
 10
120.494419
 20
708.675194
 30
0.0
 11
120.494419
 21
708.296963
 31
0.0
  0
LINE
  5
E6
330
4D
100
AcDbEntity
  8
0
  6
Continuous
 62
     0
370
    30
100
AcDbLine
 10
120.494419
 20
708.296963
 30
0.0
 11
122.748339
 21
708.296972
 31
0.0
  0
LINE
  5
E7
330
4D
100
AcDbEntity
  8
0
  6
Continuous
 62
     0
370
    30
100
AcDbLine
 10
122.748339
 20
708.296972
 30
0.0
 11
122.748339
 21
708.135871
 31
0.0
  0
LINE
  5
E8
330
4D
100
AcDbEntity
  8
0
  6
Continuous
 62
     0
370
    30
100
AcDbLine
 10
122.748339
 20
708.135871
 30
0.0
 11
120.494419
 21
708.135848
 31
0.0
  0
LINE
  5
E9
330
4D
100
AcDbEntity
  8
0
  6
Continuous
 62
     0
370
    30
100
AcDbLine
 10
120.494419
 20
708.135848
 30
0.0
 11
120.494419
 21
707.544557
 31
0.0
  0
LINE
  5
EA
330
4D
100
AcDbEntity
  8
0
  6
Continuous
 62
     0
370
    30
100
AcDbLine
 10
120.494419
 20
707.544557
 30
0.0
 11
122.748339
 21
707.544602
 31
0.0
  0
LINE
  5
EB
330
4D
100
AcDbEntity
  8
0
  6
Continuous
 62
     0
370
    30
100
AcDbLine
 10
122.748339
 20
707.544602
 30
0.0
 11
122.748339
 21
707.365815
 31
0.0
  0
LINE
  5
EC
330
4D
100
AcDbEntity
  8
0
  6
Continuous
 62
     0
370
    30
100
AcDbLine
 10
122.748339
 20
707.365815
 30
0.0
 11
120.494419
 21
707.365721
 31
0.0
  0
LINE
  5
ED
330
4D
100
AcDbEntity
  8
0
  6
Continuous
 62
     0
370
    30
100
AcDbLine
 10
120.494419
 20
707.365721
 30
0.0
 11
120.494419
 21
706.067464
 31
0.0
  0
LINE
  5
EE
330
4D
100
AcDbEntity
  8
0
  6
Continuous
 62
     0
370
    30
100
AcDbLine
 10
120.494419
 20
706.067464
 30
0.0
 11
121.283415
 21
706.067456
 31
0.0
  0
LINE
  5
EF
330
4D
100
AcDbEntity
  8
0
  6
Continuous
 62
     0
370
    30
100
AcDbLine
 10
121.283415
 20
706.067456
 30
0.0
 11
121.283415
 21
706.754608
 31
0.0
  0
LINE
  5
F0
330
4D
100
AcDbEntity
  8
0
  6
Continuous
 62
     0
370
    30
100
AcDbLine
 10
121.283415
 20
706.754608
 30
0.0
 11
121.589133
 21
706.754621
 31
0.0
  0
LINE
  5
F1
330
4D
100
AcDbEntity
  8
0
  6
Continuous
 62
     0
370
    30
100
AcDbLine
 10
121.589133
 20
706.754621
 30
0.0
 11
121.589133
 21
706.067459
 31
0.0
  0
LINE
  5
F2
330
4D
100
AcDbEntity
  8
0
  6
Continuous
 62
     0
370
    30
100
AcDbLine
 10
121.589133
 20
706.067459
 30
0.0
 11
122.435387
 21
706.067464
 31
0.0
  0
LINE
  5
F3
330
4D
100
AcDbEntity
  8
0
  6
Continuous
 62
     0
370
    30
100
AcDbLine
 10
122.435387
 20
706.067464
 30
0.0
 11
122.435386
 21
706.803779
 31
0.0
  0
LINE
  5
F4
330
4D
100
AcDbEntity
  8
0
  6
Continuous
 62
     0
370
    30
100
AcDbLine
 10
122.435386
 20
706.803779
 30
0.0
 11
122.748339
 21
706.803896
 31
0.0
  0
LINE
  5
F5
330
4D
100
AcDbEntity
  8
0
  6
Continuous
 62
     0
370
    30
100
AcDbLine
 10
122.748339
 20
706.803896
 30
0.0
 11
122.748339
 21
705.852858
 31
0.0
  0
LINE
  5
F6
330
4D
100
AcDbEntity
  8
0
  6
Continuous
 62
     0
370
    30
100
AcDbLine
 10
122.748339
 20
705.852858
 30
0.0
 11
120.181259
 21
705.852858
 31
0.0
  0
LINE
  5
F7
330
4D
100
AcDbEntity
  8
0
  6
Continuous
 62
     0
370
    30
100
AcDbLine
 10
120.181259
 20
705.852858
 30
0.0
 11
120.181259
 21
708.675195
 31
0.0
  0
LINE
  5
F8
330
4D
100
AcDbEntity
  8
0
  6
Continuous
 62
     0
370
    30
100
AcDbLine
 10
122.748339
 20
708.787986
 30
0.0
 11
122.748339
 21
708.93534
 31
0.0
  0
LINE
  5
F9
330
4D
100
AcDbEntity
  8
0
  6
Continuous
 62
     0
370
    30
100
AcDbLine
 10
122.748339
 20
708.93534
 30
0.0
 11
120.181259
 21
708.93534
 31
0.0
  0
LINE
  5
FA
330
4D
100
AcDbEntity
  8
0
  6
Continuous
 62
     0
370
    30
100
AcDbLine
 10
120.181259
 20
708.93534
 30
0.0
 11
120.181259
 21
708.787986
 31
0.0
  0
LINE
  5
FB
330
4D
100
AcDbEntity
  8
0
  6
Continuous
 62
     0
370
    30
100
AcDbLine
 10
120.181259
 20
708.787986
 30
0.0
 11
122.748339
 21
708.787986
 31
0.0
  0
LINE
  5
FC
330
4D
100
AcDbEntity
  8
0
  6
Continuous
 62
     0
370
    30
100
AcDbLine
 10
122.072825
 20
709.272396
 30
0.0
 11
122.072825
 21
709.132628
 31
0.0
  0
LINE
  5
FD
330
4D
100
AcDbEntity
  8
0
  6
Continuous
 62
     0
370
    30
100
AcDbLine
 10
122.072825
 20
709.132628
 30
0.0
 11
122.748339
 21
709.132628
 31
0.0
  0
LINE
  5
FE
330
4D
100
AcDbEntity
  8
0
  6
Continuous
 62
     0
370
    30
100
AcDbLine
 10
122.748339
 20
709.132628
 30
0.0
 11
122.748339
 21
709.272396
 31
0.0
  0
LINE
  5
FF
330
4D
100
AcDbEntity
  8
0
  6
Continuous
 62
     0
370
    30
100
AcDbLine
 10
122.748339
 20
709.272396
 30
0.0
 11
122.072825
 21
709.272396
 31
0.0
  0
ENDBLK
  5
101
330
4D
100
AcDbEntity
  8
0
100
AcDbBlockEnd
  0
BLOCK
  5
183
330
103
100
AcDbEntity
  8
0
100
AcDbBlockBegin
  2
b
 70
     0
 10
20.520897
 20
179.416
 30
0.0
  3
b
  1

  0
LINE
  5
104
330
103
100
AcDbEntity
  8
0
  6
Continuous
 62
     0
370
    30
100
AcDbLine
 10
89.081257
 20
250.660929
 30
0.0
 11
106.081259
 21
250.660929
 31
0.0
  0
LINE
  5
105
330
103
100
AcDbEntity
  8
0
  6
Continuous
 62
     0
370
     0
100
AcDbLine
 10
106.081257
 20
273.160928
 30
0.0
 11
106.081259
 21
250.660929
 31
0.0
  0
LINE
  5
106
330
103
100
AcDbEntity
  8
0
  6
Continuous
 62
     0
370
     0
100
AcDbLine
 10
100.581257
 20
273.160928
 30
0.0
 11
106.081257
 21
273.160928
 31
0.0
  0
LINE
  5
107
330
103
100
AcDbEntity
  8
0
  6
Continuous
 62
     0
370
    30
100
AcDbLine
 10
106.081259
 20
295.660929
 30
0.0
 11
78.081257
 21
295.660928
 31
0.0
  0
LINE
  5
108
330
103
100
AcDbEntity
  8
0
  6
Continuous
 62
     0
370
     0
100
AcDbLine
 10
106.081259
 20
295.660929
 30
0.0
 11
106.081257
 21
273.160928
 31
0.0
  0
LINE
  5
109
330
103
100
AcDbEntity
  8
0
  6
Continuous
 62
     0
370
     0
100
AcDbLine
 10
106.081257
 20
273.160928
 30
0.0
 11
108.389191
 21
273.160928
 31
0.0
  0
SPLINE
  5
10A
330
103
100
AcDbEntity
  8
0
  6
Continuous
 62
     0
370
     0
100
AcDbSpline
210
0.0
220
0.0
230
1.0
 70
     8
 71
     3
 72
    17
 73
    13
 74
     0
 42
0.0
 43
0.0
 40
0.0000008786908991
 40
0.0000008786908991
 40
0.0000008786908991
 40
0.0000008786908991
 40
1.722041878365568
 40
4.592242313609074
 40
9.497910929737008
 40
14.56034194697127
 40
19.62281862147591
 40
24.68543702431104
 40
27.84976335440597
 40
29.74847879832352
 40
33.12406851476702
 40
35.3434206042598
 40
35.3434206042598
 40
35.3434206042598
 40
35.3434206042598
 10
108.2250422889453
 20
295.6609290621347
 30
0.0
 10
108.2235234019613
 20
295.6609290146172
 30
0.0
 10
108.2203154360647
 20
295.6023096653623
 30
0.0
 10
108.2159499452809
 20
295.1588124948109
 30
0.0
 10
108.2187267298173
 20
293.8329607482337
 30
0.0
 10
108.2325653064736
 20
291.2639300688369
 30
0.0
 10
108.2576273644165
 20
287.7555581082678
 30
0.0
 10
108.2881916177521
 20
284.041809076811
 30
0.0
 10
108.3154655041576
 20
280.9297806136248
 30
0.0
 10
108.3401055098983
 20
278.2326937504242
 30
0.0
 10
108.3638165737903
 20
275.7658104181774
 30
0.0
 10
108.3818383789355
 20
273.9003804314962
 30
0.0
 10
108.3891909735744
 20
273.1609280711803
 30
0.0
  0
LINE
  5
10B
330
103
100
AcDbEntity
  8
0
  6
Continuous
 62
     0
370
    30
100
AcDbLine
 10
108.225042
 20
295.660929
 30
0.0
 11
106.081259
 21
295.660929
 31
0.0
  0
LINE
  5
10C
330
103
100
AcDbEntity
  8
0
  6
Continuous
 62
     0
370
    30
100
AcDbLine
 10
108.672554
 20
250.660929
 30
0.0
 11
106.081259
 21
250.660929
 31
0.0
  0
SPLINE
  5
10D
330
103
100
AcDbEntity
  8
0
  6
Continuous
 62
     0
370
     0
100
AcDbSpline
210
0.0
220
0.0
230
1.0
 70
     8
 71
     3
 72
    17
 73
    13
 74
     0
 42
0.0
 43
0.0
 40
0.0
 40
0.0
 40
0.0
 40
0.0
 40
1.706339016653732
 40
4.550383530542367
 40
9.442487500490753
 40
14.50535991567011
 40
19.56799959870319
 40
24.63039839870083
 40
27.79445294476594
 40
29.69293249906594
 40
33.06807680507281
 40
35.34401262602155
 40
35.34401262602155
 40
35.34401262602155
 40
35.34401262602155
 10
108.3891909735744
 20
273.1609280711828
 30
0.0
 10
108.3948449011803
 20
272.5923110971117
 30
0.0
 10
108.4103599278796
 20
271.0753526930674
 30
0.0
 10
108.44206936799
 20
267.952273946191
 30
0.0
 10
108.4866509991555
 20
263.8665476752431
 30
0.0
 10
108.5363535621528
 20
259.5257401335882
 30
0.0
 10
108.5824044745101
 20
255.8229570683798
 30
0.0
 10
108.6170284347294
 20
253.3480405920456
 30
0.0
 10
108.6383849433572
 20
252.0125262608808
 30
0.0
 10
108.6535767143937
 20
251.1985008794589
 30
0.0
 10
108.664921853715
 20
250.7562604478007
 30
0.0
 10
108.6705452052203
 20
250.6609290577868
 30
0.0
 10
108.6725535383112
 20
250.6609290472364
 30
0.0
  0
ARC
  5
10E
330
103
100
AcDbEntity
  8
0
  6
Continuous
 62
     0
370
    30
100
AcDbCircle
 10
78.080962
 20
273.160633
 30
0.0
 40
22.50029451226934
100
AcDbArc
 50
0.00075
 51
89.99925
  0
ARC
  5
10F
330
103
100
AcDbEntity
  8
0
  6
Continuous
 62
     0
370
    30
100
AcDbCircle
 10
78.080587
 20
273.161403
 30
0.0
 40
22.50066973561767
100
AcDbArc
 50
299.268577
 51
359.998791
  0
LINE
  5
110
330
103
100
AcDbEntity
  8
0
  6
Continuous
 62
     0
370
    30
100
AcDbLine
 10
116.081257
 20
273.149202
 30
0.0
 11
116.081257
 21
295.249203
 31
0.0
  0
LINE
  5
111
330
103
100
AcDbEntity
  8
0
  6
Continuous
 62
     0
370
    30
100
AcDbLine
 10
116.081257
 20
251.049203
 30
0.0
 11
116.081257
 21
273.149202
 31
0.0
  0
ARC
  5
112
330
103
100
AcDbEntity
  8
0
  6
Continuous
 62
     0
370
    30
100
AcDbCircle
 10
78.081257
 20
273.160928
 30
0.0
 40
22.50000000745057
100
AcDbArc
 50
90.0
 51
240.732422
  0
ARC
  5
113
330
103
100
AcDbEntity
  8
0
  6
Continuous
 62
     0
370
    30
100
AcDbCircle
 10
78.081257
 20
273.160928
 30
0.0
 40
22.12614672386328
100
AcDbArc
 50
180.0
 51
240.188417
  0
ARC
  5
114
330
103
100
AcDbEntity
  8
0
  6
Continuous
 62
     0
370
    30
100
AcDbCircle
 10
78.081257
 20
273.160928
 30
0.0
 40
22.12614672386328
100
AcDbArc
 50
299.811583
 51
0.0
  0
ARC
  5
115
330
103
100
AcDbEntity
  8
0
  6
Continuous
 62
     0
370
    30
100
AcDbCircle
 10
78.081257
 20
273.160928
 30
0.0
 40
22.12614672386328
100
AcDbArc
 50
0.0
 51
180.0
  0
LINE
  5
116
330
103
100
AcDbEntity
  8
0
  6
Continuous
 62
     0
370
    30
100
AcDbLine
 10
108.225051
 20
295.660929
 30
0.0
 11
116.081257
 21
295.249203
 31
0.0
  0
LINE
  5
117
330
103
100
AcDbEntity
  8
0
  6
Continuous
 62
     0
370
    30
100
AcDbLine
 10
108.672563
 20
250.660929
 30
0.0
 11
116.081257
 21
251.049203
 31
0.0
  0
ARC
  5
118
330
103
100
AcDbEntity
  8
0
  6
Continuous
 62
     0
370
    30
100
AcDbCircle
 10
133.181258
 20
273.160911
 30
0.0
 40
6.5
100
AcDbArc
 50
97.531999
 51
277.531999
  0
ARC
  5
119
330
103
100
AcDbEntity
  8
0
  6
Continuous
 62
     0
370
    30
100
AcDbCircle
 10
133.181258
 20
273.160911
 30
0.0
 40
6.5
100
AcDbArc
 50
277.531999
 51
97.531999
  0
LINE
  5
11A
330
103
100
AcDbEntity
  8
0
  6
Continuous
 62
     0
370
     0
100
AcDbLine
 10
139.681258
 20
273.160921
 30
0.0
 11
144.664562
 21
273.160921
 31
0.0
  0
SPLINE
  5
11B
330
103
100
AcDbEntity
  8
0
  6
Continuous
 62
     0
370
     0
100
AcDbSpline
210
0.0
220
0.0
230
1.0
 70
     8
 71
     3
 72
    21
 73
    17
 74
     0
 42
0.0
 43
0.0
 40
0.0
 40
0.0
 40
0.0
 40
0.0
 40
3.004295903646847
 40
6.017293057819065
 40
8.458208939344342
 40
9.93455495835826
 40
12.21528003184906
 40
14.06340335768629
 40
16.08163160756787
 40
18.25474785008328
 40
19.90381535291387
 40
21.84159665188864
 40
24.58282184243805
 40
27.2451884162121
 40
30.59472225158421
 40
33.05208433184013
 40
33.05208433184013
 40
33.05208433184013
 40
33.05208433184013
 10
121.6979487652848
 20
273.1609219081167
 30
0.0
 10
121.6979487652848
 20
274.060685411583
 30
0.0
 10
122.0233444270846
 20
275.8619737283431
 30
0.0
 10
123.3311385539726
 20
278.1513212108197
 30
0.0
 10
124.9302207965169
 20
279.7208819212883
 30
0.0
 10
126.6429803068017
 20
280.8834762618553
 30
0.0
 10
128.4079370177129
 20
281.7041447198404
 30
0.0
 10
130.5382281719818
 20
282.2860186416181
 30
0.0
 10
132.7442296303416
 20
282.5381107877081
 30
0.0
 10
134.9000682319564
 20
282.4297096480832
 30
0.0
 10
136.94933267758
 20
282.0137118594554
 30
0.0
 10
139.0571833253493
 20
281.2584202447762
 30
0.0
 10
141.1963137968873
 20
279.9753097460001
 30
0.0
 10
143.1959676108158
 20
277.9754641640665
 30
0.0
 10
144.4089360896473
 20
275.6360555022591
 30
0.0
 10
144.6645619158675
 20
273.8968829404279
 30
0.0
 10
144.6645619158675
 20
273.1609219081167
 30
0.0
  0
LINE
  5
11C
330
103
100
AcDbEntity
  8
0
  6
Continuous
 62
     0
370
     0
100
AcDbLine
 10
121.697949
 20
273.160921
 30
0.0
 11
126.681255
 21
273.160921
 31
0.0
  0
SPLINE
  5
11D
330
103
100
AcDbEntity
  8
0
  6
Continuous
 62
     0
370
     0
100
AcDbSpline
210
0.0
220
0.0
230
1.0
 70
     8
 71
     3
 72
    21
 73
    17
 74
     0
 42
0.0
 43
0.0
 40
0.0
 40
0.0
 40
0.0
 40
0.0
 40
3.004295903647487
 40
6.01729305781994
 40
8.458208939345289
 40
9.934554958359266
 40
12.21528003185013
 40
14.06340335768736
 40
16.08163160756893
 40
18.25474785008434
 40
19.90381535291495
 40
21.8415966518898
 40
24.58282184243938
 40
27.24518841621357
 40
30.59472225158563
 40
33.05208433184011
 40
33.05208433184011
 40
33.05208433184011
 40
33.05208433184011
 10
144.6645619158675
 20
273.1609219081167
 30
0.0
 10
144.6645619158675
 20
272.2611584046502
 30
0.0
 10
144.3391662540676
 20
270.4598701263913
 30
0.0
 10
143.0313721271793
 20
268.1705227880029
 30
0.0
 10
141.4322898846347
 20
266.6009622292577
 30
0.0
 10
139.7195303743497
 20
265.4383680248378
 30
0.0
 10
137.9545736634384
 20
264.6176996786525
 30
0.0
 10
135.8242825091694
 20
264.0358258443399
 30
0.0
 10
133.6182810508095
 20
263.783733738358
 30
0.0
 10
131.4624424491948
 20
263.8921348605162
 30
0.0
 10
129.4131780035711
 20
264.3081325849782
 30
0.0
 10
127.3053273558019
 20
265.063424090717
 30
0.0
 10
125.1661968842639
 20
266.3465344281315
 30
0.0
 10
123.1665430703357
 20
268.3463798183315
 30
0.0
 10
121.9535745915048
 20
270.685788343992
 30
0.0
 10
121.6979487652848
 20
272.424960875806
 30
0.0
 10
121.6979487652848
 20
273.1609219081167
 30
0.0
  0
ARC
  5
11E
330
103
100
AcDbEntity
  8
0
  6
Continuous
 62
     0
370
    30
100
AcDbCircle
 10
117.37398
 20
292.241652
 30
0.0
 40
2.919273344350485
100
AcDbArc
 50
90.00106
 51
93.78531
  0
ARC
  5
11F
330
103
100
AcDbEntity
  8
0
  6
Continuous
 62
     0
370
    30
100
AcDbCircle
 10
117.373977
 20
254.080199
 30
0.0
 40
2.919273682631333
100
AcDbArc
 50
266.214743
 51
269.99866
  0
LINE
  5
120
330
103
100
AcDbEntity
  8
0
  6
Continuous
 62
     0
370
    30
100
AcDbLine
 10
117.181255
 20
295.154557
 30
0.0
 11
117.181255
 21
273.160922
 31
0.0
  0
LINE
  5
121
330
103
100
AcDbEntity
  8
0
  6
Continuous
 62
     0
370
    30
100
AcDbLine
 10
117.181255
 20
273.160922
 30
0.0
 11
117.181255
 21
251.167294
 31
0.0
  0
LINE
  5
122
330
103
100
AcDbEntity
  8
0
  6
Continuous
 62
     0
370
     0
100
AcDbLine
 10
147.681255
 20
295.160926
 30
0.0
 11
147.681255
 21
273.160922
 31
0.0
  0
LINE
  5
123
330
103
100
AcDbEntity
  8
0
  6
Continuous
 62
     0
370
     0
100
AcDbLine
 10
147.681255
 20
273.160922
 30
0.0
 11
147.681255
 21
251.160926
 31
0.0
  0
LINE
  5
124
330
103
100
AcDbEntity
  8
0
  6
Continuous
 62
     0
370
    30
100
AcDbLine
 10
148.181255
 20
273.160922
 30
0.0
 11
148.181255
 21
251.660926
 31
0.0
  0
LINE
  5
125
330
103
100
AcDbEntity
  8
0
  6
Continuous
 62
     0
370
    30
100
AcDbLine
 10
148.181255
 20
294.660926
 30
0.0
 11
148.181255
 21
273.160922
 31
0.0
  0
ARC
  5
126
330
103
100
AcDbEntity
  8
0
  6
Continuous
 62
     0
370
    30
100
AcDbCircle
 10
147.681218
 20
294.660889
 30
0.0
 40
0.5000369491425254
100
AcDbArc
 50
0.008983
 51
89.995767
  0
ARC
  5
127
330
103
100
AcDbEntity
  8
0
  6
Continuous
 62
     0
370
    30
100
AcDbCircle
 10
147.681218
 20
251.660963
 30
0.0
 40
0.5000369491412113
100
AcDbArc
 50
270.004233
 51
359.991017
  0
LINE
  5
128
330
103
100
AcDbEntity
  8
0
  6
Continuous
 62
     0
370
    30
100
AcDbLine
 10
117.373909
 20
251.160926
 30
0.0
 11
147.681255
 21
251.160926
 31
0.0
  0
LINE
  5
129
330
103
100
AcDbEntity
  8
0
  6
Continuous
 62
     0
370
    30
100
AcDbLine
 10
117.373911
 20
295.160926
 30
0.0
 11
147.681255
 21
295.160926
 31
0.0
  0
ARC
  5
12A
330
103
100
AcDbEntity
  8
0
  6
Continuous
 62
     0
370
     0
100
AcDbCircle
 10
78.081257
 20
273.160935
 30
0.0
 40
27.0
100
AcDbArc
 50
63.140443
 51
243.140443
  0
ARC
  5
12B
330
103
100
AcDbEntity
  8
0
  6
Continuous
 62
     0
370
     0
100
AcDbCircle
 10
78.081257
 20
273.160935
 30
0.0
 40
27.0
100
AcDbArc
 50
56.44269
 51
63.140443
  0
ARC
  5
12C
330
103
100
AcDbEntity
  8
0
  6
Continuous
 62
     0
370
     0
100
AcDbCircle
 10
78.081257
 20
273.160935
 30
0.0
 40
27.0
100
AcDbArc
 50
294.042076
 51
303.55731
  0
ARC
  5
12D
330
103
100
AcDbEntity
  8
0
  6
Continuous
 62
     0
370
     0
100
AcDbCircle
 10
78.081257
 20
273.160935
 30
0.0
 40
27.0
100
AcDbArc
 50
243.140443
 51
245.957924
  0
ARC
  5
12E
330
103
100
AcDbEntity
  8
0
  6
Continuous
 62
     0
370
    30
100
AcDbCircle
 10
78.081257
 20
273.160935
 30
0.0
 40
30.0
100
AcDbArc
 50
48.590378
 51
63.140443
  0
ARC
  5
12F
330
103
100
AcDbEntity
  8
0
  6
Continuous
 62
     0
370
    30
100
AcDbCircle
 10
78.081257
 20
273.160935
 30
0.0
 40
30.0
100
AcDbArc
 50
291.510188
 51
311.409622
  0
ARC
  5
130
330
103
100
AcDbEntity
  8
0
  6
Continuous
 62
     0
370
    30
100
AcDbCircle
 10
78.081257
 20
273.160935
 30
0.0
 40
30.0
100
AcDbArc
 50
243.140443
 51
248.489812
  0
ARC
  5
131
330
103
100
AcDbEntity
  8
0
  6
Continuous
 62
     0
370
    30
100
AcDbCircle
 10
78.081257
 20
273.160935
 30
0.0
 40
30.0
100
AcDbArc
 50
63.140443
 51
243.140443
  0
ARC
  5
132
330
103
100
AcDbEntity
  8
0
  6
Continuous
 62
     0
370
     0
100
AcDbCircle
 10
78.081257
 20
273.160935
 30
0.0
 40
29.5
100
AcDbArc
 50
63.140443
 51
243.140443
  0
ARC
  5
133
330
103
100
AcDbEntity
  8
0
  6
Continuous
 62
     0
370
     0
100
AcDbCircle
 10
78.081257
 20
273.160935
 30
0.0
 40
29.5
100
AcDbArc
 50
49.703857
 51
63.140443
  0
ARC
  5
134
330
103
100
AcDbEntity
  8
0
  6
Continuous
 62
     0
370
     0
100
AcDbCircle
 10
78.081257
 20
273.160935
 30
0.0
 40
29.5
100
AcDbArc
 50
291.893428
 51
310.296143
  0
ARC
  5
135
330
103
100
AcDbEntity
  8
0
  6
Continuous
 62
     0
370
     0
100
AcDbCircle
 10
78.081257
 20
273.160935
 30
0.0
 40
29.5
100
AcDbArc
 50
243.140443
 51
248.106572
  0
ARC
  5
136
330
103
100
AcDbEntity
  8
0
  6
Continuous
 62
     0
370
    30
100
AcDbCircle
 10
78.081257
 20
273.160923
 30
0.0
 40
11.0
100
AcDbArc
 50
0.0
 51
180.0
  0
LINE
  5
137
330
103
100
AcDbEntity
  8
0
  6
Continuous
 62
     0
370
    30
100
AcDbLine
 10
67.081257
 20
273.160923
 30
0.0
 11
67.081257
 21
93.160923
 31
0.0
  0
ARC
  5
138
330
103
100
AcDbEntity
  8
0
  6
Continuous
 62
     0
370
    30
100
AcDbCircle
 10
78.081257
 20
93.160923
 30
0.0
 40
11.0
100
AcDbArc
 50
180.0
 51
360.0
  0
LINE
  5
139
330
103
100
AcDbEntity
  8
0
  6
Continuous
 62
     0
370
    30
100
AcDbLine
 10
89.081257
 20
93.160926
 30
0.0
 11
89.081257
 21
273.160923
 31
0.0
  0
ARC
  5
13A
330
103
100
AcDbEntity
  8
0
  6
Continuous
 62
     0
370
    30
100
AcDbCircle
 10
78.081257
 20
273.160927
 30
0.0
 40
11.25
100
AcDbArc
 50
347.898508
 51
104.359285
  0
ARC
  5
13B
330
103
100
AcDbEntity
  8
0
  6
Continuous
 62
     0
370
    30
100
AcDbCircle
 10
78.081257
 20
273.160927
 30
0.0
 40
11.25
100
AcDbArc
 50
104.359285
 51
192.101492
  0
ARC
  5
13C
330
103
100
AcDbEntity
  8
0
  6
Continuous
 62
     0
370
     0
100
AcDbCircle
 10
78.081257
 20
273.160927
 30
0.0
 40
21.5
100
AcDbArc
 50
300.772325
 51
104.359285
  0
ARC
  5
13D
330
103
100
AcDbEntity
  8
0
  6
Continuous
 62
     0
370
     0
100
AcDbCircle
 10
78.081257
 20
273.160927
 30
0.0
 40
21.5
100
AcDbArc
 50
104.359285
 51
239.227675
  0
ARC
  5
13E
330
103
100
AcDbEntity
  8
0
  6
Continuous
 62
     0
370
    30
100
AcDbCircle
 10
78.081257
 20
273.160927
 30
0.0
 40
22.0
100
AcDbArc
 50
300.0
 51
104.359285
  0
ARC
  5
13F
330
103
100
AcDbEntity
  8
0
  6
Continuous
 62
     0
370
    30
100
AcDbCircle
 10
78.081257
 20
273.160927
 30
0.0
 40
22.0
100
AcDbArc
 50
104.359285
 51
240.0
  0
ARC
  5
140
330
103
100
AcDbEntity
  8
0
  6
Continuous
 62
     0
370
    30
100
AcDbCircle
 10
114.710853
 20
273.099806
 30
0.0
 40
20.42760338744059
100
AcDbArc
 50
84.746492
 51
86.153372
  0
LINE
  5
141
330
103
100
AcDbEntity
  8
0
  6
Continuous
 62
     0
370
    30
100
AcDbLine
 10
116.581257
 20
293.471292
 30
0.0
 11
116.581257
 21
293.263449
 31
0.0
  0
ARC
  5
142
330
103
100
AcDbEntity
  8
0
  6
Continuous
 62
     0
370
    30
100
AcDbCircle
 10
114.710862
 20
272.921775
 30
0.0
 40
20.42748326543045
100
AcDbArc
 50
84.746488
 51
86.153376
  0
LINE
  5
143
330
103
100
AcDbEntity
  8
0
  6
Continuous
 62
     0
370
    30
100
AcDbLine
 10
116.581257
 20
293.471292
 30
0.0
 11
117.181255
 21
293.407351
 31
0.0
  0
ARC
  5
144
330
103
100
AcDbEntity
  8
0
  6
Continuous
 62
     0
370
    30
100
AcDbCircle
 10
114.719672
 20
273.124671
 30
0.0
 40
20.35932260074868
100
AcDbArc
 50
273.834672
 51
276.944447
  0
LINE
  5
145
330
103
100
AcDbEntity
  8
0
  6
Continuous
 62
     0
370
    30
100
AcDbLine
 10
122.392801
 20
251.300587
 30
0.0
 11
122.748542
 21
251.300605
 31
0.0
  0
LINE
  5
146
330
103
100
AcDbEntity
  8
0
  6
Continuous
 62
     0
370
    30
100
AcDbLine
 10
122.748542
 20
251.300605
 30
0.0
 11
122.748542
 21
251.592338
 31
0.0
  0
LINE
  5
147
330
103
100
AcDbEntity
  8
0
  6
Continuous
 62
     0
370
    30
100
AcDbLine
 10
122.748542
 20
251.592338
 30
0.0
 11
122.435383
 21
251.592339
 31
0.0
  0
LINE
  5
148
330
103
100
AcDbEntity
  8
0
  6
Continuous
 62
     0
370
    30
100
AcDbLine
 10
122.435383
 20
251.592339
 30
0.0
 11
122.435383
 21
251.34961
 31
0.0
  0
LINE
  5
149
330
103
100
AcDbEntity
  8
0
  6
Continuous
 62
     0
370
    30
100
AcDbLine
 10
120.533275
 20
251.587596
 30
0.0
 11
120.181255
 21
251.587608
 31
0.0
  0
LINE
  5
14A
330
103
100
AcDbEntity
  8
0
  6
Continuous
 62
     0
370
    30
100
AcDbLine
 10
120.181255
 20
251.587608
 30
0.0
 11
120.181255
 21
251.304971
 31
0.0
  0
LINE
  5
14B
330
103
100
AcDbEntity
  8
0
  6
Continuous
 62
     0
370
    30
100
AcDbLine
 10
120.181255
 20
251.304971
 30
0.0
 11
120.494208
 21
251.304975
 31
0.0
  0
LINE
  5
14C
330
103
100
AcDbEntity
  8
0
  6
Continuous
 62
     0
370
    30
100
AcDbLine
 10
120.180893
 20
251.711343
 30
0.0
 11
121.770047
 21
251.711371
 31
0.0
  0
SPLINE
  5
14D
330
103
100
AcDbEntity
  8
0
  6
Continuous
 62
     0
370
    30
100
AcDbSpline
210
0.0
220
0.0
230
1.0
 70
     8
 71
     3
 72
    10
 73
     6
 74
     0
 42
0.0
 43
0.0
 40
0.0
 40
0.0
 40
0.0
 40
0.0
 40
0.1607383031801948
 40
0.3212678064986665
 40
0.4814978669279018
 40
0.4814978669279018
 40
0.4814978669279018
 40
0.4814978669279018
 10
121.7700472900074
 20
251.7113713635678
 30
0.0
 10
121.8236267228815
 20
251.7113809770682
 30
0.0
 10
121.930692180597
 20
251.7123310164747
 30
0.0
 10
122.0902468847226
 20
251.7181075832567
 30
0.0
 10
122.188095508085
 20
251.7288146619856
 30
0.0
 10
122.2322416323926
 20
251.7356337335354
 30
0.0
  0
SPLINE
  5
14E
330
103
100
AcDbEntity
  8
0
  6
Continuous
 62
     0
370
    30
100
AcDbSpline
210
0.0
220
0.0
230
1.0
 70
     8
 71
     3
 72
    14
 73
    10
 74
     0
 42
0.0
 43
0.0
 40
0.0
 40
0.0
 40
0.0
 40
0.0
 40
0.2483063195049807
 40
0.4973415118280721
 40
0.7469539897613074
 40
0.9957853863575405
 40
1.243643039570703
 40
1.492316197299798
 40
1.742344279104773
 40
1.742344279104773
 40
1.742344279104773
 40
1.742344279104773
 10
122.2322416323971
 20
251.7356337335409
 30
0.0
 10
122.2995599918343
 20
251.7465509350662
 30
0.0
 10
122.4157712044522
 20
251.7758902486184
 30
0.0
 10
122.4876108170769
 20
251.8345307249586
 30
0.0
 10
122.4893230080101
 20
251.897484290042
 30
0.0
 10
122.4261994473298
 20
251.9623611040061
 30
0.0
 10
122.2482131886494
 20
252.0143126400235
 30
0.0
 10
122.0060740691229
 20
252.0371574904859
 30
0.0
 10
121.839333754291
 20
252.0393181985752
 30
0.0
 10
121.755991291284
 20
252.0392467412073
 30
0.0
  0
LINE
  5
14F
330
103
100
AcDbEntity
  8
0
  6
Continuous
 62
     0
370
    30
100
AcDbLine
 10
121.755991
 20
252.039247
 30
0.0
 11
120.180893
 21
252.039216
 31
0.0
  0
LINE
  5
150
330
103
100
AcDbEntity
  8
0
  6
Continuous
 62
     0
370
    30
100
AcDbLine
 10
120.180893
 20
252.129974
 30
0.0
 11
121.763019
 21
252.130023
 31
0.0
  0
SPLINE
  5
151
330
103
100
AcDbEntity
  8
0
  6
Continuous
 62
     0
370
    30
100
AcDbSpline
210
0.0
220
0.0
230
1.0
 70
     8
 71
     3
 72
    10
 73
     6
 74
     0
 42
0.0
 43
0.0
 40
0.0
 40
0.0
 40
0.0
 40
0.0
 40
0.2406503714594196
 40
0.4809889051886758
 40
0.721158888053054
 40
0.721158888053054
 40
0.721158888053054
 40
0.721158888053054
 10
121.7630192997265
 20
252.1300231413107
 30
0.0
 10
121.8432360901248
 20
252.1300193799154
 30
0.0
 10
122.0040703614916
 20
252.1277691081631
 30
0.0
 10
122.2391763366383
 20
252.1104065177286
 30
0.0
 10
122.3816218500284
 20
252.0878827564924
 30
0.0
 10
122.4459754751011
 20
252.0743066465648
 30
0.0
  0
SPLINE
  5
152
330
103
100
AcDbEntity
  8
0
  6
Continuous
 62
     0
370
    30
100
AcDbSpline
210
0.0
220
0.0
230
1.0
 70
     8
 71
     3
 72
    14
 73
    10
 74
     0
 42
0.0
 43
0.0
 40
0.0
 40
0.0
 40
0.0
 40
0.0
 40
0.2658311356644136
 40
0.5318324899200813
 40
0.7981789482599619
 40
1.064703722663622
 40
1.331140912478696
 40
1.59725580011786
 40
1.863124513833546
 40
1.863124513833546
 40
1.863124513833546
 40
1.863124513833546
 10
122.4459754751011
 20
252.0743066465648
 30
0.0
 10
122.5173378031906
 20
252.0593302649944
 30
0.0
 10
122.6446004158761
 20
252.0229171023184
 30
0.0
 10
122.7612455343981
 20
251.9566112106531
 30
0.0
 10
122.8086540034045
 20
251.8875065262882
 30
0.0
 10
122.7963057412462
 20
251.8207685841757
 30
0.0
 10
122.7288172108351
 20
251.7590971915776
 30
0.0
 10
122.5986410055664
 20
251.7057338905634
 30
0.0
 10
122.4661088520358
 20
251.6790822611513
 30
0.0
 10
122.3924386319272
 20
251.6685394153544
 30
0.0
  0
SPLINE
  5
153
330
103
100
AcDbEntity
  8
0
  6
Continuous
 62
     0
370
    30
100
AcDbSpline
210
0.0
220
0.0
230
1.0
 70
     8
 71
     3
 72
    10
 73
     6
 74
     0
 42
0.0
 43
0.0
 40
0.0
 40
0.0
 40
0.0
 40
0.0
 40
0.2234824778642054
 40
0.4474133988426866
 40
0.6716368634533153
 40
0.6716368634533153
 40
0.6716368634533153
 40
0.6716368634533153
 10
122.3924386319278
 20
251.6685394153545
 30
0.0
 10
122.3301320249691
 20
251.659804338695
 30
0.0
 10
122.1922453370803
 20
251.6463607949546
 30
0.0
 10
121.9693150179008
 20
251.639660198351
 30
0.0
 10
121.8199837429787
 20
251.6385727357542
 30
0.0
 10
121.745242588624
 20
251.6385692472462
 30
0.0
  0
LINE
  5
154
330
103
100
AcDbEntity
  8
0
  6
Continuous
 62
     0
370
    30
100
AcDbLine
 10
121.745243
 20
251.638569
 30
0.0
 11
120.180893
 21
251.638508
 31
0.0
  0
SPLINE
  5
155
330
103
100
AcDbEntity
  8
0
  6
Continuous
 62
     0
370
    30
100
AcDbSpline
210
0.0
220
0.0
230
1.0
 70
     8
 71
     3
 72
    25
 73
    21
 74
     0
 42
0.0
 43
0.0
 40
0.0
 40
0.0
 40
0.0
 40
0.0
 40
0.2754117203151685
 40
0.4117111493874493
 40
0.5484227172847359
 40
0.6882255408435669
 40
0.828517537529593
 40
1.101530130229451
 40
1.374996099329444
 40
1.654519371669836
 40
2.206611179020704
 40
2.483601928484152
 40
2.760074308334973
 40
3.036299766838883
 40
3.172821653322534
 40
3.311285244432745
 40
3.451140522921229
 40
3.589993566819087
 40
3.726555894954437
 40
3.865086221907652
 40
3.865086221907652
 40
3.865086221907652
 40
3.865086221907652
 10
120.8746187015332
 20
252.690176204595
 30
0.0
 10
120.7830538244775
 20
252.687744861947
 30
0.0
 10
120.6444263185026
 20
252.6712361892945
 30
0.0
 10
120.5092252974161
 20
252.6251088932226
 30
0.0
 10
120.4476486032659
 20
252.580182318443
 30
0.0
 10
120.4229867430603
 20
252.531722906978
 30
0.0
 10
120.4346332708588
 20
252.4679862117585
 30
0.0
 10
120.5303918058848
 20
252.3942018612941
 30
0.0
 10
120.7631853185388
 20
252.3406117990105
 30
0.0
 10
121.1173244901651
 20
252.305682403853
 30
0.0
 10
121.490731878028
 20
252.2992606353496
 30
0.0
 10
121.8586881991925
 20
252.3088319409289
 30
0.0
 10
122.1275255679107
 20
252.331595539523
 30
0.0
 10
122.3297003286402
 20
252.3719153480602
 30
0.0
 10
122.4377959668177
 20
252.4221119161589
 30
0.0
 10
122.4853098196214
 20
252.4662605640542
 30
0.0
 10
122.5020155393151
 20
252.5138263884345
 30
0.0
 10
122.4881354929987
 20
252.5622294931821
 30
0.0
 10
122.4387946524753
 20
252.6086194795789
 30
0.0
 10
122.378533815362
 20
252.6345900829909
 30
0.0
 10
122.3430571690113
 20
252.6452728094611
 30
0.0
  0
ARC
  5
156
330
103
100
AcDbEntity
  8
0
  6
Continuous
 62
     0
370
    30
100
AcDbCircle
 10
122.024457
 20
251.402552
 30
0.0
 40
1.282911366441333
100
AcDbArc
 50
75.620592
 51
87.836302
  0
SPLINE
  5
157
330
103
100
AcDbEntity
  8
0
  6
Continuous
 62
     0
370
    30
100
AcDbSpline
210
0.0
220
0.0
230
1.0
 70
     8
 71
     3
 72
    26
 73
    22
 74
     0
 42
0.0
 43
0.0
 40
0.0
 40
0.0
 40
0.0
 40
0.0
 40
0.4329957280319827
 40
0.6503560515467744
 40
0.8672615756275351
 40
1.305446770178559
 40
1.739098905056484
 40
1.954088279332187
 40
2.172970668810697
 40
2.61441144428683
 40
3.050370624337332
 40
3.486677011425206
 40
3.927680242198664
 40
4.146685552390935
 40
4.362090948400036
 40
4.79543586142618
 40
5.017398464029136
 40
5.237524152879461
 40
5.453487952873494
 40
5.670035285782042
 40
6.104322691876692
 40
6.104322691876692
 40
6.104322691876692
 40
6.104322691876692
 10
122.0728926116778
 20
252.8101222121678
 30
0.0
 10
122.2171113906986
 20
252.8078775271486
 30
0.0
 10
122.4357279713789
 20
252.7756606294387
 30
0.0
 10
122.6390362944174
 20
252.6979139644687
 30
0.0
 10
122.7749799612221
 20
252.6028882535022
 30
0.0
 10
122.8159438070608
 20
252.4721995851371
 30
0.0
 10
122.6982263113343
 20
252.3537644902099
 30
0.0
 10
122.5016493138128
 20
252.2846361829878
 30
0.0
 10
122.2549061581092
 20
252.2346176493571
 30
0.0
 10
121.9002418623808
 20
252.2006476419357
 30
0.0
 10
121.4610969490737
 20
252.1929762728231
 30
0.0
 10
121.0229181650731
 20
252.2044628033611
 30
0.0
 10
120.6719948059089
 20
252.2420512686846
 30
0.0
 10
120.4301113590248
 20
252.2944587249378
 30
0.0
 10
120.237083279999
 20
252.3646896806697
 30
0.0
 10
120.1417909485456
 20
252.4602161109154
 30
0.0
 10
120.1415473573618
 20
252.5618283280483
 30
0.0
 10
120.1901071292806
 20
252.6387338024936
 30
0.0
 10
120.2938346994533
 20
252.7100488412731
 30
0.0
 10
120.5078049211546
 20
252.784488556883
 30
0.0
 10
120.7298648730759
 20
252.8117291809382
 30
0.0
 10
120.8746186954503
 20
252.8124038978385
 30
0.0
  0
SPLINE
  5
158
330
103
100
AcDbEntity
  8
0
  6
Continuous
 62
     0
370
    30
100
AcDbSpline
210
0.0
220
0.0
230
1.0
 70
     8
 71
     3
 72
    28
 73
    24
 74
     0
 42
0.0
 43
0.0
 40
0.0
 40
0.0
 40
0.0
 40
0.0
 40
0.420447163056052
 40
0.6302954727550846
 40
0.8408442242622233
 40
1.264356009512049
 40
1.683146518034478
 40
1.891353215850199
 40
2.103180002565582
 40
2.318745009213892
 40
2.532573572134464
 40
2.954756629199497
 40
3.377480775805025
 40
3.805430969074709
 40
4.017368875573592
 40
4.226305843304226
 40
4.645601066209493
 40
4.859869049938898
 40
5.073392086735822
 40
5.283190324930735
 40
5.492725046528274
 40
5.705976211204709
 40
5.918133441981339
 40
5.918133441981339
 40
5.918133441981339
 40
5.918133441981339
 10
122.0728926090519
 20
253.5785784428803
 30
0.0
 10
122.2128883211158
 20
253.5755280095362
 30
0.0
 10
122.4256957911034
 20
253.5432844083738
 30
0.0
 10
122.633780439861
 20
253.4567588529742
 30
0.0
 10
122.7737556455256
 20
253.3470642931196
 30
0.0
 10
122.8170503931022
 20
253.190881716221
 30
0.0
 10
122.682200523005
 20
253.0507224233628
 30
0.0
 10
122.480102566673
 20
252.9715799204738
 30
0.0
 10
122.2946023201644
 20
252.9297533092449
 30
0.0
 10
122.0927976660228
 20
252.9014107331869
 30
0.0
 10
121.8151603289943
 20
252.8773788824848
 30
0.0
 10
121.4608336560995
 20
252.8693211549316
 30
0.0
 10
121.0367228852653
 20
252.883503373235
 30
0.0
 10
120.6935281278733
 20
252.9245375199715
 30
0.0
 10
120.4502238623111
 20
252.9832809874646
 30
0.0
 10
120.251281759871
 20
253.0639024184087
 30
0.0
 10
120.1421418852486
 20
253.1768920934315
 30
0.0
 10
120.1399845287438
 20
253.2980266644902
 30
0.0
 10
120.1922680017294
 20
253.388612454751
 30
0.0
 10
120.2999390942826
 20
253.4708202880505
 30
0.0
 10
120.4648759797447
 20
253.5327670206247
 30
0.0
 10
120.6620205554298
 20
253.5705061130973
 30
0.0
 10
120.8039157073937
 20
253.5803969827776
 30
0.0
 10
120.8746186959031
 20
253.5811162943322
 30
0.0
  0
SPLINE
  5
159
330
103
100
AcDbEntity
  8
0
  6
Continuous
 62
     0
370
    30
100
AcDbSpline
210
0.0
220
0.0
230
1.0
 70
     8
 71
     3
 72
    23
 73
    19
 74
     0
 42
0.0
 43
0.0
 40
0.0
 40
0.0
 40
0.0
 40
0.0
 40
0.1344406348959635
 40
0.2698087024253294
 40
0.4020113593220688
 40
0.5351093167956869
 40
0.8039622975256736
 40
1.068634646139707
 40
1.334722668476819
 40
1.605909583314183
 40
1.873103289376393
 40
2.143350905299619
 40
2.412004249781777
 40
2.680682206166634
 40
2.949290704837158
 40
3.213805505265973
 40
3.481377106834313
 40
3.74489199651304
 40
3.74489199651304
 40
3.74489199651304
 40
3.74489199651304
 10
120.8746187014175
 20
253.4445992243003
 30
0.0
 10
120.8299620976974
 20
253.4429341052915
 30
0.0
 10
120.7408601767435
 20
253.435570104294
 30
0.0
 10
120.6162200883067
 20
253.4122849035429
 30
0.0
 10
120.5121495753656
 20
253.3734122752587
 30
0.0
 10
120.4273913469576
 20
253.3036604137509
 30
0.0
 10
120.4145085650117
 20
253.2038486478831
 30
0.0
 10
120.5443216802768
 20
253.1010706362252
 30
0.0
 10
120.7781286050392
 20
253.0415397731294
 30
0.0
 10
121.0380667380081
 20
253.0131844946144
 30
0.0
 10
121.3062048054157
 20
252.9996678360175
 30
0.0
 10
121.5751860660222
 20
252.9983815778671
 30
0.0
 10
121.8444436838252
 20
253.0065071487909
 30
0.0
 10
122.1065247506365
 20
253.0311733698885
 30
0.0
 10
122.3514120153265
 20
253.082305172506
 30
0.0
 10
122.4979074126624
 20
253.1809723859168
 30
0.0
 10
122.510546163578
 20
253.2979500326169
 30
0.0
 10
122.4127874670357
 20
253.3705680685894
 30
0.0
 10
122.3430571686177
 20
253.3940331398563
 30
0.0
  0
ARC
  5
15A
330
103
100
AcDbEntity
  8
0
  6
Continuous
 62
     0
370
    30
100
AcDbCircle
 10
122.025204
 20
252.3
 30
0.0
 40
1.139271460751786
100
AcDbArc
 50
73.799661
 51
87.600968
  0
LINE
  5
15B
330
103
100
AcDbEntity
  8
0
  6
Continuous
 62
     0
370
    30
100
AcDbLine
 10
122.748335
 20
254.249924
 30
0.0
 11
122.748335
 21
254.38454
 31
0.0
  0
LINE
  5
15C
330
103
100
AcDbEntity
  8
0
  6
Continuous
 62
     0
370
    30
100
AcDbLine
 10
122.748335
 20
254.38454
 30
0.0
 11
120.181255
 21
254.38454
 31
0.0
  0
LINE
  5
15D
330
103
100
AcDbEntity
  8
0
  6
Continuous
 62
     0
370
    30
100
AcDbLine
 10
120.181255
 20
254.38454
 30
0.0
 11
120.181255
 21
254.249925
 31
0.0
  0
LINE
  5
15E
330
103
100
AcDbEntity
  8
0
  6
Continuous
 62
     0
370
    30
100
AcDbLine
 10
120.181255
 20
254.249925
 30
0.0
 11
121.283411
 21
254.249931
 31
0.0
  0
LINE
  5
15F
330
103
100
AcDbEntity
  8
0
  6
Continuous
 62
     0
370
    30
100
AcDbLine
 10
121.283411
 20
254.249931
 30
0.0
 11
121.283411
 21
253.794907
 31
0.0
  0
LINE
  5
160
330
103
100
AcDbEntity
  8
0
  6
Continuous
 62
     0
370
    30
100
AcDbLine
 10
121.283411
 20
253.794907
 30
0.0
 11
120.181255
 21
253.794902
 31
0.0
  0
LINE
  5
161
330
103
100
AcDbEntity
  8
0
  6
Continuous
 62
     0
370
    30
100
AcDbLine
 10
120.181255
 20
253.794902
 30
0.0
 11
120.181255
 21
253.664815
 31
0.0
  0
LINE
  5
162
330
103
100
AcDbEntity
  8
0
  6
Continuous
 62
     0
370
    30
100
AcDbLine
 10
120.181255
 20
253.664815
 30
0.0
 11
122.748335
 21
253.664815
 31
0.0
  0
LINE
  5
163
330
103
100
AcDbEntity
  8
0
  6
Continuous
 62
     0
370
    30
100
AcDbLine
 10
122.748335
 20
253.664815
 30
0.0
 11
122.748335
 21
253.794902
 31
0.0
  0
LINE
  5
164
330
103
100
AcDbEntity
  8
0
  6
Continuous
 62
     0
370
    30
100
AcDbLine
 10
122.748335
 20
253.794902
 30
0.0
 11
121.589129
 21
253.79491
 31
0.0
  0
LINE
  5
165
330
103
100
AcDbEntity
  8
0
  6
Continuous
 62
     0
370
    30
100
AcDbLine
 10
121.589129
 20
253.79491
 30
0.0
 11
121.589129
 21
254.249934
 31
0.0
  0
LINE
  5
166
330
103
100
AcDbEntity
  8
0
  6
Continuous
 62
     0
370
    30
100
AcDbLine
 10
121.589129
 20
254.249934
 30
0.0
 11
122.748335
 21
254.249924
 31
0.0
  0
LINE
  5
167
330
103
100
AcDbEntity
  8
0
  6
Continuous
 62
     0
370
    30
100
AcDbLine
 10
120.181255
 20
256.596235
 30
0.0
 11
120.494415
 21
256.596236
 31
0.0
  0
LINE
  5
168
330
103
100
AcDbEntity
  8
0
  6
Continuous
 62
     0
370
    30
100
AcDbLine
 10
120.494415
 20
256.596236
 30
0.0
 11
120.494415
 21
256.27309
 31
0.0
  0
LINE
  5
169
330
103
100
AcDbEntity
  8
0
  6
Continuous
 62
     0
370
    30
100
AcDbLine
 10
120.494415
 20
256.27309
 30
0.0
 11
122.748335
 21
256.273078
 31
0.0
  0
LINE
  5
16A
330
103
100
AcDbEntity
  8
0
  6
Continuous
 62
     0
370
    30
100
AcDbLine
 10
122.748335
 20
256.273078
 30
0.0
 11
122.748335
 21
256.139829
 31
0.0
  0
LINE
  5
16B
330
103
100
AcDbEntity
  8
0
  6
Continuous
 62
     0
370
    30
100
AcDbLine
 10
122.748335
 20
256.139829
 30
0.0
 11
120.494415
 21
256.139857
 31
0.0
  0
LINE
  5
16C
330
103
100
AcDbEntity
  8
0
  6
Continuous
 62
     0
370
    30
100
AcDbLine
 10
120.494415
 20
256.139857
 30
0.0
 11
120.494415
 21
255.672379
 31
0.0
  0
LINE
  5
16D
330
103
100
AcDbEntity
  8
0
  6
Continuous
 62
     0
370
    30
100
AcDbLine
 10
120.494415
 20
255.672379
 30
0.0
 11
122.748336
 21
255.67232
 31
0.0
  0
LINE
  5
16E
330
103
100
AcDbEntity
  8
0
  6
Continuous
 62
     0
370
    30
100
AcDbLine
 10
122.748336
 20
255.67232
 30
0.0
 11
122.748336
 21
255.5372
 31
0.0
  0
LINE
  5
16F
330
103
100
AcDbEntity
  8
0
  6
Continuous
 62
     0
370
    30
100
AcDbLine
 10
122.748336
 20
255.5372
 30
0.0
 11
120.494415
 21
255.537325
 31
0.0
  0
LINE
  5
170
330
103
100
AcDbEntity
  8
0
  6
Continuous
 62
     0
370
    30
100
AcDbLine
 10
120.494415
 20
255.537325
 30
0.0
 11
120.494415
 21
254.638022
 31
0.0
  0
LINE
  5
171
330
103
100
AcDbEntity
  8
0
  6
Continuous
 62
     0
370
    30
100
AcDbLine
 10
120.494415
 20
254.638022
 30
0.0
 11
121.283411
 21
254.638035
 31
0.0
  0
LINE
  5
172
330
103
100
AcDbEntity
  8
0
  6
Continuous
 62
     0
370
    30
100
AcDbLine
 10
121.283411
 20
254.638035
 30
0.0
 11
121.283411
 21
255.096893
 31
0.0
  0
LINE
  5
173
330
103
100
AcDbEntity
  8
0
  6
Continuous
 62
     0
370
    30
100
AcDbLine
 10
121.283411
 20
255.096893
 30
0.0
 11
121.589129
 21
255.096875
 31
0.0
  0
LINE
  5
174
330
103
100
AcDbEntity
  8
0
  6
Continuous
 62
     0
370
    30
100
AcDbLine
 10
121.589129
 20
255.096875
 30
0.0
 11
121.589129
 21
254.638029
 31
0.0
  0
LINE
  5
175
330
103
100
AcDbEntity
  8
0
  6
Continuous
 62
     0
370
    30
100
AcDbLine
 10
121.589129
 20
254.638029
 30
0.0
 11
122.435383
 21
254.638022
 31
0.0
  0
LINE
  5
176
330
103
100
AcDbEntity
  8
0
  6
Continuous
 62
     0
370
    30
100
AcDbLine
 10
122.435383
 20
254.638022
 30
0.0
 11
122.435383
 21
255.130856
 31
0.0
  0
LINE
  5
177
330
103
100
AcDbEntity
  8
0
  6
Continuous
 62
     0
370
    30
100
AcDbLine
 10
122.435383
 20
255.130856
 30
0.0
 11
122.748336
 21
255.130687
 31
0.0
  0
LINE
  5
178
330
103
100
AcDbEntity
  8
0
  6
Continuous
 62
     0
370
    30
100
AcDbLine
 10
122.748336
 20
255.130687
 30
0.0
 11
122.748335
 21
254.502235
 31
0.0
  0
LINE
  5
179
330
103
100
AcDbEntity
  8
0
  6
Continuous
 62
     0
370
    30
100
AcDbLine
 10
122.748335
 20
254.502235
 30
0.0
 11
120.181255
 21
254.502235
 31
0.0
  0
LINE
  5
17A
330
103
100
AcDbEntity
  8
0
  6
Continuous
 62
     0
370
    30
100
AcDbLine
 10
120.181255
 20
254.502235
 30
0.0
 11
120.181255
 21
256.596235
 31
0.0
  0
LINE
  5
17B
330
103
100
AcDbEntity
  8
0
  6
Continuous
 62
     0
370
    30
100
AcDbLine
 10
122.748335
 20
256.695498
 30
0.0
 11
122.748335
 21
256.827261
 31
0.0
  0
LINE
  5
17C
330
103
100
AcDbEntity
  8
0
  6
Continuous
 62
     0
370
    30
100
AcDbLine
 10
122.748335
 20
256.827261
 30
0.0
 11
120.181255
 21
256.827261
 31
0.0
  0
LINE
  5
17D
330
103
100
AcDbEntity
  8
0
  6
Continuous
 62
     0
370
    30
100
AcDbLine
 10
120.181255
 20
256.827261
 30
0.0
 11
120.181255
 21
256.695498
 31
0.0
  0
LINE
  5
17E
330
103
100
AcDbEntity
  8
0
  6
Continuous
 62
     0
370
    30
100
AcDbLine
 10
120.181255
 20
256.695498
 30
0.0
 11
122.748335
 21
256.695498
 31
0.0
  0
LINE
  5
17F
330
103
100
AcDbEntity
  8
0
  6
Continuous
 62
     0
370
    30
100
AcDbLine
 10
122.072821
 20
257.137822
 30
0.0
 11
122.072821
 21
257.007463
 31
0.0
  0
LINE
  5
180
330
103
100
AcDbEntity
  8
0
  6
Continuous
 62
     0
370
    30
100
AcDbLine
 10
122.072821
 20
257.007463
 30
0.0
 11
122.748335
 21
257.007463
 31
0.0
  0
LINE
  5
181
330
103
100
AcDbEntity
  8
0
  6
Continuous
 62
     0
370
    30
100
AcDbLine
 10
122.748335
 20
257.007463
 30
0.0
 11
122.748335
 21
257.137822
 31
0.0
  0
LINE
  5
182
330
103
100
AcDbEntity
  8
0
  6
Continuous
 62
     0
370
    30
100
AcDbLine
 10
122.748335
 20
257.137822
 30
0.0
 11
122.072821
 21
257.137822
 31
0.0
  0
ENDBLK
  5
184
330
103
100
AcDbEntity
  8
0
100
AcDbBlockEnd
  0
BLOCK
  5
1D0
330
186
100
AcDbEntity
  8
0
100
AcDbBlockBegin
  2
c
 70
     0
 10
179.254799
 20
179.416
 30
0.0
  3
c
  1

  0
LINE
  5
187
330
186
100
AcDbEntity
  8
0
  6
Continuous
 62
     0
370
    30
100
AcDbLine
 10
329.54166
 20
666.197216
 30
0.0
 11
329.54166
 21
630.829673
 31
0.0
  0
LINE
  5
188
330
186
100
AcDbEntity
  8
0
  6
Continuous
 62
     0
370
    30
100
AcDbLine
 10
374.54166
 20
630.829673
 30
0.0
 11
374.54166
 21
666.197216
 31
0.0
  0
LINE
  5
189
330
186
100
AcDbEntity
  8
0
  6
Continuous
 62
     0
370
    30
100
AcDbLine
 10
329.54166
 20
722.625197
 30
0.0
 11
329.54166
 21
722.197209
 31
0.0
  0
LINE
  5
18A
330
186
100
AcDbEntity
  8
0
  6
Continuous
 62
     0
370
    30
100
AcDbLine
 10
374.54166
 20
722.197209
 30
0.0
 11
374.54166
 21
722.625197
 31
0.0
  0
LINE
  5
18B
330
186
100
AcDbEntity
  8
0
  6
Continuous
 62
     0
370
    30
100
AcDbLine
 10
352.041661
 20
727.197218
 30
0.0
 11
330.24166
 21
727.197218
 31
0.0
  0
LINE
  5
18C
330
186
100
AcDbEntity
  8
0
  6
Continuous
 62
     0
370
    30
100
AcDbLine
 10
373.84166
 20
727.197218
 30
0.0
 11
352.041661
 21
727.197218
 31
0.0
  0
LINE
  5
18D
330
186
100
AcDbEntity
  8
0
  6
Continuous
 62
     0
370
    30
100
AcDbLine
 10
329.54166
 20
722.625197
 30
0.0
 11
374.54166
 21
722.625197
 31
0.0
  0
LINE
  5
18E
330
186
100
AcDbEntity
  8
0
  6
Continuous
 62
     0
370
    30
100
AcDbLine
 10
374.167807
 20
726.898359
 30
0.0
 11
352.041661
 21
726.898359
 31
0.0
  0
LINE
  5
18F
330
186
100
AcDbEntity
  8
0
  6
Continuous
 62
     0
370
    30
100
AcDbLine
 10
352.041661
 20
726.898359
 30
0.0
 11
329.915514
 21
726.898359
 31
0.0
  0
LINE
  5
190
330
186
100
AcDbEntity
  8
0
  6
Continuous
 62
     0
370
    30
100
AcDbLine
 10
329.94166
 20
623.197218
 30
0.0
 11
352.041661
 21
623.197218
 31
0.0
  0
LINE
  5
191
330
186
100
AcDbEntity
  8
0
  6
Continuous
 62
     0
370
    30
100
AcDbLine
 10
352.041661
 20
623.197218
 30
0.0
 11
374.14166
 21
623.197218
 31
0.0
  0
LINE
  5
192
330
186
100
AcDbEntity
  8
0
  6
Continuous
 62
     0
370
     0
100
AcDbLine
 10
352.041661
 20
630.829673
 30
0.0
 11
329.54166
 21
630.829673
 31
0.0
  0
LINE
  5
193
330
186
100
AcDbEntity
  8
0
  6
Continuous
 62
     0
370
     0
100
AcDbLine
 10
374.54166
 20
630.829673
 30
0.0
 11
352.041661
 21
630.829673
 31
0.0
  0
LINE
  5
194
330
186
100
AcDbEntity
  8
0
  6
Continuous
 62
     0
370
    30
100
AcDbLine
 10
329.54166
 20
722.197209
 30
0.0
 11
329.54166
 21
666.197216
 31
0.0
  0
LINE
  5
195
330
186
100
AcDbEntity
  8
0
  6
Continuous
 62
     0
370
    30
100
AcDbLine
 10
374.54166
 20
722.197209
 30
0.0
 11
374.54166
 21
666.197216
 31
0.0
  0
LINE
  5
196
330
186
100
AcDbEntity
  8
0
  6
Continuous
 62
     0
370
    30
100
AcDbLine
 10
329.54166
 20
630.829673
 30
0.0
 11
329.94166
 21
623.197218
 31
0.0
  0
LINE
  5
197
330
186
100
AcDbEntity
  8
0
  6
Continuous
 62
     0
370
    30
100
AcDbLine
 10
374.54166
 20
630.829673
 30
0.0
 11
374.14166
 21
623.197218
 31
0.0
  0
LINE
  5
198
330
186
100
AcDbEntity
  8
0
  6
Continuous
 62
     0
370
    30
100
AcDbLine
 10
329.915514
 20
726.898359
 30
0.0
 11
330.241637
 21
727.197197
 31
0.0
  0
LINE
  5
199
330
186
100
AcDbEntity
  8
0
  6
Continuous
 62
     0
370
    30
100
AcDbLine
 10
374.167807
 20
726.898359
 30
0.0
 11
373.841683
 21
727.197197
 31
0.0
  0
LINE
  5
19A
330
186
100
AcDbEntity
  8
0
  6
Continuous
 62
     0
370
    30
100
AcDbLine
 10
329.54166
 20
722.625197
 30
0.0
 11
329.915514
 21
726.898359
 31
0.0
  0
LINE
  5
19B
330
186
100
AcDbEntity
  8
0
  6
Continuous
 62
     0
370
    30
100
AcDbLine
 10
374.54166
 20
722.625197
 30
0.0
 11
374.167807
 21
726.898359
 31
0.0
  0
LINE
  5
19C
330
186
100
AcDbEntity
  8
0
  6
Continuous
 62
     0
370
    30
100
AcDbLine
 10
371.668227
 20
558.197227
 30
0.0
 11
374.04166
 21
558.197227
 31
0.0
  0
LINE
  5
19D
330
186
100
AcDbEntity
  8
0
  6
Continuous
 62
     0
370
    30
100
AcDbLine
 10
378.359102
 20
547.197227
 30
0.0
 11
381.54166
 21
547.197227
 31
0.0
  0
LINE
  5
19E
330
186
100
AcDbEntity
  8
0
  6
Continuous
 62
     0
370
    30
100
AcDbLine
 10
322.54166
 20
547.197227
 30
0.0
 11
378.359102
 21
547.197227
 31
0.0
  0
LINE
  5
19F
330
186
100
AcDbEntity
  8
0
  6
Continuous
 62
     0
370
     0
100
AcDbLine
 10
322.04166
 20
547.697227
 30
0.0
 11
378.805161
 21
547.697227
 31
0.0
  0
LINE
  5
1A0
330
186
100
AcDbEntity
  8
0
  6
Continuous
 62
     0
370
     0
100
AcDbLine
 10
378.805161
 20
547.697227
 30
0.0
 11
382.04166
 21
547.697227
 31
0.0
  0
LINE
  5
1A1
330
186
100
AcDbEntity
  8
0
  6
Continuous
 62
     0
370
     0
100
AcDbLine
 10
378.805161
 20
552.697227
 30
0.0
 11
382.04166
 21
552.697227
 31
0.0
  0
LINE
  5
1A2
330
186
100
AcDbEntity
  8
0
  6
Continuous
 62
     0
370
     0
100
AcDbLine
 10
322.04166
 20
552.697227
 30
0.0
 11
378.805161
 21
552.697227
 31
0.0
  0
LINE
  5
1A3
330
186
100
AcDbEntity
  8
0
  6
Continuous
 62
     0
370
    30
100
AcDbLine
 10
322.54166
 20
553.197227
 30
0.0
 11
378.359102
 21
553.197227
 31
0.0
  0
LINE
  5
1A4
330
186
100
AcDbEntity
  8
0
  6
Continuous
 62
     0
370
    30
100
AcDbLine
 10
378.359102
 20
553.197227
 30
0.0
 11
381.54166
 21
553.197227
 31
0.0
  0
ARC
  5
1A5
330
186
100
AcDbEntity
  8
0
  6
Continuous
 62
     0
370
    30
100
AcDbCircle
 10
381.541515
 20
547.697264
 30
0.0
 40
0.5000366519832367
100
AcDbArc
 50
270.011062
 51
359.995801
  0
ARC
  5
1A6
330
186
100
AcDbEntity
  8
0
  6
Continuous
 62
     0
370
    30
100
AcDbCircle
 10
322.541878
 20
547.697263
 30
0.0
 40
0.5000357319056761
100
AcDbArc
 50
180.004094
 51
269.991936
  0
ARC
  5
1A7
330
186
100
AcDbEntity
  8
0
  6
Continuous
 62
     0
370
    30
100
AcDbCircle
 10
381.541515
 20
552.697191
 30
0.0
 40
0.5000366519856205
100
AcDbArc
 50
0.004199
 51
89.988938
  0
ARC
  5
1A8
330
186
100
AcDbEntity
  8
0
  6
Continuous
 62
     0
370
    30
100
AcDbCircle
 10
322.541878
 20
552.697192
 30
0.0
 40
0.500035731913308
100
AcDbArc
 50
90.008064
 51
179.995906
  0
LINE
  5
1A9
330
186
100
AcDbEntity
  8
0
  6
Continuous
 62
     0
370
    30
100
AcDbLine
 10
322.04166
 20
547.697227
 30
0.0
 11
322.04166
 21
552.697227
 31
0.0
  0
LINE
  5
1AA
330
186
100
AcDbEntity
  8
0
  6
Continuous
 62
     0
370
    30
100
AcDbLine
 10
382.04166
 20
547.697227
 30
0.0
 11
382.04166
 21
552.697227
 31
0.0
  0
ARC
  5
1AB
330
186
100
AcDbEntity
  8
0
  6
Continuous
 62
     0
370
    30
100
AcDbCircle
 10
379.041834
 20
558.19748
 30
0.0
 40
5.000252712450038
100
AcDbArc
 50
180.002895
 51
269.984293
  0
ARC
  5
1AC
330
186
100
AcDbEntity
  8
0
  6
Continuous
 62
     0
370
    30
100
AcDbCircle
 10
325.041624
 20
558.197466
 30
0.0
 40
5.000238709386425
100
AcDbArc
 50
270.015866
 51
359.997265
  0
LINE
  5
1AD
330
186
100
AcDbEntity
  8
0
  6
Continuous
 62
     0
370
     0
100
AcDbLine
 10
352.041661
 20
841.347221
 30
0.0
 11
341.04166
 21
841.347221
 31
0.0
  0
LINE
  5
1AE
330
186
100
AcDbEntity
  8
0
  6
Continuous
 62
     0
370
     0
100
AcDbLine
 10
363.04166
 20
841.347221
 30
0.0
 11
352.041661
 21
841.347221
 31
0.0
  0
LINE
  5
1AF
330
186
100
AcDbEntity
  8
0
  6
Continuous
 62
     0
370
     0
100
AcDbLine
 10
532.041661
 20
841.347221
 30
0.0
 11
543.04166
 21
841.347221
 31
0.0
  0
LINE
  5
1B0
330
186
100
AcDbEntity
  8
0
  6
Continuous
 62
     0
370
     0
100
AcDbLine
 10
521.04166
 20
841.347221
 30
0.0
 11
532.041661
 21
841.347221
 31
0.0
  0
LINE
  5
1B1
330
186
100
AcDbEntity
  8
0
  6
Continuous
 62
     0
370
    30
100
AcDbLine
 10
521.04166
 20
817.347221
 30
0.0
 11
532.041661
 21
817.347221
 31
0.0
  0
LINE
  5
1B2
330
186
100
AcDbEntity
  8
0
  6
Continuous
 62
     0
370
    30
100
AcDbLine
 10
543.04166
 20
817.347221
 30
0.0
 11
543.04166
 21
841.347221
 31
0.0
  0
LINE
  5
1B3
330
186
100
AcDbEntity
  8
0
  6
Continuous
 62
     0
370
    30
100
AcDbLine
 10
521.04166
 20
817.347221
 30
0.0
 11
521.04166
 21
841.347221
 31
0.0
  0
ARC
  5
1B4
330
186
100
AcDbEntity
  8
0
  6
Continuous
 62
     0
370
    30
100
AcDbCircle
 10
442.04166
 20
841.346855
 30
0.0
 40
101.0000000006645
100
AcDbArc
 50
0.000208
 51
179.999792
  0
ARC
  5
1B5
330
186
100
AcDbEntity
  8
0
  6
Continuous
 62
     0
370
    30
100
AcDbCircle
 10
442.04166
 20
841.346738
 30
0.0
 40
79.00000000147892
100
AcDbArc
 50
0.000351
 51
179.999649
  0
LINE
  5
1B6
330
186
100
AcDbEntity
  8
0
  6
Continuous
 62
     0
370
    30
100
AcDbLine
 10
341.04166
 20
841.347221
 30
0.0
 11
341.04166
 21
749.197222
 31
0.0
  0
LINE
  5
1B7
330
186
100
AcDbEntity
  8
0
  6
Continuous
 62
     0
370
    30
100
AcDbLine
 10
363.04166
 20
841.347221
 30
0.0
 11
363.04166
 21
749.197222
 31
0.0
  0
LINE
  5
1B8
330
186
100
AcDbEntity
  8
0
  6
Continuous
 62
     0
370
    30
100
AcDbLine
 10
330.54166
 20
749.197222
 30
0.0
 11
331.213328
 21
749.197222
 31
0.0
  0
LINE
  5
1B9
330
186
100
AcDbEntity
  8
0
  6
Continuous
 62
     0
370
    30
100
AcDbLine
 10
331.213328
 20
749.197222
 30
0.0
 11
373.54166
 21
749.197222
 31
0.0
  0
LINE
  5
1BA
330
186
100
AcDbEntity
  8
0
  6
Continuous
 62
     0
370
     0
100
AcDbLine
 10
330.04166
 20
748.697222
 30
0.0
 11
330.728949
 21
748.697222
 31
0.0
  0
LINE
  5
1BB
330
186
100
AcDbEntity
  8
0
  6
Continuous
 62
     0
370
     0
100
AcDbLine
 10
330.728949
 20
748.697222
 30
0.0
 11
374.04166
 21
748.697222
 31
0.0
  0
LINE
  5
1BC
330
186
100
AcDbEntity
  8
0
  6
Continuous
 62
     0
370
    30
100
AcDbLine
 10
330.04166
 20
727.497222
 30
0.0
 11
330.728949
 21
727.497222
 31
0.0
  0
LINE
  5
1BD
330
186
100
AcDbEntity
  8
0
  6
Continuous
 62
     0
370
    30
100
AcDbLine
 10
330.728949
 20
727.497222
 30
0.0
 11
374.04166
 21
727.497222
 31
0.0
  0
LINE
  5
1BE
330
186
100
AcDbEntity
  8
0
  6
Continuous
 62
     0
370
    30
100
AcDbLine
 10
373.741705
 20
727.197249
 30
0.0
 11
374.041678
 21
727.497222
 31
0.0
  0
LINE
  5
1BF
330
186
100
AcDbEntity
  8
0
  6
Continuous
 62
     0
370
    30
100
AcDbLine
 10
330.341689
 20
727.197247
 30
0.0
 11
330.041715
 21
727.497222
 31
0.0
  0
LINE
  5
1C0
330
186
100
AcDbEntity
  8
0
  6
Continuous
 62
     0
370
    30
100
AcDbLine
 10
330.04166
 20
727.497222
 30
0.0
 11
330.04166
 21
748.697222
 31
0.0
  0
LINE
  5
1C1
330
186
100
AcDbEntity
  8
0
  6
Continuous
 62
     0
370
    30
100
AcDbLine
 10
374.04166
 20
727.497222
 30
0.0
 11
374.04166
 21
748.697222
 31
0.0
  0
ARC
  5
1C2
330
186
100
AcDbEntity
  8
0
  6
Continuous
 62
     0
370
    30
100
AcDbCircle
 10
373.541641
 20
748.697184
 30
0.0
 40
0.5000377307410568
100
AcDbArc
 50
0.004323
 51
89.989546
  0
ARC
  5
1C3
330
186
100
AcDbEntity
  8
0
  6
Continuous
 62
     0
370
    30
100
AcDbCircle
 10
330.541752
 20
748.697185
 30
0.0
 40
0.500036850237073
100
AcDbArc
 50
90.010087
 51
179.995778
  0
LINE
  5
1C4
330
186
100
AcDbEntity
  8
0
  6
Continuous
 62
     0
370
    30
100
AcDbLine
 10
543.041661
 20
817.347219
 30
0.0
 11
532.041661
 21
817.347219
 31
0.0
  0
LINE
  5
1C5
330
186
100
AcDbEntity
  8
0
  6
Continuous
 62
     0
370
     0
100
AcDbLine
 10
543.041661
 20
797.547219
 30
0.0
 11
522.704436
 21
797.547219
 31
0.0
  0
LINE
  5
1C6
330
186
100
AcDbEntity
  8
0
  6
Continuous
 62
     0
370
     0
100
AcDbLine
 10
522.704436
 20
797.547219
 30
0.0
 11
521.041661
 21
797.547219
 31
0.0
  0
LINE
  5
1C7
330
186
100
AcDbEntity
  8
0
  6
Continuous
 62
     0
370
    30
100
AcDbLine
 10
542.841661
 20
797.347219
 30
0.0
 11
522.874204
 21
797.347219
 31
0.0
  0
LINE
  5
1C8
330
186
100
AcDbEntity
  8
0
  6
Continuous
 62
     0
370
    30
100
AcDbLine
 10
522.874204
 20
797.347219
 30
0.0
 11
521.241661
 21
797.347219
 31
0.0
  0
ARC
  5
1C9
330
186
100
AcDbEntity
  8
0
  6
Continuous
 62
     0
370
    30
100
AcDbCircle
 10
521.241961
 20
797.547519
 30
0.0
 40
0.2003008867700002
100
AcDbArc
 50
180.086004
 51
269.913996
  0
ARC
  5
1CA
330
186
100
AcDbEntity
  8
0
  6
Continuous
 62
     0
370
    30
100
AcDbCircle
 10
542.84136
 20
797.547519
 30
0.0
 40
0.2003008867399988
100
AcDbArc
 50
270.086004
 51
359.913996
  0
LINE
  5
1CB
330
186
100
AcDbEntity
  8
0
  6
Continuous
 62
     0
370
    30
100
AcDbLine
 10
521.041661
 20
817.347219
 30
0.0
 11
521.041661
 21
797.547219
 31
0.0
  0
LINE
  5
1CC
330
186
100
AcDbEntity
  8
0
  6
Continuous
 62
     0
370
    30
100
AcDbLine
 10
543.041661
 20
817.347219
 30
0.0
 11
543.041661
 21
797.547219
 31
0.0
  0
LINE
  5
1CD
330
186
100
AcDbEntity
  8
0
  6
Continuous
 62
     0
370
    30
100
AcDbLine
 10
330.041664
 20
558.197227
 30
0.0
 11
371.668227
 21
558.197227
 31
0.0
  0
LINE
  5
1CE
330
186
100
AcDbEntity
  8
0
  6
Continuous
 62
     0
370
    30
100
AcDbLine
 10
374.041656
 20
558.197227
 30
0.0
 11
374.041656
 21
623.197227
 31
0.0
  0
LINE
  5
1CF
330
186
100
AcDbEntity
  8
0
  6
Continuous
 62
     0
370
    30
100
AcDbLine
 10
330.041664
 20
558.197227
 30
0.0
 11
330.041664
 21
623.197227
 31
0.0
  0
ENDBLK
  5
1D1
330
186
100
AcDbEntity
  8
0
100
AcDbBlockEnd
  0
BLOCK
  5
290
330
1D3
100
AcDbEntity
  8
0
100
AcDbBlockBegin
  2
d
 70
     0
 10
175.997444
 20
188.864738
 30
0.0
  3
d
  1

  0
SPLINE
  5
1D4
330
1D3
100
AcDbEntity
  8
0
  6
Continuous
 62
     0
370
     0
100
AcDbSpline
210
0.0
220
0.0
230
1.0
 70
     8
 71
     3
 72
    16
 73
    12
 74
     0
 42
0.0
 43
0.0
 40
0.0
 40
0.0
 40
0.0
 40
0.0
 40
0.047619050732881
 40
0.142857152198643
 40
0.285714498032293
 40
0.428571514873237
 40
0.571428485126763
 40
0.714285501967706
 40
0.857142847801357
 40
0.9523809492671189
 40
1.0
 40
1.0
 40
1.0
 40
1.0
 10
368.0881443117015
 20
274.94086969951
 30
0.0
 10
368.0881443547674
 20
274.3720452688185
 30
0.0
 10
368.1434848405386
 20
272.6975227520955
 30
0.0
 10
368.5861768670914
 20
269.5543745300348
 30
0.0
 10
369.8986244078585
 20
265.9840219794266
 30
0.0
 10
372.2773189157568
 20
262.9850374492455
 30
0.0
 10
375.4384934292074
 20
261.1599331311724
 30
0.0
 10
379.2250378877542
 20
260.5994165291845
 30
0.0
 10
382.9732778969065
 20
261.2479807822857
 30
0.0
 10
385.91667019575
 20
262.4361729912114
 30
0.0
 10
387.3945194870029
 20
263.225508286993
 30
0.0
 10
387.8871359158078
 20
263.509920564499
 30
0.0
  0
SPLINE
  5
1D5
330
1D3
100
AcDbEntity
  8
0
  6
Continuous
 62
     0
370
     0
100
AcDbSpline
210
0.0
220
0.0
230
1.0
 70
     8
 71
     3
 72
    15
 73
    11
 74
     0
 42
0.0
 43
0.0
 40
0.0884212738460595
 40
0.0884212738460595
 40
0.0884212738460595
 40
0.0884212738460595
 40
0.142857143981364
 40
0.28571428663672
 40
0.428571428663563
 40
0.5714285713364371
 40
0.71428571336328
 40
0.8571428560186358
 40
0.952380952006212
 40
1.0
 40
1.0
 40
1.0
 40
1.0
 10
374.178241881777
 20
289.619107314067
 30
0.0
 10
374.6278047087554
 20
289.2870356442007
 30
0.0
 10
376.2484929230471
 20
288.0081252321898
 30
0.0
 10
378.9379127242496
 20
285.3681892861537
 30
0.0
 10
381.9806449784556
 20
281.4041802555581
 30
0.0
 10
384.5208715616129
 20
277.00437926365
 30
0.0
 10
386.4324383889551
 20
272.3872915693565
 30
0.0
 10
387.4869217261073
 20
268.3004984929468
 30
0.0
 10
387.8428141691366
 20
265.3638818149328
 30
0.0
 10
387.8871358812011
 20
263.9670136039947
 30
0.0
 10
387.8871359158078
 20
263.509920564499
 30
0.0
  0
SPLINE
  5
1D6
330
1D3
100
AcDbEntity
  8
0
  6
Continuous
 62
     0
370
     0
100
AcDbSpline
210
0.0
220
0.0
230
1.0
 70
     8
 71
     3
 72
    12
 73
     8
 74
     0
 42
0.0
 43
0.0
 40
0.0
 40
0.0
 40
0.0
 40
0.0
 40
0.047619048741464
 40
0.142857146224391
 40
0.28571429152306
 40
0.428571433695539
 40
0.5085889540316344
 40
0.5085889540316344
 40
0.5085889540316344
 40
0.5085889540316344
 10
368.0881443117016
 20
274.9408696995101
 30
0.0
 10
368.4839985193167
 20
275.1694162574262
 30
0.0
 10
369.6272395322765
 20
275.8806450270043
 30
0.0
 10
371.6365859544181
 20
277.4516908457113
 30
0.0
 10
373.5941280990461
 20
279.7994907386661
 30
0.0
 10
374.5594355649223
 20
282.2404532518717
 30
0.0
 10
374.6888149813994
 20
283.757507005981
 30
0.0
 10
374.6761172435306
 20
284.3017088969422
 30
0.0
  0
SPLINE
  5
1D7
330
1D3
100
AcDbEntity
  8
0
  6
Continuous
 62
     0
370
     0
100
AcDbSpline
210
0.0
220
0.0
230
1.0
 70
     8
 71
     3
 72
    16
 73
    12
 74
     0
 42
0.0
 43
0.0
 40
0.0
 40
0.0
 40
0.0
 40
0.0
 40
0.047619050732881
 40
0.142857152198643
 40
0.285714498032294
 40
0.4285715148732381
 40
0.571428485126764
 40
0.7142855019677079
 40
0.857142847801357
 40
0.9523809492671189
 40
1.0
 40
1.0
 40
1.0
 40
1.0
 10
387.8871359158078
 20
263.509921992107
 30
0.0
 10
387.3945194870029
 20
263.2255098140575
 30
0.0
 10
385.91667019575
 20
262.3083717375861
 30
0.0
 10
382.9732778969065
 20
260.0978272743758
 30
0.0
 10
379.2250378877541
 20
256.4182967709341
 30
0.0
 10
375.4384934292074
 20
251.4854552440653
 30
0.0
 10
372.2773189157568
 20
246.0101410134
 30
0.0
 10
369.8986244078586
 20
240.264476654309
 30
0.0
 10
368.5861768670911
 20
235.1786402217824
 30
0.0
 10
368.1434848405391
 20
231.5243152783253
 30
0.0
 10
368.0881443547677
 20
229.7858910728881
 30
0.0
 10
368.0881443117019
 20
229.2170665924685
 30
0.0
  0
SPLINE
  5
1D8
330
1D3
100
AcDbEntity
  8
0
  6
Continuous
 62
     0
370
     0
100
AcDbSpline
210
0.0
220
0.0
230
1.0
 70
     8
 71
     3
 72
    12
 73
     8
 74
     0
 42
0.0
 43
0.0
 40
0.4999999993810943
 40
0.4999999993810943
 40
0.4999999993810943
 40
0.4999999993810943
 40
0.5714285713364371
 40
0.71428571336328
 40
0.8571428560186358
 40
0.952380952006212
 40
1.0
 40
1.0
 40
1.0
 40
1.0
 10
374.6781616761604
 20
238.4026520079244
 30
0.0
 10
374.6781616769771
 20
237.9168200491311
 30
0.0
 10
374.5367659869623
 20
236.4593241926225
 30
0.0
 10
373.5941280474928
 20
234.0756863965952
 30
0.0
 10
371.6365859024007
 20
231.7278870431653
 30
0.0
 10
369.6272395090559
 20
230.1568416440296
 30
0.0
 10
368.4839985131014
 20
229.4456130822459
 30
0.0
 10
368.0881443117016
 20
229.2170665924683
 30
0.0
  0
SPLINE
  5
1D9
330
1D3
100
AcDbEntity
  8
0
  6
Continuous
 62
     0
370
     0
100
AcDbSpline
210
0.0
220
0.0
230
1.0
 70
     8
 71
     3
 72
    12
 73
     8
 74
     0
 42
0.0
 43
0.0
 40
0.0000000495751245
 40
0.0000000495751245
 40
0.0000000495751245
 40
0.0000000495751245
 40
0.047619047993788
 40
0.142857143981364
 40
0.28571428663672
 40
0.428571428663563
 40
0.5000000247875622
 40
0.5000000247875622
 40
0.5000000247875622
 40
0.5000000247875622
 10
387.8871359158077
 20
263.5099205644989
 30
0.0
 10
387.8871358504396
 20
263.0528279786723
 30
0.0
 10
387.8428141073846
 20
261.7071383284975
 30
0.0
 10
387.4869217261073
 20
259.1814708067625
 30
0.0
 10
386.4324383889551
 20
256.3122895993637
 30
0.0
 10
384.8394659227694
 20
254.3041219073386
 30
0.0
 10
383.6479349360949
 20
253.4529215288792
 30
0.0
 10
383.2271918855255
 20
253.2100054531458
 30
0.0
  0
LINE
  5
1DA
330
1D3
100
AcDbEntity
  8
0
  6
Continuous
 62
     0
370
     0
100
AcDbLine
 10
368.088144
 20
200.339589
 30
0.0
 11
368.088144
 21
229.217067
 31
0.0
  0
SPLINE
  5
1DB
330
1D3
100
AcDbEntity
  8
0
  6
Continuous
 62
     0
370
     0
100
AcDbSpline
210
0.0
220
0.0
230
1.0
 70
     8
 71
     3
 72
    13
 73
     9
 74
     0
 42
0.0
 43
0.0
 40
0.0
 40
0.0
 40
0.0
 40
0.0
 40
2.297407004499248
 40
5.672395173834614
 40
7.570826023835553
 40
10.73487736145179
 40
15.79735940500662
 40
17.67140400169188
 40
17.67140400169188
 40
17.67140400169188
 40
17.67140400169188
 10
368.0881443116158
 20
200.3395886891644
 30
0.0
 10
368.6294168026784
 20
200.6520925109417
 30
0.0
 10
369.8985358780717
 20
201.4636759701633
 30
0.0
 10
371.3445483897315
 20
202.6625924892867
 30
0.0
 10
372.6721061272875
 20
204.0957873533201
 30
0.0
 10
373.9228670660415
 20
205.9107872746974
 30
0.0
 10
374.5821548802364
 20
207.8295892493599
 30
0.0
 10
374.6781579556185
 20
209.1645264753474
 30
0.0
 10
374.6781210318371
 20
209.5251894433366
 30
0.0
  0
SPLINE
  5
1DC
330
1D3
100
AcDbEntity
  8
0
  6
Continuous
 62
     0
370
     0
100
AcDbSpline
210
0.0
220
0.0
230
1.0
 70
     8
 71
     3
 72
    12
 73
     8
 74
     0
 42
0.0
 43
0.0
 40
0.0
 40
0.0
 40
0.0
 40
0.0
 40
1.718754101383531
 40
4.583500439394577
 40
9.48624150281726
 40
14.5486632533614
 40
17.672645379926
 40
17.672645379926
 40
17.672645379926
 40
17.672645379926
 10
389.7194576336599
 20
264.5678134291603
 30
0.0
 10
389.7205307151964
 20
264.1007613380447
 30
0.0
 10
389.6819095592833
 20
262.8784755807592
 30
0.0
 10
389.371663352914
 20
260.498696354182
 30
0.0
 10
388.4348050671941
 20
257.6956800487559
 30
0.0
 10
386.8454414483361
 20
255.5174372286184
 30
0.0
 10
385.5667853078675
 20
254.5608235733193
 30
0.0
 10
385.0423231592911
 20
254.2580238196061
 30
0.0
  0
LINE
  5
1DD
330
1D3
100
AcDbEntity
  8
0
  6
Continuous
 62
     0
370
     0
100
AcDbLine
 10
389.719458
 20
264.567813
 30
0.0
 11
387.887136
 21
263.509922
 31
0.0
  0
SPLINE
  5
1DE
330
1D3
100
AcDbEntity
  8
0
  6
Continuous
 62
     0
370
     0
100
AcDbSpline
210
0.0
220
0.0
230
1.0
 70
     8
 71
     3
 72
    17
 73
    13
 74
     0
 42
0.0
 43
0.0
 40
0.7970294811677403
 40
0.7970294811677403
 40
0.7970294811677403
 40
0.7970294811677403
 40
1.706339016653732
 40
4.550383530542367
 40
9.442487500490753
 40
14.50535991567011
 40
19.56799959870319
 40
24.63039839870083
 40
27.79445294476594
 40
29.69293249906594
 40
33.06807680507281
 40
35.34401262602155
 40
35.34401262602155
 40
35.34401262602155
 40
35.34401262602155
 10
374.1782419100741
 20
291.6753583436905
 30
0.0
 10
374.3946015171325
 20
291.5441856380344
 30
0.0
 10
375.2871775694518
 20
290.9824734263913
 30
0.0
 10
377.3296527998209
 20
289.5003726032614
 30
0.0
 10
380.2502215663701
 20
286.7786981657629
 30
0.0
 10
383.3547811132379
 20
282.9399529895244
 30
0.0
 10
386.0056071484726
 20
278.5900166881586
 30
0.0
 10
387.780120323415
 20
274.5666125644007
 30
0.0
 10
388.7395729915068
 20
271.4920104566298
 30
0.0
 10
389.3259181463795
 20
268.9655760788654
 30
0.0
 10
389.6466516562525
 20
266.7612755030945
 30
0.0
 10
389.7180374968135
 20
265.1861627180636
 30
0.0
 10
389.7194576336599
 20
264.5678134291692
 30
0.0
  0
SPLINE
  5
1DF
330
1D3
100
AcDbEntity
  8
0
  6
Continuous
 62
     0
370
    30
100
AcDbSpline
210
0.0
220
0.0
230
1.0
 70
     8
 71
     3
 72
    13
 73
     9
 74
     0
 42
0.0
 43
0.0
 40
16.2772408113582
 40
16.2772408113582
 40
16.2772408113582
 40
16.2772408113582
 40
19.54542891079017
 40
24.60790930299991
 40
27.77195984095973
 40
29.67039033576874
 40
33.04537789116455
 40
35.3427847996936
 40
35.3427847996936
 40
35.3427847996936
 40
35.3427847996936
 10
374.634941056959
 20
285.2803151187136
 30
0.0
 10
374.7023357866357
 20
284.6525518173479
 30
0.0
 10
374.6731523191999
 20
283.0451599504457
 30
0.0
 10
373.9228658099647
 20
280.8615142614789
 30
0.0
 10
372.6721053499463
 20
279.0465160218824
 30
0.0
 10
371.3445479671271
 20
277.6133226834346
 30
0.0
 10
369.8985356893905
 20
276.4144073190017
 30
0.0
 10
368.6294167787527
 20
275.602824130905
 30
0.0
 10
368.0881443106829
 20
275.2903203233564
 30
0.0
  0
LINE
  5
1E0
330
1D3
100
AcDbEntity
  8
0
  6
Continuous
 62
     0
370
     0
100
AcDbLine
 10
368.088144
 20
274.94087
 30
0.0
 11
368.088144
 21
275.29032
 31
0.0
  0
ELLIPSE
  5
1E1
330
1D3
100
AcDbEntity
  8
0
  6
Continuous
 62
     0
370
    30
100
AcDbEllipse
 10
379.056591
 20
276.770654
 30
0.0
 11
11.05
 21
-19.1391614236361
 31
0.0
210
0.0
220
0.0
230
0.9999999999999999
 40
0.57735
 41
2.356194490192344
 42
2.673674186437009
  0
ELLIPSE
  5
1E2
330
1D3
100
AcDbEntity
  8
0
  6
Continuous
 62
     0
370
    30
100
AcDbEllipse
 10
379.056591
 20
276.770654
 30
0.0
 11
11.05
 21
-19.1391614236361
 31
0.0
210
0.0
220
0.0
230
0.9999999999999999
 40
0.57735
 41
0.0370664141853432
 42
2.356194490192344
  0
ELLIPSE
  5
1E3
330
1D3
100
AcDbEntity
  8
0
  6
Continuous
 62
     0
370
    30
100
AcDbEllipse
 10
352.178242
 20
288.208946
 30
0.0
 11
21.79999998807907
 21
0.0
 31
0.0
210
0.0
220
0.0
230
-1.0
 40
0.57735
 41
2.356194490192344
 42
2.659279498308472
  0
ELLIPSE
  5
1E4
330
1D3
100
AcDbEntity
  8
0
  6
Continuous
 62
     0
370
    30
100
AcDbEllipse
 10
352.178242
 20
288.208946
 30
0.0
 11
21.79999998807907
 21
0.0
 31
0.0
210
0.0
220
0.0
230
-1.0
 40
0.57735
 41
0.4823131724915363
 42
2.356194490192344
  0
ELLIPSE
  5
1E5
330
1D3
100
AcDbEntity
  8
0
  6
Continuous
 62
     0
370
    30
100
AcDbEllipse
 10
352.178242
 20
284.475907
 30
0.0
 11
-22.50000000745057
 21
0.0
 31
0.0
210
0.0
220
0.0
230
1.0
 40
0.57735
 41
6.22128193961797
 42
8.639379797371928
  0
ELLIPSE
  5
1E6
330
1D3
100
AcDbEntity
  8
0
  6
Continuous
 62
     0
370
    30
100
AcDbEllipse
 10
352.178242
 20
287.96493
 30
0.0
 11
22.12614672386328
 21
0.0
 31
0.0
210
0.0
220
0.0
230
-1.0
 40
0.57735
 41
6.176352015962983
 42
8.639379797371928
  0
ELLIPSE
  5
1E7
330
1D3
100
AcDbEntity
  8
0
  6
Continuous
 62
     0
370
    30
100
AcDbEllipse
 10
352.178242
 20
287.96493
 30
0.0
 11
22.12614672386328
 21
0.0
 31
0.0
210
0.0
220
0.0
230
-1.0
 40
0.57735
 41
2.356194490192344
 42
3.248425962073322
  0
ELLIPSE
  5
1E8
330
1D3
100
AcDbEntity
  8
0
  6
Continuous
 62
     0
370
    30
100
AcDbEllipse
 10
352.178242
 20
203.293302
 30
0.0
 11
-22.1
 21
0.0
 31
0.0
210
0.0
220
0.0
230
1.0
 40
0.57735
 41
0.0370663765978954
 42
0.7853981633974473
  0
ELLIPSE
  5
1E9
330
1D3
100
AcDbEntity
  8
0
  6
Continuous
 62
     0
370
    30
100
AcDbEllipse
 10
352.178242
 20
203.293302
 30
0.0
 11
-22.1
 21
0.0
 31
0.0
210
0.0
220
0.0
230
1.0
 40
0.57735
 41
0.785398163397448
 42
3.104526259712522
  0
ELLIPSE
  5
1EA
330
1D3
100
AcDbEntity
  8
0
  6
Continuous
 62
     0
370
     0
100
AcDbEllipse
 10
352.178242
 20
209.525175
 30
0.0
 11
22.50000000745057
 21
0.0
 31
0.0
210
0.0
220
0.0
230
-1.0
 40
0.57735
 41
2.356194490192344
 42
3.141592662229477
  0
ELLIPSE
  5
1EB
330
1D3
100
AcDbEntity
  8
0
  6
Continuous
 62
     0
370
     0
100
AcDbEllipse
 10
352.178242
 20
209.525175
 30
0.0
 11
22.50000000745057
 21
0.0
 31
0.0
210
0.0
220
0.0
230
-1.0
 40
0.57735
 41
0.785398163397448
 42
2.356194490192344
  0
LINE
  5
1EC
330
1D3
100
AcDbEntity
  8
0
  6
Continuous
 62
     0
370
     0
100
AcDbLine
 10
368.088144
 20
274.94087
 30
0.0
 11
368.088144
 21
229.217067
 31
0.0
  0
LINE
  5
1ED
330
1D3
100
AcDbEntity
  8
0
  6
Continuous
 62
     0
370
    30
100
AcDbLine
 10
329.678242
 20
284.475907
 30
0.0
 11
329.678242
 21
209.525175
 31
0.0
  0
LINE
  5
1EE
330
1D3
100
AcDbEntity
  8
0
  6
Continuous
 62
     0
370
    30
100
AcDbLine
 10
329.693697
 20
209.043779
 30
0.0
 11
330.093422
 21
202.820464
 31
0.0
  0
LINE
  5
1EF
330
1D3
100
AcDbEntity
  8
0
  6
Continuous
 62
     0
370
    30
100
AcDbLine
 10
374.662788
 20
209.043791
 30
0.0
 11
374.263062
 21
202.820464
 31
0.0
  0
LINE
  5
1F0
330
1D3
100
AcDbEntity
  8
0
  6
Continuous
 62
     0
370
    30
100
AcDbLine
 10
329.721338
 20
285.279542
 30
0.0
 11
330.094475
 21
288.755211
 31
0.0
  0
LINE
  5
1F1
330
1D3
100
AcDbEntity
  8
0
  6
Continuous
 62
     0
370
    30
100
AcDbLine
 10
374.635145
 20
285.279541
 30
0.0
 11
374.262008
 21
288.755211
 31
0.0
  0
LINE
  5
1F2
330
1D3
100
AcDbEntity
  8
0
  6
Continuous
 62
     0
370
    30
100
AcDbLine
 10
385.457866
 20
254.515883
 30
0.0
 11
390.508491
 21
257.881058
 31
0.0
  0
LINE
  5
1F3
330
1D3
100
AcDbEntity
  8
0
  6
Continuous
 62
     0
370
    30
100
AcDbLine
 10
383.227246
 20
253.209945
 30
0.0
 11
385.043004
 21
254.258278
 31
0.0
  0
LINE
  5
1F4
330
1D3
100
AcDbEntity
  8
0
  6
Continuous
 62
     0
370
    30
100
AcDbLine
 10
374.678241
 20
238.402652
 30
0.0
 11
374.678242
 21
209.525189
 31
0.0
  0
SPLINE
  5
1F5
330
1D3
100
AcDbEntity
  8
0
  6
Continuous
 62
     0
370
    30
100
AcDbSpline
210
0.0
220
0.0
230
1.0
 70
     8
 71
     3
 72
    15
 73
    11
 74
     0
 42
0.0
 43
0.0
 40
0.0
 40
0.0
 40
0.0
 40
0.0
 40
1.874352420655152
 40
4.774810434643257
 40
8.427591300868317
 40
11.71691949032169
 40
15.14313580184041
 40
18.53223257181813
 40
21.69272308759975
 40
23.93191246643529
 40
23.93191246643529
 40
23.93191246643529
 40
23.93191246643529
 10
383.2272327272475
 20
253.2099371973872
 30
0.0
 10
383.1177845133941
 20
253.1467472681729
 30
0.0
 10
382.6828237519912
 20
252.8768279623173
 30
0.0
 10
381.3777443273715
 20
251.8346442862872
 30
0.0
 10
379.4453277092709
 20
249.7344798290117
 30
0.0
 10
377.5041685734626
 20
246.884087779605
 30
0.0
 10
375.980350409067
 20
243.8557831120264
 30
0.0
 10
375.0278349084704
 20
241.0386463955794
 30
0.0
 10
374.7004864583305
 20
239.174471216472
 30
0.0
 10
374.678241157965
 20
238.5534827749468
 30
0.0
 10
374.678241208242
 20
238.4026489634282
 30
0.0
  0
ELLIPSE
  5
1F6
330
1D3
100
AcDbEntity
  8
0
  6
Continuous
 62
     0
370
    30
100
AcDbEllipse
 10
391.139836
 20
355.610732
 30
0.0
 11
-6.499999999999961
 21
7.058935174164559E-7
 31
0.0
210
0.0
220
0.0
230
1.0
 40
0.57735
 41
5.62924538873774
 42
8.770838042327528
  0
ELLIPSE
  5
1F7
330
1D3
100
AcDbEntity
  8
0
  6
Continuous
 62
     0
370
    30
100
AcDbEllipse
 10
391.139836
 20
355.610732
 30
0.0
 11
-6.499999999999961
 21
7.058935174164559E-7
 31
0.0
210
0.0
220
0.0
230
1.0
 40
0.57735
 41
2.487652735147944
 42
5.629245388737737
  0
LINE
  5
1F8
330
1D3
100
AcDbEntity
  8
0
  6
Continuous
 62
     0
370
    30
100
AcDbLine
 10
397.639831
 20
306.620939
 30
0.0
 11
397.639836
 21
355.610731
 31
0.0
  0
LINE
  5
1F9
330
1D3
100
AcDbEntity
  8
0
  6
Continuous
 62
     0
370
    30
100
AcDbLine
 10
384.639831
 20
306.620941
 30
0.0
 11
384.639836
 21
355.610733
 31
0.0
  0
ELLIPSE
  5
1FA
330
1D3
100
AcDbEntity
  8
0
  6
Continuous
 62
     0
370
    30
100
AcDbEllipse
 10
391.139829
 20
306.620938
 30
0.0
 11
-6.499999999999962
 21
7.058935509729468E-7
 31
0.0
210
0.0
220
0.0
230
1.0
 40
0.57735
 41
6.283185298539899
 42
7.068583533276703
  0
ELLIPSE
  5
1FB
330
1D3
100
AcDbEntity
  8
0
  6
Continuous
 62
     0
370
    30
100
AcDbEllipse
 10
391.139829
 20
306.620938
 30
0.0
 11
-6.499999999999962
 21
7.058935509729468E-7
 31
0.0
210
0.0
220
0.0
230
1.0
 40
0.57735
 41
0.7853982260971166
 42
3.141592644950106
  0
SPLINE
  5
1FC
330
1D3
100
AcDbEntity
  8
0
  6
Continuous
 62
     0
370
     0
100
AcDbSpline
210
0.0
220
0.0
230
1.0
 70
     8
 71
     3
 72
    10
 73
     6
 74
     0
 42
0.0
 43
0.0
 40
0.0
 40
0.0
 40
0.0
 40
0.0
 40
1.91240578932151
 40
3.830350421158118
 40
5.180497437671887
 40
5.180497437671887
 40
5.180497437671887
 40
5.180497437671887
 10
386.5549005958061
 20
303.2285811952622
 30
0.0
 10
386.1140057045897
 20
303.4831320432313
 30
0.0
 10
385.3620851983475
 20
303.9540654559144
 30
0.0
 10
384.7889697070031
 20
304.4572050465702
 30
0.0
 10
384.679869929612
 20
304.7281783909395
 30
0.0
 10
384.6775224727778
 20
304.8384176395705
 30
0.0
  0
SPLINE
  5
1FD
330
1D3
100
AcDbEntity
  8
0
  6
Continuous
 62
     0
370
     0
100
AcDbSpline
210
0.0
220
0.0
230
1.0
 70
     8
 71
     3
 72
    19
 73
    15
 74
     0
 42
0.0
 43
0.0
 40
5.343266495893237
 40
5.343266495893237
 40
5.343266495893237
 40
5.343266495893237
 40
6.32391116788351
 40
7.661351199193069
 40
8.952158795729051
 40
10.23687625134339
 40
11.6201887532878
 40
12.6699143264469
 40
13.90342270692967
 40
15.64836897466497
 40
17.34311723258501
 40
18.41361149052811
 40
19.47528666719966
 40
21.03953786596914
 40
21.03953786596914
 40
21.03953786596914
 40
21.03953786596914
 10
397.6011222986239
 20
304.7911072498452
 30
0.0
 10
397.5953488501693
 20
304.5110838950777
 30
0.0
 10
397.5284762329879
 20
303.8493050165151
 30
0.0
 10
397.2296974051307
 20
302.8673659703807
 30
0.0
 10
396.6731663438208
 20
301.9454608070944
 30
0.0
 10
395.8947740588421
 20
301.2282199832936
 30
0.0
 10
394.9840468156779
 20
300.8148985733457
 30
0.0
 10
393.9658374144605
 20
300.6504300363981
 30
0.0
 10
392.7582981396757
 20
300.7000128148164
 30
0.0
 10
391.2790646773074
 20
301.045664812043
 30
0.0
 10
389.8405318040349
 20
301.5875752026041
 30
0.0
 10
388.6654625648952
 20
302.1173279188469
 30
0.0
 10
387.5937478872088
 20
302.6496683939853
 30
0.0
 10
386.915530314649
 20
303.0203714777917
 30
0.0
 10
386.5549005958061
 20
303.2285811952622
 30
0.0
  0
ELLIPSE
  5
1FE
330
1D3
100
AcDbEntity
  8
0
  6
Continuous
 62
     0
370
     0
100
AcDbEllipse
 10
399.259753
 20
310.492482
 30
0.0
 11
2.500000470247435
 21
4.330126747424679
 31
0.0
210
0.0
220
0.0
230
1.0
 40
0.57735
 41
3.446483624628149
 42
3.926990879686896
  0
SPLINE
  5
1FF
330
1D3
100
AcDbEntity
  8
0
  6
Continuous
 62
     0
370
     0
100
AcDbSpline
210
0.0
220
0.0
230
1.0
 70
     8
 71
     3
 72
     8
 73
     4
 74
     0
 42
0.0
 43
0.0
 40
0.0
 40
0.0
 40
0.0
 40
0.0
 40
1.0
 40
1.0
 40
1.0
 40
1.0
 10
397.6398310361784
 20
307.0470693746979
 30
0.0
 10
398.2341233694232
 20
306.9008153358013
 30
0.0
 10
398.779514641698
 20
306.6872649893236
 30
0.0
 10
399.2597526173859
 20
306.4099993952473
 30
0.0
  0
SPLINE
  5
200
330
1D3
100
AcDbEntity
  8
0
  6
Continuous
 62
     0
370
     0
100
AcDbSpline
210
0.0
220
0.0
230
1.0
 70
     8
 71
     3
 72
    15
 73
    11
 74
     0
 42
0.0
 43
0.0
 40
0.0
 40
0.0
 40
0.0
 40
0.0
 40
3.004295903646847
 40
6.017293057819065
 40
8.458208939344342
 40
9.93455495835826
 40
12.21528003184906
 40
14.06340335768629
 40
16.08163160756787
 40
16.5054101384803
 40
16.5054101384803
 40
16.5054101384803
 40
16.5054101384803
 10
383.0199047177208
 20
297.033918838777
 30
0.0
 10
382.3836758429557
 20
297.401245843014
 30
0.0
 10
381.3400621418483
 20
298.1765154416138
 30
0.0
 10
380.6459991211827
 20
299.2972002867258
 30
0.0
 10
380.6668740105698
 20
300.2245197921105
 30
0.0
 10
381.0558995452918
 20
301.0697071880621
 30
0.0
 10
381.7236121825475
 20
301.855389946592
 30
0.0
 10
382.8185085157412
 20
302.7514783297731
 30
0.0
 10
383.7999427385237
 20
303.3955439165185
 30
0.0
 10
384.423140453895
 20
303.7624540172919
 30
0.0
 10
384.5331143712002
 20
303.8260633273875
 30
0.0
  0
ELLIPSE
  5
201
330
1D3
100
AcDbEntity
  8
0
  6
Continuous
 62
     0
370
     0
100
AcDbEllipse
 10
383.019905
 20
301.116401
 30
0.0
 11
2.500000470247433
 21
4.33012674742468
 31
0.0
210
0.0
220
0.0
230
1.0
 40
0.57735
 41
3.926990879686895
 42
5.515240499001734
  0
SPLINE
  5
202
330
1D3
100
AcDbEntity
  8
0
  6
Continuous
 62
     0
370
     0
100
AcDbSpline
210
0.0
220
0.0
230
1.0
 70
     8
 71
     3
 72
    21
 73
    17
 74
     0
 42
0.0
 43
0.0
 40
0.0
 40
0.0
 40
0.0
 40
0.0
 40
3.004295903647487
 40
6.01729305781994
 40
8.458208939345289
 40
9.934554958359266
 40
12.21528003185013
 40
14.06340335768736
 40
16.08163160756893
 40
18.25474785008434
 40
19.90381535291495
 40
21.8415966518898
 40
24.58282184243938
 40
27.24518841621357
 40
30.59472225158563
 40
33.05208433184011
 40
33.05208433184011
 40
33.05208433184011
 40
33.05208433184011
 10
399.259752617386
 20
306.4099993952473
 30
0.0
 10
399.8959814921512
 20
306.0426723910102
 30
0.0
 10
400.9395951730712
 20
305.081511439259
 30
0.0
 10
401.6336581181858
 20
303.2651420492315
 30
0.0
 10
401.6127831492447
 20
301.6052751578325
 30
0.0
 10
401.2237575431358
 20
300.1027457831162
 30
0.0
 10
400.5560448472593
 20
298.7772743092703
 30
0.0
 10
399.4611484682045
 20
297.4588890975012
 30
0.0
 10
398.0795259189796
 20
296.3585529471837
 30
0.0
 10
396.4784666544715
 20
295.5648567689935
 30
0.0
 10
394.7352630507374
 20
295.0529807291421
 30
0.0
 10
392.7107158085353
 20
294.7637931746425
 30
0.0
 10
390.2908261109254
 20
294.8038665012753
 30
0.0
 10
387.4627530848144
 20
295.2668076658287
 30
0.0
 10
384.9508432031654
 20
296.0553448768307
 30
0.0
 10
383.5403077543568
 20
296.7334639301345
 30
0.0
 10
383.0199047177208
 20
297.033918838777
 30
0.0
  0
LINE
  5
203
330
1D3
100
AcDbEntity
  8
0
  6
Continuous
 62
     0
370
    30
100
AcDbLine
 10
395.377964
 20
268.680382
 30
0.0
 11
394.741376
 21
269.047916
 31
0.0
  0
SPLINE
  5
204
330
1D3
100
AcDbEntity
  8
0
  6
Continuous
 62
     0
370
    30
100
AcDbSpline
210
0.0
220
0.0
230
1.0
 70
     8
 71
     3
 72
     9
 73
     5
 74
     0
 42
0.0
 43
0.0
 40
0.0
 40
0.0
 40
0.0
 40
0.0
 40
1.884994507081518
 40
4.471886377056387
 40
4.471886377056387
 40
4.471886377056387
 40
4.471886377056387
 10
394.7413759968399
 20
269.0479163186953
 30
0.0
 10
394.8485892432849
 20
268.6809730906739
 30
0.0
 10
395.0611200992574
 20
267.8371380094693
 30
0.0
 10
395.172141395298
 20
267.063519233443
 30
0.0
 10
395.2016534974169
 20
266.642694588918
 30
0.0
  0
SPLINE
  5
205
330
1D3
100
AcDbEntity
  8
0
  6
Continuous
 62
     0
370
    30
100
AcDbSpline
210
0.0
220
0.0
230
1.0
 70
     8
 71
     3
 72
    11
 73
     7
 74
     0
 42
0.0
 43
0.0
 40
4.404563857902346
 40
4.404563857902346
 40
4.404563857902346
 40
4.404563857902346
 40
4.744068051412471
 40
9.96978525295273
 40
15.62697081957014
 40
18.76090241147
 40
18.76090241147
 40
18.76090241147
 40
18.76090241147
 10
395.2016622868846
 20
266.6426880105306
 30
0.0
 10
395.2147644297925
 20
266.5807329222798
 30
0.0
 10
395.4195000752405
 20
265.5720922323292
 30
0.0
 10
395.4993282270422
 20
263.7713474736539
 30
0.0
 10
394.7575871664537
 20
262.2301527197285
 30
0.0
 10
393.8711871950047
 20
261.687807525826
 30
0.0
 10
393.5040102068994
 20
261.5517299411821
 30
0.0
  0
SPLINE
  5
206
330
1D3
100
AcDbEntity
  8
0
  6
Continuous
 62
     0
370
    30
100
AcDbSpline
210
0.0
220
0.0
230
1.0
 70
    12
 71
     2
 72
     8
 73
     5
 74
     0
 42
0.0
 43
0.0
 40
0.0
 40
0.0
 40
0.0
 40
0.3333333333333333
 40
0.3333333333333333
 40
0.3343840844031123
 40
0.3343840844031123
 40
0.3343840844031123
 10
395.3779642291444
 20
268.6803818392343
 30
0.0
 41
1.0
 10
398.9269318334827
 20
259.9143761250193
 30
0.0
 41
0.861987242667228
 10
392.728936888234
 20
260.0867525439633
 30
0.0
 41
1.0
 10
392.7120883536753
 20
260.0872211293812
 30
0.0
 41
0.9995649488427683
 10
392.6951746493164
 20
260.0877777264373
 30
0.0
 41
0.9991326404683498
  0
ELLIPSE
  5
207
330
1D3
100
AcDbEntity
  8
0
  6
Continuous
 62
     0
370
    30
100
AcDbEllipse
 10
379.826118
 20
277.227063
 30
0.0
 11
-10.55000000745059
 21
18.27313603275645
 31
0.0
210
0.0
220
0.0
230
-0.9999999999999999
 40
0.57735
 41
0.785398288796773
 42
2.331105972374175
  0
ELLIPSE
  5
208
330
1D3
100
AcDbEntity
  8
0
  6
Continuous
 62
     0
370
    30
100
AcDbEllipse
 10
379.826118
 20
277.227063
 30
0.0
 11
-10.55000000745059
 21
18.27313603275645
 31
0.0
210
0.0
220
0.0
230
-0.9999999999999999
 40
0.57735
 41
0.6669544039956052
 42
0.7853982887967718
  0
ELLIPSE
  5
209
330
1D3
100
AcDbEntity
  8
0
  6
Continuous
 62
     0
370
    30
100
AcDbEllipse
 10
379.826118
 20
277.227063
 30
0.0
 11
-11.0
 21
19.05255888325765
 31
0.0
210
0.0
220
0.0
230
-0.9999999999999997
 40
0.57735
 41
0.4138490988239506
 42
0.7853982887967729
  0
ELLIPSE
  5
20A
330
1D3
100
AcDbEntity
  8
0
  6
Continuous
 62
     0
370
    30
100
AcDbEllipse
 10
379.826118
 20
277.227063
 30
0.0
 11
-11.0
 21
19.05255888325765
 31
0.0
210
0.0
220
0.0
230
-0.9999999999999997
 40
0.57735
 41
0.7853982887967731
 42
2.332132528298362
  0
ELLIPSE
  5
20B
330
1D3
100
AcDbEntity
  8
0
  6
Continuous
 62
     0
370
     0
100
AcDbEllipse
 10
401.392875
 20
289.678636
 30
0.0
 11
-11.0
 21
19.05255888325765
 31
0.0
210
0.0
220
0.0
230
-0.9999999999999997
 40
0.57735
 41
0.5417395394097217
 42
0.7853982887967721
  0
ELLIPSE
  5
20C
330
1D3
100
AcDbEntity
  8
0
  6
Continuous
 62
     0
370
     0
100
AcDbEllipse
 10
401.392875
 20
289.678636
 30
0.0
 11
-11.0
 21
19.05255888325765
 31
0.0
210
0.0
220
0.0
230
-0.9999999999999997
 40
0.57735
 41
0.7853982887967729
 42
3.141592622099949
  0
SPLINE
  5
20D
330
1D3
100
AcDbEntity
  8
0
  6
Continuous
 62
     0
370
    30
100
AcDbSpline
210
0.0
220
0.0
230
1.0
 70
     8
 71
     3
 72
    15
 73
    11
 74
     0
 42
0.0
 43
0.0
 40
0.0
 40
0.0
 40
0.0
 40
0.0
 40
3.604916580329949
 40
9.40474614464741
 40
17.66188983582949
 40
25.08417716696645
 40
33.34526373195439
 40
41.63782691759258
 40
47.73147479100489
 40
51.48905609367757
 40
51.48905609367757
 40
51.48905609367757
 40
51.48905609367757
 10
401.6428770029734
 20
307.6663237354236
 30
0.0
 10
402.4984793913728
 20
307.1723413419103
 30
0.0
 10
404.7295924387625
 20
305.6709832156029
 30
0.0
 10
408.7524876175567
 20
301.9220994081785
 30
0.0
 10
412.9460885381254
 20
296.0413199739795
 30
0.0
 10
416.1348979591945
 20
288.708008608463
 30
0.0
 10
417.457661234294
 20
281.4618564432997
 30
0.0
 10
416.6535691050669
 20
275.6474290987398
 30
0.0
 10
414.6172182550355
 20
272.2502865163708
 30
0.0
 10
413.0458605410728
 20
271.0030781818467
 30
0.0
 10
412.392875495078
 20
270.6260770517684
 30
0.0
  0
ARC
  5
20E
330
1D3
100
AcDbEntity
  8
0
  6
Continuous
 62
     0
370
    30
100
AcDbCircle
 10
393.021696
 20
293.01853
 30
0.0
 40
16.99654746705365
100
AcDbArc
 50
59.52042
 51
74.233942
  0
LINE
  5
20F
330
1D3
100
AcDbEntity
  8
0
  6
Continuous
 62
     0
370
    30
100
AcDbLine
 10
394.966018
 20
260.564676
 30
0.0
 11
412.392875
 21
270.626077
 31
0.0
  0
LINE
  5
210
330
1D3
100
AcDbEntity
  8
0
  6
Continuous
 62
     0
370
    30
100
AcDbLine
 10
374.178242
 20
299.369672
 30
0.0
 11
384.664921
 21
305.424159
 31
0.0
  0
SPLINE
  5
211
330
1D3
100
AcDbEntity
  8
0
  6
Continuous
 62
     0
370
    30
100
AcDbSpline
210
0.0
220
0.0
230
1.0
 70
     8
 71
     3
 72
    11
 73
     7
 74
     0
 42
0.0
 43
0.0
 40
17.65491075341988
 40
17.65491075341988
 40
17.65491075341988
 40
17.65491075341988
 40
17.74230589009743
 40
18.99714629575569
 40
20.14710018845693
 40
22.13160281073323
 40
22.13160281073323
 40
22.13160281073323
 40
22.13160281073323
 10
384.1638042006623
 20
303.1004060732436
 30
0.0
 10
384.1637852594769
 20
303.1004231721366
 30
0.0
 10
384.1670359256378
 20
303.104609008891
 30
0.0
 10
384.2735943045645
 20
303.2276139163151
 30
0.0
 10
384.5682727270493
 20
303.8040732689362
 30
0.0
 10
384.6858493506339
 20
304.4478419813702
 30
0.0
 10
384.6775230282722
 20
304.8383825625448
 30
0.0
  0
LINE
  5
212
330
1D3
100
AcDbEntity
  8
0
  6
Continuous
 62
     0
370
    30
100
AcDbLine
 10
384.640324
 20
306.57462
 30
0.0
 11
384.677444
 21
304.838416
 31
0.0
  0
LINE
  5
213
330
1D3
100
AcDbEntity
  8
0
  6
Continuous
 62
     0
370
    30
100
AcDbLine
 10
397.639334
 20
306.574619
 30
0.0
 11
397.60112
 21
304.787233
 31
0.0
  0
ELLIPSE
  5
214
330
1D3
100
AcDbEntity
  8
0
  6
Continuous
 62
     0
370
    30
100
AcDbEllipse
 10
352.178242
 20
150.221032
 30
0.0
 11
-22.0
 21
0.0
 31
0.0
210
0.0
220
0.0
230
1.0
 40
0.57735
 41
6.283185298539899
 42
8.170592087829553
  0
ELLIPSE
  5
215
330
1D3
100
AcDbEntity
  8
0
  6
Continuous
 62
     0
370
    30
100
AcDbEllipse
 10
352.178242
 20
150.221032
 30
0.0
 11
-22.0
 21
0.0
 31
0.0
210
0.0
220
0.0
230
1.0
 40
0.57735
 41
1.887406780649968
 42
1.949551667790645
  0
ELLIPSE
  5
216
330
1D3
100
AcDbEntity
  8
0
  6
Continuous
 62
     0
370
     0
100
AcDbEllipse
 10
352.178242
 20
146.138549
 30
0.0
 11
-27.0
 21
0.0
 31
0.0
210
0.0
220
0.0
230
1.0
 40
0.57735
 41
5.664798401517871
 42
8.170592087829553
  0
ELLIPSE
  5
217
330
1D3
100
AcDbEntity
  8
0
  6
Continuous
 62
     0
370
     0
100
AcDbEllipse
 10
352.178242
 20
146.138549
 30
0.0
 11
-27.0
 21
0.0
 31
0.0
210
0.0
220
0.0
230
1.0
 40
0.57735
 41
1.887406780649968
 42
3.759979541972133
  0
ELLIPSE
  5
218
330
1D3
100
AcDbEntity
  8
0
  6
Continuous
 62
     0
370
     0
100
AcDbEllipse
 10
352.178242
 20
141.647818
 30
0.0
 11
-30.0
 21
0.0
 31
0.0
210
0.0
220
0.0
230
1.0
 40
0.57735
 41
6.283185298539899
 42
8.170592087829553
  0
ELLIPSE
  5
219
330
1D3
100
AcDbEntity
  8
0
  6
Continuous
 62
     0
370
     0
100
AcDbEllipse
 10
352.178242
 20
141.647818
 30
0.0
 11
-30.0
 21
0.0
 31
0.0
210
0.0
220
0.0
230
1.0
 40
0.57735
 41
1.887406780649968
 42
3.141592644950105
  0
ELLIPSE
  5
21A
330
1D3
100
AcDbEntity
  8
0
  6
Continuous
 62
     0
370
     0
100
AcDbEllipse
 10
352.178242
 20
145.730301
 30
0.0
 11
-30.0
 21
0.0
 31
0.0
210
0.0
220
0.0
230
1.0
 40
0.57735
 41
1.887406780649968
 42
3.16745358442714
  0
ELLIPSE
  5
21B
330
1D3
100
AcDbEntity
  8
0
  6
Continuous
 62
     0
370
     0
100
AcDbEllipse
 10
352.178242
 20
145.730301
 30
0.0
 11
-30.0
 21
0.0
 31
0.0
210
0.0
220
0.0
230
1.0
 40
0.57735
 41
6.260975917811848
 42
8.170592087829553
  0
ELLIPSE
  5
21C
330
1D3
100
AcDbEntity
  8
0
  6
Continuous
 62
     0
370
     0
100
AcDbEllipse
 10
352.178242
 20
146.138549
 30
0.0
 11
-29.5
 21
0.0
 31
0.0
210
0.0
220
0.0
230
1.0
 40
0.57735
 41
5.554067726405175
 42
8.170592087829553
  0
ELLIPSE
  5
21D
330
1D3
100
AcDbEntity
  8
0
  6
Continuous
 62
     0
370
     0
100
AcDbEllipse
 10
352.178242
 20
146.138549
 30
0.0
 11
-29.5
 21
0.0
 31
0.0
210
0.0
220
0.0
230
1.0
 40
0.57735
 41
1.887406780649968
 42
3.870710217084829
  0
SPLINE
  5
21E
330
1D3
100
AcDbEntity
  8
0
  6
Continuous
 62
     0
370
    30
100
AcDbSpline
210
0.0
220
0.0
230
1.0
 70
     8
 71
     3
 72
    19
 73
    15
 74
     0
 42
0.0
 43
0.0
 40
0.6498850994033682
 40
0.6498850994033682
 40
0.6498850994033682
 40
0.6498850994033682
 40
5.031500218823759
 40
13.05289794436875
 40
22.7223180753074
 40
31.53280011265109
 40
39.42643301548964
 40
47.30294841400004
 40
55.17753152672604
 40
63.05109273192407
 40
72.07076966252856
 40
81.57696936324766
 40
89.12835309122612
 40
93.20394781850818
 40
93.20394781850818
 40
93.20394781850818
 40
93.20394781850818
 10
382.1707105977233
 20
141.2597410624089
 30
0.0
 10
382.1379355600766
 20
140.3899239679577
 30
0.0
 10
381.7328790901681
 20
137.9259469096781
 30
0.0
 10
379.4711351132137
 20
133.7390126192593
 30
0.0
 10
374.3825704748243
 20
129.4247484543927
 30
0.0
 10
367.3598111813644
 20
126.2524525845566
 30
0.0
 10
359.6887265174091
 20
124.4629338605396
 30
0.0
 10
351.7944330830224
 20
123.9159668250271
 30
0.0
 10
343.9331368115315
 20
124.5782414496883
 30
0.0
 10
336.2838278545122
 20
126.4932109926777
 30
0.0
 10
329.4057068867065
 20
129.7845042879507
 30
0.0
 10
324.6112263970285
 20
134.1139308371812
 30
0.0
 10
322.5737843804969
 20
138.1452676671461
 30
0.0
 10
322.2158009986572
 20
140.4550988592102
 30
0.0
 10
322.1855979194847
 20
141.2642743579067
 30
0.0
  0
SPLINE
  5
21F
330
1D3
100
AcDbEntity
  8
0
  6
Continuous
 62
     0
370
    30
100
AcDbSpline
210
0.0
220
0.0
230
1.0
 70
     8
 71
     3
 72
    11
 73
     7
 74
     0
 42
0.0
 43
0.0
 40
0.0
 40
0.0
 40
0.0
 40
0.0
 40
5.030263813020624
 40
11.78152512490282
 40
20.51788059858317
 40
22.23618871750577
 40
22.23618871750577
 40
22.23618871750577
 40
22.23618871750577
 10
382.1780061204809
 20
145.7291710156761
 30
0.0
 10
382.1780061349464
 20
146.7271763698804
 30
0.0
 10
381.8373611830739
 20
149.0731221159438
 30
0.0
 10
379.8829355944062
 20
152.9844960277498
 30
0.0
 10
376.8685544614715
 20
155.8918489034399
 30
0.0
 10
374.5682769976407
 20
157.4245950718369
 30
0.0
 10
374.1782379106691
 20
157.6698633054574
 30
0.0
  0
SPLINE
  5
220
330
1D3
100
AcDbEntity
  8
0
  6
Continuous
 62
     0
370
    30
100
AcDbSpline
210
0.0
220
0.0
230
1.0
 70
     8
 71
     3
 72
    10
 73
     6
 74
     0
 42
0.0
 43
0.0
 40
0.0
 40
0.0
 40
0.0
 40
0.0
 40
7.15528157989627
 40
18.9796195949349
 40
22.23352125473391
 40
22.23352125473391
 40
22.23352125473391
 40
22.23352125473391
 10
322.1784234348573
 20
145.7309368114222
 30
0.0
 10
322.1784234554077
 20
147.1487684771235
 30
0.0
 10
322.9629086971341
 20
150.9304933275558
 30
0.0
 10
326.2161296941484
 20
154.9436532384815
 30
0.0
 10
329.4397425635232
 20
157.2050444156229
 30
0.0
 10
330.178245897682
 20
157.6693322137864
 30
0.0
  0
LINE
  5
221
330
1D3
100
AcDbEntity
  8
0
  6
Continuous
 62
     0
370
    30
100
AcDbLine
 10
322.178242
 20
141.647818
 30
0.0
 11
322.178242
 21
145.730301
 31
0.0
  0
LINE
  5
222
330
1D3
100
AcDbEntity
  8
0
  6
Continuous
 62
     0
370
    30
100
AcDbLine
 10
382.178242
 20
141.647818
 30
0.0
 11
382.178242
 21
145.730301
 31
0.0
  0
ELLIPSE
  5
223
330
1D3
100
AcDbEntity
  8
0
  6
Continuous
 62
     0
370
     0
100
AcDbEllipse
 10
352.178242
 20
381.412034
 30
0.0
 11
11.0
 21
0.0
 31
0.0
210
0.0
220
0.0
230
-1.0
 40
0.57735
 41
2.356194490192345
 42
3.141597942616591
  0
ELLIPSE
  5
224
330
1D3
100
AcDbEntity
  8
0
  6
Continuous
 62
     0
370
     0
100
AcDbEllipse
 10
352.178242
 20
381.412034
 30
0.0
 11
11.0
 21
0.0
 31
0.0
210
0.0
220
0.0
230
-1.0
 40
0.57735
 41
6.28318475264496
 42
8.63937979737193
  0
ELLIPSE
  5
225
330
1D3
100
AcDbEntity
  8
0
  6
Continuous
 62
     0
370
     0
100
AcDbEllipse
 10
479.457462
 20
307.927342
 30
0.0
 11
-11.0
 21
0.0
 31
0.0
210
0.0
220
0.0
230
1.0
 40
0.57735
 41
0.7853981633974481
 42
3.141594136107464
  0
ELLIPSE
  5
226
330
1D3
100
AcDbEntity
  8
0
  6
Continuous
 62
     0
370
     0
100
AcDbEllipse
 10
479.457462
 20
307.927342
 30
0.0
 11
-11.0
 21
0.0
 31
0.0
210
0.0
220
0.0
230
1.0
 40
0.57735
 41
6.283185298539896
 42
7.068583470577034
  0
ELLIPSE
  5
227
330
1D3
100
AcDbEntity
  8
0
  6
Continuous
 62
     0
370
    30
100
AcDbEllipse
 10
479.457462
 20
288.331424
 30
0.0
 11
-11.0
 21
0.0
 31
0.0
210
0.0
220
0.0
230
1.0
 40
0.57735
 41
0.7853981633974481
 42
3.141592644950105
  0
ELLIPSE
  5
228
330
1D3
100
AcDbEntity
  8
0
  6
Continuous
 62
     0
370
    30
100
AcDbEllipse
 10
479.457462
 20
288.331424
 30
0.0
 11
-11.0
 21
0.0
 31
0.0
210
0.0
220
0.0
230
1.0
 40
0.57735
 41
6.283185298539899
 42
7.068583470577034
  0
LINE
  5
229
330
1D3
100
AcDbEntity
  8
0
  6
Continuous
 62
     0
370
    30
100
AcDbLine
 10
490.457462
 20
288.331424
 30
0.0
 11
490.457462
 21
307.927342
 31
0.0
  0
LINE
  5
22A
330
1D3
100
AcDbEntity
  8
0
  6
Continuous
 62
     0
370
    30
100
AcDbLine
 10
468.457462
 20
288.331424
 30
0.0
 11
468.457462
 21
307.927342
 31
0.0
  0
SPLINE
  5
22B
330
1D3
100
AcDbEntity
  8
0
  6
Continuous
 62
     0
370
    30
100
AcDbSpline
210
0.0
220
0.0
230
1.0
 70
     8
 71
     3
 72
    22
 73
    18
 74
     0
 42
0.0
 43
0.0
 40
0.0
 40
0.0
 40
0.0
 40
0.0
 40
19.28754060164516
 40
48.67547227202304
 40
68.43149791504001
 40
93.07075306855809
 40
115.5101789494239
 40
135.8504612220493
 40
163.6048644880698
 40
182.2780553148712
 40
206.1320631804619
 40
226.7617355335752
 40
243.586677857147
 40
264.3943026423261
 40
279.0958313067514
 40
294.2318774785115
 40
309.602799857208
 40
309.602799857208
 40
309.602799857208
 40
309.602799857208
 10
490.4574623433148
 20
307.927341704867
 30
0.0
 10
490.4574623464299
 20
313.3690934959381
 30
0.0
 10
489.2851269956575
 20
327.6438621874383
 30
0.0
 10
483.6480443923756
 20
348.7182919501892
 30
0.0
 10
473.7116335053751
 20
371.0907856991231
 30
0.0
 10
461.956607709434
 20
390.1930717155708
 30
0.0
 10
447.8187456135248
 20
407.123825139214
 30
0.0
 10
431.5192027240734
 20
421.7845906441337
 30
0.0
 10
415.123268660286
 20
431.7522093335001
 30
0.0
 10
397.6708676157326
 20
437.538418883386
 30
0.0
 10
382.2146968480214
 20
438.4680448845647
 30
0.0
 10
368.3202300718513
 20
434.479770918283
 30
0.0
 10
357.0616412846053
 20
426.8236588751115
 30
0.0
 10
349.3857548970729
 20
417.0059816247965
 30
0.0
 10
344.411206038141
 20
405.5419204776736
 30
0.0
 10
341.7639406806346
 20
394.1232659026424
 30
0.0
 10
341.1782432504317
 20
385.7511239075153
 30
0.0
 10
341.1782417298901
 20
381.4120676330632
 30
0.0
  0
SPLINE
  5
22C
330
1D3
100
AcDbEntity
  8
0
  6
Continuous
 62
     0
370
    30
100
AcDbSpline
210
0.0
220
0.0
230
1.0
 70
     8
 71
     3
 72
    26
 73
    22
 74
     0
 42
0.0
 43
0.0
 40
0.0
 40
0.0
 40
0.0
 40
0.0
 40
7.110774186891152
 40
18.24440616097122
 40
44.72551505729333
 40
53.82961177976775
 40
68.73828297247606
 40
83.61676655533802
 40
109.8422492653761
 40
123.8190353851865
 40
145.3863333182731
 40
155.561899369813
 40
161.464942705524
 40
176.5581932794891
 40
188.8786083048114
 40
201.3645258956172
 40
216.9994776110913
 40
223.562250924841
 40
235.5165422760942
 40
249.9558750127578
 40
258.3300895589419
 40
258.3300895589419
 40
258.3300895589419
 40
258.3300895589419
 10
468.4574623433148
 20
307.9273418146057
 30
0.0
 10
468.4574623419485
 20
309.7663794901707
 30
0.0
 10
468.2806969465003
 20
314.6272341794045
 30
0.0
 10
466.7163478298834
 20
327.2650439557432
 30
0.0
 10
462.6250243072458
 20
341.5038407616119
 30
0.0
 10
455.9755399820359
 20
356.7352700249507
 30
0.0
 10
449.7923770803014
 20
368.1804286098255
 30
0.0
 10
439.2961469432585
 20
383.5764290100985
 30
0.0
 10
427.3099534740301
 20
396.4963618744454
 30
0.0
 10
413.2608113350779
 20
407.3547518266448
 30
0.0
 10
402.9856112975835
 20
412.6921249059201
 30
0.0
 10
395.2835735985075
 20
414.9414919209059
 30
0.0
 10
389.3529789131339
 20
415.9441536884649
 30
0.0
 10
383.7381989036925
 20
415.8640210132197
 30
0.0
 10
378.240933741894
 20
414.2975533964783
 30
0.0
 10
373.5411433380003
 20
411.5075605466762
 30
0.0
 10
370.0777744687522
 20
407.7608068477224
 30
0.0
 10
367.1695837572075
 20
402.7835291386913
 30
0.0
 10
364.8681757395398
 20
396.9304664634662
 30
0.0
 10
363.4379641090187
 20
389.2764284931313
 30
0.0
 10
363.1782417281309
 20
383.5775007541405
 30
0.0
 10
363.1782417297363
 20
381.4120339884801
 30
0.0
  0
LINE
  5
22D
330
1D3
100
AcDbEntity
  8
0
  6
Continuous
 62
     0
370
    30
100
AcDbLine
 10
341.178242
 20
381.412034
 30
0.0
 11
341.178242
 21
304.810197
 31
0.0
  0
LINE
  5
22E
330
1D3
100
AcDbEntity
  8
0
  6
Continuous
 62
     0
370
    30
100
AcDbLine
 10
363.178242
 20
381.412034
 30
0.0
 11
363.178242
 21
304.810196
 31
0.0
  0
ELLIPSE
  5
22F
330
1D3
100
AcDbEntity
  8
0
  6
Continuous
 62
     0
370
    30
100
AcDbEllipse
 10
352.178242
 20
303.804034
 30
0.0
 11
-11.25
 21
0.0
 31
0.0
210
0.0
220
0.0
230
1.0
 40
0.57735
 41
6.07197441818057
 42
6.099884151425982
  0
ELLIPSE
  5
230
330
1D3
100
AcDbEntity
  8
0
  6
Continuous
 62
     0
370
    30
100
AcDbEllipse
 10
352.178242
 20
303.804034
 30
0.0
 11
-11.25
 21
0.0
 31
0.0
210
0.0
220
0.0
230
1.0
 40
0.57735
 41
3.324893792064016
 42
3.352803525309138
  0
ELLIPSE
  5
231
330
1D3
100
AcDbEntity
  8
0
  6
Continuous
 62
     0
370
    30
100
AcDbEllipse
 10
352.178242
 20
305.355378
 30
0.0
 11
-11.25
 21
0.0
 31
0.0
210
0.0
220
0.0
230
1.0
 40
0.57735
 41
3.204488036688409
 42
3.352803525309136
  0
ELLIPSE
  5
232
330
1D3
100
AcDbEntity
  8
0
  6
Continuous
 62
     0
370
    30
100
AcDbEllipse
 10
352.178242
 20
305.355378
 30
0.0
 11
-11.25
 21
0.0
 31
0.0
210
0.0
220
0.0
230
1.0
 40
0.57735
 41
6.071974418180572
 42
6.220289906801589
  0
ELLIPSE
  5
233
330
1D3
100
AcDbEntity
  8
0
  6
Continuous
 62
     0
370
    30
100
AcDbEllipse
 10
352.178242
 20
306.171874
 30
0.0
 11
-11.25
 21
0.0
 31
0.0
210
0.0
220
0.0
230
1.0
 40
0.57735
 41
2.606811293971979
 42
3.352803525309136
  0
ELLIPSE
  5
234
330
1D3
100
AcDbEntity
  8
0
  6
Continuous
 62
     0
370
    30
100
AcDbEllipse
 10
352.178242
 20
306.171874
 30
0.0
 11
-11.25
 21
0.0
 31
0.0
210
0.0
220
0.0
230
1.0
 40
0.57735
 41
6.071974418180574
 42
8.889996601151566
  0
ELLIPSE
  5
235
330
1D3
100
AcDbEntity
  8
0
  6
Continuous
 62
     0
370
     0
100
AcDbEllipse
 10
352.178242
 20
306.171874
 30
0.0
 11
-21.5
 21
0.0
 31
0.0
210
0.0
220
0.0
230
1.0
 40
0.57735
 41
5.249467357438626
 42
5.748403947561769
  0
ELLIPSE
  5
236
330
1D3
100
AcDbEntity
  8
0
  6
Continuous
 62
     0
370
     0
100
AcDbEllipse
 10
352.178242
 20
306.171874
 30
0.0
 11
-21.5
 21
0.0
 31
0.0
210
0.0
220
0.0
230
1.0
 40
0.57735
 41
2.606811293971979
 42
4.175310586051339
  0
ELLIPSE
  5
237
330
1D3
100
AcDbEntity
  8
0
  6
Continuous
 62
     0
370
     0
100
AcDbEllipse
 10
352.178242
 20
306.171874
 30
0.0
 11
-21.5
 21
0.0
 31
0.0
210
0.0
220
0.0
230
1.0
 40
0.57735
 41
5.748403947561773
 42
8.889996601151566
  0
ELLIPSE
  5
238
330
1D3
100
AcDbEntity
  8
0
  6
Continuous
 62
     0
370
     0
100
AcDbEllipse
 10
352.178242
 20
305.763626
 30
0.0
 11
-22.0
 21
0.0
 31
0.0
210
0.0
220
0.0
230
1.0
 40
0.57735
 41
2.606811293971979
 42
3.153975731114197
  0
ELLIPSE
  5
239
330
1D3
100
AcDbEntity
  8
0
  6
Continuous
 62
     0
370
     0
100
AcDbEllipse
 10
352.178242
 20
305.763626
 30
0.0
 11
-22.0
 21
0.0
 31
0.0
210
0.0
220
0.0
230
1.0
 40
0.57735
 41
6.269936603224567
 42
8.889996601151566
  0
ELLIPSE
  5
23A
330
1D3
100
AcDbEntity
  8
0
  6
Continuous
 62
     0
370
    30
100
AcDbEllipse
 10
352.178242
 20
288.453899
 30
0.0
 11
-22.0
 21
0.0
 31
0.0
210
0.0
220
0.0
230
1.0
 40
0.57735
 41
2.606811293971979
 42
3.141592644950105
  0
ELLIPSE
  5
23B
330
1D3
100
AcDbEntity
  8
0
  6
Continuous
 62
     0
370
    30
100
AcDbEllipse
 10
352.178242
 20
288.453899
 30
0.0
 11
-22.0
 21
0.0
 31
0.0
210
0.0
220
0.0
230
1.0
 40
0.57735
 41
6.283185298539899
 42
8.889996601151566
  0
ELLIPSE
  5
23C
330
1D3
100
AcDbEntity
  8
0
  6
Continuous
 62
     0
370
    30
100
AcDbEllipse
 10
352.178242
 20
288.20895
 30
0.0
 11
-21.69999998807907
 21
0.0
 31
0.0
210
0.0
220
0.0
230
1.0
 40
0.57735
 41
0.7785094401672097
 42
2.363083196143223
  0
LINE
  5
23D
330
1D3
100
AcDbEntity
  8
0
  6
Continuous
 62
     0
370
    30
100
AcDbLine
 10
374.178242
 20
288.453899
 30
0.0
 11
374.178242
 21
305.763626
 31
0.0
  0
LINE
  5
23E
330
1D3
100
AcDbEntity
  8
0
  6
Continuous
 62
     0
370
    30
100
AcDbLine
 10
330.178242
 20
288.453899
 30
0.0
 11
330.178242
 21
305.763626
 31
0.0
  0
SPLINE
  5
23F
330
1D3
100
AcDbEntity
  8
0
  6
Continuous
 62
     0
370
    30
100
AcDbSpline
210
0.0
220
0.0
230
1.0
 70
     8
 71
     3
 72
    12
 73
     8
 74
     0
 42
0.0
 43
0.0
 40
45.88044827786625
 40
45.88044827786625
 40
45.88044827786625
 40
45.88044827786625
 40
46.21433530191725
 40
52.83197543953683
 40
59.75328016514409
 40
65.27868758071031
 40
68.72116058967798
 40
68.72116058967798
 40
68.72116058967798
 40
68.72116058967798
 10
363.1782418925148
 20
316.957151465405
 30
0.0
 10
363.2746406463647
 20
316.9246609005575
 30
0.0
 10
365.2728418215678
 20
316.2392417567292
 30
0.0
 10
368.8838683525772
 20
314.5013174144418
 30
0.0
 10
372.3918643601357
 20
311.3198104203631
 30
0.0
 10
373.9324642183342
 20
308.2617261003435
 30
0.0
 10
374.1781630867281
 20
306.4553678091886
 30
0.0
 10
374.1781630619784
 20
305.7645925649338
 30
0.0
  0
SPLINE
  5
240
330
1D3
100
AcDbEntity
  8
0
  6
Continuous
 62
     0
370
    30
100
AcDbSpline
210
0.0
220
0.0
230
1.0
 70
     8
 71
     3
 72
    11
 73
     7
 74
     0
 42
0.0
 43
0.0
 40
0.0
 40
0.0
 40
0.0
 40
0.0
 40
3.684081624716237
 40
9.552868407114593
 40
16.64052032707357
 40
22.84335554295348
 40
22.84335554295348
 40
22.84335554295348
 40
22.84335554295348
 10
330.1782966823098
 20
305.7629017016087
 30
0.0
 10
330.1782966929014
 20
306.5020447636349
 30
0.0
 10
330.4577496242159
 20
308.4265045684974
 30
0.0
 10
332.1749317169065
 20
311.6096928734595
 30
0.0
 10
335.8636986577362
 20
314.7413403673337
 30
0.0
 10
339.3875293807797
 20
316.3533872630563
 30
0.0
 10
341.1782418925139
 20
316.9571004220707
 30
0.0
  0
ELLIPSE
  5
241
330
1D3
100
AcDbEntity
  8
0
  6
Continuous
 62
     0
370
     0
100
AcDbEllipse
 10
479.457463
 20
272.164789
 30
0.0
 11
11.00000000000004
 21
6.106226635438385E-16
 31
0.0
210
0.0
220
0.0
230
-1.0
 40
0.57735
 41
0.2283863609964667
 42
3.141592662229476
  0
ELLIPSE
  5
242
330
1D3
100
AcDbEntity
  8
0
  6
Continuous
 62
     0
370
     0
100
AcDbEllipse
 10
479.457463
 20
272.164789
 30
0.0
 11
11.00000000000004
 21
6.106226635438385E-16
 31
0.0
210
0.0
220
0.0
230
-1.0
 40
0.57735
 41
0.000000008639685
 42
0.2283863609964667
  0
SPLINE
  5
243
330
1D3
100
AcDbEntity
  8
0
  6
Continuous
 62
     0
370
    30
100
AcDbSpline
210
0.0
220
0.0
230
1.0
 70
     8
 71
     3
 72
    15
 73
    11
 74
     0
 42
0.0
 43
0.0
 40
2.434358749877681
 40
2.434358749877681
 40
2.434358749877681
 40
2.434358749877681
 40
2.990549046296433
 40
8.774334492632528
 40
13.97560352361337
 40
18.78472267887643
 40
23.00031048694553
 40
28.13090754454074
 40
32.20169619240398
 40
34.39351728639078
 40
34.39351728639078
 40
34.39351728639078
 40
34.39351728639078
 10
490.1803544990939
 20
270.7235993877086
 30
0.0
 10
490.1384464485344
 20
270.6158773973103
 30
0.0
 10
489.6073398770113
 20
269.3964931283266
 30
0.0
 10
487.5435669174724
 20
267.3996680070186
 30
0.0
 10
482.8694123257504
 20
265.808887326462
 30
0.0
 10
478.0253569749609
 20
265.6001343043253
 30
0.0
 10
473.4864814719946
 20
266.522707308503
 30
0.0
 10
470.1576363489894
 20
268.3687165768753
 30
0.0
 10
468.673992087336
 20
270.4781900022352
 30
0.0
 10
468.4574629558404
 20
271.7284796215854
 30
0.0
 10
468.4574626344702
 20
272.1647863807104
 30
0.0
  0
LINE
  5
244
330
1D3
100
AcDbEntity
  8
0
  6
Continuous
 62
     0
370
    30
100
AcDbLine
 10
490.457463
 20
288.331421
 30
0.0
 11
490.457463
 21
272.164789
 31
0.0
  0
LINE
  5
245
330
1D3
100
AcDbEntity
  8
0
  6
Continuous
 62
     0
370
    30
100
AcDbLine
 10
468.457463
 20
288.331422
 30
0.0
 11
468.457463
 21
272.164789
 31
0.0
  0
ARC
  5
246
330
1D3
100
AcDbEntity
  8
0
  6
Continuous
 62
     0
370
    30
100
AcDbCircle
 10
378.07111
 20
276.260312
 30
0.0
 40
20.43303566240165
100
AcDbArc
 50
322.358678
 51
327.928763
  0
ELLIPSE
  5
247
330
1D3
100
AcDbEntity
  8
0
  6
Continuous
 62
     0
370
    30
100
AcDbEllipse
 10
352.178242
 20
150.221032
 30
0.0
 11
-21.9999960064888
 21
0.0
 31
0.0
210
0.0
220
0.0
230
1.0
 40
0.57735
 41
1.949551713536152
 42
3.141592644950105
  0
LINE
  5
248
330
1D3
100
AcDbEntity
  8
0
  6
Continuous
 62
     0
370
    30
100
AcDbLine
 10
374.178238
 20
150.221032
 30
0.0
 11
374.178238
 21
202.080842
 31
0.0
  0
LINE
  5
249
330
1D3
100
AcDbEntity
  8
0
  6
Continuous
 62
     0
370
    30
100
AcDbLine
 10
330.178246
 20
150.221032
 30
0.0
 11
330.178246
 21
202.080842
 31
0.0
  0
LINE
  5
24A
330
1D3
100
AcDbEntity
  8
0
  6
Continuous
 62
     0
370
    30
100
AcDbLine
 10
398.968831
 20
272.451175
 30
0.0
 11
399.220366
 21
272.596411
 31
0.0
  0
ARC
  5
24B
330
1D3
100
AcDbEntity
  8
0
  6
Continuous
 62
     0
370
    30
100
AcDbCircle
 10
374.053994
 20
270.259043
 30
0.0
 40
25.27468239471616
100
AcDbArc
 50
5.306219
 51
9.049482
  0
LINE
  5
24C
330
1D3
100
AcDbEntity
  8
0
  6
Continuous
 62
     0
370
    30
100
AcDbLine
 10
399.014079
 20
274.234432
 30
0.0
 11
398.792641
 21
274.106585
 31
0.0
  0
ARC
  5
24D
330
1D3
100
AcDbEntity
  8
0
  6
Continuous
 62
     0
370
    30
100
AcDbCircle
 10
373.418154
 20
270.077208
 30
0.0
 40
25.69242041089763
100
AcDbArc
 50
6.117315
 51
9.023024
  0
ARC
  5
24E
330
1D3
100
AcDbEntity
  8
0
  6
Continuous
 62
     0
370
    30
100
AcDbCircle
 10
362.006498
 20
162.111474
 30
0.0
 40
116.7097775849379
100
AcDbArc
 50
71.538706
 51
72.320162
  0
LINE
  5
24F
330
1D3
100
AcDbEntity
  8
0
  6
Continuous
 62
     0
370
    30
100
AcDbLine
 10
397.451002
 20
273.308863
 30
0.0
 11
397.202077
 21
273.165155
 31
0.0
  0
ARC
  5
250
330
1D3
100
AcDbEntity
  8
0
  6
Continuous
 62
     0
370
    30
100
AcDbCircle
 10
372.227262
 20
269.209091
 30
0.0
 40
25.28619873109421
100
AcDbArc
 50
5.383309
 51
9.000989
  0
LINE
  5
251
330
1D3
100
AcDbEntity
  8
0
  6
Continuous
 62
     0
370
    30
100
AcDbLine
 10
397.401932
 20
271.581399
 30
0.0
 11
397.62322
 21
271.709162
 31
0.0
  0
ARC
  5
252
330
1D3
100
AcDbEntity
  8
0
  6
Continuous
 62
     0
370
    30
100
AcDbCircle
 10
353.966358
 20
136.041298
 30
0.0
 40
143.6414885660139
100
AcDbArc
 50
71.741953
 51
72.367313
  0
LINE
  5
253
330
1D3
100
AcDbEntity
  8
0
  6
Continuous
 62
     0
370
    30
100
AcDbLine
 10
397.16583
 20
273.38767
 30
0.0
 11
397.114327
 21
273.687836
 31
0.0
  0
LINE
  5
254
330
1D3
100
AcDbEntity
  8
0
  6
Continuous
 62
     0
370
    30
100
AcDbLine
 10
397.114327
 20
273.687836
 30
0.0
 11
398.238009
 21
274.336612
 31
0.0
  0
SPLINE
  5
255
330
1D3
100
AcDbEntity
  8
0
  6
Continuous
 62
     0
370
    30
100
AcDbSpline
210
0.0
220
0.0
230
1.0
 70
     8
 71
     3
 72
    10
 73
     6
 74
     0
 42
0.0
 43
0.0
 40
0.0
 40
0.0
 40
0.0
 40
0.0
 40
0.1607383031802
 40
0.3212678064986678
 40
0.4814978669279015
 40
0.4814978669279015
 40
0.4814978669279015
 40
0.4814978669279015
 10
398.2380092457565
 20
274.3366124524691
 30
0.0
 10
398.2758888283029
 20
274.3584832389548
 30
0.0
 10
398.3509237600506
 20
274.4059345937641
 30
0.0
 10
398.4596613229787
 20
274.4941883538767
 30
0.0
 10
398.5212796986712
 20
274.5765700880235
 30
0.0
 10
398.547673909893
 20
274.6212826116766
 30
0.0
  0
SPLINE
  5
256
330
1D3
100
AcDbEntity
  8
0
  6
Continuous
 62
     0
370
    30
100
AcDbSpline
210
0.0
220
0.0
230
1.0
 70
     8
 71
     3
 72
    14
 73
    10
 74
     0
 42
0.0
 43
0.0
 40
0.0
 40
0.0
 40
0.0
 40
0.0
 40
0.2483063195049803
 40
0.4973415118280775
 40
0.7469539897613078
 40
0.9957853863575374
 40
1.243643039570712
 40
1.492316197299791
 40
1.742344279104765
 40
1.742344279104765
 40
1.742344279104765
 40
1.742344279104765
 10
398.5476739098923
 20
274.6212826117005
 30
0.0
 10
398.5875555496689
 20
274.6915168194695
 30
0.0
 10
398.6489832547529
 20
274.8523772887637
 30
0.0
 10
398.658316446189
 20
275.0994451382739
 30
0.0
 10
398.6150122477387
 20
275.3239585356658
 30
0.0
 10
398.524502307461
 20
275.5194200138845
 30
0.0
 10
398.3619117279164
 20
275.6175568658157
 30
0.0
 10
398.174539763412
 20
275.5919457450912
 30
0.0
 10
398.0551087045254
 20
275.5308244125275
 30
0.0
 10
397.9962272117674
 20
275.496621632976
 30
0.0
  0
LINE
  5
257
330
1D3
100
AcDbEntity
  8
0
  6
Continuous
 62
     0
370
    30
100
AcDbLine
 10
397.996227
 20
275.496622
 30
0.0
 11
396.882486
 21
274.853585
 31
0.0
  0
LINE
  5
258
330
1D3
100
AcDbEntity
  8
0
  6
Continuous
 62
     0
370
    30
100
AcDbLine
 10
396.882486
 20
274.853585
 30
0.0
 11
396.81831
 21
275.13832
 31
0.0
  0
LINE
  5
259
330
1D3
100
AcDbEntity
  8
0
  6
Continuous
 62
     0
370
    30
100
AcDbLine
 10
396.81831
 20
275.13832
 30
0.0
 11
397.937008
 21
275.784229
 31
0.0
  0
SPLINE
  5
25A
330
1D3
100
AcDbEntity
  8
0
  6
Continuous
 62
     0
370
    30
100
AcDbSpline
210
0.0
220
0.0
230
1.0
 70
     8
 71
     3
 72
    10
 73
     6
 74
     0
 42
0.0
 43
0.0
 40
0.0
 40
0.0
 40
0.0
 40
0.0
 40
0.2406503714594215
 40
0.4809889051886851
 40
0.7211588880530552
 40
0.7211588880530552
 40
0.7211588880530552
 40
0.7211588880530552
 10
397.9370081467346
 20
275.7842288505514
 30
0.0
 10
397.9937326428984
 20
275.8169756778052
 30
0.0
 10
398.1090508294678
 20
275.8758203680817
 30
0.0
 10
398.2875730659741
 20
275.9185564498496
 30
0.0
 10
398.40422396106
 20
275.9064821377091
 30
0.0
 10
398.4593286065457
 20
275.8899438512208
 30
0.0
  0
SPLINE
  5
25B
330
1D3
100
AcDbEntity
  8
0
  6
Continuous
 62
     0
370
    30
100
AcDbSpline
210
0.0
220
0.0
230
1.0
 70
     8
 71
     3
 72
    14
 73
    10
 74
     0
 42
0.0
 43
0.0
 40
0.0
 40
0.0
 40
0.0
 40
0.0
 40
0.2658311356644095
 40
0.5318324899200899
 40
0.7981789482599693
 40
1.064703722663629
 40
1.331140912478703
 40
1.597255800117859
 40
1.863124513833541
 40
1.863124513833541
 40
1.863124513833541
 40
1.863124513833541
 10
398.4593286065456
 20
275.8899438512208
 30
0.0
 10
398.5203792951813
 20
275.8718543131497
 30
0.0
 10
398.6361155496765
 20
275.8080001562183
 30
0.0
 10
398.7654814568501
 20
275.6371585311317
 30
0.0
 10
398.8478687055937
 20
275.4196815314066
 30
0.0
 10
398.886328025141
 20
275.1753981748805
 30
0.0
 10
398.8822146953506
 20
274.9165077232004
 30
0.0
 10
398.82789977698
 20
274.6537494729059
 30
0.0
 10
398.7530309441027
 20
274.4904263938251
 30
0.0
 10
398.7083931511357
 20
274.4167564671556
 30
0.0
  0
SPLINE
  5
25C
330
1D3
100
AcDbEntity
  8
0
  6
Continuous
 62
     0
370
    30
100
AcDbSpline
210
0.0
220
0.0
230
1.0
 70
     8
 71
     3
 72
    10
 73
     6
 74
     0
 42
0.0
 43
0.0
 40
0.0
 40
0.0
 40
0.0
 40
0.0
 40
0.2234824778642142
 40
0.4474133988426941
 40
0.671636863453323
 40
0.671636863453323
 40
0.671636863453323
 40
0.671636863453323
 10
398.7083931511361
 20
274.416756467156
 30
0.0
 10
398.6705123600158
 20
274.3551863019454
 30
0.0
 10
398.5825177708433
 20
274.2425038264802
 30
0.0
 10
398.4296202687119
 20
274.1224422728617
 30
0.0
 10
398.3247960639067
 20
274.0568349530826
 30
0.0
 10
398.2719485535762
 20
274.0263271580385
 30
0.0
  0
LINE
  5
25D
330
1D3
100
AcDbEntity
  8
0
  6
Continuous
 62
     0
370
    30
100
AcDbLine
 10
398.271949
 20
274.026327
 30
0.0
 11
397.16583
 21
273.38767
 31
0.0
  0
SPLINE
  5
25E
330
1D3
100
AcDbEntity
  8
0
  6
Continuous
 62
     0
370
    30
100
AcDbSpline
210
0.0
220
0.0
230
1.0
 70
     8
 71
     3
 72
    25
 73
    21
 74
     0
 42
0.0
 43
0.0
 40
0.0
 40
0.0
 40
0.0
 40
0.0
 40
0.2754117203151599
 40
0.4117111493874385
 40
0.5484227172847349
 40
0.6882255408435608
 40
0.828517537529587
 40
1.101530130229459
 40
1.374996099329446
 40
1.654519371669829
 40
2.206611179020701
 40
2.483601928484151
 40
2.760074308334967
 40
3.036299766838877
 40
3.172821653322529
 40
3.311285244432747
 40
3.451140522921225
 40
3.589993566819079
 40
3.726555894954432
 40
3.865086221907658
 40
3.865086221907658
 40
3.865086221907658
 40
3.865086221907658
 10
396.9127259802874
 20
276.9579350176662
 30
0.0
 10
396.849699053867
 20
276.9145333552087
 30
0.0
 10
396.763348000012
 20
276.8169142783567
 30
0.0
 10
396.7003633687032
 20
276.6458177145423
 30
0.0
 10
396.6885899600259
 20
276.5062564700732
 30
0.0
 10
396.705417373899
 20
276.3706880675468
 30
0.0
 10
396.7587213674548
 20
276.207509596338
 30
0.0
 10
396.8786062979129
 20
276.0467309642678
 30
0.0
 10
397.0811100705766
 20
275.9929636778616
 30
0.0
 10
397.3562230956958
 20
276.0387486183898
 30
0.0
 10
397.6248028684467
 20
276.1729348868052
 30
0.0
 10
397.878219342365
 20
276.3502444250714
 30
0.0
 10
398.0522197717964
 20
276.524643993934
 30
0.0
 10
398.1666685024267
 20
276.7196294327298
 30
0.0
 10
398.2076093230812
 20
276.9010826043599
 30
0.0
 10
398.2099888784663
 20
277.0395612087727
 30
0.0
 10
398.1881674851334
 20
277.1725485375259
 30
0.0
 10
398.1441266426348
 20
277.2930368051877
 30
0.0
 10
398.076434721967
 20
277.391791252333
 30
0.0
 10
398.0154598835396
 20
277.4327511839275
 30
0.0
 10
397.9828202771507
 20
277.4451321681049
 30
0.0
  0
SPLINE
  5
25F
330
1D3
100
AcDbEntity
  8
0
  6
Continuous
 62
     0
370
    30
100
AcDbSpline
210
0.0
220
0.0
230
1.0
 70
     8
 71
     3
 72
     8
 73
     4
 74
     0
 42
0.0
 43
0.0
 40
0.0
 40
0.0
 40
0.0
 40
0.0
 40
1.0
 40
1.0
 40
1.0
 40
1.0
 10
397.9828202771481
 20
277.4451321681152
 30
0.0
 10
397.913884393683
 20
277.4697110581147
 30
0.0
 10
397.835626797524
 20
277.4588093890832
 30
0.0
 10
397.764012915678
 20
277.4331264819067
 30
0.0
  0
LINE
  5
260
330
1D3
100
AcDbEntity
  8
0
  6
Continuous
 62
     0
370
    30
100
AcDbLine
 10
397.764013
 20
277.433126
 30
0.0
 11
397.675219
 21
277.739579
 31
0.0
  0
SPLINE
  5
261
330
1D3
100
AcDbEntity
  8
0
  6
Continuous
 62
     0
370
    30
100
AcDbSpline
210
0.0
220
0.0
230
1.0
 70
     8
 71
     3
 72
    26
 73
    22
 74
     0
 42
0.0
 43
0.0
 40
0.0
 40
0.0
 40
0.0
 40
0.0
 40
0.4329957280319897
 40
0.6503560515467781
 40
0.8672615756275532
 40
1.30544677017856
 40
1.739098905056486
 40
1.954088279332204
 40
2.172970668810715
 40
2.614411444286846
 40
3.050370624337348
 40
3.48667701142522
 40
3.927680242198689
 40
4.146685552390961
 40
4.362090948400045
 40
4.795435861426188
 40
5.017398464029146
 40
5.237524152879468
 40
5.453487952873516
 40
5.670035285782057
 40
6.10432269187669
 40
6.10432269187669
 40
6.10432269187669
 40
6.10432269187669
 10
397.6752189433216
 20
277.7395792797304
 30
0.0
 10
397.7787842521028
 20
277.7932500330054
 30
0.0
 10
397.9561503080408
 20
277.8054249048216
 30
0.0
 10
398.1548862019565
 20
277.6979603241139
 30
0.0
 10
398.3182062227507
 20
277.5158630939457
 30
0.0
 10
398.4395828903541
 20
277.1938779191682
 30
0.0
 10
398.4400903200864
 20
276.8208508968781
 30
0.0
 10
398.3499704932885
 20
276.5442053855323
 30
0.0
 10
398.2108651836894
 20
276.2990299585393
 30
0.0
 10
397.984100081021
 20
276.0536903215193
 30
0.0
 10
397.6790022127759
 20
275.8512709390512
 30
0.0
 10
397.3610408184701
 20
275.7069550127008
 30
0.0
 10
397.0863214691897
 20
275.6745047074568
 30
0.0
 10
396.8782263710386
 20
275.7266254043647
 30
0.0
 10
396.6920741159198
 20
275.846429081713
 30
0.0
 10
396.5571448671418
 20
276.0685025576721
 30
0.0
 10
396.4851219258787
 20
276.3344019684391
 30
0.0
 10
396.4650784811622
 20
276.5505295822694
 30
0.0
 10
396.4879975962833
 20
276.7705138419043
 30
0.0
 10
396.5866605575945
 20
277.0395836708484
 30
0.0
 10
396.724418623392
 20
277.1953221163352
 30
0.0
 10
396.8262979358558
 20
277.255861546153
 30
0.0
  0
LINE
  5
262
330
1D3
100
AcDbEntity
  8
0
  6
Continuous
 62
     0
370
    30
100
AcDbLine
 10
396.826298
 20
277.255862
 30
0.0
 11
396.912726
 21
276.957935
 31
0.0
  0
LINE
  5
263
330
1D3
100
AcDbEntity
  8
0
  6
Continuous
 62
     0
370
    30
100
AcDbLine
 10
397.231049
 20
279.131258
 30
0.0
 11
397.131838
 21
279.416231
 31
0.0
  0
SPLINE
  5
264
330
1D3
100
AcDbEntity
  8
0
  6
Continuous
 62
     0
370
    30
100
AcDbSpline
210
0.0
220
0.0
230
1.0
 70
     8
 71
     3
 72
    28
 73
    24
 74
     0
 42
0.0
 43
0.0
 40
0.0
 40
0.0
 40
0.0
 40
0.0
 40
0.4204471630560343
 40
0.6302954727550704
 40
0.840844224262211
 40
1.264356009512046
 40
1.683146518034478
 40
1.891353215850194
 40
2.103180002565582
 40
2.31874500921389
 40
2.532573572134457
 40
2.954756629199493
 40
3.377480775805023
 40
3.805430969074711
 40
4.017368875573588
 40
4.226305843304237
 40
4.645601066209491
 40
4.859869049938903
 40
5.073392086735828
 40
5.283190324930742
 40
5.492725046528286
 40
5.70597621120472
 40
5.918133441981349
 40
5.918133441981349
 40
5.918133441981349
 40
5.918133441981349
 10
397.1318382780889
 20
279.416230812372
 30
0.0
 10
397.2329871777088
 20
279.4674019005058
 30
0.0
 10
397.4062644537986
 20
279.4897999707632
 30
0.0
 10
397.614585332294
 20
279.3986518729984
 30
0.0
 10
397.7911285234406
 20
279.2289845039867
 30
0.0
 10
397.9321803024316
 20
278.9144638896053
 30
0.0
 10
397.9359346409066
 20
278.5476277561931
 30
0.0
 10
397.8489920116053
 20
278.2845608618595
 30
0.0
 10
397.7473994128277
 20
278.1123356430702
 30
0.0
 10
397.6247432031968
 20
277.963941924197
 30
0.0
 10
397.4454170458364
 20
277.7941044542941
 30
0.0
 10
397.2005679270676
 20
277.6304055958076
 30
0.0
 10
396.8906479812513
 20
277.490802914321
 30
0.0
 10
396.6189571146096
 20
277.4468181042785
 30
0.0
 10
396.4053771101132
 20
277.4827093681367
 30
0.0
 10
396.2076958341918
 20
277.5847919459467
 30
0.0
 10
396.0506265156002
 20
277.7907099767021
 30
0.0
 10
395.963445949596
 20
278.0495215458809
 30
0.0
 10
395.9363621155088
 20
278.261237609892
 30
0.0
 10
395.9543673536533
 20
278.4746668651377
 30
0.0
 10
396.0271923853532
 20
278.6677427291046
 30
0.0
 10
396.1399090811985
 20
278.8241946877615
 30
0.0
 10
396.2332502037518
 20
278.9018806048483
 30
0.0
 10
396.282736136258
 20
278.9321211794104
 30
0.0
  0
LINE
  5
265
330
1D3
100
AcDbEntity
  8
0
  6
Continuous
 62
     0
370
    30
100
AcDbLine
 10
396.282736
 20
278.932121
 30
0.0
 11
396.379268
 21
278.655106
 31
0.0
  0
SPLINE
  5
266
330
1D3
100
AcDbEntity
  8
0
  6
Continuous
 62
     0
370
    30
100
AcDbSpline
210
0.0
220
0.0
230
1.0
 70
     8
 71
     3
 72
    23
 73
    19
 74
     0
 42
0.0
 43
0.0
 40
0.0
 40
0.0
 40
0.0
 40
0.0
 40
0.1344406348959691
 40
0.2698087024253305
 40
0.4020113593220785
 40
0.5351093167957036
 40
0.8039622975256804
 40
1.068634646139707
 40
1.334722668476824
 40
1.605909583314207
 40
1.873103289376405
 40
2.143350905299621
 40
2.41200424978178
 40
2.680682206166646
 40
2.949290704837172
 40
3.213805505265991
 40
3.481377106834338
 40
3.74489199651306
 40
3.74489199651306
 40
3.74489199651306
 40
3.74489199651306
 10
396.3792682945012
 20
278.6551062272188
 30
0.0
 10
396.3488687242323
 20
278.6334545465617
 30
0.0
 10
396.2910712872121
 20
278.5818923513925
 30
0.0
 10
396.2194025602855
 20
278.4828734346729
 30
0.0
 10
396.1733006963794
 20
278.3596949066228
 30
0.0
 10
396.1626895970416
 20
278.1788431241719
 30
0.0
 10
396.2241576775944
 20
277.9600734256304
 30
0.0
 10
396.3886244476651
 20
277.7867321369839
 30
0.0
 10
396.5960455907673
 20
277.7487975346556
 30
0.0
 10
396.7998998189969
 20
277.7905640593391
 30
0.0
 10
396.9990597866629
 20
277.869284109813
 30
0.0
 10
397.1901677820004
 20
277.9761925124604
 30
0.0
 10
397.3748160225608
 20
278.1045686656615
 30
0.0
 10
397.5426936681761
 20
278.2676830694822
 30
0.0
 10
397.6796994657361
 20
278.4826639566108
 30
0.0
 10
397.7135190921843
 20
278.7607211829984
 30
0.0
 10
397.6397403437067
 20
279.0177515248063
 30
0.0
 10
397.5192657961643
 20
279.1296600067719
 30
0.0
 10
397.4533667168018
 20
279.1499525932294
 30
0.0
  0
SPLINE
  5
267
330
1D3
100
AcDbEntity
  8
0
  6
Continuous
 62
     0
370
    30
100
AcDbSpline
210
0.0
220
0.0
230
1.0
 70
     8
 71
     3
 72
     8
 73
     4
 74
     0
 42
0.0
 43
0.0
 40
0.0
 40
0.0
 40
0.0
 40
0.0
 40
1.0
 40
1.0
 40
1.0
 40
1.0
 10
397.4533667167989
 20
279.1499525932384
 30
0.0
 10
397.3811159834866
 20
279.1711744000387
 30
0.0
 10
397.3025599750003
 20
279.1576505374161
 30
0.0
 10
397.2310493822353
 20
279.1312580133123
 30
0.0
  0
LINE
  5
268
330
1D3
100
AcDbEntity
  8
0
  6
Continuous
 62
     0
370
    30
100
AcDbLine
 10
397.134735
 20
280.958185
 30
0.0
 11
397.039547
 21
281.19556
 31
0.0
  0
LINE
  5
269
330
1D3
100
AcDbEntity
  8
0
  6
Continuous
 62
     0
370
    30
100
AcDbLine
 10
397.039547
 20
281.19556
 30
0.0
 11
395.224348
 21
280.147554
 31
0.0
  0
LINE
  5
26A
330
1D3
100
AcDbEntity
  8
0
  6
Continuous
 62
     0
370
    30
100
AcDbLine
 10
395.224348
 20
280.147554
 30
0.0
 11
395.319535
 21
279.910179
 31
0.0
  0
LINE
  5
26B
330
1D3
100
AcDbEntity
  8
0
  6
Continuous
 62
     0
370
    30
100
AcDbLine
 10
395.319535
 20
279.910179
 30
0.0
 11
396.098872
 21
280.360131
 31
0.0
  0
ARC
  5
26C
330
1D3
100
AcDbEntity
  8
0
  6
Continuous
 62
     0
370
    30
100
AcDbCircle
 10
364.866449
 20
267.938959
 30
0.0
 40
33.61175046364505
100
AcDbArc
 50
20.15166
 51
21.687776
  0
LINE
  5
26D
330
1D3
100
AcDbEntity
  8
0
  6
Continuous
 62
     0
370
    30
100
AcDbLine
 10
396.420623
 20
279.518418
 30
0.0
 11
395.641285
 21
279.068465
 31
0.0
  0
LINE
  5
26E
330
1D3
100
AcDbEntity
  8
0
  6
Continuous
 62
     0
370
    30
100
AcDbLine
 10
395.641285
 20
279.068465
 30
0.0
 11
395.733271
 21
278.815279
 31
0.0
  0
LINE
  5
26F
330
1D3
100
AcDbEntity
  8
0
  6
Continuous
 62
     0
370
    30
100
AcDbLine
 10
395.733271
 20
278.815279
 30
0.0
 11
397.54847
 21
279.863285
 31
0.0
  0
LINE
  5
270
330
1D3
100
AcDbEntity
  8
0
  6
Continuous
 62
     0
370
    30
100
AcDbLine
 10
397.54847
 20
279.863285
 30
0.0
 11
397.456485
 21
280.116471
 31
0.0
  0
LINE
  5
271
330
1D3
100
AcDbEntity
  8
0
  6
Continuous
 62
     0
370
    30
100
AcDbLine
 10
397.456485
 20
280.116471
 30
0.0
 11
396.636796
 21
279.643227
 31
0.0
  0
ARC
  5
272
330
1D3
100
AcDbEntity
  8
0
  6
Continuous
 62
     0
370
    30
100
AcDbCircle
 10
365.055594
 20
268.053441
 30
0.0
 40
33.64068182062248
100
AcDbArc
 50
20.152312
 51
21.687107
  0
LINE
  5
273
330
1D3
100
AcDbEntity
  8
0
  6
Continuous
 62
     0
370
    30
100
AcDbLine
 10
396.315045
 20
280.48494
 30
0.0
 11
397.134735
 21
280.958185
 31
0.0
  0
LINE
  5
274
330
1D3
100
AcDbEntity
  8
0
  6
Continuous
 62
     0
370
    30
100
AcDbLine
 10
393.660444
 20
283.510498
 30
0.0
 11
393.88188
 21
283.638344
 31
0.0
  0
ARC
  5
275
330
1D3
100
AcDbEntity
  8
0
  6
Continuous
 62
     0
370
    30
100
AcDbCircle
 10
354.521657
 20
262.95305
 30
0.0
 40
44.46468896214073
100
AcDbArc
 50
27.08391
 51
27.723634
  0
LINE
  5
276
330
1D3
100
AcDbEntity
  8
0
  6
Continuous
 62
     0
370
    30
100
AcDbLine
 10
394.110379
 20
283.197596
 30
0.0
 11
395.704149
 21
284.117758
 31
0.0
  0
LINE
  5
277
330
1D3
100
AcDbEntity
  8
0
  6
Continuous
 62
     0
370
    30
100
AcDbLine
 10
395.704149
 20
284.117758
 30
0.0
 11
395.79837
 21
283.931821
 31
0.0
  0
LINE
  5
278
330
1D3
100
AcDbEntity
  8
0
  6
Continuous
 62
     0
370
    30
100
AcDbLine
 10
395.79837
 20
283.931821
 30
0.0
 11
394.204588
 21
283.011654
 31
0.0
  0
ARC
  5
279
330
1D3
100
AcDbEntity
  8
0
  6
Continuous
 62
     0
370
    30
100
AcDbCircle
 10
360.590586
 20
266.099108
 30
0.0
 40
37.62891676442834
100
AcDbArc
 50
25.566226
 51
26.708793
  0
LINE
  5
27A
330
1D3
100
AcDbEntity
  8
0
  6
Continuous
 62
     0
370
    30
100
AcDbLine
 10
394.535145
 20
282.33802
 30
0.0
 11
396.12895
 21
283.258192
 31
0.0
  0
LINE
  5
27B
330
1D3
100
AcDbEntity
  8
0
  6
Continuous
 62
     0
370
    30
100
AcDbLine
 10
396.12895
 20
283.258192
 30
0.0
 11
396.224494
 21
283.057051
 31
0.0
  0
LINE
  5
27C
330
1D3
100
AcDbEntity
  8
0
  6
Continuous
 62
     0
370
    30
100
AcDbLine
 10
396.224494
 20
283.057051
 30
0.0
 11
394.630643
 21
282.136866
 31
0.0
  0
ARC
  5
27D
330
1D3
100
AcDbEntity
  8
0
  6
Continuous
 62
     0
370
    30
100
AcDbCircle
 10
362.096229
 20
266.785188
 30
0.0
 40
35.97446396091419
100
AcDbArc
 50
22.772102
 51
25.260735
  0
LINE
  5
27E
330
1D3
100
AcDbEntity
  8
0
  6
Continuous
 62
     0
370
    30
100
AcDbLine
 10
395.266546
 20
280.709704
 30
0.0
 11
395.824441
 21
281.031809
 31
0.0
  0
ARC
  5
27F
330
1D3
100
AcDbEntity
  8
0
  6
Continuous
 62
     0
370
    30
100
AcDbCircle
 10
362.696429
 20
267.113737
 30
0.0
 40
35.93296469511704
100
AcDbArc
 50
22.788738
 51
24.089405
  0
LINE
  5
280
330
1D3
100
AcDbEntity
  8
0
  6
Continuous
 62
     0
370
    30
100
AcDbLine
 10
395.49998
 20
281.780195
 30
0.0
 11
395.716168
 21
281.905007
 31
0.0
  0
ARC
  5
281
330
1D3
100
AcDbEntity
  8
0
  6
Continuous
 62
     0
370
    30
100
AcDbCircle
 10
362.616572
 20
267.110631
 30
0.0
 40
36.25543830934196
100
AcDbArc
 50
22.793897
 51
24.082993
  0
LINE
  5
282
330
1D3
100
AcDbEntity
  8
0
  6
Continuous
 62
     0
370
    30
100
AcDbLine
 10
396.040621
 20
281.156618
 30
0.0
 11
396.639018
 21
281.502101
 31
0.0
  0
ARC
  5
283
330
1D3
100
AcDbEntity
  8
0
  6
Continuous
 62
     0
370
    30
100
AcDbCircle
 10
362.204878
 20
267.02402
 30
0.0
 40
37.35404652730382
100
AcDbArc
 50
22.804668
 51
24.146524
  0
LINE
  5
284
330
1D3
100
AcDbEntity
  8
0
  6
Continuous
 62
     0
370
    30
100
AcDbLine
 10
396.290532
 20
282.304498
 30
0.0
 11
396.511942
 21
282.432287
 31
0.0
  0
ARC
  5
285
330
1D3
100
AcDbEntity
  8
0
  6
Continuous
 62
     0
370
    30
100
AcDbCircle
 10
361.390143
 20
266.712489
 30
0.0
 40
38.47925186139831
100
AcDbArc
 50
22.437711
 51
24.112313
  0
LINE
  5
286
330
1D3
100
AcDbEntity
  8
0
  6
Continuous
 62
     0
370
    30
100
AcDbLine
 10
396.956324
 20
281.399204
 30
0.0
 11
395.141125
 21
280.351197
 31
0.0
  0
ARC
  5
287
330
1D3
100
AcDbEntity
  8
0
  6
Continuous
 62
     0
370
    30
100
AcDbCircle
 10
360.679809
 20
266.126713
 30
0.0
 40
37.28160699426305
100
AcDbArc
 50
22.429206
 51
27.793296
  0
LINE
  5
288
330
1D3
100
AcDbEntity
  8
0
  6
Continuous
 62
     0
370
    30
100
AcDbLine
 10
395.405453
 20
284.691121
 30
0.0
 11
395.312283
 21
284.865227
 31
0.0
  0
LINE
  5
289
330
1D3
100
AcDbEntity
  8
0
  6
Continuous
 62
     0
370
    30
100
AcDbLine
 10
395.312283
 20
284.865227
 30
0.0
 11
393.497083
 21
283.817221
 31
0.0
  0
LINE
  5
28A
330
1D3
100
AcDbEntity
  8
0
  6
Continuous
 62
     0
370
    30
100
AcDbLine
 10
393.497083
 20
283.817221
 30
0.0
 11
393.590254
 21
283.643115
 31
0.0
  0
LINE
  5
28B
330
1D3
100
AcDbEntity
  8
0
  6
Continuous
 62
     0
370
    30
100
AcDbLine
 10
393.590254
 20
283.643115
 30
0.0
 11
395.405453
 21
284.691121
 31
0.0
  0
LINE
  5
28C
330
1D3
100
AcDbEntity
  8
0
  6
Continuous
 62
     0
370
    30
100
AcDbLine
 10
394.615022
 20
284.991441
 30
0.0
 11
394.7072
 21
284.824101
 31
0.0
  0
LINE
  5
28D
330
1D3
100
AcDbEntity
  8
0
  6
Continuous
 62
     0
370
    30
100
AcDbLine
 10
394.7072
 20
284.824101
 30
0.0
 11
395.184861
 21
285.099879
 31
0.0
  0
LINE
  5
28E
330
1D3
100
AcDbEntity
  8
0
  6
Continuous
 62
     0
370
    30
100
AcDbLine
 10
395.184861
 20
285.099879
 30
0.0
 11
395.092683
 21
285.267219
 31
0.0
  0
LINE
  5
28F
330
1D3
100
AcDbEntity
  8
0
  6
Continuous
 62
     0
370
    30
100
AcDbLine
 10
395.092683
 20
285.267219
 30
0.0
 11
394.615022
 21
284.991441
 31
0.0
  0
ENDBLK
  5
291
330
1D3
100
AcDbEntity
  8
0
100
AcDbBlockEnd
  0
BLOCK
  5
301
330
293
100
AcDbEntity
  8
0
100
AcDbBlockBegin
  2
e
 70
     0
 10
-225.756104
 20
0.0
 30
0.0
  3
e
  1

  0
LINE
  5
294
330
293
100
AcDbEntity
  8
0
  6
Continuous
 62
     0
370
    30
100
AcDbLine
 10
-212.663651
 20
722.197278
 30
0.0
 11
-212.663652
 21
694.19728
 31
0.0
  0
SPLINE
  5
295
330
293
100
AcDbEntity
  8
0
  6
Continuous
 62
     0
370
     0
100
AcDbSpline
210
0.0
220
0.0
230
1.0
 70
     8
 71
     3
 72
    14
 73
    10
 74
     0
 42
0.0
 43
0.0
 40
0.0
 40
0.0
 40
0.0
 40
0.0
 40
0.047619048741464
 40
0.142857146224391
 40
0.28571429152306
 40
0.428571433695539
 40
0.5714285733023969
 40
0.714285714258222
 40
0.8134511510728426
 40
0.8134511510728426
 40
0.8134511510728426
 40
0.8134511510728426
 10
-212.663650520145
 20
722.1972775617232
 30
0.0
 10
-212.6636505446156
 20
722.1972775918393
 30
0.0
 10
-212.6009703962212
 20
722.1972776851655
 30
0.0
 10
-212.0976628991612
 20
722.1972778702263
 30
0.0
 10
-210.6063987795733
 20
722.1972781174686
 30
0.0
 10
-207.9030355792243
 20
722.1972783964195
 30
0.0
 10
-204.3106131799537
 20
722.1972786768857
 30
0.0
 10
-200.4462270707559
 20
722.1972789295575
 30
0.0
 10
-197.7822653109027
 20
722.1972790906691
 30
0.0
 10
-196.6636583602121
 20
722.1972791563345
 30
0.0
  0
SPLINE
  5
296
330
293
100
AcDbEntity
  8
0
  6
Continuous
 62
     0
370
    30
100
AcDbSpline
210
0.0
220
0.0
230
1.0
 70
     8
 71
     3
 72
    16
 73
    12
 74
     0
 42
0.0
 43
0.0
 40
0.0
 40
0.0
 40
0.0
 40
0.0
 40
0.047619050732881
 40
0.142857152198643
 40
0.285714498032294
 40
0.4285715148732381
 40
0.571428485126764
 40
0.7142855019677079
 40
0.857142847801357
 40
0.9523809492671189
 40
1.0
 40
1.0
 40
1.0
 40
1.0
 10
-212.663651744064
 20
694.1972817580169
 30
0.0
 10
-212.6636517136118
 20
694.1972818189213
 30
0.0
 10
-212.6636516222552
 20
694.1190189188216
 30
0.0
 10
-212.6636514403028
 20
693.4929585787262
 30
0.0
 10
-212.663651208597
 20
691.6368783934935
 30
0.0
 10
-212.6636509745233
 20
688.2728972959762
 30
0.0
 10
-212.6636507791082
 20
683.8023222076865
 30
0.0
 10
-212.6636506320639
 20
678.4473402680584
 30
0.0
 10
-212.6636505509319
 20
673.1465287366132
 30
0.0
 10
-212.6636505235661
 20
668.9839435376681
 30
0.0
 10
-212.663650520145
 20
666.8939490405188
 30
0.0
 10
-212.663650520145
 20
666.197284205855
 30
0.0
  0
LINE
  5
297
330
293
100
AcDbEntity
  8
0
  6
Continuous
 62
     0
370
     0
100
AcDbLine
 10
-190.163651
 20
666.197282
 30
0.0
 11
-212.663651
 21
666.197284
 31
0.0
  0
SPLINE
  5
298
330
293
100
AcDbEntity
  8
0
  6
Continuous
 62
     0
370
     0
100
AcDbSpline
210
0.0
220
0.0
230
1.0
 70
     8
 71
     3
 72
    16
 73
    12
 74
     0
 42
0.0
 43
0.0
 40
0.0
 40
0.0
 40
0.0
 40
0.0
 40
0.047618587247776
 40
0.142855761743327
 40
0.285714973445752
 40
0.428572131040739
 40
0.5714278689592599
 40
0.7142850265542481
 40
0.8571442382566719
 40
0.952381412752224
 40
1.0
 40
1.0
 40
1.0
 40
1.0
 10
-190.1636517366134
 20
671.6972817505664
 30
0.0
 10
-190.1636517306317
 20
671.6972817625297
 30
0.0
 10
-190.1636517126868
 20
671.6819603400215
 30
0.0
 10
-190.163651676946
 20
671.5589102714823
 30
0.0
 10
-190.1636516314321
 20
671.1943635925277
 30
0.0
 10
-190.1636515854528
 20
670.533577731624
 30
0.0
 10
-190.1636515470678
 20
669.6554314482864
 30
0.0
 10
-190.1636515181839
 20
668.603549315464
 30
0.0
 10
-190.1636515022491
 20
667.5623113512206
 30
0.0
 10
-190.1636514968704
 20
666.7446574566039
 30
0.0
 10
-190.1636514962007
 20
666.3341260436175
 30
0.0
 10
-190.1636514962007
 20
666.1972822388423
 30
0.0
  0
LINE
  5
299
330
293
100
AcDbEntity
  8
0
  6
Continuous
 62
     0
370
     0
100
AcDbLine
 10
-167.663651
 20
666.197284
 30
0.0
 11
-190.163651
 21
666.197282
 31
0.0
  0
SPLINE
  5
29A
330
293
100
AcDbEntity
  8
0
  6
Continuous
 62
     0
370
    30
100
AcDbSpline
210
0.0
220
0.0
230
1.0
 70
     8
 71
     3
 72
    16
 73
    12
 74
     0
 42
0.0
 43
0.0
 40
0.0
 40
0.0
 40
0.0
 40
0.0
 40
0.047619008806062
 40
0.142857026418187
 40
0.285714359327475
 40
0.428571395213536
 40
0.571428604786464
 40
0.7142856406725249
 40
0.8571429735818132
 40
0.9523809911939379
 40
1.0
 40
1.0
 40
1.0
 40
1.0
 10
-167.6636517291629
 20
694.1972817580169
 30
0.0
 10
-167.6636516987107
 20
694.1972818189213
 30
0.0
 10
-167.663651607354
 20
694.1192804360693
 30
0.0
 10
-167.6636514254012
 20
693.4928480356898
 30
0.0
 10
-167.6636511936944
 20
691.6369837408631
 30
0.0
 10
-167.6636509596187
 20
688.2729766960244
 30
0.0
 10
-167.6636507642036
 20
683.8024007942149
 30
0.0
 10
-167.6636506171582
 20
678.4473754813977
 30
0.0
 10
-167.6636505360357
 20
673.1465408017062
 30
0.0
 10
-167.6636505086535
 20
668.9839469332159
 30
0.0
 10
-167.6636505052439
 20
666.8939498894
 30
0.0
 10
-167.6636505052439
 20
666.1972842058549
 30
0.0
  0
SPLINE
  5
29B
330
293
100
AcDbEntity
  8
0
  6
Continuous
 62
     0
370
    30
100
AcDbSpline
210
0.0
220
0.0
230
1.0
 70
     8
 71
     3
 72
    16
 73
    12
 74
     0
 42
0.0
 43
0.0
 40
0.0
 40
0.0
 40
0.0
 40
0.0
 40
0.047619050732881
 40
0.142857152198643
 40
0.285714498032292
 40
0.428571514873236
 40
0.5714284851267609
 40
0.714285501967704
 40
0.857142847801358
 40
0.9523809492671189
 40
1.0
 40
1.0
 40
1.0
 40
1.0
 10
-167.6636517291629
 20
694.1972800095613
 30
0.0
 10
-167.6636516987107
 20
694.1972799486568
 30
0.0
 10
-167.6636516073542
 20
694.2755428487566
 30
0.0
 10
-167.6636514254017
 20
694.9016031888518
 30
0.0
 10
-167.6636511936959
 20
696.7576833740846
 30
0.0
 10
-167.6636509596221
 20
700.1216644716019
 30
0.0
 10
-167.6636507642071
 20
704.5922395598916
 30
0.0
 10
-167.6636506171628
 20
709.9472214995199
 30
0.0
 10
-167.663650536031
 20
715.248033030965
 30
0.0
 10
-167.6636505086648
 20
719.4106182299101
 30
0.0
 10
-167.6636505052439
 20
721.5006127270594
 30
0.0
 10
-167.6636505052439
 20
722.1972775617232
 30
0.0
  0
LINE
  5
29C
330
293
100
AcDbEntity
  8
0
  6
Continuous
 62
     0
370
     0
100
AcDbLine
 10
-183.663658
 20
722.197279
 30
0.0
 11
-167.663651
 21
722.197278
 31
0.0
  0
LINE
  5
29D
330
293
100
AcDbEntity
  8
0
  6
Continuous
 62
     0
370
     0
100
AcDbLine
 10
-190.163651
 20
630.829773
 30
0.0
 11
-190.163651
 21
666.197282
 31
0.0
  0
LINE
  5
29E
330
293
100
AcDbEntity
  8
0
  6
Continuous
 62
     0
370
     0
100
AcDbLine
 10
-190.163651
 20
630.829773
 30
0.0
 11
-167.663651
 21
630.829741
 31
0.0
  0
LINE
  5
29F
330
293
100
AcDbEntity
  8
0
  6
Continuous
 62
     0
370
    30
100
AcDbLine
 10
-167.663651
 20
666.197284
 30
0.0
 11
-167.663651
 21
630.829741
 31
0.0
  0
LINE
  5
2A0
330
293
100
AcDbEntity
  8
0
  6
Continuous
 62
     0
370
    30
100
AcDbLine
 10
-212.663651
 20
630.829741
 30
0.0
 11
-212.663651
 21
666.197284
 31
0.0
  0
SPLINE
  5
2A1
330
293
100
AcDbEntity
  8
0
  6
Continuous
 62
     0
370
     0
100
AcDbSpline
210
0.0
220
0.0
230
1.0
 70
     8
 71
     3
 72
    17
 73
    13
 74
     0
 42
0.0
 43
0.0
 40
0.0
 40
0.0
 40
0.0
 40
0.0
 40
2.297407004499248
 40
5.672395173834614
 40
7.570826023835553
 40
10.73487736145179
 40
15.79735940500662
 40
20.85984094734004
 40
25.92232241247725
 40
30.80867906996199
 40
33.64249601588607
 40
35.34278618556472
 40
35.34278618556472
 40
35.34278618556472
 40
35.34278618556472
 10
-212.6636505201482
 20
630.8297412451235
 30
0.0
 10
-212.6636505538356
 20
630.8297412494628
 30
0.0
 10
-212.5670708854403
 20
630.8297414734365
 30
0.0
 10
-212.1211907480619
 20
630.8297428325274
 30
0.0
 10
-211.3046202432774
 20
630.8297451907706
 30
0.0
 10
-209.9661335435683
 20
630.8297486590827
 30
0.0
 10
-207.4876079201878
 20
630.8297533564936
 30
0.0
 10
-203.7814270580425
 20
630.8297585863124
 30
0.0
 10
-199.4397808724979
 20
630.8297604403078
 30
0.0
 10
-195.3580112572378
 20
630.8297676972203
 30
0.0
 10
-192.2418922202135
 20
630.8297574491988
 30
0.0
 10
-190.7302817055517
 20
630.8297732420617
 30
0.0
 10
-190.1636514962007
 20
630.8297732420617
 30
0.0
  0
ARC
  5
2A2
330
293
100
AcDbEntity
  8
0
  6
Continuous
 62
     0
370
    30
100
AcDbCircle
 10
-190.163853
 20
694.197135
 30
0.0
 40
22.50020156876768
100
AcDbArc
 50
0.000375
 51
70.001301
  0
ARC
  5
2A3
330
293
100
AcDbEntity
  8
0
  6
Continuous
 62
     0
370
    30
100
AcDbCircle
 10
-190.163956
 20
694.197585
 30
0.0
 40
22.50030388123655
100
AcDbArc
 50
270.000774
 51
359.999227
  0
LINE
  5
2A4
330
293
100
AcDbEntity
  8
0
  6
Continuous
 62
     0
370
    30
100
AcDbLine
 10
-190.175378
 20
671.697285
 30
0.0
 11
-190.163652
 21
671.697282
 31
0.0
  0
ARC
  5
2A5
330
293
100
AcDbEntity
  8
0
  6
Continuous
 62
     0
370
    30
100
AcDbCircle
 10
-190.163349
 20
694.197585
 30
0.0
 40
22.50030312198653
100
AcDbArc
 50
180.000771
 51
269.969367
  0
ARC
  5
2A6
330
293
100
AcDbEntity
  8
0
  6
Continuous
 62
     0
370
    30
100
AcDbCircle
 10
-190.163194
 20
694.196821
 30
0.0
 40
22.50045817905426
100
AcDbArc
 50
109.999673
 51
179.998826
  0
LINE
  5
2A7
330
293
100
AcDbEntity
  8
0
  6
Continuous
 62
     0
370
    30
100
AcDbLine
 10
-167.663651
 20
722.625265
 30
0.0
 11
-167.663651
 21
722.197278
 31
0.0
  0
LINE
  5
2A8
330
293
100
AcDbEntity
  8
0
  6
Continuous
 62
     0
370
    30
100
AcDbLine
 10
-167.663651
 20
722.625265
 30
0.0
 11
-183.663658
 21
722.625266
 31
0.0
  0
LINE
  5
2A9
330
293
100
AcDbEntity
  8
0
  6
Continuous
 62
     0
370
    30
100
AcDbLine
 10
-196.663658
 20
722.625266
 30
0.0
 11
-212.663651
 21
722.625265
 31
0.0
  0
LINE
  5
2AA
330
293
100
AcDbEntity
  8
0
  6
Continuous
 62
     0
370
    30
100
AcDbLine
 10
-212.663651
 20
722.197278
 30
0.0
 11
-212.663651
 21
722.625265
 31
0.0
  0
ARC
  5
2AB
330
293
100
AcDbEntity
  8
0
  6
Continuous
 62
     0
370
    30
100
AcDbCircle
 10
-190.175379
 20
694.194159
 30
0.0
 40
22.1
100
AcDbArc
 50
270.0
 51
67.153039
  0
ARC
  5
2AC
330
293
100
AcDbEntity
  8
0
  6
Continuous
 62
     0
370
    30
100
AcDbCircle
 10
-190.175379
 20
694.194159
 30
0.0
 40
22.1
100
AcDbArc
 50
112.684744
 51
270.0
  0
LINE
  5
2AD
330
293
100
AcDbEntity
  8
0
  6
Continuous
 62
     0
370
    30
100
AcDbLine
 10
-168.363651
 20
727.197286
 30
0.0
 11
-183.663659
 21
727.197286
 31
0.0
  0
LINE
  5
2AE
330
293
100
AcDbEntity
  8
0
  6
Continuous
 62
     0
370
    30
100
AcDbLine
 10
-196.663659
 20
727.197286
 30
0.0
 11
-211.963651
 21
727.197286
 31
0.0
  0
LINE
  5
2AF
330
293
100
AcDbEntity
  8
0
  6
Continuous
 62
     0
370
    30
100
AcDbLine
 10
-196.663659
 20
726.898428
 30
0.0
 11
-212.289797
 21
726.898428
 31
0.0
  0
LINE
  5
2B0
330
293
100
AcDbEntity
  8
0
  6
Continuous
 62
     0
370
    30
100
AcDbLine
 10
-168.037504
 20
726.898428
 30
0.0
 11
-183.663659
 21
726.898428
 31
0.0
  0
LINE
  5
2B1
330
293
100
AcDbEntity
  8
0
  6
Continuous
 62
     0
370
    30
100
AcDbLine
 10
-190.163651
 20
623.197286
 30
0.0
 11
-168.063651
 21
623.197286
 31
0.0
  0
LINE
  5
2B2
330
293
100
AcDbEntity
  8
0
  6
Continuous
 62
     0
370
    30
100
AcDbLine
 10
-212.263651
 20
623.197286
 30
0.0
 11
-190.163651
 21
623.197286
 31
0.0
  0
LINE
  5
2B3
330
293
100
AcDbEntity
  8
0
  6
Continuous
 62
     0
370
    30
100
AcDbLine
 10
-167.663651
 20
630.829741
 30
0.0
 11
-168.063651
 21
623.197286
 31
0.0
  0
LINE
  5
2B4
330
293
100
AcDbEntity
  8
0
  6
Continuous
 62
     0
370
    30
100
AcDbLine
 10
-212.663651
 20
630.829741
 30
0.0
 11
-212.263651
 21
623.197286
 31
0.0
  0
LINE
  5
2B5
330
293
100
AcDbEntity
  8
0
  6
Continuous
 62
     0
370
    30
100
AcDbLine
 10
-168.037504
 20
726.898428
 30
0.0
 11
-168.363628
 21
727.197265
 31
0.0
  0
LINE
  5
2B6
330
293
100
AcDbEntity
  8
0
  6
Continuous
 62
     0
370
    30
100
AcDbLine
 10
-212.289797
 20
726.898428
 30
0.0
 11
-211.963673
 21
727.197265
 31
0.0
  0
LINE
  5
2B7
330
293
100
AcDbEntity
  8
0
  6
Continuous
 62
     0
370
    30
100
AcDbLine
 10
-167.663651
 20
722.625265
 30
0.0
 11
-168.037504
 21
726.898428
 31
0.0
  0
LINE
  5
2B8
330
293
100
AcDbEntity
  8
0
  6
Continuous
 62
     0
370
    30
100
AcDbLine
 10
-212.663651
 20
722.625265
 30
0.0
 11
-212.289797
 21
726.898428
 31
0.0
  0
LINE
  5
2B9
330
293
100
AcDbEntity
  8
0
  6
Continuous
 62
     0
370
    30
100
AcDbLine
 10
-196.607577
 20
722.197283
 30
0.0
 11
-183.66366
 21
722.197285
 31
0.0
  0
LINE
  5
2BA
330
293
100
AcDbEntity
  8
0
  6
Continuous
 62
     0
370
    30
100
AcDbLine
 10
-196.663667
 20
782.197283
 30
0.0
 11
-196.607584
 21
782.197283
 31
0.0
  0
LINE
  5
2BB
330
293
100
AcDbEntity
  8
0
  6
Continuous
 62
     0
370
    30
100
AcDbLine
 10
-196.607584
 20
782.197283
 30
0.0
 11
-183.663667
 21
782.197285
 31
0.0
  0
LINE
  5
2BC
330
293
100
AcDbEntity
  8
0
  6
Continuous
 62
     0
370
    30
100
AcDbLine
 10
-183.66366
 20
722.197285
 30
0.0
 11
-183.663667
 21
782.197285
 31
0.0
  0
LINE
  5
2BD
330
293
100
AcDbEntity
  8
0
  6
Continuous
 62
     0
370
    30
100
AcDbLine
 10
-196.66366
 20
722.197283
 30
0.0
 11
-196.663667
 21
782.197283
 31
0.0
  0
LINE
  5
2BE
330
293
100
AcDbEntity
  8
0
  6
Continuous
 62
     0
370
    30
100
AcDbLine
 10
-196.66366
 20
722.197283
 30
0.0
 11
-196.607577
 21
722.197283
 31
0.0
  0
SPLINE
  5
2BF
330
293
100
AcDbEntity
  8
0
  6
Continuous
 62
     0
370
     0
100
AcDbSpline
210
0.0
220
0.0
230
1.0
 70
     8
 71
     3
 72
    15
 73
    11
 74
     0
 42
0.0
 43
0.0
 40
10.51976893298457
 40
10.51976893298457
 40
10.51976893298457
 40
10.51976893298457
 40
11.62018875328712
 40
12.66991432644621
 40
13.90342270692893
 40
15.64836897466411
 40
17.34311723258407
 40
18.41361149052697
 40
19.47528666719875
 40
21.03953786596914
 40
21.03953786596914
 40
21.03953786596914
 40
21.03953786596914
 10
-183.7240136292371
 20
718.7417659591199
 30
0.0
 10
-183.724073660917
 20
718.7419191540591
 30
0.0
 10
-183.7815778455066
 20
718.7901852417207
 30
0.0
 10
-184.0452453062614
 20
719.0050597643767
 30
0.0
 10
-184.5645527623541
 20
719.4003377924511
 30
0.0
 10
-185.4482149652859
 20
719.9859870906821
 30
0.0
 10
-186.5663931095634
 20
720.5487071683896
 30
0.0
 10
-187.6590727070785
 20
720.9357387684594
 30
0.0
 10
-188.7977592779652
 20
721.2068499793124
 30
0.0
 10
-189.653652588095
 20
721.2845454239033
 30
0.0
 10
-190.1636600274778
 20
721.2845453599487
 30
0.0
  0
SPLINE
  5
2C0
330
293
100
AcDbEntity
  8
0
  6
Continuous
 62
     0
370
     0
100
AcDbSpline
210
0.0
220
0.0
230
1.0
 70
     8
 71
     3
 72
    14
 73
    10
 74
     0
 42
0.0
 43
0.0
 40
0.0
 40
0.0
 40
0.0
 40
0.0
 40
1.912405789321918
 40
3.830350421158677
 40
6.32391116788351
 40
7.661351199193069
 40
8.952158795729051
 40
10.23687625134339
 40
10.51976893298457
 40
10.51976893298457
 40
10.51976893298457
 40
10.51976893298457
 10
-190.1636600274778
 20
721.2845453599487
 30
0.0
 10
-190.7871795622172
 20
721.2845452817597
 30
0.0
 10
-192.0353918563164
 20
721.1447940023095
 30
0.0
 10
-193.896194525177
 20
720.5309162837716
 30
0.0
 10
-195.232268866735
 20
719.7694882175091
 30
0.0
 10
-196.0537385578323
 20
719.1840063489315
 30
0.0
 10
-196.4639936670022
 20
718.8586897771862
 30
0.0
 10
-196.5926502881624
 20
718.7504970227917
 30
0.0
 10
-196.6033206538947
 20
718.7417249611583
 30
0.0
 10
-196.6033052211374
 20
718.7417643440654
 30
0.0
  0
LINE
  5
2C1
330
293
100
AcDbEntity
  8
0
  6
Continuous
 62
     0
370
     0
100
AcDbLine
 10
-190.16366
 20
721.284545
 30
0.0
 11
-190.16366
 21
716.197283
 31
0.0
  0
ARC
  5
2C2
330
293
100
AcDbEntity
  8
0
  6
Continuous
 62
     0
370
    30
100
AcDbCircle
 10
-190.163657
 20
694.197283
 30
0.0
 40
22.0
100
AcDbArc
 50
270.000007
 51
90.000007
  0
ARC
  5
2C3
330
293
100
AcDbEntity
  8
0
  6
Continuous
 62
     0
370
    30
100
AcDbCircle
 10
-190.163657
 20
694.197283
 30
0.0
 40
22.0
100
AcDbArc
 50
90.000007
 51
270.000007
  0
ARC
  5
2C4
330
293
100
AcDbEntity
  8
0
  6
Continuous
 62
     0
370
     0
100
AcDbCircle
 10
-190.163657
 20
694.197283
 30
0.0
 40
21.5
100
AcDbArc
 50
90.000007
 51
270.000007
  0
ARC
  5
2C5
330
293
100
AcDbEntity
  8
0
  6
Continuous
 62
     0
370
     0
100
AcDbCircle
 10
-190.163657
 20
694.197283
 30
0.0
 40
21.5
100
AcDbArc
 50
270.000007
 51
90.000007
  0
SPLINE
  5
2C6
330
293
100
AcDbEntity
  8
0
  6
Continuous
 62
     0
370
    30
100
AcDbSpline
210
0.0
220
0.0
230
1.0
 70
     8
 71
     3
 72
    18
 73
    14
 74
     0
 42
0.0
 43
0.0
 40
1.062771965689222
 40
1.062771965689222
 40
1.062771965689222
 40
1.062771965689222
 40
1.15278694556269
 40
1.369419972446693
 40
1.496338862799866
 40
1.686593611603636
 40
2.229652032535512
 40
2.934669082084802
 40
3.2869321714359
 40
3.639100897691612
 40
4.343364277904396
 40
5.047911622239654
 40
6.771249075136793
 40
6.771249075136793
 40
6.771249075136793
 40
6.771249075136793
 10
-199.4425537827641
 20
714.1451145422349
 30
0.0
 10
-199.4198306067997
 20
714.1561419670143
 30
0.0
 10
-199.3221225227888
 20
714.2036022126616
 30
0.0
 10
-199.1981822886147
 20
714.2695548671712
 30
0.0
 10
-199.042992460632
 20
714.3584368825472
 30
0.0
 10
-198.799225874231
 20
714.5087569148837
 30
0.0
 10
-198.4094742900813
 20
714.7898543265852
 30
0.0
 10
-198.0182764302257
 20
715.1544885579623
 30
0.0
 10
-197.7101231604686
 20
715.5096627620405
 30
0.0
 10
-197.427776714194
 20
715.8853305372844
 30
0.0
 10
-197.1259350427557
 20
716.3906973383703
 30
0.0
 10
-196.7201341924214
 20
717.3551432740047
 30
0.0
 10
-196.5933230047698
 20
718.1701220464779
 30
0.0
 10
-196.603305221964
 20
718.7417643392198
 30
0.0
  0
SPLINE
  5
2C7
330
293
100
AcDbEntity
  8
0
  6
Continuous
 62
     0
370
    30
100
AcDbSpline
210
0.0
220
0.0
230
1.0
 70
     8
 71
     3
 72
    19
 73
    15
 74
     0
 42
0.0
 43
0.0
 40
0.8364736344684843
 40
0.8364736344684843
 40
0.8364736344684843
 40
0.8364736344684843
 40
1.061025725230382
 40
1.152786945561737
 40
1.369419972553527
 40
1.49633886301265
 40
1.686593611975078
 40
2.22965203306583
 40
2.934669082614557
 40
3.28693217196548
 40
3.639100898221086
 40
4.343364278433918
 40
5.047911622769554
 40
6.771249075125921
 40
6.771249075125921
 40
6.771249075125921
 40
6.771249075125921
 10
-180.8091303970253
 20
714.108496822074
 30
0.0
 10
-180.8091479291591
 20
714.1084606864531
 30
0.0
 10
-180.8347823946589
 20
714.12084617922
 30
0.0
 10
-181.004696005876
 20
714.203338877851
 30
0.0
 10
-181.1291354402381
 20
714.2695571330725
 30
0.0
 10
-181.2843252906185
 20
714.3584391095945
 30
0.0
 10
-181.5280919148301
 20
714.5087590808835
 30
0.0
 10
-181.9178435695395
 20
714.7898563949338
 30
0.0
 10
-182.3090415208436
 20
715.1544905282777
 30
0.0
 10
-182.6171948796393
 20
715.5096646551045
 30
0.0
 10
-182.8995414200903
 20
715.8853323595666
 30
0.0
 10
-183.2013832182191
 20
716.3906990849839
 30
0.0
 10
-183.6071843102609
 20
717.3551449187217
 30
0.0
 10
-183.7339957022345
 20
718.1701236592065
 30
0.0
 10
-183.7240136284105
 20
718.7417659542742
 30
0.0
  0
LINE
  5
2C8
330
293
100
AcDbEntity
  8
0
  6
Continuous
 62
     0
370
    30
100
AcDbLine
 10
-183.66366
 20
722.197284
 30
0.0
 11
-183.723975
 21
718.741787
 31
0.0
  0
LINE
  5
2C9
330
293
100
AcDbEntity
  8
0
  6
Continuous
 62
     0
370
    30
100
AcDbLine
 10
-196.66366
 20
722.197283
 30
0.0
 11
-196.603343
 21
718.741785
 31
0.0
  0
LINE
  5
2CA
330
293
100
AcDbEntity
  8
0
  6
Continuous
 62
     0
370
    30
100
AcDbLine
 10
-170.537084
 20
558.197296
 30
0.0
 11
-168.163651
 21
558.197296
 31
0.0
  0
LINE
  5
2CB
330
293
100
AcDbEntity
  8
0
  6
Continuous
 62
     0
370
    30
100
AcDbLine
 10
-219.663651
 20
547.197296
 30
0.0
 11
-163.84621
 21
547.197296
 31
0.0
  0
LINE
  5
2CC
330
293
100
AcDbEntity
  8
0
  6
Continuous
 62
     0
370
    30
100
AcDbLine
 10
-163.84621
 20
547.197296
 30
0.0
 11
-160.663651
 21
547.197296
 31
0.0
  0
LINE
  5
2CD
330
293
100
AcDbEntity
  8
0
  6
Continuous
 62
     0
370
     0
100
AcDbLine
 10
-163.400151
 20
547.697296
 30
0.0
 11
-160.163651
 21
547.697296
 31
0.0
  0
LINE
  5
2CE
330
293
100
AcDbEntity
  8
0
  6
Continuous
 62
     0
370
     0
100
AcDbLine
 10
-220.163651
 20
547.697296
 30
0.0
 11
-163.400151
 21
547.697296
 31
0.0
  0
LINE
  5
2CF
330
293
100
AcDbEntity
  8
0
  6
Continuous
 62
     0
370
     0
100
AcDbLine
 10
-220.163651
 20
552.697296
 30
0.0
 11
-163.400151
 21
552.697296
 31
0.0
  0
LINE
  5
2D0
330
293
100
AcDbEntity
  8
0
  6
Continuous
 62
     0
370
     0
100
AcDbLine
 10
-163.400151
 20
552.697296
 30
0.0
 11
-160.163651
 21
552.697296
 31
0.0
  0
LINE
  5
2D1
330
293
100
AcDbEntity
  8
0
  6
Continuous
 62
     0
370
    30
100
AcDbLine
 10
-163.84621
 20
553.197296
 30
0.0
 11
-160.663651
 21
553.197296
 31
0.0
  0
LINE
  5
2D2
330
293
100
AcDbEntity
  8
0
  6
Continuous
 62
     0
370
    30
100
AcDbLine
 10
-219.663651
 20
553.197296
 30
0.0
 11
-163.84621
 21
553.197296
 31
0.0
  0
ARC
  5
2D3
330
293
100
AcDbEntity
  8
0
  6
Continuous
 62
     0
370
    30
100
AcDbCircle
 10
-219.663506
 20
547.697333
 30
0.0
 40
0.5000366519885256
100
AcDbArc
 50
180.004199
 51
269.988938
  0
ARC
  5
2D4
330
293
100
AcDbEntity
  8
0
  6
Continuous
 62
     0
370
    30
100
AcDbCircle
 10
-160.663868
 20
547.697332
 30
0.0
 40
0.5000357319021711
100
AcDbArc
 50
270.008064
 51
359.995906
  0
ARC
  5
2D5
330
293
100
AcDbEntity
  8
0
  6
Continuous
 62
     0
370
    30
100
AcDbCircle
 10
-219.663506
 20
552.697259
 30
0.0
 40
0.5000366519907107
100
AcDbArc
 50
90.011062
 51
179.995801
  0
ARC
  5
2D6
330
293
100
AcDbEntity
  8
0
  6
Continuous
 62
     0
370
    30
100
AcDbCircle
 10
-160.663868
 20
552.69726
 30
0.0
 40
0.5000357319185437
100
AcDbArc
 50
0.004094
 51
89.991936
  0
LINE
  5
2D7
330
293
100
AcDbEntity
  8
0
  6
Continuous
 62
     0
370
    30
100
AcDbLine
 10
-160.163651
 20
547.697296
 30
0.0
 11
-160.163651
 21
552.697296
 31
0.0
  0
LINE
  5
2D8
330
293
100
AcDbEntity
  8
0
  6
Continuous
 62
     0
370
    30
100
AcDbLine
 10
-220.163651
 20
547.697296
 30
0.0
 11
-220.163651
 21
552.697296
 31
0.0
  0
ARC
  5
2D9
330
293
100
AcDbEntity
  8
0
  6
Continuous
 62
     0
370
    30
100
AcDbCircle
 10
-217.163824
 20
558.197549
 30
0.0
 40
5.000252712443496
100
AcDbArc
 50
270.015707
 51
359.997105
  0
ARC
  5
2DA
330
293
100
AcDbEntity
  8
0
  6
Continuous
 62
     0
370
    30
100
AcDbCircle
 10
-163.163614
 20
558.197535
 30
0.0
 40
5.000238709372754
100
AcDbArc
 50
180.002735
 51
269.984134
  0
LINE
  5
2DB
330
293
100
AcDbEntity
  8
0
  6
Continuous
 62
     0
370
     0
100
AcDbLine
 10
-179.163651
 20
841.34729
 30
0.0
 11
-190.163651
 21
841.34729
 31
0.0
  0
LINE
  5
2DC
330
293
100
AcDbEntity
  8
0
  6
Continuous
 62
     0
370
     0
100
AcDbLine
 10
-190.163651
 20
841.34729
 30
0.0
 11
-201.163651
 21
841.34729
 31
0.0
  0
LINE
  5
2DD
330
293
100
AcDbEntity
  8
0
  6
Continuous
 62
     0
370
     0
100
AcDbLine
 10
-381.163651
 20
841.34729
 30
0.0
 11
-370.163651
 21
841.34729
 31
0.0
  0
LINE
  5
2DE
330
293
100
AcDbEntity
  8
0
  6
Continuous
 62
     0
370
     0
100
AcDbLine
 10
-370.163651
 20
841.34729
 30
0.0
 11
-359.163651
 21
841.34729
 31
0.0
  0
LINE
  5
2DF
330
293
100
AcDbEntity
  8
0
  6
Continuous
 62
     0
370
    30
100
AcDbLine
 10
-381.163651
 20
817.34729
 30
0.0
 11
-379.500876
 21
817.34729
 31
0.0
  0
LINE
  5
2E0
330
293
100
AcDbEntity
  8
0
  6
Continuous
 62
     0
370
    30
100
AcDbLine
 10
-381.163651
 20
817.34729
 30
0.0
 11
-381.163651
 21
841.34729
 31
0.0
  0
LINE
  5
2E1
330
293
100
AcDbEntity
  8
0
  6
Continuous
 62
     0
370
    30
100
AcDbLine
 10
-359.163651
 20
817.34729
 30
0.0
 11
-359.163651
 21
841.34729
 31
0.0
  0
ARC
  5
2E2
330
293
100
AcDbEntity
  8
0
  6
Continuous
 62
     0
370
    30
100
AcDbCircle
 10
-280.163651
 20
841.346924
 30
0.0
 40
101.0000000006645
100
AcDbArc
 50
0.000208
 51
179.999792
  0
ARC
  5
2E3
330
293
100
AcDbEntity
  8
0
  6
Continuous
 62
     0
370
    30
100
AcDbCircle
 10
-280.163651
 20
841.346807
 30
0.0
 40
79.00000000147892
100
AcDbArc
 50
0.000351
 51
179.999649
  0
LINE
  5
2E4
330
293
100
AcDbEntity
  8
0
  6
Continuous
 62
     0
370
    30
100
AcDbLine
 10
-179.163651
 20
841.34729
 30
0.0
 11
-179.163651
 21
749.19729
 31
0.0
  0
LINE
  5
2E5
330
293
100
AcDbEntity
  8
0
  6
Continuous
 62
     0
370
    30
100
AcDbLine
 10
-201.163651
 20
841.34729
 30
0.0
 11
-201.163651
 21
749.19729
 31
0.0
  0
LINE
  5
2E6
330
293
100
AcDbEntity
  8
0
  6
Continuous
 62
     0
370
    30
100
AcDbLine
 10
-183.663662
 20
749.19729
 30
0.0
 11
-168.663651
 21
749.19729
 31
0.0
  0
LINE
  5
2E7
330
293
100
AcDbEntity
  8
0
  6
Continuous
 62
     0
370
    30
100
AcDbLine
 10
-210.991983
 20
749.19729
 30
0.0
 11
-196.663662
 21
749.19729
 31
0.0
  0
LINE
  5
2E8
330
293
100
AcDbEntity
  8
0
  6
Continuous
 62
     0
370
    30
100
AcDbLine
 10
-211.663651
 20
749.19729
 30
0.0
 11
-210.991983
 21
749.19729
 31
0.0
  0
LINE
  5
2E9
330
293
100
AcDbEntity
  8
0
  6
Continuous
 62
     0
370
     0
100
AcDbLine
 10
-183.663662
 20
748.69729
 30
0.0
 11
-168.163651
 21
748.69729
 31
0.0
  0
LINE
  5
2EA
330
293
100
AcDbEntity
  8
0
  6
Continuous
 62
     0
370
     0
100
AcDbLine
 10
-211.476363
 20
748.69729
 30
0.0
 11
-196.663662
 21
748.69729
 31
0.0
  0
LINE
  5
2EB
330
293
100
AcDbEntity
  8
0
  6
Continuous
 62
     0
370
     0
100
AcDbLine
 10
-212.163651
 20
748.69729
 30
0.0
 11
-211.476363
 21
748.69729
 31
0.0
  0
LINE
  5
2EC
330
293
100
AcDbEntity
  8
0
  6
Continuous
 62
     0
370
    30
100
AcDbLine
 10
-183.663659
 20
727.49729
 30
0.0
 11
-168.163651
 21
727.49729
 31
0.0
  0
LINE
  5
2ED
330
293
100
AcDbEntity
  8
0
  6
Continuous
 62
     0
370
    30
100
AcDbLine
 10
-211.476363
 20
727.49729
 30
0.0
 11
-196.663659
 21
727.49729
 31
0.0
  0
LINE
  5
2EE
330
293
100
AcDbEntity
  8
0
  6
Continuous
 62
     0
370
    30
100
AcDbLine
 10
-212.163651
 20
727.49729
 30
0.0
 11
-211.476363
 21
727.49729
 31
0.0
  0
LINE
  5
2EF
330
293
100
AcDbEntity
  8
0
  6
Continuous
 62
     0
370
    30
100
AcDbLine
 10
-211.863696
 20
727.197318
 30
0.0
 11
-212.163669
 21
727.49729
 31
0.0
  0
LINE
  5
2F0
330
293
100
AcDbEntity
  8
0
  6
Continuous
 62
     0
370
    30
100
AcDbLine
 10
-168.46368
 20
727.197316
 30
0.0
 11
-168.163705
 21
727.49729
 31
0.0
  0
LINE
  5
2F1
330
293
100
AcDbEntity
  8
0
  6
Continuous
 62
     0
370
    30
100
AcDbLine
 10
-168.163651
 20
727.49729
 30
0.0
 11
-168.163651
 21
748.69729
 31
0.0
  0
LINE
  5
2F2
330
293
100
AcDbEntity
  8
0
  6
Continuous
 62
     0
370
    30
100
AcDbLine
 10
-212.163651
 20
727.49729
 30
0.0
 11
-212.163651
 21
748.69729
 31
0.0
  0
ARC
  5
2F3
330
293
100
AcDbEntity
  8
0
  6
Continuous
 62
     0
370
    30
100
AcDbCircle
 10
-211.663631
 20
748.697253
 30
0.0
 40
0.5000377307416861
100
AcDbArc
 50
90.010454
 51
179.995677
  0
ARC
  5
2F4
330
293
100
AcDbEntity
  8
0
  6
Continuous
 62
     0
370
    30
100
AcDbCircle
 10
-168.663742
 20
748.697254
 30
0.0
 40
0.5000368502383084
100
AcDbArc
 50
0.004222
 51
89.989913
  0
LINE
  5
2F5
330
293
100
AcDbEntity
  8
0
  6
Continuous
 62
     0
370
    30
100
AcDbLine
 10
-359.163651
 20
817.347287
 30
0.0
 11
-379.500876
 21
817.347287
 31
0.0
  0
LINE
  5
2F6
330
293
100
AcDbEntity
  8
0
  6
Continuous
 62
     0
370
     0
100
AcDbLine
 10
-379.500876
 20
797.547287
 30
0.0
 11
-381.163651
 21
797.547287
 31
0.0
  0
LINE
  5
2F7
330
293
100
AcDbEntity
  8
0
  6
Continuous
 62
     0
370
     0
100
AcDbLine
 10
-359.163651
 20
797.547287
 30
0.0
 11
-379.500876
 21
797.547287
 31
0.0
  0
LINE
  5
2F8
330
293
100
AcDbEntity
  8
0
  6
Continuous
 62
     0
370
    30
100
AcDbLine
 10
-379.331108
 20
797.347287
 30
0.0
 11
-380.963651
 21
797.347287
 31
0.0
  0
LINE
  5
2F9
330
293
100
AcDbEntity
  8
0
  6
Continuous
 62
     0
370
    30
100
AcDbLine
 10
-359.363651
 20
797.347287
 30
0.0
 11
-379.331108
 21
797.347287
 31
0.0
  0
ARC
  5
2FA
330
293
100
AcDbEntity
  8
0
  6
Continuous
 62
     0
370
    30
100
AcDbCircle
 10
-359.363952
 20
797.547588
 30
0.0
 40
0.2003008867700002
100
AcDbArc
 50
270.086004
 51
359.913996
  0
ARC
  5
2FB
330
293
100
AcDbEntity
  8
0
  6
Continuous
 62
     0
370
    30
100
AcDbCircle
 10
-380.96335
 20
797.547588
 30
0.0
 40
0.2003008867399988
100
AcDbArc
 50
180.086004
 51
269.913996
  0
LINE
  5
2FC
330
293
100
AcDbEntity
  8
0
  6
Continuous
 62
     0
370
    30
100
AcDbLine
 10
-359.163651
 20
817.347287
 30
0.0
 11
-359.163651
 21
797.547287
 31
0.0
  0
LINE
  5
2FD
330
293
100
AcDbEntity
  8
0
  6
Continuous
 62
     0
370
    30
100
AcDbLine
 10
-381.163651
 20
817.347287
 30
0.0
 11
-381.163651
 21
797.547287
 31
0.0
  0
LINE
  5
2FE
330
293
100
AcDbEntity
  8
0
  6
Continuous
 62
     0
370
    30
100
AcDbLine
 10
-212.163647
 20
558.197296
 30
0.0
 11
-170.537084
 21
558.197296
 31
0.0
  0
LINE
  5
2FF
330
293
100
AcDbEntity
  8
0
  6
Continuous
 62
     0
370
    30
100
AcDbLine
 10
-212.163647
 20
558.197296
 30
0.0
 11
-212.163647
 21
623.197296
 31
0.0
  0
LINE
  5
300
330
293
100
AcDbEntity
  8
0
  6
Continuous
 62
     0
370
    30
100
AcDbLine
 10
-168.163655
 20
558.197296
 30
0.0
 11
-168.163655
 21
623.197296
 31
0.0
  0
ENDBLK
  5
302
330
293
100
AcDbEntity
  8
0
100
AcDbBlockEnd
  0
ENDSEC
  0
SECTION
  2
ENTITIES
  0
INSERT
  5
102
330
1F
100
AcDbEntity
  8
0
  6
Continuous
 62
     7
420
 16777215
370
     0
100
AcDbBlockReference
  2
a
 10
20.520897
 20
179.416
 30
0.0
  0
INSERT
  5
185
330
1F
100
AcDbEntity
  8
0
  6
Continuous
 62
     7
420
 16777215
370
     0
100
AcDbBlockReference
  2
b
 10
20.520897
 20
179.416
 30
0.0
  0
INSERT
  5
1D2
330
1F
100
AcDbEntity
  8
0
  6
Continuous
 62
     7
420
 16777215
370
     0
100
AcDbBlockReference
  2
c
 10
179.254799
 20
179.416
 30
0.0
  0
INSERT
  5
292
330
1F
100
AcDbEntity
  8
0
  6
Continuous
 62
     7
420
 16777215
370
     0
100
AcDbBlockReference
  2
d
 10
175.997444
 20
188.864738
 30
0.0
  0
INSERT
  5
303
330
1F
100
AcDbEntity
  8
0
  6
Continuous
 62
     7
420
 16777215
370
     0
100
AcDbBlockReference
  2
e
 10
-225.756104
 20
0.0
 30
0.0
  0
ENDSEC
  0
SECTION
  2
OBJECTS
  0
DICTIONARY
  5
C
330
0
100
AcDbDictionary
281
     1
  3
ACAD_GROUP
350
D
  3
ACAD_LAYOUT
350
1A
  3
ACAD_MATERIAL
350
3B
  3
ACAD_MLEADERSTYLE
350
305
  3
ACAD_MLINESTYLE
350
17
  3
ACAD_PLOTSETTINGS
350
19
  3
ACAD_PLOTSTYLENAME
350
E
  3
ACAD_TABLESTYLE
350
304
  3
ACAD_VISUALSTYLE
350
2A
  0
DICTIONARY
  5
D
102
{ACAD_REACTORS
330
C
102
}
330
C
100
AcDbDictionary
281
     1
  0
DICTIONARY
  5
1A
102
{ACAD_REACTORS
330
C
102
}
330
C
100
AcDbDictionary
281
     1
  3
Layout1
350
1E
  3
Layout2
350
26
  3
Model
350
22
  0
DICTIONARY
  5
3B
102
{ACAD_REACTORS
330
C
102
}
330
C
100
AcDbDictionary
281
     1
  3
ByBlock
350
3D
  3
ByLayer
350
3C
  3
Global
350
3E
  0
DICTIONARY
  5
305
102
{ACAD_REACTORS
330
C
102
}
330
C
100
AcDbDictionary
281
     1
  0
DICTIONARY
  5
17
102
{ACAD_REACTORS
330
C
102
}
330
C
100
AcDbDictionary
281
     1
  3
Standard
350
18
  0
DICTIONARY
  5
19
102
{ACAD_REACTORS
330
C
102
}
330
C
100
AcDbDictionary
281
     1
  0
ACDBDICTIONARYWDFLT
  5
E
102
{ACAD_REACTORS
330
C
102
}
330
C
100
AcDbDictionary
281
     1
  3
Normal
350
F
100
AcDbDictionaryWithDefault
340
F
  0
DICTIONARY
  5
304
102
{ACAD_REACTORS
330
C
102
}
330
C
100
AcDbDictionary
281
     1
  0
DICTIONARY
  5
2A
102
{ACAD_REACTORS
330
C
102
}
330
C
100
AcDbDictionary
281
     1
  3
2dWireframe
350
2F
  3
3D Hidden
350
31
  3
3dWireframe
350
30
  3
Basic
350
32
  3
Brighten
350
36
  3
ColorChange
350
3A
  3
Conceptual
350
34
  3
Dim
350
35
  3
Facepattern
350
39
  3
Flat
350
2B
  3
FlatWithEdges
350
2C
  3
Gouraud
350
2D
  3
GouraudWithEdges
350
2E
  3
Linepattern
350
38
  3
Realistic
350
33
  3
Thicken
350
37
  0
LAYOUT
  5
1E
102
{ACAD_REACTORS
330
1A
102
}
330
1A
100
AcDbPlotSettings
  1

  2
none_device
  4

  6

 40
0.0
 41
0.0
 42
0.0
 43
0.0
 44
0.0
 45
0.0
 46
0.0
 47
0.0
 48
0.0
 49
0.0
140
0.0
141
0.0
142
1.0
143
1.0
 70
   688
 72
     0
 73
     0
 74
     5
  7

 75
    16
 76
     0
 77
     2
 78
   300
147
1.0
148
0.0
149
0.0
100
AcDbLayout
  1
Layout1
 70
     1
 71
     1
 10
0.0
 20
0.0
 11
420.0
 21
297.0
 12
0.0
 22
0.0
 32
0.0
 14
1.000000E+20
 24
1.000000E+20
 34
1.000000E+20
 15
-1.000000E+20
 25
-1.000000E+20
 35
-1.000000E+20
146
0.0
 13
0.0
 23
0.0
 33
0.0
 16
1.0
 26
0.0
 36
0.0
 17
0.0
 27
1.0
 37
0.0
 76
     0
330
1B
  0
LAYOUT
  5
26
102
{ACAD_REACTORS
330
1A
102
}
330
1A
100
AcDbPlotSettings
  1

  2
none_device
  4

  6

 40
0.0
 41
0.0
 42
0.0
 43
0.0
 44
0.0
 45
0.0
 46
0.0
 47
0.0
 48
0.0
 49
0.0
140
0.0
141
0.0
142
1.0
143
1.0
 70
   688
 72
     0
 73
     0
 74
     5
  7

 75
    16
 76
     0
 77
     2
 78
   300
147
1.0
148
0.0
149
0.0
100
AcDbLayout
  1
Layout2
 70
     1
 71
     2
 10
0.0
 20
0.0
 11
0.0
 21
0.0
 12
0.0
 22
0.0
 32
0.0
 14
0.0
 24
0.0
 34
0.0
 15
0.0
 25
0.0
 35
0.0
146
0.0
 13
0.0
 23
0.0
 33
0.0
 16
1.0
 26
0.0
 36
0.0
 17
0.0
 27
1.0
 37
0.0
 76
     0
330
23
  0
LAYOUT
  5
22
102
{ACAD_REACTORS
330
1A
102
}
330
1A
100
AcDbPlotSettings
  1

  2
none_device
  4

  6

 40
0.0
 41
0.0
 42
0.0
 43
0.0
 44
0.0
 45
0.0
 46
0.0
 47
0.0
 48
0.0
 49
0.0
140
0.0
141
0.0
142
1.0
143
1.0
 70
  1712
 72
     0
 73
     0
 74
     0
  7

 75
     0
 76
     0
 77
     2
 78
   300
147
1.0
148
0.0
149
0.0
100
AcDbLayout
  1
Model
 70
     1
 71
     0
 10
0.0
 20
0.0
 11
420.0
 21
297.0
 12
0.0
 22
0.0
 32
0.0
 14
1.000000E+20
 24
1.000000E+20
 34
1.000000E+20
 15
-1.000000E+20
 25
-1.000000E+20
 35
-1.000000E+20
146
0.0
 13
0.0
 23
0.0
 33
0.0
 16
1.0
 26
0.0
 36
0.0
 17
0.0
 27
1.0
 37
0.0
 76
     0
330
1F
331
29
  0
MATERIAL
  5
3D
102
{ACAD_REACTORS
330
3B
102
}
330
3B
100
AcDbMaterial
  1
ByBlock
 72
     1
 94
      127
  0
MATERIAL
  5
3C
102
{ACAD_REACTORS
330
3B
102
}
330
3B
100
AcDbMaterial
  1
ByLayer
 72
     1
 94
      127
  0
MATERIAL
  5
3E
102
{ACAD_REACTORS
330
3B
102
}
330
3B
100
AcDbMaterial
  1
Global
 72
     1
 94
      127
  0
MLINESTYLE
  5
18
102
{ACAD_REACTORS
330
17
102
}
330
17
100
AcDbMlineStyle
  2
Standard
 70
     0
  3

 62
   256
 51
90.0
 52
90.0
 71
     2
 49
0.5
 62
   256
  6
BYLAYER
 49
-0.5
 62
   256
  6
BYLAYER
  0
ACDBPLACEHOLDER
  5
F
102
{ACAD_REACTORS
330
E
102
}
330
E
  0
VISUALSTYLE
  5
2F
102
{ACAD_REACTORS
330
2A
102
}
330
2A
100
AcDbVisualStyle
  2
2dWireframe
 70
     4
177
     2
291
     0
 71
     0
176
     1
 72
     2
176
     1
 73
     0
176
     1
 90
        0
176
     1
 40
-0.6
176
     1
 41
-30.0
176
     1
 62
     5
 63
     7
421
 16777215
176
     1
 74
     1
176
     1
 91
        4
176
     1
 64
     7
176
     1
 65
   257
176
     1
 75
     1
176
     1
175
     1
176
     1
 42
1.0
176
     1
 92
        0
176
     1
 66
   257
176
     1
 43
1.0
176
     1
 76
     1
176
     1
 77
     6
176
     1
 78
     2
176
     1
 67
     7
176
     1
 79
     5
176
     1
170
     0
176
     1
171
     0
176
     1
290
     0
176
     1
 93
        1
176
     1
 44
0.0
176
     1
173
     0
176
     1
  0
VISUALSTYLE
  5
31
102
{ACAD_REACTORS
330
2A
102
}
330
2A
100
AcDbVisualStyle
  2
3D Hidden
 70
     6
177
     2
291
     0
 71
     1
176
     1
 72
     2
176
     1
 73
     2
176
     1
 90
        0
176
     1
 40
-0.6
176
     1
 41
-30.0
176
     1
 62
     5
 63
     7
421
 16777215
176
     1
 74
     2
176
     1
 91
        2
176
     1
 64
     7
176
     1
 65
   257
176
     1
 75
     2
176
     1
175
     1
176
     1
 42
40.0
176
     1
 92
        0
176
     1
 66
   257
176
     1
 43
1.0
176
     1
 76
     1
176
     1
 77
     6
176
     1
 78
     2
176
     1
 67
     7
176
     1
 79
     3
176
     1
170
     0
176
     1
171
     0
176
     1
290
     0
176
     1
 93
        1
176
     1
 44
0.0
176
     1
173
     0
176
     1
  0
VISUALSTYLE
  5
30
102
{ACAD_REACTORS
330
2A
102
}
330
2A
100
AcDbVisualStyle
  2
3dWireframe
 70
     5
177
     2
291
     0
 71
     0
176
     1
 72
     2
176
     1
 73
     0
176
     1
 90
        0
176
     1
 40
-0.6
176
     1
 41
-30.0
176
     1
 62
     5
 63
     7
421
 16777215
176
     1
 74
     1
176
     1
 91
        4
176
     1
 64
     7
176
     1
 65
   257
176
     1
 75
     1
176
     1
175
     1
176
     1
 42
1.0
176
     1
 92
        0
176
     1
 66
   257
176
     1
 43
1.0
176
     1
 76
     1
176
     1
 77
     6
176
     1
 78
     2
176
     1
 67
     7
176
     1
 79
     5
176
     1
170
     0
176
     1
171
     0
176
     1
290
     0
176
     1
 93
        1
176
     1
 44
0.0
176
     1
173
     0
176
     1
  0
VISUALSTYLE
  5
32
102
{ACAD_REACTORS
330
2A
102
}
330
2A
100
AcDbVisualStyle
  2
Basic
 70
     7
177
     2
291
     1
 71
     1
176
     1
 72
     0
176
     1
 73
     1
176
     1
 90
        0
176
     1
 40
-0.6
176
     1
 41
-30.0
176
     1
 62
     5
 63
     7
421
 16777215
176
     1
 74
     0
176
     1
 91
        4
176
     1
 64
     7
176
     1
 65
   257
176
     1
 75
     1
176
     1
175
     1
176
     1
 42
1.0
176
     1
 92
        8
176
     1
 66
     7
176
     1
 43
1.0
176
     1
 76
     1
176
     1
 77
     6
176
     1
 78
     2
176
     1
 67
     7
176
     1
 79
     5
176
     1
170
     0
176
     1
171
     0
176
     1
290
     0
176
     1
 93
        1
176
     1
 44
0.0
176
     1
173
     0
176
     1
  0
VISUALSTYLE
  5
36
102
{ACAD_REACTORS
330
2A
102
}
330
2A
100
AcDbVisualStyle
  2
Brighten
 70
    12
177
     2
291
     1
 71
     2
176
     1
 72
     2
176
     1
 73
     0
176
     1
 90
        0
176
     1
 40
-0.6
176
     1
 41
-30.0
176
     1
 62
     5
 63
     7
421
 16777215
176
     1
 74
     1
176
     1
 91
        4
176
     1
 64
     7
176
     1
 65
   257
176
     1
 75
     1
176
     1
175
     1
176
     1
 42
1.0
176
     1
 92
        8
176
     1
 66
     7
176
     1
 43
1.0
176
     1
 76
     1
176
     1
 77
     6
176
     1
 78
     2
176
     1
 67
     7
176
     1
 79
     5
176
     1
170
     0
176
     1
171
     0
176
     1
290
     0
176
     1
 93
        1
176
     1
 44
50.0
176
     1
173
     0
176
     1
  0
VISUALSTYLE
  5
3A
102
{ACAD_REACTORS
330
2A
102
}
330
2A
100
AcDbVisualStyle
  2
ColorChange
 70
    16
177
     2
291
     1
 71
     2
176
     1
 72
     2
176
     1
 73
     3
176
     1
 90
        0
176
     1
 40
-0.6
176
     1
 41
-30.0
176
     1
 62
     5
 63
     8
421
  8421504
176
     1
 74
     1
176
     1
 91
        4
176
     1
 64
     7
176
     1
 65
   257
176
     1
 75
     1
176
     1
175
     1
176
     1
 42
1.0
176
     1
 92
        8
176
     1
 66
     8
424
  8421504
176
     1
 43
1.0
176
     1
 76
     1
176
     1
 77
     6
176
     1
 78
     2
176
     1
 67
     7
176
     1
 79
     5
176
     1
170
     0
176
     1
171
     0
176
     1
290
     0
176
     1
 93
        1
176
     1
 44
0.0
176
     1
173
     0
176
     1
  0
VISUALSTYLE
  5
34
102
{ACAD_REACTORS
330
2A
102
}
330
2A
100
AcDbVisualStyle
  2
Conceptual
 70
     9
177
     2
291
     0
 71
     3
176
     1
 72
     2
176
     1
 73
     0
176
     1
 90
        0
176
     1
 40
-0.6
176
     1
 41
-30.0
176
     1
 62
     5
 63
     7
421
 16777215
176
     1
 74
     2
176
     1
 91
        2
176
     1
 64
     7
176
     1
 65
   257
176
     1
 75
     1
176
     1
175
     1
176
     1
 42
40.0
176
     1
 92
        8
176
     1
 66
     7
176
     1
 43
1.0
176
     1
 76
     1
176
     1
 77
     6
176
     1
 78
     2
176
     1
 67
     7
176
     1
 79
     3
176
     1
170
     0
176
     1
171
     0
176
     1
290
     0
176
     1
 93
        1
176
     1
 44
0.0
176
     1
173
     0
176
     1
  0
VISUALSTYLE
  5
35
102
{ACAD_REACTORS
330
2A
102
}
330
2A
100
AcDbVisualStyle
  2
Dim
 70
    11
177
     2
291
     1
 71
     2
176
     1
 72
     2
176
     1
 73
     0
176
     1
 90
        0
176
     1
 40
-0.6
176
     1
 41
-30.0
176
     1
 62
     5
 63
     7
421
 16777215
176
     1
 74
     1
176
     1
 91
        4
176
     1
 64
     7
176
     1
 65
   257
176
     1
 75
     1
176
     1
175
     1
176
     1
 42
1.0
176
     1
 92
        8
176
     1
 66
     7
176
     1
 43
1.0
176
     1
 76
     1
176
     1
 77
     6
176
     1
 78
     2
176
     1
 67
     7
176
     1
 79
     5
176
     1
170
     0
176
     1
171
     0
176
     1
290
     0
176
     1
 93
        1
176
     1
 44
-50.0
176
     1
173
     0
176
     1
  0
VISUALSTYLE
  5
39
102
{ACAD_REACTORS
330
2A
102
}
330
2A
100
AcDbVisualStyle
  2
Facepattern
 70
    15
177
     2
291
     1
 71
     2
176
     1
 72
     2
176
     1
 73
     0
176
     1
 90
        0
176
     1
 40
-0.6
176
     1
 41
-30.0
176
     1
 62
     5
 63
     7
421
 16777215
176
     1
 74
     1
176
     1
 91
        4
176
     1
 64
     7
176
     1
 65
   257
176
     1
 75
     1
176
     1
175
     1
176
     1
 42
1.0
176
     1
 92
        8
176
     1
 66
     7
176
     1
 43
1.0
176
     1
 76
     1
176
     1
 77
     6
176
     1
 78
     2
176
     1
 67
     7
176
     1
 79
     5
176
     1
170
     0
176
     1
171
     0
176
     1
290
     0
176
     1
 93
        1
176
     1
 44
0.0
176
     1
173
     0
176
     1
  0
VISUALSTYLE
  5
2B
102
{ACAD_REACTORS
330
2A
102
}
330
2A
100
AcDbVisualStyle
  2
Flat
 70
     0
177
     2
291
     1
 71
     2
176
     1
 72
     1
176
     1
 73
     1
176
     1
 90
        2
176
     1
 40
-0.6
176
     1
 41
30.0
176
     1
 62
     5
 63
     7
421
 16777215
176
     1
 74
     0
176
     1
 91
        4
176
     1
 64
     7
176
     1
 65
   257
176
     1
 75
     1
176
     1
175
     1
176
     1
 42
1.0
176
     1
 92
        8
176
     1
 66
     7
176
     1
 43
1.0
176
     1
 76
     1
176
     1
 77
     6
176
     1
 78
     2
176
     1
 67
     7
176
     1
 79
     5
176
     1
170
     0
176
     1
171
     0
176
     1
290
     0
176
     1
 93
       13
176
     1
 44
0.0
176
     1
173
     0
176
     1
  0
VISUALSTYLE
  5
2C
102
{ACAD_REACTORS
330
2A
102
}
330
2A
100
AcDbVisualStyle
  2
FlatWithEdges
 70
     1
177
     2
291
     1
 71
     2
176
     1
 72
     1
176
     1
 73
     1
176
     1
 90
        2
176
     1
 40
-0.6
176
     1
 41
30.0
176
     1
 62
     5
 63
     7
421
 16777215
176
     1
 74
     1
176
     1
 91
        4
176
     1
 64
     7
176
     1
 65
   257
176
     1
 75
     1
176
     1
175
     1
176
     1
 42
1.0
176
     1
 92
        0
176
     1
 66
   257
176
     1
 43
1.0
176
     1
 76
     1
176
     1
 77
     6
176
     1
 78
     2
176
     1
 67
     7
176
     1
 79
     5
176
     1
170
     0
176
     1
171
     0
176
     1
290
     0
176
     1
 93
       13
176
     1
 44
0.0
176
     1
173
     0
176
     1
  0
VISUALSTYLE
  5
2D
102
{ACAD_REACTORS
330
2A
102
}
330
2A
100
AcDbVisualStyle
  2
Gouraud
 70
     2
177
     2
291
     1
 71
     2
176
     1
 72
     2
176
     1
 73
     1
176
     1
 90
        2
176
     1
 40
-0.6
176
     1
 41
30.0
176
     1
 62
     5
 63
     7
421
 16777215
176
     1
 74
     0
176
     1
 91
        4
176
     1
 64
     7
176
     1
 65
   257
176
     1
 75
     1
176
     1
175
     1
176
     1
 42
1.0
176
     1
 92
        0
176
     1
 66
     7
176
     1
 43
1.0
176
     1
 76
     1
176
     1
 77
     6
176
     1
 78
     2
176
     1
 67
     7
176
     1
 79
     5
176
     1
170
     0
176
     1
171
     0
176
     1
290
     0
176
     1
 93
       13
176
     1
 44
0.0
176
     1
173
     0
176
     1
  0
VISUALSTYLE
  5
2E
102
{ACAD_REACTORS
330
2A
102
}
330
2A
100
AcDbVisualStyle
  2
GouraudWithEdges
 70
     3
177
     2
291
     1
 71
     2
176
     1
 72
     2
176
     1
 73
     1
176
     1
 90
        2
176
     1
 40
-0.6
176
     1
 41
30.0
176
     1
 62
     5
 63
     7
421
 16777215
176
     1
 74
     1
176
     1
 91
        4
176
     1
 64
     7
176
     1
 65
   257
176
     1
 75
     1
176
     1
175
     1
176
     1
 42
1.0
176
     1
 92
        0
176
     1
 66
   257
176
     1
 43
1.0
176
     1
 76
     1
176
     1
 77
     6
176
     1
 78
     2
176
     1
 67
     7
176
     1
 79
     5
176
     1
170
     0
176
     1
171
     0
176
     1
290
     0
176
     1
 93
       13
176
     1
 44
0.0
176
     1
173
     0
176
     1
  0
VISUALSTYLE
  5
38
102
{ACAD_REACTORS
330
2A
102
}
330
2A
100
AcDbVisualStyle
  2
Linepattern
 70
    14
177
     2
291
     1
 71
     2
176
     1
 72
     2
176
     1
 73
     0
176
     1
 90
        0
176
     1
 40
-0.6
176
     1
 41
-30.0
176
     1
 62
     5
 63
     7
421
 16777215
176
     1
 74
     1
176
     1
 91
        4
176
     1
 64
     7
176
     1
 65
   257
176
     1
 75
     7
176
     1
175
     7
176
     1
 42
1.0
176
     1
 92
        8
176
     1
 66
     7
176
     1
 43
1.0
176
     1
 76
     1
176
     1
 77
     6
176
     1
 78
     2
176
     1
 67
     7
176
     1
 79
     5
176
     1
170
     0
176
     1
171
     0
176
     1
290
     0
176
     1
 93
        1
176
     1
 44
0.0
176
     1
173
     0
176
     1
  0
VISUALSTYLE
  5
33
102
{ACAD_REACTORS
330
2A
102
}
330
2A
100
AcDbVisualStyle
  2
Realistic
 70
     8
177
     2
291
     0
 71
     2
176
     1
 72
     2
176
     1
 73
     0
176
     1
 90
        0
176
     1
 40
-0.6
176
     1
 41
-30.0
176
     1
 62
     5
 63
     7
421
 16777215
176
     1
 74
     1
176
     1
 91
        0
176
     1
 64
     7
176
     1
 65
   257
176
     1
 75
     1
176
     1
175
     1
176
     1
 42
1.0
176
     1
 92
        8
176
     1
 66
     8
424
  7895160
176
     1
 43
1.0
176
     1
 76
     1
176
     1
 77
     6
176
     1
 78
     2
176
     1
 67
     7
176
     1
 79
     5
176
     1
170
     0
176
     1
171
     0
176
     1
290
     0
176
     1
 93
       13
176
     1
 44
0.0
176
     1
173
     0
176
     1
  0
VISUALSTYLE
  5
37
102
{ACAD_REACTORS
330
2A
102
}
330
2A
100
AcDbVisualStyle
  2
Thicken
 70
    13
177
     2
291
     1
 71
     2
176
     1
 72
     2
176
     1
 73
     0
176
     1
 90
        0
176
     1
 40
-0.6
176
     1
 41
-30.0
176
     1
 62
     5
 63
     7
421
 16777215
176
     1
 74
     1
176
     1
 91
        4
176
     1
 64
     7
176
     1
 65
   257
176
     1
 75
     1
176
     1
175
     1
176
     1
 42
1.0
176
     1
 92
       12
176
     1
 66
     7
176
     1
 43
1.0
176
     1
 76
     1
176
     1
 77
     6
176
     1
 78
     2
176
     1
 67
     7
176
     1
 79
     5
176
     1
170
     0
176
     1
171
     0
176
     1
290
     0
176
     1
 93
        1
176
     1
 44
0.0
176
     1
173
     0
176
     1
  0
ENDSEC
  0
EOF
