  0
SECTION
  2
HEADER
  9
$ACADVER
  1
AC1024
  9
$ACADMAINTVER
 70
     6
  9
$DWGCODEPAGE
  3
ANSI_1252
  9
$INSBASE
 10
0.0
 20
0.0
 30
0.0
  9
$EXTMIN
 10
1.000000E+20
 20
1.000000E+20
 30
1.000000E+20
  9
$EXTMAX
 10
-1.000000E+20
 20
-1.000000E+20
 30
-1.000000E+20
  9
$LIMMIN
 10
0.0
 20
0.0
  9
$LIMMAX
 10
420.0
 20
297.0
  9
$ORTHOMODE
 70
     0
  9
$REGENMODE
 70
     1
  9
$FILLMODE
 70
     1
  9
$QTEXTMODE
 70
     0
  9
$MIRRTEXT
 70
     1
  9
$LTSCALE
 40
1.0
  9
$ATTMODE
 70
     1
  9
$TEXTSIZE
 40
2.5
  9
$TRACEWID
 40
1.0
  9
$TEXTSTYLE
  7
Standard
  9
$CLAYER
  8
0
  9
$CELTYPE
  6
ByLayer
  9
$CECOLOR
 62
   256
  9
$CELTSCALE
 40
1.0
  9
$DISPSILH
 70
     0
  9
$DIMSCALE
 40
1.0
  9
$DIMASZ
 40
2.5
  9
$DIMEXO
 40
0.625
  9
$DIMDLI
 40
3.75
  9
$DIMRND
 40
0.0
  9
$DIMDLE
 40
0.0
  9
$DIMEXE
 40
1.25
  9
$DIMTP
 40
0.0
  9
$DIMTM
 40
0.0
  9
$DIMTXT
 40
2.5
  9
$DIMCEN
 40
2.5
  9
$DIMTSZ
 40
0.0
  9
$DIMTOL
 70
     0
  9
$DIMLIM
 70
     0
  9
$DIMTIH
 70
     0
  9
$DIMTOH
 70
     0
  9
$DIMSE1
 70
     0
  9
$DIMSE2
 70
     0
  9
$DIMTAD
 70
     1
  9
$DIMZIN
 70
     8
  9
$DIMBLK
  1

  9
$DIMASO
 70
     1
  9
$DIMSHO
 70
     1
  9
$DIMPOST
  1

  9
$DIMAPOST
  1

  9
$DIMALT
 70
     0
  9
$DIMALTD
 70
     3
  9
$DIMALTF
 40
0.03937
  9
$DIMLFAC
 40
1.0
  9
$DIMTOFL
 70
     1
  9
$DIMTVP
 40
0.0
  9
$DIMTIX
 70
     0
  9
$DIMSOXD
 70
     0
  9
$DIMSAH
 70
     0
  9
$DIMBLK1
  1

  9
$DIMBLK2
  1

  9
$DIMSTYLE
  2
ISO-25
  9
$DIMCLRD
 70
     0
  9
$DIMCLRE
 70
     0
  9
$DIMCLRT
 70
     0
  9
$DIMTFAC
 40
1.0
  9
$DIMGAP
 40
0.625
  9
$DIMJUST
 70
     0
  9
$DIMSD1
 70
     0
  9
$DIMSD2
 70
     0
  9
$DIMTOLJ
 70
     0
  9
$DIMTZIN
 70
     8
  9
$DIMALTZ
 70
     0
  9
$DIMALTTZ
 70
     0
  9
$DIMUPT
 70
     0
  9
$DIMDEC
 70
     2
  9
$DIMTDEC
 70
     2
  9
$DIMALTU
 70
     2
  9
$DIMALTTD
 70
     3
  9
$DIMTXSTY
  7
Standard
  9
$DIMAUNIT
 70
     0
  9
$DIMADEC
 70
     0
  9
$DIMALTRND
 40
0.0
  9
$DIMAZIN
 70
     0
  9
$DIMDSEP
 70
    44
  9
$DIMATFIT
 70
     3
  9
$DIMFRAC
 70
     0
  9
$DIMLDRBLK
  1

  9
$DIMLUNIT
 70
     2
  9
$DIMLWD
 70
    -2
  9
$DIMLWE
 70
    -2
  9
$DIMTMOVE
 70
     0
  9
$DIMFXL
 40
1.0
  9
$DIMFXLON
 70
     0
  9
$DIMJOGANG
 40
0.785398
  9
$DIMTFILL
 70
     0
  9
$DIMTFILLCLR
 70
     0
  9
$DIMARCSYM
 70
     0
  9
$DIMLTYPE
  6

  9
$DIMLTEX1
  6

  9
$DIMLTEX2
  6

  9
$DIMTXTDIRECTION
 70
     0
  9
$LUNITS
 70
     2
  9
$LUPREC
 70
     4
  9
$SKETCHINC
 40
1.0
  9
$FILLETRAD
 40
10.0
  9
$AUNITS
 70
     0
  9
$AUPREC
 70
     0
  9
$MENU
  1
.
  9
$ELEVATION
 40
0.0
  9
$PELEVATION
 40
0.0
  9
$THICKNESS
 40
0.0
  9
$LIMCHECK
 70
     0
  9
$CHAMFERA
 40
10.0
  9
$CHAMFERB
 40
10.0
  9
$CHAMFERC
 40
20.0
  9
$CHAMFERD
 40
0.0
  9
$SKPOLY
 70
     0
  9
$TDCREATE
 40
2457128.600845173
  9
$TDUCREATE
 40
2457128.51751184
  9
$TDUPDATE
 40
2457128.600845185
  9
$TDUUPDATE
 40
2457128.517511852
  9
$TDINDWG
 40
0.0000000116
  9
$TDUSRTIMER
 40
0.0000000116
  9
$USRTIMER
 70
     1
  9
$ANGBASE
 50
0.0
  9
$ANGDIR
 70
     0
  9
$PDMODE
 70
     0
  9
$PDSIZE
 40
0.0
  9
$PLINEWID
 40
0.0
  9
$SPLFRAME
 70
     0
  9
$SPLINETYPE
 70
     6
  9
$SPLINESEGS
 70
     8
  9
$HANDSEED
  5
35E
  9
$SURFTAB1
 70
     6
  9
$SURFTAB2
 70
     6
  9
$SURFTYPE
 70
     6
  9
$SURFU
 70
     6
  9
$SURFV
 70
     6
  9
$UCSBASE
  2

  9
$UCSNAME
  2

  9
$UCSORG
 10
0.0
 20
0.0
 30
0.0
  9
$UCSXDIR
 10
1.0
 20
0.0
 30
0.0
  9
$UCSYDIR
 10
0.0
 20
1.0
 30
0.0
  9
$UCSORTHOREF
  2

  9
$UCSORTHOVIEW
 70
     0
  9
$UCSORGTOP
 10
0.0
 20
0.0
 30
0.0
  9
$UCSORGBOTTOM
 10
0.0
 20
0.0
 30
0.0
  9
$UCSORGLEFT
 10
0.0
 20
0.0
 30
0.0
  9
$UCSORGRIGHT
 10
0.0
 20
0.0
 30
0.0
  9
$UCSORGFRONT
 10
0.0
 20
0.0
 30
0.0
  9
$UCSORGBACK
 10
0.0
 20
0.0
 30
0.0
  9
$PUCSBASE
  2

  9
$PUCSNAME
  2

  9
$PUCSORG
 10
0.0
 20
0.0
 30
0.0
  9
$PUCSXDIR
 10
1.0
 20
0.0
 30
0.0
  9
$PUCSYDIR
 10
0.0
 20
1.0
 30
0.0
  9
$PUCSORTHOREF
  2

  9
$PUCSORTHOVIEW
 70
     0
  9
$PUCSORGTOP
 10
0.0
 20
0.0
 30
0.0
  9
$PUCSORGBOTTOM
 10
0.0
 20
0.0
 30
0.0
  9
$PUCSORGLEFT
 10
0.0
 20
0.0
 30
0.0
  9
$PUCSORGRIGHT
 10
0.0
 20
0.0
 30
0.0
  9
$PUCSORGFRONT
 10
0.0
 20
0.0
 30
0.0
  9
$PUCSORGBACK
 10
0.0
 20
0.0
 30
0.0
  9
$USERI1
 70
     0
  9
$USERI2
 70
     0
  9
$USERI3
 70
     0
  9
$USERI4
 70
     0
  9
$USERI5
 70
     0
  9
$USERR1
 40
0.0
  9
$USERR2
 40
0.0
  9
$USERR3
 40
0.0
  9
$USERR4
 40
0.0
  9
$USERR5
 40
0.0
  9
$WORLDVIEW
 70
     1
  9
$SHADEDGE
 70
     3
  9
$SHADEDIF
 70
    70
  9
$TILEMODE
 70
     1
  9
$MAXACTVP
 70
    64
  9
$PINSBASE
 10
0.0
 20
0.0
 30
0.0
  9
$PLIMCHECK
 70
     0
  9
$PEXTMIN
 10
1.000000E+20
 20
1.000000E+20
 30
1.000000E+20
  9
$PEXTMAX
 10
-1.000000E+20
 20
-1.000000E+20
 30
-1.000000E+20
  9
$PLIMMIN
 10
0.0
 20
0.0
  9
$PLIMMAX
 10
420.0
 20
297.0
  9
$UNITMODE
 70
     0
  9
$VISRETAIN
 70
     1
  9
$PLINEGEN
 70
     0
  9
$PSLTSCALE
 70
     1
  9
$TREEDEPTH
 70
  3020
  9
$CMLSTYLE
  2
Standard
  9
$CMLJUST
 70
     0
  9
$CMLSCALE
 40
20.0
  9
$PROXYGRAPHICS
 70
     1
  9
$MEASUREMENT
 70
     1
  9
$CELWEIGHT
370
    -1
  9
$ENDCAPS
280
     0
  9
$JOINSTYLE
280
     0
  9
$LWDISPLAY
290
     0
  9
$INSUNITS
 70
     4
  9
$HYPERLINKBASE
  1

  9
$STYLESHEET
  1

  9
$XEDIT
290
     1
  9
$CEPSNTYPE
380
     0
  9
$PSTYLEMODE
290
     1
  9
$FINGERPRINTGUID
  2
{82A7D01B-243E-41DE-99CF-F9C15634F5FF}
  9
$VERSIONGUID
  2
{FAEB1C32-E019-11D5-929B-00C0DF256EC4}
  9
$EXTNAMES
290
     1
  9
$PSVPSCALE
 40
0.0
  9
$OLESTARTUP
290
     0
  9
$SORTENTS
280
   127
  9
$INDEXCTL
280
     0
  9
$HIDETEXT
280
     1
  9
$XCLIPFRAME
280
     2
  9
$HALOGAP
280
     0
  9
$OBSCOLOR
 70
   257
  9
$OBSLTYPE
280
     0
  9
$INTERSECTIONDISPLAY
280
     0
  9
$INTERSECTIONCOLOR
 70
   257
  9
$DIMASSOC
280
     2
  9
$PROJECTNAME
  1

  9
$CAMERADISPLAY
290
     0
  9
$LENSLENGTH
 40
50.0
  9
$CAMERAHEIGHT
 40
0.0
  9
$STEPSPERSEC
 40
2.0
  9
$STEPSIZE
 40
6.0
  9
$3DDWFPREC
 40
2.0
  9
$PSOLWIDTH
 40
5.0
  9
$PSOLHEIGHT
 40
80.0
  9
$LOFTANG1
 40
1.570796
  9
$LOFTANG2
 40
1.570796
  9
$LOFTMAG1
 40
0.0
  9
$LOFTMAG2
 40
0.0
  9
$LOFTPARAM
 70
     7
  9
$LOFTNORMALS
280
     1
  9
$LATITUDE
 40
37.795
  9
$LONGITUDE
 40
-122.394
  9
$NORTHDIRECTION
 40
0.0
  9
$TIMEZONE
 70
 -8000
  9
$LIGHTGLYPHDISPLAY
280
     1
  9
$TILEMODELIGHTSYNCH
280
     1
  9
$SOLIDHIST
280
     1
  9
$SHOWHIST
280
     1
  9
$DWFFRAME
280
     2
  9
$DGNFRAME
280
     2
  9
$REALWORLDSCALE
290
     1
  9
$INTERFERECOLOR
 62
   256
  9
$CSHADOW
280
     0
  9
$SHADOWPLANELOCATION
 40
0.0
  0
ENDSEC
  0
SECTION
  2
CLASSES
  0
CLASS
  1
ACDBDICTIONARYWDFLT
  2
AcDbDictionaryWithDefault
  3
ObjectDBX Classes
 90
        0
 91
        4
280
     0
281
     0
  0
CLASS
  1
VISUALSTYLE
  2
AcDbVisualStyle
  3
ObjectDBX Classes
 90
     4095
 91
        4
280
     0
281
     0
  0
CLASS
  1
MATERIAL
  2
AcDbMaterial
  3
ObjectDBX Classes
 90
     1153
 91
        4
280
     0
281
     0
  0
ENDSEC
  0
SECTION
  2
TABLES
  0
TABLE
  2
VPORT
  5
8
330
0
100
AcDbSymbolTable
 70
     1
  0
VPORT
  5
29
330
8
100
AcDbSymbolTableRecord
100
AcDbViewportTableRecord
  2
*Active
 70
     0
 10
0.0
 20
0.0
 11
1.0
 21
1.0
 12
344.186916
 22
148.5
 13
0.0
 23
0.0
 14
10.0
 24
10.0
 15
10.0
 25
10.0
 16
0.0
 26
0.0
 36
1.0
 17
0.0
 27
0.0
 37
0.0
 40
297.0
 41
1.972973
 42
50.0
 43
0.0
 44
0.0
 50
0.0
 51
0.0
 71
     0
 72
   100
 73
     1
 74
     3
 75
     0
 76
     0
 77
     0
 78
     0
281
     0
 65
     1
110
0.0
120
0.0
130
0.0
111
1.0
121
0.0
131
0.0
112
0.0
122
1.0
132
0.0
 79
     0
146
0.0
 60
     3
 61
     5
292
     1
282
     1
141
0.0
142
0.0
 63
   250
  0
ENDTAB
  0
TABLE
  2
LTYPE
  5
5
330
0
100
AcDbSymbolTable
 70
     1
  0
LTYPE
  5
14
330
5
100
AcDbSymbolTableRecord
100
AcDbLinetypeTableRecord
  2
ByBlock
 70
     0
  3

 72
    65
 73
     0
 40
0.0
  0
LTYPE
  5
15
330
5
100
AcDbSymbolTableRecord
100
AcDbLinetypeTableRecord
  2
ByLayer
 70
     0
  3

 72
    65
 73
     0
 40
0.0
  0
LTYPE
  5
16
330
5
100
AcDbSymbolTableRecord
100
AcDbLinetypeTableRecord
  2
Continuous
 70
     0
  3
Solid line
 72
    65
 73
     0
 40
0.0
  0
ENDTAB
  0
TABLE
  2
LAYER
  5
2
330
0
100
AcDbSymbolTable
 70
     1
  0
LAYER
  5
10
330
2
100
AcDbSymbolTableRecord
100
AcDbLayerTableRecord
  2
0
 70
     0
 62
   102
  6
Continuous
370
     0
390
F
347
3E
  0
ENDTAB
  0
TABLE
  2
STYLE
  5
3
330
0
100
AcDbSymbolTable
 70
     4
  0
STYLE
  5
11
330
3
100
AcDbSymbolTableRecord
100
AcDbTextStyleTableRecord
  2
Standard
 70
     0
 40
0.0
 41
1.0
 50
0.0
 71
     0
 42
2.5
  3
txt
  4

1001
ACAD
1000
txt
1071
        0
  0
STYLE
  5
3F
330
3
100
AcDbSymbolTableRecord
100
AcDbTextStyleTableRecord
  2
Default
 70
     0
 40
0.0
 41
1.0
 50
0.0
 71
     0
 42
0.2
  3

  4

1001
ACAD
1000
txt
1071
        0
  0
STYLE
  5
40
330
3
100
AcDbSymbolTableRecord
100
AcDbTextStyleTableRecord
  2
ISO
 70
     0
 40
0.0
 41
1.0
 50
0.0
 71
     0
 42
0.2
  3

  4

1001
ACAD
1000
txt
1071
        0
  0
STYLE
  5
41
330
3
100
AcDbSymbolTableRecord
100
AcDbTextStyleTableRecord
  2
GIANLU
 70
     0
 40
0.0
 41
1.0
 50
0.0
 71
     0
 42
0.2
  3

  4

1001
ACAD
1000
Arial
1071
 33554432
  0
ENDTAB
  0
TABLE
  2
VIEW
  5
6
330
0
100
AcDbSymbolTable
 70
     0
  0
ENDTAB
  0
TABLE
  2
UCS
  5
7
330
0
100
AcDbSymbolTable
 70
     0
  0
ENDTAB
  0
TABLE
  2
APPID
  5
9
330
0
100
AcDbSymbolTable
 70
     1
  0
APPID
  5
12
330
9
100
AcDbSymbolTableRecord
100
AcDbRegAppTableRecord
  2
ACAD
 70
     0
  0
ENDTAB
  0
TABLE
  2
DIMSTYLE
  5
A
330
0
100
AcDbSymbolTable
 70
     5
100
AcDbDimStyleTable
  0
DIMSTYLE
105
27
330
A
100
AcDbSymbolTableRecord
100
AcDbDimStyleTableRecord
  2
ISO-25
 70
     0
 41
2.5
 42
0.625
 43
3.75
 44
1.25
 73
     0
 74
     0
 77
     1
 78
     8
140
2.5
141
2.5
143
0.03937
147
0.625
171
     3
172
     1
271
     2
272
     2
274
     3
278
    44
283
     0
284
     8
340
11
  0
DIMSTYLE
105
42
330
A
100
AcDbSymbolTableRecord
100
AcDbDimStyleTableRecord
  2
Default
 70
     0
  3
<>
 41
4.375
 42
1.05
 44
2.1
 49
10.01
 73
     0
 74
     0
 77
     1
 78
     8
140
3.5
146
0.4
147
1.75
172
     1
178
     2
271
     2
272
     3
284
     8
340
3F
341
43
342
43
  0
DIMSTYLE
105
4A
330
A
100
AcDbSymbolTableRecord
100
AcDbDimStyleTableRecord
  2
DefaultDimensionStyle
 70
     0
  3
<>
 41
2.5
 42
0.875
 44
1.75
 49
10.01
 73
     0
 74
     0
 77
     1
 78
     8
140
3.5
147
1.75
172
     1
178
     2
271
     2
272
     2
278
    44
284
     8
340
11
  0
DIMSTYLE
105
4B
330
A
100
AcDbSymbolTableRecord
100
AcDbDimStyleTableRecord
  2
ISO
 70
     0
  3
<>
 41
4.375
 42
1.05
 44
2.1
 49
10.01
 73
     0
 74
     0
 77
     1
 78
     8
140
3.5
146
0.4
147
1.75
172
     1
178
     2
271
     2
272
     3
284
     8
340
40
341
43
342
43
  0
DIMSTYLE
105
4C
330
A
100
AcDbSymbolTableRecord
100
AcDbDimStyleTableRecord
  2
zucchetti_unico
 70
     0
  3
<>
 41
3.5
 42
1.05
 44
2.1
 49
10.01
 73
     0
 74
     0
 77
     1
 78
     8
140
3.5
146
0.6
147
1.75
172
     1
178
     2
271
     2
272
     2
284
     8
340
11
  0
ENDTAB
  0
TABLE
  2
BLOCK_RECORD
  5
1
330
0
100
AcDbSymbolTable
 70
     7
  0
BLOCK_RECORD
  5
1F
330
1
100
AcDbSymbolTableRecord
100
AcDbBlockTableRecord
  2
*Model_Space
340
22
 70
     0
280
     1
281
     0
  0
BLOCK_RECORD
  5
1B
330
1
100
AcDbSymbolTableRecord
100
AcDbBlockTableRecord
  2
*Paper_Space
340
1E
 70
     0
280
     1
281
     0
  0
BLOCK_RECORD
  5
23
330
1
100
AcDbSymbolTableRecord
100
AcDbBlockTableRecord
  2
*Paper_Space0
340
26
 70
     0
280
     1
281
     0
  0
BLOCK_RECORD
  5
43
330
1
100
AcDbSymbolTableRecord
100
AcDbBlockTableRecord
  2
_CLOSED
340
0
 70
     0
280
     1
281
     0
  0
BLOCK_RECORD
  5
4D
330
1
100
AcDbSymbolTableRecord
100
AcDbBlockTableRecord
  2
a
340
0
102
{BLKREFS
331
108
102
}
 70
     0
280
     1
281
     0
  0
BLOCK_RECORD
  5
109
330
1
100
AcDbSymbolTableRecord
100
AcDbBlockTableRecord
  2
b
340
0
102
{BLKREFS
331
197
102
}
 70
     0
280
     1
281
     0
  0
BLOCK_RECORD
  5
198
330
1
100
AcDbSymbolTableRecord
100
AcDbBlockTableRecord
  2
c
340
0
102
{BLKREFS
331
1FE
102
}
 70
     0
280
     1
281
     0
  0
BLOCK_RECORD
  5
1FF
330
1
100
AcDbSymbolTableRecord
100
AcDbBlockTableRecord
  2
d
340
0
102
{BLKREFS
331
2CF
102
}
 70
     0
280
     1
281
     0
  0
BLOCK_RECORD
  5
2D0
330
1
100
AcDbSymbolTableRecord
100
AcDbBlockTableRecord
  2
e
340
0
102
{BLKREFS
331
35B
102
}
 70
     0
280
     1
281
     0
  0
ENDTAB
  0
ENDSEC
  0
SECTION
  2
BLOCKS
  0
BLOCK
  5
20
330
1F
100
AcDbEntity
  8
0
100
AcDbBlockBegin
  2
*Model_Space
 70
     0
 10
0.0
 20
0.0
 30
0.0
  3
*Model_Space
  1

  0
ENDBLK
  5
21
330
1F
100
AcDbEntity
  8
0
100
AcDbBlockEnd
  0
BLOCK
  5
1C
330
1B
100
AcDbEntity
 67
     1
  8
0
100
AcDbBlockBegin
  2
*Paper_Space
 70
     0
 10
0.0
 20
0.0
 30
0.0
  3
*Paper_Space
  1

  0
ENDBLK
  5
1D
330
1B
100
AcDbEntity
 67
     1
  8
0
100
AcDbBlockEnd
  0
BLOCK
  5
24
330
23
100
AcDbEntity
  8
0
100
AcDbBlockBegin
  2
*Paper_Space0
 70
     0
 10
0.0
 20
0.0
 30
0.0
  3
*Paper_Space0
  1

  0
ENDBLK
  5
25
330
23
100
AcDbEntity
  8
0
100
AcDbBlockEnd
  0
BLOCK
  5
44
330
43
100
AcDbEntity
  8
0
100
AcDbBlockBegin
  2
_CLOSED
 70
     0
 10
0.0
 20
0.0
 30
0.0
  3
_CLOSED
  1

  0
LINE
  5
46
330
43
100
AcDbEntity
  8
0
  6
ByBlock
 62
     0
370
    -2
100
AcDbLine
 10
-1.0
 20
0.166667
 30
0.0
 11
0.0
 21
0.0
 31
0.0
  0
LINE
  5
47
330
43
100
AcDbEntity
  8
0
  6
ByBlock
 62
     0
370
    -2
100
AcDbLine
 10
0.0
 20
0.0
 30
0.0
 11
-1.0
 21
-0.166667
 31
0.0
  0
LINE
  5
48
330
43
100
AcDbEntity
  8
0
  6
ByBlock
 62
     0
370
    -2
100
AcDbLine
 10
-1.0
 20
0.166667
 30
0.0
 11
-1.0
 21
-0.166667
 31
0.0
  0
LINE
  5
49
330
43
100
AcDbEntity
  8
0
  6
ByBlock
 62
     0
370
    -2
100
AcDbLine
 10
0.0
 20
0.0
 30
0.0
 11
-1.0
 21
0.0
 31
0.0
  0
ENDBLK
  5
45
330
43
100
AcDbEntity
  8
0
100
AcDbBlockEnd
  0
BLOCK
  5
106
330
4D
100
AcDbEntity
  8
0
100
AcDbBlockBegin
  2
a
 70
     0
 10
49.903435
 20
229.884827
 30
0.0
  3
a
  1

  0
ARC
  5
4E
330
4D
100
AcDbEntity
  8
0
  6
Continuous
 62
     0
370
     0
100
AcDbCircle
 10
116.236396
 20
1178.760145
 30
0.0
 40
28.000487382772
100
AcDbArc
 50
180.001002
 51
269.999008
  0
LINE
  5
4F
330
4D
100
AcDbEntity
  8
0
  6
Continuous
 62
     0
370
     0
100
AcDbLine
 10
116.235909
 20
1173.259658
 30
0.0
 11
116.235911
 21
1150.759658
 31
0.0
  0
ARC
  5
50
330
4D
100
AcDbEntity
  8
0
  6
Continuous
 62
     0
370
    30
100
AcDbCircle
 10
116.235951
 20
1178.759701
 30
0.0
 40
5.500042687151561
100
AcDbArc
 50
180.00045
 51
269.99956
  0
LINE
  5
51
330
4D
100
AcDbEntity
  8
0
  6
Continuous
 62
     0
370
     0
100
AcDbLine
 10
88.235909
 20
1178.759655
 30
0.0
 11
110.735909
 21
1178.759657
 31
0.0
  0
ARC
  5
52
330
4D
100
AcDbEntity
  8
0
  6
Continuous
 62
     0
370
     0
100
AcDbCircle
 10
116.236396
 20
1122.759172
 30
0.0
 40
28.00048738277118
100
AcDbArc
 50
90.000992
 51
179.998998
  0
LINE
  5
53
330
4D
100
AcDbEntity
  8
0
  6
Continuous
 62
     0
370
     0
100
AcDbLine
 10
110.735909
 20
1122.75966
 30
0.0
 11
88.235909
 21
1122.759662
 31
0.0
  0
ARC
  5
54
330
4D
100
AcDbEntity
  8
0
  6
Continuous
 62
     0
370
    30
100
AcDbCircle
 10
116.235951
 20
1122.759617
 30
0.0
 40
5.50004268715152
100
AcDbArc
 50
90.00044
 51
179.99955
  0
LINE
  5
55
330
4D
100
AcDbEntity
  8
0
  6
Continuous
 62
     0
370
     0
100
AcDbLine
 10
116.235911
 20
1150.759658
 30
0.0
 11
116.235909
 21
1128.25966
 31
0.0
  0
LINE
  5
56
330
4D
100
AcDbEntity
  8
0
  6
Continuous
 62
     0
370
    30
100
AcDbLine
 10
110.73591
 20
1095.035099
 30
0.0
 11
110.735909
 21
1122.75966
 31
0.0
  0
LINE
  5
57
330
4D
100
AcDbEntity
  8
0
  6
Continuous
 62
     0
370
     0
100
AcDbLine
 10
88.235909
 20
1095.035048
 30
0.0
 11
88.235909
 21
1122.759662
 31
0.0
  0
LINE
  5
58
330
4D
100
AcDbEntity
  8
0
  6
Continuous
 62
     0
370
     0
100
AcDbLine
 10
88.235909
 20
1095.035048
 30
0.0
 11
110.735909
 21
1095.035099
 31
0.0
  0
LINE
  5
59
330
4D
100
AcDbEntity
  8
0
  6
Continuous
 62
     0
370
    30
100
AcDbLine
 10
116.235909
 20
1173.259658
 30
0.0
 11
118.543843
 21
1173.259658
 31
0.0
  0
LINE
  5
5A
330
4D
100
AcDbEntity
  8
0
  6
Continuous
 62
     0
370
    30
100
AcDbLine
 10
118.662974
 20
1128.259659
 30
0.0
 11
116.235909
 21
1128.25966
 31
0.0
  0
SPLINE
  5
5B
330
4D
100
AcDbEntity
  8
0
  6
Continuous
 62
     0
370
     0
100
AcDbSpline
210
0.0
220
0.0
230
1.0
 70
     8
 71
     3
 72
    17
 73
    13
 74
     0
 42
0.0
 43
0.0
 40
0.0
 40
0.0
 40
0.0
 40
0.0
 40
1.718754101383531
 40
4.583500439394577
 40
9.48624150281726
 40
14.5486632533614
 40
19.61113947222288
 40
24.67377023188959
 40
27.83809520497009
 40
29.73680122144633
 40
33.11237746459108
 40
35.33169583367232
 40
35.33169583367232
 40
35.33169583367232
 40
35.33169583367232
 10
118.8272051801569
 20
1150.759659687715
 30
0.0
 10
118.8287227466194
 20
1150.186881251218
 30
0.0
 10
118.8325028282625
 20
1148.65880367572
 30
0.0
 10
118.8358536563318
 20
1145.521453248496
 30
0.0
 10
118.834059226864
 20
1141.427808986622
 30
0.0
 10
118.8197511369593
 20
1137.088935849464
 30
0.0
 10
118.7946132874992
 20
1133.392995116083
 30
0.0
 10
118.7644096310478
 20
1130.925282272026
 30
0.0
 10
118.7368089177805
 20
1129.595826058584
 30
0.0
 10
118.7120876269567
 20
1128.787072529829
 30
0.0
 10
118.6890515318929
 20
1128.353041079163
 30
0.0
 10
118.6704461630446
 20
1128.260048031546
 30
0.0
 10
118.6630902576196
 20
1128.259662524878
 30
0.0
  0
LINE
  5
5C
330
4D
100
AcDbEntity
  8
0
  6
Continuous
 62
     0
370
     0
100
AcDbLine
 10
118.827205
 20
1150.75966
 30
0.0
 11
116.235911
 21
1150.75966
 31
0.0
  0
SPLINE
  5
5D
330
4D
100
AcDbEntity
  8
0
  6
Continuous
 62
     0
370
     0
100
AcDbSpline
210
0.0
220
0.0
230
1.0
 70
     8
 71
     3
 72
    17
 73
    13
 74
     0
 42
0.0
 43
0.0
 40
0.0
 40
0.0
 40
0.0
 40
0.0
 40
1.706339016653732
 40
4.550383530542367
 40
9.442487500490753
 40
14.50535991567011
 40
19.56799959870319
 40
24.63039839870083
 40
27.79445294476594
 40
29.69293249906594
 40
33.06807680507281
 40
35.34401262602155
 40
35.34401262602155
 40
35.34401262602155
 40
35.34401262602155
 10
118.5438426154201
 20
1173.259658148465
 30
0.0
 10
118.549496543026
 20
1173.259658148959
 30
0.0
 10
118.5650115697253
 20
1173.202107391095
 30
0.0
 10
118.5967210098357
 20
1172.765252821599
 30
0.0
 10
118.6413026410012
 20
1171.452468361258
 30
0.0
 10
118.6910052039985
 20
1168.896537439271
 30
0.0
 10
118.7370561163558
 20
1165.397341416196
 30
0.0
 10
118.7716800765751
 20
1161.689844189175
 30
0.0
 10
118.7930365852029
 20
1158.58132000532
 30
0.0
 10
118.8082283562394
 20
1155.886499322336
 30
0.0
 10
118.8195734955607
 20
1153.402241197619
 30
0.0
 10
118.825196847066
 20
1151.517983952725
 30
0.0
 10
118.8272051801569
 20
1150.759659687726
 30
0.0
  0
LINE
  5
5E
330
4D
100
AcDbEntity
  8
0
  6
Continuous
 62
     0
370
    30
100
AcDbLine
 10
110.735909
 20
1178.759657
 30
0.0
 11
110.735909
 21
1179.187643
 31
0.0
  0
LINE
  5
5F
330
4D
100
AcDbEntity
  8
0
  6
Continuous
 62
     0
370
    30
100
AcDbLine
 10
110.735909
 20
1179.187643
 30
0.0
 11
88.235909
 21
1179.187643
 31
0.0
  0
LINE
  5
60
330
4D
100
AcDbEntity
  8
0
  6
Continuous
 62
     0
370
     0
100
AcDbLine
 10
88.235909
 20
1178.759655
 30
0.0
 11
88.235909
 21
1179.187643
 31
0.0
  0
LINE
  5
61
330
4D
100
AcDbEntity
  8
0
  6
Continuous
 62
     0
370
    30
100
AcDbLine
 10
126.235909
 20
1128.656537
 30
0.0
 11
126.235909
 21
1172.856537
 31
0.0
  0
LINE
  5
62
330
4D
100
AcDbEntity
  8
0
  6
Continuous
 62
     0
370
    30
100
AcDbLine
 10
126.235909
 20
1128.656537
 30
0.0
 11
118.66309
 21
1128.259663
 31
0.0
  0
LINE
  5
63
330
4D
100
AcDbEntity
  8
0
  6
Continuous
 62
     0
370
    30
100
AcDbLine
 10
110.035908
 20
1183.759664
 30
0.0
 11
66.435909
 21
1183.759664
 31
0.0
  0
LINE
  5
64
330
4D
100
AcDbEntity
  8
0
  6
Continuous
 62
     0
370
    30
100
AcDbLine
 10
65.735909
 20
1179.187643
 30
0.0
 11
88.235909
 21
1179.187643
 31
0.0
  0
LINE
  5
65
330
4D
100
AcDbEntity
  8
0
  6
Continuous
 62
     0
370
    30
100
AcDbLine
 10
110.362055
 20
1183.460806
 30
0.0
 11
110.735909
 21
1179.187643
 31
0.0
  0
LINE
  5
66
330
4D
100
AcDbEntity
  8
0
  6
Continuous
 62
     0
370
    30
100
AcDbLine
 10
110.362055
 20
1183.460806
 30
0.0
 11
66.109762
 21
1183.460806
 31
0.0
  0
LINE
  5
67
330
4D
100
AcDbEntity
  8
0
  6
Continuous
 62
     0
370
    30
100
AcDbLine
 10
110.362055
 20
1183.460806
 30
0.0
 11
110.035908
 21
1183.759664
 31
0.0
  0
LINE
  5
68
330
4D
100
AcDbEntity
  8
0
  6
Continuous
 62
     0
370
    30
100
AcDbLine
 10
66.135909
 20
1079.759664
 30
0.0
 11
110.335909
 21
1079.759664
 31
0.0
  0
LINE
  5
69
330
4D
100
AcDbEntity
  8
0
  6
Continuous
 62
     0
370
    30
100
AcDbLine
 10
66.135909
 20
1079.759664
 30
0.0
 11
65.735909
 21
1095.035048
 31
0.0
  0
LINE
  5
6A
330
4D
100
AcDbEntity
  8
0
  6
Continuous
 62
     0
370
     0
100
AcDbLine
 10
88.235909
 20
1095.035048
 30
0.0
 11
65.735909
 21
1095.035048
 31
0.0
  0
LINE
  5
6B
330
4D
100
AcDbEntity
  8
0
  6
Continuous
 62
     0
370
     0
100
AcDbLine
 10
88.235909
 20
1178.759655
 30
0.0
 11
88.235909
 21
1122.759662
 31
0.0
  0
LINE
  5
6C
330
4D
100
AcDbEntity
  8
0
  6
Continuous
 62
     0
370
    30
100
AcDbLine
 10
65.735909
 20
1179.187643
 30
0.0
 11
65.735909
 21
1095.035048
 31
0.0
  0
LINE
  5
6D
330
4D
100
AcDbEntity
  8
0
  6
Continuous
 62
     0
370
    30
100
AcDbLine
 10
110.73591
 20
1095.035099
 30
0.0
 11
110.335909
 21
1079.759664
 31
0.0
  0
LINE
  5
6E
330
4D
100
AcDbEntity
  8
0
  6
Continuous
 62
     0
370
    30
100
AcDbLine
 10
66.109762
 20
1183.460806
 30
0.0
 11
66.435909
 21
1183.759664
 31
0.0
  0
LINE
  5
6F
330
4D
100
AcDbEntity
  8
0
  6
Continuous
 62
     0
370
    30
100
AcDbLine
 10
65.735909
 20
1179.187643
 30
0.0
 11
66.109762
 21
1183.460806
 31
0.0
  0
LINE
  5
70
330
4D
100
AcDbEntity
  8
0
  6
Continuous
 62
     0
370
    30
100
AcDbLine
 10
118.543961
 20
1173.259655
 30
0.0
 11
126.235909
 21
1172.856537
 31
0.0
  0
LINE
  5
71
330
4D
100
AcDbEntity
  8
0
  6
Continuous
 62
     0
370
    30
100
AcDbLine
 10
136.835909
 20
1238.759662
 30
0.0
 11
144.187929
 21
1238.759662
 31
0.0
  0
LINE
  5
72
330
4D
100
AcDbEntity
  8
0
  6
Continuous
 62
     0
370
    30
100
AcDbLine
 10
144.187929
 20
1238.759662
 30
0.0
 11
149.835909
 21
1238.759662
 31
0.0
  0
LINE
  5
73
330
4D
100
AcDbEntity
  8
0
  6
Continuous
 62
     0
370
    30
100
AcDbLine
 10
149.835909
 20
1178.759662
 30
0.0
 11
149.835909
 21
1238.759662
 31
0.0
  0
LINE
  5
74
330
4D
100
AcDbEntity
  8
0
  6
Continuous
 62
     0
370
    30
100
AcDbLine
 10
136.835909
 20
1178.759662
 30
0.0
 11
136.835909
 21
1238.759662
 31
0.0
  0
LINE
  5
75
330
4D
100
AcDbEntity
  8
0
  6
Continuous
 62
     0
370
    30
100
AcDbLine
 10
136.835907
 20
1178.759661
 30
0.0
 11
149.835907
 21
1178.759661
 31
0.0
  0
LINE
  5
76
330
4D
100
AcDbEntity
  8
0
  6
Continuous
 62
     0
370
    30
100
AcDbLine
 10
149.835907
 20
1178.759661
 30
0.0
 11
149.819975
 21
1177.846923
 31
0.0
  0
SPLINE
  5
77
330
4D
100
AcDbEntity
  8
0
  6
Continuous
 62
     0
370
     0
100
AcDbSpline
210
0.0
220
0.0
230
1.0
 70
     8
 71
     3
 72
    21
 73
    17
 74
     0
 42
0.0
 43
0.0
 40
0.0
 40
0.0
 40
0.0
 40
0.0
 40
1.912405789321918
 40
3.830350421158677
 40
6.32391116788351
 40
7.661351199193069
 40
8.952158795729051
 40
10.23687625134339
 40
11.6201887532878
 40
12.6699143264469
 40
13.90342270692967
 40
15.64836897466497
 40
17.34311723258501
 40
18.41361149052811
 40
19.47528666719966
 40
21.03953786596914
 40
21.03953786596914
 40
21.03953786596914
 40
21.03953786596914
 10
149.8199750819312
 20
1177.846923289636
 30
0.0
 10
149.8199750819312
 20
1177.846923211447
 30
0.0
 10
149.6351389224574
 20
1177.707171931997
 30
0.0
 10
148.7637350066404
 20
1177.093294213459
 30
0.0
 10
147.4793449862026
 20
1176.331866147197
 30
0.0
 10
146.0582026114495
 20
1175.746384278619
 30
0.0
 10
144.8608936751573
 20
1175.421067706874
 30
0.0
 10
143.5818944686957
 20
1175.271223429701
 30
0.0
 10
142.3683263776365
 20
1175.334596834237
 30
0.0
 10
141.2140722828988
 20
1175.567436159574
 30
0.0
 10
140.0256611684106
 20
1175.96271431789
 30
0.0
 10
138.817371147249
 20
1176.548363837743
 30
0.0
 10
137.9011564110467
 20
1177.111084195888
 30
0.0
 10
137.3320370318992
 20
1177.49811607
 30
0.0
 10
136.955090086136
 20
1177.769227566434
 30
0.0
 10
136.8518388829125
 20
1177.846923225682
 30
0.0
 10
136.8518388829125
 20
1177.846923289636
 30
0.0
  0
ARC
  5
78
330
4D
100
AcDbEntity
  8
0
  6
Continuous
 62
     0
370
    30
100
AcDbCircle
 10
154.819214
 20
1177.759661
 30
0.0
 40
5.000000000000002
100
AcDbArc
 50
179.0
 51
270.0
  0
ARC
  5
79
330
4D
100
AcDbEntity
  8
0
  6
Continuous
 62
     0
370
    30
100
AcDbCircle
 10
131.8526
 20
1177.759661
 30
0.0
 40
5.000000000000002
100
AcDbArc
 50
270.0
 51
1.0
  0
SPLINE
  5
7A
330
4D
100
AcDbEntity
  8
0
  6
Continuous
 62
     0
370
     0
100
AcDbSpline
210
0.0
220
0.0
230
1.0
 70
     8
 71
     3
 72
    21
 73
    17
 74
     0
 42
0.0
 43
0.0
 40
0.0
 40
0.0
 40
0.0
 40
0.0
 40
3.004295903647487
 40
6.01729305781994
 40
8.458208939345289
 40
9.934554958359266
 40
12.21528003185013
 40
14.06340335768736
 40
16.08163160756893
 40
18.25474785008434
 40
19.90381535291495
 40
21.8415966518898
 40
24.58282184243938
 40
27.24518841621357
 40
30.59472225158563
 40
33.05208433184011
 40
33.05208433184011
 40
33.05208433184011
 40
33.05208433184011
 10
154.8192135577132
 20
1172.75966125745
 30
0.0
 10
154.8192135577132
 20
1172.75966114462
 30
0.0
 10
154.4938178959133
 20
1172.645826170898
 30
0.0
 10
153.186023769025
 20
1172.219807817859
 30
0.0
 10
151.5869415264804
 20
1171.771215765874
 30
0.0
 10
149.8741820161954
 20
1171.368677486226
 30
0.0
 10
148.1092253052841
 20
1171.03812563223
 30
0.0
 10
145.9789341510151
 20
1170.77952260554
 30
0.0
 10
143.7729326926552
 20
1170.660938333394
 30
0.0
 10
141.6170940910405
 20
1170.712581748312
 30
0.0
 10
139.5678296454168
 20
1170.90229755015
 30
0.0
 10
137.4599789976476
 20
1171.224396139882
 30
0.0
 10
135.3208485261096
 20
1171.70148579779
 30
0.0
 10
133.3211947121814
 20
1172.268374814307
 30
0.0
 10
132.1082262333505
 20
1172.670911687171
 30
0.0
 10
131.8526004071305
 20
1172.759661165161
 30
0.0
 10
131.8526004071305
 20
1172.75966125745
 30
0.0
  0
LINE
  5
7B
330
4D
100
AcDbEntity
  8
0
  6
Continuous
 62
     0
370
    30
100
AcDbLine
 10
127.335907
 20
1151.288973
 30
0.0
 11
135.535907
 21
1128.759661
 31
0.0
  0
LINE
  5
7C
330
4D
100
AcDbEntity
  8
0
  6
Continuous
 62
     0
370
    30
100
AcDbLine
 10
127.335907
 20
1172.759661
 30
0.0
 11
127.335907
 21
1151.288973
 31
0.0
  0
LINE
  5
7D
330
4D
100
AcDbEntity
  8
0
  6
Continuous
 62
     0
370
    30
100
AcDbLine
 10
127.335907
 20
1172.759661
 30
0.0
 11
131.8526
 21
1172.759661
 31
0.0
  0
LINE
  5
7E
330
4D
100
AcDbEntity
  8
0
  6
Continuous
 62
     0
370
    30
100
AcDbLine
 10
154.819214
 20
1172.759661
 30
0.0
 11
157.835907
 21
1172.759661
 31
0.0
  0
LINE
  5
7F
330
4D
100
AcDbEntity
  8
0
  6
Continuous
 62
     0
370
     0
100
AcDbLine
 10
157.835907
 20
1172.759661
 30
0.0
 11
157.835907
 21
1128.759661
 31
0.0
  0
LINE
  5
80
330
4D
100
AcDbEntity
  8
0
  6
Continuous
 62
     0
370
    30
100
AcDbLine
 10
158.335907
 20
1172.259661
 30
0.0
 11
158.335907
 21
1129.259661
 31
0.0
  0
ARC
  5
81
330
4D
100
AcDbEntity
  8
0
  6
Continuous
 62
     0
370
    30
100
AcDbCircle
 10
157.835907
 20
1172.259661
 30
0.0
 40
0.5
100
AcDbArc
 50
0.0
 51
90.0
  0
ARC
  5
82
330
4D
100
AcDbEntity
  8
0
  6
Continuous
 62
     0
370
    30
100
AcDbCircle
 10
157.83587
 20
1129.259698
 30
0.0
 40
0.5000369078942255
100
AcDbArc
 50
270.004229
 51
359.995771
  0
LINE
  5
83
330
4D
100
AcDbEntity
  8
0
  6
Continuous
 62
     0
370
    30
100
AcDbLine
 10
158.33224
 20
1172.31972
 30
0.0
 11
158.335907
 21
1172.259661
 31
0.0
  0
LINE
  5
84
330
4D
100
AcDbEntity
  8
0
  6
Continuous
 62
     0
370
    30
100
AcDbLine
 10
135.53596
 20
1128.759661
 30
0.0
 11
157.835907
 21
1128.759661
 31
0.0
  0
LINE
  5
85
330
4D
100
AcDbEntity
  8
0
  6
Continuous
 62
     0
370
    30
100
AcDbLine
 10
136.835907
 20
1178.759661
 30
0.0
 11
136.851839
 21
1177.846923
 31
0.0
  0
LINE
  5
86
330
4D
100
AcDbEntity
  8
0
  6
Continuous
 62
     0
370
    30
100
AcDbLine
 10
83.462426
 20
1014.759674
 30
0.0
 11
110.235909
 21
1014.759674
 31
0.0
  0
LINE
  5
87
330
4D
100
AcDbEntity
  8
0
  6
Continuous
 62
     0
370
    30
100
AcDbLine
 10
58.735909
 20
1003.759674
 30
0.0
 11
81.835103
 21
1003.759674
 31
0.0
  0
LINE
  5
88
330
4D
100
AcDbEntity
  8
0
  6
Continuous
 62
     0
370
    30
100
AcDbLine
 10
81.835103
 20
1003.759674
 30
0.0
 11
117.735909
 21
1003.759674
 31
0.0
  0
LINE
  5
89
330
4D
100
AcDbEntity
  8
0
  6
Continuous
 62
     0
370
     0
100
AcDbLine
 10
81.726615
 20
1004.259674
 30
0.0
 11
118.235909
 21
1004.259674
 31
0.0
  0
LINE
  5
8A
330
4D
100
AcDbEntity
  8
0
  6
Continuous
 62
     0
370
     0
100
AcDbLine
 10
58.235909
 20
1004.259674
 30
0.0
 11
81.726615
 21
1004.259674
 31
0.0
  0
LINE
  5
8B
330
4D
100
AcDbEntity
  8
0
  6
Continuous
 62
     0
370
     0
100
AcDbLine
 10
58.235909
 20
1009.259674
 30
0.0
 11
81.726615
 21
1009.259674
 31
0.0
  0
LINE
  5
8C
330
4D
100
AcDbEntity
  8
0
  6
Continuous
 62
     0
370
     0
100
AcDbLine
 10
81.726615
 20
1009.259674
 30
0.0
 11
118.235909
 21
1009.259674
 31
0.0
  0
LINE
  5
8D
330
4D
100
AcDbEntity
  8
0
  6
Continuous
 62
     0
370
    30
100
AcDbLine
 10
81.835103
 20
1009.759674
 30
0.0
 11
117.735909
 21
1009.759674
 31
0.0
  0
LINE
  5
8E
330
4D
100
AcDbEntity
  8
0
  6
Continuous
 62
     0
370
    30
100
AcDbLine
 10
58.735909
 20
1009.759674
 30
0.0
 11
81.835103
 21
1009.759674
 31
0.0
  0
ARC
  5
8F
330
4D
100
AcDbEntity
  8
0
  6
Continuous
 62
     0
370
    30
100
AcDbCircle
 10
58.735974
 20
1004.259712
 30
0.0
 40
0.5000375700898221
100
AcDbArc
 50
180.004304
 51
269.986555
  0
ARC
  5
90
330
4D
100
AcDbEntity
  8
0
  6
Continuous
 62
     0
370
    30
100
AcDbCircle
 10
117.735801
 20
1004.259711
 30
0.0
 40
0.5000372535372808
100
AcDbArc
 50
270.013915
 51
359.995732
  0
ARC
  5
91
330
4D
100
AcDbEntity
  8
0
  6
Continuous
 62
     0
370
    30
100
AcDbCircle
 10
58.735974
 20
1009.259637
 30
0.0
 40
0.5000375700958215
100
AcDbArc
 50
90.013445
 51
179.995696
  0
ARC
  5
92
330
4D
100
AcDbEntity
  8
0
  6
Continuous
 62
     0
370
    30
100
AcDbCircle
 10
117.735801
 20
1009.259637
 30
0.0
 40
0.5000372535252416
100
AcDbArc
 50
0.004268
 51
89.986085
  0
LINE
  5
93
330
4D
100
AcDbEntity
  8
0
  6
Continuous
 62
     0
370
    30
100
AcDbLine
 10
118.235909
 20
1004.259674
 30
0.0
 11
118.235909
 21
1009.259674
 31
0.0
  0
LINE
  5
94
330
4D
100
AcDbEntity
  8
0
  6
Continuous
 62
     0
370
    30
100
AcDbLine
 10
58.235909
 20
1004.259674
 30
0.0
 11
58.235909
 21
1009.259674
 31
0.0
  0
ARC
  5
95
330
4D
100
AcDbEntity
  8
0
  6
Continuous
 62
     0
370
    30
100
AcDbCircle
 10
61.235668
 20
1014.759934
 30
0.0
 40
5.000259593044396
100
AcDbArc
 50
270.015628
 51
359.997026
  0
ARC
  5
96
330
4D
100
AcDbEntity
  8
0
  6
Continuous
 62
     0
370
    30
100
AcDbCircle
 10
115.236113
 20
1014.75993
 30
0.0
 40
5.000255868887859
100
AcDbArc
 50
180.002931
 51
269.984329
  0
ELLIPSE
  5
97
330
4D
100
AcDbEntity
  8
0
  6
Continuous
 62
     0
370
    30
100
AcDbEllipse
 10
88.235909
 20
768.963384
 30
0.0
 11
1.75
 21
0.0
 31
0.0
210
0.0
220
0.0
230
-1.0
 40
0.052336
 41
0.0
 42
3.141592653589774
  0
LINE
  5
98
330
4D
100
AcDbEntity
  8
0
  6
Continuous
 62
     0
370
    30
100
AcDbLine
 10
85.735909
 20
769.712357
 30
0.0
 11
85.735909
 21
1003.759674
 31
0.0
  0
ELLIPSE
  5
99
330
4D
100
AcDbEntity
  8
0
  6
Continuous
 62
     0
370
    30
100
AcDbEllipse
 10
88.235909
 20
769.712357
 30
0.0
 11
2.5
 21
0.0
 31
0.0
210
0.0
220
0.0
230
-1.0
 40
0.052336
 41
0.0
 42
3.141592653589774
  0
LINE
  5
9A
330
4D
100
AcDbEntity
  8
0
  6
Continuous
 62
     0
370
    30
100
AcDbLine
 10
85.739279
 20
769.705654
 30
0.0
 11
86.488193
 21
768.958767
 31
0.0
  0
LINE
  5
9B
330
4D
100
AcDbEntity
  8
0
  6
Continuous
 62
     0
370
    30
100
AcDbLine
 10
90.732497
 20
769.705557
 30
0.0
 11
89.983549
 21
768.958653
 31
0.0
  0
LINE
  5
9C
330
4D
100
AcDbEntity
  8
0
  6
Continuous
 62
     0
370
    30
100
AcDbLine
 10
90.735909
 20
1003.759674
 30
0.0
 11
90.735909
 21
769.712357
 31
0.0
  0
LINE
  5
9D
330
4D
100
AcDbEntity
  8
0
  6
Continuous
 62
     0
370
    30
100
AcDbLine
 10
77.235909
 20
1205.759668
 30
0.0
 11
77.235909
 21
1254.109665
 31
0.0
  0
LINE
  5
9E
330
4D
100
AcDbEntity
  8
0
  6
Continuous
 62
     0
370
    30
100
AcDbLine
 10
77.235909
 20
1387.909668
 30
0.0
 11
77.235909
 21
1297.909668
 31
0.0
  0
LINE
  5
9F
330
4D
100
AcDbEntity
  8
0
  6
Continuous
 62
     0
370
     0
100
AcDbLine
 10
77.235909
 20
1297.909668
 30
0.0
 11
99.235909
 21
1297.909668
 31
0.0
  0
LINE
  5
A0
330
4D
100
AcDbEntity
  8
0
  6
Continuous
 62
     0
370
    30
100
AcDbLine
 10
77.235909
 20
1297.909668
 30
0.0
 11
77.235909
 21
1273.909668
 31
0.0
  0
LINE
  5
A1
330
4D
100
AcDbEntity
  8
0
  6
Continuous
 62
     0
370
    30
100
AcDbLine
 10
77.235909
 20
1273.909668
 30
0.0
 11
99.235909
 21
1273.909668
 31
0.0
  0
LINE
  5
A2
330
4D
100
AcDbEntity
  8
0
  6
Continuous
 62
     0
370
    30
100
AcDbLine
 10
99.235909
 20
1273.909668
 30
0.0
 11
99.235909
 21
1297.909668
 31
0.0
  0
ARC
  5
A3
330
4D
100
AcDbEntity
  8
0
  6
Continuous
 62
     0
370
    30
100
AcDbCircle
 10
88.235634
 20
1387.909968
 30
0.0
 40
10.99972553469727
100
AcDbArc
 50
359.996742
 51
179.969148
  0
LINE
  5
A4
330
4D
100
AcDbEntity
  8
0
  6
Continuous
 62
     0
370
    30
100
AcDbLine
 10
99.235909
 20
1297.909668
 30
0.0
 11
99.235909
 21
1387.909342
 31
0.0
  0
LINE
  5
A5
330
4D
100
AcDbEntity
  8
0
  6
Continuous
 62
     0
370
    30
100
AcDbLine
 10
99.235909
 20
1254.109665
 30
0.0
 11
99.235909
 21
1205.759668
 31
0.0
  0
LINE
  5
A6
330
4D
100
AcDbEntity
  8
0
  6
Continuous
 62
     0
370
    30
100
AcDbLine
 10
93.567942
 20
1205.759668
 30
0.0
 11
109.735909
 21
1205.759668
 31
0.0
  0
LINE
  5
A7
330
4D
100
AcDbEntity
  8
0
  6
Continuous
 62
     0
370
    30
100
AcDbLine
 10
66.735909
 20
1205.759668
 30
0.0
 11
93.567942
 21
1205.759668
 31
0.0
  0
LINE
  5
A8
330
4D
100
AcDbEntity
  8
0
  6
Continuous
 62
     0
370
     0
100
AcDbLine
 10
93.691942
 20
1205.259668
 30
0.0
 11
110.235909
 21
1205.259668
 31
0.0
  0
LINE
  5
A9
330
4D
100
AcDbEntity
  8
0
  6
Continuous
 62
     0
370
     0
100
AcDbLine
 10
66.235909
 20
1205.259668
 30
0.0
 11
93.691942
 21
1205.259668
 31
0.0
  0
LINE
  5
AA
330
4D
100
AcDbEntity
  8
0
  6
Continuous
 62
     0
370
    30
100
AcDbLine
 10
93.691942
 20
1184.059668
 30
0.0
 11
110.235909
 21
1184.059668
 31
0.0
  0
LINE
  5
AB
330
4D
100
AcDbEntity
  8
0
  6
Continuous
 62
     0
370
    30
100
AcDbLine
 10
66.235909
 20
1184.059668
 30
0.0
 11
93.691942
 21
1184.059668
 31
0.0
  0
LINE
  5
AC
330
4D
100
AcDbEntity
  8
0
  6
Continuous
 62
     0
370
    30
100
AcDbLine
 10
66.535939
 20
1183.759692
 30
0.0
 11
66.235963
 21
1184.059668
 31
0.0
  0
LINE
  5
AD
330
4D
100
AcDbEntity
  8
0
  6
Continuous
 62
     0
370
    30
100
AcDbLine
 10
109.93588
 20
1183.759694
 30
0.0
 11
110.235853
 21
1184.059668
 31
0.0
  0
LINE
  5
AE
330
4D
100
AcDbEntity
  8
0
  6
Continuous
 62
     0
370
    30
100
AcDbLine
 10
110.235909
 20
1184.059668
 30
0.0
 11
110.235909
 21
1205.259668
 31
0.0
  0
LINE
  5
AF
330
4D
100
AcDbEntity
  8
0
  6
Continuous
 62
     0
370
    30
100
AcDbLine
 10
66.235909
 20
1184.059668
 30
0.0
 11
66.235909
 21
1205.259668
 31
0.0
  0
ARC
  5
B0
330
4D
100
AcDbEntity
  8
0
  6
Continuous
 62
     0
370
    30
100
AcDbCircle
 10
66.736
 20
1205.259632
 30
0.0
 40
0.5000368064018407
100
AcDbArc
 50
90.009642
 51
179.995783
  0
ARC
  5
B1
330
4D
100
AcDbEntity
  8
0
  6
Continuous
 62
     0
370
    30
100
AcDbCircle
 10
109.735816
 20
1205.259631
 30
0.0
 40
0.5000368616060308
100
AcDbArc
 50
0.004223
 51
89.98977
  0
LINE
  5
B2
330
4D
100
AcDbEntity
  8
0
  6
Continuous
 62
     0
370
     0
100
AcDbLine
 10
94.051081
 20
1254.109665
 30
0.0
 11
77.235909
 21
1254.109665
 31
0.0
  0
LINE
  5
B3
330
4D
100
AcDbEntity
  8
0
  6
Continuous
 62
     0
370
     0
100
AcDbLine
 10
99.235909
 20
1254.109665
 30
0.0
 11
94.051081
 21
1254.109665
 31
0.0
  0
LINE
  5
B4
330
4D
100
AcDbEntity
  8
0
  6
Continuous
 62
     0
370
    30
100
AcDbLine
 10
93.945351
 20
1253.909665
 30
0.0
 11
77.435909
 21
1253.909665
 31
0.0
  0
LINE
  5
B5
330
4D
100
AcDbEntity
  8
0
  6
Continuous
 62
     0
370
    30
100
AcDbLine
 10
99.035909
 20
1253.909665
 30
0.0
 11
93.945351
 21
1253.909665
 31
0.0
  0
ARC
  5
B6
330
4D
100
AcDbEntity
  8
0
  6
Continuous
 62
     0
370
    30
100
AcDbCircle
 10
99.035608
 20
1254.109966
 30
0.0
 40
0.200300886758876
100
AcDbArc
 50
270.086004
 51
359.913996
  0
ARC
  5
B7
330
4D
100
AcDbEntity
  8
0
  6
Continuous
 62
     0
370
    30
100
AcDbCircle
 10
77.436209
 20
1254.109966
 30
0.0
 40
0.2003008867580283
100
AcDbArc
 50
180.086004
 51
269.913996
  0
LINE
  5
B8
330
4D
100
AcDbEntity
  8
0
  6
Continuous
 62
     0
370
    30
100
AcDbLine
 10
99.235909
 20
1273.909665
 30
0.0
 11
99.235909
 21
1254.109665
 31
0.0
  0
LINE
  5
B9
330
4D
100
AcDbEntity
  8
0
  6
Continuous
 62
     0
370
    30
100
AcDbLine
 10
77.235909
 20
1273.909665
 30
0.0
 11
77.235909
 21
1254.109665
 31
0.0
  0
ARC
  5
BA
330
4D
100
AcDbEntity
  8
0
  6
Continuous
 62
     0
370
    30
100
AcDbCircle
 10
124.857951
 20
1150.891809
 30
0.0
 40
20.52844235784443
100
AcDbArc
 50
273.848833
 51
296.894751
  0
ARC
  5
BB
330
4D
100
AcDbEntity
  8
0
  6
Continuous
 62
     0
370
    30
100
AcDbCircle
 10
124.874324
 20
1150.795925
 30
0.0
 40
20.35932260076549
100
AcDbArc
 50
83.055553
 51
86.165328
  0
LINE
  5
BC
330
4D
100
AcDbEntity
  8
0
  6
Continuous
 62
     0
370
    30
100
AcDbLine
 10
66.235913
 20
1014.759674
 30
0.0
 11
83.462426
 21
1014.759674
 31
0.0
  0
LINE
  5
BD
330
4D
100
AcDbEntity
  8
0
  6
Continuous
 62
     0
370
    30
100
AcDbLine
 10
110.235905
 20
1014.759674
 30
0.0
 11
110.235905
 21
1079.759674
 31
0.0
  0
LINE
  5
BE
330
4D
100
AcDbEntity
  8
0
  6
Continuous
 62
     0
370
    30
100
AcDbLine
 10
66.235913
 20
1014.759674
 30
0.0
 11
66.235913
 21
1079.759674
 31
0.0
  0
LINE
  5
BF
330
4D
100
AcDbEntity
  8
0
  6
Continuous
 62
     0
370
    30
100
AcDbLine
 10
132.547453
 20
1153.234814
 30
0.0
 11
132.903194
 21
1153.234812
 31
0.0
  0
LINE
  5
C0
330
4D
100
AcDbEntity
  8
0
  6
Continuous
 62
     0
370
    30
100
AcDbLine
 10
132.903194
 20
1153.234812
 30
0.0
 11
132.903194
 21
1155.095102
 31
0.0
  0
LINE
  5
C1
330
4D
100
AcDbEntity
  8
0
  6
Continuous
 62
     0
370
    30
100
AcDbLine
 10
132.903194
 20
1155.095102
 30
0.0
 11
132.590034
 21
1155.095102
 31
0.0
  0
LINE
  5
C2
330
4D
100
AcDbEntity
  8
0
  6
Continuous
 62
     0
370
    30
100
AcDbLine
 10
132.590034
 20
1155.095102
 30
0.0
 11
132.590034
 21
1153.634738
 31
0.0
  0
ARC
  5
C3
330
4D
100
AcDbEntity
  8
0
  6
Continuous
 62
     0
370
    30
100
AcDbCircle
 10
39.782584
 20
1032.747652
 30
0.0
 40
152.4037743888633
100
AcDbArc
 50
52.485825
 51
53.382005
  0
LINE
  5
C4
330
4D
100
AcDbEntity
  8
0
  6
Continuous
 62
     0
370
    30
100
AcDbLine
 10
130.687927
 20
1155.071521
 30
0.0
 11
130.335907
 21
1155.071519
 31
0.0
  0
LINE
  5
C5
330
4D
100
AcDbEntity
  8
0
  6
Continuous
 62
     0
370
    30
100
AcDbLine
 10
130.335907
 20
1155.071519
 30
0.0
 11
130.335907
 21
1153.27314
 31
0.0
  0
LINE
  5
C6
330
4D
100
AcDbEntity
  8
0
  6
Continuous
 62
     0
370
    30
100
AcDbLine
 10
130.335907
 20
1153.27314
 30
0.0
 11
130.64886
 21
1153.27314
 31
0.0
  0
LINE
  5
C7
330
4D
100
AcDbEntity
  8
0
  6
Continuous
 62
     0
370
    30
100
AcDbLine
 10
130.64886
 20
1153.27314
 30
0.0
 11
130.64886
 21
1154.670363
 31
0.0
  0
ARC
  5
C8
330
4D
100
AcDbEntity
  8
0
  6
Continuous
 62
     0
370
    30
100
AcDbCircle
 10
27.207015
 20
1015.889536
 30
0.0
 40
173.0905346548271
100
AcDbArc
 50
52.512684
 51
53.300583
  0
LINE
  5
C9
330
4D
100
AcDbEntity
  8
0
  6
Continuous
 62
     0
370
    30
100
AcDbLine
 10
130.335544
 20
1155.318775
 30
0.0
 11
130.335544
 21
1155.649984
 31
0.0
  0
LINE
  5
CA
330
4D
100
AcDbEntity
  8
0
  6
Continuous
 62
     0
370
    30
100
AcDbLine
 10
130.335544
 20
1155.649984
 30
0.0
 11
131.924699
 21
1155.649978
 31
0.0
  0
SPLINE
  5
CB
330
4D
100
AcDbEntity
  8
0
  6
Continuous
 62
     0
370
    30
100
AcDbSpline
210
0.0
220
0.0
230
1.0
 70
     8
 71
     3
 72
    10
 73
     6
 74
     0
 42
0.0
 43
0.0
 40
0.0
 40
0.0
 40
0.0
 40
0.0
 40
0.1607383031801948
 40
0.3212678064986665
 40
0.4814978669279018
 40
0.4814978669279018
 40
0.4814978669279018
 40
0.4814978669279018
 10
131.9246989318531
 20
1155.649978050273
 30
0.0
 10
131.9782783647272
 20
1155.649969660667
 30
0.0
 10
132.0853438224427
 20
1155.65407771546
 30
0.0
 10
132.2448985265683
 20
1155.679500419529
 30
0.0
 10
132.3427471499307
 20
1155.726119173858
 30
0.0
 10
132.3868932742383
 20
1155.75539800932
 30
0.0
  0
SPLINE
  5
CC
330
4D
100
AcDbEntity
  8
0
  6
Continuous
 62
     0
370
    30
100
AcDbSpline
210
0.0
220
0.0
230
1.0
 70
     8
 71
     3
 72
    14
 73
    10
 74
     0
 42
0.0
 43
0.0
 40
0.0
 40
0.0
 40
0.0
 40
0.0
 40
0.2483063195049807
 40
0.4973415118280721
 40
0.7469539897613074
 40
0.9957853863575405
 40
1.243643039570703
 40
1.492316197299798
 40
1.742344279104773
 40
1.742344279104773
 40
1.742344279104773
 40
1.742344279104773
 10
132.3868932742429
 20
1155.755398009344
 30
0.0
 10
132.45421163368
 20
1155.802299213599
 30
0.0
 10
132.570422846298
 20
1155.926536982577
 30
0.0
 10
132.6422624589226
 20
1156.16389201448
 30
0.0
 10
132.6439746498558
 20
1156.406530763183
 30
0.0
 10
132.5808510891755
 20
1156.645044574331
 30
0.0
 10
132.4028648304951
 20
1156.828254537756
 30
0.0
 10
132.1607257109686
 20
1156.906534581819
 30
0.0
 10
131.9939853961367
 20
1156.913966346438
 30
0.0
 10
131.9106429331297
 20
1156.913783627786
 30
0.0
  0
LINE
  5
CD
330
4D
100
AcDbEntity
  8
0
  6
Continuous
 62
     0
370
    30
100
AcDbLine
 10
131.910643
 20
1156.913784
 30
0.0
 11
130.335544
 21
1156.913793
 31
0.0
  0
LINE
  5
CE
330
4D
100
AcDbEntity
  8
0
  6
Continuous
 62
     0
370
    30
100
AcDbLine
 10
130.335544
 20
1156.913793
 30
0.0
 11
130.335544
 21
1157.217142
 31
0.0
  0
LINE
  5
CF
330
4D
100
AcDbEntity
  8
0
  6
Continuous
 62
     0
370
    30
100
AcDbLine
 10
130.335544
 20
1157.217142
 30
0.0
 11
131.917671
 21
1157.217127
 31
0.0
  0
SPLINE
  5
D0
330
4D
100
AcDbEntity
  8
0
  6
Continuous
 62
     0
370
    30
100
AcDbSpline
210
0.0
220
0.0
230
1.0
 70
     8
 71
     3
 72
    10
 73
     6
 74
     0
 42
0.0
 43
0.0
 40
0.0
 40
0.0
 40
0.0
 40
0.0
 40
0.2406503714594196
 40
0.4809889051886758
 40
0.721158888053054
 40
0.721158888053054
 40
0.721158888053054
 40
0.721158888053054
 10
131.9176709415722
 20
1157.217126881584
 30
0.0
 10
131.9978877319705
 20
1157.217126875816
 30
0.0
 10
132.1587220033373
 20
1157.209904608792
 30
0.0
 10
132.393827978484
 20
1157.15337371464
 30
0.0
 10
132.5362734918741
 20
1157.078624888327
 30
0.0
 10
132.6006271169468
 20
1157.032980950194
 30
0.0
  0
SPLINE
  5
D1
330
4D
100
AcDbEntity
  8
0
  6
Continuous
 62
     0
370
    30
100
AcDbSpline
210
0.0
220
0.0
230
1.0
 70
     8
 71
     3
 72
    14
 73
    10
 74
     0
 42
0.0
 43
0.0
 40
0.0
 40
0.0
 40
0.0
 40
0.0
 40
0.2658311356644136
 40
0.5318324899200813
 40
0.7981789482599619
 40
1.064703722663622
 40
1.331140912478696
 40
1.59725580011786
 40
1.863124513833546
 40
1.863124513833546
 40
1.863124513833546
 40
1.863124513833546
 10
132.6006271169468
 20
1157.032980950194
 30
0.0
 10
132.6719894450363
 20
1156.982632909056
 30
0.0
 10
132.7992520577218
 20
1156.859003135535
 30
0.0
 10
132.9158971762438
 20
1156.624596123084
 30
0.0
 10
132.9633056452502
 20
1156.369090396289
 30
0.0
 10
132.9509573830919
 20
1156.109448716027
 30
0.0
 10
132.8834688526808
 20
1155.856953930103
 30
0.0
 10
132.7532926474121
 20
1155.626911868808
 30
0.0
 10
132.6207604938815
 20
1155.506474659428
 30
0.0
 10
132.5470902737729
 20
1155.458354328568
 30
0.0
  0
SPLINE
  5
D2
330
4D
100
AcDbEntity
  8
0
  6
Continuous
 62
     0
370
    30
100
AcDbSpline
210
0.0
220
0.0
230
1.0
 70
     8
 71
     3
 72
    10
 73
     6
 74
     0
 42
0.0
 43
0.0
 40
0.0
 40
0.0
 40
0.0
 40
0.0
 40
0.2234824778642054
 40
0.4474133988426866
 40
0.6716368634533153
 40
0.6716368634533153
 40
0.6716368634533153
 40
0.6716368634533153
 10
132.5470902737736
 20
1155.458354328568
 30
0.0
 10
132.4847836668148
 20
1155.418467427176
 30
0.0
 10
132.346896978926
 20
1155.356125260432
 30
0.0
 10
132.1239666597465
 20
1155.323895946982
 30
0.0
 10
131.9746353848244
 20
1155.318753087429
 30
0.0
 10
131.8998942304697
 20
1155.318761143342
 30
0.0
  0
LINE
  5
D3
330
4D
100
AcDbEntity
  8
0
  6
Continuous
 62
     0
370
    30
100
AcDbLine
 10
131.899894
 20
1155.318761
 30
0.0
 11
130.335544
 21
1155.318775
 31
0.0
  0
SPLINE
  5
D4
330
4D
100
AcDbEntity
  8
0
  6
Continuous
 62
     0
370
    30
100
AcDbSpline
210
0.0
220
0.0
230
1.0
 70
     8
 71
     3
 72
    25
 73
    21
 74
     0
 42
0.0
 43
0.0
 40
0.0
 40
0.0
 40
0.0
 40
0.0
 40
0.2754117203151685
 40
0.4117111493874493
 40
0.5484227172847359
 40
0.6882255408435669
 40
0.828517537529593
 40
1.101530130229451
 40
1.374996099329444
 40
1.654519371669836
 40
2.206611179020704
 40
2.483601928484152
 40
2.760074308334973
 40
3.036299766838883
 40
3.172821653322534
 40
3.311285244432745
 40
3.451140522921229
 40
3.589993566819087
 40
3.726555894954437
 40
3.865086221907652
 40
3.865086221907652
 40
3.865086221907652
 40
3.865086221907652
 10
131.0292703433789
 20
1158.818741222729
 30
0.0
 10
130.9377054663232
 20
1158.812583369211
 30
0.0
 10
130.7990779603483
 20
1158.770592995718
 30
0.0
 10
130.6638769392617
 20
1158.651707517851
 30
0.0
 10
130.6023002451116
 20
1158.534032236479
 30
0.0
 10
130.577638384906
 20
1158.404556169427
 30
0.0
 10
130.5892849127045
 20
1158.230749261202
 30
0.0
 10
130.6850434477305
 20
1158.022849368407
 30
0.0
 10
130.9178369603845
 20
1157.867396438345
 30
0.0
 10
131.2719761320108
 20
1157.763866423472
 30
0.0
 10
131.6453835198737
 20
1157.744717558264
 30
0.0
 10
132.0133398410382
 20
1157.773112691912
 30
0.0
 10
132.2821772097564
 20
1157.840907184311
 30
0.0
 10
132.4843519704859
 20
1157.95846731327
 30
0.0
 10
132.5924476086634
 20
1158.101555048356
 30
0.0
 10
132.6399614614671
 20
1158.225324755854
 30
0.0
 10
132.6566671811608
 20
1158.35606452981
 30
0.0
 10
132.6427871348444
 20
1158.486370385628
 30
0.0
 10
132.593446294321
 20
1158.608794812684
 30
0.0
 10
132.5331854572077
 20
1158.676105394216
 30
0.0
 10
132.497708810857
 20
1158.703665900428
 30
0.0
  0
ARC
  5
D5
330
4D
100
AcDbEntity
  8
0
  6
Continuous
 62
     0
370
    30
100
AcDbCircle
 10
132.161775
 20
1158.215394
 30
0.0
 40
0.5926729910151223
100
AcDbArc
 50
55.471778
 51
83.628693
  0
LINE
  5
D6
330
4D
100
AcDbEntity
  8
0
  6
Continuous
 62
     0
370
    30
100
AcDbLine
 10
132.227544
 20
1158.804406
 30
0.0
 11
132.227544
 21
1159.116946
 31
0.0
  0
SPLINE
  5
D7
330
4D
100
AcDbEntity
  8
0
  6
Continuous
 62
     0
370
    30
100
AcDbSpline
210
0.0
220
0.0
230
1.0
 70
     8
 71
     3
 72
    26
 73
    22
 74
     0
 42
0.0
 43
0.0
 40
0.0
 40
0.0
 40
0.0
 40
0.0
 40
0.4329957280319827
 40
0.6503560515467744
 40
0.8672615756275351
 40
1.305446770178559
 40
1.739098905056484
 40
1.954088279332187
 40
2.172970668810697
 40
2.61441144428683
 40
3.050370624337332
 40
3.486677011425206
 40
3.927680242198664
 40
4.146685552390935
 40
4.362090948400036
 40
4.79543586142618
 40
5.017398464029136
 40
5.237524152879461
 40
5.453487952873494
 40
5.670035285782042
 40
6.104322691876692
 40
6.104322691876692
 40
6.104322691876692
 40
6.104322691876692
 10
132.2275442535235
 20
1159.116946058569
 30
0.0
 10
132.3717630325443
 20
1159.1116919915
 30
0.0
 10
132.5903796132246
 20
1159.033403263543
 30
0.0
 10
132.7936879362631
 20
1158.839005744679
 30
0.0
 10
132.9296316030678
 20
1158.595524123338
 30
0.0
 10
132.9705954489065
 20
1158.246036850767
 30
0.0
 10
132.85287795318
 20
1157.907250221058
 30
0.0
 10
132.6563009556585
 20
1157.701282706717
 30
0.0
 10
132.4095577999549
 20
1157.549386207903
 30
0.0
 10
132.0548935042265
 20
1157.443224899609
 30
0.0
 10
131.6157485909194
 20
1157.418720940806
 30
0.0
 10
131.1775698069188
 20
1157.45531687608
 30
0.0
 10
130.8266464477546
 20
1157.572240975522
 30
0.0
 10
130.5847630008705
 20
1157.730813523603
 30
0.0
 10
130.3917349218447
 20
1157.938941020107
 30
0.0
 10
130.2964425903913
 20
1158.210807315522
 30
0.0
 10
130.2961989992075
 20
1158.485781936181
 30
0.0
 10
130.3447587711263
 20
1158.68775049519
 30
0.0
 10
130.448486341299
 20
1158.869653780512
 30
0.0
 10
130.6624565630003
 20
1159.054990700852
 30
0.0
 10
130.8845165149216
 20
1159.121080273808
 30
0.0
 10
131.029270337296
 20
1159.122511360325
 30
0.0
  0
LINE
  5
D8
330
4D
100
AcDbEntity
  8
0
  6
Continuous
 62
     0
370
    30
100
AcDbLine
 10
131.02927
 20
1159.122511
 30
0.0
 11
131.02927
 21
1158.818741
 31
0.0
  0
LINE
  5
D9
330
4D
100
AcDbEntity
  8
0
  6
Continuous
 62
     0
370
    30
100
AcDbLine
 10
132.227544
 20
1160.507322
 30
0.0
 11
132.227544
 21
1160.786188
 31
0.0
  0
SPLINE
  5
DA
330
4D
100
AcDbEntity
  8
0
  6
Continuous
 62
     0
370
    30
100
AcDbSpline
210
0.0
220
0.0
230
1.0
 70
     8
 71
     3
 72
    28
 73
    24
 74
     0
 42
0.0
 43
0.0
 40
0.0
 40
0.0
 40
0.0
 40
0.0
 40
0.420447163056052
 40
0.6302954727550846
 40
0.8408442242622233
 40
1.264356009512049
 40
1.683146518034478
 40
1.891353215850199
 40
2.103180002565582
 40
2.318745009213892
 40
2.532573572134464
 40
2.954756629199497
 40
3.377480775805025
 40
3.805430969074709
 40
4.017368875573592
 40
4.226305843304226
 40
4.645601066209493
 40
4.859869049938898
 40
5.073392086735822
 40
5.283190324930735
 40
5.492725046528274
 40
5.705976211204709
 40
5.918133441981339
 40
5.918133441981339
 40
5.918133441981339
 40
5.918133441981339
 10
132.2275442508977
 20
1160.786188273756
 30
0.0
 10
132.3675399629615
 20
1160.780387162279
 30
0.0
 10
132.5803474329491
 20
1160.717537150917
 30
0.0
 10
132.7884320817067
 20
1160.545124442731
 30
0.0
 10
132.9284072873713
 20
1160.322184884659
 30
0.0
 10
132.9717020349479
 20
1159.993421297095
 30
0.0
 10
132.8368521648507
 20
1159.681645212349
 30
0.0
 10
132.6347542085187
 20
1159.50007561626
 30
0.0
 10
132.4492539620101
 20
1159.402807093818
 30
0.0
 10
132.2474493078685
 20
1159.336136264238
 30
0.0
 10
131.96981197084
 20
1159.278963289119
 30
0.0
 10
131.6154852979452
 20
1159.259666152381
 30
0.0
 10
131.191374527111
 20
1159.293652759721
 30
0.0
 10
130.848179769719
 20
1159.390862892405
 30
0.0
 10
130.6048755041568
 20
1159.5271009298
 30
0.0
 10
130.4059334017167
 20
1159.711286375154
 30
0.0
 10
130.2967935270943
 20
1159.961558521579
 30
0.0
 10
130.2946361705895
 20
1160.219048050682
 30
0.0
 10
130.3469196435751
 20
1160.406911578542
 30
0.0
 10
130.4545907361283
 20
1160.573368497745
 30
0.0
 10
130.6195276215905
 20
1160.696395360221
 30
0.0
 10
130.8166721972755
 20
1160.770567258505
 30
0.0
 10
130.9585673492394
 20
1160.789819675794
 30
0.0
 10
131.0292703377488
 20
1160.791145514336
 30
0.0
  0
LINE
  5
DB
330
4D
100
AcDbEntity
  8
0
  6
Continuous
 62
     0
370
    30
100
AcDbLine
 10
131.02927
 20
1160.791146
 30
0.0
 11
131.02927
 21
1160.520131
 31
0.0
  0
SPLINE
  5
DC
330
4D
100
AcDbEntity
  8
0
  6
Continuous
 62
     0
370
    30
100
AcDbSpline
210
0.0
220
0.0
230
1.0
 70
     8
 71
     3
 72
    23
 73
    19
 74
     0
 42
0.0
 43
0.0
 40
0.0
 40
0.0
 40
0.0
 40
0.0
 40
0.1344406348959635
 40
0.2698087024253294
 40
0.4020113593220688
 40
0.5351093167956869
 40
0.8039622975256736
 40
1.068634646139707
 40
1.334722668476819
 40
1.605909583314183
 40
1.873103289376393
 40
2.143350905299619
 40
2.412004249781777
 40
2.680682206166634
 40
2.949290704837158
 40
3.213805505265973
 40
3.481377106834313
 40
3.74489199651304
 40
3.74489199651304
 40
3.74489199651304
 40
3.74489199651304
 10
131.0292703432632
 20
1160.520131410522
 30
0.0
 10
130.9846137395431
 20
1160.516774487118
 30
0.0
 10
130.8955118185892
 20
1160.501856914329
 30
0.0
 10
130.7708717301524
 20
1160.454546649534
 30
0.0
 10
130.6668012172113
 20
1160.375155951386
 30
0.0
 10
130.5820429888033
 20
1160.230913706458
 30
0.0
 10
130.5691602068574
 20
1160.019323918685
 30
0.0
 10
130.6989733221225
 20
1159.793507517546
 30
0.0
 10
130.9327802468849
 20
1159.659909279983
 30
0.0
 10
131.1927183798538
 20
1159.595271191071
 30
0.0
 10
131.4608564472614
 20
1159.564372465434
 30
0.0
 10
131.7298377078679
 20
1159.561460482121
 30
0.0
 10
131.9990953256709
 20
1159.579996922595
 30
0.0
 10
132.2611763924822
 20
1159.636396806937
 30
0.0
 10
132.5060636571722
 20
1159.751684009721
 30
0.0
 10
132.6525590545081
 20
1159.969651861556
 30
0.0
 10
132.6651978054237
 20
1160.219640250206
 30
0.0
 10
132.5674391088814
 20
1160.369269916573
 30
0.0
 10
132.4977088104634
 20
1160.417255770291
 30
0.0
  0
ARC
  5
DD
330
4D
100
AcDbEntity
  8
0
  6
Continuous
 62
     0
370
    30
100
AcDbCircle
 10
132.167752
 20
1159.877739
 30
0.0
 40
0.6324157082772557
100
AcDbArc
 50
58.550906
 51
84.574797
  0
LINE
  5
DE
330
4D
100
AcDbEntity
  8
0
  6
Continuous
 62
     0
370
    30
100
AcDbLine
 10
132.902987
 20
1162.001294
 30
0.0
 11
132.902987
 21
1162.22471
 31
0.0
  0
LINE
  5
DF
330
4D
100
AcDbEntity
  8
0
  6
Continuous
 62
     0
370
    30
100
AcDbLine
 10
132.902987
 20
1162.22471
 30
0.0
 11
130.335907
 21
1162.22471
 31
0.0
  0
LINE
  5
E0
330
4D
100
AcDbEntity
  8
0
  6
Continuous
 62
     0
370
    30
100
AcDbLine
 10
130.335907
 20
1162.22471
 30
0.0
 11
130.335907
 21
1162.001294
 31
0.0
  0
LINE
  5
E1
330
4D
100
AcDbEntity
  8
0
  6
Continuous
 62
     0
370
    30
100
AcDbLine
 10
130.335907
 20
1162.001294
 30
0.0
 11
131.438063
 21
1162.00129
 31
0.0
  0
LINE
  5
E2
330
4D
100
AcDbEntity
  8
0
  6
Continuous
 62
     0
370
    30
100
AcDbLine
 10
131.438063
 20
1162.00129
 30
0.0
 11
131.438063
 21
1161.197918
 31
0.0
  0
LINE
  5
E3
330
4D
100
AcDbEntity
  8
0
  6
Continuous
 62
     0
370
    30
100
AcDbLine
 10
131.438063
 20
1161.197918
 30
0.0
 11
130.335907
 21
1161.19792
 31
0.0
  0
LINE
  5
E4
330
4D
100
AcDbEntity
  8
0
  6
Continuous
 62
     0
370
    30
100
AcDbLine
 10
130.335907
 20
1161.19792
 30
0.0
 11
130.335907
 21
1160.952877
 31
0.0
  0
LINE
  5
E5
330
4D
100
AcDbEntity
  8
0
  6
Continuous
 62
     0
370
    30
100
AcDbLine
 10
130.335907
 20
1160.952877
 30
0.0
 11
132.902987
 21
1160.952877
 31
0.0
  0
LINE
  5
E6
330
4D
100
AcDbEntity
  8
0
  6
Continuous
 62
     0
370
    30
100
AcDbLine
 10
132.902987
 20
1160.952877
 30
0.0
 11
132.902987
 21
1161.19792
 31
0.0
  0
LINE
  5
E7
330
4D
100
AcDbEntity
  8
0
  6
Continuous
 62
     0
370
    30
100
AcDbLine
 10
132.902987
 20
1161.19792
 30
0.0
 11
131.743781
 21
1161.197916
 31
0.0
  0
LINE
  5
E8
330
4D
100
AcDbEntity
  8
0
  6
Continuous
 62
     0
370
    30
100
AcDbLine
 10
131.743781
 20
1161.197916
 30
0.0
 11
131.743781
 21
1162.001288
 31
0.0
  0
LINE
  5
E9
330
4D
100
AcDbEntity
  8
0
  6
Continuous
 62
     0
370
    30
100
AcDbLine
 10
131.743781
 20
1162.001288
 30
0.0
 11
132.902987
 21
1162.001294
 31
0.0
  0
LINE
  5
EA
330
4D
100
AcDbEntity
  8
0
  6
Continuous
 62
     0
370
    30
100
AcDbLine
 10
130.335907
 20
1165.237611
 30
0.0
 11
130.649066
 21
1165.23761
 31
0.0
  0
LINE
  5
EB
330
4D
100
AcDbEntity
  8
0
  6
Continuous
 62
     0
370
    30
100
AcDbLine
 10
130.649066
 20
1165.23761
 30
0.0
 11
130.649066
 21
1164.859379
 31
0.0
  0
LINE
  5
EC
330
4D
100
AcDbEntity
  8
0
  6
Continuous
 62
     0
370
    30
100
AcDbLine
 10
130.649066
 20
1164.859379
 30
0.0
 11
132.902987
 21
1164.859388
 31
0.0
  0
LINE
  5
ED
330
4D
100
AcDbEntity
  8
0
  6
Continuous
 62
     0
370
    30
100
AcDbLine
 10
132.902987
 20
1164.859388
 30
0.0
 11
132.902987
 21
1164.698287
 31
0.0
  0
LINE
  5
EE
330
4D
100
AcDbEntity
  8
0
  6
Continuous
 62
     0
370
    30
100
AcDbLine
 10
132.902987
 20
1164.698287
 30
0.0
 11
130.649066
 21
1164.698264
 31
0.0
  0
LINE
  5
EF
330
4D
100
AcDbEntity
  8
0
  6
Continuous
 62
     0
370
    30
100
AcDbLine
 10
130.649066
 20
1164.698264
 30
0.0
 11
130.649066
 21
1164.106973
 31
0.0
  0
LINE
  5
F0
330
4D
100
AcDbEntity
  8
0
  6
Continuous
 62
     0
370
    30
100
AcDbLine
 10
130.649066
 20
1164.106973
 30
0.0
 11
132.902987
 21
1164.107018
 31
0.0
  0
LINE
  5
F1
330
4D
100
AcDbEntity
  8
0
  6
Continuous
 62
     0
370
    30
100
AcDbLine
 10
132.902987
 20
1164.107018
 30
0.0
 11
132.902987
 21
1163.928231
 31
0.0
  0
LINE
  5
F2
330
4D
100
AcDbEntity
  8
0
  6
Continuous
 62
     0
370
    30
100
AcDbLine
 10
132.902987
 20
1163.928231
 30
0.0
 11
130.649066
 21
1163.928137
 31
0.0
  0
LINE
  5
F3
330
4D
100
AcDbEntity
  8
0
  6
Continuous
 62
     0
370
    30
100
AcDbLine
 10
130.649066
 20
1163.928137
 30
0.0
 11
130.649066
 21
1162.62988
 31
0.0
  0
LINE
  5
F4
330
4D
100
AcDbEntity
  8
0
  6
Continuous
 62
     0
370
    30
100
AcDbLine
 10
130.649066
 20
1162.62988
 30
0.0
 11
131.438063
 21
1162.629872
 31
0.0
  0
LINE
  5
F5
330
4D
100
AcDbEntity
  8
0
  6
Continuous
 62
     0
370
    30
100
AcDbLine
 10
131.438063
 20
1162.629872
 30
0.0
 11
131.438063
 21
1163.317024
 31
0.0
  0
LINE
  5
F6
330
4D
100
AcDbEntity
  8
0
  6
Continuous
 62
     0
370
    30
100
AcDbLine
 10
131.438063
 20
1163.317024
 30
0.0
 11
131.743781
 21
1163.317037
 31
0.0
  0
LINE
  5
F7
330
4D
100
AcDbEntity
  8
0
  6
Continuous
 62
     0
370
    30
100
AcDbLine
 10
131.743781
 20
1163.317037
 30
0.0
 11
131.743781
 21
1162.629876
 31
0.0
  0
LINE
  5
F8
330
4D
100
AcDbEntity
  8
0
  6
Continuous
 62
     0
370
    30
100
AcDbLine
 10
131.743781
 20
1162.629876
 30
0.0
 11
132.590034
 21
1162.62988
 31
0.0
  0
LINE
  5
F9
330
4D
100
AcDbEntity
  8
0
  6
Continuous
 62
     0
370
    30
100
AcDbLine
 10
132.590034
 20
1162.62988
 30
0.0
 11
132.590034
 21
1163.366195
 31
0.0
  0
LINE
  5
FA
330
4D
100
AcDbEntity
  8
0
  6
Continuous
 62
     0
370
    30
100
AcDbLine
 10
132.590034
 20
1163.366195
 30
0.0
 11
132.902987
 21
1163.366312
 31
0.0
  0
LINE
  5
FB
330
4D
100
AcDbEntity
  8
0
  6
Continuous
 62
     0
370
    30
100
AcDbLine
 10
132.902987
 20
1163.366312
 30
0.0
 11
132.902987
 21
1162.415274
 31
0.0
  0
LINE
  5
FC
330
4D
100
AcDbEntity
  8
0
  6
Continuous
 62
     0
370
    30
100
AcDbLine
 10
132.902987
 20
1162.415274
 30
0.0
 11
130.335907
 21
1162.415274
 31
0.0
  0
LINE
  5
FD
330
4D
100
AcDbEntity
  8
0
  6
Continuous
 62
     0
370
    30
100
AcDbLine
 10
130.335907
 20
1162.415274
 30
0.0
 11
130.335907
 21
1165.237611
 31
0.0
  0
LINE
  5
FE
330
4D
100
AcDbEntity
  8
0
  6
Continuous
 62
     0
370
    30
100
AcDbLine
 10
132.902987
 20
1165.350402
 30
0.0
 11
132.902987
 21
1165.497756
 31
0.0
  0
LINE
  5
FF
330
4D
100
AcDbEntity
  8
0
  6
Continuous
 62
     0
370
    30
100
AcDbLine
 10
132.902987
 20
1165.497756
 30
0.0
 11
130.335907
 21
1165.497756
 31
0.0
  0
LINE
  5
100
330
4D
100
AcDbEntity
  8
0
  6
Continuous
 62
     0
370
    30
100
AcDbLine
 10
130.335907
 20
1165.497756
 30
0.0
 11
130.335907
 21
1165.350402
 31
0.0
  0
LINE
  5
101
330
4D
100
AcDbEntity
  8
0
  6
Continuous
 62
     0
370
    30
100
AcDbLine
 10
130.335907
 20
1165.350402
 30
0.0
 11
132.902987
 21
1165.350402
 31
0.0
  0
LINE
  5
102
330
4D
100
AcDbEntity
  8
0
  6
Continuous
 62
     0
370
    30
100
AcDbLine
 10
132.227472
 20
1165.834812
 30
0.0
 11
132.227472
 21
1165.695044
 31
0.0
  0
LINE
  5
103
330
4D
100
AcDbEntity
  8
0
  6
Continuous
 62
     0
370
    30
100
AcDbLine
 10
132.227472
 20
1165.695044
 30
0.0
 11
132.902987
 21
1165.695044
 31
0.0
  0
LINE
  5
104
330
4D
100
AcDbEntity
  8
0
  6
Continuous
 62
     0
370
    30
100
AcDbLine
 10
132.902987
 20
1165.695044
 30
0.0
 11
132.902987
 21
1165.834812
 31
0.0
  0
LINE
  5
105
330
4D
100
AcDbEntity
  8
0
  6
Continuous
 62
     0
370
    30
100
AcDbLine
 10
132.902987
 20
1165.834812
 30
0.0
 11
132.227472
 21
1165.834812
 31
0.0
  0
ENDBLK
  5
107
330
4D
100
AcDbEntity
  8
0
100
AcDbBlockEnd
  0
BLOCK
  5
195
330
109
100
AcDbEntity
  8
0
100
AcDbBlockBegin
  2
b
 70
     0
 10
49.903439
 20
782.306641
 30
0.0
  3
b
  1

  0
LINE
  5
10A
330
109
100
AcDbEntity
  8
0
  6
Continuous
 62
     0
370
    30
100
AcDbLine
 10
99.235907
 20
539.294844
 30
0.0
 11
116.235909
 21
539.294844
 31
0.0
  0
LINE
  5
10B
330
109
100
AcDbEntity
  8
0
  6
Continuous
 62
     0
370
     0
100
AcDbLine
 10
116.235907
 20
561.794843
 30
0.0
 11
116.235909
 21
539.294844
 31
0.0
  0
LINE
  5
10C
330
109
100
AcDbEntity
  8
0
  6
Continuous
 62
     0
370
     0
100
AcDbLine
 10
110.735907
 20
561.794843
 30
0.0
 11
116.235907
 21
561.794843
 31
0.0
  0
LINE
  5
10D
330
109
100
AcDbEntity
  8
0
  6
Continuous
 62
     0
370
    30
100
AcDbLine
 10
116.235909
 20
584.294844
 30
0.0
 11
88.235907
 21
584.294843
 31
0.0
  0
LINE
  5
10E
330
109
100
AcDbEntity
  8
0
  6
Continuous
 62
     0
370
     0
100
AcDbLine
 10
116.235909
 20
584.294844
 30
0.0
 11
116.235907
 21
561.794843
 31
0.0
  0
LINE
  5
10F
330
109
100
AcDbEntity
  8
0
  6
Continuous
 62
     0
370
     0
100
AcDbLine
 10
116.235907
 20
561.794843
 30
0.0
 11
118.543841
 21
561.794843
 31
0.0
  0
SPLINE
  5
110
330
109
100
AcDbEntity
  8
0
  6
Continuous
 62
     0
370
     0
100
AcDbSpline
210
0.0
220
0.0
230
1.0
 70
     8
 71
     3
 72
    17
 73
    13
 74
     0
 42
0.0
 43
0.0
 40
0.0000008786908991
 40
0.0000008786908991
 40
0.0000008786908991
 40
0.0000008786908991
 40
1.722041878365568
 40
4.592242313609074
 40
9.497910929737008
 40
14.56034194697127
 40
19.62281862147591
 40
24.68543702431104
 40
27.84976335440597
 40
29.74847879832352
 40
33.12406851476702
 40
35.3434206042598
 40
35.3434206042598
 40
35.3434206042598
 40
35.3434206042598
 10
118.3796920234424
 20
584.2948440096445
 30
0.0
 10
118.3781731364583
 20
584.294843962127
 30
0.0
 10
118.3749651705618
 20
584.2362246128721
 30
0.0
 10
118.370599679778
 20
583.7927274423207
 30
0.0
 10
118.3733764643144
 20
582.4668756957435
 30
0.0
 10
118.3872150409707
 20
579.8978450163467
 30
0.0
 10
118.4122770989136
 20
576.3894730557776
 30
0.0
 10
118.4428413522492
 20
572.6757240243207
 30
0.0
 10
118.4701152386547
 20
569.5636955611346
 30
0.0
 10
118.4947552443953
 20
566.866608697934
 30
0.0
 10
118.5184663082873
 20
564.3997253656871
 30
0.0
 10
118.5364881134326
 20
562.5342953790059
 30
0.0
 10
118.5438407080714
 20
561.79484301869
 30
0.0
  0
LINE
  5
111
330
109
100
AcDbEntity
  8
0
  6
Continuous
 62
     0
370
    30
100
AcDbLine
 10
118.379692
 20
584.294844
 30
0.0
 11
116.235909
 21
584.294844
 31
0.0
  0
LINE
  5
112
330
109
100
AcDbEntity
  8
0
  6
Continuous
 62
     0
370
    30
100
AcDbLine
 10
118.827203
 20
539.294844
 30
0.0
 11
116.235909
 21
539.294844
 31
0.0
  0
SPLINE
  5
113
330
109
100
AcDbEntity
  8
0
  6
Continuous
 62
     0
370
     0
100
AcDbSpline
210
0.0
220
0.0
230
1.0
 70
     8
 71
     3
 72
    17
 73
    13
 74
     0
 42
0.0
 43
0.0
 40
0.0
 40
0.0
 40
0.0
 40
0.0
 40
1.706339016653732
 40
4.550383530542367
 40
9.442487500490753
 40
14.50535991567011
 40
19.56799959870319
 40
24.63039839870083
 40
27.79445294476594
 40
29.69293249906594
 40
33.06807680507281
 40
35.34401262602155
 40
35.34401262602155
 40
35.34401262602155
 40
35.34401262602155
 10
118.5438407080714
 20
561.7948430186925
 30
0.0
 10
118.5494946356774
 20
561.2262260446214
 30
0.0
 10
118.5650096623767
 20
559.7092676405772
 30
0.0
 10
118.5967191024871
 20
556.5861888937009
 30
0.0
 10
118.6413007336526
 20
552.5004626227528
 30
0.0
 10
118.6910032966498
 20
548.159655081098
 30
0.0
 10
118.7370542090072
 20
544.4568720158895
 30
0.0
 10
118.7716781692264
 20
541.9819555395553
 30
0.0
 10
118.7930346778543
 20
540.6464412083906
 30
0.0
 10
118.8082264488907
 20
539.8324158269687
 30
0.0
 10
118.8195715882121
 20
539.3901753953105
 30
0.0
 10
118.8251949397173
 20
539.2948440052966
 30
0.0
 10
118.8272032728082
 20
539.2948439947462
 30
0.0
  0
ARC
  5
114
330
109
100
AcDbEntity
  8
0
  6
Continuous
 62
     0
370
    30
100
AcDbCircle
 10
88.235612
 20
561.794548
 30
0.0
 40
22.50029451226934
100
AcDbArc
 50
0.00075
 51
89.99925
  0
ARC
  5
115
330
109
100
AcDbEntity
  8
0
  6
Continuous
 62
     0
370
    30
100
AcDbCircle
 10
88.235237
 20
561.795318
 30
0.0
 40
22.50066973561767
100
AcDbArc
 50
299.268577
 51
359.998791
  0
LINE
  5
116
330
109
100
AcDbEntity
  8
0
  6
Continuous
 62
     0
370
    30
100
AcDbLine
 10
126.235907
 20
561.783117
 30
0.0
 11
126.235907
 21
583.883117
 31
0.0
  0
LINE
  5
117
330
109
100
AcDbEntity
  8
0
  6
Continuous
 62
     0
370
    30
100
AcDbLine
 10
126.235907
 20
539.683117
 30
0.0
 11
126.235907
 21
561.783117
 31
0.0
  0
ARC
  5
118
330
109
100
AcDbEntity
  8
0
  6
Continuous
 62
     0
370
    30
100
AcDbCircle
 10
88.235907
 20
561.794843
 30
0.0
 40
22.50000000745057
100
AcDbArc
 50
90.0
 51
240.732422
  0
ARC
  5
119
330
109
100
AcDbEntity
  8
0
  6
Continuous
 62
     0
370
    30
100
AcDbCircle
 10
88.235907
 20
561.794843
 30
0.0
 40
22.12614672386328
100
AcDbArc
 50
180.0
 51
240.188417
  0
ARC
  5
11A
330
109
100
AcDbEntity
  8
0
  6
Continuous
 62
     0
370
    30
100
AcDbCircle
 10
88.235907
 20
561.794843
 30
0.0
 40
22.12614672386328
100
AcDbArc
 50
299.811583
 51
0.0
  0
ARC
  5
11B
330
109
100
AcDbEntity
  8
0
  6
Continuous
 62
     0
370
    30
100
AcDbCircle
 10
88.235907
 20
561.794843
 30
0.0
 40
22.12614672386328
100
AcDbArc
 50
0.0
 51
180.0
  0
LINE
  5
11C
330
109
100
AcDbEntity
  8
0
  6
Continuous
 62
     0
370
    30
100
AcDbLine
 10
118.379701
 20
584.294844
 30
0.0
 11
126.235907
 21
583.883117
 31
0.0
  0
LINE
  5
11D
330
109
100
AcDbEntity
  8
0
  6
Continuous
 62
     0
370
    30
100
AcDbLine
 10
118.827212
 20
539.294844
 30
0.0
 11
126.235907
 21
539.683117
 31
0.0
  0
ARC
  5
11E
330
109
100
AcDbEntity
  8
0
  6
Continuous
 62
     0
370
    30
100
AcDbCircle
 10
143.335908
 20
561.794826
 30
0.0
 40
6.5
100
AcDbArc
 50
97.531999
 51
277.531999
  0
ARC
  5
11F
330
109
100
AcDbEntity
  8
0
  6
Continuous
 62
     0
370
    30
100
AcDbCircle
 10
143.335908
 20
561.794826
 30
0.0
 40
6.5
100
AcDbArc
 50
277.531999
 51
97.531999
  0
LINE
  5
120
330
109
100
AcDbEntity
  8
0
  6
Continuous
 62
     0
370
     0
100
AcDbLine
 10
149.835908
 20
561.794836
 30
0.0
 11
154.819212
 21
561.794836
 31
0.0
  0
SPLINE
  5
121
330
109
100
AcDbEntity
  8
0
  6
Continuous
 62
     0
370
     0
100
AcDbSpline
210
0.0
220
0.0
230
1.0
 70
     8
 71
     3
 72
    21
 73
    17
 74
     0
 42
0.0
 43
0.0
 40
0.0
 40
0.0
 40
0.0
 40
0.0
 40
3.004295903646847
 40
6.017293057819065
 40
8.458208939344342
 40
9.93455495835826
 40
12.21528003184906
 40
14.06340335768629
 40
16.08163160756787
 40
18.25474785008328
 40
19.90381535291387
 40
21.84159665188864
 40
24.58282184243805
 40
27.2451884162121
 40
30.59472225158421
 40
33.05208433184013
 40
33.05208433184013
 40
33.05208433184013
 40
33.05208433184013
 10
131.8525984997819
 20
561.7948368556265
 30
0.0
 10
131.8525984997819
 20
562.6946003590928
 30
0.0
 10
132.1779941615817
 20
564.4958886758528
 30
0.0
 10
133.4857882884696
 20
566.7852361583294
 30
0.0
 10
135.084870531014
 20
568.3547968687981
 30
0.0
 10
136.7976300412988
 20
569.5173912093651
 30
0.0
 10
138.5625867522099
 20
570.3380596673502
 30
0.0
 10
140.6928779064788
 20
570.9199335891278
 30
0.0
 10
142.8988793648386
 20
571.1720257352179
 30
0.0
 10
145.0547179664534
 20
571.063624595593
 30
0.0
 10
147.1039824120771
 20
570.6476268069651
 30
0.0
 10
149.2118330598463
 20
569.8923351922859
 30
0.0
 10
151.3509635313844
 20
568.6092246935099
 30
0.0
 10
153.3506173453128
 20
566.6093791115762
 30
0.0
 10
154.5635858241444
 20
564.2699704497688
 30
0.0
 10
154.8192116503645
 20
562.5307978879376
 30
0.0
 10
154.8192116503645
 20
561.7948368556265
 30
0.0
  0
LINE
  5
122
330
109
100
AcDbEntity
  8
0
  6
Continuous
 62
     0
370
     0
100
AcDbLine
 10
131.852598
 20
561.794836
 30
0.0
 11
136.835905
 21
561.794836
 31
0.0
  0
SPLINE
  5
123
330
109
100
AcDbEntity
  8
0
  6
Continuous
 62
     0
370
     0
100
AcDbSpline
210
0.0
220
0.0
230
1.0
 70
     8
 71
     3
 72
    21
 73
    17
 74
     0
 42
0.0
 43
0.0
 40
0.0
 40
0.0
 40
0.0
 40
0.0
 40
3.004295903647487
 40
6.01729305781994
 40
8.458208939345289
 40
9.934554958359266
 40
12.21528003185013
 40
14.06340335768736
 40
16.08163160756893
 40
18.25474785008434
 40
19.90381535291495
 40
21.8415966518898
 40
24.58282184243938
 40
27.24518841621357
 40
30.59472225158563
 40
33.05208433184011
 40
33.05208433184011
 40
33.05208433184011
 40
33.05208433184011
 10
154.8192116503645
 20
561.7948368556265
 30
0.0
 10
154.8192116503645
 20
560.89507335216
 30
0.0
 10
154.4938159885646
 20
559.093785073901
 30
0.0
 10
153.1860218616764
 20
556.8044377355127
 30
0.0
 10
151.5869396191318
 20
555.2348771767674
 30
0.0
 10
149.8741801088468
 20
554.0722829723475
 30
0.0
 10
148.1092233979354
 20
553.2516146261623
 30
0.0
 10
145.9789322436665
 20
552.6697407918497
 30
0.0
 10
143.7729307853066
 20
552.4176486858678
 30
0.0
 10
141.6170921836919
 20
552.526049808026
 30
0.0
 10
139.5678277380682
 20
552.942047532488
 30
0.0
 10
137.459977090299
 20
553.6973390382268
 30
0.0
 10
135.320846618761
 20
554.9804493756412
 30
0.0
 10
133.3211928048328
 20
556.9802947658412
 30
0.0
 10
132.1082243260019
 20
559.3197032915018
 30
0.0
 10
131.8525984997819
 20
561.0588758233157
 30
0.0
 10
131.8525984997819
 20
561.7948368556265
 30
0.0
  0
ARC
  5
124
330
109
100
AcDbEntity
  8
0
  6
Continuous
 62
     0
370
    30
100
AcDbCircle
 10
127.52863
 20
580.875567
 30
0.0
 40
2.919273344350485
100
AcDbArc
 50
90.00106
 51
93.78531
  0
ARC
  5
125
330
109
100
AcDbEntity
  8
0
  6
Continuous
 62
     0
370
    30
100
AcDbCircle
 10
127.528627
 20
542.714114
 30
0.0
 40
2.919273682631333
100
AcDbArc
 50
266.214743
 51
269.99866
  0
LINE
  5
126
330
109
100
AcDbEntity
  8
0
  6
Continuous
 62
     0
370
    30
100
AcDbLine
 10
127.335905
 20
583.788472
 30
0.0
 11
127.335905
 21
561.794837
 31
0.0
  0
LINE
  5
127
330
109
100
AcDbEntity
  8
0
  6
Continuous
 62
     0
370
    30
100
AcDbLine
 10
127.335905
 20
561.794837
 30
0.0
 11
127.335905
 21
539.801209
 31
0.0
  0
LINE
  5
128
330
109
100
AcDbEntity
  8
0
  6
Continuous
 62
     0
370
     0
100
AcDbLine
 10
157.835905
 20
583.794841
 30
0.0
 11
157.835905
 21
561.794837
 31
0.0
  0
LINE
  5
129
330
109
100
AcDbEntity
  8
0
  6
Continuous
 62
     0
370
     0
100
AcDbLine
 10
157.835905
 20
561.794837
 30
0.0
 11
157.835905
 21
539.794841
 31
0.0
  0
LINE
  5
12A
330
109
100
AcDbEntity
  8
0
  6
Continuous
 62
     0
370
    30
100
AcDbLine
 10
158.335905
 20
561.794837
 30
0.0
 11
158.335905
 21
540.294841
 31
0.0
  0
LINE
  5
12B
330
109
100
AcDbEntity
  8
0
  6
Continuous
 62
     0
370
    30
100
AcDbLine
 10
158.335905
 20
583.294841
 30
0.0
 11
158.335905
 21
561.794837
 31
0.0
  0
ARC
  5
12C
330
109
100
AcDbEntity
  8
0
  6
Continuous
 62
     0
370
    30
100
AcDbCircle
 10
157.835868
 20
583.294804
 30
0.0
 40
0.5000369491425254
100
AcDbArc
 50
0.008983
 51
89.995767
  0
ARC
  5
12D
330
109
100
AcDbEntity
  8
0
  6
Continuous
 62
     0
370
    30
100
AcDbCircle
 10
157.835868
 20
540.294878
 30
0.0
 40
0.5000369491412113
100
AcDbArc
 50
270.004233
 51
359.991017
  0
LINE
  5
12E
330
109
100
AcDbEntity
  8
0
  6
Continuous
 62
     0
370
    30
100
AcDbLine
 10
127.528559
 20
539.794841
 30
0.0
 11
157.835905
 21
539.794841
 31
0.0
  0
LINE
  5
12F
330
109
100
AcDbEntity
  8
0
  6
Continuous
 62
     0
370
    30
100
AcDbLine
 10
127.528561
 20
583.794841
 30
0.0
 11
157.835905
 21
583.794841
 31
0.0
  0
ARC
  5
130
330
109
100
AcDbEntity
  8
0
  6
Continuous
 62
     0
370
     0
100
AcDbCircle
 10
88.235907
 20
561.79485
 30
0.0
 40
27.0
100
AcDbArc
 50
56.44269
 51
77.468492
  0
ARC
  5
131
330
109
100
AcDbEntity
  8
0
  6
Continuous
 62
     0
370
     0
100
AcDbCircle
 10
88.235907
 20
561.79485
 30
0.0
 40
27.0
100
AcDbArc
 50
294.042076
 51
303.55731
  0
ARC
  5
132
330
109
100
AcDbEntity
  8
0
  6
Continuous
 62
     0
370
     0
100
AcDbCircle
 10
88.235907
 20
561.79485
 30
0.0
 40
27.0
100
AcDbArc
 50
95.312775
 51
245.957924
  0
ARC
  5
133
330
109
100
AcDbEntity
  8
0
  6
Continuous
 62
     0
370
     0
100
AcDbCircle
 10
88.235907
 20
561.79485
 30
0.0
 40
27.0
100
AcDbArc
 50
77.468492
 51
84.687225
  0
ARC
  5
134
330
109
100
AcDbEntity
  8
0
  6
Continuous
 62
     0
370
    30
100
AcDbCircle
 10
88.235907
 20
561.79485
 30
0.0
 40
30.0
100
AcDbArc
 50
94.780192
 51
248.489812
  0
ARC
  5
135
330
109
100
AcDbEntity
  8
0
  6
Continuous
 62
     0
370
    30
100
AcDbCircle
 10
88.235907
 20
561.79485
 30
0.0
 40
30.0
100
AcDbArc
 50
77.468492
 51
85.219808
  0
ARC
  5
136
330
109
100
AcDbEntity
  8
0
  6
Continuous
 62
     0
370
    30
100
AcDbCircle
 10
88.235907
 20
561.79485
 30
0.0
 40
30.0
100
AcDbArc
 50
48.590378
 51
77.468492
  0
ARC
  5
137
330
109
100
AcDbEntity
  8
0
  6
Continuous
 62
     0
370
    30
100
AcDbCircle
 10
88.235907
 20
561.79485
 30
0.0
 40
30.0
100
AcDbArc
 50
291.510188
 51
311.409622
  0
ARC
  5
138
330
109
100
AcDbEntity
  8
0
  6
Continuous
 62
     0
370
     0
100
AcDbCircle
 10
88.235907
 20
561.79485
 30
0.0
 40
29.5
100
AcDbArc
 50
49.703857
 51
77.468492
  0
ARC
  5
139
330
109
100
AcDbEntity
  8
0
  6
Continuous
 62
     0
370
     0
100
AcDbCircle
 10
88.235907
 20
561.79485
 30
0.0
 40
29.5
100
AcDbArc
 50
291.893428
 51
310.296143
  0
ARC
  5
13A
330
109
100
AcDbEntity
  8
0
  6
Continuous
 62
     0
370
     0
100
AcDbCircle
 10
88.235907
 20
561.79485
 30
0.0
 40
29.5
100
AcDbArc
 50
94.861405
 51
248.106572
  0
ARC
  5
13B
330
109
100
AcDbEntity
  8
0
  6
Continuous
 62
     0
370
     0
100
AcDbCircle
 10
88.235907
 20
561.79485
 30
0.0
 40
29.5
100
AcDbArc
 50
77.468492
 51
85.138595
  0
LINE
  5
13C
330
109
100
AcDbEntity
  8
0
  6
Continuous
 62
     0
370
    30
100
AcDbLine
 10
85.735907
 20
584.155526
 30
0.0
 11
85.735907
 21
588.727752
 31
0.0
  0
ELLIPSE
  5
13D
330
109
100
AcDbEntity
  8
0
  6
Continuous
 62
     0
370
     0
100
AcDbEllipse
 10
88.235907
 20
588.727752
 30
0.0
 11
2.5
 21
0.0
 31
0.0
210
0.0
220
0.0
230
-1.0
 40
0.906308
 41
0.0
 42
3.14159265358979
  0
LINE
  5
13E
330
109
100
AcDbEntity
  8
0
  6
Continuous
 62
     0
370
    30
100
AcDbLine
 10
85.735907
 20
588.727752
 30
0.0
 11
85.735907
 21
593.712445
 31
0.0
  0
LINE
  5
13F
330
109
100
AcDbEntity
  8
0
  6
Continuous
 62
     0
370
     0
100
AcDbLine
 10
90.735907
 20
593.712445
 30
0.0
 11
85.735907
 21
593.712445
 31
0.0
  0
LINE
  5
140
330
109
100
AcDbEntity
  8
0
  6
Continuous
 62
     0
370
    30
100
AcDbLine
 10
89.235907
 20
605.207695
 30
0.0
 11
87.235907
 21
605.207695
 31
0.0
  0
LINE
  5
141
330
109
100
AcDbEntity
  8
0
  6
Continuous
 62
     0
370
    30
100
AcDbLine
 10
85.735907
 20
593.712445
 30
0.0
 11
85.735907
 21
603.707695
 31
0.0
  0
LINE
  5
142
330
109
100
AcDbEntity
  8
0
  6
Continuous
 62
     0
370
     0
100
AcDbLine
 10
90.735907
 20
603.707695
 30
0.0
 11
85.735907
 21
603.707695
 31
0.0
  0
ARC
  5
143
330
109
100
AcDbEntity
  8
0
  6
Continuous
 62
     0
370
    30
100
AcDbCircle
 10
87.235907
 20
603.707695
 30
0.0
 40
1.5
100
AcDbArc
 50
90.0
 51
180.0
  0
ARC
  5
144
330
109
100
AcDbEntity
  8
0
  6
Continuous
 62
     0
370
    30
100
AcDbCircle
 10
89.236763
 20
603.708552
 30
0.0
 40
1.499143644201526
100
AcDbArc
 50
359.967262
 51
90.032738
  0
LINE
  5
145
330
109
100
AcDbEntity
  8
0
  6
Continuous
 62
     0
370
    30
100
AcDbLine
 10
90.735907
 20
603.707695
 30
0.0
 11
90.735907
 21
593.712445
 31
0.0
  0
LINE
  5
146
330
109
100
AcDbEntity
  8
0
  6
Continuous
 62
     0
370
    30
100
AcDbLine
 10
90.735907
 20
593.712445
 30
0.0
 11
90.735907
 21
588.727752
 31
0.0
  0
LINE
  5
147
330
109
100
AcDbEntity
  8
0
  6
Continuous
 62
     0
370
    30
100
AcDbLine
 10
90.735907
 20
588.727752
 30
0.0
 11
90.735907
 21
584.294846
 31
0.0
  0
ARC
  5
148
330
109
100
AcDbEntity
  8
0
  6
Continuous
 62
     0
370
    30
100
AcDbCircle
 10
88.235907
 20
561.794838
 30
0.0
 40
11.0
100
AcDbArc
 50
0.0
 51
180.0
  0
LINE
  5
149
330
109
100
AcDbEntity
  8
0
  6
Continuous
 62
     0
370
    30
100
AcDbLine
 10
77.235907
 20
561.794838
 30
0.0
 11
77.235907
 21
381.794838
 31
0.0
  0
ARC
  5
14A
330
109
100
AcDbEntity
  8
0
  6
Continuous
 62
     0
370
    30
100
AcDbCircle
 10
88.235907
 20
381.794838
 30
0.0
 40
11.0
100
AcDbArc
 50
180.0
 51
360.0
  0
LINE
  5
14B
330
109
100
AcDbEntity
  8
0
  6
Continuous
 62
     0
370
    30
100
AcDbLine
 10
99.235907
 20
381.794841
 30
0.0
 11
99.235907
 21
561.794838
 31
0.0
  0
ARC
  5
14C
330
109
100
AcDbEntity
  8
0
  6
Continuous
 62
     0
370
    30
100
AcDbCircle
 10
88.235907
 20
561.794842
 30
0.0
 40
11.25
100
AcDbArc
 50
347.898508
 51
104.359285
  0
ARC
  5
14D
330
109
100
AcDbEntity
  8
0
  6
Continuous
 62
     0
370
    30
100
AcDbCircle
 10
88.235907
 20
561.794842
 30
0.0
 40
11.25
100
AcDbArc
 50
104.359285
 51
192.101492
  0
ARC
  5
14E
330
109
100
AcDbEntity
  8
0
  6
Continuous
 62
     0
370
     0
100
AcDbCircle
 10
88.235907
 20
561.794842
 30
0.0
 40
21.5
100
AcDbArc
 50
300.772325
 51
104.359285
  0
ARC
  5
14F
330
109
100
AcDbEntity
  8
0
  6
Continuous
 62
     0
370
     0
100
AcDbCircle
 10
88.235907
 20
561.794842
 30
0.0
 40
21.5
100
AcDbArc
 50
104.359285
 51
239.227675
  0
ARC
  5
150
330
109
100
AcDbEntity
  8
0
  6
Continuous
 62
     0
370
    30
100
AcDbCircle
 10
88.235907
 20
561.794842
 30
0.0
 40
22.0
100
AcDbArc
 50
300.0
 51
104.359285
  0
ARC
  5
151
330
109
100
AcDbEntity
  8
0
  6
Continuous
 62
     0
370
    30
100
AcDbCircle
 10
88.235907
 20
561.794842
 30
0.0
 40
22.0
100
AcDbArc
 50
104.359285
 51
240.0
  0
ARC
  5
152
330
109
100
AcDbEntity
  8
0
  6
Continuous
 62
     0
370
    30
100
AcDbCircle
 10
124.865503
 20
561.733721
 30
0.0
 40
20.42760338744059
100
AcDbArc
 50
84.746492
 51
86.153372
  0
LINE
  5
153
330
109
100
AcDbEntity
  8
0
  6
Continuous
 62
     0
370
    30
100
AcDbLine
 10
126.735907
 20
582.105207
 30
0.0
 11
126.735907
 21
581.897364
 31
0.0
  0
ARC
  5
154
330
109
100
AcDbEntity
  8
0
  6
Continuous
 62
     0
370
    30
100
AcDbCircle
 10
124.865512
 20
561.55569
 30
0.0
 40
20.42748326543045
100
AcDbArc
 50
84.746488
 51
86.153376
  0
LINE
  5
155
330
109
100
AcDbEntity
  8
0
  6
Continuous
 62
     0
370
    30
100
AcDbLine
 10
126.735907
 20
582.105207
 30
0.0
 11
127.335905
 21
582.041266
 31
0.0
  0
ARC
  5
156
330
109
100
AcDbEntity
  8
0
  6
Continuous
 62
     0
370
    30
100
AcDbCircle
 10
124.874322
 20
561.758586
 30
0.0
 40
20.35932260074868
100
AcDbArc
 50
273.834672
 51
276.944447
  0
LINE
  5
157
330
109
100
AcDbEntity
  8
0
  6
Continuous
 62
     0
370
    30
100
AcDbLine
 10
132.547451
 20
539.934502
 30
0.0
 11
132.903192
 21
539.934519
 31
0.0
  0
LINE
  5
158
330
109
100
AcDbEntity
  8
0
  6
Continuous
 62
     0
370
    30
100
AcDbLine
 10
132.903192
 20
539.934519
 30
0.0
 11
132.903192
 21
540.226253
 31
0.0
  0
LINE
  5
159
330
109
100
AcDbEntity
  8
0
  6
Continuous
 62
     0
370
    30
100
AcDbLine
 10
132.903192
 20
540.226253
 30
0.0
 11
132.590033
 21
540.226254
 31
0.0
  0
LINE
  5
15A
330
109
100
AcDbEntity
  8
0
  6
Continuous
 62
     0
370
    30
100
AcDbLine
 10
132.590033
 20
540.226254
 30
0.0
 11
132.590033
 21
539.983525
 31
0.0
  0
LINE
  5
15B
330
109
100
AcDbEntity
  8
0
  6
Continuous
 62
     0
370
    30
100
AcDbLine
 10
130.687925
 20
540.221511
 30
0.0
 11
130.335905
 21
540.221523
 31
0.0
  0
LINE
  5
15C
330
109
100
AcDbEntity
  8
0
  6
Continuous
 62
     0
370
    30
100
AcDbLine
 10
130.335905
 20
540.221523
 30
0.0
 11
130.335905
 21
539.938886
 31
0.0
  0
LINE
  5
15D
330
109
100
AcDbEntity
  8
0
  6
Continuous
 62
     0
370
    30
100
AcDbLine
 10
130.335905
 20
539.938886
 30
0.0
 11
130.648858
 21
539.93889
 31
0.0
  0
LINE
  5
15E
330
109
100
AcDbEntity
  8
0
  6
Continuous
 62
     0
370
    30
100
AcDbLine
 10
130.335542
 20
540.345258
 30
0.0
 11
131.924697
 21
540.345286
 31
0.0
  0
SPLINE
  5
15F
330
109
100
AcDbEntity
  8
0
  6
Continuous
 62
     0
370
    30
100
AcDbSpline
210
0.0
220
0.0
230
1.0
 70
     8
 71
     3
 72
    10
 73
     6
 74
     0
 42
0.0
 43
0.0
 40
0.0
 40
0.0
 40
0.0
 40
0.0
 40
0.1607383031801948
 40
0.3212678064986665
 40
0.4814978669279018
 40
0.4814978669279018
 40
0.4814978669279018
 40
0.4814978669279018
 10
131.9246970245044
 20
540.3452863110775
 30
0.0
 10
131.9782764573785
 20
540.345295924578
 30
0.0
 10
132.085341915094
 20
540.3462459639844
 30
0.0
 10
132.2448966192196
 20
540.3520225307664
 30
0.0
 10
132.342745242582
 20
540.3627296094953
 30
0.0
 10
132.3868913668897
 20
540.3695486810451
 30
0.0
  0
SPLINE
  5
160
330
109
100
AcDbEntity
  8
0
  6
Continuous
 62
     0
370
    30
100
AcDbSpline
210
0.0
220
0.0
230
1.0
 70
     8
 71
     3
 72
    14
 73
    10
 74
     0
 42
0.0
 43
0.0
 40
0.0
 40
0.0
 40
0.0
 40
0.0
 40
0.2483063195049807
 40
0.4973415118280721
 40
0.7469539897613074
 40
0.9957853863575405
 40
1.243643039570703
 40
1.492316197299798
 40
1.742344279104773
 40
1.742344279104773
 40
1.742344279104773
 40
1.742344279104773
 10
132.3868913668942
 20
540.3695486810507
 30
0.0
 10
132.4542097263314
 20
540.380465882576
 30
0.0
 10
132.5704209389493
 20
540.4098051961282
 30
0.0
 10
132.6422605515739
 20
540.4684456724683
 30
0.0
 10
132.6439727425072
 20
540.5313992375518
 30
0.0
 10
132.5808491818269
 20
540.5962760515158
 30
0.0
 10
132.4028629231465
 20
540.6482275875333
 30
0.0
 10
132.16072380362
 20
540.6710724379957
 30
0.0
 10
131.9939834887881
 20
540.673233146085
 30
0.0
 10
131.910641025781
 20
540.6731616887171
 30
0.0
  0
LINE
  5
161
330
109
100
AcDbEntity
  8
0
  6
Continuous
 62
     0
370
    30
100
AcDbLine
 10
131.910641
 20
540.673162
 30
0.0
 11
130.335542
 21
540.673131
 31
0.0
  0
LINE
  5
162
330
109
100
AcDbEntity
  8
0
  6
Continuous
 62
     0
370
    30
100
AcDbLine
 10
130.335542
 20
540.763889
 30
0.0
 11
131.917669
 21
540.763938
 31
0.0
  0
SPLINE
  5
163
330
109
100
AcDbEntity
  8
0
  6
Continuous
 62
     0
370
    30
100
AcDbSpline
210
0.0
220
0.0
230
1.0
 70
     8
 71
     3
 72
    10
 73
     6
 74
     0
 42
0.0
 43
0.0
 40
0.0
 40
0.0
 40
0.0
 40
0.0
 40
0.2406503714594196
 40
0.4809889051886758
 40
0.721158888053054
 40
0.721158888053054
 40
0.721158888053054
 40
0.721158888053054
 10
131.9176690342236
 20
540.7639380888205
 30
0.0
 10
131.9978858246218
 20
540.7639343274252
 30
0.0
 10
132.1587200959887
 20
540.7616840556728
 30
0.0
 10
132.3938260711354
 20
540.7443214652383
 30
0.0
 10
132.5362715845255
 20
540.7217977040021
 30
0.0
 10
132.6006252095982
 20
540.7082215940745
 30
0.0
  0
SPLINE
  5
164
330
109
100
AcDbEntity
  8
0
  6
Continuous
 62
     0
370
    30
100
AcDbSpline
210
0.0
220
0.0
230
1.0
 70
     8
 71
     3
 72
    14
 73
    10
 74
     0
 42
0.0
 43
0.0
 40
0.0
 40
0.0
 40
0.0
 40
0.0
 40
0.2658311356644136
 40
0.5318324899200813
 40
0.7981789482599619
 40
1.064703722663622
 40
1.331140912478696
 40
1.59725580011786
 40
1.863124513833546
 40
1.863124513833546
 40
1.863124513833546
 40
1.863124513833546
 10
132.6006252095981
 20
540.7082215940745
 30
0.0
 10
132.6719875376877
 20
540.6932452125042
 30
0.0
 10
132.7992501503731
 20
540.6568320498282
 30
0.0
 10
132.9158952688952
 20
540.5905261581629
 30
0.0
 10
132.9633037379016
 20
540.521421473798
 30
0.0
 10
132.9509554757432
 20
540.4546835316855
 30
0.0
 10
132.8834669453322
 20
540.3930121390874
 30
0.0
 10
132.7532907400635
 20
540.3396488380731
 30
0.0
 10
132.6207585865329
 20
540.312997208661
 30
0.0
 10
132.5470883664243
 20
540.3024543628642
 30
0.0
  0
SPLINE
  5
165
330
109
100
AcDbEntity
  8
0
  6
Continuous
 62
     0
370
    30
100
AcDbSpline
210
0.0
220
0.0
230
1.0
 70
     8
 71
     3
 72
    10
 73
     6
 74
     0
 42
0.0
 43
0.0
 40
0.0
 40
0.0
 40
0.0
 40
0.0
 40
0.2234824778642054
 40
0.4474133988426866
 40
0.6716368634533153
 40
0.6716368634533153
 40
0.6716368634533153
 40
0.6716368634533153
 10
132.5470883664249
 20
540.3024543628642
 30
0.0
 10
132.4847817594661
 20
540.2937192862048
 30
0.0
 10
132.3468950715774
 20
540.2802757424644
 30
0.0
 10
132.1239647523979
 20
540.2735751458608
 30
0.0
 10
131.9746334774757
 20
540.272487683264
 30
0.0
 10
131.8998923231211
 20
540.272484194756
 30
0.0
  0
LINE
  5
166
330
109
100
AcDbEntity
  8
0
  6
Continuous
 62
     0
370
    30
100
AcDbLine
 10
131.899892
 20
540.272484
 30
0.0
 11
130.335542
 21
540.272422
 31
0.0
  0
SPLINE
  5
167
330
109
100
AcDbEntity
  8
0
  6
Continuous
 62
     0
370
    30
100
AcDbSpline
210
0.0
220
0.0
230
1.0
 70
     8
 71
     3
 72
    25
 73
    21
 74
     0
 42
0.0
 43
0.0
 40
0.0
 40
0.0
 40
0.0
 40
0.0
 40
0.2754117203151685
 40
0.4117111493874493
 40
0.5484227172847359
 40
0.6882255408435669
 40
0.828517537529593
 40
1.101530130229451
 40
1.374996099329444
 40
1.654519371669836
 40
2.206611179020704
 40
2.483601928484152
 40
2.760074308334973
 40
3.036299766838883
 40
3.172821653322534
 40
3.311285244432745
 40
3.451140522921229
 40
3.589993566819087
 40
3.726555894954437
 40
3.865086221907652
 40
3.865086221907652
 40
3.865086221907652
 40
3.865086221907652
 10
131.0292684360302
 20
541.3240911521048
 30
0.0
 10
130.9377035589746
 20
541.3216598094567
 30
0.0
 10
130.7990760529997
 20
541.3051511368042
 30
0.0
 10
130.6638750319131
 20
541.2590238407324
 30
0.0
 10
130.602298337763
 20
541.2140972659528
 30
0.0
 10
130.5776364775573
 20
541.1656378544877
 30
0.0
 10
130.5892830053558
 20
541.1019011592682
 30
0.0
 10
130.6850415403819
 20
541.0281168088038
 30
0.0
 10
130.9178350530359
 20
540.9745267465203
 30
0.0
 10
131.2719742246621
 20
540.9395973513629
 30
0.0
 10
131.645381612525
 20
540.9331755828593
 30
0.0
 10
132.0133379336896
 20
540.9427468884387
 30
0.0
 10
132.2821753024078
 20
540.9655104870327
 30
0.0
 10
132.4843500631373
 20
541.0058302955699
 30
0.0
 10
132.5924457013148
 20
541.0560268636686
 30
0.0
 10
132.6399595541185
 20
541.100175511564
 30
0.0
 10
132.6566652738122
 20
541.1477413359443
 30
0.0
 10
132.6427852274958
 20
541.1961444406918
 30
0.0
 10
132.5934443869724
 20
541.2425344270887
 30
0.0
 10
132.5331835498591
 20
541.2685050305007
 30
0.0
 10
132.4977069035084
 20
541.2791877569709
 30
0.0
  0
ARC
  5
168
330
109
100
AcDbEntity
  8
0
  6
Continuous
 62
     0
370
    30
100
AcDbCircle
 10
132.179106
 20
540.036467
 30
0.0
 40
1.282911366441333
100
AcDbArc
 50
75.620592
 51
87.836302
  0
SPLINE
  5
169
330
109
100
AcDbEntity
  8
0
  6
Continuous
 62
     0
370
    30
100
AcDbSpline
210
0.0
220
0.0
230
1.0
 70
     8
 71
     3
 72
    26
 73
    22
 74
     0
 42
0.0
 43
0.0
 40
0.0
 40
0.0
 40
0.0
 40
0.0
 40
0.4329957280319827
 40
0.6503560515467744
 40
0.8672615756275351
 40
1.305446770178559
 40
1.739098905056484
 40
1.954088279332187
 40
2.172970668810697
 40
2.61441144428683
 40
3.050370624337332
 40
3.486677011425206
 40
3.927680242198664
 40
4.146685552390935
 40
4.362090948400036
 40
4.79543586142618
 40
5.017398464029136
 40
5.237524152879461
 40
5.453487952873494
 40
5.670035285782042
 40
6.104322691876692
 40
6.104322691876692
 40
6.104322691876692
 40
6.104322691876692
 10
132.2275423461749
 20
541.4440371596775
 30
0.0
 10
132.3717611251957
 20
541.4417924746583
 30
0.0
 10
132.5903777058759
 20
541.4095755769484
 30
0.0
 10
132.7936860289145
 20
541.3318289119785
 30
0.0
 10
132.9296296957192
 20
541.236803201012
 30
0.0
 10
132.9705935415579
 20
541.1061145326469
 30
0.0
 10
132.8528760458314
 20
540.9876794377196
 30
0.0
 10
132.6562990483098
 20
540.9185511304976
 30
0.0
 10
132.4095558926063
 20
540.8685325968669
 30
0.0
 10
132.0548915968778
 20
540.8345625894455
 30
0.0
 10
131.6157466835708
 20
540.8268912203329
 30
0.0
 10
131.1775678995701
 20
540.8383777508709
 30
0.0
 10
130.8266445404059
 20
540.8759662161943
 30
0.0
 10
130.5847610935218
 20
540.9283736724476
 30
0.0
 10
130.391733014496
 20
540.9986046281795
 30
0.0
 10
130.2964406830427
 20
541.0941310584252
 30
0.0
 10
130.2961970918589
 20
541.195743275558
 30
0.0
 10
130.3447568637776
 20
541.2726487500033
 30
0.0
 10
130.4484844339504
 20
541.3439637887828
 30
0.0
 10
130.6624546556517
 20
541.4184035043928
 30
0.0
 10
130.884514607573
 20
541.445644128448
 30
0.0
 10
131.0292684299474
 20
541.4463188453483
 30
0.0
  0
SPLINE
  5
16A
330
109
100
AcDbEntity
  8
0
  6
Continuous
 62
     0
370
    30
100
AcDbSpline
210
0.0
220
0.0
230
1.0
 70
     8
 71
     3
 72
    28
 73
    24
 74
     0
 42
0.0
 43
0.0
 40
0.0
 40
0.0
 40
0.0
 40
0.0
 40
0.420447163056052
 40
0.6302954727550846
 40
0.8408442242622233
 40
1.264356009512049
 40
1.683146518034478
 40
1.891353215850199
 40
2.103180002565582
 40
2.318745009213892
 40
2.532573572134464
 40
2.954756629199497
 40
3.377480775805025
 40
3.805430969074709
 40
4.017368875573592
 40
4.226305843304226
 40
4.645601066209493
 40
4.859869049938898
 40
5.073392086735822
 40
5.283190324930735
 40
5.492725046528274
 40
5.705976211204709
 40
5.918133441981339
 40
5.918133441981339
 40
5.918133441981339
 40
5.918133441981339
 10
132.227542343549
 20
542.2124933903901
 30
0.0
 10
132.3675380556128
 20
542.2094429570459
 30
0.0
 10
132.5803455256004
 20
542.1771993558837
 30
0.0
 10
132.7884301743581
 20
542.090673800484
 30
0.0
 10
132.9284053800226
 20
541.9809792406294
 30
0.0
 10
132.9717001275993
 20
541.8247966637308
 30
0.0
 10
132.836850257502
 20
541.6846373708726
 30
0.0
 10
132.63475230117
 20
541.6054948679836
 30
0.0
 10
132.4492520546614
 20
541.5636682567547
 30
0.0
 10
132.2474474005199
 20
541.5353256806966
 30
0.0
 10
131.9698100634914
 20
541.5112938299945
 30
0.0
 10
131.6154833905966
 20
541.5032361024414
 30
0.0
 10
131.1913726197624
 20
541.5174183207448
 30
0.0
 10
130.8481778623704
 20
541.5584524674812
 30
0.0
 10
130.6048735968081
 20
541.6171959349743
 30
0.0
 10
130.405931494368
 20
541.6978173659185
 30
0.0
 10
130.2967916197456
 20
541.8108070409413
 30
0.0
 10
130.2946342632409
 20
541.931941612
 30
0.0
 10
130.3469177362265
 20
542.0225274022607
 30
0.0
 10
130.4545888287797
 20
542.1047352355603
 30
0.0
 10
130.6195257142418
 20
542.1666819681345
 30
0.0
 10
130.8166702899269
 20
542.204421060607
 30
0.0
 10
130.9585654418908
 20
542.2143119302874
 30
0.0
 10
131.0292684304002
 20
542.215031241842
 30
0.0
  0
SPLINE
  5
16B
330
109
100
AcDbEntity
  8
0
  6
Continuous
 62
     0
370
    30
100
AcDbSpline
210
0.0
220
0.0
230
1.0
 70
     8
 71
     3
 72
    23
 73
    19
 74
     0
 42
0.0
 43
0.0
 40
0.0
 40
0.0
 40
0.0
 40
0.0
 40
0.1344406348959635
 40
0.2698087024253294
 40
0.4020113593220688
 40
0.5351093167956869
 40
0.8039622975256736
 40
1.068634646139707
 40
1.334722668476819
 40
1.605909583314183
 40
1.873103289376393
 40
2.143350905299619
 40
2.412004249781777
 40
2.680682206166634
 40
2.949290704837158
 40
3.213805505265973
 40
3.481377106834313
 40
3.74489199651304
 40
3.74489199651304
 40
3.74489199651304
 40
3.74489199651304
 10
131.0292684359146
 20
542.0785141718101
 30
0.0
 10
130.9846118321944
 20
542.0768490528013
 30
0.0
 10
130.8955099112405
 20
542.0694850518038
 30
0.0
 10
130.7708698228038
 20
542.0461998510527
 30
0.0
 10
130.6667993098627
 20
542.0073272227685
 30
0.0
 10
130.5820410814547
 20
541.9375753612607
 30
0.0
 10
130.5691582995088
 20
541.8377635953929
 30
0.0
 10
130.6989714147738
 20
541.734985583735
 30
0.0
 10
130.9327783395363
 20
541.6754547206391
 30
0.0
 10
131.1927164725052
 20
541.6470994421242
 30
0.0
 10
131.4608545399128
 20
541.6335827835272
 30
0.0
 10
131.7298358005193
 20
541.6322965253769
 30
0.0
 10
131.9990934183222
 20
541.6404220963007
 30
0.0
 10
132.2611744851336
 20
541.6650883173983
 30
0.0
 10
132.5060617498235
 20
541.7162201200158
 30
0.0
 10
132.6525571471595
 20
541.8148873334267
 30
0.0
 10
132.665195898075
 20
541.9318649801266
 30
0.0
 10
132.5674372015328
 20
542.0044830160992
 30
0.0
 10
132.4977069031148
 20
542.027948087366
 30
0.0
  0
ARC
  5
16C
330
109
100
AcDbEntity
  8
0
  6
Continuous
 62
     0
370
    30
100
AcDbCircle
 10
132.179854
 20
540.933915
 30
0.0
 40
1.139271460751786
100
AcDbArc
 50
73.799661
 51
87.600968
  0
LINE
  5
16D
330
109
100
AcDbEntity
  8
0
  6
Continuous
 62
     0
370
    30
100
AcDbLine
 10
132.902985
 20
542.883839
 30
0.0
 11
132.902985
 21
543.018455
 31
0.0
  0
LINE
  5
16E
330
109
100
AcDbEntity
  8
0
  6
Continuous
 62
     0
370
    30
100
AcDbLine
 10
132.902985
 20
543.018455
 30
0.0
 11
130.335905
 21
543.018455
 31
0.0
  0
LINE
  5
16F
330
109
100
AcDbEntity
  8
0
  6
Continuous
 62
     0
370
    30
100
AcDbLine
 10
130.335905
 20
543.018455
 30
0.0
 11
130.335905
 21
542.883839
 31
0.0
  0
LINE
  5
170
330
109
100
AcDbEntity
  8
0
  6
Continuous
 62
     0
370
    30
100
AcDbLine
 10
130.335905
 20
542.883839
 30
0.0
 11
131.438061
 21
542.883846
 31
0.0
  0
LINE
  5
171
330
109
100
AcDbEntity
  8
0
  6
Continuous
 62
     0
370
    30
100
AcDbLine
 10
131.438061
 20
542.883846
 30
0.0
 11
131.438061
 21
542.428822
 31
0.0
  0
LINE
  5
172
330
109
100
AcDbEntity
  8
0
  6
Continuous
 62
     0
370
    30
100
AcDbLine
 10
131.438061
 20
542.428822
 30
0.0
 11
130.335905
 21
542.428817
 31
0.0
  0
LINE
  5
173
330
109
100
AcDbEntity
  8
0
  6
Continuous
 62
     0
370
    30
100
AcDbLine
 10
130.335905
 20
542.428817
 30
0.0
 11
130.335905
 21
542.29873
 31
0.0
  0
LINE
  5
174
330
109
100
AcDbEntity
  8
0
  6
Continuous
 62
     0
370
    30
100
AcDbLine
 10
130.335905
 20
542.29873
 30
0.0
 11
132.902985
 21
542.29873
 31
0.0
  0
LINE
  5
175
330
109
100
AcDbEntity
  8
0
  6
Continuous
 62
     0
370
    30
100
AcDbLine
 10
132.902985
 20
542.29873
 30
0.0
 11
132.902985
 21
542.428817
 31
0.0
  0
LINE
  5
176
330
109
100
AcDbEntity
  8
0
  6
Continuous
 62
     0
370
    30
100
AcDbLine
 10
132.902985
 20
542.428817
 30
0.0
 11
131.743779
 21
542.428825
 31
0.0
  0
LINE
  5
177
330
109
100
AcDbEntity
  8
0
  6
Continuous
 62
     0
370
    30
100
AcDbLine
 10
131.743779
 20
542.428825
 30
0.0
 11
131.743779
 21
542.883849
 31
0.0
  0
LINE
  5
178
330
109
100
AcDbEntity
  8
0
  6
Continuous
 62
     0
370
    30
100
AcDbLine
 10
131.743779
 20
542.883849
 30
0.0
 11
132.902985
 21
542.883839
 31
0.0
  0
LINE
  5
179
330
109
100
AcDbEntity
  8
0
  6
Continuous
 62
     0
370
    30
100
AcDbLine
 10
130.335905
 20
545.230149
 30
0.0
 11
130.649064
 21
545.230151
 31
0.0
  0
LINE
  5
17A
330
109
100
AcDbEntity
  8
0
  6
Continuous
 62
     0
370
    30
100
AcDbLine
 10
130.649064
 20
545.230151
 30
0.0
 11
130.649064
 21
544.907005
 31
0.0
  0
LINE
  5
17B
330
109
100
AcDbEntity
  8
0
  6
Continuous
 62
     0
370
    30
100
AcDbLine
 10
130.649064
 20
544.907005
 30
0.0
 11
132.902985
 21
544.906993
 31
0.0
  0
LINE
  5
17C
330
109
100
AcDbEntity
  8
0
  6
Continuous
 62
     0
370
    30
100
AcDbLine
 10
132.902985
 20
544.906993
 30
0.0
 11
132.902985
 21
544.773744
 31
0.0
  0
LINE
  5
17D
330
109
100
AcDbEntity
  8
0
  6
Continuous
 62
     0
370
    30
100
AcDbLine
 10
132.902985
 20
544.773744
 30
0.0
 11
130.649064
 21
544.773772
 31
0.0
  0
LINE
  5
17E
330
109
100
AcDbEntity
  8
0
  6
Continuous
 62
     0
370
    30
100
AcDbLine
 10
130.649064
 20
544.773772
 30
0.0
 11
130.649064
 21
544.306294
 31
0.0
  0
LINE
  5
17F
330
109
100
AcDbEntity
  8
0
  6
Continuous
 62
     0
370
    30
100
AcDbLine
 10
130.649064
 20
544.306294
 30
0.0
 11
132.902985
 21
544.306235
 31
0.0
  0
LINE
  5
180
330
109
100
AcDbEntity
  8
0
  6
Continuous
 62
     0
370
    30
100
AcDbLine
 10
132.902985
 20
544.306235
 30
0.0
 11
132.902985
 21
544.171115
 31
0.0
  0
LINE
  5
181
330
109
100
AcDbEntity
  8
0
  6
Continuous
 62
     0
370
    30
100
AcDbLine
 10
132.902985
 20
544.171115
 30
0.0
 11
130.649064
 21
544.17124
 31
0.0
  0
LINE
  5
182
330
109
100
AcDbEntity
  8
0
  6
Continuous
 62
     0
370
    30
100
AcDbLine
 10
130.649064
 20
544.17124
 30
0.0
 11
130.649064
 21
543.271937
 31
0.0
  0
LINE
  5
183
330
109
100
AcDbEntity
  8
0
  6
Continuous
 62
     0
370
    30
100
AcDbLine
 10
130.649064
 20
543.271937
 30
0.0
 11
131.438061
 21
543.27195
 31
0.0
  0
LINE
  5
184
330
109
100
AcDbEntity
  8
0
  6
Continuous
 62
     0
370
    30
100
AcDbLine
 10
131.438061
 20
543.27195
 30
0.0
 11
131.438061
 21
543.730808
 31
0.0
  0
LINE
  5
185
330
109
100
AcDbEntity
  8
0
  6
Continuous
 62
     0
370
    30
100
AcDbLine
 10
131.438061
 20
543.730808
 30
0.0
 11
131.743779
 21
543.73079
 31
0.0
  0
LINE
  5
186
330
109
100
AcDbEntity
  8
0
  6
Continuous
 62
     0
370
    30
100
AcDbLine
 10
131.743779
 20
543.73079
 30
0.0
 11
131.743779
 21
543.271944
 31
0.0
  0
LINE
  5
187
330
109
100
AcDbEntity
  8
0
  6
Continuous
 62
     0
370
    30
100
AcDbLine
 10
131.743779
 20
543.271944
 30
0.0
 11
132.590033
 21
543.271937
 31
0.0
  0
LINE
  5
188
330
109
100
AcDbEntity
  8
0
  6
Continuous
 62
     0
370
    30
100
AcDbLine
 10
132.590033
 20
543.271937
 30
0.0
 11
132.590032
 21
543.764771
 31
0.0
  0
LINE
  5
189
330
109
100
AcDbEntity
  8
0
  6
Continuous
 62
     0
370
    30
100
AcDbLine
 10
132.590032
 20
543.764771
 30
0.0
 11
132.902985
 21
543.764602
 31
0.0
  0
LINE
  5
18A
330
109
100
AcDbEntity
  8
0
  6
Continuous
 62
     0
370
    30
100
AcDbLine
 10
132.902985
 20
543.764602
 30
0.0
 11
132.902985
 21
543.13615
 31
0.0
  0
LINE
  5
18B
330
109
100
AcDbEntity
  8
0
  6
Continuous
 62
     0
370
    30
100
AcDbLine
 10
132.902985
 20
543.13615
 30
0.0
 11
130.335905
 21
543.13615
 31
0.0
  0
LINE
  5
18C
330
109
100
AcDbEntity
  8
0
  6
Continuous
 62
     0
370
    30
100
AcDbLine
 10
130.335905
 20
543.13615
 30
0.0
 11
130.335905
 21
545.230149
 31
0.0
  0
LINE
  5
18D
330
109
100
AcDbEntity
  8
0
  6
Continuous
 62
     0
370
    30
100
AcDbLine
 10
132.902985
 20
545.329413
 30
0.0
 11
132.902985
 21
545.461176
 31
0.0
  0
LINE
  5
18E
330
109
100
AcDbEntity
  8
0
  6
Continuous
 62
     0
370
    30
100
AcDbLine
 10
132.902985
 20
545.461176
 30
0.0
 11
130.335905
 21
545.461176
 31
0.0
  0
LINE
  5
18F
330
109
100
AcDbEntity
  8
0
  6
Continuous
 62
     0
370
    30
100
AcDbLine
 10
130.335905
 20
545.461176
 30
0.0
 11
130.335905
 21
545.329413
 31
0.0
  0
LINE
  5
190
330
109
100
AcDbEntity
  8
0
  6
Continuous
 62
     0
370
    30
100
AcDbLine
 10
130.335905
 20
545.329413
 30
0.0
 11
132.902985
 21
545.329413
 31
0.0
  0
LINE
  5
191
330
109
100
AcDbEntity
  8
0
  6
Continuous
 62
     0
370
    30
100
AcDbLine
 10
132.22747
 20
545.771737
 30
0.0
 11
132.22747
 21
545.641377
 31
0.0
  0
LINE
  5
192
330
109
100
AcDbEntity
  8
0
  6
Continuous
 62
     0
370
    30
100
AcDbLine
 10
132.22747
 20
545.641377
 30
0.0
 11
132.902985
 21
545.641377
 31
0.0
  0
LINE
  5
193
330
109
100
AcDbEntity
  8
0
  6
Continuous
 62
     0
370
    30
100
AcDbLine
 10
132.902985
 20
545.641377
 30
0.0
 11
132.902985
 21
545.771737
 31
0.0
  0
LINE
  5
194
330
109
100
AcDbEntity
  8
0
  6
Continuous
 62
     0
370
    30
100
AcDbLine
 10
132.902985
 20
545.771737
 30
0.0
 11
132.22747
 21
545.771737
 31
0.0
  0
ENDBLK
  5
196
330
109
100
AcDbEntity
  8
0
100
AcDbBlockEnd
  0
BLOCK
  5
1FC
330
198
100
AcDbEntity
  8
0
100
AcDbBlockBegin
  2
c
 70
     0
 10
304.741341
 20
229.885071
 30
0.0
  3
c
  1

  0
LINE
  5
199
330
198
100
AcDbEntity
  8
0
  6
Continuous
 62
     0
370
    30
100
AcDbLine
 10
409.014164
 20
1095.770055
 30
0.0
 11
409.014164
 21
1095.03517
 31
0.0
  0
LINE
  5
19A
330
198
100
AcDbEntity
  8
0
  6
Continuous
 62
     0
370
    30
100
AcDbLine
 10
409.014164
 20
1122.759784
 30
0.0
 11
409.014164
 21
1108.784163
 31
0.0
  0
LINE
  5
19B
330
198
100
AcDbEntity
  8
0
  6
Continuous
 62
     0
370
    30
100
AcDbLine
 10
454.014164
 20
1095.03517
 30
0.0
 11
454.014164
 21
1122.759784
 31
0.0
  0
LINE
  5
19C
330
198
100
AcDbEntity
  8
0
  6
Continuous
 62
     0
370
    30
100
AcDbLine
 10
409.014164
 20
1179.187765
 30
0.0
 11
409.014164
 21
1178.759778
 31
0.0
  0
LINE
  5
19D
330
198
100
AcDbEntity
  8
0
  6
Continuous
 62
     0
370
    30
100
AcDbLine
 10
454.014164
 20
1178.759778
 30
0.0
 11
454.014164
 21
1179.187765
 31
0.0
  0
LINE
  5
19E
330
198
100
AcDbEntity
  8
0
  6
Continuous
 62
     0
370
    30
100
AcDbLine
 10
431.514165
 20
1183.759786
 30
0.0
 11
409.714164
 21
1183.759786
 31
0.0
  0
LINE
  5
19F
330
198
100
AcDbEntity
  8
0
  6
Continuous
 62
     0
370
    30
100
AcDbLine
 10
453.314164
 20
1183.759786
 30
0.0
 11
431.514165
 21
1183.759786
 31
0.0
  0
LINE
  5
1A0
330
198
100
AcDbEntity
  8
0
  6
Continuous
 62
     0
370
    30
100
AcDbLine
 10
409.014164
 20
1179.187765
 30
0.0
 11
454.014164
 21
1179.187765
 31
0.0
  0
LINE
  5
1A1
330
198
100
AcDbEntity
  8
0
  6
Continuous
 62
     0
370
    30
100
AcDbLine
 10
453.640311
 20
1183.460928
 30
0.0
 11
431.514165
 21
1183.460928
 31
0.0
  0
LINE
  5
1A2
330
198
100
AcDbEntity
  8
0
  6
Continuous
 62
     0
370
    30
100
AcDbLine
 10
431.514165
 20
1183.460928
 30
0.0
 11
409.388017
 21
1183.460928
 31
0.0
  0
LINE
  5
1A3
330
198
100
AcDbEntity
  8
0
  6
Continuous
 62
     0
370
    30
100
AcDbLine
 10
409.414164
 20
1079.759786
 30
0.0
 11
431.514165
 21
1079.759786
 31
0.0
  0
LINE
  5
1A4
330
198
100
AcDbEntity
  8
0
  6
Continuous
 62
     0
370
    30
100
AcDbLine
 10
431.514165
 20
1079.759786
 30
0.0
 11
453.614164
 21
1079.759786
 31
0.0
  0
LINE
  5
1A5
330
198
100
AcDbEntity
  8
0
  6
Continuous
 62
     0
370
     0
100
AcDbLine
 10
431.514165
 20
1095.03517
 30
0.0
 11
409.014164
 21
1095.03517
 31
0.0
  0
LINE
  5
1A6
330
198
100
AcDbEntity
  8
0
  6
Continuous
 62
     0
370
     0
100
AcDbLine
 10
454.014164
 20
1095.03517
 30
0.0
 11
431.514165
 21
1095.03517
 31
0.0
  0
SPLINE
  5
1A7
330
198
100
AcDbEntity
  8
0
  6
Continuous
 62
     0
370
    30
100
AcDbSpline
210
0.0
220
0.0
230
1.0
 70
     8
 71
     3
 72
    29
 73
    25
 74
     0
 42
0.0
 43
0.0
 40
0.0
 40
0.0
 40
0.0
 40
0.0
 40
0.199810724005838
 40
0.4764780516774129
 40
0.74516467328743
 40
1.027751454945685
 40
1.419282748282137
 40
2.044298924046971
 40
2.441654921423724
 40
3.31769515701527
 40
4.147206465495073
 40
5.157764355515978
 40
7.289376443979248
 40
9.460851135399167
 40
10.52898710525869
 40
11.44815735488098
 40
12.08287298185412
 40
12.70505857056334
 40
12.9704510547345
 40
13.65005252153617
 40
14.10640190056527
 40
14.65589055812277
 40
14.94476018079234
 40
15.15602575123644
 40
15.15602575123644
 40
15.15602575123644
 40
15.15602575123644
 10
409.0141639634958
 20
1108.784163462864
 30
0.0
 10
409.0141639664033
 20
1108.784163462864
 30
0.0
 10
409.0148773187659
 20
1108.768839441225
 30
0.0
 10
409.0184711924621
 20
1108.691266944468
 30
0.0
 10
409.0247786606105
 20
1108.553125356031
 30
0.0
 10
409.0336708694405
 20
1108.354369432147
 30
0.0
 10
409.0475956775398
 20
1108.033641851529
 30
0.0
 10
409.063791083352
 20
1107.639505485584
 30
0.0
 10
409.0852680502837
 20
1107.079462633959
 30
0.0
 10
409.1079537140176
 20
1106.428877555184
 30
0.0
 10
409.1336940563654
 20
1105.561902088084
 30
0.0
 10
409.1644797314582
 20
1104.267577820004
 30
0.0
 10
409.1875040409506
 20
1102.502033308912
 30
0.0
 10
409.1807922410651
 20
1100.707613585354
 30
0.0
 10
409.1564665818807
 20
1099.335553398202
 30
0.0
 10
409.1337888783888
 20
1098.485956934165
 30
0.0
 10
409.110565967614
 20
1097.799828978248
 30
0.0
 10
409.0921848970479
 20
1097.336756462167
 30
0.0
 10
409.0722678458376
 20
1096.880670881739
 30
0.0
 10
409.0538123019118
 20
1096.496816390484
 30
0.0
 10
409.0330810685687
 20
1096.103060036861
 30
0.0
 10
409.0203440399063
 20
1095.876883935886
 30
0.0
 10
409.014951962725
 20
1095.783603588309
 30
0.0
 10
409.0141639665712
 20
1095.770054755526
 30
0.0
 10
409.0141639634959
 20
1095.770054755526
 30
0.0
  0
LINE
  5
1A8
330
198
100
AcDbEntity
  8
0
  6
Continuous
 62
     0
370
    30
100
AcDbLine
 10
409.014164
 20
1178.759778
 30
0.0
 11
409.014164
 21
1122.759784
 31
0.0
  0
LINE
  5
1A9
330
198
100
AcDbEntity
  8
0
  6
Continuous
 62
     0
370
    30
100
AcDbLine
 10
454.014164
 20
1178.759778
 30
0.0
 11
454.014164
 21
1122.759784
 31
0.0
  0
LINE
  5
1AA
330
198
100
AcDbEntity
  8
0
  6
Continuous
 62
     0
370
    30
100
AcDbLine
 10
409.014164
 20
1095.03517
 30
0.0
 11
409.414164
 21
1079.759786
 31
0.0
  0
LINE
  5
1AB
330
198
100
AcDbEntity
  8
0
  6
Continuous
 62
     0
370
    30
100
AcDbLine
 10
454.014164
 20
1095.03517
 30
0.0
 11
453.614164
 21
1079.759786
 31
0.0
  0
LINE
  5
1AC
330
198
100
AcDbEntity
  8
0
  6
Continuous
 62
     0
370
    30
100
AcDbLine
 10
409.388017
 20
1183.460928
 30
0.0
 11
409.714141
 21
1183.759765
 31
0.0
  0
LINE
  5
1AD
330
198
100
AcDbEntity
  8
0
  6
Continuous
 62
     0
370
    30
100
AcDbLine
 10
453.640311
 20
1183.460928
 30
0.0
 11
453.314187
 21
1183.759765
 31
0.0
  0
LINE
  5
1AE
330
198
100
AcDbEntity
  8
0
  6
Continuous
 62
     0
370
    30
100
AcDbLine
 10
409.014164
 20
1179.187765
 30
0.0
 11
409.388017
 21
1183.460928
 31
0.0
  0
LINE
  5
1AF
330
198
100
AcDbEntity
  8
0
  6
Continuous
 62
     0
370
    30
100
AcDbLine
 10
454.014164
 20
1179.187765
 30
0.0
 11
453.640311
 21
1183.460928
 31
0.0
  0
LINE
  5
1B0
330
198
100
AcDbEntity
  8
0
  6
Continuous
 62
     0
370
    30
100
AcDbLine
 10
452.990055
 20
1014.759796
 30
0.0
 11
453.514164
 21
1014.759796
 31
0.0
  0
LINE
  5
1B1
330
198
100
AcDbEntity
  8
0
  6
Continuous
 62
     0
370
    30
100
AcDbLine
 10
402.014164
 20
1003.759796
 30
0.0
 11
460.311381
 21
1003.759796
 31
0.0
  0
LINE
  5
1B2
330
198
100
AcDbEntity
  8
0
  6
Continuous
 62
     0
370
    30
100
AcDbLine
 10
460.311381
 20
1003.759796
 30
0.0
 11
461.014164
 21
1003.759796
 31
0.0
  0
LINE
  5
1B3
330
198
100
AcDbEntity
  8
0
  6
Continuous
 62
     0
370
     0
100
AcDbLine
 10
460.799469
 20
1004.259796
 30
0.0
 11
461.514164
 21
1004.259796
 31
0.0
  0
LINE
  5
1B4
330
198
100
AcDbEntity
  8
0
  6
Continuous
 62
     0
370
     0
100
AcDbLine
 10
401.514164
 20
1004.259796
 30
0.0
 11
460.799469
 21
1004.259796
 31
0.0
  0
LINE
  5
1B5
330
198
100
AcDbEntity
  8
0
  6
Continuous
 62
     0
370
     0
100
AcDbLine
 10
401.514164
 20
1009.259796
 30
0.0
 11
460.799469
 21
1009.259796
 31
0.0
  0
LINE
  5
1B6
330
198
100
AcDbEntity
  8
0
  6
Continuous
 62
     0
370
     0
100
AcDbLine
 10
460.799469
 20
1009.259796
 30
0.0
 11
461.514164
 21
1009.259796
 31
0.0
  0
LINE
  5
1B7
330
198
100
AcDbEntity
  8
0
  6
Continuous
 62
     0
370
    30
100
AcDbLine
 10
460.311381
 20
1009.759796
 30
0.0
 11
461.014164
 21
1009.759796
 31
0.0
  0
LINE
  5
1B8
330
198
100
AcDbEntity
  8
0
  6
Continuous
 62
     0
370
    30
100
AcDbLine
 10
402.014164
 20
1009.759796
 30
0.0
 11
460.311381
 21
1009.759796
 31
0.0
  0
ARC
  5
1B9
330
198
100
AcDbEntity
  8
0
  6
Continuous
 62
     0
370
    30
100
AcDbCircle
 10
402.01422
 20
1004.259834
 30
0.0
 40
0.5000375536741419
100
AcDbArc
 50
180.004302
 51
269.987471
  0
ARC
  5
1BA
330
198
100
AcDbEntity
  8
0
  6
Continuous
 62
     0
370
    30
100
AcDbCircle
 10
461.014159
 20
1004.259834
 30
0.0
 40
0.5000383555591622
100
AcDbArc
 50
270.016133
 51
359.995606
  0
ARC
  5
1BB
330
198
100
AcDbEntity
  8
0
  6
Continuous
 62
     0
370
    30
100
AcDbCircle
 10
402.01422
 20
1009.259759
 30
0.0
 40
0.5000375536714291
100
AcDbArc
 50
90.012529
 51
179.995698
  0
ARC
  5
1BC
330
198
100
AcDbEntity
  8
0
  6
Continuous
 62
     0
370
    30
100
AcDbCircle
 10
461.014159
 20
1009.259758
 30
0.0
 40
0.5000383555613516
100
AcDbArc
 50
0.004394
 51
89.983867
  0
LINE
  5
1BD
330
198
100
AcDbEntity
  8
0
  6
Continuous
 62
     0
370
    30
100
AcDbLine
 10
461.514164
 20
1004.259796
 30
0.0
 11
461.514164
 21
1009.259796
 31
0.0
  0
LINE
  5
1BE
330
198
100
AcDbEntity
  8
0
  6
Continuous
 62
     0
370
    30
100
AcDbLine
 10
401.514164
 20
1004.259796
 30
0.0
 11
401.514164
 21
1009.259796
 31
0.0
  0
ARC
  5
1BF
330
198
100
AcDbEntity
  8
0
  6
Continuous
 62
     0
370
    30
100
AcDbCircle
 10
404.513918
 20
1014.760056
 30
0.0
 40
5.000260182935442
100
AcDbArc
 50
270.015622
 51
359.997019
  0
ARC
  5
1C0
330
198
100
AcDbEntity
  8
0
  6
Continuous
 62
     0
370
    30
100
AcDbCircle
 10
458.514466
 20
1014.760062
 30
0.0
 40
5.000265874650973
100
AcDbArc
 50
180.003046
 51
269.984443
  0
LINE
  5
1C1
330
198
100
AcDbEntity
  8
0
  6
Continuous
 62
     0
370
     0
100
AcDbLine
 10
404.581257
 20
1111.766193
 30
0.0
 11
402.315488
 21
1110.709647
 31
0.0
  0
LINE
  5
1C2
330
198
100
AcDbEntity
  8
0
  6
Continuous
 62
     0
370
     0
100
AcDbLine
 10
406.847027
 20
1112.822738
 30
0.0
 11
404.581257
 21
1111.766193
 31
0.0
  0
LINE
  5
1C3
330
198
100
AcDbEntity
  8
0
  6
Continuous
 62
     0
370
     0
100
AcDbLine
 10
399.596565
 20
1114.941792
 30
0.0
 11
399.596564
 21
1112.441792
 31
0.0
  0
LINE
  5
1C4
330
198
100
AcDbEntity
  8
0
  6
Continuous
 62
     0
370
     0
100
AcDbLine
 10
399.596565
 20
1117.441792
 30
0.0
 11
399.596565
 21
1114.941792
 31
0.0
  0
LINE
  5
1C5
330
198
100
AcDbEntity
  8
0
  6
Continuous
 62
     0
370
    30
100
AcDbLine
 10
413.175436
 20
768.963507
 30
0.0
 11
411.427834
 21
769.055095
 31
0.0
  0
LINE
  5
1C6
330
198
100
AcDbEntity
  8
0
  6
Continuous
 62
     0
370
    30
100
AcDbLine
 10
414.923038
 20
768.871919
 30
0.0
 11
413.175436
 21
768.963507
 31
0.0
  0
LINE
  5
1C7
330
198
100
AcDbEntity
  8
0
  6
Continuous
 62
     0
370
    30
100
AcDbLine
 10
415.711262
 20
769.581639
 30
0.0
 11
413.214688
 21
769.712479
 31
0.0
  0
LINE
  5
1C8
330
198
100
AcDbEntity
  8
0
  6
Continuous
 62
     0
370
    30
100
AcDbLine
 10
413.214688
 20
769.712479
 30
0.0
 11
410.718114
 21
769.843319
 31
0.0
  0
LINE
  5
1C9
330
198
100
AcDbEntity
  8
0
  6
Continuous
 62
     0
370
    30
100
AcDbLine
 10
388.101314
 20
1115.941793
 30
0.0
 11
388.101314
 21
1114.941793
 31
0.0
  0
LINE
  5
1CA
330
198
100
AcDbEntity
  8
0
  6
Continuous
 62
     0
370
    30
100
AcDbLine
 10
388.101314
 20
1114.941793
 30
0.0
 11
388.101314
 21
1113.941793
 31
0.0
  0
LINE
  5
1CB
330
198
100
AcDbEntity
  8
0
  6
Continuous
 62
     0
370
     0
100
AcDbLine
 10
389.601314
 20
1114.941793
 30
0.0
 11
389.601314
 21
1112.441793
 31
0.0
  0
LINE
  5
1CC
330
198
100
AcDbEntity
  8
0
  6
Continuous
 62
     0
370
     0
100
AcDbLine
 10
389.601314
 20
1117.441793
 30
0.0
 11
389.601314
 21
1114.941793
 31
0.0
  0
ARC
  5
1CD
330
198
100
AcDbEntity
  8
0
  6
Continuous
 62
     0
370
    30
100
AcDbCircle
 10
389.600458
 20
1115.942649
 30
0.0
 40
1.499143655346046
100
AcDbArc
 50
89.96726
 51
180.032737
  0
ARC
  5
1CE
330
198
100
AcDbEntity
  8
0
  6
Continuous
 62
     0
370
    30
100
AcDbCircle
 10
389.600457
 20
1113.940936
 30
0.0
 40
1.499143655344854
100
AcDbArc
 50
179.967259
 51
270.032736
  0
LINE
  5
1CF
330
198
100
AcDbEntity
  8
0
  6
Continuous
 62
     0
370
    30
100
AcDbLine
 10
389.601314
 20
1112.441793
 30
0.0
 11
399.596564
 21
1112.441792
 31
0.0
  0
LINE
  5
1D0
330
198
100
AcDbEntity
  8
0
  6
Continuous
 62
     0
370
    30
100
AcDbLine
 10
389.601314
 20
1117.441793
 30
0.0
 11
399.596565
 21
1117.441792
 31
0.0
  0
LINE
  5
1D1
330
198
100
AcDbEntity
  8
0
  6
Continuous
 62
     0
370
    30
100
AcDbLine
 10
415.711262
 20
769.581639
 30
0.0
 11
414.923068
 21
768.871946
 31
0.0
  0
LINE
  5
1D2
330
198
100
AcDbEntity
  8
0
  6
Continuous
 62
     0
370
    30
100
AcDbLine
 10
410.718114
 20
769.843319
 30
0.0
 11
411.427807
 21
769.055125
 31
0.0
  0
LINE
  5
1D3
330
198
100
AcDbEntity
  8
0
  6
Continuous
 62
     0
370
    30
100
AcDbLine
 10
422.977164
 20
1003.759796
 30
0.0
 11
410.718114
 21
769.843319
 31
0.0
  0
LINE
  5
1D4
330
198
100
AcDbEntity
  8
0
  6
Continuous
 62
     0
370
    30
100
AcDbLine
 10
427.984026
 20
1003.759796
 30
0.0
 11
415.711262
 21
769.581639
 31
0.0
  0
ARC
  5
1D5
330
198
100
AcDbEntity
  8
0
  6
Continuous
 62
     0
370
    30
100
AcDbCircle
 10
399.597307
 20
1109.442959
 30
0.0
 40
2.998833774731899
100
AcDbArc
 50
24.985804
 51
90.014195
  0
ARC
  5
1D6
330
198
100
AcDbEntity
  8
0
  6
Continuous
 62
     0
370
    30
100
AcDbCircle
 10
399.596074
 20
1109.441023
 30
0.0
 40
8.000769788467746
100
AcDbArc
 50
25.003512
 51
89.996486
  0
LINE
  5
1D7
330
198
100
AcDbEntity
  8
0
  6
Continuous
 62
     0
370
    30
100
AcDbLine
 10
402.315488
 20
1110.709647
 30
0.0
 11
409.042534
 21
1096.28345
 31
0.0
  0
LINE
  5
1D8
330
198
100
AcDbEntity
  8
0
  6
Continuous
 62
     0
370
    30
100
AcDbLine
 10
406.847027
 20
1112.822738
 30
0.0
 11
409.044163
 21
1108.110965
 31
0.0
  0
LINE
  5
1D9
330
198
100
AcDbEntity
  8
0
  6
Continuous
 62
     0
370
     0
100
AcDbLine
 10
431.514164
 20
1297.90979
 30
0.0
 11
420.514164
 21
1297.90979
 31
0.0
  0
LINE
  5
1DA
330
198
100
AcDbEntity
  8
0
  6
Continuous
 62
     0
370
     0
100
AcDbLine
 10
442.514164
 20
1297.90979
 30
0.0
 11
431.514164
 21
1297.90979
 31
0.0
  0
LINE
  5
1DB
330
198
100
AcDbEntity
  8
0
  6
Continuous
 62
     0
370
     0
100
AcDbLine
 10
611.514164
 20
1297.90979
 30
0.0
 11
622.514164
 21
1297.90979
 31
0.0
  0
LINE
  5
1DC
330
198
100
AcDbEntity
  8
0
  6
Continuous
 62
     0
370
     0
100
AcDbLine
 10
600.514164
 20
1297.90979
 30
0.0
 11
611.514164
 21
1297.90979
 31
0.0
  0
LINE
  5
1DD
330
198
100
AcDbEntity
  8
0
  6
Continuous
 62
     0
370
    30
100
AcDbLine
 10
600.514164
 20
1273.90979
 30
0.0
 11
611.514164
 21
1273.90979
 31
0.0
  0
LINE
  5
1DE
330
198
100
AcDbEntity
  8
0
  6
Continuous
 62
     0
370
    30
100
AcDbLine
 10
622.514164
 20
1273.90979
 30
0.0
 11
622.514164
 21
1297.90979
 31
0.0
  0
LINE
  5
1DF
330
198
100
AcDbEntity
  8
0
  6
Continuous
 62
     0
370
    30
100
AcDbLine
 10
600.514164
 20
1273.90979
 30
0.0
 11
600.514164
 21
1297.90979
 31
0.0
  0
ARC
  5
1E0
330
198
100
AcDbEntity
  8
0
  6
Continuous
 62
     0
370
    30
100
AcDbCircle
 10
521.514164
 20
1297.909424
 30
0.0
 40
101.0000000006645
100
AcDbArc
 50
0.000208
 51
179.999792
  0
ARC
  5
1E1
330
198
100
AcDbEntity
  8
0
  6
Continuous
 62
     0
370
    30
100
AcDbCircle
 10
521.514164
 20
1297.909307
 30
0.0
 40
79.00000000147892
100
AcDbArc
 50
0.000351
 51
179.999649
  0
LINE
  5
1E2
330
198
100
AcDbEntity
  8
0
  6
Continuous
 62
     0
370
    30
100
AcDbLine
 10
420.514164
 20
1297.90979
 30
0.0
 11
420.514164
 21
1205.75979
 31
0.0
  0
LINE
  5
1E3
330
198
100
AcDbEntity
  8
0
  6
Continuous
 62
     0
370
    30
100
AcDbLine
 10
442.514164
 20
1297.90979
 30
0.0
 11
442.514164
 21
1205.75979
 31
0.0
  0
LINE
  5
1E4
330
198
100
AcDbEntity
  8
0
  6
Continuous
 62
     0
370
    30
100
AcDbLine
 10
410.014164
 20
1205.75979
 30
0.0
 11
410.685832
 21
1205.75979
 31
0.0
  0
LINE
  5
1E5
330
198
100
AcDbEntity
  8
0
  6
Continuous
 62
     0
370
    30
100
AcDbLine
 10
410.685832
 20
1205.75979
 30
0.0
 11
453.014164
 21
1205.75979
 31
0.0
  0
LINE
  5
1E6
330
198
100
AcDbEntity
  8
0
  6
Continuous
 62
     0
370
     0
100
AcDbLine
 10
409.514164
 20
1205.25979
 30
0.0
 11
410.201452
 21
1205.25979
 31
0.0
  0
LINE
  5
1E7
330
198
100
AcDbEntity
  8
0
  6
Continuous
 62
     0
370
     0
100
AcDbLine
 10
410.201452
 20
1205.25979
 30
0.0
 11
453.514164
 21
1205.25979
 31
0.0
  0
LINE
  5
1E8
330
198
100
AcDbEntity
  8
0
  6
Continuous
 62
     0
370
    30
100
AcDbLine
 10
409.514164
 20
1184.05979
 30
0.0
 11
410.201452
 21
1184.05979
 31
0.0
  0
LINE
  5
1E9
330
198
100
AcDbEntity
  8
0
  6
Continuous
 62
     0
370
    30
100
AcDbLine
 10
410.201452
 20
1184.05979
 30
0.0
 11
453.514164
 21
1184.05979
 31
0.0
  0
LINE
  5
1EA
330
198
100
AcDbEntity
  8
0
  6
Continuous
 62
     0
370
    30
100
AcDbLine
 10
453.214209
 20
1183.759818
 30
0.0
 11
453.514182
 21
1184.05979
 31
0.0
  0
LINE
  5
1EB
330
198
100
AcDbEntity
  8
0
  6
Continuous
 62
     0
370
    30
100
AcDbLine
 10
409.814193
 20
1183.759816
 30
0.0
 11
409.514219
 21
1184.05979
 31
0.0
  0
LINE
  5
1EC
330
198
100
AcDbEntity
  8
0
  6
Continuous
 62
     0
370
    30
100
AcDbLine
 10
409.514164
 20
1184.05979
 30
0.0
 11
409.514164
 21
1205.25979
 31
0.0
  0
LINE
  5
1ED
330
198
100
AcDbEntity
  8
0
  6
Continuous
 62
     0
370
    30
100
AcDbLine
 10
453.514164
 20
1184.05979
 30
0.0
 11
453.514164
 21
1205.25979
 31
0.0
  0
ARC
  5
1EE
330
198
100
AcDbEntity
  8
0
  6
Continuous
 62
     0
370
    30
100
AcDbCircle
 10
453.014144
 20
1205.259753
 30
0.0
 40
0.5000377307410568
100
AcDbArc
 50
0.004323
 51
89.989546
  0
ARC
  5
1EF
330
198
100
AcDbEntity
  8
0
  6
Continuous
 62
     0
370
    30
100
AcDbCircle
 10
410.014256
 20
1205.259754
 30
0.0
 40
0.500036850237073
100
AcDbArc
 50
90.010087
 51
179.995778
  0
LINE
  5
1F0
330
198
100
AcDbEntity
  8
0
  6
Continuous
 62
     0
370
    30
100
AcDbLine
 10
622.514164
 20
1273.909787
 30
0.0
 11
611.514164
 21
1273.909787
 31
0.0
  0
LINE
  5
1F1
330
198
100
AcDbEntity
  8
0
  6
Continuous
 62
     0
370
     0
100
AcDbLine
 10
622.514164
 20
1254.109787
 30
0.0
 11
602.17694
 21
1254.109787
 31
0.0
  0
LINE
  5
1F2
330
198
100
AcDbEntity
  8
0
  6
Continuous
 62
     0
370
     0
100
AcDbLine
 10
602.17694
 20
1254.109787
 30
0.0
 11
600.514164
 21
1254.109787
 31
0.0
  0
LINE
  5
1F3
330
198
100
AcDbEntity
  8
0
  6
Continuous
 62
     0
370
    30
100
AcDbLine
 10
622.314164
 20
1253.909787
 30
0.0
 11
602.346708
 21
1253.909787
 31
0.0
  0
LINE
  5
1F4
330
198
100
AcDbEntity
  8
0
  6
Continuous
 62
     0
370
    30
100
AcDbLine
 10
602.346708
 20
1253.909787
 30
0.0
 11
600.714164
 21
1253.909787
 31
0.0
  0
ARC
  5
1F5
330
198
100
AcDbEntity
  8
0
  6
Continuous
 62
     0
370
    30
100
AcDbCircle
 10
600.714465
 20
1254.110088
 30
0.0
 40
0.2003008867700002
100
AcDbArc
 50
180.086004
 51
269.913996
  0
ARC
  5
1F6
330
198
100
AcDbEntity
  8
0
  6
Continuous
 62
     0
370
    30
100
AcDbCircle
 10
622.313864
 20
1254.110088
 30
0.0
 40
0.2003008867399988
100
AcDbArc
 50
270.086004
 51
359.913996
  0
LINE
  5
1F7
330
198
100
AcDbEntity
  8
0
  6
Continuous
 62
     0
370
    30
100
AcDbLine
 10
600.514164
 20
1273.909787
 30
0.0
 11
600.514164
 21
1254.109787
 31
0.0
  0
LINE
  5
1F8
330
198
100
AcDbEntity
  8
0
  6
Continuous
 62
     0
370
    30
100
AcDbLine
 10
622.514164
 20
1273.909787
 30
0.0
 11
622.514164
 21
1254.109787
 31
0.0
  0
LINE
  5
1F9
330
198
100
AcDbEntity
  8
0
  6
Continuous
 62
     0
370
    30
100
AcDbLine
 10
409.514168
 20
1014.759796
 30
0.0
 11
452.990055
 21
1014.759796
 31
0.0
  0
LINE
  5
1FA
330
198
100
AcDbEntity
  8
0
  6
Continuous
 62
     0
370
    30
100
AcDbLine
 10
453.51416
 20
1014.759796
 30
0.0
 11
453.51416
 21
1079.759796
 31
0.0
  0
LINE
  5
1FB
330
198
100
AcDbEntity
  8
0
  6
Continuous
 62
     0
370
    30
100
AcDbLine
 10
409.514168
 20
1014.759796
 30
0.0
 11
409.514168
 21
1079.759796
 31
0.0
  0
ENDBLK
  5
1FD
330
198
100
AcDbEntity
  8
0
100
AcDbBlockEnd
  0
BLOCK
  5
2CD
330
1FF
100
AcDbEntity
  8
0
100
AcDbBlockBegin
  2
d
 70
     0
 10
319.64492
 20
402.307159
 30
0.0
  3
d
  1

  0
SPLINE
  5
200
330
1FF
100
AcDbEntity
  8
0
  6
Continuous
 62
     0
370
     0
100
AcDbSpline
210
0.0
220
0.0
230
1.0
 70
     8
 71
     3
 72
    16
 73
    12
 74
     0
 42
0.0
 43
0.0
 40
0.0
 40
0.0
 40
0.0
 40
0.0
 40
0.047619050732881
 40
0.142857152198643
 40
0.285714498032293
 40
0.428571514873237
 40
0.571428485126763
 40
0.714285501967706
 40
0.857142847801357
 40
0.9523809492671189
 40
1.0
 40
1.0
 40
1.0
 40
1.0
 10
454.6440143678539
 20
544.4392866001447
 30
0.0
 10
454.6440144109197
 20
543.8704621694533
 30
0.0
 10
454.699354896691
 20
542.1959396527302
 30
0.0
 10
455.1420469232438
 20
539.0527914306696
 30
0.0
 10
456.4544944640108
 20
535.4824388800614
 30
0.0
 10
458.8331889719092
 20
532.4834543498803
 30
0.0
 10
461.9943634853598
 20
530.6583500318072
 30
0.0
 10
465.7809079439065
 20
530.0978334298193
 30
0.0
 10
469.5291479530588
 20
530.7463976829205
 30
0.0
 10
472.4725402519024
 20
531.9345898918461
 30
0.0
 10
473.9503895431552
 20
532.7239251876279
 30
0.0
 10
474.4430059719601
 20
533.0083374651338
 30
0.0
  0
SPLINE
  5
201
330
1FF
100
AcDbEntity
  8
0
  6
Continuous
 62
     0
370
     0
100
AcDbSpline
210
0.0
220
0.0
230
1.0
 70
     8
 71
     3
 72
    15
 73
    11
 74
     0
 42
0.0
 43
0.0
 40
0.0884212738460595
 40
0.0884212738460595
 40
0.0884212738460595
 40
0.0884212738460595
 40
0.142857143981364
 40
0.28571428663672
 40
0.428571428663563
 40
0.5714285713364371
 40
0.71428571336328
 40
0.8571428560186358
 40
0.952380952006212
 40
1.0
 40
1.0
 40
1.0
 40
1.0
 10
460.7341119379294
 20
559.1175242147017
 30
0.0
 10
461.1836747649077
 20
558.7854525448355
 30
0.0
 10
462.8043629791995
 20
557.5065421328246
 30
0.0
 10
465.4937827804019
 20
554.8666061867884
 30
0.0
 10
468.536515034608
 20
550.9025971561929
 30
0.0
 10
471.0767416177652
 20
546.5027961642847
 30
0.0
 10
472.9883084451075
 20
541.8857084699914
 30
0.0
 10
474.0427917822597
 20
537.7989153935815
 30
0.0
 10
474.3986842252889
 20
534.8622987155676
 30
0.0
 10
474.4430059373535
 20
533.4654305046295
 30
0.0
 10
474.4430059719601
 20
533.0083374651338
 30
0.0
  0
SPLINE
  5
202
330
1FF
100
AcDbEntity
  8
0
  6
Continuous
 62
     0
370
     0
100
AcDbSpline
210
0.0
220
0.0
230
1.0
 70
     8
 71
     3
 72
    12
 73
     8
 74
     0
 42
0.0
 43
0.0
 40
0.0
 40
0.0
 40
0.0
 40
0.0
 40
0.047619048741464
 40
0.142857146224391
 40
0.28571429152306
 40
0.428571433695539
 40
0.5085889540316344
 40
0.5085889540316344
 40
0.5085889540316344
 40
0.5085889540316344
 10
454.644014367854
 20
544.4392866001449
 30
0.0
 10
455.0398685754691
 20
544.6678331580611
 30
0.0
 10
456.1831095884288
 20
545.379061927639
 30
0.0
 10
458.1924560105705
 20
546.950107746346
 30
0.0
 10
460.1499981551985
 20
549.2979076393009
 30
0.0
 10
461.1153056210746
 20
551.7388701525065
 30
0.0
 10
461.2446850375517
 20
553.2559239066156
 30
0.0
 10
461.2319872996828
 20
553.8001257975768
 30
0.0
  0
SPLINE
  5
203
330
1FF
100
AcDbEntity
  8
0
  6
Continuous
 62
     0
370
     0
100
AcDbSpline
210
0.0
220
0.0
230
1.0
 70
     8
 71
     3
 72
    16
 73
    12
 74
     0
 42
0.0
 43
0.0
 40
0.0
 40
0.0
 40
0.0
 40
0.0
 40
0.047619050732881
 40
0.142857152198643
 40
0.285714498032294
 40
0.4285715148732381
 40
0.571428485126764
 40
0.7142855019677079
 40
0.857142847801357
 40
0.9523809492671189
 40
1.0
 40
1.0
 40
1.0
 40
1.0
 10
474.4430059719602
 20
533.0083388927418
 30
0.0
 10
473.9503895431552
 20
532.7239267146922
 30
0.0
 10
472.4725402519024
 20
531.8067886382208
 30
0.0
 10
469.5291479530588
 20
529.5962441750105
 30
0.0
 10
465.7809079439065
 20
525.9167136715689
 30
0.0
 10
461.9943634853598
 20
520.9838721447002
 30
0.0
 10
458.8331889719092
 20
515.5085579140348
 30
0.0
 10
456.454494464011
 20
509.7628935549437
 30
0.0
 10
455.1420469232435
 20
504.6770571224172
 30
0.0
 10
454.6993548966914
 20
501.0227321789601
 30
0.0
 10
454.6440144109201
 20
499.2843079735229
 30
0.0
 10
454.6440143678542
 20
498.7154834931032
 30
0.0
  0
SPLINE
  5
204
330
1FF
100
AcDbEntity
  8
0
  6
Continuous
 62
     0
370
     0
100
AcDbSpline
210
0.0
220
0.0
230
1.0
 70
     8
 71
     3
 72
    12
 73
     8
 74
     0
 42
0.0
 43
0.0
 40
0.5000000022267408
 40
0.5000000022267408
 40
0.5000000022267408
 40
0.5000000022267408
 40
0.5714285713364371
 40
0.71428571336328
 40
0.8571428560186358
 40
0.952380952006212
 40
1.0
 40
1.0
 40
1.0
 40
1.0
 10
461.2340317323127
 20
507.9010688504939
 30
0.0
 10
461.2340317293741
 20
507.4152369110557
 30
0.0
 10
461.092636035604
 20
505.9577410742648
 30
0.0
 10
460.1499981036451
 20
503.57410329723
 30
0.0
 10
458.192455958553
 20
501.2263039438
 30
0.0
 10
456.1831095652083
 20
499.6552585446644
 30
0.0
 10
455.0398685692537
 20
498.9440299828807
 30
0.0
 10
454.644014367854
 20
498.715483493103
 30
0.0
  0
SPLINE
  5
205
330
1FF
100
AcDbEntity
  8
0
  6
Continuous
 62
     0
370
     0
100
AcDbSpline
210
0.0
220
0.0
230
1.0
 70
     8
 71
     3
 72
    12
 73
     8
 74
     0
 42
0.0
 43
0.0
 40
0.0000000495751245
 40
0.0000000495751245
 40
0.0000000495751245
 40
0.0000000495751245
 40
0.047619047993788
 40
0.142857143981364
 40
0.28571428663672
 40
0.428571428663563
 40
0.5000000247875622
 40
0.5000000247875622
 40
0.5000000247875622
 40
0.5000000247875622
 10
474.44300597196
 20
533.0083374651338
 30
0.0
 10
474.4430059065919
 20
532.5512448793071
 30
0.0
 10
474.398684163537
 20
531.2055552291323
 30
0.0
 10
474.0427917822596
 20
528.6798877073973
 30
0.0
 10
472.9883084451075
 20
525.8107064999984
 30
0.0
 10
471.3953359789217
 20
523.8025388079734
 30
0.0
 10
470.2038049922472
 20
522.951338429514
 30
0.0
 10
469.7830619416778
 20
522.7084223537806
 30
0.0
  0
LINE
  5
206
330
1FF
100
AcDbEntity
  8
0
  6
Continuous
 62
     0
370
     0
100
AcDbLine
 10
454.644014
 20
476.078431
 30
0.0
 11
454.644014
 21
498.715483
 31
0.0
  0
SPLINE
  5
207
330
1FF
100
AcDbEntity
  8
0
  6
Continuous
 62
     0
370
     0
100
AcDbSpline
210
0.0
220
0.0
230
1.0
 70
     8
 71
     3
 72
    13
 73
     9
 74
     0
 42
0.0
 43
0.0
 40
0.0
 40
0.0
 40
0.0
 40
0.0
 40
2.29740697212077
 40
5.672394704060816
 40
7.570825306026248
 40
10.73487632639293
 40
15.79735799354364
 40
17.67142427283817
 40
17.67142427283817
 40
17.67142427283817
 40
17.67142427283817
 10
454.6440143678536
 20
476.0784311385578
 30
0.0
 10
455.1852868510754
 20
476.3909349524183
 30
0.0
 10
456.4544058150965
 20
477.2025182050394
 30
0.0
 10
457.9004181639936
 20
478.4014338896366
 30
0.0
 10
459.2279757220798
 20
479.8346274830063
 30
0.0
 10
460.4787365362583
 20
481.6496258618799
 30
0.0
 10
461.1380257580935
 20
483.5684305321167
 30
0.0
 10
461.2340280716651
 20
484.9033717800841
 30
0.0
 10
461.2339905627106
 20
485.2640388863239
 30
0.0
  0
SPLINE
  5
208
330
1FF
100
AcDbEntity
  8
0
  6
Continuous
 62
     0
370
     0
100
AcDbSpline
210
0.0
220
0.0
230
1.0
 70
     8
 71
     3
 72
    12
 73
     8
 74
     0
 42
0.0
 43
0.0
 40
0.0
 40
0.0
 40
0.0
 40
0.0
 40
1.718754101383531
 40
4.583500439394577
 40
9.48624150281726
 40
14.5486632533614
 40
17.672645379926
 40
17.672645379926
 40
17.672645379926
 40
17.672645379926
 10
476.2753276898122
 20
534.066230329795
 30
0.0
 10
476.2764007713488
 20
533.5991782386795
 30
0.0
 10
476.2377796154357
 20
532.376892481394
 30
0.0
 10
475.9275334090664
 20
529.9971132548168
 30
0.0
 10
474.9906751233464
 20
527.1940969493908
 30
0.0
 10
473.4013115044884
 20
525.0158541292532
 30
0.0
 10
472.1226553640197
 20
524.0592404739539
 30
0.0
 10
471.5981932154434
 20
523.7564407202408
 30
0.0
  0
LINE
  5
209
330
1FF
100
AcDbEntity
  8
0
  6
Continuous
 62
     0
370
     0
100
AcDbLine
 10
476.275328
 20
534.06623
 30
0.0
 11
474.443006
 21
533.008339
 31
0.0
  0
SPLINE
  5
20A
330
1FF
100
AcDbEntity
  8
0
  6
Continuous
 62
     0
370
     0
100
AcDbSpline
210
0.0
220
0.0
230
1.0
 70
     8
 71
     3
 72
    17
 73
    13
 74
     0
 42
0.0
 43
0.0
 40
0.7970294811677403
 40
0.7970294811677403
 40
0.7970294811677403
 40
0.7970294811677403
 40
1.706339016653732
 40
4.550383530542367
 40
9.442487500490753
 40
14.50535991567011
 40
19.56799959870319
 40
24.63039839870083
 40
27.79445294476594
 40
29.69293249906594
 40
33.06807680507281
 40
35.34401262602155
 40
35.34401262602155
 40
35.34401262602155
 40
35.34401262602155
 10
460.7341119662264
 20
561.1737752443253
 30
0.0
 10
460.9504715732849
 20
561.0426025386691
 30
0.0
 10
461.8430476256042
 20
560.480890327026
 30
0.0
 10
463.8855228559732
 20
558.9987895038962
 30
0.0
 10
466.8060916225224
 20
556.2771150663976
 30
0.0
 10
469.9106511693903
 20
552.4383698901592
 30
0.0
 10
472.5614772046249
 20
548.0884335887934
 30
0.0
 10
474.3359903795673
 20
544.0650294650354
 30
0.0
 10
475.2954430476591
 20
540.9904273572646
 30
0.0
 10
475.8817882025318
 20
538.4639929795002
 30
0.0
 10
476.2025217124049
 20
536.2596924037292
 30
0.0
 10
476.2739075529658
 20
534.6845796186983
 30
0.0
 10
476.2753276898122
 20
534.066230329804
 30
0.0
  0
SPLINE
  5
20B
330
1FF
100
AcDbEntity
  8
0
  6
Continuous
 62
     0
370
    30
100
AcDbSpline
210
0.0
220
0.0
230
1.0
 70
     8
 71
     3
 72
    13
 73
     9
 74
     0
 42
0.0
 43
0.0
 40
16.2772408113582
 40
16.2772408113582
 40
16.2772408113582
 40
16.2772408113582
 40
19.54542891079017
 40
24.60790930299991
 40
27.77195984095973
 40
29.67039033576874
 40
33.04537789116455
 40
35.3427847996936
 40
35.3427847996936
 40
35.3427847996936
 40
35.3427847996936
 10
461.1908111131113
 20
554.7787320193484
 30
0.0
 10
461.258205842788
 20
554.1509687179827
 30
0.0
 10
461.2290223753521
 20
552.5435768510805
 30
0.0
 10
460.478735866117
 20
550.3599311621136
 30
0.0
 10
459.2279754060986
 20
548.5449329225171
 30
0.0
 10
457.9004180232795
 20
547.1117395840695
 30
0.0
 10
456.4544057455429
 20
545.9128242196366
 30
0.0
 10
455.185286834905
 20
545.1012410315398
 30
0.0
 10
454.6440143668352
 20
544.7887372239911
 30
0.0
  0
LINE
  5
20C
330
1FF
100
AcDbEntity
  8
0
  6
Continuous
 62
     0
370
     0
100
AcDbLine
 10
454.644014
 20
544.439287
 30
0.0
 11
454.644014
 21
544.788737
 31
0.0
  0
ELLIPSE
  5
20D
330
1FF
100
AcDbEntity
  8
0
  6
Continuous
 62
     0
370
    30
100
AcDbEllipse
 10
465.612461
 20
546.26907
 30
0.0
 11
11.05
 21
-19.1391614236361
 31
0.0
210
0.0
220
0.0
230
0.9999999999999999
 40
0.57735
 41
2.356194490192344
 42
2.673674186437009
  0
ELLIPSE
  5
20E
330
1FF
100
AcDbEntity
  8
0
  6
Continuous
 62
     0
370
    30
100
AcDbEllipse
 10
465.612461
 20
546.26907
 30
0.0
 11
11.05
 21
-19.1391614236361
 31
0.0
210
0.0
220
0.0
230
0.9999999999999999
 40
0.57735
 41
0.0370664141853432
 42
2.356194490192344
  0
ELLIPSE
  5
20F
330
1FF
100
AcDbEntity
  8
0
  6
Continuous
 62
     0
370
    30
100
AcDbEllipse
 10
438.734112
 20
557.707363
 30
0.0
 11
21.79999998807907
 21
0.0
 31
0.0
210
0.0
220
0.0
230
-1.0
 40
0.57735
 41
2.356194490192344
 42
2.659279498308472
  0
ELLIPSE
  5
210
330
1FF
100
AcDbEntity
  8
0
  6
Continuous
 62
     0
370
    30
100
AcDbEllipse
 10
438.734112
 20
557.707363
 30
0.0
 11
21.79999998807907
 21
0.0
 31
0.0
210
0.0
220
0.0
230
-1.0
 40
0.57735
 41
0.4823131724915363
 42
2.356194490192344
  0
ELLIPSE
  5
211
330
1FF
100
AcDbEntity
  8
0
  6
Continuous
 62
     0
370
    30
100
AcDbEllipse
 10
438.734112
 20
553.974324
 30
0.0
 11
-22.50000000745057
 21
0.0
 31
0.0
210
0.0
220
0.0
230
1.0
 40
0.57735
 41
6.22128193961797
 42
8.639379797371928
  0
ELLIPSE
  5
212
330
1FF
100
AcDbEntity
  8
0
  6
Continuous
 62
     0
370
    30
100
AcDbEllipse
 10
438.734112
 20
557.463346
 30
0.0
 11
22.12614672386328
 21
0.0
 31
0.0
210
0.0
220
0.0
230
-1.0
 40
0.57735
 41
6.176352015962983
 42
8.639379797371928
  0
ELLIPSE
  5
213
330
1FF
100
AcDbEntity
  8
0
  6
Continuous
 62
     0
370
    30
100
AcDbEllipse
 10
438.734112
 20
557.463346
 30
0.0
 11
22.12614672386328
 21
0.0
 31
0.0
210
0.0
220
0.0
230
-1.0
 40
0.57735
 41
2.356194490192344
 42
3.248425962073322
  0
ELLIPSE
  5
214
330
1FF
100
AcDbEntity
  8
0
  6
Continuous
 62
     0
370
    30
100
AcDbEllipse
 10
438.734112
 20
472.791719
 30
0.0
 11
-22.1
 21
0.0
 31
0.0
210
0.0
220
0.0
230
1.0
 40
0.57735
 41
0.0185172932959308
 42
0.7853981633974473
  0
ELLIPSE
  5
215
330
1FF
100
AcDbEntity
  8
0
  6
Continuous
 62
     0
370
    30
100
AcDbEllipse
 10
438.734112
 20
472.791719
 30
0.0
 11
-22.1
 21
0.0
 31
0.0
210
0.0
220
0.0
230
1.0
 40
0.57735
 41
0.785398163397448
 42
3.123075343014488
  0
ELLIPSE
  5
216
330
1FF
100
AcDbEntity
  8
0
  6
Continuous
 62
     0
370
     0
100
AcDbEllipse
 10
438.734112
 20
485.264018
 30
0.0
 11
22.50000000745057
 21
0.0
 31
0.0
210
0.0
220
0.0
230
-1.0
 40
0.57735
 41
2.356194490192343
 42
3.141592662229476
  0
ELLIPSE
  5
217
330
1FF
100
AcDbEntity
  8
0
  6
Continuous
 62
     0
370
     0
100
AcDbEllipse
 10
438.734112
 20
485.264018
 30
0.0
 11
22.50000000745057
 21
0.0
 31
0.0
210
0.0
220
0.0
230
-1.0
 40
0.57735
 41
0.7853981633974483
 42
2.356194490192343
  0
LINE
  5
218
330
1FF
100
AcDbEntity
  8
0
  6
Continuous
 62
     0
370
     0
100
AcDbLine
 10
454.644014
 20
544.439287
 30
0.0
 11
454.644014
 21
498.715483
 31
0.0
  0
LINE
  5
219
330
1FF
100
AcDbEntity
  8
0
  6
Continuous
 62
     0
370
    30
100
AcDbLine
 10
416.234112
 20
553.974324
 30
0.0
 11
416.234112
 21
485.264018
 31
0.0
  0
LINE
  5
21A
330
1FF
100
AcDbEntity
  8
0
  6
Continuous
 62
     0
370
    30
100
AcDbLine
 10
416.237969
 20
485.023485
 30
0.0
 11
416.637901
 21
472.555462
 31
0.0
  0
LINE
  5
21B
330
1FF
100
AcDbEntity
  8
0
  6
Continuous
 62
     0
370
    30
100
AcDbLine
 10
461.230255
 20
485.023505
 30
0.0
 11
460.830323
 21
472.555462
 31
0.0
  0
LINE
  5
21C
330
1FF
100
AcDbEntity
  8
0
  6
Continuous
 62
     0
370
    30
100
AcDbLine
 10
416.277208
 20
554.777959
 30
0.0
 11
416.650346
 21
558.253628
 31
0.0
  0
LINE
  5
21D
330
1FF
100
AcDbEntity
  8
0
  6
Continuous
 62
     0
370
    30
100
AcDbLine
 10
461.191015
 20
554.777958
 30
0.0
 11
460.817878
 21
558.253628
 31
0.0
  0
LINE
  5
21E
330
1FF
100
AcDbEntity
  8
0
  6
Continuous
 62
     0
370
    30
100
AcDbLine
 10
472.013736
 20
524.0143
 30
0.0
 11
477.064361
 21
527.379475
 31
0.0
  0
LINE
  5
21F
330
1FF
100
AcDbEntity
  8
0
  6
Continuous
 62
     0
370
    30
100
AcDbLine
 10
469.783116
 20
522.708362
 30
0.0
 11
471.598874
 21
523.756695
 31
0.0
  0
LINE
  5
220
330
1FF
100
AcDbEntity
  8
0
  6
Continuous
 62
     0
370
    30
100
AcDbLine
 10
461.234111
 20
507.901069
 30
0.0
 11
461.234112
 21
485.264039
 31
0.0
  0
SPLINE
  5
221
330
1FF
100
AcDbEntity
  8
0
  6
Continuous
 62
     0
370
    30
100
AcDbSpline
210
0.0
220
0.0
230
1.0
 70
     8
 71
     3
 72
    15
 73
    11
 74
     0
 42
0.0
 43
0.0
 40
0.0
 40
0.0
 40
0.0
 40
0.0
 40
1.874352420655152
 40
4.774810434643257
 40
8.427591300868317
 40
11.71691949032169
 40
15.14313580184041
 40
18.53223257181813
 40
21.69272308759975
 40
23.93191246643529
 40
23.93191246643529
 40
23.93191246643529
 40
23.93191246643529
 10
469.7831027833998
 20
522.708354098022
 30
0.0
 10
469.6736545695464
 20
522.6451641688077
 30
0.0
 10
469.2386938081435
 20
522.3752448629521
 30
0.0
 10
467.9336143835239
 20
521.333061186922
 30
0.0
 10
466.0011977654232
 20
519.2328967296464
 30
0.0
 10
464.060038629615
 20
516.3825046802398
 30
0.0
 10
462.5362204652193
 20
513.3542000126611
 30
0.0
 10
461.5837049646228
 20
510.5370632962142
 30
0.0
 10
461.2563565144829
 20
508.6728881171068
 30
0.0
 10
461.2341112141174
 20
508.0518996755816
 30
0.0
 10
461.2341112643943
 20
507.901065864063
 30
0.0
  0
ELLIPSE
  5
222
330
1FF
100
AcDbEntity
  8
0
  6
Continuous
 62
     0
370
    30
100
AcDbEllipse
 10
477.695706
 20
625.109149
 30
0.0
 11
-6.499999999999961
 21
7.058935174164559E-7
 31
0.0
210
0.0
220
0.0
230
1.0
 40
0.57735
 41
5.62924538873774
 42
8.770838042327528
  0
ELLIPSE
  5
223
330
1FF
100
AcDbEntity
  8
0
  6
Continuous
 62
     0
370
    30
100
AcDbEllipse
 10
477.695706
 20
625.109149
 30
0.0
 11
-6.499999999999961
 21
7.058935174164559E-7
 31
0.0
210
0.0
220
0.0
230
1.0
 40
0.57735
 41
2.487652735147944
 42
5.629245388737737
  0
LINE
  5
224
330
1FF
100
AcDbEntity
  8
0
  6
Continuous
 62
     0
370
    30
100
AcDbLine
 10
484.195701
 20
576.119356
 30
0.0
 11
484.195706
 21
625.109148
 31
0.0
  0
LINE
  5
225
330
1FF
100
AcDbEntity
  8
0
  6
Continuous
 62
     0
370
    30
100
AcDbLine
 10
471.195701
 20
576.119358
 30
0.0
 11
471.195706
 21
625.109149
 31
0.0
  0
ELLIPSE
  5
226
330
1FF
100
AcDbEntity
  8
0
  6
Continuous
 62
     0
370
    30
100
AcDbEllipse
 10
477.695699
 20
576.119355
 30
0.0
 11
-6.499999999999962
 21
7.058935509729468E-7
 31
0.0
210
0.0
220
0.0
230
1.0
 40
0.57735
 41
6.283185298539899
 42
7.068583533276703
  0
ELLIPSE
  5
227
330
1FF
100
AcDbEntity
  8
0
  6
Continuous
 62
     0
370
    30
100
AcDbEllipse
 10
477.695699
 20
576.119355
 30
0.0
 11
-6.499999999999962
 21
7.058935509729468E-7
 31
0.0
210
0.0
220
0.0
230
1.0
 40
0.57735
 41
0.7853982260971166
 42
3.141592644950106
  0
SPLINE
  5
228
330
1FF
100
AcDbEntity
  8
0
  6
Continuous
 62
     0
370
     0
100
AcDbSpline
210
0.0
220
0.0
230
1.0
 70
     8
 71
     3
 72
    10
 73
     6
 74
     0
 42
0.0
 43
0.0
 40
0.0
 40
0.0
 40
0.0
 40
0.0
 40
1.91240578932151
 40
3.830350421158118
 40
5.180497437671887
 40
5.180497437671887
 40
5.180497437671887
 40
5.180497437671887
 10
473.1107706519584
 20
572.726998095897
 30
0.0
 10
472.669875760742
 20
572.9815489438661
 30
0.0
 10
471.9179552544998
 20
573.4524823565491
 30
0.0
 10
471.3448397631554
 20
573.9556219472049
 30
0.0
 10
471.2357399857643
 20
574.2265952915743
 30
0.0
 10
471.2333925289302
 20
574.3368345402052
 30
0.0
  0
SPLINE
  5
229
330
1FF
100
AcDbEntity
  8
0
  6
Continuous
 62
     0
370
     0
100
AcDbSpline
210
0.0
220
0.0
230
1.0
 70
     8
 71
     3
 72
    19
 73
    15
 74
     0
 42
0.0
 43
0.0
 40
5.343266495893237
 40
5.343266495893237
 40
5.343266495893237
 40
5.343266495893237
 40
6.32391116788351
 40
7.661351199193069
 40
8.952158795729051
 40
10.23687625134339
 40
11.6201887532878
 40
12.6699143264469
 40
13.90342270692967
 40
15.64836897466497
 40
17.34311723258501
 40
18.41361149052811
 40
19.47528666719966
 40
21.03953786596914
 40
21.03953786596914
 40
21.03953786596914
 40
21.03953786596914
 10
484.1569923547763
 20
574.2895241504799
 30
0.0
 10
484.1512189063217
 20
574.0095007957124
 30
0.0
 10
484.0843462891402
 20
573.3477219171498
 30
0.0
 10
483.785567461283
 20
572.3657828710154
 30
0.0
 10
483.2290363999731
 20
571.4438777077291
 30
0.0
 10
482.4506441149944
 20
570.7266368839283
 30
0.0
 10
481.5399168718303
 20
570.3133154739804
 30
0.0
 10
480.5217074706128
 20
570.1488469370329
 30
0.0
 10
479.3141681958281
 20
570.1984297154512
 30
0.0
 10
477.8349347334597
 20
570.5440817126778
 30
0.0
 10
476.3964018601872
 20
571.0859921032388
 30
0.0
 10
475.2213326210476
 20
571.6157448194816
 30
0.0
 10
474.1496179433611
 20
572.14808529462
 30
0.0
 10
473.4714003708013
 20
572.5187883784265
 30
0.0
 10
473.1107706519584
 20
572.726998095897
 30
0.0
  0
ELLIPSE
  5
22A
330
1FF
100
AcDbEntity
  8
0
  6
Continuous
 62
     0
370
     0
100
AcDbEllipse
 10
485.815623
 20
579.990899
 30
0.0
 11
2.500000470247435
 21
4.330126747424679
 31
0.0
210
0.0
220
0.0
230
1.0
 40
0.57735
 41
3.446483624628149
 42
3.926990879686896
  0
SPLINE
  5
22B
330
1FF
100
AcDbEntity
  8
0
  6
Continuous
 62
     0
370
     0
100
AcDbSpline
210
0.0
220
0.0
230
1.0
 70
     8
 71
     3
 72
     8
 73
     4
 74
     0
 42
0.0
 43
0.0
 40
0.0
 40
0.0
 40
0.0
 40
0.0
 40
1.0
 40
1.0
 40
1.0
 40
1.0
 10
484.1957010923307
 20
576.5454862753327
 30
0.0
 10
484.7899934255755
 20
576.3992322364361
 30
0.0
 10
485.3353846978503
 20
576.1856818899583
 30
0.0
 10
485.8156226735383
 20
575.908416295882
 30
0.0
  0
SPLINE
  5
22C
330
1FF
100
AcDbEntity
  8
0
  6
Continuous
 62
     0
370
     0
100
AcDbSpline
210
0.0
220
0.0
230
1.0
 70
     8
 71
     3
 72
    15
 73
    11
 74
     0
 42
0.0
 43
0.0
 40
0.0
 40
0.0
 40
0.0
 40
0.0
 40
3.004295903646847
 40
6.017293057819065
 40
8.458208939344342
 40
9.93455495835826
 40
12.21528003184906
 40
14.06340335768629
 40
16.08163160756787
 40
16.5054101384803
 40
16.5054101384803
 40
16.5054101384803
 40
16.5054101384803
 10
469.5757747738731
 20
566.5323357394118
 30
0.0
 10
468.939545899108
 20
566.8996627436488
 30
0.0
 10
467.8959321980006
 20
567.6749323422486
 30
0.0
 10
467.2018691773351
 20
568.7956171873606
 30
0.0
 10
467.2227440667222
 20
569.7229366927453
 30
0.0
 10
467.6117696014441
 20
570.5681240886969
 30
0.0
 10
468.2794822386999
 20
571.3538068472268
 30
0.0
 10
469.3743785718935
 20
572.2498952304079
 30
0.0
 10
470.3558127946761
 20
572.8939608171531
 30
0.0
 10
470.9790105100474
 20
573.2608709179267
 30
0.0
 10
471.0889844273526
 20
573.3244802280221
 30
0.0
  0
ELLIPSE
  5
22D
330
1FF
100
AcDbEntity
  8
0
  6
Continuous
 62
     0
370
     0
100
AcDbEllipse
 10
469.575775
 20
570.614818
 30
0.0
 11
2.500000470247433
 21
4.33012674742468
 31
0.0
210
0.0
220
0.0
230
1.0
 40
0.57735
 41
3.926990879686895
 42
5.515240499001734
  0
SPLINE
  5
22E
330
1FF
100
AcDbEntity
  8
0
  6
Continuous
 62
     0
370
     0
100
AcDbSpline
210
0.0
220
0.0
230
1.0
 70
     8
 71
     3
 72
    21
 73
    17
 74
     0
 42
0.0
 43
0.0
 40
0.0
 40
0.0
 40
0.0
 40
0.0
 40
3.004295903647487
 40
6.01729305781994
 40
8.458208939345289
 40
9.934554958359266
 40
12.21528003185013
 40
14.06340335768736
 40
16.08163160756893
 40
18.25474785008434
 40
19.90381535291495
 40
21.8415966518898
 40
24.58282184243938
 40
27.24518841621357
 40
30.59472225158563
 40
33.05208433184011
 40
33.05208433184011
 40
33.05208433184011
 40
33.05208433184011
 10
485.8156226735383
 20
575.908416295882
 30
0.0
 10
486.4518515483036
 20
575.541089291645
 30
0.0
 10
487.4954652292235
 20
574.5799283398937
 30
0.0
 10
488.1895281743382
 20
572.7635589498664
 30
0.0
 10
488.168653205397
 20
571.1036920584672
 30
0.0
 10
487.7796275992881
 20
569.601162683751
 30
0.0
 10
487.1119149034117
 20
568.2756912099051
 30
0.0
 10
486.0170185243568
 20
566.957305998136
 30
0.0
 10
484.6353959751319
 20
565.8569698478185
 30
0.0
 10
483.0343367106238
 20
565.0632736696282
 30
0.0
 10
481.2911331068898
 20
564.5513976297768
 30
0.0
 10
479.2665858646876
 20
564.2622100752772
 30
0.0
 10
476.8466961670778
 20
564.30228340191
 30
0.0
 10
474.0186231409668
 20
564.7652245664634
 30
0.0
 10
471.5067132593178
 20
565.5537617774655
 30
0.0
 10
470.0961778105091
 20
566.2318808307693
 30
0.0
 10
469.5757747738731
 20
566.5323357394118
 30
0.0
  0
LINE
  5
22F
330
1FF
100
AcDbEntity
  8
0
  6
Continuous
 62
     0
370
    30
100
AcDbLine
 10
481.933834
 20
538.178799
 30
0.0
 11
481.297246
 21
538.546333
 31
0.0
  0
SPLINE
  5
230
330
1FF
100
AcDbEntity
  8
0
  6
Continuous
 62
     0
370
    30
100
AcDbSpline
210
0.0
220
0.0
230
1.0
 70
     8
 71
     3
 72
     9
 73
     5
 74
     0
 42
0.0
 43
0.0
 40
0.0
 40
0.0
 40
0.0
 40
0.0
 40
1.884994507081518
 40
4.471886377056387
 40
4.471886377056387
 40
4.471886377056387
 40
4.471886377056387
 10
481.2972460529923
 20
538.5463332193301
 30
0.0
 10
481.4044592994372
 20
538.1793899913087
 30
0.0
 10
481.6169901554098
 20
537.3355549101041
 30
0.0
 10
481.7280114514504
 20
536.5619361340778
 30
0.0
 10
481.7575235535692
 20
536.1411114895527
 30
0.0
  0
SPLINE
  5
231
330
1FF
100
AcDbEntity
  8
0
  6
Continuous
 62
     0
370
    30
100
AcDbSpline
210
0.0
220
0.0
230
1.0
 70
     8
 71
     3
 72
    11
 73
     7
 74
     0
 42
0.0
 43
0.0
 40
4.404563857902346
 40
4.404563857902346
 40
4.404563857902346
 40
4.404563857902346
 40
4.744068051412471
 40
9.96978525295273
 40
15.62697081957014
 40
18.76090241147
 40
18.76090241147
 40
18.76090241147
 40
18.76090241147
 10
481.7575323430369
 20
536.1411049111654
 30
0.0
 10
481.7706344859448
 20
536.0791498229146
 30
0.0
 10
481.9753701313929
 20
535.0705091329639
 30
0.0
 10
482.0551982831946
 20
533.2697643742887
 30
0.0
 10
481.3134572226061
 20
531.7285696203633
 30
0.0
 10
480.427057251157
 20
531.186224426461
 30
0.0
 10
480.0598802630517
 20
531.050146841817
 30
0.0
  0
SPLINE
  5
232
330
1FF
100
AcDbEntity
  8
0
  6
Continuous
 62
     0
370
    30
100
AcDbSpline
210
0.0
220
0.0
230
1.0
 70
    12
 71
     2
 72
     8
 73
     5
 74
     0
 42
0.0
 43
0.0
 40
0.0
 40
0.0
 40
0.0
 40
0.3333333333333333
 40
0.3333333333333333
 40
0.3343840844031123
 40
0.3343840844031123
 40
0.3343840844031123
 10
481.9338342852967
 20
538.1787987398691
 30
0.0
 41
1.0
 10
485.4828018896351
 20
529.4127930256541
 30
0.0
 41
0.861987242667228
 10
479.2848069443863
 20
529.585169444598
 30
0.0
 41
1.0
 10
479.2679584098278
 20
529.5856380300158
 30
0.0
 41
0.9995649488427683
 10
479.2510447054688
 20
529.5861946270719
 30
0.0
 41
0.9991326404683498
  0
ELLIPSE
  5
233
330
1FF
100
AcDbEntity
  8
0
  6
Continuous
 62
     0
370
    30
100
AcDbEllipse
 10
466.381988
 20
546.72548
 30
0.0
 11
-10.55000000745059
 21
18.27313603275645
 31
0.0
210
0.0
220
0.0
230
-0.9999999999999999
 40
0.57735
 41
0.785398288796773
 42
2.331105972374175
  0
ELLIPSE
  5
234
330
1FF
100
AcDbEntity
  8
0
  6
Continuous
 62
     0
370
    30
100
AcDbEllipse
 10
466.381988
 20
546.72548
 30
0.0
 11
-10.55000000745059
 21
18.27313603275645
 31
0.0
210
0.0
220
0.0
230
-0.9999999999999999
 40
0.57735
 41
0.6669544039956052
 42
0.7853982887967718
  0
ELLIPSE
  5
235
330
1FF
100
AcDbEntity
  8
0
  6
Continuous
 62
     0
370
    30
100
AcDbEllipse
 10
466.381988
 20
546.72548
 30
0.0
 11
-11.0
 21
19.05255888325765
 31
0.0
210
0.0
220
0.0
230
-0.9999999999999997
 40
0.57735
 41
0.4138490988239506
 42
0.7853982887967729
  0
ELLIPSE
  5
236
330
1FF
100
AcDbEntity
  8
0
  6
Continuous
 62
     0
370
    30
100
AcDbEllipse
 10
466.381988
 20
546.72548
 30
0.0
 11
-11.0
 21
19.05255888325765
 31
0.0
210
0.0
220
0.0
230
-0.9999999999999997
 40
0.57735
 41
0.7853982887967731
 42
2.332132528298362
  0
ELLIPSE
  5
237
330
1FF
100
AcDbEntity
  8
0
  6
Continuous
 62
     0
370
     0
100
AcDbEllipse
 10
487.948745
 20
559.177053
 30
0.0
 11
-11.0
 21
19.05255888325765
 31
0.0
210
0.0
220
0.0
230
-0.9999999999999997
 40
0.57735
 41
0.5417395394097217
 42
0.7853982887967721
  0
ELLIPSE
  5
238
330
1FF
100
AcDbEntity
  8
0
  6
Continuous
 62
     0
370
     0
100
AcDbEllipse
 10
487.948745
 20
559.177053
 30
0.0
 11
-11.0
 21
19.05255888325765
 31
0.0
210
0.0
220
0.0
230
-0.9999999999999997
 40
0.57735
 41
0.7853982887967729
 42
3.141592622099949
  0
SPLINE
  5
239
330
1FF
100
AcDbEntity
  8
0
  6
Continuous
 62
     0
370
    30
100
AcDbSpline
210
0.0
220
0.0
230
1.0
 70
     8
 71
     3
 72
    15
 73
    11
 74
     0
 42
0.0
 43
0.0
 40
0.0
 40
0.0
 40
0.0
 40
0.0
 40
3.604916580329949
 40
9.40474614464741
 40
17.66188983582949
 40
25.08417716696645
 40
33.34526373195439
 40
41.63782691759258
 40
47.73147479100489
 40
51.48905609367757
 40
51.48905609367757
 40
51.48905609367757
 40
51.48905609367757
 10
488.1987470591257
 20
577.1647406360582
 30
0.0
 10
489.0543494475252
 20
576.670758242545
 30
0.0
 10
491.2854624949148
 20
575.1694001162376
 30
0.0
 10
495.3083576737091
 20
571.4205163088133
 30
0.0
 10
499.5019585942778
 20
565.5397368746143
 30
0.0
 10
502.6907680153469
 20
558.2064255090978
 30
0.0
 10
504.0135312904463
 20
550.9602733439344
 30
0.0
 10
503.2094391612193
 20
545.1458459993746
 30
0.0
 10
501.1730883111879
 20
541.7487034170056
 30
0.0
 10
499.6017305972251
 20
540.5014950824814
 30
0.0
 10
498.9487455512303
 20
540.1244939524032
 30
0.0
  0
ARC
  5
23A
330
1FF
100
AcDbEntity
  8
0
  6
Continuous
 62
     0
370
    30
100
AcDbCircle
 10
479.577566
 20
562.516947
 30
0.0
 40
16.99654746705365
100
AcDbArc
 50
59.52042
 51
74.233942
  0
LINE
  5
23B
330
1FF
100
AcDbEntity
  8
0
  6
Continuous
 62
     0
370
    30
100
AcDbLine
 10
481.521888
 20
530.063093
 30
0.0
 11
498.948745
 21
540.124494
 31
0.0
  0
LINE
  5
23C
330
1FF
100
AcDbEntity
  8
0
  6
Continuous
 62
     0
370
    30
100
AcDbLine
 10
460.734112
 20
568.868089
 30
0.0
 11
471.220791
 21
574.922576
 31
0.0
  0
SPLINE
  5
23D
330
1FF
100
AcDbEntity
  8
0
  6
Continuous
 62
     0
370
    30
100
AcDbSpline
210
0.0
220
0.0
230
1.0
 70
     8
 71
     3
 72
    11
 73
     7
 74
     0
 42
0.0
 43
0.0
 40
17.65491075341988
 40
17.65491075341988
 40
17.65491075341988
 40
17.65491075341988
 40
17.74230589009743
 40
18.99714629575569
 40
20.14710018845693
 40
22.13160281073323
 40
22.13160281073323
 40
22.13160281073323
 40
22.13160281073323
 10
470.7196742568146
 20
572.5988229738783
 30
0.0
 10
470.7196553156292
 20
572.5988400727714
 30
0.0
 10
470.7229059817902
 20
572.6030259095257
 30
0.0
 10
470.8294643607169
 20
572.7260308169499
 30
0.0
 10
471.1241427832016
 20
573.302490169571
 30
0.0
 10
471.2417194067862
 20
573.9462588820049
 30
0.0
 10
471.2333930844246
 20
574.3367994631797
 30
0.0
  0
LINE
  5
23E
330
1FF
100
AcDbEntity
  8
0
  6
Continuous
 62
     0
370
    30
100
AcDbLine
 10
471.196194
 20
576.073037
 30
0.0
 11
471.233314
 21
574.336833
 31
0.0
  0
LINE
  5
23F
330
1FF
100
AcDbEntity
  8
0
  6
Continuous
 62
     0
370
    30
100
AcDbLine
 10
484.195204
 20
576.073035
 30
0.0
 11
484.15699
 21
574.28565
 31
0.0
  0
ELLIPSE
  5
240
330
1FF
100
AcDbEntity
  8
0
  6
Continuous
 62
     0
370
    30
100
AcDbEllipse
 10
438.734112
 20
419.719449
 30
0.0
 11
-22.0
 21
0.0
 31
0.0
210
0.0
220
0.0
230
1.0
 40
0.57735
 41
2.137478420705254
 42
2.340451262411497
  0
ELLIPSE
  5
241
330
1FF
100
AcDbEntity
  8
0
  6
Continuous
 62
     0
370
    30
100
AcDbEllipse
 10
438.734112
 20
419.719449
 30
0.0
 11
-22.0
 21
0.0
 31
0.0
210
0.0
220
0.0
230
1.0
 40
0.57735
 41
6.283185298539899
 42
8.420663727884842
  0
ELLIPSE
  5
242
330
1FF
100
AcDbEntity
  8
0
  6
Continuous
 62
     0
370
     0
100
AcDbEllipse
 10
438.734112
 20
415.636966
 30
0.0
 11
-27.0
 21
0.0
 31
0.0
210
0.0
220
0.0
230
1.0
 40
0.57735
 41
2.137478420705254
 42
3.759979541972132
  0
ELLIPSE
  5
243
330
1FF
100
AcDbEntity
  8
0
  6
Continuous
 62
     0
370
     0
100
AcDbEllipse
 10
438.734112
 20
415.636966
 30
0.0
 11
-27.0
 21
0.0
 31
0.0
210
0.0
220
0.0
230
1.0
 40
0.57735
 41
5.664798401517871
 42
8.42066372788484
  0
ELLIPSE
  5
244
330
1FF
100
AcDbEntity
  8
0
  6
Continuous
 62
     0
370
     0
100
AcDbEllipse
 10
438.734112
 20
411.146235
 30
0.0
 11
-30.0
 21
0.0
 31
0.0
210
0.0
220
0.0
230
1.0
 40
0.57735
 41
2.137478420705254
 42
3.141592644950105
  0
ELLIPSE
  5
245
330
1FF
100
AcDbEntity
  8
0
  6
Continuous
 62
     0
370
     0
100
AcDbEllipse
 10
438.734112
 20
411.146235
 30
0.0
 11
-30.0
 21
0.0
 31
0.0
210
0.0
220
0.0
230
1.0
 40
0.57735
 41
6.283185298539901
 42
8.42066372788484
  0
ELLIPSE
  5
246
330
1FF
100
AcDbEntity
  8
0
  6
Continuous
 62
     0
370
     0
100
AcDbEllipse
 10
438.734112
 20
415.228718
 30
0.0
 11
-30.0
 21
0.0
 31
0.0
210
0.0
220
0.0
230
1.0
 40
0.57735
 41
6.28316671086
 42
8.420663727884842
  0
ELLIPSE
  5
247
330
1FF
100
AcDbEntity
  8
0
  6
Continuous
 62
     0
370
     0
100
AcDbEllipse
 10
438.734112
 20
415.228718
 30
0.0
 11
-30.0
 21
0.0
 31
0.0
210
0.0
220
0.0
230
1.0
 40
0.57735
 41
2.137478420705254
 42
3.141610403676345
  0
ELLIPSE
  5
248
330
1FF
100
AcDbEntity
  8
0
  6
Continuous
 62
     0
370
     0
100
AcDbEllipse
 10
438.734112
 20
415.636966
 30
0.0
 11
-29.5
 21
0.0
 31
0.0
210
0.0
220
0.0
230
1.0
 40
0.57735
 41
2.137478420705254
 42
3.870710217084828
  0
ELLIPSE
  5
249
330
1FF
100
AcDbEntity
  8
0
  6
Continuous
 62
     0
370
     0
100
AcDbEllipse
 10
438.734112
 20
415.636966
 30
0.0
 11
-29.5
 21
0.0
 31
0.0
210
0.0
220
0.0
230
1.0
 40
0.57735
 41
5.554067726405175
 42
8.42066372788484
  0
SPLINE
  5
24A
330
1FF
100
AcDbEntity
  8
0
  6
Continuous
 62
     0
370
    30
100
AcDbSpline
210
0.0
220
0.0
230
1.0
 70
     8
 71
     3
 72
    15
 73
    11
 74
     0
 42
0.0
 43
0.0
 40
0.0
 40
0.0
 40
0.0
 40
0.0
 40
5.014054705782017
 40
13.0150200162246
 40
22.69661212355139
 40
32.63779271021755
 40
41.65830241413278
 40
51.78366427019408
 40
59.10348100999884
 40
63.81131193836641
 40
63.81131193836641
 40
63.81131193836641
 40
63.81131193836641
 10
408.7341113417641
 20
411.1465570356577
 30
0.0
 10
408.7341113273452
 20
410.1516462591077
 30
0.0
 10
409.1099086633304
 20
407.5602364335
 30
0.0
 10
411.4281705737588
 20
403.2533370569266
 30
0.0
 10
416.7231536028312
 20
398.7523122147163
 30
0.0
 10
424.4768956487423
 20
395.3783665391053
 30
0.0
 10
433.7669743998076
 20
393.5520158610148
 30
0.0
 10
442.7158387231282
 20
393.5169468246806
 30
0.0
 10
449.855752577102
 20
394.7295310478974
 30
0.0
 10
453.417157614513
 20
395.8202433613878
 30
0.0
 10
454.7432365037714
 20
396.3074003135704
 30
0.0
  0
SPLINE
  5
24B
330
1FF
100
AcDbEntity
  8
0
  6
Continuous
 62
     0
370
    30
100
AcDbSpline
210
0.0
220
0.0
230
1.0
 70
     8
 71
     3
 72
    11
 73
     7
 74
     0
 42
0.0
 43
0.0
 40
0.0
 40
0.0
 40
0.0
 40
0.0
 40
6.073706124715748
 40
14.28470699455787
 40
23.80936420477535
 40
30.03961219109668
 40
30.03961219109668
 40
30.03961219109668
 40
30.03961219109668
 10
468.7341425083481
 20
411.1465423967117
 30
0.0
 10
468.7341424908918
 20
409.9420238324132
 30
0.0
 10
468.233419924615
 20
407.0969757098278
 30
0.0
 10
465.5021461031583
 20
402.6446773480592
 30
0.0
 10
460.6535012935225
 20
398.8556082806723
 30
0.0
 10
456.4968187467121
 20
396.9516076729939
 30
0.0
 10
454.7432365042683
 20
396.307400313753
 30
0.0
  0
SPLINE
  5
24C
330
1FF
100
AcDbEntity
  8
0
  6
Continuous
 62
     0
370
    30
100
AcDbSpline
210
0.0
220
0.0
230
1.0
 70
     8
 71
     3
 72
    11
 73
     7
 74
     0
 42
0.0
 43
0.0
 40
71.61448195087696
 40
71.61448195087696
 40
71.61448195087696
 40
71.61448195087696
 40
72.07761971742521
 40
81.58433064185856
 40
89.10775857299014
 40
93.84886566402005
 40
93.84886566402005
 40
93.84886566402005
 40
93.84886566402005
 10
460.7341079668257
 20
427.1685189977017
 30
0.0
 10
460.8392221381027
 20
427.1024058771601
 30
0.0
 10
463.0831743777683
 20
425.6687683541979
 30
0.0
 10
466.2983756750195
 20
422.7641878704728
 30
0.0
 10
468.3991807939484
 20
418.6115536027107
 30
0.0
 10
468.7341425470647
 20
416.1699265581055
 30
0.0
 10
468.7341425083481
 20
415.2290252840793
 30
0.0
  0
SPLINE
  5
24D
330
1FF
100
AcDbEntity
  8
0
  6
Continuous
 62
     0
370
    30
100
AcDbSpline
210
0.0
220
0.0
230
1.0
 70
     8
 71
     3
 72
    10
 73
     6
 74
     0
 42
0.0
 43
0.0
 40
0.0
 40
0.0
 40
0.0
 40
0.0
 40
5.013914430888505
 40
13.03318298328672
 40
22.23396783140661
 40
22.23396783140661
 40
22.23396783140661
 40
22.23396783140661
 10
408.7341113417641
 20
415.2290399402963
 30
0.0
 10
408.7341113561827
 20
416.2239237038464
 30
0.0
 10
409.1108664525254
 20
418.8188563641885
 30
0.0
 10
411.3841008684221
 20
423.0378035380471
 30
0.0
 10
414.6463467869243
 20
425.8547104762391
 30
0.0
 10
416.7341159538471
 20
427.1684109638521
 30
0.0
  0
LINE
  5
24E
330
1FF
100
AcDbEntity
  8
0
  6
Continuous
 62
     0
370
    30
100
AcDbLine
 10
468.734112
 20
411.146235
 30
0.0
 11
468.734112
 21
415.228718
 31
0.0
  0
LINE
  5
24F
330
1FF
100
AcDbEntity
  8
0
  6
Continuous
 62
     0
370
    30
100
AcDbLine
 10
408.734112
 20
411.146235
 30
0.0
 11
408.734112
 21
415.228718
 31
0.0
  0
ELLIPSE
  5
250
330
1FF
100
AcDbEntity
  8
0
  6
Continuous
 62
     0
370
     0
100
AcDbEllipse
 10
416.164961
 20
514.548012
 30
0.0
 11
1.250000056244421
 21
2.165063476988364
 31
0.0
210
0.0
220
0.0
230
0.9999999999999999
 40
0.57735
 41
2.356194505190856
 42
3.141592630739634
  0
ELLIPSE
  5
251
330
1FF
100
AcDbEntity
  8
0
  6
Continuous
 62
     0
370
     0
100
AcDbEllipse
 10
416.164961
 20
514.548012
 30
0.0
 11
1.250000056244421
 21
2.165063476988364
 31
0.0
210
0.0
220
0.0
230
0.9999999999999999
 40
0.57735
 41
0.7462704008078178
 42
2.356194505190856
  0
ELLIPSE
  5
252
330
1FF
100
AcDbEntity
  8
0
  6
Continuous
 62
     0
370
    30
100
AcDbEllipse
 10
425.766673
 20
226.514373
 30
0.0
 11
1.74810233994316
 21
-0.08147520534034168
 31
0.0
210
0.0
220
0.0
230
-0.9999999999999997
 40
0.606775
 41
0.868476973931646
 42
2.32860727042788
  0
ELLIPSE
  5
253
330
1FF
100
AcDbEntity
  8
0
  6
Continuous
 62
     0
370
    30
100
AcDbEllipse
 10
425.794428
 20
227.109882
 30
0.0
 11
2.497289057061657
 21
-0.1163931504862024
 31
0.0
210
0.0
220
0.0
230
-1.0
 40
0.606775
 41
0.0000000103654599
 42
2.328607270427894
  0
ELLIPSE
  5
254
330
1FF
100
AcDbEntity
  8
0
  6
Continuous
 62
     0
370
    30
100
AcDbEllipse
 10
425.794428
 20
227.109882
 30
0.0
 11
2.497289057061657
 21
-0.1163931504862024
 31
0.0
210
0.0
220
0.0
230
-1.0
 40
0.606775
 41
2.328607270427894
 42
3.141592663955273
  0
ELLIPSE
  5
255
330
1FF
100
AcDbEntity
  8
0
  6
Continuous
 62
     0
370
     0
100
AcDbEllipse
 10
409.097251
 20
518.628556
 30
0.0
 11
1.250000056244421
 21
2.165063476988364
 31
0.0
210
0.0
220
0.0
230
0.9999999999999999
 40
0.57735
 41
2.356194505190856
 42
3.141592630739636
  0
ELLIPSE
  5
256
330
1FF
100
AcDbEntity
  8
0
  6
Continuous
 62
     0
370
     0
100
AcDbEllipse
 10
409.097251
 20
518.628556
 30
0.0
 11
1.250000056244421
 21
2.165063476988364
 31
0.0
210
0.0
220
0.0
230
0.9999999999999999
 40
0.57735
 41
6.283185284329429
 42
8.63937981237043
  0
SPLINE
  5
257
330
1FF
100
AcDbEntity
  8
0
  6
Continuous
 62
     0
370
    30
100
AcDbSpline
210
0.0
220
0.0
230
1.0
 70
     8
 71
     3
 72
    12
 73
     8
 74
     0
 42
0.0
 43
0.0
 40
0.0
 40
0.0
 40
0.0
 40
0.0
 40
0.7346996491148331
 40
1.653477552454127
 40
3.687886908588909
 40
4.478732178767673
 40
5.259212403301918
 40
5.259212403301918
 40
5.259212403301918
 40
5.259212403301918
 10
410.3472329590955
 20
520.7936301578429
 30
0.0
 10
410.1432488030488
 20
520.9114004772377
 30
0.0
 10
409.6249916279515
 20
521.0881151110193
 30
0.0
 10
408.4205799645085
 20
520.966751813706
 30
0.0
 10
407.4524028488332
 20
520.091896926212
 30
0.0
 10
406.9678639071915
 20
518.980549609169
 30
0.0
 10
406.8901445518362
 20
518.4711854843534
 30
0.0
 10
406.8901446451783
 20
518.2203067895275
 30
0.0
  0
ARC
  5
258
330
1FF
100
AcDbEntity
  8
0
  6
Continuous
 62
     0
370
    30
100
AcDbCircle
 10
408.870708
 20
518.160173
 30
0.0
 40
1.981475885931462
100
AcDbArc
 50
178.260891
 51
238.879202
  0
LINE
  5
259
330
1FF
100
AcDbEntity
  8
0
  6
Continuous
 62
     0
370
    30
100
AcDbLine
 10
407.847251
 20
516.463493
 30
0.0
 11
414.914961
 21
512.382948
 31
0.0
  0
LINE
  5
25A
330
1FF
100
AcDbEntity
  8
0
  6
Continuous
 62
     0
370
    30
100
AcDbLine
 10
410.347252
 20
520.793619
 30
0.0
 11
416.234112
 21
517.394839
 31
0.0
  0
LINE
  5
25B
330
1FF
100
AcDbEntity
  8
0
  6
Continuous
 62
     0
370
    30
100
AcDbLine
 10
424.125058
 20
226.029741
 30
0.0
 11
424.598065
 21
225.758303
 31
0.0
  0
LINE
  5
25C
330
1FF
100
AcDbEntity
  8
0
  6
Continuous
 62
     0
370
    30
100
AcDbLine
 10
427.354241
 20
225.878266
 30
0.0
 11
426.85855
 21
225.652246
 31
0.0
  0
LINE
  5
25D
330
1FF
100
AcDbEntity
  8
0
  6
Continuous
 62
     0
370
    30
100
AcDbLine
 10
431.079045
 20
394.19202
 30
0.0
 11
423.297139
 21
227.226275
 31
0.0
  0
LINE
  5
25E
330
1FF
100
AcDbEntity
  8
0
  6
Continuous
 62
     0
370
    30
100
AcDbLine
 10
436.060811
 20
393.684338
 30
0.0
 11
428.291717
 21
226.993489
 31
0.0
  0
ARC
  5
25F
330
1FF
100
AcDbEntity
  8
0
  6
Continuous
 62
     0
370
    30
100
AcDbCircle
 10
412.375009
 20
508.310161
 30
0.0
 40
4.799891034903322
100
AcDbArc
 50
36.486406
 51
58.050706
  0
ELLIPSE
  5
260
330
1FF
100
AcDbEntity
  8
0
  6
Continuous
 62
     0
370
     0
100
AcDbEllipse
 10
438.734112
 20
650.910451
 30
0.0
 11
11.0
 21
0.0
 31
0.0
210
0.0
220
0.0
230
-1.0
 40
0.57735
 41
2.356194490192345
 42
3.141597942616591
  0
ELLIPSE
  5
261
330
1FF
100
AcDbEntity
  8
0
  6
Continuous
 62
     0
370
     0
100
AcDbEllipse
 10
438.734112
 20
650.910451
 30
0.0
 11
11.0
 21
0.0
 31
0.0
210
0.0
220
0.0
230
-1.0
 40
0.57735
 41
6.28318475264496
 42
8.63937979737193
  0
ELLIPSE
  5
262
330
1FF
100
AcDbEntity
  8
0
  6
Continuous
 62
     0
370
     0
100
AcDbEllipse
 10
566.013332
 20
577.425759
 30
0.0
 11
-11.0
 21
0.0
 31
0.0
210
0.0
220
0.0
230
1.0
 40
0.57735
 41
0.7853981633974481
 42
3.141594136107464
  0
ELLIPSE
  5
263
330
1FF
100
AcDbEntity
  8
0
  6
Continuous
 62
     0
370
     0
100
AcDbEllipse
 10
566.013332
 20
577.425759
 30
0.0
 11
-11.0
 21
0.0
 31
0.0
210
0.0
220
0.0
230
1.0
 40
0.57735
 41
6.283185298539896
 42
7.068583470577034
  0
ELLIPSE
  5
264
330
1FF
100
AcDbEntity
  8
0
  6
Continuous
 62
     0
370
    30
100
AcDbEllipse
 10
566.013332
 20
557.829841
 30
0.0
 11
-11.0
 21
0.0
 31
0.0
210
0.0
220
0.0
230
1.0
 40
0.57735
 41
0.7853981633974481
 42
3.141592644950105
  0
ELLIPSE
  5
265
330
1FF
100
AcDbEntity
  8
0
  6
Continuous
 62
     0
370
    30
100
AcDbEllipse
 10
566.013332
 20
557.829841
 30
0.0
 11
-11.0
 21
0.0
 31
0.0
210
0.0
220
0.0
230
1.0
 40
0.57735
 41
6.283185298539899
 42
7.068583470577034
  0
LINE
  5
266
330
1FF
100
AcDbEntity
  8
0
  6
Continuous
 62
     0
370
    30
100
AcDbLine
 10
577.013332
 20
557.829841
 30
0.0
 11
577.013332
 21
577.425759
 31
0.0
  0
LINE
  5
267
330
1FF
100
AcDbEntity
  8
0
  6
Continuous
 62
     0
370
    30
100
AcDbLine
 10
555.013332
 20
557.829841
 30
0.0
 11
555.013332
 21
577.425759
 31
0.0
  0
SPLINE
  5
268
330
1FF
100
AcDbEntity
  8
0
  6
Continuous
 62
     0
370
    30
100
AcDbSpline
210
0.0
220
0.0
230
1.0
 70
     8
 71
     3
 72
    22
 73
    18
 74
     0
 42
0.0
 43
0.0
 40
0.0
 40
0.0
 40
0.0
 40
0.0
 40
19.28754060164516
 40
48.67547227202304
 40
68.43149791504001
 40
93.07075306855809
 40
115.5101789494239
 40
135.8504612220493
 40
163.6048644880698
 40
182.2780553148712
 40
206.1320631804619
 40
226.7617355335752
 40
243.586677857147
 40
264.3943026423261
 40
279.0958313067514
 40
294.2318774785115
 40
309.602799857208
 40
309.602799857208
 40
309.602799857208
 40
309.602799857208
 10
577.0133323994671
 20
577.4257586055019
 30
0.0
 10
577.0133324025823
 20
582.8675103965729
 30
0.0
 10
575.8409970518098
 20
597.1422790880731
 30
0.0
 10
570.2039144485279
 20
618.2167088508239
 30
0.0
 10
560.2675035615275
 20
640.5892025997579
 30
0.0
 10
548.5124777655864
 20
659.6914886162056
 30
0.0
 10
534.3746156696772
 20
676.6222420398487
 30
0.0
 10
518.0750727802257
 20
691.2830075447685
 30
0.0
 10
501.6791387164383
 20
701.2506262341349
 30
0.0
 10
484.226737671885
 20
707.0368357840208
 30
0.0
 10
468.7705669041738
 20
707.9664617851995
 30
0.0
 10
454.8761001280036
 20
703.9781878189177
 30
0.0
 10
443.6175113407576
 20
696.3220757757463
 30
0.0
 10
435.9416249532252
 20
686.5043985254313
 30
0.0
 10
430.9670760942933
 20
675.0403373783083
 30
0.0
 10
428.3198107367869
 20
663.6216828032772
 30
0.0
 10
427.734113306584
 20
655.2495408081501
 30
0.0
 10
427.7341117860425
 20
650.910484533698
 30
0.0
  0
SPLINE
  5
269
330
1FF
100
AcDbEntity
  8
0
  6
Continuous
 62
     0
370
    30
100
AcDbSpline
210
0.0
220
0.0
230
1.0
 70
     8
 71
     3
 72
    26
 73
    22
 74
     0
 42
0.0
 43
0.0
 40
0.0
 40
0.0
 40
0.0
 40
0.0
 40
7.110774186891152
 40
18.24440616097122
 40
44.72551505729333
 40
53.82961177976775
 40
68.73828297247606
 40
83.61676655533802
 40
109.8422492653761
 40
123.8190353851865
 40
145.3863333182731
 40
155.561899369813
 40
161.464942705524
 40
176.5581932794891
 40
188.8786083048114
 40
201.3645258956172
 40
216.9994776110913
 40
223.562250924841
 40
235.5165422760942
 40
249.9558750127578
 40
258.3300895589419
 40
258.3300895589419
 40
258.3300895589419
 40
258.3300895589419
 10
555.0133323994671
 20
577.4257587152405
 30
0.0
 10
555.0133323981008
 20
579.2647963908055
 30
0.0
 10
554.8365670026526
 20
584.1256510800392
 30
0.0
 10
553.2722178860357
 20
596.7634608563781
 30
0.0
 10
549.1808943633981
 20
611.0022576622466
 30
0.0
 10
542.5314100381881
 20
626.2336869255855
 30
0.0
 10
536.3482471364538
 20
637.6788455104603
 30
0.0
 10
525.8520169994108
 20
653.0748459107333
 30
0.0
 10
513.8658235301825
 20
665.9947787750801
 30
0.0
 10
499.8166813912302
 20
676.8531687272796
 30
0.0
 10
489.5414813537358
 20
682.1905418065548
 30
0.0
 10
481.8394436546598
 20
684.4399088215407
 30
0.0
 10
475.9088489692862
 20
685.4425705890997
 30
0.0
 10
470.2940689598448
 20
685.3624379138545
 30
0.0
 10
464.7968037980463
 20
683.7959702971131
 30
0.0
 10
460.0970133941526
 20
681.0059774473109
 30
0.0
 10
456.6336445249045
 20
677.2592237483572
 30
0.0
 10
453.7254538133599
 20
672.281946039326
 30
0.0
 10
451.4240457956922
 20
666.428883364101
 30
0.0
 10
449.9938341651711
 20
658.7748453937661
 30
0.0
 10
449.7341117842832
 20
653.0759176547753
 30
0.0
 10
449.7341117858886
 20
650.9104508891148
 30
0.0
  0
LINE
  5
26A
330
1FF
100
AcDbEntity
  8
0
  6
Continuous
 62
     0
370
    30
100
AcDbLine
 10
427.734112
 20
650.910451
 30
0.0
 11
427.734112
 21
574.308613
 31
0.0
  0
LINE
  5
26B
330
1FF
100
AcDbEntity
  8
0
  6
Continuous
 62
     0
370
    30
100
AcDbLine
 10
449.734112
 20
650.910451
 30
0.0
 11
449.734112
 21
574.308613
 31
0.0
  0
ELLIPSE
  5
26C
330
1FF
100
AcDbEntity
  8
0
  6
Continuous
 62
     0
370
    30
100
AcDbEllipse
 10
438.734112
 20
573.302451
 30
0.0
 11
-11.25
 21
0.0
 31
0.0
210
0.0
220
0.0
230
1.0
 40
0.57735
 41
6.07197441818057
 42
6.099884151425982
  0
ELLIPSE
  5
26D
330
1FF
100
AcDbEntity
  8
0
  6
Continuous
 62
     0
370
    30
100
AcDbEllipse
 10
438.734112
 20
573.302451
 30
0.0
 11
-11.25
 21
0.0
 31
0.0
210
0.0
220
0.0
230
1.0
 40
0.57735
 41
3.324893792064016
 42
3.352803525309138
  0
ELLIPSE
  5
26E
330
1FF
100
AcDbEntity
  8
0
  6
Continuous
 62
     0
370
    30
100
AcDbEllipse
 10
438.734112
 20
574.853795
 30
0.0
 11
-11.25
 21
0.0
 31
0.0
210
0.0
220
0.0
230
1.0
 40
0.57735
 41
3.204488036688409
 42
3.352803525309136
  0
ELLIPSE
  5
26F
330
1FF
100
AcDbEntity
  8
0
  6
Continuous
 62
     0
370
    30
100
AcDbEllipse
 10
438.734112
 20
574.853795
 30
0.0
 11
-11.25
 21
0.0
 31
0.0
210
0.0
220
0.0
230
1.0
 40
0.57735
 41
6.071974418180572
 42
6.220289906801589
  0
ELLIPSE
  5
270
330
1FF
100
AcDbEntity
  8
0
  6
Continuous
 62
     0
370
    30
100
AcDbEllipse
 10
438.734112
 20
575.670291
 30
0.0
 11
-11.25
 21
0.0
 31
0.0
210
0.0
220
0.0
230
1.0
 40
0.57735
 41
2.606811293971979
 42
3.352803525309136
  0
ELLIPSE
  5
271
330
1FF
100
AcDbEntity
  8
0
  6
Continuous
 62
     0
370
    30
100
AcDbEllipse
 10
438.734112
 20
575.670291
 30
0.0
 11
-11.25
 21
0.0
 31
0.0
210
0.0
220
0.0
230
1.0
 40
0.57735
 41
6.071974418180574
 42
8.889996601151566
  0
ELLIPSE
  5
272
330
1FF
100
AcDbEntity
  8
0
  6
Continuous
 62
     0
370
     0
100
AcDbEllipse
 10
438.734112
 20
575.670291
 30
0.0
 11
-21.5
 21
0.0
 31
0.0
210
0.0
220
0.0
230
1.0
 40
0.57735
 41
5.249467357438626
 42
5.748403947561769
  0
ELLIPSE
  5
273
330
1FF
100
AcDbEntity
  8
0
  6
Continuous
 62
     0
370
     0
100
AcDbEllipse
 10
438.734112
 20
575.670291
 30
0.0
 11
-21.5
 21
0.0
 31
0.0
210
0.0
220
0.0
230
1.0
 40
0.57735
 41
2.606811293971979
 42
4.175310586051339
  0
ELLIPSE
  5
274
330
1FF
100
AcDbEntity
  8
0
  6
Continuous
 62
     0
370
     0
100
AcDbEllipse
 10
438.734112
 20
575.670291
 30
0.0
 11
-21.5
 21
0.0
 31
0.0
210
0.0
220
0.0
230
1.0
 40
0.57735
 41
5.748403947561773
 42
8.889996601151566
  0
ELLIPSE
  5
275
330
1FF
100
AcDbEntity
  8
0
  6
Continuous
 62
     0
370
     0
100
AcDbEllipse
 10
438.734112
 20
575.262043
 30
0.0
 11
-22.0
 21
0.0
 31
0.0
210
0.0
220
0.0
230
1.0
 40
0.57735
 41
2.606811293971979
 42
3.153975731114197
  0
ELLIPSE
  5
276
330
1FF
100
AcDbEntity
  8
0
  6
Continuous
 62
     0
370
     0
100
AcDbEllipse
 10
438.734112
 20
575.262043
 30
0.0
 11
-22.0
 21
0.0
 31
0.0
210
0.0
220
0.0
230
1.0
 40
0.57735
 41
6.269936603224567
 42
8.889996601151566
  0
ELLIPSE
  5
277
330
1FF
100
AcDbEntity
  8
0
  6
Continuous
 62
     0
370
    30
100
AcDbEllipse
 10
438.734112
 20
557.952316
 30
0.0
 11
-22.0
 21
0.0
 31
0.0
210
0.0
220
0.0
230
1.0
 40
0.57735
 41
2.606811293971979
 42
3.141592644950105
  0
ELLIPSE
  5
278
330
1FF
100
AcDbEntity
  8
0
  6
Continuous
 62
     0
370
    30
100
AcDbEllipse
 10
438.734112
 20
557.952316
 30
0.0
 11
-22.0
 21
0.0
 31
0.0
210
0.0
220
0.0
230
1.0
 40
0.57735
 41
6.283185298539899
 42
8.889996601151566
  0
ELLIPSE
  5
279
330
1FF
100
AcDbEntity
  8
0
  6
Continuous
 62
     0
370
    30
100
AcDbEllipse
 10
438.734112
 20
557.707367
 30
0.0
 11
-21.69999998807907
 21
0.0
 31
0.0
210
0.0
220
0.0
230
1.0
 40
0.57735
 41
0.7785094401672097
 42
2.363083196143223
  0
LINE
  5
27A
330
1FF
100
AcDbEntity
  8
0
  6
Continuous
 62
     0
370
    30
100
AcDbLine
 10
460.734112
 20
557.952315
 30
0.0
 11
460.734112
 21
575.262043
 31
0.0
  0
LINE
  5
27B
330
1FF
100
AcDbEntity
  8
0
  6
Continuous
 62
     0
370
    30
100
AcDbLine
 10
416.734112
 20
557.952316
 30
0.0
 11
416.734112
 21
575.262043
 31
0.0
  0
SPLINE
  5
27C
330
1FF
100
AcDbEntity
  8
0
  6
Continuous
 62
     0
370
    30
100
AcDbSpline
210
0.0
220
0.0
230
1.0
 70
     8
 71
     3
 72
    12
 73
     8
 74
     0
 42
0.0
 43
0.0
 40
45.88044827786625
 40
45.88044827786625
 40
45.88044827786625
 40
45.88044827786625
 40
46.21433530191725
 40
52.83197543953683
 40
59.75328016514409
 40
65.27868758071031
 40
68.72116058967798
 40
68.72116058967798
 40
68.72116058967798
 40
68.72116058967798
 10
449.7341119486672
 20
586.4555683660398
 30
0.0
 10
449.8305107025171
 20
586.4230778011922
 30
0.0
 10
451.8287118777201
 20
585.7376586573639
 30
0.0
 10
455.4397384087295
 20
583.9997343150766
 30
0.0
 10
458.9477344162881
 20
580.8182273209978
 30
0.0
 10
460.4883342744866
 20
577.7601430009782
 30
0.0
 10
460.7340331428804
 20
575.9537847098234
 30
0.0
 10
460.7340331181307
 20
575.2630094655685
 30
0.0
  0
SPLINE
  5
27D
330
1FF
100
AcDbEntity
  8
0
  6
Continuous
 62
     0
370
    30
100
AcDbSpline
210
0.0
220
0.0
230
1.0
 70
     8
 71
     3
 72
    11
 73
     7
 74
     0
 42
0.0
 43
0.0
 40
0.0
 40
0.0
 40
0.0
 40
0.0
 40
3.684081624716237
 40
9.552868407114593
 40
16.64052032707357
 40
22.84335554295348
 40
22.84335554295348
 40
22.84335554295348
 40
22.84335554295348
 10
416.7341667384621
 20
575.2613186022435
 30
0.0
 10
416.7341667490538
 20
576.0004616642697
 30
0.0
 10
417.0136196803682
 20
577.9249214691322
 30
0.0
 10
418.7308017730589
 20
581.1081097740943
 30
0.0
 10
422.4195687138885
 20
584.2397572679686
 30
0.0
 10
425.9433994369321
 20
585.8518041636912
 30
0.0
 10
427.7341119486663
 20
586.4555173227056
 30
0.0
  0
ELLIPSE
  5
27E
330
1FF
100
AcDbEntity
  8
0
  6
Continuous
 62
     0
370
     0
100
AcDbEllipse
 10
566.013333
 20
541.663206
 30
0.0
 11
11.00000000000004
 21
6.106226635438385E-16
 31
0.0
210
0.0
220
0.0
230
-1.0
 40
0.57735
 41
0.2283863609964667
 42
3.141592662229476
  0
ELLIPSE
  5
27F
330
1FF
100
AcDbEntity
  8
0
  6
Continuous
 62
     0
370
     0
100
AcDbEllipse
 10
566.013333
 20
541.663206
 30
0.0
 11
11.00000000000004
 21
6.106226635438385E-16
 31
0.0
210
0.0
220
0.0
230
-1.0
 40
0.57735
 41
0.000000008639685
 42
0.2283863609964667
  0
SPLINE
  5
280
330
1FF
100
AcDbEntity
  8
0
  6
Continuous
 62
     0
370
    30
100
AcDbSpline
210
0.0
220
0.0
230
1.0
 70
     8
 71
     3
 72
    15
 73
    11
 74
     0
 42
0.0
 43
0.0
 40
2.434358749877681
 40
2.434358749877681
 40
2.434358749877681
 40
2.434358749877681
 40
2.990549046296433
 40
8.774334492632528
 40
13.97560352361337
 40
18.78472267887643
 40
23.00031048694553
 40
28.13090754454074
 40
32.20169619240398
 40
34.39351728639078
 40
34.39351728639078
 40
34.39351728639078
 40
34.39351728639078
 10
576.7362245552463
 20
540.2220162883434
 30
0.0
 10
576.6943165046868
 20
540.1142942979451
 30
0.0
 10
576.1632099331636
 20
538.8949100289615
 30
0.0
 10
574.0994369736247
 20
536.8980849076534
 30
0.0
 10
569.4252823819028
 20
535.3073042270968
 30
0.0
 10
564.5812270311133
 20
535.09855120496
 30
0.0
 10
560.0423515281469
 20
536.0211242091377
 30
0.0
 10
556.7135064051417
 20
537.8671334775099
 30
0.0
 10
555.2298621434884
 20
539.9766069028699
 30
0.0
 10
555.0133330119927
 20
541.2268965222202
 30
0.0
 10
555.0133326906225
 20
541.6632032813452
 30
0.0
  0
LINE
  5
281
330
1FF
100
AcDbEntity
  8
0
  6
Continuous
 62
     0
370
    30
100
AcDbLine
 10
577.013333
 20
557.829838
 30
0.0
 11
577.013333
 21
541.663206
 31
0.0
  0
LINE
  5
282
330
1FF
100
AcDbEntity
  8
0
  6
Continuous
 62
     0
370
    30
100
AcDbLine
 10
555.013333
 20
557.829838
 30
0.0
 11
555.013333
 21
541.663206
 31
0.0
  0
ARC
  5
283
330
1FF
100
AcDbEntity
  8
0
  6
Continuous
 62
     0
370
    30
100
AcDbCircle
 10
464.626981
 20
545.758729
 30
0.0
 40
20.43303566240165
100
AcDbArc
 50
322.358678
 51
327.928763
  0
ELLIPSE
  5
284
330
1FF
100
AcDbEntity
  8
0
  6
Continuous
 62
     0
370
    30
100
AcDbEllipse
 10
438.734112
 20
419.719449
 30
0.0
 11
-21.9999960064888
 21
1.221245105403268E-15
 31
0.0
210
0.0
220
0.0
230
1.0
 40
0.57735
 41
2.340451351722335
 42
3.141592644950105
  0
LINE
  5
285
330
1FF
100
AcDbEntity
  8
0
  6
Continuous
 62
     0
370
    30
100
AcDbLine
 10
460.734108
 20
419.719449
 30
0.0
 11
460.734108
 21
471.579259
 31
0.0
  0
LINE
  5
286
330
1FF
100
AcDbEntity
  8
0
  6
Continuous
 62
     0
370
    30
100
AcDbLine
 10
416.734116
 20
419.719449
 30
0.0
 11
416.734116
 21
471.579259
 31
0.0
  0
LINE
  5
287
330
1FF
100
AcDbEntity
  8
0
  6
Continuous
 62
     0
370
    30
100
AcDbLine
 10
485.524701
 20
541.949592
 30
0.0
 11
485.776236
 21
542.094828
 31
0.0
  0
ARC
  5
288
330
1FF
100
AcDbEntity
  8
0
  6
Continuous
 62
     0
370
    30
100
AcDbCircle
 10
460.609864
 20
539.75746
 30
0.0
 40
25.27468239471616
100
AcDbArc
 50
5.306219
 51
9.049482
  0
LINE
  5
289
330
1FF
100
AcDbEntity
  8
0
  6
Continuous
 62
     0
370
    30
100
AcDbLine
 10
485.569949
 20
543.732848
 30
0.0
 11
485.348511
 21
543.605002
 31
0.0
  0
ARC
  5
28A
330
1FF
100
AcDbEntity
  8
0
  6
Continuous
 62
     0
370
    30
100
AcDbCircle
 10
459.974024
 20
539.575625
 30
0.0
 40
25.69242041089763
100
AcDbArc
 50
6.117315
 51
9.023024
  0
ARC
  5
28B
330
1FF
100
AcDbEntity
  8
0
  6
Continuous
 62
     0
370
    30
100
AcDbCircle
 10
448.562368
 20
431.609891
 30
0.0
 40
116.7097775849379
100
AcDbArc
 50
71.538706
 51
72.320162
  0
LINE
  5
28C
330
1FF
100
AcDbEntity
  8
0
  6
Continuous
 62
     0
370
    30
100
AcDbLine
 10
484.006872
 20
542.80728
 30
0.0
 11
483.757948
 21
542.663572
 31
0.0
  0
ARC
  5
28D
330
1FF
100
AcDbEntity
  8
0
  6
Continuous
 62
     0
370
    30
100
AcDbCircle
 10
458.783132
 20
538.707508
 30
0.0
 40
25.28619873109421
100
AcDbArc
 50
5.383309
 51
9.000989
  0
LINE
  5
28E
330
1FF
100
AcDbEntity
  8
0
  6
Continuous
 62
     0
370
    30
100
AcDbLine
 10
483.957802
 20
541.079816
 30
0.0
 11
484.17909
 21
541.207579
 31
0.0
  0
ARC
  5
28F
330
1FF
100
AcDbEntity
  8
0
  6
Continuous
 62
     0
370
    30
100
AcDbCircle
 10
440.522228
 20
405.539715
 30
0.0
 40
143.6414885660139
100
AcDbArc
 50
71.741953
 51
72.367313
  0
LINE
  5
290
330
1FF
100
AcDbEntity
  8
0
  6
Continuous
 62
     0
370
    30
100
AcDbLine
 10
483.7217
 20
542.886087
 30
0.0
 11
483.670197
 21
543.186253
 31
0.0
  0
LINE
  5
291
330
1FF
100
AcDbEntity
  8
0
  6
Continuous
 62
     0
370
    30
100
AcDbLine
 10
483.670197
 20
543.186253
 30
0.0
 11
484.793879
 21
543.835029
 31
0.0
  0
SPLINE
  5
292
330
1FF
100
AcDbEntity
  8
0
  6
Continuous
 62
     0
370
    30
100
AcDbSpline
210
0.0
220
0.0
230
1.0
 70
     8
 71
     3
 72
    10
 73
     6
 74
     0
 42
0.0
 43
0.0
 40
0.0
 40
0.0
 40
0.0
 40
0.0
 40
0.1607383031802
 40
0.3212678064986678
 40
0.4814978669279015
 40
0.4814978669279015
 40
0.4814978669279015
 40
0.4814978669279015
 10
484.7938793019089
 20
543.8350293531039
 30
0.0
 10
484.8317588844552
 20
543.8569001395895
 30
0.0
 10
484.906793816203
 20
543.9043514943988
 30
0.0
 10
485.0155313791311
 20
543.9926052545114
 30
0.0
 10
485.0771497548236
 20
544.0749869886582
 30
0.0
 10
485.1035439660454
 20
544.1196995123114
 30
0.0
  0
SPLINE
  5
293
330
1FF
100
AcDbEntity
  8
0
  6
Continuous
 62
     0
370
    30
100
AcDbSpline
210
0.0
220
0.0
230
1.0
 70
     8
 71
     3
 72
    14
 73
    10
 74
     0
 42
0.0
 43
0.0
 40
0.0
 40
0.0
 40
0.0
 40
0.0
 40
0.2483063195049803
 40
0.4973415118280775
 40
0.7469539897613078
 40
0.9957853863575374
 40
1.243643039570712
 40
1.492316197299791
 40
1.742344279104765
 40
1.742344279104765
 40
1.742344279104765
 40
1.742344279104765
 10
485.1035439660446
 20
544.1196995123353
 30
0.0
 10
485.1434256058212
 20
544.1899337201042
 30
0.0
 10
485.2048533109053
 20
544.3507941893984
 30
0.0
 10
485.2141865023414
 20
544.5978620389087
 30
0.0
 10
485.170882303891
 20
544.8223754363005
 30
0.0
 10
485.0803723636134
 20
545.0178369145192
 30
0.0
 10
484.9177817840688
 20
545.1159737664505
 30
0.0
 10
484.7304098195643
 20
545.0903626457259
 30
0.0
 10
484.6109787606778
 20
545.0292413131623
 30
0.0
 10
484.5520972679197
 20
544.9950385336108
 30
0.0
  0
LINE
  5
294
330
1FF
100
AcDbEntity
  8
0
  6
Continuous
 62
     0
370
    30
100
AcDbLine
 10
484.552097
 20
544.995039
 30
0.0
 11
483.438356
 21
544.352002
 31
0.0
  0
LINE
  5
295
330
1FF
100
AcDbEntity
  8
0
  6
Continuous
 62
     0
370
    30
100
AcDbLine
 10
483.438356
 20
544.352002
 30
0.0
 11
483.37418
 21
544.636737
 31
0.0
  0
LINE
  5
296
330
1FF
100
AcDbEntity
  8
0
  6
Continuous
 62
     0
370
    30
100
AcDbLine
 10
483.37418
 20
544.636737
 30
0.0
 11
484.492878
 21
545.282646
 31
0.0
  0
SPLINE
  5
297
330
1FF
100
AcDbEntity
  8
0
  6
Continuous
 62
     0
370
    30
100
AcDbSpline
210
0.0
220
0.0
230
1.0
 70
     8
 71
     3
 72
    10
 73
     6
 74
     0
 42
0.0
 43
0.0
 40
0.0
 40
0.0
 40
0.0
 40
0.0
 40
0.2406503714594215
 40
0.4809889051886851
 40
0.7211588880530552
 40
0.7211588880530552
 40
0.7211588880530552
 40
0.7211588880530552
 10
484.4928782028869
 20
545.2826457511861
 30
0.0
 10
484.5496026990507
 20
545.31539257844
 30
0.0
 10
484.6649208856202
 20
545.3742372687165
 30
0.0
 10
484.8434431221264
 20
545.4169733504843
 30
0.0
 10
484.9600940172124
 20
545.4048990383438
 30
0.0
 10
485.015198662698
 20
545.3883607518555
 30
0.0
  0
SPLINE
  5
298
330
1FF
100
AcDbEntity
  8
0
  6
Continuous
 62
     0
370
    30
100
AcDbSpline
210
0.0
220
0.0
230
1.0
 70
     8
 71
     3
 72
    14
 73
    10
 74
     0
 42
0.0
 43
0.0
 40
0.0
 40
0.0
 40
0.0
 40
0.0
 40
0.2658311356644095
 40
0.5318324899200899
 40
0.7981789482599693
 40
1.064703722663629
 40
1.331140912478703
 40
1.597255800117859
 40
1.863124513833541
 40
1.863124513833541
 40
1.863124513833541
 40
1.863124513833541
 10
485.015198662698
 20
545.3883607518555
 30
0.0
 10
485.0762493513336
 20
545.3702712137845
 30
0.0
 10
485.1919856058288
 20
545.3064170568532
 30
0.0
 10
485.3213515130025
 20
545.1355754317665
 30
0.0
 10
485.403738761746
 20
544.9180984320412
 30
0.0
 10
485.4421980812934
 20
544.6738150755152
 30
0.0
 10
485.438084751503
 20
544.4149246238352
 30
0.0
 10
485.3837698331324
 20
544.1521663735407
 30
0.0
 10
485.308901000255
 20
543.9888432944599
 30
0.0
 10
485.2642632072881
 20
543.9151733677903
 30
0.0
  0
SPLINE
  5
299
330
1FF
100
AcDbEntity
  8
0
  6
Continuous
 62
     0
370
    30
100
AcDbSpline
210
0.0
220
0.0
230
1.0
 70
     8
 71
     3
 72
    10
 73
     6
 74
     0
 42
0.0
 43
0.0
 40
0.0
 40
0.0
 40
0.0
 40
0.0
 40
0.2234824778642142
 40
0.4474133988426941
 40
0.671636863453323
 40
0.671636863453323
 40
0.671636863453323
 40
0.671636863453323
 10
485.2642632072885
 20
543.9151733677908
 30
0.0
 10
485.2263824161681
 20
543.8536032025802
 30
0.0
 10
485.1383878269956
 20
543.740920727115
 30
0.0
 10
484.9854903248643
 20
543.6208591734965
 30
0.0
 10
484.880666120059
 20
543.5552518537173
 30
0.0
 10
484.8278186097285
 20
543.5247440586733
 30
0.0
  0
LINE
  5
29A
330
1FF
100
AcDbEntity
  8
0
  6
Continuous
 62
     0
370
    30
100
AcDbLine
 10
484.827819
 20
543.524744
 30
0.0
 11
483.7217
 21
542.886087
 31
0.0
  0
SPLINE
  5
29B
330
1FF
100
AcDbEntity
  8
0
  6
Continuous
 62
     0
370
    30
100
AcDbSpline
210
0.0
220
0.0
230
1.0
 70
     8
 71
     3
 72
    25
 73
    21
 74
     0
 42
0.0
 43
0.0
 40
0.0
 40
0.0
 40
0.0
 40
0.0
 40
0.2754117203151599
 40
0.4117111493874385
 40
0.5484227172847349
 40
0.6882255408435608
 40
0.828517537529587
 40
1.101530130229459
 40
1.374996099329446
 40
1.654519371669829
 40
2.206611179020701
 40
2.483601928484151
 40
2.760074308334967
 40
3.036299766838877
 40
3.172821653322529
 40
3.311285244432747
 40
3.451140522921225
 40
3.589993566819079
 40
3.726555894954432
 40
3.865086221907658
 40
3.865086221907658
 40
3.865086221907658
 40
3.865086221907658
 10
483.4685960364397
 20
546.4563519183009
 30
0.0
 10
483.4055691100193
 20
546.4129502558435
 30
0.0
 10
483.3192180561643
 20
546.3153311789915
 30
0.0
 10
483.2562334248555
 20
546.1442346151771
 30
0.0
 10
483.2444600161782
 20
546.0046733707079
 30
0.0
 10
483.2612874300513
 20
545.8691049681815
 30
0.0
 10
483.3145914236072
 20
545.7059264969728
 30
0.0
 10
483.4344763540653
 20
545.5451478649026
 30
0.0
 10
483.6369801267289
 20
545.4913805784963
 30
0.0
 10
483.9120931518482
 20
545.5371655190246
 30
0.0
 10
484.180672924599
 20
545.67135178744
 30
0.0
 10
484.4340893985174
 20
545.8486613257062
 30
0.0
 10
484.6080898279488
 20
546.0230608945687
 30
0.0
 10
484.7225385585791
 20
546.2180463333646
 30
0.0
 10
484.7634793792336
 20
546.3994995049948
 30
0.0
 10
484.7658589346187
 20
546.5379781094075
 30
0.0
 10
484.7440375412858
 20
546.6709654381607
 30
0.0
 10
484.6999966987872
 20
546.7914537058225
 30
0.0
 10
484.6323047781194
 20
546.8902081529677
 30
0.0
 10
484.5713299396919
 20
546.9311680845622
 30
0.0
 10
484.5386903333031
 20
546.9435490687397
 30
0.0
  0
SPLINE
  5
29C
330
1FF
100
AcDbEntity
  8
0
  6
Continuous
 62
     0
370
    30
100
AcDbSpline
210
0.0
220
0.0
230
1.0
 70
     8
 71
     3
 72
     8
 73
     4
 74
     0
 42
0.0
 43
0.0
 40
0.0
 40
0.0
 40
0.0
 40
0.0
 40
1.0
 40
1.0
 40
1.0
 40
1.0
 10
484.5386903333004
 20
546.9435490687499
 30
0.0
 10
484.4697544498353
 20
546.9681279587494
 30
0.0
 10
484.3914968536764
 20
546.9572262897179
 30
0.0
 10
484.3198829718303
 20
546.9315433825415
 30
0.0
  0
LINE
  5
29D
330
1FF
100
AcDbEntity
  8
0
  6
Continuous
 62
     0
370
    30
100
AcDbLine
 10
484.319883
 20
546.931543
 30
0.0
 11
484.231089
 21
547.237996
 31
0.0
  0
SPLINE
  5
29E
330
1FF
100
AcDbEntity
  8
0
  6
Continuous
 62
     0
370
    30
100
AcDbSpline
210
0.0
220
0.0
230
1.0
 70
     8
 71
     3
 72
    26
 73
    22
 74
     0
 42
0.0
 43
0.0
 40
0.0
 40
0.0
 40
0.0
 40
0.0
 40
0.4329957280319897
 40
0.6503560515467781
 40
0.8672615756275532
 40
1.30544677017856
 40
1.739098905056486
 40
1.954088279332204
 40
2.172970668810715
 40
2.614411444286846
 40
3.050370624337348
 40
3.48667701142522
 40
3.927680242198689
 40
4.146685552390961
 40
4.362090948400045
 40
4.795435861426188
 40
5.017398464029146
 40
5.237524152879468
 40
5.453487952873516
 40
5.670035285782057
 40
6.10432269187669
 40
6.10432269187669
 40
6.10432269187669
 40
6.10432269187669
 10
484.231088999474
 20
547.2379961803651
 30
0.0
 10
484.3346543082551
 20
547.2916669336402
 30
0.0
 10
484.5120203641932
 20
547.3038418054564
 30
0.0
 10
484.7107562581088
 20
547.1963772247486
 30
0.0
 10
484.874076278903
 20
547.0142799945804
 30
0.0
 10
484.9954529465064
 20
546.692294819803
 30
0.0
 10
484.9959603762388
 20
546.3192677975129
 30
0.0
 10
484.9058405494409
 20
546.0426222861671
 30
0.0
 10
484.7667352398417
 20
545.7974468591741
 30
0.0
 10
484.5399701371733
 20
545.5521072221541
 30
0.0
 10
484.2348722689282
 20
545.349687839686
 30
0.0
 10
483.9169108746224
 20
545.2053719133355
 30
0.0
 10
483.642191525342
 20
545.1729216080915
 30
0.0
 10
483.4340964271909
 20
545.2250423049994
 30
0.0
 10
483.2479441720722
 20
545.3448459823478
 30
0.0
 10
483.1130149232941
 20
545.5669194583069
 30
0.0
 10
483.0409919820311
 20
545.8328188690739
 30
0.0
 10
483.0209485373145
 20
546.0489464829042
 30
0.0
 10
483.0438676524357
 20
546.268930742539
 30
0.0
 10
483.1425306137468
 20
546.5380005714832
 30
0.0
 10
483.2802886795444
 20
546.69373901697
 30
0.0
 10
483.3821679920082
 20
546.7542784467878
 30
0.0
  0
LINE
  5
29F
330
1FF
100
AcDbEntity
  8
0
  6
Continuous
 62
     0
370
    30
100
AcDbLine
 10
483.382168
 20
546.754278
 30
0.0
 11
483.468596
 21
546.456352
 31
0.0
  0
LINE
  5
2A0
330
1FF
100
AcDbEntity
  8
0
  6
Continuous
 62
     0
370
    30
100
AcDbLine
 10
483.786919
 20
548.629675
 30
0.0
 11
483.687708
 21
548.914648
 31
0.0
  0
SPLINE
  5
2A1
330
1FF
100
AcDbEntity
  8
0
  6
Continuous
 62
     0
370
    30
100
AcDbSpline
210
0.0
220
0.0
230
1.0
 70
     8
 71
     3
 72
    28
 73
    24
 74
     0
 42
0.0
 43
0.0
 40
0.0
 40
0.0
 40
0.0
 40
0.0
 40
0.4204471630560343
 40
0.6302954727550704
 40
0.840844224262211
 40
1.264356009512046
 40
1.683146518034478
 40
1.891353215850194
 40
2.103180002565582
 40
2.31874500921389
 40
2.532573572134457
 40
2.954756629199493
 40
3.377480775805023
 40
3.805430969074711
 40
4.017368875573588
 40
4.226305843304237
 40
4.645601066209491
 40
4.859869049938903
 40
5.073392086735828
 40
5.283190324930742
 40
5.492725046528286
 40
5.70597621120472
 40
5.918133441981349
 40
5.918133441981349
 40
5.918133441981349
 40
5.918133441981349
 10
483.6877083342413
 20
548.9146477130068
 30
0.0
 10
483.7888572338612
 20
548.9658188011406
 30
0.0
 10
483.9621345099509
 20
548.988216871398
 30
0.0
 10
484.1704553884464
 20
548.8970687736331
 30
0.0
 10
484.3469985795929
 20
548.7274014046216
 30
0.0
 10
484.4880503585839
 20
548.41288079024
 30
0.0
 10
484.491804697059
 20
548.0460446568279
 30
0.0
 10
484.4048620677576
 20
547.7829777624943
 30
0.0
 10
484.30326946898
 20
547.610752543705
 30
0.0
 10
484.1806132593492
 20
547.4623588248317
 30
0.0
 10
484.0012871019887
 20
547.2925213549289
 30
0.0
 10
483.7564379832199
 20
547.1288224964424
 30
0.0
 10
483.4465180374036
 20
546.9892198149557
 30
0.0
 10
483.1748271707619
 20
546.9452350049132
 30
0.0
 10
482.9612471662656
 20
546.9811262687715
 30
0.0
 10
482.7635658903441
 20
547.0832088465816
 30
0.0
 10
482.6064965717526
 20
547.2891268773369
 30
0.0
 10
482.5193160057483
 20
547.5479384465157
 30
0.0
 10
482.4922321716612
 20
547.7596545105267
 30
0.0
 10
482.5102374098057
 20
547.9730837657726
 30
0.0
 10
482.5830624415055
 20
548.1661596297395
 30
0.0
 10
482.6957791373509
 20
548.3226115883963
 30
0.0
 10
482.7891202599042
 20
548.4002975054831
 30
0.0
 10
482.8386061924103
 20
548.4305380800452
 30
0.0
  0
LINE
  5
2A2
330
1FF
100
AcDbEntity
  8
0
  6
Continuous
 62
     0
370
    30
100
AcDbLine
 10
482.838606
 20
548.430538
 30
0.0
 11
482.935138
 21
548.153523
 31
0.0
  0
SPLINE
  5
2A3
330
1FF
100
AcDbEntity
  8
0
  6
Continuous
 62
     0
370
    30
100
AcDbSpline
210
0.0
220
0.0
230
1.0
 70
     8
 71
     3
 72
    23
 73
    19
 74
     0
 42
0.0
 43
0.0
 40
0.0
 40
0.0
 40
0.0
 40
0.0
 40
0.1344406348959691
 40
0.2698087024253305
 40
0.4020113593220785
 40
0.5351093167957036
 40
0.8039622975256804
 40
1.068634646139707
 40
1.334722668476824
 40
1.605909583314207
 40
1.873103289376405
 40
2.143350905299621
 40
2.41200424978178
 40
2.680682206166646
 40
2.949290704837172
 40
3.213805505265991
 40
3.481377106834338
 40
3.74489199651306
 40
3.74489199651306
 40
3.74489199651306
 40
3.74489199651306
 10
482.9351383506535
 20
548.1535231278535
 30
0.0
 10
482.9047387803846
 20
548.1318714471964
 30
0.0
 10
482.8469413433644
 20
548.0803092520273
 30
0.0
 10
482.7752726164378
 20
547.9812903353077
 30
0.0
 10
482.7291707525318
 20
547.8581118072577
 30
0.0
 10
482.7185596531939
 20
547.6772600248066
 30
0.0
 10
482.7800277337467
 20
547.4584903262652
 30
0.0
 10
482.9444945038174
 20
547.2851490376186
 30
0.0
 10
483.1519156469197
 20
547.2472144352904
 30
0.0
 10
483.3557698751492
 20
547.288980959974
 30
0.0
 10
483.5549298428153
 20
547.3677010104477
 30
0.0
 10
483.7460378381527
 20
547.4746094130951
 30
0.0
 10
483.9306860787132
 20
547.6029855662963
 30
0.0
 10
484.0985637243285
 20
547.766099970117
 30
0.0
 10
484.2355695218885
 20
547.9810808572456
 30
0.0
 10
484.2693891483366
 20
548.2591380836332
 30
0.0
 10
484.195610399859
 20
548.516168425441
 30
0.0
 10
484.0751358523166
 20
548.6280769074067
 30
0.0
 10
484.0092367729541
 20
548.6483694938643
 30
0.0
  0
SPLINE
  5
2A4
330
1FF
100
AcDbEntity
  8
0
  6
Continuous
 62
     0
370
    30
100
AcDbSpline
210
0.0
220
0.0
230
1.0
 70
     8
 71
     3
 72
     8
 73
     4
 74
     0
 42
0.0
 43
0.0
 40
0.0
 40
0.0
 40
0.0
 40
0.0
 40
1.0
 40
1.0
 40
1.0
 40
1.0
 10
484.0092367729513
 20
548.6483694938731
 30
0.0
 10
483.9369860396389
 20
548.6695913006733
 30
0.0
 10
483.8584300311527
 20
548.6560674380507
 30
0.0
 10
483.7869194383877
 20
548.629674913947
 30
0.0
  0
LINE
  5
2A5
330
1FF
100
AcDbEntity
  8
0
  6
Continuous
 62
     0
370
    30
100
AcDbLine
 10
483.690605
 20
550.456602
 30
0.0
 11
483.595417
 21
550.693977
 31
0.0
  0
LINE
  5
2A6
330
1FF
100
AcDbEntity
  8
0
  6
Continuous
 62
     0
370
    30
100
AcDbLine
 10
483.595417
 20
550.693977
 30
0.0
 11
481.780218
 21
549.64597
 31
0.0
  0
LINE
  5
2A7
330
1FF
100
AcDbEntity
  8
0
  6
Continuous
 62
     0
370
    30
100
AcDbLine
 10
481.780218
 20
549.64597
 30
0.0
 11
481.875405
 21
549.408596
 31
0.0
  0
LINE
  5
2A8
330
1FF
100
AcDbEntity
  8
0
  6
Continuous
 62
     0
370
    30
100
AcDbLine
 10
481.875405
 20
549.408596
 30
0.0
 11
482.654742
 21
549.858548
 31
0.0
  0
ARC
  5
2A9
330
1FF
100
AcDbEntity
  8
0
  6
Continuous
 62
     0
370
    30
100
AcDbCircle
 10
451.422319
 20
537.437376
 30
0.0
 40
33.61175046364505
100
AcDbArc
 50
20.15166
 51
21.687776
  0
LINE
  5
2AA
330
1FF
100
AcDbEntity
  8
0
  6
Continuous
 62
     0
370
    30
100
AcDbLine
 10
482.976493
 20
549.016835
 30
0.0
 11
482.197155
 21
548.566882
 31
0.0
  0
LINE
  5
2AB
330
1FF
100
AcDbEntity
  8
0
  6
Continuous
 62
     0
370
    30
100
AcDbLine
 10
482.197155
 20
548.566882
 30
0.0
 11
482.289141
 21
548.313696
 31
0.0
  0
LINE
  5
2AC
330
1FF
100
AcDbEntity
  8
0
  6
Continuous
 62
     0
370
    30
100
AcDbLine
 10
482.289141
 20
548.313696
 30
0.0
 11
484.10434
 21
549.361702
 31
0.0
  0
LINE
  5
2AD
330
1FF
100
AcDbEntity
  8
0
  6
Continuous
 62
     0
370
    30
100
AcDbLine
 10
484.10434
 20
549.361702
 30
0.0
 11
484.012355
 21
549.614888
 31
0.0
  0
LINE
  5
2AE
330
1FF
100
AcDbEntity
  8
0
  6
Continuous
 62
     0
370
    30
100
AcDbLine
 10
484.012355
 20
549.614888
 30
0.0
 11
483.192666
 21
549.141643
 31
0.0
  0
ARC
  5
2AF
330
1FF
100
AcDbEntity
  8
0
  6
Continuous
 62
     0
370
    30
100
AcDbCircle
 10
451.611464
 20
537.551858
 30
0.0
 40
33.64068182062248
100
AcDbArc
 50
20.152312
 51
21.687107
  0
LINE
  5
2B0
330
1FF
100
AcDbEntity
  8
0
  6
Continuous
 62
     0
370
    30
100
AcDbLine
 10
482.870915
 20
549.983357
 30
0.0
 11
483.690605
 21
550.456602
 31
0.0
  0
LINE
  5
2B1
330
1FF
100
AcDbEntity
  8
0
  6
Continuous
 62
     0
370
    30
100
AcDbLine
 10
480.216314
 20
553.008915
 30
0.0
 11
480.43775
 21
553.136761
 31
0.0
  0
ARC
  5
2B2
330
1FF
100
AcDbEntity
  8
0
  6
Continuous
 62
     0
370
    30
100
AcDbCircle
 10
441.077527
 20
532.451467
 30
0.0
 40
44.46468896214073
100
AcDbArc
 50
27.08391
 51
27.723634
  0
LINE
  5
2B3
330
1FF
100
AcDbEntity
  8
0
  6
Continuous
 62
     0
370
    30
100
AcDbLine
 10
480.666249
 20
552.696013
 30
0.0
 11
482.260019
 21
553.616175
 31
0.0
  0
LINE
  5
2B4
330
1FF
100
AcDbEntity
  8
0
  6
Continuous
 62
     0
370
    30
100
AcDbLine
 10
482.260019
 20
553.616175
 30
0.0
 11
482.35424
 21
553.430237
 31
0.0
  0
LINE
  5
2B5
330
1FF
100
AcDbEntity
  8
0
  6
Continuous
 62
     0
370
    30
100
AcDbLine
 10
482.35424
 20
553.430237
 30
0.0
 11
480.760458
 21
552.510071
 31
0.0
  0
ARC
  5
2B6
330
1FF
100
AcDbEntity
  8
0
  6
Continuous
 62
     0
370
    30
100
AcDbCircle
 10
447.146456
 20
535.597525
 30
0.0
 40
37.62891676442834
100
AcDbArc
 50
25.566226
 51
26.708793
  0
LINE
  5
2B7
330
1FF
100
AcDbEntity
  8
0
  6
Continuous
 62
     0
370
    30
100
AcDbLine
 10
481.091015
 20
551.836437
 30
0.0
 11
482.68482
 21
552.756609
 31
0.0
  0
LINE
  5
2B8
330
1FF
100
AcDbEntity
  8
0
  6
Continuous
 62
     0
370
    30
100
AcDbLine
 10
482.68482
 20
552.756609
 30
0.0
 11
482.780364
 21
552.555468
 31
0.0
  0
LINE
  5
2B9
330
1FF
100
AcDbEntity
  8
0
  6
Continuous
 62
     0
370
    30
100
AcDbLine
 10
482.780364
 20
552.555468
 30
0.0
 11
481.186513
 21
551.635283
 31
0.0
  0
ARC
  5
2BA
330
1FF
100
AcDbEntity
  8
0
  6
Continuous
 62
     0
370
    30
100
AcDbCircle
 10
448.652099
 20
536.283605
 30
0.0
 40
35.97446396091419
100
AcDbArc
 50
22.772102
 51
25.260735
  0
LINE
  5
2BB
330
1FF
100
AcDbEntity
  8
0
  6
Continuous
 62
     0
370
    30
100
AcDbLine
 10
481.822416
 20
550.208121
 30
0.0
 11
482.380311
 21
550.530226
 31
0.0
  0
ARC
  5
2BC
330
1FF
100
AcDbEntity
  8
0
  6
Continuous
 62
     0
370
    30
100
AcDbCircle
 10
449.252299
 20
536.612154
 30
0.0
 40
35.93296469511704
100
AcDbArc
 50
22.788738
 51
24.089405
  0
LINE
  5
2BD
330
1FF
100
AcDbEntity
  8
0
  6
Continuous
 62
     0
370
    30
100
AcDbLine
 10
482.05585
 20
551.278612
 30
0.0
 11
482.272038
 21
551.403423
 31
0.0
  0
ARC
  5
2BE
330
1FF
100
AcDbEntity
  8
0
  6
Continuous
 62
     0
370
    30
100
AcDbCircle
 10
449.172442
 20
536.609048
 30
0.0
 40
36.25543830934196
100
AcDbArc
 50
22.793897
 51
24.082993
  0
LINE
  5
2BF
330
1FF
100
AcDbEntity
  8
0
  6
Continuous
 62
     0
370
    30
100
AcDbLine
 10
482.596491
 20
550.655035
 30
0.0
 11
483.194888
 21
551.000518
 31
0.0
  0
ARC
  5
2C0
330
1FF
100
AcDbEntity
  8
0
  6
Continuous
 62
     0
370
    30
100
AcDbCircle
 10
448.760748
 20
536.522437
 30
0.0
 40
37.35404652730382
100
AcDbArc
 50
22.804668
 51
24.146524
  0
LINE
  5
2C1
330
1FF
100
AcDbEntity
  8
0
  6
Continuous
 62
     0
370
    30
100
AcDbLine
 10
482.846402
 20
551.802915
 30
0.0
 11
483.067812
 21
551.930704
 31
0.0
  0
ARC
  5
2C2
330
1FF
100
AcDbEntity
  8
0
  6
Continuous
 62
     0
370
    30
100
AcDbCircle
 10
447.946013
 20
536.210906
 30
0.0
 40
38.47925186139831
100
AcDbArc
 50
22.437711
 51
24.112313
  0
LINE
  5
2C3
330
1FF
100
AcDbEntity
  8
0
  6
Continuous
 62
     0
370
    30
100
AcDbLine
 10
483.512194
 20
550.89762
 30
0.0
 11
481.696995
 21
549.849614
 31
0.0
  0
ARC
  5
2C4
330
1FF
100
AcDbEntity
  8
0
  6
Continuous
 62
     0
370
    30
100
AcDbCircle
 10
447.235679
 20
535.62513
 30
0.0
 40
37.28160699426305
100
AcDbArc
 50
22.429206
 51
27.793296
  0
LINE
  5
2C5
330
1FF
100
AcDbEntity
  8
0
  6
Continuous
 62
     0
370
    30
100
AcDbLine
 10
481.961324
 20
554.189538
 30
0.0
 11
481.868153
 21
554.363644
 31
0.0
  0
LINE
  5
2C6
330
1FF
100
AcDbEntity
  8
0
  6
Continuous
 62
     0
370
    30
100
AcDbLine
 10
481.868153
 20
554.363644
 30
0.0
 11
480.052953
 21
553.315638
 31
0.0
  0
LINE
  5
2C7
330
1FF
100
AcDbEntity
  8
0
  6
Continuous
 62
     0
370
    30
100
AcDbLine
 10
480.052953
 20
553.315638
 30
0.0
 11
480.146124
 21
553.141532
 31
0.0
  0
LINE
  5
2C8
330
1FF
100
AcDbEntity
  8
0
  6
Continuous
 62
     0
370
    30
100
AcDbLine
 10
480.146124
 20
553.141532
 30
0.0
 11
481.961324
 21
554.189538
 31
0.0
  0
LINE
  5
2C9
330
1FF
100
AcDbEntity
  8
0
  6
Continuous
 62
     0
370
    30
100
AcDbLine
 10
481.170892
 20
554.489858
 30
0.0
 11
481.26307
 21
554.322518
 31
0.0
  0
LINE
  5
2CA
330
1FF
100
AcDbEntity
  8
0
  6
Continuous
 62
     0
370
    30
100
AcDbLine
 10
481.26307
 20
554.322518
 30
0.0
 11
481.740731
 21
554.598296
 31
0.0
  0
LINE
  5
2CB
330
1FF
100
AcDbEntity
  8
0
  6
Continuous
 62
     0
370
    30
100
AcDbLine
 10
481.740731
 20
554.598296
 30
0.0
 11
481.648553
 21
554.765636
 31
0.0
  0
LINE
  5
2CC
330
1FF
100
AcDbEntity
  8
0
  6
Continuous
 62
     0
370
    30
100
AcDbLine
 10
481.648553
 20
554.765636
 30
0.0
 11
481.170892
 21
554.489858
 31
0.0
  0
ENDBLK
  5
2CE
330
1FF
100
AcDbEntity
  8
0
100
AcDbBlockEnd
  0
BLOCK
  5
359
330
2D0
100
AcDbEntity
  8
0
100
AcDbBlockBegin
  2
e
 70
     0
 10
-367.649292
 20
-0.000122
 30
0.0
  3
e
  1

  0
LINE
  5
2D1
330
2D0
100
AcDbEntity
  8
0
  6
Continuous
 62
     0
370
    30
100
AcDbLine
 10
-300.804535
 20
1178.759686
 30
0.0
 11
-300.804536
 21
1150.759688
 31
0.0
  0
SPLINE
  5
2D2
330
2D0
100
AcDbEntity
  8
0
  6
Continuous
 62
     0
370
     0
100
AcDbSpline
210
0.0
220
0.0
230
1.0
 70
     8
 71
     3
 72
    14
 73
    10
 74
     0
 42
0.0
 43
0.0
 40
0.0
 40
0.0
 40
0.0
 40
0.0
 40
0.047619048741464
 40
0.142857146224391
 40
0.28571429152306
 40
0.428571433695539
 40
0.5714285733023969
 40
0.714285714258222
 40
0.8134511510728426
 40
0.8134511510728426
 40
0.8134511510728426
 40
0.8134511510728426
 10
-300.804534919559
 20
1178.759686008989
 30
0.0
 10
-300.8045349440297
 20
1178.759686039105
 30
0.0
 10
-300.7418547956353
 20
1178.759686132431
 30
0.0
 10
-300.2385472985753
 20
1178.759686317492
 30
0.0
 10
-298.7472831789874
 20
1178.759686564734
 30
0.0
 10
-296.0439199786384
 20
1178.759686843685
 30
0.0
 10
-292.4514975793677
 20
1178.759687124151
 30
0.0
 10
-288.5871114701699
 20
1178.759687376823
 30
0.0
 10
-285.9231497103167
 20
1178.759687537935
 30
0.0
 10
-284.8045427596261
 20
1178.7596876036
 30
0.0
  0
SPLINE
  5
2D3
330
2D0
100
AcDbEntity
  8
0
  6
Continuous
 62
     0
370
    30
100
AcDbSpline
210
0.0
220
0.0
230
1.0
 70
     8
 71
     3
 72
    16
 73
    12
 74
     0
 42
0.0
 43
0.0
 40
0.0
 40
0.0
 40
0.0
 40
0.0
 40
0.047619050732881
 40
0.142857152198643
 40
0.285714498032294
 40
0.4285715148732381
 40
0.571428485126764
 40
0.7142855019677079
 40
0.857142847801357
 40
0.9523809492671189
 40
1.0
 40
1.0
 40
1.0
 40
1.0
 10
-300.8045361434781
 20
1150.759690205283
 30
0.0
 10
-300.8045361130258
 20
1150.759690266187
 30
0.0
 10
-300.8045360216693
 20
1150.681427366087
 30
0.0
 10
-300.8045358397169
 20
1150.055367025992
 30
0.0
 10
-300.8045356080111
 20
1148.199286840759
 30
0.0
 10
-300.8045353739374
 20
1144.835305743242
 30
0.0
 10
-300.8045351785223
 20
1140.364730654952
 30
0.0
 10
-300.804535031478
 20
1135.009748715324
 30
0.0
 10
-300.804534950346
 20
1129.708937183879
 30
0.0
 10
-300.8045349229802
 20
1125.546351984934
 30
0.0
 10
-300.804534919559
 20
1123.456357487784
 30
0.0
 10
-300.804534919559
 20
1122.759692653121
 30
0.0
  0
LINE
  5
2D4
330
2D0
100
AcDbEntity
  8
0
  6
Continuous
 62
     0
370
     0
100
AcDbLine
 10
-278.304536
 20
1122.759691
 30
0.0
 11
-300.804535
 21
1122.759693
 31
0.0
  0
SPLINE
  5
2D5
330
2D0
100
AcDbEntity
  8
0
  6
Continuous
 62
     0
370
     0
100
AcDbSpline
210
0.0
220
0.0
230
1.0
 70
     8
 71
     3
 72
    16
 73
    12
 74
     0
 42
0.0
 43
0.0
 40
0.0
 40
0.0
 40
0.0
 40
0.0
 40
0.047618587247776
 40
0.142855761743327
 40
0.285714973445752
 40
0.428572131040739
 40
0.5714278689592599
 40
0.7142850265542481
 40
0.8571442382566719
 40
0.952381412752224
 40
1.0
 40
1.0
 40
1.0
 40
1.0
 10
-278.3045361360274
 20
1128.259690197832
 30
0.0
 10
-278.3045361300458
 20
1128.259690209795
 30
0.0
 10
-278.3045361121009
 20
1128.244368787287
 30
0.0
 10
-278.3045360763601
 20
1128.121318718748
 30
0.0
 10
-278.3045360308461
 20
1127.756772039793
 30
0.0
 10
-278.3045359848669
 20
1127.09598617889
 30
0.0
 10
-278.3045359464819
 20
1126.217839895552
 30
0.0
 10
-278.304535917598
 20
1125.165957762729
 30
0.0
 10
-278.3045359016631
 20
1124.124719798486
 30
0.0
 10
-278.3045358962845
 20
1123.307065903869
 30
0.0
 10
-278.3045358956148
 20
1122.896534490883
 30
0.0
 10
-278.3045358956148
 20
1122.759690686108
 30
0.0
  0
LINE
  5
2D6
330
2D0
100
AcDbEntity
  8
0
  6
Continuous
 62
     0
370
     0
100
AcDbLine
 10
-255.804535
 20
1122.759693
 30
0.0
 11
-278.304536
 21
1122.759691
 31
0.0
  0
SPLINE
  5
2D7
330
2D0
100
AcDbEntity
  8
0
  6
Continuous
 62
     0
370
    30
100
AcDbSpline
210
0.0
220
0.0
230
1.0
 70
     8
 71
     3
 72
    16
 73
    12
 74
     0
 42
0.0
 43
0.0
 40
0.0
 40
0.0
 40
0.0
 40
0.0
 40
0.047619008806062
 40
0.142857026418187
 40
0.285714359327475
 40
0.428571395213536
 40
0.571428604786464
 40
0.7142856406725249
 40
0.8571429735818132
 40
0.9523809911939379
 40
1.0
 40
1.0
 40
1.0
 40
1.0
 10
-255.804536128577
 20
1150.759690205283
 30
0.0
 10
-255.8045360981247
 20
1150.759690266187
 30
0.0
 10
-255.804536006768
 20
1150.681688883335
 30
0.0
 10
-255.8045358248153
 20
1150.055256482955
 30
0.0
 10
-255.8045355931084
 20
1148.199392188129
 30
0.0
 10
-255.8045353590328
 20
1144.83538514329
 30
0.0
 10
-255.8045351636177
 20
1140.364809241481
 30
0.0
 10
-255.8045350165722
 20
1135.009783928663
 30
0.0
 10
-255.8045349354498
 20
1129.708949248972
 30
0.0
 10
-255.8045349080675
 20
1125.546355380481
 30
0.0
 10
-255.804534904658
 20
1123.456358336666
 30
0.0
 10
-255.8045349046579
 20
1122.759692653121
 30
0.0
  0
SPLINE
  5
2D8
330
2D0
100
AcDbEntity
  8
0
  6
Continuous
 62
     0
370
    30
100
AcDbSpline
210
0.0
220
0.0
230
1.0
 70
     8
 71
     3
 72
    16
 73
    12
 74
     0
 42
0.0
 43
0.0
 40
0.0
 40
0.0
 40
0.0
 40
0.0
 40
0.047619050732881
 40
0.142857152198643
 40
0.285714498032292
 40
0.428571514873236
 40
0.5714284851267609
 40
0.714285501967704
 40
0.857142847801358
 40
0.9523809492671189
 40
1.0
 40
1.0
 40
1.0
 40
1.0
 10
-255.804536128577
 20
1150.759688456827
 30
0.0
 10
-255.8045360981248
 20
1150.759688395922
 30
0.0
 10
-255.8045360067682
 20
1150.837951296022
 30
0.0
 10
-255.8045358248158
 20
1151.464011636117
 30
0.0
 10
-255.80453559311
 20
1153.32009182135
 30
0.0
 10
-255.8045353590362
 20
1156.684072918868
 30
0.0
 10
-255.8045351636212
 20
1161.154648007157
 30
0.0
 10
-255.8045350165768
 20
1166.509629946785
 30
0.0
 10
-255.804534935445
 20
1171.810441478231
 30
0.0
 10
-255.8045349080788
 20
1175.973026677176
 30
0.0
 10
-255.8045349046579
 20
1178.063021174325
 30
0.0
 10
-255.8045349046579
 20
1178.759686008989
 30
0.0
  0
LINE
  5
2D9
330
2D0
100
AcDbEntity
  8
0
  6
Continuous
 62
     0
370
     0
100
AcDbLine
 10
-271.804543
 20
1178.759688
 30
0.0
 11
-255.804535
 21
1178.759686
 31
0.0
  0
LINE
  5
2DA
330
2D0
100
AcDbEntity
  8
0
  6
Continuous
 62
     0
370
     0
100
AcDbLine
 10
-278.304536
 20
1095.035129
 30
0.0
 11
-255.804535
 21
1095.035079
 31
0.0
  0
LINE
  5
2DB
330
2D0
100
AcDbEntity
  8
0
  6
Continuous
 62
     0
370
    30
100
AcDbLine
 10
-255.804535
 20
1095.769963
 30
0.0
 11
-255.804535
 21
1095.035079
 31
0.0
  0
SPLINE
  5
2DC
330
2D0
100
AcDbEntity
  8
0
  6
Continuous
 62
     0
370
    30
100
AcDbSpline
210
0.0
220
0.0
230
1.0
 70
     8
 71
     3
 72
    17
 73
    13
 74
     0
 42
0.0
 43
0.0
 40
0.0
 40
0.0
 40
0.0
 40
0.0
 40
1.535824290284057
 40
2.803572939901752
 40
3.91900901896954
 40
4.518925964074081
 40
5.371007942962693
 40
5.929872977631576
 40
6.328834574960304
 40
6.604308284557048
 40
6.966692699928828
 40
7.268403902947318
 40
7.268403902947318
 40
7.268403902947318
 40
7.268403902947318
 10
-255.9732229369357
 20
1101.915265161619
 30
0.0
 10
-255.9732229360127
 20
1101.403562163172
 30
0.0
 10
-255.9674613954519
 20
1100.468494123015
 30
0.0
 10
-255.943853433302
 20
1099.176141200364
 30
0.0
 10
-255.9158725730738
 20
1098.215092354907
 30
0.0
 10
-255.8864393359351
 20
1097.419730636805
 30
0.0
 10
-255.8605527892789
 20
1096.829285891448
 30
0.0
 10
-255.8370022550922
 20
1096.358021203371
 30
0.0
 10
-255.822488940716
 20
1096.087439167552
 30
0.0
 10
-255.8124037798598
 20
1095.906526784331
 30
0.0
 10
-255.8060464765086
 20
1095.795899942019
 30
0.0
 10
-255.8045349090464
 20
1095.769963202791
 30
0.0
 10
-255.8045349046587
 20
1095.769963202791
 30
0.0
  0
SPLINE
  5
2DD
330
2D0
100
AcDbEntity
  8
0
  6
Continuous
 62
     0
370
    30
100
AcDbSpline
210
0.0
220
0.0
230
1.0
 70
     8
 71
     3
 72
    18
 73
    14
 74
     0
 42
0.0
 43
0.0
 40
0.0
 40
0.0
 40
0.0
 40
0.0
 40
0.379513728632184
 40
0.7984142484970149
 40
1.15331321210091
 40
1.69194921153377
 40
1.990624660889136
 40
2.398271493991997
 40
3.457913429612937
 40
4.093584975492366
 40
4.968211675375637
 40
6.076977041509018
 40
7.887360801192564
 40
7.887360801192564
 40
7.887360801192564
 40
7.887360801192564
 10
-255.8045349046928
 20
1108.78407191013
 30
0.0
 10
-255.8045349102591
 20
1108.784071909996
 30
0.0
 10
-255.80687796148
 20
1108.733888914144
 30
0.0
 10
-255.8156660268664
 20
1108.542241212273
 30
0.0
 10
-255.8286493885608
 20
1108.250036570871
 30
0.0
 10
-255.8419661232031
 20
1107.937225545485
 30
0.0
 10
-255.8561352856686
 20
1107.586825719593
 30
0.0
 10
-255.8761755030791
 20
1107.067898072984
 30
0.0
 10
-255.8987970750083
 20
1106.414741891186
 30
0.0
 10
-255.9229176109441
 20
1105.593963405081
 30
0.0
 10
-255.9438364679698
 20
1104.742477764279
 30
0.0
 10
-255.9661522880374
 20
1103.491903234476
 30
0.0
 10
-255.9732229380236
 20
1102.518390829355
 30
0.0
 10
-255.9732229369357
 20
1101.915265161619
 30
0.0
  0
LINE
  5
2DE
330
2D0
100
AcDbEntity
  8
0
  6
Continuous
 62
     0
370
    30
100
AcDbLine
 10
-255.804535
 20
1122.759693
 30
0.0
 11
-255.804535
 21
1108.784072
 31
0.0
  0
LINE
  5
2DF
330
2D0
100
AcDbEntity
  8
0
  6
Continuous
 62
     0
370
     0
100
AcDbLine
 10
-278.304536
 20
1095.035129
 30
0.0
 11
-278.304536
 21
1122.759691
 31
0.0
  0
LINE
  5
2E0
330
2D0
100
AcDbEntity
  8
0
  6
Continuous
 62
     0
370
    30
100
AcDbLine
 10
-300.804535
 20
1095.035079
 30
0.0
 11
-300.804535
 21
1122.759693
 31
0.0
  0
SPLINE
  5
2E1
330
2D0
100
AcDbEntity
  8
0
  6
Continuous
 62
     0
370
     0
100
AcDbSpline
210
0.0
220
0.0
230
1.0
 70
     8
 71
     3
 72
    17
 73
    13
 74
     0
 42
0.0
 43
0.0
 40
0.0
 40
0.0
 40
0.0
 40
0.0
 40
2.29740697212077
 40
5.672394704060816
 40
7.570825306026248
 40
10.73487632639293
 40
15.79735799354364
 40
20.85983959218921
 40
25.92232114553888
 40
30.80867799359263
 40
33.64249516971228
 40
35.34278548042192
 40
35.34278548042192
 40
35.34278548042192
 40
35.34278548042192
 10
-300.804534919559
 20
1095.035078878469
 30
0.0
 10
-300.804534953018
 20
1095.035078878428
 30
0.0
 10
-300.7079552834697
 20
1095.035078926968
 30
0.0
 10
-300.2620751576919
 20
1095.035079390668
 30
0.0
 10
-299.4455047266401
 20
1095.035080393309
 30
0.0
 10
-298.1070181438319
 20
1095.035082177437
 30
0.0
 10
-295.6284926863805
 20
1095.035084805519
 30
0.0
 10
-291.9223119695378
 20
1095.035090605993
 30
0.0
 10
-287.5806657550306
 20
1095.035088198232
 30
0.0
 10
-283.498896007785
 20
1095.035110367746
 30
0.0
 10
-280.3827767832713
 20
1095.035071200784
 30
0.0
 10
-278.871166153345
 20
1095.035129077638
 30
0.0
 10
-278.3045358956148
 20
1095.035129077638
 30
0.0
  0
ARC
  5
2E2
330
2D0
100
AcDbEntity
  8
0
  6
Continuous
 62
     0
370
    30
100
AcDbCircle
 10
-278.304738
 20
1150.759543
 30
0.0
 40
22.50020156876768
100
AcDbArc
 50
0.000375
 51
70.001301
  0
ARC
  5
2E3
330
2D0
100
AcDbEntity
  8
0
  6
Continuous
 62
     0
370
    30
100
AcDbCircle
 10
-278.30484
 20
1150.759994
 30
0.0
 40
22.50030388123655
100
AcDbArc
 50
270.000774
 51
359.999227
  0
LINE
  5
2E4
330
2D0
100
AcDbEntity
  8
0
  6
Continuous
 62
     0
370
    30
100
AcDbLine
 10
-278.316263
 20
1128.259693
 30
0.0
 11
-278.304536
 21
1128.25969
 31
0.0
  0
ARC
  5
2E5
330
2D0
100
AcDbEntity
  8
0
  6
Continuous
 62
     0
370
    30
100
AcDbCircle
 10
-278.304233
 20
1150.759993
 30
0.0
 40
22.50030312198653
100
AcDbArc
 50
180.000771
 51
269.969367
  0
ARC
  5
2E6
330
2D0
100
AcDbEntity
  8
0
  6
Continuous
 62
     0
370
    30
100
AcDbCircle
 10
-278.304078
 20
1150.759229
 30
0.0
 40
22.50045817905426
100
AcDbArc
 50
109.999673
 51
179.998826
  0
LINE
  5
2E7
330
2D0
100
AcDbEntity
  8
0
  6
Continuous
 62
     0
370
    30
100
AcDbLine
 10
-255.804535
 20
1179.187674
 30
0.0
 11
-255.804535
 21
1178.759686
 31
0.0
  0
LINE
  5
2E8
330
2D0
100
AcDbEntity
  8
0
  6
Continuous
 62
     0
370
    30
100
AcDbLine
 10
-255.804535
 20
1179.187674
 30
0.0
 11
-271.804543
 21
1179.187675
 31
0.0
  0
LINE
  5
2E9
330
2D0
100
AcDbEntity
  8
0
  6
Continuous
 62
     0
370
    30
100
AcDbLine
 10
-284.804543
 20
1179.187675
 30
0.0
 11
-300.804535
 21
1179.187674
 31
0.0
  0
LINE
  5
2EA
330
2D0
100
AcDbEntity
  8
0
  6
Continuous
 62
     0
370
    30
100
AcDbLine
 10
-300.804535
 20
1178.759686
 30
0.0
 11
-300.804535
 21
1179.187674
 31
0.0
  0
ARC
  5
2EB
330
2D0
100
AcDbEntity
  8
0
  6
Continuous
 62
     0
370
    30
100
AcDbCircle
 10
-278.316263
 20
1150.756568
 30
0.0
 40
22.1
100
AcDbArc
 50
270.0
 51
67.153039
  0
ARC
  5
2EC
330
2D0
100
AcDbEntity
  8
0
  6
Continuous
 62
     0
370
    30
100
AcDbCircle
 10
-278.316263
 20
1150.756568
 30
0.0
 40
22.1
100
AcDbArc
 50
112.684744
 51
270.0
  0
LINE
  5
2ED
330
2D0
100
AcDbEntity
  8
0
  6
Continuous
 62
     0
370
    30
100
AcDbLine
 10
-256.504535
 20
1183.759695
 30
0.0
 11
-271.804543
 21
1183.759695
 31
0.0
  0
LINE
  5
2EE
330
2D0
100
AcDbEntity
  8
0
  6
Continuous
 62
     0
370
    30
100
AcDbLine
 10
-284.804543
 20
1183.759695
 30
0.0
 11
-300.104535
 21
1183.759695
 31
0.0
  0
LINE
  5
2EF
330
2D0
100
AcDbEntity
  8
0
  6
Continuous
 62
     0
370
    30
100
AcDbLine
 10
-284.804543
 20
1183.460836
 30
0.0
 11
-300.430682
 21
1183.460836
 31
0.0
  0
LINE
  5
2F0
330
2D0
100
AcDbEntity
  8
0
  6
Continuous
 62
     0
370
    30
100
AcDbLine
 10
-256.178388
 20
1183.460836
 30
0.0
 11
-271.804543
 21
1183.460836
 31
0.0
  0
LINE
  5
2F1
330
2D0
100
AcDbEntity
  8
0
  6
Continuous
 62
     0
370
    30
100
AcDbLine
 10
-278.304536
 20
1079.759695
 30
0.0
 11
-256.204535
 21
1079.759695
 31
0.0
  0
LINE
  5
2F2
330
2D0
100
AcDbEntity
  8
0
  6
Continuous
 62
     0
370
    30
100
AcDbLine
 10
-300.404535
 20
1079.759695
 30
0.0
 11
-278.304536
 21
1079.759695
 31
0.0
  0
LINE
  5
2F3
330
2D0
100
AcDbEntity
  8
0
  6
Continuous
 62
     0
370
    30
100
AcDbLine
 10
-255.804535
 20
1095.035079
 30
0.0
 11
-256.204535
 21
1079.759695
 31
0.0
  0
LINE
  5
2F4
330
2D0
100
AcDbEntity
  8
0
  6
Continuous
 62
     0
370
    30
100
AcDbLine
 10
-300.804535
 20
1095.035079
 30
0.0
 11
-300.404535
 21
1079.759695
 31
0.0
  0
LINE
  5
2F5
330
2D0
100
AcDbEntity
  8
0
  6
Continuous
 62
     0
370
    30
100
AcDbLine
 10
-256.178388
 20
1183.460836
 30
0.0
 11
-256.504512
 21
1183.759674
 31
0.0
  0
LINE
  5
2F6
330
2D0
100
AcDbEntity
  8
0
  6
Continuous
 62
     0
370
    30
100
AcDbLine
 10
-300.430682
 20
1183.460836
 30
0.0
 11
-300.104558
 21
1183.759674
 31
0.0
  0
LINE
  5
2F7
330
2D0
100
AcDbEntity
  8
0
  6
Continuous
 62
     0
370
    30
100
AcDbLine
 10
-255.804535
 20
1179.187674
 30
0.0
 11
-256.178388
 21
1183.460836
 31
0.0
  0
LINE
  5
2F8
330
2D0
100
AcDbEntity
  8
0
  6
Continuous
 62
     0
370
    30
100
AcDbLine
 10
-300.804535
 20
1179.187674
 30
0.0
 11
-300.430682
 21
1183.460836
 31
0.0
  0
LINE
  5
2F9
330
2D0
100
AcDbEntity
  8
0
  6
Continuous
 62
     0
370
    30
100
AcDbLine
 10
-284.748461
 20
1178.759692
 30
0.0
 11
-271.804544
 21
1178.759693
 31
0.0
  0
LINE
  5
2FA
330
2D0
100
AcDbEntity
  8
0
  6
Continuous
 62
     0
370
    30
100
AcDbLine
 10
-284.804552
 20
1238.759692
 30
0.0
 11
-284.748469
 21
1238.759692
 31
0.0
  0
LINE
  5
2FB
330
2D0
100
AcDbEntity
  8
0
  6
Continuous
 62
     0
370
    30
100
AcDbLine
 10
-284.748469
 20
1238.759692
 30
0.0
 11
-271.804552
 21
1238.759693
 31
0.0
  0
LINE
  5
2FC
330
2D0
100
AcDbEntity
  8
0
  6
Continuous
 62
     0
370
    30
100
AcDbLine
 10
-271.804544
 20
1178.759693
 30
0.0
 11
-271.804552
 21
1238.759693
 31
0.0
  0
LINE
  5
2FD
330
2D0
100
AcDbEntity
  8
0
  6
Continuous
 62
     0
370
    30
100
AcDbLine
 10
-284.804544
 20
1178.759692
 30
0.0
 11
-284.804552
 21
1238.759692
 31
0.0
  0
LINE
  5
2FE
330
2D0
100
AcDbEntity
  8
0
  6
Continuous
 62
     0
370
    30
100
AcDbLine
 10
-284.804544
 20
1178.759691
 30
0.0
 11
-284.748461
 21
1178.759691
 31
0.0
  0
SPLINE
  5
2FF
330
2D0
100
AcDbEntity
  8
0
  6
Continuous
 62
     0
370
     0
100
AcDbSpline
210
0.0
220
0.0
230
1.0
 70
     8
 71
     3
 72
    15
 73
    11
 74
     0
 42
0.0
 43
0.0
 40
10.51976893298457
 40
10.51976893298457
 40
10.51976893298457
 40
10.51976893298457
 40
11.62018875328712
 40
12.66991432644621
 40
13.90342270692893
 40
15.64836897466411
 40
17.34311723258407
 40
18.41361149052697
 40
19.47528666719875
 40
21.03953786596914
 40
21.03953786596914
 40
21.03953786596914
 40
21.03953786596914
 10
-271.8648980286512
 20
1175.304174406386
 30
0.0
 10
-271.864958060331
 20
1175.304327601325
 30
0.0
 10
-271.9224622449207
 20
1175.352593688986
 30
0.0
 10
-272.1861297056755
 20
1175.567468211642
 30
0.0
 10
-272.7054371617681
 20
1175.962746239717
 30
0.0
 10
-273.5890993647
 20
1176.548395537948
 30
0.0
 10
-274.7072775089774
 20
1177.111115615655
 30
0.0
 10
-275.7999571064925
 20
1177.498147215725
 30
0.0
 10
-276.9386436773792
 20
1177.769258426578
 30
0.0
 10
-277.7945369875091
 20
1177.846953871169
 30
0.0
 10
-278.3045444268919
 20
1177.846953807214
 30
0.0
  0
SPLINE
  5
300
330
2D0
100
AcDbEntity
  8
0
  6
Continuous
 62
     0
370
     0
100
AcDbSpline
210
0.0
220
0.0
230
1.0
 70
     8
 71
     3
 72
    14
 73
    10
 74
     0
 42
0.0
 43
0.0
 40
0.0
 40
0.0
 40
0.0
 40
0.0
 40
1.912405789321918
 40
3.830350421158677
 40
6.32391116788351
 40
7.661351199193069
 40
8.952158795729051
 40
10.23687625134339
 40
10.51976893298457
 40
10.51976893298457
 40
10.51976893298457
 40
10.51976893298457
 10
-278.3045444268919
 20
1177.846953807214
 30
0.0
 10
-278.9280639616312
 20
1177.846953729025
 30
0.0
 10
-280.1762762557305
 20
1177.707202449575
 30
0.0
 10
-282.037078924591
 20
1177.093324731037
 30
0.0
 10
-283.373153266149
 20
1176.331896664775
 30
0.0
 10
-284.1946229572464
 20
1175.746414796197
 30
0.0
 10
-284.6048780664163
 20
1175.421098224452
 30
0.0
 10
-284.7335346875764
 20
1175.312905470057
 30
0.0
 10
-284.7442050533087
 20
1175.304133408424
 30
0.0
 10
-284.7441896205514
 20
1175.304172791331
 30
0.0
  0
LINE
  5
301
330
2D0
100
AcDbEntity
  8
0
  6
Continuous
 62
     0
370
     0
100
AcDbLine
 10
-278.304545
 20
1177.846954
 30
0.0
 11
-278.304544
 21
1172.759692
 31
0.0
  0
ARC
  5
302
330
2D0
100
AcDbEntity
  8
0
  6
Continuous
 62
     0
370
    30
100
AcDbCircle
 10
-278.304541
 20
1150.759692
 30
0.0
 40
22.0
100
AcDbArc
 50
270.000007
 51
90.000007
  0
ARC
  5
303
330
2D0
100
AcDbEntity
  8
0
  6
Continuous
 62
     0
370
    30
100
AcDbCircle
 10
-278.304541
 20
1150.759692
 30
0.0
 40
22.0
100
AcDbArc
 50
90.000007
 51
270.000007
  0
ARC
  5
304
330
2D0
100
AcDbEntity
  8
0
  6
Continuous
 62
     0
370
     0
100
AcDbCircle
 10
-278.304541
 20
1150.759692
 30
0.0
 40
21.5
100
AcDbArc
 50
90.000007
 51
270.000007
  0
ARC
  5
305
330
2D0
100
AcDbEntity
  8
0
  6
Continuous
 62
     0
370
     0
100
AcDbCircle
 10
-278.304541
 20
1150.759692
 30
0.0
 40
21.5
100
AcDbArc
 50
270.000007
 51
90.000007
  0
SPLINE
  5
306
330
2D0
100
AcDbEntity
  8
0
  6
Continuous
 62
     0
370
    30
100
AcDbSpline
210
0.0
220
0.0
230
1.0
 70
     8
 71
     3
 72
    18
 73
    14
 74
     0
 42
0.0
 43
0.0
 40
1.062771965689222
 40
1.062771965689222
 40
1.062771965689222
 40
1.062771965689222
 40
1.15278694556269
 40
1.369419972446693
 40
1.496338862799866
 40
1.686593611603636
 40
2.229652032535512
 40
2.934669082084802
 40
3.2869321714359
 40
3.639100897691612
 40
4.343364277904396
 40
5.047911622239654
 40
6.771249075136793
 40
6.771249075136793
 40
6.771249075136793
 40
6.771249075136793
 10
-287.5834381821781
 20
1170.707522989501
 30
0.0
 10
-287.5607150062137
 20
1170.71855041428
 30
0.0
 10
-287.4630069222029
 20
1170.766010659927
 30
0.0
 10
-287.3390666880288
 20
1170.831963314437
 30
0.0
 10
-287.183876860046
 20
1170.920845329813
 30
0.0
 10
-286.9401102736451
 20
1171.071165362149
 30
0.0
 10
-286.5503586894953
 20
1171.352262773851
 30
0.0
 10
-286.1591608296397
 20
1171.716897005228
 30
0.0
 10
-285.8510075598827
 20
1172.072071209306
 30
0.0
 10
-285.5686611136081
 20
1172.44773898455
 30
0.0
 10
-285.2668194421698
 20
1172.953105785636
 30
0.0
 10
-284.8610185918354
 20
1173.91755172127
 30
0.0
 10
-284.7342074041838
 20
1174.732530493744
 30
0.0
 10
-284.744189621378
 20
1175.304172786485
 30
0.0
  0
SPLINE
  5
307
330
2D0
100
AcDbEntity
  8
0
  6
Continuous
 62
     0
370
    30
100
AcDbSpline
210
0.0
220
0.0
230
1.0
 70
     8
 71
     3
 72
    19
 73
    15
 74
     0
 42
0.0
 43
0.0
 40
0.8364736344684843
 40
0.8364736344684843
 40
0.8364736344684843
 40
0.8364736344684843
 40
1.061025725230382
 40
1.152786945561737
 40
1.369419972553527
 40
1.49633886301265
 40
1.686593611975078
 40
2.22965203306583
 40
2.934669082614557
 40
3.28693217196548
 40
3.639100898221086
 40
4.343364278433918
 40
5.047911622769554
 40
6.771249075125921
 40
6.771249075125921
 40
6.771249075125921
 40
6.771249075125921
 10
-268.9500147964394
 20
1170.67090526934
 30
0.0
 10
-268.9500323285732
 20
1170.670869133719
 30
0.0
 10
-268.975666794073
 20
1170.683254626486
 30
0.0
 10
-269.1455804052901
 20
1170.765747325117
 30
0.0
 10
-269.2700198396522
 20
1170.831965580338
 30
0.0
 10
-269.4252096900326
 20
1170.92084755686
 30
0.0
 10
-269.6689763142442
 20
1171.071167528149
 30
0.0
 10
-270.0587279689535
 20
1171.352264842199
 30
0.0
 10
-270.4499259202576
 20
1171.716898975543
 30
0.0
 10
-270.7580792790534
 20
1172.07207310237
 30
0.0
 10
-271.0404258195044
 20
1172.447740806832
 30
0.0
 10
-271.3422676176332
 20
1172.95310753225
 30
0.0
 10
-271.748068709675
 20
1173.917553365987
 30
0.0
 10
-271.8748801016486
 20
1174.732532106472
 30
0.0
 10
-271.8648980278246
 20
1175.30417440154
 30
0.0
  0
LINE
  5
308
330
2D0
100
AcDbEntity
  8
0
  6
Continuous
 62
     0
370
    30
100
AcDbLine
 10
-271.804544
 20
1178.759693
 30
0.0
 11
-271.86486
 21
1175.304195
 31
0.0
  0
LINE
  5
309
330
2D0
100
AcDbEntity
  8
0
  6
Continuous
 62
     0
370
    30
100
AcDbLine
 10
-284.804544
 20
1178.759691
 30
0.0
 11
-284.744228
 21
1175.304194
 31
0.0
  0
LINE
  5
30A
330
2D0
100
AcDbEntity
  8
0
  6
Continuous
 62
     0
370
    30
100
AcDbLine
 10
-256.828645
 20
1014.759705
 30
0.0
 11
-256.304535
 21
1014.759705
 31
0.0
  0
LINE
  5
30B
330
2D0
100
AcDbEntity
  8
0
  6
Continuous
 62
     0
370
    30
100
AcDbLine
 10
-249.507319
 20
1003.759705
 30
0.0
 11
-248.804535
 21
1003.759705
 31
0.0
  0
LINE
  5
30C
330
2D0
100
AcDbEntity
  8
0
  6
Continuous
 62
     0
370
    30
100
AcDbLine
 10
-307.804535
 20
1003.759705
 30
0.0
 11
-249.507319
 21
1003.759705
 31
0.0
  0
LINE
  5
30D
330
2D0
100
AcDbEntity
  8
0
  6
Continuous
 62
     0
370
     0
100
AcDbLine
 10
-308.304535
 20
1004.259705
 30
0.0
 11
-249.01923
 21
1004.259705
 31
0.0
  0
LINE
  5
30E
330
2D0
100
AcDbEntity
  8
0
  6
Continuous
 62
     0
370
     0
100
AcDbLine
 10
-249.01923
 20
1004.259705
 30
0.0
 11
-248.304535
 21
1004.259705
 31
0.0
  0
LINE
  5
30F
330
2D0
100
AcDbEntity
  8
0
  6
Continuous
 62
     0
370
     0
100
AcDbLine
 10
-249.01923
 20
1009.259705
 30
0.0
 11
-248.304535
 21
1009.259705
 31
0.0
  0
LINE
  5
310
330
2D0
100
AcDbEntity
  8
0
  6
Continuous
 62
     0
370
     0
100
AcDbLine
 10
-308.304535
 20
1009.259705
 30
0.0
 11
-249.01923
 21
1009.259705
 31
0.0
  0
LINE
  5
311
330
2D0
100
AcDbEntity
  8
0
  6
Continuous
 62
     0
370
    30
100
AcDbLine
 10
-307.804535
 20
1009.759705
 30
0.0
 11
-249.507319
 21
1009.759705
 31
0.0
  0
LINE
  5
312
330
2D0
100
AcDbEntity
  8
0
  6
Continuous
 62
     0
370
    30
100
AcDbLine
 10
-249.507319
 20
1009.759705
 30
0.0
 11
-248.804535
 21
1009.759705
 31
0.0
  0
ARC
  5
313
330
2D0
100
AcDbEntity
  8
0
  6
Continuous
 62
     0
370
    30
100
AcDbCircle
 10
-248.804591
 20
1004.259742
 30
0.0
 40
0.5000375536693313
100
AcDbArc
 50
270.012529
 51
359.995698
  0
ARC
  5
314
330
2D0
100
AcDbEntity
  8
0
  6
Continuous
 62
     0
370
    30
100
AcDbCircle
 10
-307.80453
 20
1004.259743
 30
0.0
 40
0.5000383555689496
100
AcDbArc
 50
180.004394
 51
269.983867
  0
ARC
  5
315
330
2D0
100
AcDbEntity
  8
0
  6
Continuous
 62
     0
370
    30
100
AcDbCircle
 10
-248.804591
 20
1009.259667
 30
0.0
 40
0.5000375536753592
100
AcDbArc
 50
0.004302
 51
89.987471
  0
ARC
  5
316
330
2D0
100
AcDbEntity
  8
0
  6
Continuous
 62
     0
370
    30
100
AcDbCircle
 10
-307.80453
 20
1009.259666
 30
0.0
 40
0.5000383555797385
100
AcDbArc
 50
90.016133
 51
179.995606
  0
LINE
  5
317
330
2D0
100
AcDbEntity
  8
0
  6
Continuous
 62
     0
370
    30
100
AcDbLine
 10
-308.304535
 20
1004.259705
 30
0.0
 11
-308.304535
 21
1009.259705
 31
0.0
  0
LINE
  5
318
330
2D0
100
AcDbEntity
  8
0
  6
Continuous
 62
     0
370
    30
100
AcDbLine
 10
-248.304535
 20
1004.259705
 30
0.0
 11
-248.304535
 21
1009.259705
 31
0.0
  0
ARC
  5
319
330
2D0
100
AcDbEntity
  8
0
  6
Continuous
 62
     0
370
    30
100
AcDbCircle
 10
-251.304289
 20
1014.759965
 30
0.0
 40
5.000260182925741
100
AcDbArc
 50
180.002981
 51
269.984378
  0
ARC
  5
31A
330
2D0
100
AcDbEntity
  8
0
  6
Continuous
 62
     0
370
    30
100
AcDbCircle
 10
-305.304837
 20
1014.75997
 30
0.0
 40
5.000265874660349
100
AcDbArc
 50
270.015557
 51
359.996954
  0
LINE
  5
31B
330
2D0
100
AcDbEntity
  8
0
  6
Continuous
 62
     0
370
     0
100
AcDbLine
 10
-249.105859
 20
1110.709556
 30
0.0
 11
-251.371628
 21
1111.766101
 31
0.0
  0
LINE
  5
31C
330
2D0
100
AcDbEntity
  8
0
  6
Continuous
 62
     0
370
     0
100
AcDbLine
 10
-251.371628
 20
1111.766101
 30
0.0
 11
-253.637398
 21
1112.822647
 31
0.0
  0
LINE
  5
31D
330
2D0
100
AcDbEntity
  8
0
  6
Continuous
 62
     0
370
     0
100
AcDbLine
 10
-246.386935
 20
1112.441701
 30
0.0
 11
-246.386935
 21
1114.941701
 31
0.0
  0
LINE
  5
31E
330
2D0
100
AcDbEntity
  8
0
  6
Continuous
 62
     0
370
     0
100
AcDbLine
 10
-246.386935
 20
1114.941701
 30
0.0
 11
-246.386936
 21
1117.441701
 31
0.0
  0
LINE
  5
31F
330
2D0
100
AcDbEntity
  8
0
  6
Continuous
 62
     0
370
    30
100
AcDbLine
 10
-258.218205
 20
769.055003
 30
0.0
 11
-259.965807
 21
768.963415
 31
0.0
  0
LINE
  5
320
330
2D0
100
AcDbEntity
  8
0
  6
Continuous
 62
     0
370
    30
100
AcDbLine
 10
-259.965807
 20
768.963415
 30
0.0
 11
-261.713409
 21
768.871827
 31
0.0
  0
LINE
  5
321
330
2D0
100
AcDbEntity
  8
0
  6
Continuous
 62
     0
370
    30
100
AcDbLine
 10
-260.005059
 20
769.712387
 30
0.0
 11
-262.501633
 21
769.581547
 31
0.0
  0
LINE
  5
322
330
2D0
100
AcDbEntity
  8
0
  6
Continuous
 62
     0
370
    30
100
AcDbLine
 10
-257.508485
 20
769.843227
 30
0.0
 11
-260.005059
 21
769.712387
 31
0.0
  0
LINE
  5
323
330
2D0
100
AcDbEntity
  8
0
  6
Continuous
 62
     0
370
    30
100
AcDbLine
 10
-234.891685
 20
1114.941701
 30
0.0
 11
-234.891685
 21
1115.941701
 31
0.0
  0
LINE
  5
324
330
2D0
100
AcDbEntity
  8
0
  6
Continuous
 62
     0
370
    30
100
AcDbLine
 10
-234.891685
 20
1113.941701
 30
0.0
 11
-234.891685
 21
1114.941701
 31
0.0
  0
LINE
  5
325
330
2D0
100
AcDbEntity
  8
0
  6
Continuous
 62
     0
370
     0
100
AcDbLine
 10
-236.391685
 20
1112.441701
 30
0.0
 11
-236.391685
 21
1114.941701
 31
0.0
  0
LINE
  5
326
330
2D0
100
AcDbEntity
  8
0
  6
Continuous
 62
     0
370
     0
100
AcDbLine
 10
-236.391685
 20
1114.941701
 30
0.0
 11
-236.391685
 21
1117.441701
 31
0.0
  0
ARC
  5
327
330
2D0
100
AcDbEntity
  8
0
  6
Continuous
 62
     0
370
    30
100
AcDbCircle
 10
-236.390828
 20
1115.942558
 30
0.0
 40
1.499143655317904
100
AcDbArc
 50
359.967263
 51
90.03274
  0
ARC
  5
328
330
2D0
100
AcDbEntity
  8
0
  6
Continuous
 62
     0
370
    30
100
AcDbCircle
 10
-236.390828
 20
1113.940844
 30
0.0
 40
1.499143655317454
100
AcDbArc
 50
269.967264
 51
0.032741
  0
LINE
  5
329
330
2D0
100
AcDbEntity
  8
0
  6
Continuous
 62
     0
370
    30
100
AcDbLine
 10
-236.391685
 20
1112.441701
 30
0.0
 11
-246.386935
 21
1112.441701
 31
0.0
  0
LINE
  5
32A
330
2D0
100
AcDbEntity
  8
0
  6
Continuous
 62
     0
370
    30
100
AcDbLine
 10
-236.391685
 20
1117.441701
 30
0.0
 11
-246.386936
 21
1117.441701
 31
0.0
  0
LINE
  5
32B
330
2D0
100
AcDbEntity
  8
0
  6
Continuous
 62
     0
370
    30
100
AcDbLine
 10
-262.501633
 20
769.581547
 30
0.0
 11
-261.713439
 21
768.871855
 31
0.0
  0
LINE
  5
32C
330
2D0
100
AcDbEntity
  8
0
  6
Continuous
 62
     0
370
    30
100
AcDbLine
 10
-257.508485
 20
769.843227
 30
0.0
 11
-258.218178
 21
769.055034
 31
0.0
  0
LINE
  5
32D
330
2D0
100
AcDbEntity
  8
0
  6
Continuous
 62
     0
370
    30
100
AcDbLine
 10
-269.767535
 20
1003.759705
 30
0.0
 11
-257.508485
 21
769.843227
 31
0.0
  0
LINE
  5
32E
330
2D0
100
AcDbEntity
  8
0
  6
Continuous
 62
     0
370
    30
100
AcDbLine
 10
-274.774397
 20
1003.759705
 30
0.0
 11
-262.501633
 21
769.581547
 31
0.0
  0
ARC
  5
32F
330
2D0
100
AcDbEntity
  8
0
  6
Continuous
 62
     0
370
    30
100
AcDbCircle
 10
-246.387678
 20
1109.442867
 30
0.0
 40
2.998833774731899
100
AcDbArc
 50
89.985805
 51
155.014196
  0
ARC
  5
330
330
2D0
100
AcDbEntity
  8
0
  6
Continuous
 62
     0
370
    30
100
AcDbCircle
 10
-246.386445
 20
1109.440931
 30
0.0
 40
8.000769788467746
100
AcDbArc
 50
90.003514
 51
154.996488
  0
LINE
  5
331
330
2D0
100
AcDbEntity
  8
0
  6
Continuous
 62
     0
370
    30
100
AcDbLine
 10
-249.105859
 20
1110.709556
 30
0.0
 11
-255.832905
 21
1096.283358
 31
0.0
  0
LINE
  5
332
330
2D0
100
AcDbEntity
  8
0
  6
Continuous
 62
     0
370
    30
100
AcDbLine
 10
-253.637398
 20
1112.822647
 30
0.0
 11
-255.834532
 21
1108.110877
 31
0.0
  0
LINE
  5
333
330
2D0
100
AcDbEntity
  8
0
  6
Continuous
 62
     0
370
     0
100
AcDbLine
 10
-267.304535
 20
1297.909698
 30
0.0
 11
-278.304535
 21
1297.909698
 31
0.0
  0
LINE
  5
334
330
2D0
100
AcDbEntity
  8
0
  6
Continuous
 62
     0
370
     0
100
AcDbLine
 10
-278.304535
 20
1297.909698
 30
0.0
 11
-289.304535
 21
1297.909698
 31
0.0
  0
LINE
  5
335
330
2D0
100
AcDbEntity
  8
0
  6
Continuous
 62
     0
370
     0
100
AcDbLine
 10
-469.304535
 20
1297.909698
 30
0.0
 11
-458.304535
 21
1297.909698
 31
0.0
  0
LINE
  5
336
330
2D0
100
AcDbEntity
  8
0
  6
Continuous
 62
     0
370
     0
100
AcDbLine
 10
-458.304535
 20
1297.909698
 30
0.0
 11
-447.304535
 21
1297.909698
 31
0.0
  0
LINE
  5
337
330
2D0
100
AcDbEntity
  8
0
  6
Continuous
 62
     0
370
    30
100
AcDbLine
 10
-469.304535
 20
1273.909698
 30
0.0
 11
-467.64176
 21
1273.909698
 31
0.0
  0
LINE
  5
338
330
2D0
100
AcDbEntity
  8
0
  6
Continuous
 62
     0
370
    30
100
AcDbLine
 10
-469.304535
 20
1273.909698
 30
0.0
 11
-469.304535
 21
1297.909698
 31
0.0
  0
LINE
  5
339
330
2D0
100
AcDbEntity
  8
0
  6
Continuous
 62
     0
370
    30
100
AcDbLine
 10
-447.304535
 20
1273.909698
 30
0.0
 11
-447.304535
 21
1297.909698
 31
0.0
  0
ARC
  5
33A
330
2D0
100
AcDbEntity
  8
0
  6
Continuous
 62
     0
370
    30
100
AcDbCircle
 10
-368.304535
 20
1297.909332
 30
0.0
 40
101.0000000006645
100
AcDbArc
 50
0.000208
 51
179.999792
  0
ARC
  5
33B
330
2D0
100
AcDbEntity
  8
0
  6
Continuous
 62
     0
370
    30
100
AcDbCircle
 10
-368.304535
 20
1297.909215
 30
0.0
 40
79.00000000147892
100
AcDbArc
 50
0.000351
 51
179.999649
  0
LINE
  5
33C
330
2D0
100
AcDbEntity
  8
0
  6
Continuous
 62
     0
370
    30
100
AcDbLine
 10
-267.304535
 20
1297.909698
 30
0.0
 11
-267.304535
 21
1205.759699
 31
0.0
  0
LINE
  5
33D
330
2D0
100
AcDbEntity
  8
0
  6
Continuous
 62
     0
370
    30
100
AcDbLine
 10
-289.304535
 20
1297.909698
 30
0.0
 11
-289.304535
 21
1205.759699
 31
0.0
  0
LINE
  5
33E
330
2D0
100
AcDbEntity
  8
0
  6
Continuous
 62
     0
370
    30
100
AcDbLine
 10
-271.804546
 20
1205.759699
 30
0.0
 11
-256.804535
 21
1205.759699
 31
0.0
  0
LINE
  5
33F
330
2D0
100
AcDbEntity
  8
0
  6
Continuous
 62
     0
370
    30
100
AcDbLine
 10
-299.132867
 20
1205.759699
 30
0.0
 11
-284.804546
 21
1205.759699
 31
0.0
  0
LINE
  5
340
330
2D0
100
AcDbEntity
  8
0
  6
Continuous
 62
     0
370
    30
100
AcDbLine
 10
-299.804535
 20
1205.759699
 30
0.0
 11
-299.132867
 21
1205.759699
 31
0.0
  0
LINE
  5
341
330
2D0
100
AcDbEntity
  8
0
  6
Continuous
 62
     0
370
     0
100
AcDbLine
 10
-271.804546
 20
1205.259699
 30
0.0
 11
-256.304535
 21
1205.259699
 31
0.0
  0
LINE
  5
342
330
2D0
100
AcDbEntity
  8
0
  6
Continuous
 62
     0
370
     0
100
AcDbLine
 10
-299.617247
 20
1205.259699
 30
0.0
 11
-284.804546
 21
1205.259699
 31
0.0
  0
LINE
  5
343
330
2D0
100
AcDbEntity
  8
0
  6
Continuous
 62
     0
370
     0
100
AcDbLine
 10
-300.304535
 20
1205.259699
 30
0.0
 11
-299.617247
 21
1205.259699
 31
0.0
  0
LINE
  5
344
330
2D0
100
AcDbEntity
  8
0
  6
Continuous
 62
     0
370
    30
100
AcDbLine
 10
-271.804543
 20
1184.059699
 30
0.0
 11
-256.304535
 21
1184.059699
 31
0.0
  0
LINE
  5
345
330
2D0
100
AcDbEntity
  8
0
  6
Continuous
 62
     0
370
    30
100
AcDbLine
 10
-299.617247
 20
1184.059699
 30
0.0
 11
-284.804543
 21
1184.059699
 31
0.0
  0
LINE
  5
346
330
2D0
100
AcDbEntity
  8
0
  6
Continuous
 62
     0
370
    30
100
AcDbLine
 10
-300.304535
 20
1184.059699
 30
0.0
 11
-299.617247
 21
1184.059699
 31
0.0
  0
LINE
  5
347
330
2D0
100
AcDbEntity
  8
0
  6
Continuous
 62
     0
370
    30
100
AcDbLine
 10
-300.00458
 20
1183.759726
 30
0.0
 11
-300.304553
 21
1184.059699
 31
0.0
  0
LINE
  5
348
330
2D0
100
AcDbEntity
  8
0
  6
Continuous
 62
     0
370
    30
100
AcDbLine
 10
-256.604564
 20
1183.759724
 30
0.0
 11
-256.30459
 21
1184.059699
 31
0.0
  0
LINE
  5
349
330
2D0
100
AcDbEntity
  8
0
  6
Continuous
 62
     0
370
    30
100
AcDbLine
 10
-256.304535
 20
1184.059699
 30
0.0
 11
-256.304535
 21
1205.259699
 31
0.0
  0
LINE
  5
34A
330
2D0
100
AcDbEntity
  8
0
  6
Continuous
 62
     0
370
    30
100
AcDbLine
 10
-300.304535
 20
1184.059699
 30
0.0
 11
-300.304535
 21
1205.259699
 31
0.0
  0
ARC
  5
34B
330
2D0
100
AcDbEntity
  8
0
  6
Continuous
 62
     0
370
    30
100
AcDbCircle
 10
-299.804515
 20
1205.259661
 30
0.0
 40
0.5000377307416861
100
AcDbArc
 50
90.010454
 51
179.995677
  0
ARC
  5
34C
330
2D0
100
AcDbEntity
  8
0
  6
Continuous
 62
     0
370
    30
100
AcDbCircle
 10
-256.804627
 20
1205.259662
 30
0.0
 40
0.5000368502383084
100
AcDbArc
 50
0.004222
 51
89.989913
  0
LINE
  5
34D
330
2D0
100
AcDbEntity
  8
0
  6
Continuous
 62
     0
370
    30
100
AcDbLine
 10
-447.304535
 20
1273.909696
 30
0.0
 11
-467.64176
 21
1273.909696
 31
0.0
  0
LINE
  5
34E
330
2D0
100
AcDbEntity
  8
0
  6
Continuous
 62
     0
370
     0
100
AcDbLine
 10
-467.64176
 20
1254.109696
 30
0.0
 11
-469.304535
 21
1254.109696
 31
0.0
  0
LINE
  5
34F
330
2D0
100
AcDbEntity
  8
0
  6
Continuous
 62
     0
370
     0
100
AcDbLine
 10
-447.304535
 20
1254.109696
 30
0.0
 11
-467.64176
 21
1254.109696
 31
0.0
  0
LINE
  5
350
330
2D0
100
AcDbEntity
  8
0
  6
Continuous
 62
     0
370
    30
100
AcDbLine
 10
-467.471993
 20
1253.909696
 30
0.0
 11
-469.104535
 21
1253.909696
 31
0.0
  0
LINE
  5
351
330
2D0
100
AcDbEntity
  8
0
  6
Continuous
 62
     0
370
    30
100
AcDbLine
 10
-447.504535
 20
1253.909696
 30
0.0
 11
-467.471993
 21
1253.909696
 31
0.0
  0
ARC
  5
352
330
2D0
100
AcDbEntity
  8
0
  6
Continuous
 62
     0
370
    30
100
AcDbCircle
 10
-447.504836
 20
1254.109996
 30
0.0
 40
0.2003008867700002
100
AcDbArc
 50
270.086004
 51
359.913996
  0
ARC
  5
353
330
2D0
100
AcDbEntity
  8
0
  6
Continuous
 62
     0
370
    30
100
AcDbCircle
 10
-469.104235
 20
1254.109996
 30
0.0
 40
0.2003008867399988
100
AcDbArc
 50
180.086004
 51
269.913996
  0
LINE
  5
354
330
2D0
100
AcDbEntity
  8
0
  6
Continuous
 62
     0
370
    30
100
AcDbLine
 10
-447.304535
 20
1273.909696
 30
0.0
 11
-447.304535
 21
1254.109696
 31
0.0
  0
LINE
  5
355
330
2D0
100
AcDbEntity
  8
0
  6
Continuous
 62
     0
370
    30
100
AcDbLine
 10
-469.304535
 20
1273.909696
 30
0.0
 11
-469.304535
 21
1254.109696
 31
0.0
  0
LINE
  5
356
330
2D0
100
AcDbEntity
  8
0
  6
Continuous
 62
     0
370
    30
100
AcDbLine
 10
-300.304531
 20
1014.759705
 30
0.0
 11
-256.828645
 21
1014.759705
 31
0.0
  0
LINE
  5
357
330
2D0
100
AcDbEntity
  8
0
  6
Continuous
 62
     0
370
    30
100
AcDbLine
 10
-300.304531
 20
1014.759705
 30
0.0
 11
-300.304531
 21
1079.759705
 31
0.0
  0
LINE
  5
358
330
2D0
100
AcDbEntity
  8
0
  6
Continuous
 62
     0
370
    30
100
AcDbLine
 10
-256.304539
 20
1014.759705
 30
0.0
 11
-256.304539
 21
1079.759705
 31
0.0
  0
ENDBLK
  5
35A
330
2D0
100
AcDbEntity
  8
0
100
AcDbBlockEnd
  0
ENDSEC
  0
SECTION
  2
ENTITIES
  0
INSERT
  5
108
330
1F
100
AcDbEntity
  8
0
  6
Continuous
 62
     7
420
 16777215
370
     0
100
AcDbBlockReference
  2
a
 10
49.903435
 20
229.884827
 30
0.0
  0
INSERT
  5
197
330
1F
100
AcDbEntity
  8
0
  6
Continuous
 62
     7
420
 16777215
370
     0
100
AcDbBlockReference
  2
b
 10
49.903439
 20
782.306641
 30
0.0
  0
INSERT
  5
1FE
330
1F
100
AcDbEntity
  8
0
  6
Continuous
 62
     7
420
 16777215
370
     0
100
AcDbBlockReference
  2
c
 10
304.741341
 20
229.885071
 30
0.0
  0
INSERT
  5
2CF
330
1F
100
AcDbEntity
  8
0
  6
Continuous
 62
     7
420
 16777215
370
     0
100
AcDbBlockReference
  2
d
 10
319.64492
 20
402.307159
 30
0.0
  0
INSERT
  5
35B
330
1F
100
AcDbEntity
  8
0
  6
Continuous
 62
     7
420
 16777215
370
     0
100
AcDbBlockReference
  2
e
 10
-367.649292
 20
-0.000122
 30
0.0
  0
ENDSEC
  0
SECTION
  2
OBJECTS
  0
DICTIONARY
  5
C
330
0
100
AcDbDictionary
281
     1
  3
ACAD_GROUP
350
D
  3
ACAD_LAYOUT
350
1A
  3
ACAD_MATERIAL
350
3B
  3
ACAD_MLEADERSTYLE
350
35D
  3
ACAD_MLINESTYLE
350
17
  3
ACAD_PLOTSETTINGS
350
19
  3
ACAD_PLOTSTYLENAME
350
E
  3
ACAD_TABLESTYLE
350
35C
  3
ACAD_VISUALSTYLE
350
2A
  0
DICTIONARY
  5
D
102
{ACAD_REACTORS
330
C
102
}
330
C
100
AcDbDictionary
281
     1
  0
DICTIONARY
  5
1A
102
{ACAD_REACTORS
330
C
102
}
330
C
100
AcDbDictionary
281
     1
  3
Layout1
350
1E
  3
Layout2
350
26
  3
Model
350
22
  0
DICTIONARY
  5
3B
102
{ACAD_REACTORS
330
C
102
}
330
C
100
AcDbDictionary
281
     1
  3
ByBlock
350
3D
  3
ByLayer
350
3C
  3
Global
350
3E
  0
DICTIONARY
  5
35D
102
{ACAD_REACTORS
330
C
102
}
330
C
100
AcDbDictionary
281
     1
  0
DICTIONARY
  5
17
102
{ACAD_REACTORS
330
C
102
}
330
C
100
AcDbDictionary
281
     1
  3
Standard
350
18
  0
DICTIONARY
  5
19
102
{ACAD_REACTORS
330
C
102
}
330
C
100
AcDbDictionary
281
     1
  0
ACDBDICTIONARYWDFLT
  5
E
102
{ACAD_REACTORS
330
C
102
}
330
C
100
AcDbDictionary
281
     1
  3
Normal
350
F
100
AcDbDictionaryWithDefault
340
F
  0
DICTIONARY
  5
35C
102
{ACAD_REACTORS
330
C
102
}
330
C
100
AcDbDictionary
281
     1
  0
DICTIONARY
  5
2A
102
{ACAD_REACTORS
330
C
102
}
330
C
100
AcDbDictionary
281
     1
  3
2dWireframe
350
2F
  3
3D Hidden
350
31
  3
3dWireframe
350
30
  3
Basic
350
32
  3
Brighten
350
36
  3
ColorChange
350
3A
  3
Conceptual
350
34
  3
Dim
350
35
  3
Facepattern
350
39
  3
Flat
350
2B
  3
FlatWithEdges
350
2C
  3
Gouraud
350
2D
  3
GouraudWithEdges
350
2E
  3
Linepattern
350
38
  3
Realistic
350
33
  3
Thicken
350
37
  0
LAYOUT
  5
1E
102
{ACAD_REACTORS
330
1A
102
}
330
1A
100
AcDbPlotSettings
  1

  2
none_device
  4

  6

 40
0.0
 41
0.0
 42
0.0
 43
0.0
 44
0.0
 45
0.0
 46
0.0
 47
0.0
 48
0.0
 49
0.0
140
0.0
141
0.0
142
1.0
143
1.0
 70
   688
 72
     0
 73
     0
 74
     5
  7

 75
    16
 76
     0
 77
     2
 78
   300
147
1.0
148
0.0
149
0.0
100
AcDbLayout
  1
Layout1
 70
     1
 71
     1
 10
0.0
 20
0.0
 11
420.0
 21
297.0
 12
0.0
 22
0.0
 32
0.0
 14
1.000000E+20
 24
1.000000E+20
 34
1.000000E+20
 15
-1.000000E+20
 25
-1.000000E+20
 35
-1.000000E+20
146
0.0
 13
0.0
 23
0.0
 33
0.0
 16
1.0
 26
0.0
 36
0.0
 17
0.0
 27
1.0
 37
0.0
 76
     0
330
1B
  0
LAYOUT
  5
26
102
{ACAD_REACTORS
330
1A
102
}
330
1A
100
AcDbPlotSettings
  1

  2
none_device
  4

  6

 40
0.0
 41
0.0
 42
0.0
 43
0.0
 44
0.0
 45
0.0
 46
0.0
 47
0.0
 48
0.0
 49
0.0
140
0.0
141
0.0
142
1.0
143
1.0
 70
   688
 72
     0
 73
     0
 74
     5
  7

 75
    16
 76
     0
 77
     2
 78
   300
147
1.0
148
0.0
149
0.0
100
AcDbLayout
  1
Layout2
 70
     1
 71
     2
 10
0.0
 20
0.0
 11
0.0
 21
0.0
 12
0.0
 22
0.0
 32
0.0
 14
0.0
 24
0.0
 34
0.0
 15
0.0
 25
0.0
 35
0.0
146
0.0
 13
0.0
 23
0.0
 33
0.0
 16
1.0
 26
0.0
 36
0.0
 17
0.0
 27
1.0
 37
0.0
 76
     0
330
23
  0
LAYOUT
  5
22
102
{ACAD_REACTORS
330
1A
102
}
330
1A
100
AcDbPlotSettings
  1

  2
none_device
  4

  6

 40
0.0
 41
0.0
 42
0.0
 43
0.0
 44
0.0
 45
0.0
 46
0.0
 47
0.0
 48
0.0
 49
0.0
140
0.0
141
0.0
142
1.0
143
1.0
 70
  1712
 72
     0
 73
     0
 74
     0
  7

 75
     0
 76
     0
 77
     2
 78
   300
147
1.0
148
0.0
149
0.0
100
AcDbLayout
  1
Model
 70
     1
 71
     0
 10
0.0
 20
0.0
 11
420.0
 21
297.0
 12
0.0
 22
0.0
 32
0.0
 14
1.000000E+20
 24
1.000000E+20
 34
1.000000E+20
 15
-1.000000E+20
 25
-1.000000E+20
 35
-1.000000E+20
146
0.0
 13
0.0
 23
0.0
 33
0.0
 16
1.0
 26
0.0
 36
0.0
 17
0.0
 27
1.0
 37
0.0
 76
     0
330
1F
331
29
  0
MATERIAL
  5
3D
102
{ACAD_REACTORS
330
3B
102
}
330
3B
100
AcDbMaterial
  1
ByBlock
 72
     1
 94
      127
  0
MATERIAL
  5
3C
102
{ACAD_REACTORS
330
3B
102
}
330
3B
100
AcDbMaterial
  1
ByLayer
 72
     1
 94
      127
  0
MATERIAL
  5
3E
102
{ACAD_REACTORS
330
3B
102
}
330
3B
100
AcDbMaterial
  1
Global
 72
     1
 94
      127
  0
MLINESTYLE
  5
18
102
{ACAD_REACTORS
330
17
102
}
330
17
100
AcDbMlineStyle
  2
Standard
 70
     0
  3

 62
   256
 51
90.0
 52
90.0
 71
     2
 49
0.5
 62
   256
  6
BYLAYER
 49
-0.5
 62
   256
  6
BYLAYER
  0
ACDBPLACEHOLDER
  5
F
102
{ACAD_REACTORS
330
E
102
}
330
E
  0
VISUALSTYLE
  5
2F
102
{ACAD_REACTORS
330
2A
102
}
330
2A
100
AcDbVisualStyle
  2
2dWireframe
 70
     4
177
     2
291
     0
 71
     0
176
     1
 72
     2
176
     1
 73
     0
176
     1
 90
        0
176
     1
 40
-0.6
176
     1
 41
-30.0
176
     1
 62
     5
 63
     7
421
 16777215
176
     1
 74
     1
176
     1
 91
        4
176
     1
 64
     7
176
     1
 65
   257
176
     1
 75
     1
176
     1
175
     1
176
     1
 42
1.0
176
     1
 92
        0
176
     1
 66
   257
176
     1
 43
1.0
176
     1
 76
     1
176
     1
 77
     6
176
     1
 78
     2
176
     1
 67
     7
176
     1
 79
     5
176
     1
170
     0
176
     1
171
     0
176
     1
290
     0
176
     1
 93
        1
176
     1
 44
0.0
176
     1
173
     0
176
     1
  0
VISUALSTYLE
  5
31
102
{ACAD_REACTORS
330
2A
102
}
330
2A
100
AcDbVisualStyle
  2
3D Hidden
 70
     6
177
     2
291
     0
 71
     1
176
     1
 72
     2
176
     1
 73
     2
176
     1
 90
        0
176
     1
 40
-0.6
176
     1
 41
-30.0
176
     1
 62
     5
 63
     7
421
 16777215
176
     1
 74
     2
176
     1
 91
        2
176
     1
 64
     7
176
     1
 65
   257
176
     1
 75
     2
176
     1
175
     1
176
     1
 42
40.0
176
     1
 92
        0
176
     1
 66
   257
176
     1
 43
1.0
176
     1
 76
     1
176
     1
 77
     6
176
     1
 78
     2
176
     1
 67
     7
176
     1
 79
     3
176
     1
170
     0
176
     1
171
     0
176
     1
290
     0
176
     1
 93
        1
176
     1
 44
0.0
176
     1
173
     0
176
     1
  0
VISUALSTYLE
  5
30
102
{ACAD_REACTORS
330
2A
102
}
330
2A
100
AcDbVisualStyle
  2
3dWireframe
 70
     5
177
     2
291
     0
 71
     0
176
     1
 72
     2
176
     1
 73
     0
176
     1
 90
        0
176
     1
 40
-0.6
176
     1
 41
-30.0
176
     1
 62
     5
 63
     7
421
 16777215
176
     1
 74
     1
176
     1
 91
        4
176
     1
 64
     7
176
     1
 65
   257
176
     1
 75
     1
176
     1
175
     1
176
     1
 42
1.0
176
     1
 92
        0
176
     1
 66
   257
176
     1
 43
1.0
176
     1
 76
     1
176
     1
 77
     6
176
     1
 78
     2
176
     1
 67
     7
176
     1
 79
     5
176
     1
170
     0
176
     1
171
     0
176
     1
290
     0
176
     1
 93
        1
176
     1
 44
0.0
176
     1
173
     0
176
     1
  0
VISUALSTYLE
  5
32
102
{ACAD_REACTORS
330
2A
102
}
330
2A
100
AcDbVisualStyle
  2
Basic
 70
     7
177
     2
291
     1
 71
     1
176
     1
 72
     0
176
     1
 73
     1
176
     1
 90
        0
176
     1
 40
-0.6
176
     1
 41
-30.0
176
     1
 62
     5
 63
     7
421
 16777215
176
     1
 74
     0
176
     1
 91
        4
176
     1
 64
     7
176
     1
 65
   257
176
     1
 75
     1
176
     1
175
     1
176
     1
 42
1.0
176
     1
 92
        8
176
     1
 66
     7
176
     1
 43
1.0
176
     1
 76
     1
176
     1
 77
     6
176
     1
 78
     2
176
     1
 67
     7
176
     1
 79
     5
176
     1
170
     0
176
     1
171
     0
176
     1
290
     0
176
     1
 93
        1
176
     1
 44
0.0
176
     1
173
     0
176
     1
  0
VISUALSTYLE
  5
36
102
{ACAD_REACTORS
330
2A
102
}
330
2A
100
AcDbVisualStyle
  2
Brighten
 70
    12
177
     2
291
     1
 71
     2
176
     1
 72
     2
176
     1
 73
     0
176
     1
 90
        0
176
     1
 40
-0.6
176
     1
 41
-30.0
176
     1
 62
     5
 63
     7
421
 16777215
176
     1
 74
     1
176
     1
 91
        4
176
     1
 64
     7
176
     1
 65
   257
176
     1
 75
     1
176
     1
175
     1
176
     1
 42
1.0
176
     1
 92
        8
176
     1
 66
     7
176
     1
 43
1.0
176
     1
 76
     1
176
     1
 77
     6
176
     1
 78
     2
176
     1
 67
     7
176
     1
 79
     5
176
     1
170
     0
176
     1
171
     0
176
     1
290
     0
176
     1
 93
        1
176
     1
 44
50.0
176
     1
173
     0
176
     1
  0
VISUALSTYLE
  5
3A
102
{ACAD_REACTORS
330
2A
102
}
330
2A
100
AcDbVisualStyle
  2
ColorChange
 70
    16
177
     2
291
     1
 71
     2
176
     1
 72
     2
176
     1
 73
     3
176
     1
 90
        0
176
     1
 40
-0.6
176
     1
 41
-30.0
176
     1
 62
     5
 63
     8
421
  8421504
176
     1
 74
     1
176
     1
 91
        4
176
     1
 64
     7
176
     1
 65
   257
176
     1
 75
     1
176
     1
175
     1
176
     1
 42
1.0
176
     1
 92
        8
176
     1
 66
     8
424
  8421504
176
     1
 43
1.0
176
     1
 76
     1
176
     1
 77
     6
176
     1
 78
     2
176
     1
 67
     7
176
     1
 79
     5
176
     1
170
     0
176
     1
171
     0
176
     1
290
     0
176
     1
 93
        1
176
     1
 44
0.0
176
     1
173
     0
176
     1
  0
VISUALSTYLE
  5
34
102
{ACAD_REACTORS
330
2A
102
}
330
2A
100
AcDbVisualStyle
  2
Conceptual
 70
     9
177
     2
291
     0
 71
     3
176
     1
 72
     2
176
     1
 73
     0
176
     1
 90
        0
176
     1
 40
-0.6
176
     1
 41
-30.0
176
     1
 62
     5
 63
     7
421
 16777215
176
     1
 74
     2
176
     1
 91
        2
176
     1
 64
     7
176
     1
 65
   257
176
     1
 75
     1
176
     1
175
     1
176
     1
 42
40.0
176
     1
 92
        8
176
     1
 66
     7
176
     1
 43
1.0
176
     1
 76
     1
176
     1
 77
     6
176
     1
 78
     2
176
     1
 67
     7
176
     1
 79
     3
176
     1
170
     0
176
     1
171
     0
176
     1
290
     0
176
     1
 93
        1
176
     1
 44
0.0
176
     1
173
     0
176
     1
  0
VISUALSTYLE
  5
35
102
{ACAD_REACTORS
330
2A
102
}
330
2A
100
AcDbVisualStyle
  2
Dim
 70
    11
177
     2
291
     1
 71
     2
176
     1
 72
     2
176
     1
 73
     0
176
     1
 90
        0
176
     1
 40
-0.6
176
     1
 41
-30.0
176
     1
 62
     5
 63
     7
421
 16777215
176
     1
 74
     1
176
     1
 91
        4
176
     1
 64
     7
176
     1
 65
   257
176
     1
 75
     1
176
     1
175
     1
176
     1
 42
1.0
176
     1
 92
        8
176
     1
 66
     7
176
     1
 43
1.0
176
     1
 76
     1
176
     1
 77
     6
176
     1
 78
     2
176
     1
 67
     7
176
     1
 79
     5
176
     1
170
     0
176
     1
171
     0
176
     1
290
     0
176
     1
 93
        1
176
     1
 44
-50.0
176
     1
173
     0
176
     1
  0
VISUALSTYLE
  5
39
102
{ACAD_REACTORS
330
2A
102
}
330
2A
100
AcDbVisualStyle
  2
Facepattern
 70
    15
177
     2
291
     1
 71
     2
176
     1
 72
     2
176
     1
 73
     0
176
     1
 90
        0
176
     1
 40
-0.6
176
     1
 41
-30.0
176
     1
 62
     5
 63
     7
421
 16777215
176
     1
 74
     1
176
     1
 91
        4
176
     1
 64
     7
176
     1
 65
   257
176
     1
 75
     1
176
     1
175
     1
176
     1
 42
1.0
176
     1
 92
        8
176
     1
 66
     7
176
     1
 43
1.0
176
     1
 76
     1
176
     1
 77
     6
176
     1
 78
     2
176
     1
 67
     7
176
     1
 79
     5
176
     1
170
     0
176
     1
171
     0
176
     1
290
     0
176
     1
 93
        1
176
     1
 44
0.0
176
     1
173
     0
176
     1
  0
VISUALSTYLE
  5
2B
102
{ACAD_REACTORS
330
2A
102
}
330
2A
100
AcDbVisualStyle
  2
Flat
 70
     0
177
     2
291
     1
 71
     2
176
     1
 72
     1
176
     1
 73
     1
176
     1
 90
        2
176
     1
 40
-0.6
176
     1
 41
30.0
176
     1
 62
     5
 63
     7
421
 16777215
176
     1
 74
     0
176
     1
 91
        4
176
     1
 64
     7
176
     1
 65
   257
176
     1
 75
     1
176
     1
175
     1
176
     1
 42
1.0
176
     1
 92
        8
176
     1
 66
     7
176
     1
 43
1.0
176
     1
 76
     1
176
     1
 77
     6
176
     1
 78
     2
176
     1
 67
     7
176
     1
 79
     5
176
     1
170
     0
176
     1
171
     0
176
     1
290
     0
176
     1
 93
       13
176
     1
 44
0.0
176
     1
173
     0
176
     1
  0
VISUALSTYLE
  5
2C
102
{ACAD_REACTORS
330
2A
102
}
330
2A
100
AcDbVisualStyle
  2
FlatWithEdges
 70
     1
177
     2
291
     1
 71
     2
176
     1
 72
     1
176
     1
 73
     1
176
     1
 90
        2
176
     1
 40
-0.6
176
     1
 41
30.0
176
     1
 62
     5
 63
     7
421
 16777215
176
     1
 74
     1
176
     1
 91
        4
176
     1
 64
     7
176
     1
 65
   257
176
     1
 75
     1
176
     1
175
     1
176
     1
 42
1.0
176
     1
 92
        0
176
     1
 66
   257
176
     1
 43
1.0
176
     1
 76
     1
176
     1
 77
     6
176
     1
 78
     2
176
     1
 67
     7
176
     1
 79
     5
176
     1
170
     0
176
     1
171
     0
176
     1
290
     0
176
     1
 93
       13
176
     1
 44
0.0
176
     1
173
     0
176
     1
  0
VISUALSTYLE
  5
2D
102
{ACAD_REACTORS
330
2A
102
}
330
2A
100
AcDbVisualStyle
  2
Gouraud
 70
     2
177
     2
291
     1
 71
     2
176
     1
 72
     2
176
     1
 73
     1
176
     1
 90
        2
176
     1
 40
-0.6
176
     1
 41
30.0
176
     1
 62
     5
 63
     7
421
 16777215
176
     1
 74
     0
176
     1
 91
        4
176
     1
 64
     7
176
     1
 65
   257
176
     1
 75
     1
176
     1
175
     1
176
     1
 42
1.0
176
     1
 92
        0
176
     1
 66
     7
176
     1
 43
1.0
176
     1
 76
     1
176
     1
 77
     6
176
     1
 78
     2
176
     1
 67
     7
176
     1
 79
     5
176
     1
170
     0
176
     1
171
     0
176
     1
290
     0
176
     1
 93
       13
176
     1
 44
0.0
176
     1
173
     0
176
     1
  0
VISUALSTYLE
  5
2E
102
{ACAD_REACTORS
330
2A
102
}
330
2A
100
AcDbVisualStyle
  2
GouraudWithEdges
 70
     3
177
     2
291
     1
 71
     2
176
     1
 72
     2
176
     1
 73
     1
176
     1
 90
        2
176
     1
 40
-0.6
176
     1
 41
30.0
176
     1
 62
     5
 63
     7
421
 16777215
176
     1
 74
     1
176
     1
 91
        4
176
     1
 64
     7
176
     1
 65
   257
176
     1
 75
     1
176
     1
175
     1
176
     1
 42
1.0
176
     1
 92
        0
176
     1
 66
   257
176
     1
 43
1.0
176
     1
 76
     1
176
     1
 77
     6
176
     1
 78
     2
176
     1
 67
     7
176
     1
 79
     5
176
     1
170
     0
176
     1
171
     0
176
     1
290
     0
176
     1
 93
       13
176
     1
 44
0.0
176
     1
173
     0
176
     1
  0
VISUALSTYLE
  5
38
102
{ACAD_REACTORS
330
2A
102
}
330
2A
100
AcDbVisualStyle
  2
Linepattern
 70
    14
177
     2
291
     1
 71
     2
176
     1
 72
     2
176
     1
 73
     0
176
     1
 90
        0
176
     1
 40
-0.6
176
     1
 41
-30.0
176
     1
 62
     5
 63
     7
421
 16777215
176
     1
 74
     1
176
     1
 91
        4
176
     1
 64
     7
176
     1
 65
   257
176
     1
 75
     7
176
     1
175
     7
176
     1
 42
1.0
176
     1
 92
        8
176
     1
 66
     7
176
     1
 43
1.0
176
     1
 76
     1
176
     1
 77
     6
176
     1
 78
     2
176
     1
 67
     7
176
     1
 79
     5
176
     1
170
     0
176
     1
171
     0
176
     1
290
     0
176
     1
 93
        1
176
     1
 44
0.0
176
     1
173
     0
176
     1
  0
VISUALSTYLE
  5
33
102
{ACAD_REACTORS
330
2A
102
}
330
2A
100
AcDbVisualStyle
  2
Realistic
 70
     8
177
     2
291
     0
 71
     2
176
     1
 72
     2
176
     1
 73
     0
176
     1
 90
        0
176
     1
 40
-0.6
176
     1
 41
-30.0
176
     1
 62
     5
 63
     7
421
 16777215
176
     1
 74
     1
176
     1
 91
        0
176
     1
 64
     7
176
     1
 65
   257
176
     1
 75
     1
176
     1
175
     1
176
     1
 42
1.0
176
     1
 92
        8
176
     1
 66
     8
424
  7895160
176
     1
 43
1.0
176
     1
 76
     1
176
     1
 77
     6
176
     1
 78
     2
176
     1
 67
     7
176
     1
 79
     5
176
     1
170
     0
176
     1
171
     0
176
     1
290
     0
176
     1
 93
       13
176
     1
 44
0.0
176
     1
173
     0
176
     1
  0
VISUALSTYLE
  5
37
102
{ACAD_REACTORS
330
2A
102
}
330
2A
100
AcDbVisualStyle
  2
Thicken
 70
    13
177
     2
291
     1
 71
     2
176
     1
 72
     2
176
     1
 73
     0
176
     1
 90
        0
176
     1
 40
-0.6
176
     1
 41
-30.0
176
     1
 62
     5
 63
     7
421
 16777215
176
     1
 74
     1
176
     1
 91
        4
176
     1
 64
     7
176
     1
 65
   257
176
     1
 75
     1
176
     1
175
     1
176
     1
 42
1.0
176
     1
 92
       12
176
     1
 66
     7
176
     1
 43
1.0
176
     1
 76
     1
176
     1
 77
     6
176
     1
 78
     2
176
     1
 67
     7
176
     1
 79
     5
176
     1
170
     0
176
     1
171
     0
176
     1
290
     0
176
     1
 93
        1
176
     1
 44
0.0
176
     1
173
     0
176
     1
  0
ENDSEC
  0
EOF
