  0
SECTION
  2
HEADER
  9
$ACADVER
  1
AC1024
  9
$ACADMAINTVER
 70
     6
  9
$DWGCODEPAGE
  3
ANSI_1252
  9
$INSBASE
 10
0.0
 20
0.0
 30
0.0
  9
$EXTMIN
 10
1.000000E+20
 20
1.000000E+20
 30
1.000000E+20
  9
$EXTMAX
 10
-1.000000E+20
 20
-1.000000E+20
 30
-1.000000E+20
  9
$LIMMIN
 10
0.0
 20
0.0
  9
$LIMMAX
 10
420.0
 20
297.0
  9
$ORTHOMODE
 70
     0
  9
$REGENMODE
 70
     1
  9
$FILLMODE
 70
     1
  9
$QTEXTMODE
 70
     0
  9
$MIRRTEXT
 70
     1
  9
$LTSCALE
 40
1.0
  9
$ATTMODE
 70
     1
  9
$TEXTSIZE
 40
2.5
  9
$TRACEWID
 40
1.0
  9
$TEXTSTYLE
  7
Standard
  9
$CLAYER
  8
0
  9
$CELTYPE
  6
ByLayer
  9
$CECOLOR
 62
   256
  9
$CELTSCALE
 40
1.0
  9
$DISPSILH
 70
     0
  9
$DIMSCALE
 40
1.0
  9
$DIMASZ
 40
2.5
  9
$DIMEXO
 40
0.625
  9
$DIMDLI
 40
3.75
  9
$DIMRND
 40
0.0
  9
$DIMDLE
 40
0.0
  9
$DIMEXE
 40
1.25
  9
$DIMTP
 40
0.0
  9
$DIMTM
 40
0.0
  9
$DIMTXT
 40
2.5
  9
$DIMCEN
 40
2.5
  9
$DIMTSZ
 40
0.0
  9
$DIMTOL
 70
     0
  9
$DIMLIM
 70
     0
  9
$DIMTIH
 70
     0
  9
$DIMTOH
 70
     0
  9
$DIMSE1
 70
     0
  9
$DIMSE2
 70
     0
  9
$DIMTAD
 70
     1
  9
$DIMZIN
 70
     8
  9
$DIMBLK
  1

  9
$DIMASO
 70
     1
  9
$DIMSHO
 70
     1
  9
$DIMPOST
  1

  9
$DIMAPOST
  1

  9
$DIMALT
 70
     0
  9
$DIMALTD
 70
     3
  9
$DIMALTF
 40
0.03937
  9
$DIMLFAC
 40
1.0
  9
$DIMTOFL
 70
     1
  9
$DIMTVP
 40
0.0
  9
$DIMTIX
 70
     0
  9
$DIMSOXD
 70
     0
  9
$DIMSAH
 70
     0
  9
$DIMBLK1
  1

  9
$DIMBLK2
  1

  9
$DIMSTYLE
  2
ISO-25
  9
$DIMCLRD
 70
     0
  9
$DIMCLRE
 70
     0
  9
$DIMCLRT
 70
     0
  9
$DIMTFAC
 40
1.0
  9
$DIMGAP
 40
0.625
  9
$DIMJUST
 70
     0
  9
$DIMSD1
 70
     0
  9
$DIMSD2
 70
     0
  9
$DIMTOLJ
 70
     0
  9
$DIMTZIN
 70
     8
  9
$DIMALTZ
 70
     0
  9
$DIMALTTZ
 70
     0
  9
$DIMUPT
 70
     0
  9
$DIMDEC
 70
     2
  9
$DIMTDEC
 70
     2
  9
$DIMALTU
 70
     2
  9
$DIMALTTD
 70
     3
  9
$DIMTXSTY
  7
Standard
  9
$DIMAUNIT
 70
     0
  9
$DIMADEC
 70
     0
  9
$DIMALTRND
 40
0.0
  9
$DIMAZIN
 70
     0
  9
$DIMDSEP
 70
    44
  9
$DIMATFIT
 70
     3
  9
$DIMFRAC
 70
     0
  9
$DIMLDRBLK
  1

  9
$DIMLUNIT
 70
     2
  9
$DIMLWD
 70
    -2
  9
$DIMLWE
 70
    -2
  9
$DIMTMOVE
 70
     0
  9
$DIMFXL
 40
1.0
  9
$DIMFXLON
 70
     0
  9
$DIMJOGANG
 40
0.785398
  9
$DIMTFILL
 70
     0
  9
$DIMTFILLCLR
 70
     0
  9
$DIMARCSYM
 70
     0
  9
$DIMLTYPE
  6

  9
$DIMLTEX1
  6

  9
$DIMLTEX2
  6

  9
$DIMTXTDIRECTION
 70
     0
  9
$LUNITS
 70
     2
  9
$LUPREC
 70
     4
  9
$SKETCHINC
 40
1.0
  9
$FILLETRAD
 40
10.0
  9
$AUNITS
 70
     0
  9
$AUPREC
 70
     0
  9
$MENU
  1
.
  9
$ELEVATION
 40
0.0
  9
$PELEVATION
 40
0.0
  9
$THICKNESS
 40
0.0
  9
$LIMCHECK
 70
     0
  9
$CHAMFERA
 40
0.0
  9
$CHAMFERB
 40
0.0
  9
$CHAMFERC
 40
0.0
  9
$CHAMFERD
 40
0.0
  9
$SKPOLY
 70
     0
  9
$TDCREATE
 40
2458666.480531042
  9
$TDUCREATE
 40
2458666.397197708
  9
$TDUPDATE
 40
2458666.480532315
  9
$TDUUPDATE
 40
2458666.397198982
  9
$TDINDWG
 40
0.0000000116
  9
$TDUSRTIMER
 40
0.0000000116
  9
$USRTIMER
 70
     1
  9
$ANGBASE
 50
0.0
  9
$ANGDIR
 70
     0
  9
$PDMODE
 70
     0
  9
$PDSIZE
 40
0.0
  9
$PLINEWID
 40
0.0
  9
$SPLFRAME
 70
     0
  9
$SPLINETYPE
 70
     6
  9
$SPLINESEGS
 70
     8
  9
$HANDSEED
  5
27D
  9
$SURFTAB1
 70
     6
  9
$SURFTAB2
 70
     6
  9
$SURFTYPE
 70
     6
  9
$SURFU
 70
     6
  9
$SURFV
 70
     6
  9
$UCSBASE
  2

  9
$UCSNAME
  2

  9
$UCSORG
 10
0.0
 20
0.0
 30
0.0
  9
$UCSXDIR
 10
1.0
 20
0.0
 30
0.0
  9
$UCSYDIR
 10
0.0
 20
1.0
 30
0.0
  9
$UCSORTHOREF
  2

  9
$UCSORTHOVIEW
 70
     0
  9
$UCSORGTOP
 10
0.0
 20
0.0
 30
0.0
  9
$UCSORGBOTTOM
 10
0.0
 20
0.0
 30
0.0
  9
$UCSORGLEFT
 10
0.0
 20
0.0
 30
0.0
  9
$UCSORGRIGHT
 10
0.0
 20
0.0
 30
0.0
  9
$UCSORGFRONT
 10
0.0
 20
0.0
 30
0.0
  9
$UCSORGBACK
 10
0.0
 20
0.0
 30
0.0
  9
$PUCSBASE
  2

  9
$PUCSNAME
  2

  9
$PUCSORG
 10
0.0
 20
0.0
 30
0.0
  9
$PUCSXDIR
 10
1.0
 20
0.0
 30
0.0
  9
$PUCSYDIR
 10
0.0
 20
1.0
 30
0.0
  9
$PUCSORTHOREF
  2

  9
$PUCSORTHOVIEW
 70
     0
  9
$PUCSORGTOP
 10
0.0
 20
0.0
 30
0.0
  9
$PUCSORGBOTTOM
 10
0.0
 20
0.0
 30
0.0
  9
$PUCSORGLEFT
 10
0.0
 20
0.0
 30
0.0
  9
$PUCSORGRIGHT
 10
0.0
 20
0.0
 30
0.0
  9
$PUCSORGFRONT
 10
0.0
 20
0.0
 30
0.0
  9
$PUCSORGBACK
 10
0.0
 20
0.0
 30
0.0
  9
$USERI1
 70
     0
  9
$USERI2
 70
     0
  9
$USERI3
 70
     0
  9
$USERI4
 70
     0
  9
$USERI5
 70
     0
  9
$USERR1
 40
0.0
  9
$USERR2
 40
0.0
  9
$USERR3
 40
0.0
  9
$USERR4
 40
0.0
  9
$USERR5
 40
0.0
  9
$WORLDVIEW
 70
     1
  9
$SHADEDGE
 70
     3
  9
$SHADEDIF
 70
    70
  9
$TILEMODE
 70
     1
  9
$MAXACTVP
 70
    64
  9
$PINSBASE
 10
0.0
 20
0.0
 30
0.0
  9
$PLIMCHECK
 70
     0
  9
$PEXTMIN
 10
1.000000E+20
 20
1.000000E+20
 30
1.000000E+20
  9
$PEXTMAX
 10
-1.000000E+20
 20
-1.000000E+20
 30
-1.000000E+20
  9
$PLIMMIN
 10
0.0
 20
0.0
  9
$PLIMMAX
 10
420.0
 20
297.0
  9
$UNITMODE
 70
     0
  9
$VISRETAIN
 70
     1
  9
$PLINEGEN
 70
     0
  9
$PSLTSCALE
 70
     1
  9
$TREEDEPTH
 70
  3020
  9
$CMLSTYLE
  2
Standard
  9
$CMLJUST
 70
     0
  9
$CMLSCALE
 40
20.0
  9
$PROXYGRAPHICS
 70
     1
  9
$MEASUREMENT
 70
     1
  9
$CELWEIGHT
370
    -1
  9
$ENDCAPS
280
     0
  9
$JOINSTYLE
280
     0
  9
$LWDISPLAY
290
     0
  9
$INSUNITS
 70
     4
  9
$HYPERLINKBASE
  1

  9
$STYLESHEET
  1

  9
$XEDIT
290
     1
  9
$CEPSNTYPE
380
     0
  9
$PSTYLEMODE
290
     1
  9
$FINGERPRINTGUID
  2
{FB03DC43-2184-459C-B678-B9E228B89B3A}
  9
$VERSIONGUID
  2
{FAEB1C32-E019-11D5-929B-00C0DF256EC4}
  9
$EXTNAMES
290
     1
  9
$PSVPSCALE
 40
0.0
  9
$OLESTARTUP
290
     0
  9
$SORTENTS
280
   127
  9
$INDEXCTL
280
     0
  9
$HIDETEXT
280
     1
  9
$XCLIPFRAME
280
     2
  9
$HALOGAP
280
     0
  9
$OBSCOLOR
 70
   257
  9
$OBSLTYPE
280
     0
  9
$INTERSECTIONDISPLAY
280
     0
  9
$INTERSECTIONCOLOR
 70
   257
  9
$DIMASSOC
280
     2
  9
$PROJECTNAME
  1

  9
$CAMERADISPLAY
290
     0
  9
$LENSLENGTH
 40
50.0
  9
$CAMERAHEIGHT
 40
0.0
  9
$STEPSPERSEC
 40
2.0
  9
$STEPSIZE
 40
6.0
  9
$3DDWFPREC
 40
2.0
  9
$PSOLWIDTH
 40
5.0
  9
$PSOLHEIGHT
 40
80.0
  9
$LOFTANG1
 40
1.570796
  9
$LOFTANG2
 40
1.570796
  9
$LOFTMAG1
 40
0.0
  9
$LOFTMAG2
 40
0.0
  9
$LOFTPARAM
 70
     7
  9
$LOFTNORMALS
280
     1
  9
$LATITUDE
 40
37.795
  9
$LONGITUDE
 40
-122.394
  9
$NORTHDIRECTION
 40
0.0
  9
$TIMEZONE
 70
 -8000
  9
$LIGHTGLYPHDISPLAY
280
     1
  9
$TILEMODELIGHTSYNCH
280
     1
  9
$CMATERIAL
347
44
  9
$SOLIDHIST
280
     0
  9
$SHOWHIST
280
     1
  9
$DWFFRAME
280
     2
  9
$DGNFRAME
280
     2
  9
$REALWORLDSCALE
290
     1
  9
$INTERFERECOLOR
 62
   256
  9
$CSHADOW
280
     0
  9
$SHADOWPLANELOCATION
 40
0.0
  0
ENDSEC
  0
SECTION
  2
CLASSES
  0
CLASS
  1
ACDBDICTIONARYWDFLT
  2
AcDbDictionaryWithDefault
  3
ObjectDBX Classes
 90
        0
 91
        4
280
     0
281
     0
  0
CLASS
  1
VISUALSTYLE
  2
AcDbVisualStyle
  3
ObjectDBX Classes
 90
     4095
 91
        4
280
     0
281
     0
  0
CLASS
  1
MATERIAL
  2
AcDbMaterial
  3
ObjectDBX Classes
 90
     1153
 91
        4
280
     0
281
     0
  0
CLASS
  1
SCALE
  2
AcDbScale
  3
ObjectDBX Classes
 90
     1153
 91
        4
280
     0
281
     0
  0
CLASS
  1
TABLESTYLE
  2
AcDbTableStyle
  3
ObjectDBX Classes
 90
     4095
 91
        4
280
     0
281
     0
  0
CLASS
  1
MLEADERSTYLE
  2
AcDbMLeaderStyle
  3
ACDB_MLEADERSTYLE_CLASS
 90
     4095
 91
        4
280
     0
281
     0
  0
CLASS
  1
SUN
  2
AcDbSun
  3
SCENEOE
 90
     1153
 91
        4
280
     0
281
     0
  0
CLASS
  1
DICTIONARYVAR
  2
AcDbDictionaryVar
  3
ObjectDBX Classes
 90
        0
 91
        4
280
     0
281
     0
  0
CLASS
  1
CELLSTYLEMAP
  2
AcDbCellStyleMap
  3
ObjectDBX Classes
 90
     1152
 91
        4
280
     0
281
     0
  0
ENDSEC
  0
SECTION
  2
TABLES
  0
TABLE
  2
VPORT
  5
8
330
0
100
AcDbSymbolTable
 70
     1
  0
VPORT
  5
29
330
8
100
AcDbSymbolTableRecord
100
AcDbViewportTableRecord
  2
*Active
 70
     0
 10
0.0
 20
0.0
 11
1.0
 21
1.0
 12
344.186916
 22
148.5
 13
0.0
 23
0.0
 14
10.0
 24
10.0
 15
10.0
 25
10.0
 16
0.0
 26
0.0
 36
1.0
 17
0.0
 27
0.0
 37
0.0
 40
297.0
 41
1.972973
 42
50.0
 43
0.0
 44
0.0
 50
0.0
 51
0.0
 71
     0
 72
   100
 73
     1
 74
     3
 75
     0
 76
     0
 77
     0
 78
     0
281
     0
 65
     1
110
0.0
120
0.0
130
0.0
111
1.0
121
0.0
131
0.0
112
0.0
122
1.0
132
0.0
 79
     0
146
0.0
348
2F
 60
     3
 61
     5
292
     1
282
     1
141
0.0
142
0.0
 63
   250
361
6D
  0
ENDTAB
  0
TABLE
  2
LTYPE
  5
5
330
0
100
AcDbSymbolTable
 70
     1
  0
LTYPE
  5
14
330
5
100
AcDbSymbolTableRecord
100
AcDbLinetypeTableRecord
  2
ByBlock
 70
     0
  3

 72
    65
 73
     0
 40
0.0
  0
LTYPE
  5
15
330
5
100
AcDbSymbolTableRecord
100
AcDbLinetypeTableRecord
  2
ByLayer
 70
     0
  3

 72
    65
 73
     0
 40
0.0
  0
LTYPE
  5
16
330
5
100
AcDbSymbolTableRecord
100
AcDbLinetypeTableRecord
  2
Continuous
 70
     0
  3
Solid line
 72
    65
 73
     0
 40
0.0
  0
ENDTAB
  0
TABLE
  2
LAYER
  5
2
330
0
100
AcDbSymbolTable
 70
     1
  0
LAYER
  5
10
330
2
100
AcDbSymbolTableRecord
100
AcDbLayerTableRecord
  2
0
 70
     0
 62
   106
  6
Continuous
370
     0
390
F
347
46
  0
ENDTAB
  0
TABLE
  2
STYLE
  5
3
330
0
100
AcDbSymbolTable
 70
     4
  0
STYLE
  5
11
330
3
100
AcDbSymbolTableRecord
100
AcDbTextStyleTableRecord
  2
Standard
 70
     0
 40
0.0
 41
1.0
 50
0.0
 71
     0
 42
2.5
  3
txt
  4

  0
STYLE
  5
6E
330
3
100
AcDbSymbolTableRecord
100
AcDbTextStyleTableRecord
  2
Default
 70
     0
 40
0.0
 41
1.0
 50
0.0
 71
     0
 42
2.5
  3

  4

1001
ACAD
1000
txt
1071
        0
  0
STYLE
  5
6F
330
3
100
AcDbSymbolTableRecord
100
AcDbTextStyleTableRecord
  2
ISO
 70
     0
 40
0.0
 41
1.0
 50
0.0
 71
     0
 42
2.5
  3

  4

1001
ACAD
1000
txt
1071
        0
  0
STYLE
  5
70
330
3
100
AcDbSymbolTableRecord
100
AcDbTextStyleTableRecord
  2
zucchetti
 70
     0
 40
0.0
 41
1.0
 50
0.0
 71
     0
 42
2.5
  3

  4

1001
ACAD
1000
Arial
1071
        0
  0
ENDTAB
  0
TABLE
  2
VIEW
  5
6
330
0
100
AcDbSymbolTable
 70
     0
  0
ENDTAB
  0
TABLE
  2
UCS
  5
7
330
0
100
AcDbSymbolTable
 70
     0
  0
ENDTAB
  0
TABLE
  2
APPID
  5
9
330
0
100
AcDbSymbolTable
 70
     1
  0
APPID
  5
12
330
9
100
AcDbSymbolTableRecord
100
AcDbRegAppTableRecord
  2
ACAD
 70
     0
  0
ENDTAB
  0
TABLE
  2
DIMSTYLE
  5
A
330
0
100
AcDbSymbolTable
 70
     4
100
AcDbDimStyleTable
  0
DIMSTYLE
105
27
330
A
100
AcDbSymbolTableRecord
100
AcDbDimStyleTableRecord
  2
ISO-25
 70
     0
 41
2.5
 42
0.625
 43
3.75
 44
1.25
 73
     0
 74
     0
 77
     1
 78
     8
140
2.5
141
2.5
143
0.03937
147
0.625
171
     3
172
     1
178
     0
271
     2
272
     2
274
     3
278
    44
283
     0
284
     8
340
11
  0
DIMSTYLE
105
71
330
A
100
AcDbSymbolTableRecord
100
AcDbDimStyleTableRecord
  2
Default
 70
     0
  3
<>
 41
4.375
 42
1.05
 44
2.1
 49
10.01
 73
     0
 74
     0
 77
     1
 78
     8
140
3.5
146
0.4
147
1.75
172
     1
271
     2
178
     3
271
     2
272
     3
284
     8
340
6E
341
72
342
72
  0
DIMSTYLE
105
79
330
A
100
AcDbSymbolTableRecord
100
AcDbDimStyleTableRecord
  2
ISO
 70
     0
  3
<>
 41
4.375
 42
1.05
 44
2.1
 49
10.01
 73
     0
 74
     0
 77
     1
 78
     8
140
3.5
146
0.4
147
1.75
172
     1
271
     2
178
     3
271
     2
272
     3
284
     8
340
6F
341
72
342
72
  0
DIMSTYLE
105
7A
330
A
100
AcDbSymbolTableRecord
100
AcDbDimStyleTableRecord
  2
zucchetti
 70
     0
  3
<>
 41
3.0
 42
0.9
 44
1.8
 49
8.58
 73
     0
 74
     0
 77
     1
 78
     8
140
3.0
146
0.6
147
1.5
172
     1
176
     3
177
     3
271
     2
178
     3
271
     2
272
     2
284
     8
340
70
  0
ENDTAB
  0
TABLE
  2
BLOCK_RECORD
  5
1
330
0
100
AcDbSymbolTable
 70
     6
  0
BLOCK_RECORD
  5
1F
330
1
100
AcDbSymbolTableRecord
100
AcDbBlockTableRecord
  2
*Model_Space
340
22
 70
     0
280
     1
281
     0
  0
BLOCK_RECORD
  5
1B
330
1
100
AcDbSymbolTableRecord
100
AcDbBlockTableRecord
  2
*Paper_Space
340
1E
 70
     0
280
     1
281
     0
  0
BLOCK_RECORD
  5
23
330
1
100
AcDbSymbolTableRecord
100
AcDbBlockTableRecord
  2
*Paper_Space0
340
26
 70
     0
280
     1
281
     0
  0
BLOCK_RECORD
  5
72
330
1
100
AcDbSymbolTableRecord
100
AcDbBlockTableRecord
  2
_CLOSED
340
0
 70
     0
280
     1
281
     0
  0
BLOCK_RECORD
  5
7B
330
1
100
AcDbSymbolTableRecord
100
AcDbBlockTableRecord
  2
a
340
0
102
{BLKREFS
331
123
102
}
 70
     0
280
     1
281
     0
  0
BLOCK_RECORD
  5
124
330
1
100
AcDbSymbolTableRecord
100
AcDbBlockTableRecord
  2
b
340
0
102
{BLKREFS
331
166
102
}
 70
     0
280
     1
281
     0
  0
BLOCK_RECORD
  5
167
330
1
100
AcDbSymbolTableRecord
100
AcDbBlockTableRecord
  2
c
340
0
102
{BLKREFS
331
1D1
102
}
 70
     0
280
     1
281
     0
  0
BLOCK_RECORD
  5
1D2
330
1
100
AcDbSymbolTableRecord
100
AcDbBlockTableRecord
  2
d
340
0
102
{BLKREFS
331
243
102
}
 70
     0
280
     1
281
     0
  0
ENDTAB
  0
ENDSEC
  0
SECTION
  2
BLOCKS
  0
BLOCK
  5
20
330
1F
100
AcDbEntity
  8
0
100
AcDbBlockBegin
  2
*Model_Space
 70
     0
 10
0.0
 20
0.0
 30
0.0
  3
*Model_Space
  1

  0
ENDBLK
  5
21
330
1F
100
AcDbEntity
  8
0
100
AcDbBlockEnd
  0
BLOCK
  5
1C
330
1B
100
AcDbEntity
 67
     1
  8
0
100
AcDbBlockBegin
  2
*Paper_Space
 70
     0
 10
0.0
 20
0.0
 30
0.0
  3
*Paper_Space
  1

  0
ENDBLK
  5
1D
330
1B
100
AcDbEntity
 67
     1
  8
0
100
AcDbBlockEnd
  0
BLOCK
  5
24
330
23
100
AcDbEntity
  8
0
100
AcDbBlockBegin
  2
*Paper_Space0
 70
     0
 10
0.0
 20
0.0
 30
0.0
  3
*Paper_Space0
  1

  0
ENDBLK
  5
25
330
23
100
AcDbEntity
  8
0
100
AcDbBlockEnd
  0
BLOCK
  5
73
330
72
100
AcDbEntity
  8
0
100
AcDbBlockBegin
  2
_CLOSED
 70
     0
 10
0.0
 20
0.0
 30
0.0
  3
_CLOSED
  1

  0
LINE
  5
75
330
72
100
AcDbEntity
  8
0
  6
ByBlock
 62
     0
370
    -2
100
AcDbLine
 10
-1.0
 20
0.166667
 30
0.0
 11
0.0
 21
0.0
 31
0.0
  0
LINE
  5
76
330
72
100
AcDbEntity
  8
0
  6
ByBlock
 62
     0
370
    -2
100
AcDbLine
 10
0.0
 20
0.0
 30
0.0
 11
-1.0
 21
-0.166667
 31
0.0
  0
LINE
  5
77
330
72
100
AcDbEntity
  8
0
  6
ByBlock
 62
     0
370
    -2
100
AcDbLine
 10
-1.0
 20
0.166667
 30
0.0
 11
-1.0
 21
-0.166667
 31
0.0
  0
LINE
  5
78
330
72
100
AcDbEntity
  8
0
  6
ByBlock
 62
     0
370
    -2
100
AcDbLine
 10
0.0
 20
0.0
 30
0.0
 11
-1.0
 21
0.0
 31
0.0
  0
ENDBLK
  5
74
330
72
100
AcDbEntity
  8
0
100
AcDbBlockEnd
  0
BLOCK
  5
121
330
7B
100
AcDbEntity
  8
0
100
AcDbBlockBegin
  2
a
 70
     0
 10
197.136108
 20
134.460022
 30
0.0
  3
a
  1

  0
LINE
  5
7C
330
7B
100
AcDbEntity
  8
0
  6
Continuous
 62
     0
370
    30
100
AcDbLine
 10
438.322643
 20
575.705055
 30
0.0
 11
460.316556
 21
575.705055
 31
0.0
  0
LINE
  5
7D
330
7B
100
AcDbEntity
  8
0
  6
Continuous
 62
     0
370
    30
100
AcDbLine
 10
460.316556
 20
575.705055
 30
0.0
 11
482.309906
 21
575.705086
 31
0.0
  0
LINE
  5
7E
330
7B
100
AcDbEntity
  8
0
  6
Continuous
 62
     0
370
    30
100
AcDbLine
 10
460.316534
 20
606.705055
 30
0.0
 11
482.316245
 21
606.705086
 31
0.0
  0
LINE
  5
7F
330
7B
100
AcDbEntity
  8
0
  6
Continuous
 62
     0
370
    30
100
AcDbLine
 10
438.316245
 20
606.705055
 30
0.0
 11
460.316534
 21
606.705055
 31
0.0
  0
LWPOLYLINE
  5
80
330
7B
100
AcDbEntity
  8
0
  6
Continuous
 62
     0
370
    30
100
AcDbPolyline
 90
        2
 70
     0
 43
0.0
 10
438.316284
 20
575.897461
 10
438.322632
 20
575.705078
  0
LWPOLYLINE
  5
81
330
7B
100
AcDbEntity
  8
0
  6
Continuous
 62
     0
370
    30
100
AcDbPolyline
 90
        2
 70
     0
 43
0.0
 10
482.309906
 20
575.705078
 10
482.316254
 20
575.897278
  0
LWPOLYLINE
  5
82
330
7B
100
AcDbEntity
  8
0
  6
Continuous
 62
     0
370
     0
100
AcDbPolyline
 90
       43
 70
     0
 43
0.0
 10
460.316559
 20
580.221741
 10
459.530762
 20
580.26178
 10
458.7547
 20
580.384094
 10
457.996368
 20
580.583496
 10
457.263153
 20
580.855164
 10
456.561249
 20
581.19519
 10
455.894806
 20
581.59613
 10
455.267548
 20
582.052063
 10
454.681732
 20
582.55719
 10
454.138306
 20
583.10614
 10
453.637695
 20
583.694275
 10
453.180145
 20
584.317505
 10
452.76593
 20
584.971619
 10
452.395203
 20
585.652649
 10
452.067993
 20
586.357239
 10
451.78421
 20
587.082397
 10
451.543823
 20
587.825256
 10
451.346954
 20
588.582764
 10
451.193665
 20
589.35199
 10
451.084045
 20
590.130127
 10
451.018127
 20
590.914185
 10
450.996002
 20
591.701233
 10
451.0177
 20
592.488281
 10
451.083191
 20
593.2724
 10
451.192383
 20
594.050598
 10
451.345245
 20
594.819946
 10
451.541687
 20
595.577576
 10
451.781677
 20
596.320557
 10
452.065125
 20
597.045959
 10
452.391937
 20
597.750793
 10
452.762115
 20
598.431946
 10
453.175598
 20
599.086121
 10
453.632782
 20
599.709778
 10
454.13385
 20
600.299133
 10
454.678284
 20
600.849548
 10
455.264832
 20
601.355713
 10
455.892334
 20
601.812256
 10
456.558502
 20
602.21344
 10
457.260193
 20
602.553467
 10
457.993164
 20
602.82605
 10
458.751495
 20
603.025146
 10
459.528137
 20
603.1474
 10
460.316528
 20
603.188354
  0
LWPOLYLINE
  5
83
330
7B
100
AcDbEntity
  8
0
  6
Continuous
 62
     0
370
     0
100
AcDbPolyline
 90
       43
 70
     0
 43
0.0
 10
460.316528
 20
603.188354
 10
461.102325
 20
603.148315
 10
461.878387
 20
603.026001
 10
462.636719
 20
602.82666
 10
463.369934
 20
602.554932
 10
464.071838
 20
602.214966
 10
464.738251
 20
601.814026
 10
465.36554
 20
601.358093
 10
465.951324
 20
600.852905
 10
466.494751
 20
600.303955
 10
466.995361
 20
599.71582
 10
467.452911
 20
599.09259
 10
467.867126
 20
598.438477
 10
468.237854
 20
597.757446
 10
468.565033
 20
597.052856
 10
468.848816
 20
596.327698
 10
469.089203
 20
595.5849
 10
469.286072
 20
594.827393
 10
469.439362
 20
594.058105
 10
469.548981
 20
593.279968
 10
469.614899
 20
592.495911
 10
469.637054
 20
591.708862
 10
469.615356
 20
590.921814
 10
469.549866
 20
590.137756
 10
469.440643
 20
589.359558
 10
469.287781
 20
588.590149
 10
469.091339
 20
587.83252
 10
468.851379
 20
587.0896
 10
468.567932
 20
586.364136
 10
468.241089
 20
585.659363
 10
467.870941
 20
584.97821
 10
467.457458
 20
584.323975
 10
467.000275
 20
583.700378
 10
466.499207
 20
583.110962
 10
465.954803
 20
582.560547
 10
465.368225
 20
582.054382
 10
464.740753
 20
581.5979
 10
464.074585
 20
581.196655
 10
463.372894
 20
580.856628
 10
462.639923
 20
580.584106
 10
461.881592
 20
580.38501
 10
461.10495
 20
580.262695
 10
460.316559
 20
580.221741
  0
LINE
  5
84
330
7B
100
AcDbEntity
  8
0
  6
Continuous
 62
     0
370
     0
100
AcDbLine
 10
460.316537
 20
603.188362
 30
0.0
 11
460.316601
 21
598.205082
 31
0.0
  0
LINE
  5
85
330
7B
100
AcDbEntity
  8
0
  6
Continuous
 62
     0
370
     0
100
AcDbLine
 10
460.31661
 20
585.204953
 30
0.0
 11
460.316553
 21
580.221748
 31
0.0
  0
ARC
  5
86
330
7B
100
AcDbEntity
  8
0
  6
Continuous
 62
     0
370
    30
100
AcDbCircle
 10
460.317413
 20
591.705008
 30
0.0
 40
6.499994153589111
100
AcDbArc
 50
270.000041
 51
90.000041
  0
ARC
  5
87
330
7B
100
AcDbEntity
  8
0
  6
Continuous
 62
     0
370
    30
100
AcDbCircle
 10
460.317413
 20
591.705008
 30
0.0
 40
6.499994153589111
100
AcDbArc
 50
90.000041
 51
270.000041
  0
LINE
  5
88
330
7B
100
AcDbEntity
  8
0
  6
Continuous
 62
     0
370
    30
100
AcDbLine
 10
438.316268
 20
574.494038
 30
0.0
 11
460.316125
 21
574.494053
 31
0.0
  0
LINE
  5
89
330
7B
100
AcDbEntity
  8
0
  6
Continuous
 62
     0
370
    30
100
AcDbLine
 10
460.316125
 20
574.494053
 30
0.0
 11
482.316268
 21
574.494069
 31
0.0
  0
LINE
  5
8A
330
7B
100
AcDbEntity
  8
0
  6
Continuous
 62
     0
370
    30
100
AcDbLine
 10
460.316109
 20
523.494012
 30
0.0
 11
430.316308
 21
523.493991
 31
0.0
  0
LINE
  5
8B
330
7B
100
AcDbEntity
  8
0
  6
Continuous
 62
     0
370
    30
100
AcDbLine
 10
490.3163
 20
523.494034
 30
0.0
 11
460.316109
 21
523.494012
 31
0.0
  0
LINE
  5
8C
330
7B
100
AcDbEntity
  8
0
  6
Continuous
 62
     0
370
    30
100
AcDbLine
 10
460.316112
 20
519.494013
 30
0.0
 11
430.316311
 21
519.493992
 31
0.0
  0
LINE
  5
8D
330
7B
100
AcDbEntity
  8
0
  6
Continuous
 62
     0
370
    30
100
AcDbLine
 10
490.316303
 20
519.494035
 30
0.0
 11
460.316112
 21
519.494013
 31
0.0
  0
LINE
  5
8E
330
7B
100
AcDbEntity
  8
0
  6
Continuous
 62
     0
370
    30
100
AcDbLine
 10
430.316311
 20
519.493992
 30
0.0
 11
430.316308
 21
523.493991
 31
0.0
  0
LINE
  5
8F
330
7B
100
AcDbEntity
  8
0
  6
Continuous
 62
     0
370
    30
100
AcDbLine
 10
490.316303
 20
519.494035
 30
0.0
 11
490.3163
 21
523.494034
 31
0.0
  0
LINE
  5
90
330
7B
100
AcDbEntity
  8
0
  6
Continuous
 62
     0
370
    30
100
AcDbLine
 10
482.316304
 20
523.494028
 30
0.0
 11
482.316268
 21
574.494069
 31
0.0
  0
LINE
  5
91
330
7B
100
AcDbEntity
  8
0
  6
Continuous
 62
     0
370
    30
100
AcDbLine
 10
438.316304
 20
523.493997
 30
0.0
 11
438.316268
 21
574.494038
 31
0.0
  0
ARC
  5
92
330
7B
100
AcDbEntity
  8
0
  6
Continuous
 62
     0
370
    30
100
AcDbCircle
 10
460.316124
 20
572.994047
 30
0.0
 40
20.50498917598843
100
AcDbArc
 50
172.402572
 51
175.804921
  0
ARC
  5
93
330
7B
100
AcDbEntity
  8
0
  6
Continuous
 62
     0
370
    30
100
AcDbCircle
 10
460.316414
 20
572.994047
 30
0.0
 40
20.50498940690208
100
AcDbArc
 50
4.195161
 51
7.597509
  0
LINE
  5
94
330
7B
100
AcDbEntity
  8
0
  6
Continuous
 62
     0
370
    30
100
AcDbLine
 10
482.316267
 20
575.897637
 30
0.0
 11
482.316245
 21
606.705086
 31
0.0
  0
LINE
  5
95
330
7B
100
AcDbEntity
  8
0
  6
Continuous
 62
     0
370
    30
100
AcDbLine
 10
438.316267
 20
575.897816
 30
0.0
 11
438.316245
 21
606.705055
 31
0.0
  0
LINE
  5
96
330
7B
100
AcDbEntity
  8
0
  6
Continuous
 62
     0
370
    30
100
AcDbLine
 10
576.816307
 20
533.994013
 30
0.0
 11
543.816307
 21
533.994013
 31
0.0
  0
LINE
  5
97
330
7B
100
AcDbEntity
  8
0
  6
Continuous
 62
     0
370
    30
100
AcDbLine
 10
576.816307
 20
533.994013
 30
0.0
 11
576.816307
 21
552.994013
 31
0.0
  0
LINE
  5
98
330
7B
100
AcDbEntity
  8
0
  6
Continuous
 62
     0
370
    30
100
AcDbLine
 10
576.816307
 20
552.994013
 30
0.0
 11
543.816307
 21
552.994013
 31
0.0
  0
ARC
  5
99
330
7B
100
AcDbEntity
  8
0
  6
Continuous
 62
     0
370
    30
100
AcDbCircle
 10
560.316307
 20
417.369013
 30
0.0
 40
136.6249999993915
100
AcDbArc
 50
83.063541
 51
90.0
  0
LINE
  5
9A
330
7B
100
AcDbEntity
  8
0
  6
Continuous
 62
     0
370
    30
100
AcDbLine
 10
590.316307
 20
519.494013
 30
0.0
 11
530.316307
 21
519.494013
 31
0.0
  0
LINE
  5
9B
330
7B
100
AcDbEntity
  8
0
  6
Continuous
 62
     0
370
    30
100
AcDbLine
 10
590.316307
 20
519.494013
 30
0.0
 11
590.316307
 21
526.886019
 31
0.0
  0
LINE
  5
9C
330
7B
100
AcDbEntity
  8
0
  6
Continuous
 62
     0
370
     0
100
AcDbLine
 10
590.316307
 20
526.886019
 30
0.0
 11
530.316307
 21
526.886019
 31
0.0
  0
ARC
  5
9D
330
7B
100
AcDbEntity
  8
0
  6
Continuous
 62
     0
370
    30
100
AcDbCircle
 10
589.316307
 20
526.886019
 30
0.0
 40
0.999999999996
100
AcDbArc
 50
0.0
 51
87.30388
  0
LINE
  5
9E
330
7B
100
AcDbEntity
  8
0
  6
Continuous
 62
     0
370
     0
100
AcDbLine
 10
589.363346
 20
527.884912
 30
0.0
 11
531.269268
 21
527.884912
 31
0.0
  0
ARC
  5
9F
330
7B
100
AcDbEntity
  8
0
  6
Continuous
 62
     0
370
    30
100
AcDbCircle
 10
745.25536
 20
3838.331082
 30
0.0
 40
3314.114687558633
100
AcDbArc
 50
267.101386
 51
267.30388
  0
LINE
  5
A0
330
7B
100
AcDbEntity
  8
0
  6
Continuous
 62
     0
370
     0
100
AcDbLine
 10
577.664601
 20
528.456537
 30
0.0
 11
542.968013
 21
528.456537
 31
0.0
  0
ARC
  5
A1
330
7B
100
AcDbEntity
  8
0
  6
Continuous
 62
     0
370
    30
100
AcDbCircle
 10
577.816307
 20
531.452699
 30
0.0
 40
2.999999999988
100
AcDbArc
 50
180.0
 51
267.101386
  0
LINE
  5
A2
330
7B
100
AcDbEntity
  8
0
  6
Continuous
 62
     0
370
     0
100
AcDbLine
 10
574.816307
 20
531.452699
 30
0.0
 11
545.816307
 21
531.452699
 31
0.0
  0
LINE
  5
A3
330
7B
100
AcDbEntity
  8
0
  6
Continuous
 62
     0
370
    30
100
AcDbLine
 10
574.816307
 20
531.452699
 30
0.0
 11
574.816307
 21
533.994013
 31
0.0
  0
LINE
  5
A4
330
7B
100
AcDbEntity
  8
0
  6
Continuous
 62
     0
370
    30
100
AcDbLine
 10
545.816307
 20
533.994013
 30
0.0
 11
545.816307
 21
531.452699
 31
0.0
  0
ARC
  5
A5
330
7B
100
AcDbEntity
  8
0
  6
Continuous
 62
     0
370
    30
100
AcDbCircle
 10
542.816402
 20
531.452609
 30
0.0
 40
2.999905253440684
100
AcDbArc
 50
272.896894
 51
0.00172
  0
ARC
  5
A6
330
7B
100
AcDbEntity
  8
0
  6
Continuous
 62
     0
370
    30
100
AcDbCircle
 10
375.377253
 20
3838.33111
 30
0.0
 40
3314.114716525733
100
AcDbArc
 50
272.69612
 51
272.898614
  0
ARC
  5
A7
330
7B
100
AcDbEntity
  8
0
  6
Continuous
 62
     0
370
    30
100
AcDbCircle
 10
531.316323
 20
526.886004
 30
0.0
 40
1.000015640756255
100
AcDbArc
 50
92.696975
 51
179.999145
  0
LINE
  5
A8
330
7B
100
AcDbEntity
  8
0
  6
Continuous
 62
     0
370
    30
100
AcDbLine
 10
530.316307
 20
526.886019
 30
0.0
 11
530.316307
 21
519.494013
 31
0.0
  0
ARC
  5
A9
330
7B
100
AcDbEntity
  8
0
  6
Continuous
 62
     0
370
    30
100
AcDbCircle
 10
560.316394
 20
417.36758
 30
0.0
 40
136.6264335622736
100
AcDbArc
 50
90.007662
 51
96.936422
  0
LINE
  5
AA
330
7B
100
AcDbEntity
  8
0
  6
Continuous
 62
     0
370
    30
100
AcDbLine
 10
543.816307
 20
552.994013
 30
0.0
 11
543.816307
 21
533.994013
 31
0.0
  0
LINE
  5
AB
330
7B
100
AcDbEntity
  8
0
  6
Continuous
 62
     0
370
    30
100
AcDbLine
 10
360.316307
 20
519.494013
 30
0.0
 11
330.316307
 21
519.494013
 31
0.0
  0
LINE
  5
AC
330
7B
100
AcDbEntity
  8
0
  6
Continuous
 62
     0
370
    30
100
AcDbLine
 10
390.316307
 20
519.494013
 30
0.0
 11
360.316307
 21
519.494013
 31
0.0
  0
LINE
  5
AD
330
7B
100
AcDbEntity
  8
0
  6
Continuous
 62
     0
370
     0
100
AcDbLine
 10
360.316307
 20
527.042649
 30
0.0
 11
330.316307
 21
527.042649
 31
0.0
  0
LINE
  5
AE
330
7B
100
AcDbEntity
  8
0
  6
Continuous
 62
     0
370
     0
100
AcDbLine
 10
390.316307
 20
527.042649
 30
0.0
 11
360.316307
 21
527.042649
 31
0.0
  0
LINE
  5
AF
330
7B
100
AcDbEntity
  8
0
  6
Continuous
 62
     0
370
     0
100
AcDbLine
 10
360.316307
 20
527.540086
 30
0.0
 11
330.765745
 21
527.540086
 31
0.0
  0
LINE
  5
B0
330
7B
100
AcDbEntity
  8
0
  6
Continuous
 62
     0
370
     0
100
AcDbLine
 10
389.866869
 20
527.540086
 30
0.0
 11
360.316307
 21
527.540086
 31
0.0
  0
LINE
  5
B1
330
7B
100
AcDbEntity
  8
0
  6
Continuous
 62
     0
370
     0
100
AcDbLine
 10
360.316307
 20
528.632865
 30
0.0
 11
344.010589
 21
528.632865
 31
0.0
  0
LINE
  5
B2
330
7B
100
AcDbEntity
  8
0
  6
Continuous
 62
     0
370
     0
100
AcDbLine
 10
376.622025
 20
528.632865
 30
0.0
 11
360.316307
 21
528.632865
 31
0.0
  0
LINE
  5
B3
330
7B
100
AcDbEntity
  8
0
  6
Continuous
 62
     0
370
     0
100
AcDbLine
 10
360.316307
 20
530.630641
 30
0.0
 11
345.916307
 21
530.630641
 31
0.0
  0
LINE
  5
B4
330
7B
100
AcDbEntity
  8
0
  6
Continuous
 62
     0
370
     0
100
AcDbLine
 10
374.716307
 20
530.630641
 30
0.0
 11
360.316307
 21
530.630641
 31
0.0
  0
LINE
  5
B5
330
7B
100
AcDbEntity
  8
0
  6
Continuous
 62
     0
370
    30
100
AcDbLine
 10
360.316307
 20
541.494013
 30
0.0
 11
345.916307
 21
541.494013
 31
0.0
  0
LINE
  5
B6
330
7B
100
AcDbEntity
  8
0
  6
Continuous
 62
     0
370
    30
100
AcDbLine
 10
374.716307
 20
541.494013
 30
0.0
 11
360.316307
 21
541.494013
 31
0.0
  0
LINE
  5
B7
330
7B
100
AcDbEntity
  8
0
  6
Continuous
 62
     0
370
    30
100
AcDbLine
 10
345.916307
 20
541.494013
 30
0.0
 11
345.916307
 21
530.630641
 31
0.0
  0
LINE
  5
B8
330
7B
100
AcDbEntity
  8
0
  6
Continuous
 62
     0
370
    30
100
AcDbLine
 10
374.716307
 20
541.494013
 30
0.0
 11
374.716307
 21
530.630641
 31
0.0
  0
ARC
  5
B9
330
7B
100
AcDbEntity
  8
0
  6
Continuous
 62
     0
370
    30
100
AcDbCircle
 10
343.916222
 20
530.630723
 30
0.0
 40
2.000085360137985
100
AcDbArc
 50
272.704314
 51
359.997667
  0
ARC
  5
BA
330
7B
100
AcDbEntity
  8
0
  6
Continuous
 62
     0
370
    30
100
AcDbCircle
 10
376.716392
 20
530.630723
 30
0.0
 40
2.000085360139294
100
AcDbArc
 50
180.002333
 51
267.295686
  0
ARC
  5
BB
330
7B
100
AcDbEntity
  8
0
  6
Continuous
 62
     0
370
    30
100
AcDbCircle
 10
352.921432
 20
339.818183
 30
0.0
 40
189.0248320101283
100
AcDbArc
 50
92.701989
 51
96.731137
  0
ARC
  5
BC
330
7B
100
AcDbEntity
  8
0
  6
Continuous
 62
     0
370
    30
100
AcDbCircle
 10
367.711182
 20
339.818183
 30
0.0
 40
189.0248320096872
100
AcDbArc
 50
83.268863
 51
87.298011
  0
ARC
  5
BD
330
7B
100
AcDbEntity
  8
0
  6
Continuous
 62
     0
370
    30
100
AcDbCircle
 10
330.816319
 20
527.042638
 30
0.0
 40
0.5000120157034467
100
AcDbArc
 50
95.805104
 51
179.998756
  0
ARC
  5
BE
330
7B
100
AcDbEntity
  8
0
  6
Continuous
 62
     0
370
    30
100
AcDbCircle
 10
389.816295
 20
527.042638
 30
0.0
 40
0.5000120157027405
100
AcDbArc
 50
0.001244
 51
84.194896
  0
LINE
  5
BF
330
7B
100
AcDbEntity
  8
0
  6
Continuous
 62
     0
370
    30
100
AcDbLine
 10
330.316307
 20
527.042649
 30
0.0
 11
330.316307
 21
519.494013
 31
0.0
  0
LINE
  5
C0
330
7B
100
AcDbEntity
  8
0
  6
Continuous
 62
     0
370
    30
100
AcDbLine
 10
390.316307
 20
527.042649
 30
0.0
 11
390.316307
 21
519.494013
 31
0.0
  0
LINE
  5
C1
330
7B
100
AcDbEntity
  8
0
  6
Continuous
 62
     0
370
    30
100
AcDbLine
 10
346.316307
 20
541.494013
 30
0.0
 11
346.316307
 21
641.494013
 31
0.0
  0
LINE
  5
C2
330
7B
100
AcDbEntity
  8
0
  6
Continuous
 62
     0
370
     0
100
AcDbLine
 10
374.316307
 20
641.494013
 30
0.0
 11
346.316307
 21
641.494013
 31
0.0
  0
LINE
  5
C3
330
7B
100
AcDbEntity
  8
0
  6
Continuous
 62
     0
370
    30
100
AcDbLine
 10
346.316307
 20
756.494013
 30
0.0
 11
346.316307
 21
678.558785
 31
0.0
  0
LINE
  5
C4
330
7B
100
AcDbEntity
  8
0
  6
Continuous
 62
     0
370
    30
100
AcDbLine
 10
346.316307
 20
641.494013
 30
0.0
 11
346.316307
 21
661.494034
 31
0.0
  0
ELLIPSE
  5
C5
330
7B
100
AcDbEntity
  8
0
  6
Continuous
 62
     0
370
     0
100
AcDbEllipse
 10
360.316307
 20
678.558785
 30
0.0
 11
-14.0
 21
0.0
 31
0.0
210
0.0
220
0.0
230
-1.0
 40
0.322302
 41
0.0000000000000063
 42
3.141592653589799
  0
LINE
  5
C6
330
7B
100
AcDbEntity
  8
0
  6
Continuous
 62
     0
370
    30
100
AcDbLine
 10
346.316307
 20
678.558785
 30
0.0
 11
346.316307
 21
667.119718
 31
0.0
  0
ELLIPSE
  5
C7
330
7B
100
AcDbEntity
  8
0
  6
Continuous
 62
     0
370
     0
100
AcDbEllipse
 10
360.316307
 20
667.119718
 30
0.0
 11
-14.0
 21
0.0
 31
0.0
210
0.0
220
0.0
230
-1.0
 40
0.207912
 41
0.0
 42
3.141592653589803
  0
LINE
  5
C8
330
7B
100
AcDbEntity
  8
0
  6
Continuous
 62
     0
370
    30
100
AcDbLine
 10
346.316307
 20
667.119718
 30
0.0
 11
346.316307
 21
661.494034
 31
0.0
  0
ELLIPSE
  5
C9
330
7B
100
AcDbEntity
  8
0
  6
Continuous
 62
     0
370
    30
100
AcDbEllipse
 10
360.316307
 20
661.494034
 30
0.0
 11
-14.0
 21
0.0
 31
0.0
210
0.0
220
0.0
230
-1.0
 40
0.207912
 41
0.0
 42
3.141592653589793
  0
ELLIPSE
  5
CA
330
7B
100
AcDbEntity
  8
0
  6
Continuous
 62
     0
370
    30
100
AcDbEllipse
 10
360.316307
 20
661.494034
 30
0.0
 11
-14.0
 21
0.0
 31
0.0
210
0.0
220
0.0
230
-1.0
 40
0.207912
 41
5.685451988241909
 42
6.283185307179547
  0
ELLIPSE
  5
CB
330
7B
100
AcDbEntity
  8
0
  6
Continuous
 62
     0
370
    30
100
AcDbEllipse
 10
360.316307
 20
661.494034
 30
0.0
 11
-14.0
 21
0.0
 31
0.0
210
0.0
220
0.0
230
-1.0
 40
0.207912
 41
3.141592653589793
 42
3.739326190011309
  0
LINE
  5
CC
330
7B
100
AcDbEntity
  8
0
  6
Continuous
 62
     0
370
    30
100
AcDbLine
 10
374.316307
 20
661.494034
 30
0.0
 11
374.316307
 21
667.119718
 31
0.0
  0
LINE
  5
CD
330
7B
100
AcDbEntity
  8
0
  6
Continuous
 62
     0
370
    30
100
AcDbLine
 10
374.316307
 20
667.119718
 30
0.0
 11
374.316307
 21
678.558785
 31
0.0
  0
ARC
  5
CE
330
7B
100
AcDbEntity
  8
0
  6
Continuous
 62
     0
370
    30
100
AcDbCircle
 10
360.316287
 20
756.494023
 30
0.0
 40
13.99997947248636
100
AcDbArc
 50
359.999495
 51
179.967624
  0
LINE
  5
CF
330
7B
100
AcDbEntity
  8
0
  6
Continuous
 62
     0
370
    30
100
AcDbLine
 10
374.316307
 20
661.494029
 30
0.0
 11
374.316307
 21
641.494013
 31
0.0
  0
LINE
  5
D0
330
7B
100
AcDbEntity
  8
0
  6
Continuous
 62
     0
370
    30
100
AcDbLine
 10
374.316307
 20
678.558785
 30
0.0
 11
374.316307
 21
756.493899
 31
0.0
  0
LINE
  5
D1
330
7B
100
AcDbEntity
  8
0
  6
Continuous
 62
     0
370
    30
100
AcDbLine
 10
374.316307
 20
641.494013
 30
0.0
 11
374.316307
 21
541.494013
 31
0.0
  0
ELLIPSE
  5
D2
330
7B
100
AcDbEntity
  8
0
  6
Continuous
 62
     0
370
    30
100
AcDbEllipse
 10
360.316307
 20
660.515868
 30
0.0
 11
-11.9999763779614
 21
2.136793551261250E-8
 31
0.0
210
0.0
220
0.0
230
-1.0
 40
0.207912
 41
5.872051954931419
 42
6.694318649362883
  0
LINE
  5
D3
330
7B
100
AcDbEntity
  8
0
  6
Continuous
 62
     0
370
    30
100
AcDbLine
 10
349.316307
 20
658.578528
 30
0.0
 11
349.316307
 21
661.512965
 31
0.0
  0
ELLIPSE
  5
D4
330
7B
100
AcDbEntity
  8
0
  6
Continuous
 62
     0
370
    30
100
AcDbEllipse
 10
360.316307
 20
657.581431
 30
0.0
 11
-11.99997637796218
 21
2.136793551261389E-8
 31
0.0
210
0.0
220
0.0
230
-1.0
 40
0.207912
 41
0.4111333421837903
 42
2.730459301341505
  0
LINE
  5
D5
330
7B
100
AcDbEntity
  8
0
  6
Continuous
 62
     0
370
    30
100
AcDbLine
 10
371.316307
 20
658.578528
 30
0.0
 11
371.316307
 21
661.512965
 31
0.0
  0
ELLIPSE
  5
D6
330
7B
100
AcDbEntity
  8
0
  6
Continuous
 62
     0
370
    30
100
AcDbEllipse
 10
360.316307
 20
660.515868
 30
0.0
 11
11.9999763779614
 21
-2.136793551261250E-8
 31
0.0
210
0.0
220
0.0
230
1.0
 40
0.207912
 41
5.872051964996166
 42
6.694318659428039
  0
LWPOLYLINE
  5
D7
330
7B
100
AcDbEntity
  8
0
  6
Continuous
 62
     0
370
    30
100
AcDbPolyline
 90
        9
 70
     0
 43
0.0
 10
371.316315
 20
656.357422
 10
371.316315
 20
656.391602
 10
371.316315
 20
656.497253
 10
371.316315
 20
656.67688
 10
371.316315
 20
656.929688
 10
371.316315
 20
657.251648
 10
371.316315
 20
657.636292
 10
371.316315
 20
658.075623
 10
371.316315
 20
658.578552
  0
LWPOLYLINE
  5
D8
330
7B
100
AcDbEntity
  8
0
  6
Continuous
 62
     0
370
    30
100
AcDbPolyline
 90
        9
 70
     0
 43
0.0
 10
349.316315
 20
656.357361
 10
349.316315
 20
656.391907
 10
349.316315
 20
656.49762
 10
349.316315
 20
656.677307
 10
349.316315
 20
656.930847
 10
349.316315
 20
657.253174
 10
349.316315
 20
657.638306
 10
349.316315
 20
658.07843
 10
349.316315
 20
658.578552
  0
ELLIPSE
  5
D9
330
7B
100
AcDbEntity
  8
0
  6
Continuous
 62
     0
370
    30
100
AcDbEllipse
 10
360.316307
 20
656.603285
 30
0.0
 11
-10.99997834646863
 21
1.958727421990194E-8
 31
0.0
210
0.0
220
0.0
230
-1.0
 40
0.207912
 41
4.712388975352225
 42
7.853981628942183
  0
ELLIPSE
  5
DA
330
7B
100
AcDbEntity
  8
0
  6
Continuous
 62
     0
370
    30
100
AcDbEllipse
 10
360.316307
 20
656.603285
 30
0.0
 11
-10.99997834646863
 21
1.958727421990194E-8
 31
0.0
210
0.0
220
0.0
230
-1.0
 40
0.207912
 41
1.570796321762596
 42
4.712388975352194
  0
LINE
  5
DB
330
7B
100
AcDbEntity
  8
0
  6
Continuous
 62
     0
370
    30
100
AcDbLine
 10
371.064922
 20
656.117163
 30
0.0
 11
371.316308
 21
656.357437
 31
0.0
  0
LINE
  5
DC
330
7B
100
AcDbEntity
  8
0
  6
Continuous
 62
     0
370
    30
100
AcDbLine
 10
349.567691
 20
656.117163
 30
0.0
 11
349.316331
 21
656.357412
 31
0.0
  0
LINE
  5
DD
330
7B
100
AcDbEntity
  8
0
  6
Continuous
 62
     0
370
    30
100
AcDbLine
 10
230.316307
 20
519.494013
 30
0.0
 11
290.316307
 21
519.494013
 31
0.0
  0
LINE
  5
DE
330
7B
100
AcDbEntity
  8
0
  6
Continuous
 62
     0
370
    30
100
AcDbLine
 10
290.316307
 20
519.494013
 30
0.0
 11
290.316307
 21
527.042649
 31
0.0
  0
LINE
  5
DF
330
7B
100
AcDbEntity
  8
0
  6
Continuous
 62
     0
370
     0
100
AcDbLine
 10
230.316307
 20
527.042649
 30
0.0
 11
290.316307
 21
527.042649
 31
0.0
  0
ARC
  5
E0
330
7B
100
AcDbEntity
  8
0
  6
Continuous
 62
     0
370
    30
100
AcDbCircle
 10
289.816307
 20
527.042649
 30
0.0
 40
0.49999999999801
100
AcDbArc
 50
0.0
 51
84.19614
  0
LINE
  5
E1
330
7B
100
AcDbEntity
  8
0
  6
Continuous
 62
     0
370
     0
100
AcDbLine
 10
230.765745
 20
527.540086
 30
0.0
 11
289.866869
 21
527.540086
 31
0.0
  0
ARC
  5
E2
330
7B
100
AcDbEntity
  8
0
  6
Continuous
 62
     0
370
    30
100
AcDbCircle
 10
267.711236
 20
339.818838
 30
0.0
 40
189.0241757779861
100
AcDbArc
 50
83.268856
 51
87.298018
  0
LINE
  5
E3
330
7B
100
AcDbEntity
  8
0
  6
Continuous
 62
     0
370
     0
100
AcDbLine
 10
244.010589
 20
528.632865
 30
0.0
 11
276.622025
 21
528.632865
 31
0.0
  0
ARC
  5
E4
330
7B
100
AcDbEntity
  8
0
  6
Continuous
 62
     0
370
    30
100
AcDbCircle
 10
276.716307
 20
530.630641
 30
0.0
 40
1.999999999991985
100
AcDbArc
 50
180.0
 51
267.298018
  0
LINE
  5
E5
330
7B
100
AcDbEntity
  8
0
  6
Continuous
 62
     0
370
     0
100
AcDbLine
 10
245.916307
 20
530.630641
 30
0.0
 11
274.716307
 21
530.630641
 31
0.0
  0
LINE
  5
E6
330
7B
100
AcDbEntity
  8
0
  6
Continuous
 62
     0
370
    30
100
AcDbLine
 10
274.716307
 20
530.630641
 30
0.0
 11
274.716307
 21
541.494013
 31
0.0
  0
LINE
  5
E7
330
7B
100
AcDbEntity
  8
0
  6
Continuous
 62
     0
370
    30
100
AcDbLine
 10
245.916307
 20
530.630641
 30
0.0
 11
245.916307
 21
541.494013
 31
0.0
  0
ARC
  5
E8
330
7B
100
AcDbEntity
  8
0
  6
Continuous
 62
     0
370
    30
100
AcDbCircle
 10
243.916222
 20
530.630723
 30
0.0
 40
2.000085360141757
100
AcDbArc
 50
272.704314
 51
359.997667
  0
ARC
  5
E9
330
7B
100
AcDbEntity
  8
0
  6
Continuous
 62
     0
370
    30
100
AcDbCircle
 10
252.921432
 20
339.818183
 30
0.0
 40
189.0248320113722
100
AcDbArc
 50
92.701989
 51
96.731137
  0
ARC
  5
EA
330
7B
100
AcDbEntity
  8
0
  6
Continuous
 62
     0
370
    30
100
AcDbCircle
 10
230.816319
 20
527.042638
 30
0.0
 40
0.5000120156939138
100
AcDbArc
 50
95.805104
 51
179.998756
  0
LINE
  5
EB
330
7B
100
AcDbEntity
  8
0
  6
Continuous
 62
     0
370
    30
100
AcDbLine
 10
230.316307
 20
519.494013
 30
0.0
 11
230.316307
 21
527.042649
 31
0.0
  0
LWPOLYLINE
  5
EC
330
7B
100
AcDbEntity
  8
0
  6
Continuous
 62
     0
370
    30
100
AcDbPolyline
 90
       42
 70
     0
 43
0.0
 10
271.874939
 20
726.312927
 10
271.874268
 20
726.562622
 10
271.872742
 20
726.812317
 10
271.870331
 20
727.062073
 10
271.866943
 20
727.311768
 10
271.862549
 20
727.561523
 10
271.857117
 20
727.811218
 10
271.850586
 20
728.060852
 10
271.842926
 20
728.310486
 10
271.834076
 20
728.560059
 10
271.824005
 20
728.809631
 10
271.812653
 20
729.059082
 10
271.799988
 20
729.308533
 10
271.78598
 20
729.557861
 10
271.770508
 20
729.807129
 10
271.75351
 20
730.056274
 10
271.734863
 20
730.305359
 10
271.714508
 20
730.55426
 10
271.692322
 20
730.802979
 10
271.668213
 20
731.051514
 10
271.642059
 20
731.299927
 10
271.6138
 20
731.548035
 10
271.583191
 20
731.795898
 10
271.55011
 20
732.043457
 10
271.514343
 20
732.290649
 10
271.475647
 20
732.537354
 10
271.433868
 20
732.783569
 10
271.388794
 20
733.029175
 10
271.340027
 20
733.274109
 10
271.28714
 20
733.518188
 10
271.229645
 20
733.76123
 10
271.167023
 20
734.002991
 10
271.098572
 20
734.243164
 10
271.023376
 20
734.481323
 10
270.940338
 20
734.716797
 10
270.847809
 20
734.94873
 10
270.743652
 20
735.17572
 10
270.624451
 20
735.395081
 10
270.485413
 20
735.602478
 10
270.319244
 20
735.788513
 10
270.116547
 20
735.933105
 10
269.875
 20
735.994019
  0
ELLIPSE
  5
ED
330
7B
100
AcDbEntity
  8
0
  6
Continuous
 62
     0
370
     0
100
AcDbEllipse
 10
269.226141
 20
707.994013
 30
0.0
 11
0.0
 21
-113.75
 31
0.0
210
0.0
220
0.0
230
1.0
 40
0.005885
 41
1.322086337701367
 42
1.819506315888425
  0
LWPOLYLINE
  5
EE
330
7B
100
AcDbEntity
  8
0
  6
Continuous
 62
     0
370
    30
100
AcDbPolyline
 90
       42
 70
     0
 43
0.0
 10
269.875
 20
679.994019
 10
270.115234
 20
680.05426
 10
270.318176
 20
680.198486
 10
270.484497
 20
680.384399
 10
270.623718
 20
680.591675
 10
270.743011
 20
680.810974
 10
270.847229
 20
681.037903
 10
270.939819
 20
681.269836
 10
271.022919
 20
681.50531
 10
271.098145
 20
681.743469
 10
271.166656
 20
681.983643
 10
271.229309
 20
682.225342
 10
271.286804
 20
682.468384
 10
271.339722
 20
682.712463
 10
271.388519
 20
682.957397
 10
271.433624
 20
683.203003
 10
271.475403
 20
683.449219
 10
271.514099
 20
683.695923
 10
271.549896
 20
683.943115
 10
271.583008
 20
684.190613
 10
271.613617
 20
684.438477
 10
271.641907
 20
684.686646
 10
271.66806
 20
684.934998
 10
271.692169
 20
685.183594
 10
271.714386
 20
685.432312
 10
271.734772
 20
685.681213
 10
271.753418
 20
685.930237
 10
271.770416
 20
686.179382
 10
271.785889
 20
686.42865
 10
271.799927
 20
686.67804
 10
271.812592
 20
686.927429
 10
271.823944
 20
687.176941
 10
271.834015
 20
687.426453
 10
271.842865
 20
687.676025
 10
271.850555
 20
687.925659
 10
271.857086
 20
688.175354
 10
271.862518
 20
688.425049
 10
271.866913
 20
688.674744
 10
271.8703
 20
688.924438
 10
271.872742
 20
689.174194
 10
271.874268
 20
689.423889
 10
271.874939
 20
689.67511
  0
ELLIPSE
  5
EF
330
7B
100
AcDbEntity
  8
0
  6
Continuous
 62
     0
370
     0
100
AcDbEllipse
 10
250.22647
 20
707.994013
 30
0.0
 11
0.0
 21
-113.75
 31
0.0
210
0.0
220
0.0
230
1.0
 40
0.005885
 41
1.322086337701379
 42
1.819506315888415
  0
LWPOLYLINE
  5
F0
330
7B
100
AcDbEntity
  8
0
  6
Continuous
 62
     0
370
    30
100
AcDbPolyline
 90
       43
 70
     0
 43
0.0
 10
248.875366
 20
726.24231
 10
248.875763
 20
726.487671
 10
248.876984
 20
726.733093
 10
248.879074
 20
726.978516
 10
248.88208
 20
727.223938
 10
248.886032
 20
727.469299
 10
248.890976
 20
727.714661
 10
248.896973
 20
727.960022
 10
248.904022
 20
728.205383
 10
248.912216
 20
728.450684
 10
248.92157
 20
728.695923
 10
248.932129
 20
728.941101
 10
248.943939
 20
729.186218
 10
248.957047
 20
729.431274
 10
248.971512
 20
729.676331
 10
248.987396
 20
729.921204
 10
249.004807
 20
730.166016
 10
249.023849
 20
730.410706
 10
249.044601
 20
730.655212
 10
249.067139
 20
730.899597
 10
249.091583
 20
731.143799
 10
249.118027
 20
731.387756
 10
249.146561
 20
731.631531
 10
249.177399
 20
731.875061
 10
249.210724
 20
732.118164
 10
249.246704
 20
732.360962
 10
249.285538
 20
732.603271
 10
249.327408
 20
732.845093
 10
249.372543
 20
733.086304
 10
249.421326
 20
733.326843
 10
249.474213
 20
733.566467
 10
249.531601
 20
733.805115
 10
249.594086
 20
734.042419
 10
249.662308
 20
734.278198
 10
249.737183
 20
734.511902
 10
249.819824
 20
734.742981
 10
249.911835
 20
734.970459
 10
250.015274
 20
735.192993
 10
250.133591
 20
735.407959
 10
250.271393
 20
735.610962
 10
250.43573
 20
735.792847
 10
250.635574
 20
735.933899
 10
250.87532
 20
735.993958
  0
ELLIPSE
  5
F1
330
7B
100
AcDbEntity
  8
0
  6
Continuous
 62
     0
370
     0
100
AcDbEllipse
 10
248.226505
 20
707.994013
 30
0.0
 11
0.0
 21
-111.75
 31
0.0
210
0.0
220
0.0
230
1.0
 40
0.005885
 41
1.406766113599287
 42
1.734826539990507
  0
LWPOLYLINE
  5
F2
330
7B
100
AcDbEntity
  8
0
  6
Continuous
 62
     0
370
    30
100
AcDbPolyline
 90
       42
 70
     0
 43
0.0
 10
250.87532
 20
679.994019
 10
250.633514
 20
680.055054
 10
250.429596
 20
680.200867
 10
250.262634
 20
680.38855
 10
250.123016
 20
680.597656
 10
250.003433
 20
680.818848
 10
249.898972
 20
681.047607
 10
249.806213
 20
681.281311
 10
249.722977
 20
681.518616
 10
249.647659
 20
681.758545
 10
249.579102
 20
682.000549
 10
249.516403
 20
682.24408
 10
249.458878
 20
682.488892
 10
249.405975
 20
682.734741
 10
249.357208
 20
682.981506
 10
249.312149
 20
683.228882
 10
249.270416
 20
683.476929
 10
249.231796
 20
683.725403
 10
249.196075
 20
683.974304
 10
249.163086
 20
684.223633
 10
249.132599
 20
684.473328
 10
249.104446
 20
684.723206
 10
249.078415
 20
684.973389
 10
249.054428
 20
685.223694
 10
249.032379
 20
685.474243
 10
249.012161
 20
685.724915
 10
248.993698
 20
685.975708
 10
248.976852
 20
686.226624
 10
248.961563
 20
686.477661
 10
248.947708
 20
686.72876
 10
248.935226
 20
686.97998
 10
248.924072
 20
687.231201
 10
248.9142
 20
687.482483
 10
248.905563
 20
687.733826
 10
248.898117
 20
687.985229
 10
248.891815
 20
688.236633
 10
248.886597
 20
688.488098
 10
248.882431
 20
688.739563
 10
248.879272
 20
688.991028
 10
248.877075
 20
689.242493
 10
248.875778
 20
689.494019
 10
248.875366
 20
689.745728
  0
LINE
  5
F3
330
7B
100
AcDbEntity
  8
0
  6
Continuous
 62
     0
370
    30
100
AcDbLine
 10
269.874996
 20
735.994013
 30
0.0
 11
250.875325
 21
735.994013
 31
0.0
  0
LINE
  5
F4
330
7B
100
AcDbEntity
  8
0
  6
Continuous
 62
     0
370
    30
100
AcDbLine
 10
250.875325
 20
679.994013
 30
0.0
 11
269.874996
 21
679.994013
 31
0.0
  0
LINE
  5
F5
330
7B
100
AcDbEntity
  8
0
  6
Continuous
 62
     0
370
    30
100
AcDbLine
 10
248.875359
 20
689.745726
 30
0.0
 11
248.875359
 21
726.242301
 31
0.0
  0
LINE
  5
F6
330
7B
100
AcDbEntity
  8
0
  6
Continuous
 62
     0
370
    30
100
AcDbLine
 10
245.316307
 20
751.494013
 30
0.0
 11
260.404587
 21
751.494013
 31
0.0
  0
LINE
  5
F7
330
7B
100
AcDbEntity
  8
0
  6
Continuous
 62
     0
370
    30
100
AcDbLine
 10
260.404587
 20
751.494013
 30
0.0
 11
275.316307
 21
751.494013
 31
0.0
  0
LINE
  5
F8
330
7B
100
AcDbEntity
  8
0
  6
Continuous
 62
     0
370
    30
100
AcDbLine
 10
260.404587
 20
541.494013
 30
0.0
 11
275.316307
 21
541.494013
 31
0.0
  0
LINE
  5
F9
330
7B
100
AcDbEntity
  8
0
  6
Continuous
 62
     0
370
    30
100
AcDbLine
 10
245.316307
 20
541.494013
 30
0.0
 11
260.404587
 21
541.494013
 31
0.0
  0
LINE
  5
FA
330
7B
100
AcDbEntity
  8
0
  6
Continuous
 62
     0
370
     0
100
AcDbLine
 10
260.410472
 20
542.494013
 30
0.0
 11
276.316307
 21
542.494013
 31
0.0
  0
LINE
  5
FB
330
7B
100
AcDbEntity
  8
0
  6
Continuous
 62
     0
370
     0
100
AcDbLine
 10
244.316307
 20
542.494013
 30
0.0
 11
260.410472
 21
542.494013
 31
0.0
  0
LINE
  5
FC
330
7B
100
AcDbEntity
  8
0
  6
Continuous
 62
     0
370
     0
100
AcDbLine
 10
244.316307
 20
750.494013
 30
0.0
 11
260.410472
 21
750.494013
 31
0.0
  0
LINE
  5
FD
330
7B
100
AcDbEntity
  8
0
  6
Continuous
 62
     0
370
     0
100
AcDbLine
 10
260.410472
 20
750.494013
 30
0.0
 11
276.316307
 21
750.494013
 31
0.0
  0
LINE
  5
FE
330
7B
100
AcDbEntity
  8
0
  6
Continuous
 62
     0
370
     0
100
AcDbLine
 10
272.374952
 20
675.851706
 30
0.0
 11
248.375368
 21
675.851706
 31
0.0
  0
LWPOLYLINE
  5
FF
330
7B
100
AcDbEntity
  8
0
  6
Continuous
 62
     0
370
     0
100
AcDbPolyline
 90
        6
 70
     0
 43
0.0
 10
249.198761
 20
674.985413
 10
248.932953
 20
675.093201
 10
248.70546
 20
675.236938
 10
248.52861
 20
675.416077
 10
248.415024
 20
675.624695
 10
248.375366
 20
675.851685
  0
LINE
  5
100
330
7B
100
AcDbEntity
  8
0
  6
Continuous
 62
     0
370
     0
100
AcDbLine
 10
271.557457
 20
674.985424
 30
0.0
 11
249.198754
 21
674.985424
 31
0.0
  0
LWPOLYLINE
  5
101
330
7B
100
AcDbEntity
  8
0
  6
Continuous
 62
     0
370
     0
100
AcDbPolyline
 90
        6
 70
     0
 43
0.0
 10
271.557465
 20
674.985413
 10
271.821228
 20
675.093079
 10
272.046967
 20
675.236633
 10
272.222473
 20
675.415527
 10
272.335327
 20
675.62384
 10
272.374939
 20
675.851685
  0
LINE
  5
102
330
7B
100
AcDbEntity
  8
0
  6
Continuous
 62
     0
370
     0
100
AcDbLine
 10
273.172584
 20
740.146321
 30
0.0
 11
273.172584
 21
675.851706
 31
0.0
  0
LWPOLYLINE
  5
103
330
7B
100
AcDbEntity
  8
0
  6
Continuous
 62
     0
370
     0
100
AcDbPolyline
 90
        7
 70
     0
 43
0.0
 10
272.303741
 20
674.119141
 10
272.534882
 20
674.289246
 10
272.740631
 20
674.506775
 10
272.914307
 20
674.772034
 10
273.048645
 20
675.08197
 10
273.136383
 20
675.427917
 10
273.172577
 20
675.851685
  0
LWPOLYLINE
  5
104
330
7B
100
AcDbEntity
  8
0
  6
Continuous
 62
     0
370
     0
100
AcDbPolyline
 90
       23
 70
     0
 43
0.0
 10
248.454453
 20
674.119141
 10
249.308029
 20
673.644226
 10
250.225754
 20
673.205627
 10
251.202271
 20
672.805969
 10
252.231888
 20
672.447571
 10
253.308609
 20
672.132568
 10
254.426147
 20
671.862671
 10
255.578033
 20
671.639526
 10
256.757507
 20
671.464478
 10
257.957733
 20
671.338501
 10
259.171692
 20
671.262268
 10
260.392303
 20
671.236328
 10
261.612488
 20
671.260803
 10
262.825104
 20
671.33551
 10
264.023132
 20
671.460022
 10
265.199554
 20
671.633667
 10
266.347504
 20
671.855347
 10
267.460327
 20
672.12384
 10
268.531525
 20
672.437561
 10
269.554871
 20
672.794739
 10
270.524353
 20
673.193176
 10
271.434387
 20
673.630615
 10
272.303741
 20
674.119141
  0
LWPOLYLINE
  5
105
330
7B
100
AcDbEntity
  8
0
  6
Continuous
 62
     0
370
     0
100
AcDbPolyline
 90
        7
 70
     0
 43
0.0
 10
248.454453
 20
674.119141
 10
248.219986
 20
674.289429
 10
248.011246
 20
674.50708
 10
247.834946
 20
674.772705
 10
247.698578
 20
675.082886
 10
247.609573
 20
675.42926
 10
247.573029
 20
675.851685
  0
LINE
  5
106
330
7B
100
AcDbEntity
  8
0
  6
Continuous
 62
     0
370
     0
100
AcDbLine
 10
247.573028
 20
740.146321
 30
0.0
 11
247.573028
 21
675.851706
 31
0.0
  0
LWPOLYLINE
  5
107
330
7B
100
AcDbEntity
  8
0
  6
Continuous
 62
     0
370
     0
100
AcDbPolyline
 90
        7
 70
     0
 43
0.0
 10
247.573029
 20
740.146301
 10
247.600906
 20
740.516052
 10
247.682465
 20
740.866516
 10
247.812317
 20
741.182617
 10
247.9832
 20
741.454956
 10
248.187576
 20
741.679688
 10
248.454453
 20
741.878906
  0
LWPOLYLINE
  5
108
330
7B
100
AcDbEntity
  8
0
  6
Continuous
 62
     0
370
     0
100
AcDbPolyline
 90
       23
 70
     0
 43
0.0
 10
248.454453
 20
741.878906
 10
249.308029
 20
742.353821
 10
250.225754
 20
742.792419
 10
251.202271
 20
743.192017
 10
252.231888
 20
743.550415
 10
253.308609
 20
743.865479
 10
254.426147
 20
744.135376
 10
255.578033
 20
744.358459
 10
256.757507
 20
744.533569
 10
257.957733
 20
744.659546
 10
259.171692
 20
744.735779
 10
260.392303
 20
744.761719
 10
261.612488
 20
744.737244
 10
262.825104
 20
744.662537
 10
264.023132
 20
744.538025
 10
265.199554
 20
744.36438
 10
266.347504
 20
744.1427
 10
267.460327
 20
743.874146
 10
268.531525
 20
743.560425
 10
269.554871
 20
743.203308
 10
270.524353
 20
742.804871
 10
271.434387
 20
742.367432
 10
272.303741
 20
741.878906
  0
LWPOLYLINE
  5
109
330
7B
100
AcDbEntity
  8
0
  6
Continuous
 62
     0
370
     0
100
AcDbPolyline
 90
        7
 70
     0
 43
0.0
 10
273.172577
 20
740.146301
 10
273.145172
 20
740.515808
 10
273.065002
 20
740.866028
 10
272.937256
 20
741.182007
 10
272.769073
 20
741.454224
 10
272.56781
 20
741.678955
 10
272.303741
 20
741.878906
  0
LWPOLYLINE
  5
10A
330
7B
100
AcDbEntity
  8
0
  6
Continuous
 62
     0
370
     0
100
AcDbPolyline
 90
       22
 70
     0
 43
0.0
 10
249.198761
 20
674.985413
 10
250.039536
 20
674.488281
 10
250.946198
 20
674.03125
 10
251.912918
 20
673.617249
 10
252.933487
 20
673.249023
 10
254.001404
 20
672.928894
 10
255.109787
 20
672.658813
 10
256.251556
 20
672.440674
 10
257.419403
 20
672.275757
 10
258.605804
 20
672.165161
 10
259.803192
 20
672.109619
 10
261.003906
 20
672.109436
 10
262.200226
 20
672.164673
 10
263.384491
 20
672.274902
 10
264.549103
 20
672.439453
 10
265.686615
 20
672.657227
 10
266.789734
 20
672.926941
 10
267.85141
 20
673.246765
 10
268.864807
 20
673.614746
 10
269.823456
 20
674.028381
 10
270.721191
 20
674.485168
 10
271.557465
 20
674.985413
  0
LINE
  5
10B
330
7B
100
AcDbEntity
  8
0
  6
Continuous
 62
     0
370
     0
100
AcDbLine
 10
272.374952
 20
740.146321
 30
0.0
 11
248.375368
 21
740.146321
 31
0.0
  0
LINE
  5
10C
330
7B
100
AcDbEntity
  8
0
  6
Continuous
 62
     0
370
     0
100
AcDbLine
 10
248.375368
 20
740.146321
 30
0.0
 11
248.375368
 21
675.851706
 31
0.0
  0
LINE
  5
10D
330
7B
100
AcDbEntity
  8
0
  6
Continuous
 62
     0
370
     0
100
AcDbLine
 10
272.374952
 20
740.146321
 30
0.0
 11
272.374952
 21
675.851706
 31
0.0
  0
LWPOLYLINE
  5
10E
330
7B
100
AcDbEntity
  8
0
  6
Continuous
 62
     0
370
     0
100
AcDbPolyline
 90
        6
 70
     0
 43
0.0
 10
272.374939
 20
740.146301
 10
272.336151
 20
740.371826
 10
272.224091
 20
740.580383
 10
272.049194
 20
740.759644
 10
271.824005
 20
740.903503
 10
271.557465
 20
741.012573
  0
LINE
  5
10F
330
7B
100
AcDbEntity
  8
0
  6
Continuous
 62
     0
370
     0
100
AcDbLine
 10
271.557457
 20
741.012603
 30
0.0
 11
249.198754
 21
741.012603
 31
0.0
  0
LWPOLYLINE
  5
110
330
7B
100
AcDbEntity
  8
0
  6
Continuous
 62
     0
370
     0
100
AcDbPolyline
 90
        6
 70
     0
 43
0.0
 10
248.375366
 20
740.146301
 10
248.414551
 20
740.37207
 10
248.527695
 20
740.580811
 10
248.704193
 20
740.760071
 10
248.931381
 20
740.903992
 10
249.198761
 20
741.012573
  0
LWPOLYLINE
  5
111
330
7B
100
AcDbEntity
  8
0
  6
Continuous
 62
     0
370
     0
100
AcDbPolyline
 90
       22
 70
     0
 43
0.0
 10
249.198761
 20
741.012573
 10
250.039536
 20
741.509766
 10
250.946198
 20
741.966797
 10
251.912918
 20
742.380737
 10
252.933487
 20
742.749023
 10
254.001404
 20
743.069153
 10
255.109787
 20
743.339172
 10
256.251556
 20
743.557373
 10
257.419403
 20
743.722229
 10
258.605804
 20
743.832825
 10
259.803192
 20
743.888428
 10
261.003906
 20
743.888611
 10
262.200226
 20
743.833374
 10
263.384491
 20
743.723145
 10
264.549103
 20
743.558594
 10
265.686615
 20
743.340759
 10
266.789734
 20
743.071106
 10
267.85141
 20
742.751221
 10
268.864807
 20
742.383301
 10
269.823456
 20
741.969666
 10
270.721191
 20
741.512878
 10
271.557465
 20
741.012573
  0
LINE
  5
112
330
7B
100
AcDbEntity
  8
0
  6
Continuous
 62
     0
370
     0
100
AcDbLine
 10
273.172584
 20
675.851706
 30
0.0
 11
272.374952
 21
675.851706
 31
0.0
  0
LINE
  5
113
330
7B
100
AcDbEntity
  8
0
  6
Continuous
 62
     0
370
     0
100
AcDbLine
 10
272.374952
 20
740.146321
 30
0.0
 11
273.172584
 21
740.146321
 31
0.0
  0
ELLIPSE
  5
114
330
7B
100
AcDbEntity
  8
0
  6
Continuous
 62
     0
370
     0
100
AcDbEllipse
 10
271.554517
 20
741.878885
 30
0.0
 11
-0.5443455251950214
 21
-0.838861102447932
 31
0.0
210
0.0
220
0.0
230
1.0
 40
0.688332
 41
0.7596317742215062
 42
1.990873898877791
  0
ELLIPSE
  5
115
330
7B
100
AcDbEntity
  8
0
  6
Continuous
 62
     0
370
     0
100
AcDbEllipse
 10
249.195814
 20
741.878885
 30
0.0
 11
0.539309128932858
 21
-0.8421078692481614
 31
0.0
210
0.0
220
0.0
230
-1.0
 40
0.681122
 41
0.750880739299112
 42
1.982122863953137
  0
LINE
  5
116
330
7B
100
AcDbEntity
  8
0
  6
Continuous
 62
     0
370
     0
100
AcDbLine
 10
247.573028
 20
740.146321
 30
0.0
 11
248.375368
 21
740.146321
 31
0.0
  0
LINE
  5
117
330
7B
100
AcDbEntity
  8
0
  6
Continuous
 62
     0
370
     0
100
AcDbLine
 10
248.375368
 20
675.851706
 30
0.0
 11
247.573028
 21
675.851706
 31
0.0
  0
ELLIPSE
  5
118
330
7B
100
AcDbEntity
  8
0
  6
Continuous
 62
     0
370
     0
100
AcDbEllipse
 10
249.195814
 20
674.119142
 30
0.0
 11
-0.53930912893286
 21
-0.8421078692481624
 31
0.0
210
0.0
220
0.0
230
-1.0
 40
0.681122
 41
1.159469789637056
 42
2.39071191428848
  0
ELLIPSE
  5
119
330
7B
100
AcDbEntity
  8
0
  6
Continuous
 62
     0
370
     0
100
AcDbEllipse
 10
271.554517
 20
674.119142
 30
0.0
 11
0.5443455251950383
 21
-0.8388611024479177
 31
0.0
210
0.0
220
0.0
230
1.0
 40
0.688332
 41
1.15071875471199
 42
2.381960879364888
  0
LINE
  5
11A
330
7B
100
AcDbEntity
  8
0
  6
Continuous
 62
     0
370
    30
100
AcDbLine
 10
244.316307
 20
542.494013
 30
0.0
 11
244.316307
 21
750.494013
 31
0.0
  0
LINE
  5
11B
330
7B
100
AcDbEntity
  8
0
  6
Continuous
 62
     0
370
    30
100
AcDbLine
 10
276.316307
 20
542.494013
 30
0.0
 11
276.316307
 21
750.494013
 31
0.0
  0
ARC
  5
11C
330
7B
100
AcDbEntity
  8
0
  6
Continuous
 62
     0
370
    30
100
AcDbCircle
 10
275.316282
 20
750.493989
 30
0.0
 40
1.000024281597315
100
AcDbArc
 50
0.001391
 51
89.998606
  0
ARC
  5
11D
330
7B
100
AcDbEntity
  8
0
  6
Continuous
 62
     0
370
    30
100
AcDbCircle
 10
245.316332
 20
750.493989
 30
0.0
 40
1.000024281843462
100
AcDbArc
 50
90.001394
 51
179.998609
  0
ARC
  5
11E
330
7B
100
AcDbEntity
  8
0
  6
Continuous
 62
     0
370
    30
100
AcDbCircle
 10
275.316281
 20
542.494039
 30
0.0
 40
1.00002538909043
100
AcDbArc
 50
270.007187
 51
359.998546
  0
ARC
  5
11F
330
7B
100
AcDbEntity
  8
0
  6
Continuous
 62
     0
370
    30
100
AcDbCircle
 10
245.316333
 20
542.494039
 30
0.0
 40
1.000025389340192
100
AcDbArc
 50
180.001455
 51
269.992813
  0
LWPOLYLINE
  5
120
330
7B
100
AcDbEntity
  8
0
  6
Continuous
 62
     0
370
    30
100
AcDbPolyline
 90
       10
 70
     0
 43
0.0
 10
271.874939
 20
726.312927
 10
271.878418
 20
722.272339
 10
271.881073
 20
718.212402
 10
271.882812
 20
714.139038
 10
271.883698
 20
710.057373
 10
271.883728
 20
705.973022
 10
271.882843
 20
701.891357
 10
271.881104
 20
697.81781
 10
271.878479
 20
693.757874
 10
271.874939
 20
689.67511
  0
ENDBLK
  5
122
330
7B
100
AcDbEntity
  8
0
100
AcDbBlockEnd
  0
BLOCK
  5
164
330
124
100
AcDbEntity
  8
0
100
AcDbBlockBegin
  2
b
 70
     0
 10
197.136108
 20
107.950439
 30
0.0
  3
b
  1

  0
ARC
  5
125
330
124
100
AcDbEntity
  8
0
  6
Continuous
 62
     0
370
    30
100
AcDbCircle
 10
460.31623
 20
337.900462
 30
0.0
 40
21.99999999999408
100
AcDbArc
 50
270.000754
 51
90.000754
  0
ARC
  5
126
330
124
100
AcDbEntity
  8
0
  6
Continuous
 62
     0
370
    30
100
AcDbCircle
 10
460.31623
 20
337.900462
 30
0.0
 40
21.99999999999408
100
AcDbArc
 50
90.000754
 51
270.000754
  0
LINE
  5
127
330
124
100
AcDbEntity
  8
0
  6
Continuous
 62
     0
370
     0
100
AcDbLine
 10
466.816609
 20
309.900559
 30
0.0
 11
460.316604
 21
309.900469
 31
0.0
  0
LINE
  5
128
330
124
100
AcDbEntity
  8
0
  6
Continuous
 62
     0
370
     0
100
AcDbLine
 10
460.316604
 20
309.900469
 30
0.0
 11
453.816609
 21
309.900388
 31
0.0
  0
LWPOLYLINE
  5
129
330
124
100
AcDbEntity
  8
0
  6
Continuous
 62
     0
370
     0
100
AcDbPolyline
 90
       18
 70
     0
 43
0.0
 10
453.876862
 20
313.355682
 10
453.906586
 20
313.330811
 10
453.993835
 20
313.259125
 10
454.135712
 20
313.14502
 10
454.329102
 20
312.994141
 10
454.570312
 20
312.814117
 10
454.855957
 20
312.612366
 10
455.182953
 20
312.395935
 10
455.549255
 20
312.1716
 10
455.953217
 20
311.94574
 10
456.393433
 20
311.724487
 10
456.868805
 20
311.513916
 10
457.377899
 20
311.320251
 10
457.918091
 20
311.149689
 10
458.485901
 20
311.008575
 10
459.076538
 20
310.902832
 10
459.685669
 20
310.835571
 10
460.316589
 20
310.813202
  0
LWPOLYLINE
  5
12A
330
124
100
AcDbEntity
  8
0
  6
Continuous
 62
     0
370
     0
100
AcDbPolyline
 90
       18
 70
     0
 43
0.0
 10
460.316589
 20
310.813202
 10
460.933594
 20
310.834625
 10
461.54303
 20
310.901093
 10
462.134125
 20
311.006012
 10
462.702515
 20
311.146362
 10
463.243378
 20
311.316315
 10
463.753235
 20
311.509491
 10
464.22937
 20
311.719727
 10
464.67041
 20
311.940857
 10
465.075165
 20
312.166718
 10
465.442322
 20
312.391174
 10
465.770233
 20
312.607819
 10
466.056824
 20
312.809967
 10
466.299103
 20
312.99054
 10
466.493591
 20
313.142151
 10
466.636688
 20
313.257172
 10
466.725189
 20
313.329865
 10
466.756256
 20
313.355835
  0
LWPOLYLINE
  5
12B
330
124
100
AcDbEntity
  8
0
  6
Continuous
 62
     0
370
     0
100
AcDbPolyline
 90
       14
 70
     0
 43
0.0
 10
460.316528
 20
315.900452
 10
460.316528
 20
315.86319
 10
460.316528
 20
315.752502
 10
460.316528
 20
315.57019
 10
460.316528
 20
315.318237
 10
460.316528
 20
315.000732
 10
460.316528
 20
314.622894
 10
460.316559
 20
314.189972
 10
460.316559
 20
313.70816
 10
460.316559
 20
313.184601
 10
460.316559
 20
312.626465
 10
460.316589
 20
312.041992
 10
460.316589
 20
311.441467
 10
460.316589
 20
310.813202
  0
LINE
  5
12C
330
124
100
AcDbEntity
  8
0
  6
Continuous
 62
     0
370
    30
100
AcDbLine
 10
460.317393
 20
249.900473
 30
0.0
 11
466.817392
 21
249.900559
 31
0.0
  0
LINE
  5
12D
330
124
100
AcDbEntity
  8
0
  6
Continuous
 62
     0
370
    30
100
AcDbLine
 10
453.817404
 20
249.900388
 30
0.0
 11
460.317393
 21
249.900473
 31
0.0
  0
ARC
  5
12E
330
124
100
AcDbEntity
  8
0
  6
Continuous
 62
     0
370
    30
100
AcDbCircle
 10
460.316289
 20
337.900525
 30
0.0
 40
29.99999615613207
100
AcDbArc
 50
89.999627
 51
257.487343
  0
ARC
  5
12F
330
124
100
AcDbEntity
  8
0
  6
Continuous
 62
     0
370
    30
100
AcDbCircle
 10
460.316289
 20
337.900525
 30
0.0
 40
29.99999615613207
100
AcDbArc
 50
282.513974
 51
89.999627
  0
LINE
  5
130
330
124
100
AcDbEntity
  8
0
  6
Continuous
 62
     0
370
    30
100
AcDbLine
 10
453.816615
 20
309.900388
 30
0.0
 11
453.817404
 21
249.900388
 31
0.0
  0
LINE
  5
131
330
124
100
AcDbEntity
  8
0
  6
Continuous
 62
     0
370
    30
100
AcDbLine
 10
466.816603
 20
309.900559
 30
0.0
 11
466.817392
 21
249.900559
 31
0.0
  0
LWPOLYLINE
  5
132
330
124
100
AcDbEntity
  8
0
  6
Continuous
 62
     0
370
    30
100
AcDbPolyline
 90
       29
 70
     0
 43
0.0
 10
469.622437
 20
317.965607
 10
469.617584
 20
317.963318
 10
469.486664
 20
317.899017
 10
469.297546
 20
317.797455
 10
469.112946
 20
317.687897
 10
468.933197
 20
317.570526
 10
468.758606
 20
317.445618
 10
468.589508
 20
317.313324
 10
468.42627
 20
317.17392
 10
468.269165
 20
317.027557
 10
468.118561
 20
316.874603
 10
467.97464
 20
316.715302
 10
467.837677
 20
316.549988
 10
467.707916
 20
316.378937
 10
467.585632
 20
316.202515
 10
467.471039
 20
316.020966
 10
467.364349
 20
315.834686
 10
467.265747
 20
315.643951
 10
467.175415
 20
315.449219
 10
467.093536
 20
315.250763
 10
467.020325
 20
315.048981
 10
466.955841
 20
314.844238
 10
466.900208
 20
314.636902
 10
466.853455
 20
314.427399
 10
466.815735
 20
314.216034
 10
466.787048
 20
314.003204
 10
466.767548
 20
313.789368
 10
466.757202
 20
313.57489
 10
466.756195
 20
313.356079
  0
LWPOLYLINE
  5
133
330
124
100
AcDbEntity
  8
0
  6
Continuous
 62
     0
370
    30
100
AcDbPolyline
 90
       31
 70
     0
 43
0.0
 10
451.010376
 20
317.965454
 10
451.01474
 20
317.963409
 10
451.12381
 20
317.910187
 10
451.300873
 20
317.816589
 10
451.474121
 20
317.715912
 10
451.643188
 20
317.608459
 10
451.807861
 20
317.494354
 10
451.967834
 20
317.373749
 10
452.122864
 20
317.246857
 10
452.272675
 20
317.113861
 10
452.416992
 20
316.974884
 10
452.555603
 20
316.830261
 10
452.688324
 20
316.680176
 10
452.814941
 20
316.524933
 10
452.935242
 20
316.364746
 10
453.049042
 20
316.19986
 10
453.156158
 20
316.030548
 10
453.256348
 20
315.857056
 10
453.349518
 20
315.679718
 10
453.435547
 20
315.498779
 10
453.514252
 20
315.314545
 10
453.585449
 20
315.127319
 10
453.649048
 20
314.937378
 10
453.705017
 20
314.745026
 10
453.753265
 20
314.550598
 10
453.793701
 20
314.35437
 10
453.826294
 20
314.156677
 10
453.850952
 20
313.957794
 10
453.867645
 20
313.758118
 10
453.876312
 20
313.557953
 10
453.876923
 20
313.355896
  0
LINE
  5
134
330
124
100
AcDbEntity
  8
0
  6
Continuous
 62
     0
370
    30
100
AcDbLine
 10
466.756255
 20
313.355619
 30
0.0
 11
466.816609
 21
309.900559
 31
0.0
  0
LINE
  5
135
330
124
100
AcDbEntity
  8
0
  6
Continuous
 62
     0
370
    30
100
AcDbLine
 10
453.876872
 20
313.355449
 30
0.0
 11
453.816609
 21
309.900388
 31
0.0
  0
ARC
  5
136
330
124
100
AcDbEntity
  8
0
  6
Continuous
 62
     0
370
    30
100
AcDbCircle
 10
560.316292
 20
337.900526
 30
0.0
 40
16.49999999993634
100
AcDbArc
 50
180.0
 51
0.0
  0
ARC
  5
137
330
124
100
AcDbEntity
  8
0
  6
Continuous
 62
     0
370
    30
100
AcDbCircle
 10
560.316292
 20
337.900526
 30
0.0
 40
16.49999999993634
100
AcDbArc
 50
0.0
 51
180.0
  0
ARC
  5
138
330
124
100
AcDbEntity
  8
0
  6
Continuous
 62
     0
370
    30
100
AcDbCircle
 10
560.316292
 20
337.900528
 30
0.0
 40
29.99999999987995
100
AcDbArc
 50
180.0
 51
0.0
  0
ARC
  5
139
330
124
100
AcDbEntity
  8
0
  6
Continuous
 62
     0
370
    30
100
AcDbCircle
 10
560.316292
 20
337.900528
 30
0.0
 40
29.99999999987995
100
AcDbArc
 50
0.0
 51
180.0
  0
ARC
  5
13A
330
124
100
AcDbEntity
  8
0
  6
Continuous
 62
     0
370
     0
100
AcDbCircle
 10
560.316292
 20
337.900528
 30
0.0
 40
29.04703881096249
100
AcDbArc
 50
180.0
 51
0.0
  0
ARC
  5
13B
330
124
100
AcDbEntity
  8
0
  6
Continuous
 62
     0
370
     0
100
AcDbCircle
 10
560.316292
 20
337.900528
 30
0.0
 40
29.04703881096249
100
AcDbArc
 50
0.0
 51
180.0
  0
ARC
  5
13C
330
124
100
AcDbEntity
  8
0
  6
Continuous
 62
     0
370
     0
100
AcDbCircle
 10
560.316292
 20
337.900528
 30
0.0
 40
17.34829363957761
100
AcDbArc
 50
180.0
 51
0.0
  0
ARC
  5
13D
330
124
100
AcDbEntity
  8
0
  6
Continuous
 62
     0
370
     0
100
AcDbCircle
 10
560.316292
 20
337.900528
 30
0.0
 40
17.34829363957761
100
AcDbArc
 50
0.0
 51
180.0
  0
ARC
  5
13E
330
124
100
AcDbEntity
  8
0
  6
Continuous
 62
     0
370
    30
100
AcDbCircle
 10
360.316292
 20
337.900528
 30
0.0
 40
29.99999999990604
100
AcDbArc
 50
90.0
 51
242.181861
  0
ARC
  5
13F
330
124
100
AcDbEntity
  8
0
  6
Continuous
 62
     0
370
    30
100
AcDbCircle
 10
360.316292
 20
337.900528
 30
0.0
 40
29.99999999990604
100
AcDbArc
 50
297.818139
 51
90.0
  0
ARC
  5
140
330
124
100
AcDbEntity
  8
0
  6
Continuous
 62
     0
370
     0
100
AcDbCircle
 10
360.316292
 20
337.900528
 30
0.0
 40
29.55056165887202
100
AcDbArc
 50
90.0
 51
241.721078
  0
ARC
  5
141
330
124
100
AcDbEntity
  8
0
  6
Continuous
 62
     0
370
     0
100
AcDbCircle
 10
360.316292
 20
337.900528
 30
0.0
 40
29.55056165887202
100
AcDbArc
 50
298.278922
 51
90.0
  0
ARC
  5
142
330
124
100
AcDbEntity
  8
0
  6
Continuous
 62
     0
370
     0
100
AcDbCircle
 10
360.316292
 20
337.900528
 30
0.0
 40
16.30571799598062
100
AcDbArc
 50
90.0
 51
210.840861
  0
ARC
  5
143
330
124
100
AcDbEntity
  8
0
  6
Continuous
 62
     0
370
     0
100
AcDbCircle
 10
360.316292
 20
337.900528
 30
0.0
 40
16.30571799598062
100
AcDbArc
 50
329.159139
 51
90.0
  0
ARC
  5
144
330
124
100
AcDbEntity
  8
0
  6
Continuous
 62
     0
370
    30
100
AcDbCircle
 10
360.316292
 20
337.900527
 30
0.0
 40
14.39999999995129
100
AcDbArc
 50
90.0
 51
193.536203
  0
ARC
  5
145
330
124
100
AcDbEntity
  8
0
  6
Continuous
 62
     0
370
    30
100
AcDbCircle
 10
360.316292
 20
337.900527
 30
0.0
 40
14.39999999995129
100
AcDbArc
 50
346.463797
 51
90.0
  0
ARC
  5
146
330
124
100
AcDbEntity
  8
0
  6
Continuous
 62
     0
370
    30
100
AcDbCircle
 10
360.316292
 20
337.900523
 30
0.0
 40
14.0
100
AcDbArc
 50
0.0
 51
180.0
  0
LINE
  5
147
330
124
100
AcDbEntity
  8
0
  6
Continuous
 62
     0
370
    30
100
AcDbLine
 10
346.316292
 20
337.900523
 30
0.0
 11
346.316292
 21
114.037292
 31
0.0
  0
ELLIPSE
  5
148
330
124
100
AcDbEntity
  8
0
  6
Continuous
 62
     0
370
     0
100
AcDbEllipse
 10
360.316292
 20
114.037292
 30
0.0
 11
-14.0
 21
0.0
 31
0.0
210
0.0
220
0.0
230
1.0
 40
0.946637
 41
0.0000000000000089
 42
3.141592653589799
  0
LINE
  5
149
330
124
100
AcDbEntity
  8
0
  6
Continuous
 62
     0
370
    30
100
AcDbLine
 10
346.316292
 20
114.037292
 30
0.0
 11
346.316292
 21
110.88621
 31
0.0
  0
ELLIPSE
  5
14A
330
124
100
AcDbEntity
  8
0
  6
Continuous
 62
     0
370
     0
100
AcDbEllipse
 10
360.316292
 20
110.88621
 30
0.0
 11
-14.0
 21
0.0
 31
0.0
210
0.0
220
0.0
230
1.0
 40
0.978148
 41
0.0
 42
3.141592653589799
  0
LINE
  5
14B
330
124
100
AcDbEntity
  8
0
  6
Continuous
 62
     0
370
    30
100
AcDbLine
 10
346.316292
 20
110.88621
 30
0.0
 11
346.316292
 21
109.690434
 31
0.0
  0
ELLIPSE
  5
14C
330
124
100
AcDbEntity
  8
0
  6
Continuous
 62
     0
370
    30
100
AcDbEllipse
 10
360.316292
 20
109.690434
 30
0.0
 11
-14.0
 21
0.0
 31
0.0
210
0.0
220
0.0
230
1.0
 40
0.978148
 41
0.0
 42
3.141592653589793
  0
LINE
  5
14D
330
124
100
AcDbEntity
  8
0
  6
Continuous
 62
     0
370
    30
100
AcDbLine
 10
374.316292
 20
109.690434
 30
0.0
 11
374.316292
 21
110.88621
 31
0.0
  0
LINE
  5
14E
330
124
100
AcDbEntity
  8
0
  6
Continuous
 62
     0
370
    30
100
AcDbLine
 10
374.316292
 20
110.88621
 30
0.0
 11
374.316292
 21
114.037292
 31
0.0
  0
LINE
  5
14F
330
124
100
AcDbEntity
  8
0
  6
Continuous
 62
     0
370
    30
100
AcDbLine
 10
374.316292
 20
114.037292
 30
0.0
 11
374.316292
 21
337.900523
 31
0.0
  0
ARC
  5
150
330
124
100
AcDbEntity
  8
0
  6
Continuous
 62
     0
370
    30
100
AcDbCircle
 10
260.316292
 20
337.900528
 30
0.0
 40
29.99999999987768
100
AcDbArc
 50
180.0
 51
360.0
  0
ARC
  5
151
330
124
100
AcDbEntity
  8
0
  6
Continuous
 62
     0
370
    30
100
AcDbCircle
 10
260.316292
 20
337.900528
 30
0.0
 40
29.99999999987768
100
AcDbArc
 50
0.0
 51
180.0
  0
ARC
  5
152
330
124
100
AcDbEntity
  8
0
  6
Continuous
 62
     0
370
     0
100
AcDbCircle
 10
260.316292
 20
337.900528
 30
0.0
 40
29.55056165884337
100
AcDbArc
 50
180.0
 51
360.0
  0
ARC
  5
153
330
124
100
AcDbEntity
  8
0
  6
Continuous
 62
     0
370
     0
100
AcDbCircle
 10
260.316292
 20
337.900528
 30
0.0
 40
29.55056165884337
100
AcDbArc
 50
0.0
 51
180.0
  0
ARC
  5
154
330
124
100
AcDbEntity
  8
0
  6
Continuous
 62
     0
370
     0
100
AcDbCircle
 10
260.316292
 20
337.900528
 30
0.0
 40
16.30571799592792
100
AcDbArc
 50
315.184227
 51
360.0
  0
ARC
  5
155
330
124
100
AcDbEntity
  8
0
  6
Continuous
 62
     0
370
     0
100
AcDbCircle
 10
260.316292
 20
337.900528
 30
0.0
 40
16.30571799592792
100
AcDbArc
 50
236.223931
 51
304.450479
  0
ARC
  5
156
330
124
100
AcDbEntity
  8
0
  6
Continuous
 62
     0
370
     0
100
AcDbCircle
 10
260.316292
 20
337.900528
 30
0.0
 40
16.30571799592792
100
AcDbArc
 50
180.0
 51
225.490183
  0
ARC
  5
157
330
124
100
AcDbEntity
  8
0
  6
Continuous
 62
     0
370
     0
100
AcDbCircle
 10
260.316292
 20
337.900528
 30
0.0
 40
16.30571799592792
100
AcDbArc
 50
0.0
 51
180.0
  0
LINE
  5
158
330
124
100
AcDbEntity
  8
0
  6
Continuous
 62
     0
370
    30
100
AcDbLine
 10
271.883774
 20
326.4684
 30
0.0
 11
271.881562
 21
326.844095
 31
0.0
  0
LINE
  5
159
330
124
100
AcDbEntity
  8
0
  6
Continuous
 62
     0
370
     0
100
AcDbLine
 10
269.895579
 20
324.456664
 30
0.0
 11
269.891897
 21
325.082259
 31
0.0
  0
LINE
  5
15A
330
124
100
AcDbEntity
  8
0
  6
Continuous
 62
     0
370
     0
100
AcDbLine
 10
250.895908
 20
324.344843
 30
0.0
 11
250.892226
 21
324.970439
 31
0.0
  0
LINE
  5
15B
330
124
100
AcDbEntity
  8
0
  6
Continuous
 62
     0
370
    30
100
AcDbLine
 10
248.884172
 20
326.333038
 30
0.0
 11
248.881961
 21
326.708733
 31
0.0
  0
ARC
  5
15C
330
124
100
AcDbEntity
  8
0
  6
Continuous
 62
     0
370
     0
100
AcDbCircle
 10
260.316292
 20
337.900518
 30
0.0
 40
15.0
100
AcDbArc
 50
90.337205
 51
270.337205
  0
ARC
  5
15D
330
124
100
AcDbEntity
  8
0
  6
Continuous
 62
     0
370
     0
100
AcDbCircle
 10
260.316292
 20
337.900518
 30
0.0
 40
15.0
100
AcDbArc
 50
270.337205
 51
90.337205
  0
ARC
  5
15E
330
124
100
AcDbEntity
  8
0
  6
Continuous
 62
     0
370
    30
100
AcDbCircle
 10
260.316292
 20
337.900518
 30
0.0
 40
16.0
100
AcDbArc
 50
90.337205
 51
270.337205
  0
ARC
  5
15F
330
124
100
AcDbEntity
  8
0
  6
Continuous
 62
     0
370
    30
100
AcDbCircle
 10
260.316292
 20
337.900518
 30
0.0
 40
16.0
100
AcDbArc
 50
270.337205
 51
90.337205
  0
LINE
  5
160
330
124
100
AcDbEntity
  8
0
  6
Continuous
 62
     0
370
    30
100
AcDbLine
 10
251.80811
 20
324.350212
 30
0.0
 11
250.895908
 21
324.344843
 31
0.0
  0
LINE
  5
161
330
124
100
AcDbEntity
  8
0
  6
Continuous
 62
     0
370
    30
100
AcDbLine
 10
269.895579
 20
324.456664
 30
0.0
 11
268.983377
 21
324.451295
 31
0.0
  0
ARC
  5
162
330
124
100
AcDbEntity
  8
0
  6
Continuous
 62
     0
370
    30
100
AcDbCircle
 10
250.884329
 20
326.345003
 30
0.0
 40
2.000193356897453
100
AcDbArc
 50
180.345399
 51
270.331667
  0
ARC
  5
163
330
124
100
AcDbEntity
  8
0
  6
Continuous
 62
     0
370
    30
100
AcDbCircle
 10
269.883614
 20
326.456821
 30
0.0
 40
2.000193356910705
100
AcDbArc
 50
270.342743
 51
0.32901
  0
ENDBLK
  5
165
330
124
100
AcDbEntity
  8
0
100
AcDbBlockEnd
  0
BLOCK
  5
1CF
330
167
100
AcDbEntity
  8
0
100
AcDbBlockBegin
  2
c
 70
     0
 10
251.473938
 20
134.460022
 30
0.0
  3
c
  1

  0
LINE
  5
168
330
167
100
AcDbEntity
  8
0
  6
Continuous
 62
     0
370
    30
100
AcDbLine
 10
769.165398
 20
575.705048
 30
0.0
 11
775.165437
 21
575.705055
 31
0.0
  0
LINE
  5
169
330
167
100
AcDbEntity
  8
0
  6
Continuous
 62
     0
370
    30
100
AcDbLine
 10
769.165398
 20
606.705048
 30
0.0
 11
775.165459
 21
606.705055
 31
0.0
  0
LINE
  5
16A
330
167
100
AcDbEntity
  8
0
  6
Continuous
 62
     0
370
    30
100
AcDbLine
 10
731.165459
 20
606.705086
 30
0.0
 11
737.165398
 21
606.705071
 31
0.0
  0
LINE
  5
16B
330
167
100
AcDbEntity
  8
0
  6
Continuous
 62
     0
370
    30
100
AcDbLine
 10
731.165443
 20
583.905191
 30
0.0
 11
737.165398
 21
581.721338
 31
0.0
  0
LINE
  5
16C
330
167
100
AcDbEntity
  8
0
  6
Continuous
 62
     0
370
    30
100
AcDbLine
 10
775.165437
 20
575.705055
 30
0.0
 11
775.16544
 21
580.221748
 31
0.0
  0
LWPOLYLINE
  5
16D
330
167
100
AcDbEntity
  8
0
  6
Continuous
 62
     0
370
     0
100
AcDbPolyline
 90
       44
 70
     0
 43
0.0
 10
775.165466
 20
580.221741
 10
775.152039
 20
580.259827
 10
775.112488
 20
580.376526
 10
775.048279
 20
580.5672
 10
774.961853
 20
580.826782
 10
774.856323
 20
581.152222
 10
774.734985
 20
581.536499
 10
774.601562
 20
581.97406
 10
774.459534
 20
582.459412
 10
774.312256
 20
582.987488
 10
774.162903
 20
583.553772
 10
774.014465
 20
584.154419
 10
773.86969
 20
584.785583
 10
773.731323
 20
585.44342
 10
773.601685
 20
586.124634
 10
773.483093
 20
586.826416
 10
773.37738
 20
587.546021
 10
773.286438
 20
588.280701
 10
773.211731
 20
589.027649
 10
773.15448
 20
589.784241
 10
773.115784
 20
590.547729
 10
773.09613
 20
591.315369
 10
773.096008
 20
592.084412
 10
773.115356
 20
592.852112
 10
773.15387
 20
593.615662
 10
773.210815
 20
594.372375
 10
773.285339
 20
595.119507
 10
773.376099
 20
595.854309
 10
773.481567
 20
596.574158
 10
773.600098
 20
597.276245
 10
773.729553
 20
597.957764
 10
773.867798
 20
598.615784
 10
774.01239
 20
599.247131
 10
774.160889
 20
599.848511
 10
774.310486
 20
600.41626
 10
774.458191
 20
600.945801
 10
774.600464
 20
601.432251
 10
774.73407
 20
601.870483
 10
774.855469
 20
602.255188
 10
774.961121
 20
602.580872
 10
775.047668
 20
602.841614
 10
775.112122
 20
603.032043
 10
775.151855
 20
603.149048
 10
775.165466
 20
603.188354
  0
LINE
  5
16E
330
167
100
AcDbEntity
  8
0
  6
Continuous
 62
     0
370
    30
100
AcDbLine
 10
775.165457
 20
603.188362
 30
0.0
 11
775.165459
 21
606.705055
 31
0.0
  0
LINE
  5
16F
330
167
100
AcDbEntity
  8
0
  6
Continuous
 62
     0
370
    30
100
AcDbLine
 10
780.252715
 20
598.189119
 30
0.0
 11
781.165453
 21
598.205051
 31
0.0
  0
LINE
  5
170
330
167
100
AcDbEntity
  8
0
  6
Continuous
 62
     0
370
     0
100
AcDbLine
 10
781.165453
 20
598.205051
 30
0.0
 11
781.165444
 21
585.205051
 31
0.0
  0
LWPOLYLINE
  5
171
330
167
100
AcDbEntity
  8
0
  6
Continuous
 62
     0
370
     0
100
AcDbPolyline
 90
       34
 70
     0
 43
0.0
 10
780.252686
 20
585.221008
 10
780.229858
 20
585.252747
 10
780.159302
 20
585.347107
 10
780.048035
 20
585.501038
 10
779.899597
 20
585.710815
 10
779.720459
 20
585.97229
 10
779.5177
 20
586.28125
 10
779.297974
 20
586.633728
 10
779.068176
 20
587.026917
 10
778.834961
 20
587.458435
 10
778.605103
 20
587.926514
 10
778.385864
 20
588.429932
 10
778.18457
 20
588.967102
 10
778.009216
 20
589.534851
 10
777.867981
 20
590.130493
 10
777.76886
 20
590.750305
 10
777.71698
 20
591.385071
 10
777.716919
 20
592.024841
 10
777.768799
 20
592.659668
 10
777.867981
 20
593.279419
 10
778.009155
 20
593.875061
 10
778.184509
 20
594.442871
 10
778.385864
 20
594.97998
 10
778.605164
 20
595.483459
 10
778.834961
 20
595.951538
 10
779.068176
 20
596.383057
 10
779.297974
 20
596.776245
 10
779.5177
 20
597.128784
 10
779.72052
 20
597.437683
 10
779.899719
 20
597.699219
 10
780.048218
 20
597.908997
 10
780.159485
 20
598.062927
 10
780.229919
 20
598.157288
 10
780.252686
 20
598.189148
  0
ARC
  5
172
330
167
100
AcDbEntity
  8
0
  6
Continuous
 62
     0
370
    30
100
AcDbCircle
 10
780.165457
 20
603.188358
 30
0.0
 40
4.999999999715723
100
AcDbArc
 50
179.999959
 51
270.999959
  0
ARC
  5
173
330
167
100
AcDbEntity
  8
0
  6
Continuous
 62
     0
370
    30
100
AcDbCircle
 10
780.16544
 20
580.221745
 30
0.0
 40
4.999999999831241
100
AcDbArc
 50
88.999959
 51
179.999959
  0
LINE
  5
174
330
167
100
AcDbEntity
  8
0
  6
Continuous
 62
     0
370
    30
100
AcDbLine
 10
841.165444
 20
585.205014
 30
0.0
 11
841.165453
 21
598.205002
 31
0.0
  0
LINE
  5
175
330
167
100
AcDbEntity
  8
0
  6
Continuous
 62
     0
370
    30
100
AcDbLine
 10
841.165453
 20
598.205002
 30
0.0
 11
781.165453
 21
598.205045
 31
0.0
  0
LINE
  5
176
330
167
100
AcDbEntity
  8
0
  6
Continuous
 62
     0
370
    30
100
AcDbLine
 10
775.165436
 20
574.494038
 30
0.0
 11
775.165403
 21
528.277933
 31
0.0
  0
LINE
  5
177
330
167
100
AcDbEntity
  8
0
  6
Continuous
 62
     0
370
    30
100
AcDbLine
 10
769.165398
 20
574.494042
 30
0.0
 11
775.165436
 21
574.494038
 31
0.0
  0
LINE
  5
178
330
167
100
AcDbEntity
  8
0
  6
Continuous
 62
     0
370
    30
100
AcDbLine
 10
731.165436
 20
574.494069
 30
0.0
 11
737.165398
 21
574.494065
 31
0.0
  0
LINE
  5
179
330
167
100
AcDbEntity
  8
0
  6
Continuous
 62
     0
370
    30
100
AcDbLine
 10
731.165403
 20
528.277934
 30
0.0
 11
731.165436
 21
574.494069
 31
0.0
  0
ARC
  5
17A
330
167
100
AcDbEntity
  8
0
  6
Continuous
 62
     0
370
    30
100
AcDbCircle
 10
753.165496
 20
572.994015
 30
0.0
 40
20.50519692194013
100
AcDbArc
 50
152.354308
 51
175.804793
  0
ARC
  5
17B
330
167
100
AcDbEntity
  8
0
  6
Continuous
 62
     0
370
    30
100
AcDbCircle
 10
753.165138
 20
572.994003
 30
0.0
 40
20.50543414426291
100
AcDbArc
 50
4.195111
 51
7.597402
  0
LINE
  5
17C
330
167
100
AcDbEntity
  8
0
  6
Continuous
 62
     0
370
    30
100
AcDbLine
 10
781.165444
 20
585.205057
 30
0.0
 11
841.165444
 21
585.205014
 31
0.0
  0
LINE
  5
17D
330
167
100
AcDbEntity
  8
0
  6
Continuous
 62
     0
370
    30
100
AcDbLine
 10
781.165444
 20
585.205051
 30
0.0
 11
780.252706
 21
585.220983
 31
0.0
  0
LINE
  5
17E
330
167
100
AcDbEntity
  8
0
  6
Continuous
 62
     0
370
    30
100
AcDbLine
 10
731.165443
 20
583.905238
 30
0.0
 11
731.165459
 21
606.705086
 31
0.0
  0
LINE
  5
17F
330
167
100
AcDbEntity
  8
0
  6
Continuous
 62
     0
370
     0
100
AcDbLine
 10
782.212432
 20
527.884912
 30
0.0
 11
779.567972
 21
527.884912
 31
0.0
  0
LINE
  5
180
330
167
100
AcDbEntity
  8
0
  6
Continuous
 62
     0
370
     0
100
AcDbLine
 10
726.762834
 20
527.884912
 30
0.0
 11
724.118354
 21
527.884912
 31
0.0
  0
ARC
  5
181
330
167
100
AcDbEntity
  8
0
  6
Continuous
 62
     0
370
    30
100
AcDbCircle
 10
938.10447
 20
3838.331598
 30
0.0
 40
3314.115204629328
100
AcDbArc
 50
267.210152
 51
267.30388
  0
ARC
  5
182
330
167
100
AcDbEntity
  8
0
  6
Continuous
 62
     0
370
    30
100
AcDbCircle
 10
568.226315
 20
3838.331598
 30
0.0
 40
3314.115204626736
100
AcDbArc
 50
272.69612
 51
272.789848
  0
ARC
  5
183
330
167
100
AcDbEntity
  8
0
  6
Continuous
 62
     0
370
    30
100
AcDbCircle
 10
782.164871
 20
526.885458
 30
0.0
 40
1.000584464601786
100
AcDbArc
 50
29.570835
 51
87.275539
  0
ARC
  5
184
330
167
100
AcDbEntity
  8
0
  6
Continuous
 62
     0
370
    30
100
AcDbCircle
 10
724.165915
 20
526.885458
 30
0.0
 40
1.000584438262095
100
AcDbArc
 50
92.72446
 51
150.430491
  0
LINE
  5
185
330
167
100
AcDbEntity
  8
0
  6
Continuous
 62
     0
370
     0
100
AcDbLine
 10
977.028631
 20
678.558785
 30
0.0
 11
990.281546
 21
683.071018
 31
0.0
  0
LINE
  5
186
330
167
100
AcDbEntity
  8
0
  6
Continuous
 62
     0
370
     0
100
AcDbLine
 10
963.775716
 20
674.046552
 30
0.0
 11
977.028631
 21
678.558785
 31
0.0
  0
LINE
  5
187
330
167
100
AcDbEntity
  8
0
  6
Continuous
 62
     0
370
     0
100
AcDbLine
 10
980.179714
 20
667.119718
 30
0.0
 11
993.87378
 21
670.030481
 31
0.0
  0
LINE
  5
188
330
167
100
AcDbEntity
  8
0
  6
Continuous
 62
     0
370
     0
100
AcDbLine
 10
966.485647
 20
664.208954
 30
0.0
 11
980.179714
 21
667.119718
 31
0.0
  0
LINE
  5
189
330
167
100
AcDbEntity
  8
0
  6
Continuous
 62
     0
370
    30
100
AcDbLine
 10
981.37549
 20
661.494034
 30
0.0
 11
995.069556
 21
664.404798
 31
0.0
  0
LINE
  5
18A
330
167
100
AcDbEntity
  8
0
  6
Continuous
 62
     0
370
    30
100
AcDbLine
 10
967.681423
 20
658.583271
 30
0.0
 11
981.37549
 21
661.494034
 31
0.0
  0
LINE
  5
18B
330
167
100
AcDbEntity
  8
0
  6
Continuous
 62
     0
370
    30
100
AcDbLine
 10
995.069556
 20
664.404798
 30
0.0
 11
993.87378
 21
670.030481
 31
0.0
  0
LINE
  5
18C
330
167
100
AcDbEntity
  8
0
  6
Continuous
 62
     0
370
    30
100
AcDbLine
 10
967.681423
 20
658.583271
 30
0.0
 11
966.485647
 21
664.208954
 31
0.0
  0
ARC
  5
18D
330
167
100
AcDbEntity
  8
0
  6
Continuous
 62
     0
370
    30
100
AcDbCircle
 10
882.363865
 20
646.328249
 30
0.0
 40
114.0011270761854
100
AcDbArc
 50
12.000034
 51
18.802186
  0
ARC
  5
18E
330
167
100
AcDbEntity
  8
0
  6
Continuous
 62
     0
370
    30
100
AcDbCircle
 10
882.364132
 20
646.328323
 30
0.0
 40
86.00085025061279
100
AcDbArc
 50
12.000034
 51
18.802186
  0
ARC
  5
18F
330
167
100
AcDbEntity
  8
0
  6
Continuous
 62
     0
370
    30
100
AcDbCircle
 10
868.165411
 20
641.493981
 30
0.0
 40
129.0000010423412
100
AcDbArc
 50
18.802234
 51
142.333697
  0
ARC
  5
190
330
167
100
AcDbEntity
  8
0
  6
Continuous
 62
     0
370
    30
100
AcDbCircle
 10
868.165413
 20
641.493806
 30
0.0
 40
101.0000555557816
100
AcDbArc
 50
18.802333
 51
168.578691
  0
LINE
  5
191
330
167
100
AcDbEntity
  8
0
  6
Continuous
 62
     0
370
    30
100
AcDbLine
 10
969.637741
 20
658.999099
 30
0.0
 11
970.469391
 21
655.086495
 31
0.0
  0
LINE
  5
192
330
167
100
AcDbEntity
  8
0
  6
Continuous
 62
     0
370
    30
100
AcDbLine
 10
970.469391
 20
655.086495
 30
0.0
 11
977.516166
 21
656.584334
 31
0.0
  0
LINE
  5
193
330
167
100
AcDbEntity
  8
0
  6
Continuous
 62
     0
370
    30
100
AcDbLine
 10
976.892432
 20
659.518771
 30
0.0
 11
977.516166
 21
656.584334
 31
0.0
  0
LINE
  5
194
330
167
100
AcDbEntity
  8
0
  6
Continuous
 62
     0
370
    30
100
AcDbLine
 10
976.892432
 20
659.518771
 30
0.0
 11
986.274379
 21
661.512965
 31
0.0
  0
LINE
  5
195
330
167
100
AcDbEntity
  8
0
  6
Continuous
 62
     0
370
    30
100
AcDbLine
 10
986.898113
 20
658.578528
 30
0.0
 11
986.274379
 21
661.512965
 31
0.0
  0
LINE
  5
196
330
167
100
AcDbEntity
  8
0
  6
Continuous
 62
     0
370
    30
100
AcDbLine
 10
986.898113
 20
658.578528
 30
0.0
 11
993.944887
 21
660.076366
 31
0.0
  0
LWPOLYLINE
  5
197
330
167
100
AcDbEntity
  8
0
  6
Continuous
 62
     0
370
    30
100
AcDbPolyline
 90
       12
 70
     0
 43
0.0
 10
977.516174
 20
656.584351
 10
978.399109
 20
656.455872
 10
979.288696
 20
656.378174
 10
980.181274
 20
656.358398
 10
981.072998
 20
656.40332
 10
981.958374
 20
656.516479
 10
982.831421
 20
656.700378
 10
983.686951
 20
656.954407
 10
984.520813
 20
657.273499
 10
985.329346
 20
657.6521
 10
986.111511
 20
658.082886
 10
986.898132
 20
658.578552
  0
LINE
  5
198
330
167
100
AcDbEntity
  8
0
  6
Continuous
 62
     0
370
    30
100
AcDbLine
 10
970.469391
 20
655.086495
 30
0.0
 11
971.655448
 21
654.316261
 31
0.0
  0
LINE
  5
199
330
167
100
AcDbEntity
  8
0
  6
Continuous
 62
     0
370
    30
100
AcDbLine
 10
971.655448
 20
654.316261
 30
0.0
 11
993.174653
 21
658.890309
 31
0.0
  0
LINE
  5
19A
330
167
100
AcDbEntity
  8
0
  6
Continuous
 62
     0
370
    30
100
AcDbLine
 10
993.174653
 20
658.890309
 30
0.0
 11
993.944887
 21
660.076366
 31
0.0
  0
LINE
  5
19B
330
167
100
AcDbEntity
  8
0
  6
Continuous
 62
     0
370
    30
100
AcDbLine
 10
993.944887
 20
660.076366
 30
0.0
 11
993.113238
 21
663.98897
 31
0.0
  0
LINE
  5
19C
330
167
100
AcDbEntity
  8
0
  6
Continuous
 62
     0
370
    30
100
AcDbLine
 10
753.165407
 20
519.494013
 30
0.0
 11
783.165406
 21
519.494013
 31
0.0
  0
LINE
  5
19D
330
167
100
AcDbEntity
  8
0
  6
Continuous
 62
     0
370
    30
100
AcDbLine
 10
723.165406
 20
519.494013
 30
0.0
 11
753.165407
 21
519.494013
 31
0.0
  0
LINE
  5
19E
330
167
100
AcDbEntity
  8
0
  6
Continuous
 62
     0
370
     0
100
AcDbLine
 10
753.165407
 20
527.042649
 30
0.0
 11
783.165406
 21
527.042649
 31
0.0
  0
LINE
  5
19F
330
167
100
AcDbEntity
  8
0
  6
Continuous
 62
     0
370
     0
100
AcDbLine
 10
723.165406
 20
527.042649
 30
0.0
 11
753.165407
 21
527.042649
 31
0.0
  0
LINE
  5
1A0
330
167
100
AcDbEntity
  8
0
  6
Continuous
 62
     0
370
     0
100
AcDbLine
 10
753.165407
 20
527.540086
 30
0.0
 11
782.715967
 21
527.540086
 31
0.0
  0
LINE
  5
1A1
330
167
100
AcDbEntity
  8
0
  6
Continuous
 62
     0
370
     0
100
AcDbLine
 10
723.614844
 20
527.540086
 30
0.0
 11
753.165407
 21
527.540086
 31
0.0
  0
LINE
  5
1A2
330
167
100
AcDbEntity
  8
0
  6
Continuous
 62
     0
370
     0
100
AcDbLine
 10
753.165407
 20
528.632865
 30
0.0
 11
769.471124
 21
528.632865
 31
0.0
  0
LINE
  5
1A3
330
167
100
AcDbEntity
  8
0
  6
Continuous
 62
     0
370
     0
100
AcDbLine
 10
736.859688
 20
528.632865
 30
0.0
 11
753.165407
 21
528.632865
 31
0.0
  0
LINE
  5
1A4
330
167
100
AcDbEntity
  8
0
  6
Continuous
 62
     0
370
     0
100
AcDbLine
 10
753.165406
 20
530.630641
 30
0.0
 11
767.565406
 21
530.630641
 31
0.0
  0
LINE
  5
1A5
330
167
100
AcDbEntity
  8
0
  6
Continuous
 62
     0
370
     0
100
AcDbLine
 10
738.765406
 20
530.630641
 30
0.0
 11
753.165406
 21
530.630641
 31
0.0
  0
LINE
  5
1A6
330
167
100
AcDbEntity
  8
0
  6
Continuous
 62
     0
370
    30
100
AcDbLine
 10
738.765406
 20
530.630641
 30
0.0
 11
738.765406
 21
541.494013
 31
0.0
  0
LINE
  5
1A7
330
167
100
AcDbEntity
  8
0
  6
Continuous
 62
     0
370
    30
100
AcDbLine
 10
767.565406
 20
530.630641
 30
0.0
 11
767.565406
 21
541.494013
 31
0.0
  0
ARC
  5
1A8
330
167
100
AcDbEntity
  8
0
  6
Continuous
 62
     0
370
    30
100
AcDbCircle
 10
736.76532
 20
530.630723
 30
0.0
 40
2.000085360142297
100
AcDbArc
 50
272.704314
 51
359.997667
  0
ARC
  5
1A9
330
167
100
AcDbEntity
  8
0
  6
Continuous
 62
     0
370
    30
100
AcDbCircle
 10
769.565491
 20
530.630723
 30
0.0
 40
2.000085360142323
100
AcDbArc
 50
180.002333
 51
267.295686
  0
ARC
  5
1AA
330
167
100
AcDbEntity
  8
0
  6
Continuous
 62
     0
370
    30
100
AcDbCircle
 10
745.770531
 20
339.818183
 30
0.0
 40
189.0248320112346
100
AcDbArc
 50
92.701989
 51
96.731137
  0
ARC
  5
1AB
330
167
100
AcDbEntity
  8
0
  6
Continuous
 62
     0
370
    30
100
AcDbCircle
 10
760.560281
 20
339.818183
 30
0.0
 40
189.0248320112348
100
AcDbArc
 50
83.268863
 51
87.298011
  0
ARC
  5
1AC
330
167
100
AcDbEntity
  8
0
  6
Continuous
 62
     0
370
    30
100
AcDbCircle
 10
723.665418
 20
527.042638
 30
0.0
 40
0.5000120156997547
100
AcDbArc
 50
95.805104
 51
179.998756
  0
ARC
  5
1AD
330
167
100
AcDbEntity
  8
0
  6
Continuous
 62
     0
370
    30
100
AcDbCircle
 10
782.665394
 20
527.042638
 30
0.0
 40
0.5000120156995684
100
AcDbArc
 50
0.001244
 51
84.194896
  0
LINE
  5
1AE
330
167
100
AcDbEntity
  8
0
  6
Continuous
 62
     0
370
    30
100
AcDbLine
 10
723.165406
 20
519.494013
 30
0.0
 11
723.165406
 21
527.042649
 31
0.0
  0
LINE
  5
1AF
330
167
100
AcDbEntity
  8
0
  6
Continuous
 62
     0
370
    30
100
AcDbLine
 10
783.165406
 20
519.494013
 30
0.0
 11
783.165406
 21
527.042649
 31
0.0
  0
ELLIPSE
  5
1B0
330
167
100
AcDbEntity
  8
0
  6
Continuous
 62
     0
370
     0
100
AcDbEllipse
 10
652.984824
 20
707.994013
 30
0.0
 11
0.0
 21
111.75
 31
0.0
210
0.0
220
0.0
230
1.0
 40
0.999983
 41
4.548521054877315
 42
4.876256905892065
  0
LINE
  5
1B1
330
167
100
AcDbEntity
  8
0
  6
Continuous
 62
     0
370
    30
100
AcDbLine
 10
738.165666
 20
751.494013
 30
0.0
 11
768.165406
 21
751.494013
 31
0.0
  0
LINE
  5
1B2
330
167
100
AcDbEntity
  8
0
  6
Continuous
 62
     0
370
    30
100
AcDbLine
 10
738.165666
 20
541.494013
 30
0.0
 11
768.165406
 21
541.494013
 31
0.0
  0
LINE
  5
1B3
330
167
100
AcDbEntity
  8
0
  6
Continuous
 62
     0
370
     0
100
AcDbLine
 10
737.165683
 20
542.494013
 30
0.0
 11
769.165406
 21
542.494013
 31
0.0
  0
LINE
  5
1B4
330
167
100
AcDbEntity
  8
0
  6
Continuous
 62
     0
370
     0
100
AcDbLine
 10
737.165683
 20
750.494013
 30
0.0
 11
769.165406
 21
750.494013
 31
0.0
  0
ARC
  5
1B5
330
167
100
AcDbEntity
  8
0
  6
Continuous
 62
     0
370
     0
100
AcDbCircle
 10
764.237705
 20
675.84996
 30
0.0
 40
1.00184931396236
100
AcDbArc
 50
179.900152
 51
239.648303
  0
LWPOLYLINE
  5
1B6
330
167
100
AcDbEntity
  8
0
  6
Continuous
 62
     0
370
     0
100
AcDbPolyline
 90
       14
 70
     0
 43
0.0
 10
763.903015
 20
674.119141
 10
764.641724
 20
673.717529
 10
765.333191
 20
673.341248
 10
765.974548
 20
672.992004
 10
766.563171
 20
672.671082
 10
767.096619
 20
672.379944
 10
767.572632
 20
672.11969
 10
767.98938
 20
671.891418
 10
768.345032
 20
671.696106
 10
768.638184
 20
671.534485
 10
768.867615
 20
671.407227
 10
769.032349
 20
671.314941
 10
769.131775
 20
671.257996
 10
769.165405
 20
671.236389
  0
LWPOLYLINE
  5
1B7
330
167
100
AcDbEntity
  8
0
  6
Continuous
 62
     0
370
     0
100
AcDbPolyline
 90
        7
 70
     0
 43
0.0
 10
763.903015
 20
674.119141
 10
763.632751
 20
674.293518
 10
763.382263
 20
674.517395
 10
763.163757
 20
674.791138
 10
762.991577
 20
675.111023
 10
762.880188
 20
675.467529
 10
762.840576
 20
675.851685
  0
LINE
  5
1B8
330
167
100
AcDbEntity
  8
0
  6
Continuous
 62
     0
370
     0
100
AcDbLine
 10
762.840572
 20
740.146321
 30
0.0
 11
762.840572
 21
675.851706
 31
0.0
  0
LWPOLYLINE
  5
1B9
330
167
100
AcDbEntity
  8
0
  6
Continuous
 62
     0
370
     0
100
AcDbPolyline
 90
        7
 70
     0
 43
0.0
 10
762.840576
 20
740.146301
 10
762.878723
 20
740.523743
 10
762.988892
 20
740.880615
 10
763.160034
 20
741.201233
 10
763.377686
 20
741.47583
 10
763.627625
 20
741.700623
 10
763.903015
 20
741.878906
  0
LWPOLYLINE
  5
1BA
330
167
100
AcDbEntity
  8
0
  6
Continuous
 62
     0
370
     0
100
AcDbPolyline
 90
       14
 70
     0
 43
0.0
 10
763.903015
 20
741.878906
 10
764.641724
 20
742.280518
 10
765.333191
 20
742.656738
 10
765.974548
 20
743.006042
 10
766.563171
 20
743.326904
 10
767.096619
 20
743.618103
 10
767.572632
 20
743.878357
 10
767.98938
 20
744.106628
 10
768.345032
 20
744.301941
 10
768.638184
 20
744.463562
 10
768.867615
 20
744.590759
 10
769.032349
 20
744.683044
 10
769.131775
 20
744.740051
 10
769.165405
 20
744.761597
  0
LWPOLYLINE
  5
1BB
330
167
100
AcDbEntity
  8
0
  6
Continuous
 62
     0
370
     0
100
AcDbPolyline
 90
        7
 70
     0
 43
0.0
 10
763.735413
 20
674.983154
 10
764.402161
 20
674.596497
 10
765.027954
 20
674.233276
 10
765.610535
 20
673.894897
 10
766.147522
 20
673.582703
 10
766.636963
 20
673.297791
 10
767.144775
 20
673.001709
  0
ARC
  5
1BC
330
167
100
AcDbEntity
  8
0
  6
Continuous
 62
     0
370
     0
100
AcDbCircle
 10
764.237688
 20
740.148076
 30
0.0
 40
1.001832789691257
100
AcDbArc
 50
120.351154
 51
180.100391
  0
LWPOLYLINE
  5
1BD
330
167
100
AcDbEntity
  8
0
  6
Continuous
 62
     0
370
     0
100
AcDbPolyline
 90
        7
 70
     0
 43
0.0
 10
763.735413
 20
741.014893
 10
764.402161
 20
741.40155
 10
765.027954
 20
741.764771
 10
765.610535
 20
742.103149
 10
766.147522
 20
742.415344
 10
766.636963
 20
742.700256
 10
767.144775
 20
742.996338
  0
ELLIPSE
  5
1BE
330
167
100
AcDbEntity
  8
0
  6
Continuous
 62
     0
370
     0
100
AcDbEllipse
 10
763.231917
 20
741.878885
 30
0.0
 11
0.5015425768657917
 21
-0.8651329629547223
 31
0.0
210
0.0
220
0.0
230
1.0
 40
0.616566
 41
6.279450957264054
 42
7.510693081918083
  0
LINE
  5
1BF
330
167
100
AcDbEntity
  8
0
  6
Continuous
 62
     0
370
     0
100
AcDbLine
 10
762.840572
 20
740.146321
 30
0.0
 11
763.235874
 21
740.146321
 31
0.0
  0
LINE
  5
1C0
330
167
100
AcDbEntity
  8
0
  6
Continuous
 62
     0
370
     0
100
AcDbLine
 10
763.235874
 20
675.851706
 30
0.0
 11
762.840572
 21
675.851706
 31
0.0
  0
ELLIPSE
  5
1C1
330
167
100
AcDbEntity
  8
0
  6
Continuous
 62
     0
370
     0
100
AcDbEllipse
 10
763.231917
 20
674.119142
 30
0.0
 11
-0.5015425768657903
 21
-0.8651329629547257
 31
0.0
210
0.0
220
0.0
230
1.0
 40
0.616566
 41
1.914084878851695
 42
3.145327003503122
  0
LWPOLYLINE
  5
1C2
330
167
100
AcDbEntity
  8
0
  6
Continuous
 62
     0
370
    30
100
AcDbPolyline
 90
       73
 70
     0
 43
0.0
 10
763.733459
 20
674.984314
 10
763.862366
 20
674.909546
 10
763.990173
 20
674.835449
 10
764.116821
 20
674.762024
 10
764.242188
 20
674.68927
 10
764.366394
 20
674.617249
 10
764.489319
 20
674.545898
 10
764.610962
 20
674.475342
 10
764.731262
 20
674.405518
 10
764.850281
 20
674.336426
 10
764.967896
 20
674.268127
 10
765.084167
 20
674.200684
 10
765.198975
 20
674.133972
 10
765.312378
 20
674.068115
 10
765.424316
 20
674.003113
 10
765.534729
 20
673.938965
 10
765.643677
 20
673.875671
 10
765.751038
 20
673.813232
 10
765.856873
 20
673.751709
 10
765.961182
 20
673.691101
 10
766.063782
 20
673.631409
 10
766.164856
 20
673.572632
 10
766.264221
 20
673.514771
 10
766.361938
 20
673.457947
 10
766.457947
 20
673.402039
 10
766.552246
 20
673.347107
 10
766.644775
 20
673.293213
 10
766.735596
 20
673.240295
 10
766.824585
 20
673.188477
 10
766.911804
 20
673.137634
 10
766.997192
 20
673.08783
 10
767.080688
 20
673.039124
 10
767.162231
 20
672.991516
 10
767.241943
 20
672.945007
 10
767.319702
 20
672.899597
 10
767.395508
 20
672.855347
 10
767.469299
 20
672.812195
 10
767.541138
 20
672.770203
 10
767.610962
 20
672.729309
 10
767.678711
 20
672.689636
 10
767.744446
 20
672.651123
 10
767.808105
 20
672.613831
 10
767.86969
 20
672.577759
 10
767.929199
 20
672.542847
 10
767.986511
 20
672.509155
 10
768.041687
 20
672.476685
 10
768.094727
 20
672.445496
 10
768.14563
 20
672.415527
 10
768.194336
 20
672.386841
 10
768.240784
 20
672.359436
 10
768.285095
 20
672.333252
 10
768.327148
 20
672.30835
 10
768.367004
 20
672.28479
 10
768.404602
 20
672.262451
 10
768.440002
 20
672.241394
 10
768.473206
 20
672.221558
 10
768.504211
 20
672.203064
 10
768.533081
 20
672.18573
 10
768.559753
 20
672.169678
 10
768.584412
 20
672.154785
 10
768.607239
 20
672.140869
 10
768.628357
 20
672.127991
 10
768.647949
 20
672.115906
 10
768.666565
 20
672.104248
 10
768.685181
 20
672.092407
 10
768.706116
 20
672.078796
 10
768.734985
 20
672.059082
 10
768.789917
 20
672.017883
 10
768.894897
 20
671.920593
 10
769.007019
 20
671.776611
 10
769.093323
 20
671.609314
 10
769.146912
 20
671.427429
 10
769.165405
 20
671.23645
  0
LWPOLYLINE
  5
1C3
330
167
100
AcDbEntity
  8
0
  6
Continuous
 62
     0
370
    30
100
AcDbPolyline
 90
        9
 70
     0
 43
0.0
 10
763.735413
 20
674.983154
 10
763.653687
 20
675.035767
 10
763.574951
 20
675.09845
 10
763.496948
 20
675.175171
 10
763.422729
 20
675.26709
 10
763.354309
 20
675.377869
 10
763.295898
 20
675.509644
 10
763.253967
 20
675.661743
 10
763.235901
 20
675.851685
  0
LINE
  5
1C4
330
167
100
AcDbEntity
  8
0
  6
Continuous
 62
     0
370
    30
100
AcDbLine
 10
763.235874
 20
675.851706
 30
0.0
 11
763.235874
 21
740.146321
 31
0.0
  0
LWPOLYLINE
  5
1C5
330
167
100
AcDbEntity
  8
0
  6
Continuous
 62
     0
370
    30
100
AcDbPolyline
 90
        9
 70
     0
 43
0.0
 10
763.235901
 20
740.146301
 10
763.250061
 20
740.314758
 10
763.289368
 20
740.469666
 10
763.346252
 20
740.604614
 10
763.413574
 20
740.718079
 10
763.48761
 20
740.8125
 10
763.565491
 20
740.891113
 10
763.644409
 20
740.955505
 10
763.735413
 20
741.014893
  0
LWPOLYLINE
  5
1C6
330
167
100
AcDbEntity
  8
0
  6
Continuous
 62
     0
370
    30
100
AcDbPolyline
 90
       73
 70
     0
 43
0.0
 10
763.733459
 20
741.013733
 10
763.862366
 20
741.088501
 10
763.990173
 20
741.162598
 10
764.116821
 20
741.236023
 10
764.242188
 20
741.308777
 10
764.366394
 20
741.380798
 10
764.489319
 20
741.452087
 10
764.610962
 20
741.522705
 10
764.731262
 20
741.592529
 10
764.850281
 20
741.661621
 10
764.967896
 20
741.729858
 10
765.084167
 20
741.797363
 10
765.198975
 20
741.864075
 10
765.312378
 20
741.929932
 10
765.424316
 20
741.994934
 10
765.534729
 20
742.059082
 10
765.643677
 20
742.122375
 10
765.751038
 20
742.184814
 10
765.856873
 20
742.246338
 10
765.961182
 20
742.306946
 10
766.063782
 20
742.366638
 10
766.164856
 20
742.425415
 10
766.264221
 20
742.483215
 10
766.361938
 20
742.5401
 10
766.457947
 20
742.596008
 10
766.552246
 20
742.650879
 10
766.644775
 20
742.704773
 10
766.735596
 20
742.75769
 10
766.824585
 20
742.80957
 10
766.911804
 20
742.860413
 10
766.997192
 20
742.910217
 10
767.080688
 20
742.958862
 10
767.162231
 20
743.006531
 10
767.241943
 20
743.05304
 10
767.319702
 20
743.09845
 10
767.395508
 20
743.1427
 10
767.469299
 20
743.185852
 10
767.541138
 20
743.227844
 10
767.610962
 20
743.268677
 10
767.678711
 20
743.30835
 10
767.744446
 20
743.346863
 10
767.808105
 20
743.384216
 10
767.86969
 20
743.420288
 10
767.929199
 20
743.4552
 10
767.986511
 20
743.488892
 10
768.041687
 20
743.521301
 10
768.094727
 20
743.55249
 10
768.14563
 20
743.582458
 10
768.194336
 20
743.611145
 10
768.240784
 20
743.638611
 10
768.285095
 20
743.664795
 10
768.327148
 20
743.689636
 10
768.367004
 20
743.713257
 10
768.404602
 20
743.735596
 10
768.440002
 20
743.756653
 10
768.473206
 20
743.776428
 10
768.504211
 20
743.794983
 10
768.533081
 20
743.812256
 10
768.559753
 20
743.828369
 10
768.584412
 20
743.843262
 10
768.607239
 20
743.857117
 10
768.628357
 20
743.870056
 10
768.647949
 20
743.882141
 10
768.666565
 20
743.893799
 10
768.685181
 20
743.90564
 10
768.706116
 20
743.91925
 10
768.734985
 20
743.938965
 10
768.789917
 20
743.980103
 10
768.894897
 20
744.077393
 10
769.007019
 20
744.221375
 10
769.093323
 20
744.388733
 10
769.146912
 20
744.570618
 10
769.165405
 20
744.761536
  0
LINE
  5
1C7
330
167
100
AcDbEntity
  8
0
  6
Continuous
 62
     0
370
    30
100
AcDbLine
 10
769.165406
 20
542.494013
 30
0.0
 11
769.165406
 21
671.236395
 31
0.0
  0
LINE
  5
1C8
330
167
100
AcDbEntity
  8
0
  6
Continuous
 62
     0
370
    30
100
AcDbLine
 10
769.165406
 20
744.761632
 30
0.0
 11
769.165406
 21
750.494013
 31
0.0
  0
LINE
  5
1C9
330
167
100
AcDbEntity
  8
0
  6
Continuous
 62
     0
370
    30
100
AcDbLine
 10
737.165406
 20
542.494013
 30
0.0
 11
737.165406
 21
750.494013
 31
0.0
  0
ARC
  5
1CA
330
167
100
AcDbEntity
  8
0
  6
Continuous
 62
     0
370
    30
100
AcDbCircle
 10
738.165432
 20
750.493989
 30
0.0
 40
1.00002425558625
100
AcDbArc
 50
90.001396
 51
179.99861
  0
ARC
  5
1CB
330
167
100
AcDbEntity
  8
0
  6
Continuous
 62
     0
370
    30
100
AcDbCircle
 10
768.165381
 20
750.493989
 30
0.0
 40
1.000024281702065
100
AcDbArc
 50
0.001391
 51
89.998606
  0
ARC
  5
1CC
330
167
100
AcDbEntity
  8
0
  6
Continuous
 62
     0
370
    30
100
AcDbCircle
 10
738.165433
 20
542.494039
 30
0.0
 40
1.000025363009644
100
AcDbArc
 50
180.001453
 51
269.992811
  0
ARC
  5
1CD
330
167
100
AcDbEntity
  8
0
  6
Continuous
 62
     0
370
    30
100
AcDbCircle
 10
768.16538
 20
542.494039
 30
0.0
 40
1.000025389207193
100
AcDbArc
 50
270.007187
 51
359.998545
  0
ARC
  5
1CE
330
167
100
AcDbEntity
  8
0
  6
Continuous
 62
     0
370
    30
100
AcDbCircle
 10
652.974692
 20
707.994014
 30
0.0
 40
113.7464242694125
100
AcDbArc
 50
345.779973
 51
14.220027
  0
ENDBLK
  5
1D0
330
167
100
AcDbEntity
  8
0
100
AcDbBlockEnd
  0
BLOCK
  5
241
330
1D2
100
AcDbEntity
  8
0
100
AcDbBlockBegin
  2
d
 70
     0
 10
153.153671
 20
0.0
 30
0.0
  3
d
  1

  0
LINE
  5
1D3
330
1D2
100
AcDbEntity
  8
0
  6
Continuous
 62
     0
370
    30
100
AcDbLine
 10
52.064119
 20
575.704994
 30
0.0
 11
73.535092
 21
575.705025
 31
0.0
  0
LINE
  5
1D4
330
1D2
100
AcDbEntity
  8
0
  6
Continuous
 62
     0
370
    30
100
AcDbLine
 10
52.064097
 20
606.704994
 30
0.0
 11
96.064097
 21
606.705025
 31
0.0
  0
LINE
  5
1D5
330
1D2
100
AcDbEntity
  8
0
  6
Continuous
 62
     0
370
    30
100
AcDbLine
 10
73.535092
 20
575.705025
 30
0.0
 11
96.064113
 21
583.90513
 31
0.0
  0
LINE
  5
1D6
330
1D2
100
AcDbEntity
  8
0
  6
Continuous
 62
     0
370
    30
100
AcDbLine
 10
52.064119
 20
575.704994
 30
0.0
 11
52.064116
 21
580.221687
 31
0.0
  0
LINE
  5
1D7
330
1D2
100
AcDbEntity
  8
0
  6
Continuous
 62
     0
370
    30
100
AcDbLine
 10
52.064099
 20
603.1883
 30
0.0
 11
52.064097
 21
606.704994
 31
0.0
  0
LWPOLYLINE
  5
1D8
330
1D2
100
AcDbEntity
  8
0
  6
Continuous
 62
     0
370
     0
100
AcDbPolyline
 90
       44
 70
     0
 43
0.0
 10
52.064098
 20
603.188293
 10
52.077503
 20
603.150269
 10
52.117107
 20
603.033508
 10
52.181328
 20
602.842834
 10
52.26775
 20
602.583252
 10
52.37331
 20
602.257812
 10
52.494644
 20
601.873535
 10
52.628117
 20
601.435974
 10
52.770176
 20
600.950623
 10
52.917465
 20
600.422546
 10
53.066818
 20
599.856262
 10
53.215267
 20
599.255615
 10
53.360054
 20
598.624451
 10
53.498459
 20
597.966614
 10
53.628048
 20
597.2854
 10
53.746693
 20
596.583618
 10
53.852371
 20
595.864014
 10
53.943359
 20
595.129333
 10
54.018066
 20
594.382385
 10
54.075287
 20
593.625793
 10
54.114025
 20
592.862305
 10
54.133644
 20
592.094666
 10
54.133778
 20
591.325623
 10
54.114422
 20
590.557922
 10
54.075939
 20
589.794373
 10
54.018955
 20
589.037659
 10
53.944477
 20
588.290527
 10
53.853695
 20
587.555725
 10
53.748192
 20
586.835938
 10
53.629684
 20
586.133789
 10
53.500221
 20
585.452332
 10
53.361988
 20
584.794312
 10
53.217346
 20
584.162903
 10
53.068871
 20
583.561584
 10
52.919212
 20
582.993835
 10
52.771538
 20
582.464233
 10
52.629208
 20
581.977844
 10
52.495594
 20
581.539612
 10
52.37418
 20
581.154907
 10
52.268509
 20
580.829224
 10
52.181938
 20
580.56842
 10
52.117519
 20
580.378052
 10
52.077713
 20
580.260986
 10
52.064117
 20
580.22168
  0
LINE
  5
1D9
330
1D2
100
AcDbEntity
  8
0
  6
Continuous
 62
     0
370
    30
100
AcDbLine
 10
46.976841
 20
598.189058
 30
0.0
 11
46.064103
 21
598.20499
 31
0.0
  0
LINE
  5
1DA
330
1D2
100
AcDbEntity
  8
0
  6
Continuous
 62
     0
370
     0
100
AcDbLine
 10
46.064112
 20
585.20499
 30
0.0
 11
46.064103
 21
598.20499
 31
0.0
  0
LWPOLYLINE
  5
1DB
330
1D2
100
AcDbEntity
  8
0
  6
Continuous
 62
     0
370
     0
100
AcDbPolyline
 90
       34
 70
     0
 43
0.0
 10
46.976841
 20
598.189087
 10
46.999706
 20
598.157288
 10
47.070282
 20
598.062927
 10
47.181541
 20
597.909058
 10
47.330032
 20
597.699219
 10
47.509136
 20
597.437744
 10
47.711952
 20
597.128784
 10
47.93166
 20
596.776306
 10
48.161495
 20
596.383179
 10
48.394722
 20
595.951599
 10
48.624557
 20
595.483521
 10
48.843861
 20
594.980103
 10
49.045147
 20
594.442932
 10
49.220528
 20
593.875183
 10
49.361706
 20
593.279541
 10
49.460869
 20
592.65979
 10
49.51276
 20
592.024963
 10
49.512779
 20
591.385193
 10
49.460907
 20
590.750366
 10
49.361759
 20
590.130615
 10
49.220573
 20
589.534973
 10
49.045177
 20
588.967224
 10
48.843864
 20
588.430054
 10
48.624546
 20
587.926575
 10
48.394714
 20
587.458496
 10
48.16151
 20
587.026978
 10
47.931683
 20
586.633789
 10
47.71196
 20
586.281311
 10
47.509098
 20
585.972351
 10
47.329933
 20
585.710815
 10
47.181393
 20
585.501038
 10
47.070133
 20
585.347107
 10
46.999649
 20
585.252747
 10
46.976849
 20
585.220947
  0
ARC
  5
1DC
330
1D2
100
AcDbEntity
  8
0
  6
Continuous
 62
     0
370
    30
100
AcDbCircle
 10
47.064099
 20
603.188297
 30
0.0
 40
4.999999999719183
100
AcDbArc
 50
269.000041
 51
0.000041
  0
ARC
  5
1DD
330
1D2
100
AcDbEntity
  8
0
  6
Continuous
 62
     0
370
    30
100
AcDbCircle
 10
47.064116
 20
580.221684
 30
0.0
 40
4.999999999834166
100
AcDbArc
 50
0.000041
 51
91.000041
  0
LINE
  5
1DE
330
1D2
100
AcDbEntity
  8
0
  6
Continuous
 62
     0
370
    30
100
AcDbLine
 10
-13.935897
 20
598.204941
 30
0.0
 11
-13.935888
 21
585.204953
 31
0.0
  0
LINE
  5
1DF
330
1D2
100
AcDbEntity
  8
0
  6
Continuous
 62
     0
370
    30
100
AcDbLine
 10
-13.935897
 20
598.204941
 30
0.0
 11
46.064103
 21
598.204984
 31
0.0
  0
LINE
  5
1E0
330
1D2
100
AcDbEntity
  8
0
  6
Continuous
 62
     0
370
    30
100
AcDbLine
 10
52.06412
 20
574.493977
 30
0.0
 11
52.064153
 21
528.22422
 31
0.0
  0
LINE
  5
1E1
330
1D2
100
AcDbEntity
  8
0
  6
Continuous
 62
     0
370
    30
100
AcDbLine
 10
52.06412
 20
574.493977
 30
0.0
 11
96.06412
 21
574.494008
 31
0.0
  0
LINE
  5
1E2
330
1D2
100
AcDbEntity
  8
0
  6
Continuous
 62
     0
370
    30
100
AcDbLine
 10
96.064153
 20
528.224221
 30
0.0
 11
96.06412
 21
574.494008
 31
0.0
  0
ARC
  5
1E3
330
1D2
100
AcDbEntity
  8
0
  6
Continuous
 62
     0
370
    30
100
AcDbCircle
 10
74.06406
 20
572.993954
 30
0.0
 40
20.50519692193988
100
AcDbArc
 50
4.195207
 51
27.645692
  0
ARC
  5
1E4
330
1D2
100
AcDbEntity
  8
0
  6
Continuous
 62
     0
370
    30
100
AcDbCircle
 10
74.064418
 20
572.993942
 30
0.0
 40
20.50543414426213
100
AcDbArc
 50
172.402598
 51
175.804889
  0
LINE
  5
1E5
330
1D2
100
AcDbEntity
  8
0
  6
Continuous
 62
     0
370
    30
100
AcDbLine
 10
46.064112
 20
585.204995
 30
0.0
 11
-13.935888
 21
585.204953
 31
0.0
  0
LINE
  5
1E6
330
1D2
100
AcDbEntity
  8
0
  6
Continuous
 62
     0
370
    30
100
AcDbLine
 10
46.064112
 20
585.20499
 30
0.0
 11
46.97685
 21
585.220922
 31
0.0
  0
LINE
  5
1E7
330
1D2
100
AcDbEntity
  8
0
  6
Continuous
 62
     0
370
    30
100
AcDbLine
 10
96.064113
 20
583.905177
 30
0.0
 11
96.064097
 21
606.705025
 31
0.0
  0
LINE
  5
1E8
330
1D2
100
AcDbEntity
  8
0
  6
Continuous
 62
     0
370
    30
100
AcDbLine
 10
74.064154
 20
533.993952
 30
0.0
 11
57.564154
 21
533.993952
 31
0.0
  0
LINE
  5
1E9
330
1D2
100
AcDbEntity
  8
0
  6
Continuous
 62
     0
370
    30
100
AcDbLine
 10
90.564154
 20
533.993952
 30
0.0
 11
74.064154
 21
533.993952
 31
0.0
  0
LINE
  5
1EA
330
1D2
100
AcDbEntity
  8
0
  6
Continuous
 62
     0
370
    30
100
AcDbLine
 10
74.064154
 20
552.993952
 30
0.0
 11
57.564154
 21
552.993952
 31
0.0
  0
LINE
  5
1EB
330
1D2
100
AcDbEntity
  8
0
  6
Continuous
 62
     0
370
    30
100
AcDbLine
 10
90.564154
 20
552.993952
 30
0.0
 11
74.064154
 21
552.993952
 31
0.0
  0
LINE
  5
1EC
330
1D2
100
AcDbEntity
  8
0
  6
Continuous
 62
     0
370
    30
100
AcDbLine
 10
74.064153
 20
519.493952
 30
0.0
 11
44.064154
 21
519.493952
 31
0.0
  0
LINE
  5
1ED
330
1D2
100
AcDbEntity
  8
0
  6
Continuous
 62
     0
370
    30
100
AcDbLine
 10
104.064154
 20
519.493952
 30
0.0
 11
74.064153
 21
519.493952
 31
0.0
  0
LINE
  5
1EE
330
1D2
100
AcDbEntity
  8
0
  6
Continuous
 62
     0
370
     0
100
AcDbLine
 10
74.064153
 20
526.885958
 30
0.0
 11
44.064154
 21
526.885958
 31
0.0
  0
LINE
  5
1EF
330
1D2
100
AcDbEntity
  8
0
  6
Continuous
 62
     0
370
     0
100
AcDbLine
 10
104.064154
 20
526.885958
 30
0.0
 11
74.064153
 21
526.885958
 31
0.0
  0
LINE
  5
1F0
330
1D2
100
AcDbEntity
  8
0
  6
Continuous
 62
     0
370
     0
100
AcDbLine
 10
74.064153
 20
527.884851
 30
0.0
 11
45.017116
 21
527.884851
 31
0.0
  0
LINE
  5
1F1
330
1D2
100
AcDbEntity
  8
0
  6
Continuous
 62
     0
370
     0
100
AcDbLine
 10
103.111193
 20
527.884851
 30
0.0
 11
74.064153
 21
527.884851
 31
0.0
  0
LINE
  5
1F2
330
1D2
100
AcDbEntity
  8
0
  6
Continuous
 62
     0
370
     0
100
AcDbLine
 10
74.064154
 20
528.456476
 30
0.0
 11
56.715861
 21
528.456476
 31
0.0
  0
LINE
  5
1F3
330
1D2
100
AcDbEntity
  8
0
  6
Continuous
 62
     0
370
     0
100
AcDbLine
 10
91.412448
 20
528.456476
 30
0.0
 11
74.064154
 21
528.456476
 31
0.0
  0
LINE
  5
1F4
330
1D2
100
AcDbEntity
  8
0
  6
Continuous
 62
     0
370
     0
100
AcDbLine
 10
74.064154
 20
531.452638
 30
0.0
 11
59.564154
 21
531.452638
 31
0.0
  0
LINE
  5
1F5
330
1D2
100
AcDbEntity
  8
0
  6
Continuous
 62
     0
370
     0
100
AcDbLine
 10
88.564154
 20
531.452638
 30
0.0
 11
74.064154
 21
531.452638
 31
0.0
  0
LINE
  5
1F6
330
1D2
100
AcDbEntity
  8
0
  6
Continuous
 62
     0
370
    30
100
AcDbLine
 10
59.564154
 20
533.993952
 30
0.0
 11
59.564154
 21
531.452638
 31
0.0
  0
LINE
  5
1F7
330
1D2
100
AcDbEntity
  8
0
  6
Continuous
 62
     0
370
    30
100
AcDbLine
 10
88.564154
 20
533.993952
 30
0.0
 11
88.564154
 21
531.452638
 31
0.0
  0
ARC
  5
1F8
330
1D2
100
AcDbEntity
  8
0
  6
Continuous
 62
     0
370
    30
100
AcDbCircle
 10
56.564249
 20
531.452548
 30
0.0
 40
2.999905253447269
100
AcDbArc
 50
272.896894
 51
0.00172
  0
ARC
  5
1F9
330
1D2
100
AcDbEntity
  8
0
  6
Continuous
 62
     0
370
    30
100
AcDbCircle
 10
91.56406
 20
531.452548
 30
0.0
 40
2.999905253447274
100
AcDbArc
 50
179.99828
 51
267.103106
  0
ARC
  5
1FA
330
1D2
100
AcDbEntity
  8
0
  6
Continuous
 62
     0
370
    30
100
AcDbCircle
 10
-110.8749
 20
3838.331049
 30
0.0
 40
3314.114716480271
100
AcDbArc
 50
272.69612
 51
272.898614
  0
ARC
  5
1FB
330
1D2
100
AcDbEntity
  8
0
  6
Continuous
 62
     0
370
    30
100
AcDbCircle
 10
259.003209
 20
3838.331049
 30
0.0
 40
3314.114716480159
100
AcDbArc
 50
267.101386
 51
267.30388
  0
ARC
  5
1FC
330
1D2
100
AcDbEntity
  8
0
  6
Continuous
 62
     0
370
    30
100
AcDbCircle
 10
45.06417
 20
526.885943
 30
0.0
 40
1.000015640759264
100
AcDbArc
 50
92.696975
 51
179.999145
  0
ARC
  5
1FD
330
1D2
100
AcDbEntity
  8
0
  6
Continuous
 62
     0
370
    30
100
AcDbCircle
 10
103.064139
 20
526.885943
 30
0.0
 40
1.000015640759221
100
AcDbArc
 50
0.000855
 51
87.303025
  0
LINE
  5
1FE
330
1D2
100
AcDbEntity
  8
0
  6
Continuous
 62
     0
370
    30
100
AcDbLine
 10
44.064154
 20
526.885958
 30
0.0
 11
44.064154
 21
519.493952
 31
0.0
  0
LINE
  5
1FF
330
1D2
100
AcDbEntity
  8
0
  6
Continuous
 62
     0
370
    30
100
AcDbLine
 10
104.064154
 20
526.885958
 30
0.0
 11
104.064154
 21
519.493952
 31
0.0
  0
ARC
  5
200
330
1D2
100
AcDbEntity
  8
0
  6
Continuous
 62
     0
370
    30
100
AcDbCircle
 10
74.064067
 20
417.367519
 30
0.0
 40
136.6264335622447
100
AcDbArc
 50
83.063578
 51
89.992338
  0
ARC
  5
201
330
1D2
100
AcDbEntity
  8
0
  6
Continuous
 62
     0
370
    30
100
AcDbCircle
 10
74.064241
 20
417.367519
 30
0.0
 40
136.6264335622424
100
AcDbArc
 50
90.007662
 51
96.936422
  0
LINE
  5
202
330
1D2
100
AcDbEntity
  8
0
  6
Continuous
 62
     0
370
    30
100
AcDbLine
 10
57.564154
 20
552.993952
 30
0.0
 11
57.564154
 21
533.993952
 31
0.0
  0
LINE
  5
203
330
1D2
100
AcDbEntity
  8
0
  6
Continuous
 62
     0
370
    30
100
AcDbLine
 10
90.564154
 20
552.993952
 30
0.0
 11
90.564154
 21
533.993952
 31
0.0
  0
LINE
  5
204
330
1D2
100
AcDbEntity
  8
0
  6
Continuous
 62
     0
370
    30
100
AcDbLine
 10
44.064163
 20
526.885958
 30
0.0
 11
44.064163
 21
527.042588
 31
0.0
  0
LINE
  5
205
330
1D2
100
AcDbEntity
  8
0
  6
Continuous
 62
     0
370
     0
100
AcDbLine
 10
44.076537
 20
527.042588
 30
0.0
 11
44.064163
 21
527.042588
 31
0.0
  0
LINE
  5
206
330
1D2
100
AcDbEntity
  8
0
  6
Continuous
 62
     0
370
     0
100
AcDbLine
 10
104.064163
 20
527.042588
 30
0.0
 11
104.051789
 21
527.042588
 31
0.0
  0
ARC
  5
207
330
1D2
100
AcDbEntity
  8
0
  6
Continuous
 62
     0
370
    30
100
AcDbCircle
 10
44.564163
 20
527.042588
 30
0.0
 40
0.49999999999801
100
AcDbArc
 50
137.6859
 51
180.0
  0
ARC
  5
208
330
1D2
100
AcDbEntity
  8
0
  6
Continuous
 62
     0
370
    30
100
AcDbCircle
 10
66.669234
 20
339.818777
 30
0.0
 40
189.0241757779861
100
AcDbArc
 50
94.431413
 51
94.927703
  0
ARC
  5
209
330
1D2
100
AcDbEntity
  8
0
  6
Continuous
 62
     0
370
    30
100
AcDbCircle
 10
81.46025
 20
339.83442
 30
0.0
 40
189.008489850357
100
AcDbArc
 50
85.072247
 51
85.568574
  0
ARC
  5
20A
330
1D2
100
AcDbEntity
  8
0
  6
Continuous
 62
     0
370
    30
100
AcDbCircle
 10
103.563436
 20
527.042299
 30
0.0
 40
0.5007270677676698
100
AcDbArc
 50
0.03306
 51
42.279965
  0
LINE
  5
20B
330
1D2
100
AcDbEntity
  8
0
  6
Continuous
 62
     0
370
    30
100
AcDbLine
 10
104.064163
 20
527.042588
 30
0.0
 11
104.064163
 21
526.885958
 31
0.0
  0
LINE
  5
20C
330
1D2
100
AcDbEntity
  8
0
  6
Continuous
 62
     0
370
     0
100
AcDbLine
 10
88.064163
 20
641.493952
 30
0.0
 11
74.064163
 21
641.493952
 31
0.0
  0
LINE
  5
20D
330
1D2
100
AcDbEntity
  8
0
  6
Continuous
 62
     0
370
     0
100
AcDbLine
 10
74.064163
 20
641.493952
 30
0.0
 11
60.064163
 21
641.493952
 31
0.0
  0
LINE
  5
20E
330
1D2
100
AcDbEntity
  8
0
  6
Continuous
 62
     0
370
     0
100
AcDbLine
 10
-163.051981
 20
683.070957
 30
0.0
 11
-149.799067
 21
678.558724
 31
0.0
  0
LINE
  5
20F
330
1D2
100
AcDbEntity
  8
0
  6
Continuous
 62
     0
370
     0
100
AcDbLine
 10
-149.799067
 20
678.558724
 30
0.0
 11
-136.546151
 21
674.046491
 31
0.0
  0
LINE
  5
210
330
1D2
100
AcDbEntity
  8
0
  6
Continuous
 62
     0
370
     0
100
AcDbLine
 10
-166.644215
 20
670.03042
 30
0.0
 11
-152.950149
 21
667.119657
 31
0.0
  0
LINE
  5
211
330
1D2
100
AcDbEntity
  8
0
  6
Continuous
 62
     0
370
     0
100
AcDbLine
 10
-152.950149
 20
667.119657
 30
0.0
 11
-139.256082
 21
664.208893
 31
0.0
  0
LINE
  5
212
330
1D2
100
AcDbEntity
  8
0
  6
Continuous
 62
     0
370
    30
100
AcDbLine
 10
-167.839991
 20
664.404737
 30
0.0
 11
-154.145925
 21
661.493973
 31
0.0
  0
LINE
  5
213
330
1D2
100
AcDbEntity
  8
0
  6
Continuous
 62
     0
370
    30
100
AcDbLine
 10
-154.145925
 20
661.493973
 30
0.0
 11
-140.451858
 21
658.58321
 31
0.0
  0
LINE
  5
214
330
1D2
100
AcDbEntity
  8
0
  6
Continuous
 62
     0
370
    30
100
AcDbLine
 10
-167.839991
 20
664.404737
 30
0.0
 11
-166.644215
 21
670.03042
 31
0.0
  0
LINE
  5
215
330
1D2
100
AcDbEntity
  8
0
  6
Continuous
 62
     0
370
    30
100
AcDbLine
 10
-140.451858
 20
658.58321
 30
0.0
 11
-139.256082
 21
664.208893
 31
0.0
  0
ARC
  5
216
330
1D2
100
AcDbEntity
  8
0
  6
Continuous
 62
     0
370
    30
100
AcDbCircle
 10
-55.1343
 20
646.328188
 30
0.0
 40
114.0011270761854
100
AcDbArc
 50
161.197814
 51
167.999966
  0
ARC
  5
217
330
1D2
100
AcDbEntity
  8
0
  6
Continuous
 62
     0
370
    30
100
AcDbCircle
 10
-55.134567
 20
646.328261
 30
0.0
 40
86.00085025061279
100
AcDbArc
 50
161.197814
 51
167.999966
  0
ARC
  5
218
330
1D2
100
AcDbEntity
  8
0
  6
Continuous
 62
     0
370
    30
100
AcDbCircle
 10
-40.935837
 20
641.493952
 30
0.0
 40
129.0000000606779
100
AcDbArc
 50
0.0
 51
161.197781
  0
ARC
  5
219
330
1D2
100
AcDbEntity
  8
0
  6
Continuous
 62
     0
370
    30
100
AcDbCircle
 10
-40.935901
 20
641.493566
 30
0.0
 40
101.0000638967309
100
AcDbArc
 50
0.000219
 51
161.197562
  0
LINE
  5
21A
330
1D2
100
AcDbEntity
  8
0
  6
Continuous
 62
     0
370
    30
100
AcDbLine
 10
88.064163
 20
641.493952
 30
0.0
 11
88.064163
 21
606.705032
 31
0.0
  0
LINE
  5
21B
330
1D2
100
AcDbEntity
  8
0
  6
Continuous
 62
     0
370
    30
100
AcDbLine
 10
60.064163
 20
641.493952
 30
0.0
 11
60.064163
 21
606.705012
 31
0.0
  0
LINE
  5
21C
330
1D2
100
AcDbEntity
  8
0
  6
Continuous
 62
     0
370
    30
100
AcDbLine
 10
-142.408177
 20
658.999038
 30
0.0
 11
-143.239826
 21
655.086434
 31
0.0
  0
LINE
  5
21D
330
1D2
100
AcDbEntity
  8
0
  6
Continuous
 62
     0
370
    30
100
AcDbLine
 10
-166.715322
 20
660.076305
 30
0.0
 11
-159.668548
 21
658.578467
 31
0.0
  0
LINE
  5
21E
330
1D2
100
AcDbEntity
  8
0
  6
Continuous
 62
     0
370
    30
100
AcDbLine
 10
-159.668548
 20
658.578467
 30
0.0
 11
-159.044814
 21
661.512904
 31
0.0
  0
LINE
  5
21F
330
1D2
100
AcDbEntity
  8
0
  6
Continuous
 62
     0
370
    30
100
AcDbLine
 10
-149.662868
 20
659.51871
 30
0.0
 11
-159.044814
 21
661.512904
 31
0.0
  0
LINE
  5
220
330
1D2
100
AcDbEntity
  8
0
  6
Continuous
 62
     0
370
    30
100
AcDbLine
 10
-149.662868
 20
659.51871
 30
0.0
 11
-150.286602
 21
656.584273
 31
0.0
  0
LINE
  5
221
330
1D2
100
AcDbEntity
  8
0
  6
Continuous
 62
     0
370
    30
100
AcDbLine
 10
-150.286602
 20
656.584273
 30
0.0
 11
-143.239826
 21
655.086434
 31
0.0
  0
LWPOLYLINE
  5
222
330
1D2
100
AcDbEntity
  8
0
  6
Continuous
 62
     0
370
    30
100
AcDbPolyline
 90
       12
 70
     0
 43
0.0
 10
-150.286606
 20
656.58429
 10
-151.169113
 20
656.455872
 10
-152.05806
 20
656.378235
 10
-152.949951
 20
656.358398
 10
-153.840866
 20
656.40271
 10
-154.725677
 20
656.515686
 10
-155.598511
 20
656.699402
 10
-156.453796
 20
656.952698
 10
-157.286896
 20
657.271484
 10
-158.094849
 20
657.64978
 10
-158.876724
 20
658.079895
 10
-159.668549
 20
658.578491
  0
LINE
  5
223
330
1D2
100
AcDbEntity
  8
0
  6
Continuous
 62
     0
370
    30
100
AcDbLine
 10
-143.239826
 20
655.086434
 30
0.0
 11
-144.425883
 21
654.3162
 31
0.0
  0
LINE
  5
224
330
1D2
100
AcDbEntity
  8
0
  6
Continuous
 62
     0
370
    30
100
AcDbLine
 10
-165.945088
 20
658.890248
 30
0.0
 11
-144.425883
 21
654.3162
 31
0.0
  0
LINE
  5
225
330
1D2
100
AcDbEntity
  8
0
  6
Continuous
 62
     0
370
    30
100
AcDbLine
 10
-165.945088
 20
658.890248
 30
0.0
 11
-166.715322
 21
660.076305
 31
0.0
  0
LINE
  5
226
330
1D2
100
AcDbEntity
  8
0
  6
Continuous
 62
     0
370
    30
100
AcDbLine
 10
-166.715322
 20
660.076305
 30
0.0
 11
-165.883673
 21
663.988909
 31
0.0
  0
ELLIPSE
  5
227
330
1D2
100
AcDbEntity
  8
0
  6
Continuous
 62
     0
370
     0
100
AcDbEllipse
 10
174.380112
 20
707.993952
 30
0.0
 11
0.0
 21
-111.75
 31
0.0
210
0.0
220
0.0
230
-1.0
 40
0.999983
 41
1.658795862099528
 42
1.734826539990513
  0
LWPOLYLINE
  5
228
330
1D2
100
AcDbEntity
  8
0
  6
Continuous
 62
     0
370
    30
100
AcDbPolyline
 90
       39
 70
     0
 43
0.0
 10
64.132019
 20
726.242249
 10
64.132019
 20
726.513489
 10
64.132011
 20
726.784729
 10
64.131996
 20
727.055969
 10
64.131973
 20
727.327209
 10
64.131943
 20
727.59845
 10
64.131905
 20
727.869629
 10
64.131866
 20
728.140808
 10
64.131813
 20
728.411926
 10
64.131752
 20
728.683044
 10
64.131683
 20
728.954041
 10
64.131607
 20
729.224976
 10
64.131516
 20
729.49585
 10
64.131424
 20
729.766602
 10
64.131317
 20
730.037292
 10
64.131195
 20
730.3078
 10
64.131065
 20
730.578125
 10
64.13092
 20
730.848267
 10
64.130768
 20
731.118225
 10
64.130592
 20
731.387939
 10
64.130409
 20
731.657349
 10
64.130203
 20
731.926392
 10
64.129982
 20
732.195068
 10
64.129738
 20
732.463196
 10
64.129478
 20
732.730774
 10
64.129196
 20
732.997681
 10
64.128883
 20
733.263794
 10
64.128548
 20
733.528931
 10
64.128174
 20
733.792786
 10
64.127769
 20
734.055115
 10
64.127319
 20
734.31543
 10
64.126823
 20
734.573181
 10
64.126266
 20
734.827515
 10
64.125641
 20
735.076843
 10
64.124924
 20
735.318848
 10
64.124077
 20
735.548767
 10
64.123055
 20
735.757202
 10
64.121796
 20
735.92218
 10
64.120255
 20
735.993958
  0
ELLIPSE
  5
229
330
1D2
100
AcDbEntity
  8
0
  6
Continuous
 62
     0
370
     0
100
AcDbEllipse
 10
174.368341
 20
707.993952
 30
0.0
 11
0.0
 21
-113.75
 31
0.0
210
0.0
220
0.0
230
-1.0
 40
0.999983
 41
1.678253574814095
 42
1.819506315888427
  0
ELLIPSE
  5
22A
330
1D2
100
AcDbEntity
  8
0
  6
Continuous
 62
     0
370
     0
100
AcDbEllipse
 10
174.256521
 20
707.993952
 30
0.0
 11
0.0
 21
-113.75
 31
0.0
210
0.0
220
0.0
230
-1.0
 40
0.999983
 41
1.679377992676794
 42
1.819506315888415
  0
LINE
  5
22B
330
1D2
100
AcDbEntity
  8
0
  6
Continuous
 62
     0
370
    30
100
AcDbLine
 10
64.132021
 20
716.338747
 30
0.0
 11
64.132021
 21
726.24224
 31
0.0
  0
LINE
  5
22C
330
1D2
100
AcDbEntity
  8
0
  6
Continuous
 62
     0
370
    30
100
AcDbLine
 10
64.120251
 20
735.993952
 30
0.0
 11
64.008431
 21
735.993952
 31
0.0
  0
LINE
  5
22D
330
1D2
100
AcDbEntity
  8
0
  6
Continuous
 62
     0
370
    30
100
AcDbLine
 10
59.064427
 20
751.493952
 30
0.0
 11
89.064168
 21
751.493952
 31
0.0
  0
LINE
  5
22E
330
1D2
100
AcDbEntity
  8
0
  6
Continuous
 62
     0
370
     0
100
AcDbLine
 10
58.064445
 20
750.493952
 30
0.0
 11
90.064168
 21
750.493952
 31
0.0
  0
LINE
  5
22F
330
1D2
100
AcDbEntity
  8
0
  6
Continuous
 62
     0
370
     0
100
AcDbLine
 10
64.539665
 20
740.14626
 30
0.0
 11
64.539665
 21
715.763177
 31
0.0
  0
LWPOLYLINE
  5
230
330
1D2
100
AcDbEntity
  8
0
  6
Continuous
 62
     0
370
     0
100
AcDbPolyline
 90
       14
 70
     0
 43
0.0
 10
58.064175
 20
744.761536
 10
58.098839
 20
744.746094
 10
58.200874
 20
744.694214
 10
58.369854
 20
744.60614
 10
58.605064
 20
744.482178
 10
58.905506
 20
744.322937
 10
59.269917
 20
744.129028
 10
59.696762
 20
743.901306
 10
60.184231
 20
743.640686
 10
60.730274
 20
743.348267
 10
61.332588
 20
743.025391
 10
61.988625
 20
742.673279
 10
62.695621
 20
742.293457
 10
63.466919
 20
741.878845
  0
LWPOLYLINE
  5
231
330
1D2
100
AcDbEntity
  8
0
  6
Continuous
 62
     0
370
     0
100
AcDbPolyline
 90
        7
 70
     0
 43
0.0
 10
64.539665
 20
740.14624
 10
64.501083
 20
740.523987
 10
64.389755
 20
740.881165
 10
64.216789
 20
741.201965
 10
63.996735
 20
741.476624
 10
63.744022
 20
741.701416
 10
63.466919
 20
741.878845
  0
LINE
  5
232
330
1D2
100
AcDbEntity
  8
0
  6
Continuous
 62
     0
370
     0
100
AcDbLine
 10
64.134964
 20
740.14626
 30
0.0
 11
63.993718
 21
740.14626
 31
0.0
  0
LINE
  5
233
330
1D2
100
AcDbEntity
  8
0
  6
Continuous
 62
     0
370
     0
100
AcDbLine
 10
63.993718
 20
740.14626
 30
0.0
 11
63.993718
 21
735.935954
 31
0.0
  0
LINE
  5
234
330
1D2
100
AcDbEntity
  8
0
  6
Continuous
 62
     0
370
     0
100
AcDbLine
 10
64.134964
 20
740.14626
 30
0.0
 11
64.134964
 21
716.334616
 31
0.0
  0
ARC
  5
235
330
1D2
100
AcDbEntity
  8
0
  6
Continuous
 62
     0
370
     0
100
AcDbCircle
 10
63.137133
 20
740.144759
 30
0.0
 40
0.997832078034161
100
AcDbArc
 50
0.086186
 51
60.420088
  0
LINE
  5
236
330
1D2
100
AcDbEntity
  8
0
  6
Continuous
 62
     0
370
     0
100
AcDbLine
 10
63.6297
 20
741.012542
 30
0.0
 11
63.498111
 21
741.012542
 31
0.0
  0
ARC
  5
237
330
1D2
100
AcDbEntity
  8
0
  6
Continuous
 62
     0
370
     0
100
AcDbCircle
 10
62.991886
 20
740.148015
 30
0.0
 40
1.001832758035232
100
AcDbArc
 50
359.899611
 51
59.648852
  0
LWPOLYLINE
  5
238
330
1D2
100
AcDbEntity
  8
0
  6
Continuous
 62
     0
370
     0
100
AcDbPolyline
 90
       26
 70
     0
 43
0.0
 10
63.498112
 20
741.012512
 10
62.773567
 20
741.432739
 10
62.097813
 20
741.824951
 10
61.473896
 20
742.187439
 10
60.904644
 20
742.518494
 10
60.392624
 20
742.816711
 10
59.940155
 20
743.080688
 10
59.549282
 20
743.309265
 10
59.221771
 20
743.501343
 10
58.959103
 20
743.656128
 10
58.762466
 20
743.772888
 10
58.632751
 20
743.851074
 10
58.570541
 20
743.890381
 10
58.576118
 20
743.890564
 10
58.649456
 20
743.851685
 10
58.790226
 20
743.773926
 10
58.997791
 20
743.657593
 10
59.27121
 20
743.503174
 10
59.609249
 20
743.311462
 10
60.010384
 20
743.083313
 10
60.472794
 20
742.819702
 10
60.994389
 20
742.521851
 10
61.572815
 20
742.191101
 10
62.205456
 20
741.828918
 10
62.88945
 20
741.437012
 10
63.6297
 20
741.012512
  0
LINE
  5
239
330
1D2
100
AcDbEntity
  8
0
  6
Continuous
 62
     0
370
     0
100
AcDbLine
 10
64.134964
 20
740.14626
 30
0.0
 11
64.539665
 21
740.14626
 31
0.0
  0
ELLIPSE
  5
23A
330
1D2
100
AcDbEntity
  8
0
  6
Continuous
 62
     0
370
     0
100
AcDbEllipse
 10
64.129247
 20
741.878823
 30
0.0
 11
-0.4975950208254027
 21
-0.8674094738067893
 31
0.0
210
0.0
220
0.0
230
-1.0
 40
0.608506
 41
0.0037049023130142
 42
1.234947026969309
  0
LWPOLYLINE
  5
23B
330
1D2
100
AcDbEntity
  8
0
  6
Continuous
 62
     0
370
    30
100
AcDbPolyline
 90
       73
 70
     0
 43
0.0
 10
63.496147
 20
741.013672
 10
63.367191
 20
741.08844
 10
63.239391
 20
741.162537
 10
63.112774
 20
741.235962
 10
62.987358
 20
741.308716
 10
62.863178
 20
741.380737
 10
62.740253
 20
741.452026
 10
62.618614
 20
741.522644
 10
62.498283
 20
741.592468
 10
62.379288
 20
741.66156
 10
62.261658
 20
741.729797
 10
62.145412
 20
741.797302
 10
62.030579
 20
741.864014
 10
61.917191
 20
741.929871
 10
61.805264
 20
741.994873
 10
61.694824
 20
742.059021
 10
61.585899
 20
742.122314
 10
61.478508
 20
742.184753
 10
61.372673
 20
742.246277
 10
61.268417
 20
742.306885
 10
61.165768
 20
742.366577
 10
61.064739
 20
742.425354
 10
60.965363
 20
742.483154
 10
60.867657
 20
742.540039
 10
60.771645
 20
742.595947
 10
60.677349
 20
742.650818
 10
60.584789
 20
742.704712
 10
60.493988
 20
742.757629
 10
60.404972
 20
742.809509
 10
60.317768
 20
742.860352
 10
60.232407
 20
742.910156
 10
60.148914
 20
742.958801
 10
60.067314
 20
743.00647
 10
59.987633
 20
743.052979
 10
59.909885
 20
743.098389
 10
59.834095
 20
743.142639
 10
59.760273
 20
743.185791
 10
59.688446
 20
743.227783
 10
59.618629
 20
743.268616
 10
59.550846
 20
743.308289
 10
59.485111
 20
743.346802
 10
59.421444
 20
743.384155
 10
59.359871
 20
743.420227
 10
59.3004
 20
743.455139
 10
59.243057
 20
743.488831
 10
59.187859
 20
743.52124
 10
59.134815
 20
743.552429
 10
59.083942
 20
743.582397
 10
59.035255
 20
743.611084
 10
58.988762
 20
743.63855
 10
58.944477
 20
743.664734
 10
58.902416
 20
743.689575
 10
58.862587
 20
743.713196
 10
58.824974
 20
743.735535
 10
58.78957
 20
743.756592
 10
58.756371
 20
743.776367
 10
58.725357
 20
743.794922
 10
58.696522
 20
743.812195
 10
58.669827
 20
743.828308
 10
58.645149
 20
743.843201
 10
58.622334
 20
743.857056
 10
58.601234
 20
743.869995
 10
58.58165
 20
743.88208
 10
58.563019
 20
743.893738
 10
58.544365
 20
743.905579
 10
58.523449
 20
743.919189
 10
58.494587
 20
743.938904
 10
58.439686
 20
743.980042
 10
58.33466
 20
744.077332
 10
58.222553
 20
744.221313
 10
58.136238
 20
744.388672
 10
58.082649
 20
744.570557
 10
58.064171
 20
744.761475
  0
LINE
  5
23C
330
1D2
100
AcDbEntity
  8
0
  6
Continuous
 62
     0
370
    30
100
AcDbLine
 10
58.064168
 20
606.705009
 30
0.0
 11
58.064168
 21
661.493967
 31
0.0
  0
LINE
  5
23D
330
1D2
100
AcDbEntity
  8
0
  6
Continuous
 62
     0
370
    30
100
AcDbLine
 10
58.064168
 20
744.761571
 30
0.0
 11
58.064168
 21
750.493952
 31
0.0
  0
LINE
  5
23E
330
1D2
100
AcDbEntity
  8
0
  6
Continuous
 62
     0
370
    30
100
AcDbLine
 10
90.064168
 20
606.705032
 30
0.0
 11
90.064168
 21
750.493952
 31
0.0
  0
ARC
  5
23F
330
1D2
100
AcDbEntity
  8
0
  6
Continuous
 62
     0
370
    30
100
AcDbCircle
 10
89.064142
 20
750.493928
 30
0.0
 40
1.000024255589149
100
AcDbArc
 50
0.00139
 51
89.998604
  0
ARC
  5
240
330
1D2
100
AcDbEntity
  8
0
  6
Continuous
 62
     0
370
    30
100
AcDbCircle
 10
59.064193
 20
750.493928
 30
0.0
 40
1.000024281703802
100
AcDbArc
 50
90.001394
 51
179.998609
  0
ENDBLK
  5
242
330
1D2
100
AcDbEntity
  8
0
100
AcDbBlockEnd
  0
ENDSEC
  0
SECTION
  2
ENTITIES
  0
INSERT
  5
123
330
1F
100
AcDbEntity
  8
0
  6
Continuous
 62
     7
420
 16250871
370
     0
100
AcDbBlockReference
  2
a
 10
197.136108
 20
134.460022
 30
0.0
  0
INSERT
  5
166
330
1F
100
AcDbEntity
  8
0
  6
Continuous
 62
     7
420
 16250871
370
     0
100
AcDbBlockReference
  2
b
 10
197.136108
 20
107.950439
 30
0.0
  0
INSERT
  5
1D1
330
1F
100
AcDbEntity
  8
0
  6
Continuous
 62
     7
420
 16250871
370
     0
100
AcDbBlockReference
  2
c
 10
251.473938
 20
134.460022
 30
0.0
  0
INSERT
  5
243
330
1F
100
AcDbEntity
  8
0
  6
Continuous
 62
     7
420
 16250871
370
     0
100
AcDbBlockReference
  2
d
 10
153.153671
 20
0.0
 30
0.0
  0
ENDSEC
  0
SECTION
  2
OBJECTS
  0
DICTIONARY
  5
C
330
0
100
AcDbDictionary
281
     1
  3
ACAD_DETAILVIEWSTYLE
350
27B
  3
ACAD_GROUP
350
D
  3
ACAD_LAYOUT
350
1A
  3
ACAD_MATERIAL
350
43
  3
ACAD_MLEADERSTYLE
350
6B
  3
ACAD_MLINESTYLE
350
17
  3
ACAD_PLOTSETTINGS
350
19
  3
ACAD_PLOTSTYLENAME
350
E
  3
ACAD_SCALELIST
350
47
  3
ACAD_SECTIONVIEWSTYLE
350
27C
  3
ACAD_TABLESTYLE
350
69
  3
ACAD_VISUALSTYLE
350
2A
  3
ACDB_RECOMPOSE_DATA
350
278
  3
AcDbVariableDictionary
350
244
  0
SUN
  5
6D
330
29
100
AcDbSun
 90
        1
290
     0
 63
     7
421
 16777215
 40
1.0
291
     1
 91
  2455826
 92
 54000000
292
     0
 70
     2
 71
   256
280
     1
  0
DICTIONARY
  5
27B
102
{ACAD_REACTORS
330
C
102
}
330
C
100
AcDbDictionary
281
     1
  0
DICTIONARY
  5
D
102
{ACAD_REACTORS
330
C
102
}
330
C
100
AcDbDictionary
281
     1
  0
DICTIONARY
  5
1A
102
{ACAD_REACTORS
330
C
102
}
330
C
100
AcDbDictionary
281
     1
  3
Layout1
350
1E
  3
Layout2
350
26
  3
Model
350
22
  0
DICTIONARY
  5
43
102
{ACAD_REACTORS
330
C
102
}
330
C
100
AcDbDictionary
281
     1
  3
ByBlock
350
45
  3
ByLayer
350
44
  3
Global
350
46
  0
DICTIONARY
  5
6B
102
{ACAD_REACTORS
330
C
102
}
330
C
100
AcDbDictionary
281
     1
  3
Standard
350
6C
  0
DICTIONARY
  5
17
102
{ACAD_REACTORS
330
C
102
}
330
C
100
AcDbDictionary
281
     1
  3
Standard
350
18
  0
DICTIONARY
  5
19
102
{ACAD_REACTORS
330
C
102
}
330
C
100
AcDbDictionary
281
     1
  0
ACDBDICTIONARYWDFLT
  5
E
102
{ACAD_REACTORS
330
C
102
}
330
C
100
AcDbDictionary
281
     1
  3
Normal
350
F
100
AcDbDictionaryWithDefault
340
F
  0
DICTIONARY
  5
47
102
{ACAD_REACTORS
330
C
102
}
330
C
100
AcDbDictionary
281
     1
  3
A0
350
48
  3
A1
350
49
  3
A2
350
4A
  3
A3
350
4B
  3
A4
350
4C
  3
A5
350
4D
  3
A6
350
4E
  3
A7
350
4F
  3
A8
350
50
  3
A9
350
51
  3
B0
350
52
  3
B1
350
53
  3
B2
350
54
  3
B3
350
55
  3
B4
350
56
  3
B5
350
57
  3
B6
350
58
  3
B7
350
59
  3
B8
350
5A
  3
B9
350
5B
  3
C0
350
5C
  3
C1
350
5D
  3
C2
350
5E
  3
C3
350
5F
  3
C4
350
60
  3
C5
350
61
  3
C6
350
62
  3
C7
350
63
  3
C8
350
64
  3
C9
350
65
  3
D0
350
66
  3
D1
350
67
  3
D2
350
68
  0
DICTIONARY
  5
27C
102
{ACAD_REACTORS
330
C
102
}
330
C
100
AcDbDictionary
281
     1
  0
DICTIONARY
  5
69
102
{ACAD_REACTORS
330
C
102
}
330
C
100
AcDbDictionary
281
     1
  3
Standard
350
6A
  0
DICTIONARY
  5
2A
102
{ACAD_REACTORS
330
C
102
}
330
C
100
AcDbDictionary
281
     1
  3
2dWireframe
350
2F
  3
Basic
350
32
  3
Brighten
350
36
  3
ColorChange
350
3A
  3
Conceptual
350
34
  3
Dim
350
35
  3
EdgeColorOff
350
3D
  3
Facepattern
350
39
  3
Flat
350
2B
  3
FlatWithEdges
350
2C
  3
Gouraud
350
2D
  3
GouraudWithEdges
350
2E
  3
Hidden
350
31
  3
JitterOff
350
3B
  3
Linepattern
350
38
  3
OverhangOff
350
3C
  3
Realistic
350
33
  3
Shaded
350
42
  3
Shaded with edges
350
41
  3
Shades of Gray
350
3E
  3
Sketchy
350
3F
  3
Thicken
350
37
  3
Wireframe
350
30
  3
X-Ray
350
40
  0
XRECORD
  5
278
102
{ACAD_REACTORS
330
C
102
}
330
C
100
AcDbXrecord
280
     1
 90
        1
330
6A
  0
DICTIONARY
  5
244
102
{ACAD_REACTORS
330
C
102
}
330
C
100
AcDbDictionary
281
     1
  3
CANNOSCALE
350
245
  3
CMLEADERSTYLE
350
27A
  3
CTABLESTYLE
350
279
  0
LAYOUT
  5
1E
102
{ACAD_REACTORS
330
1A
102
}
330
1A
100
AcDbPlotSettings
  1

  2
none_device
  4

  6

 40
0.0
 41
0.0
 42
0.0
 43
0.0
 44
0.0
 45
0.0
 46
0.0
 47
0.0
 48
0.0
 49
0.0
140
0.0
141
0.0
142
1.0
143
1.0
 70
   688
 72
     1
 73
     0
 74
     5
  7

 75
    16
 76
     0
 77
     2
 78
   300
147
1.0
148
0.0
149
0.0
100
AcDbLayout
  1
Layout1
 70
     1
 71
     1
 10
0.0
 20
0.0
 11
420.0
 21
297.0
 12
0.0
 22
0.0
 32
0.0
 14
1.000000E+20
 24
1.000000E+20
 34
1.000000E+20
 15
-1.000000E+20
 25
-1.000000E+20
 35
-1.000000E+20
146
0.0
 13
0.0
 23
0.0
 33
0.0
 16
1.0
 26
0.0
 36
0.0
 17
0.0
 27
1.0
 37
0.0
 76
     0
330
1B
  0
LAYOUT
  5
26
102
{ACAD_REACTORS
330
1A
102
}
330
1A
100
AcDbPlotSettings
  1

  2
none_device
  4

  6

 40
0.0
 41
0.0
 42
0.0
 43
0.0
 44
0.0
 45
0.0
 46
0.0
 47
0.0
 48
0.0
 49
0.0
140
0.0
141
0.0
142
1.0
143
1.0
 70
   688
 72
     1
 73
     0
 74
     5
  7

 75
    16
 76
     0
 77
     2
 78
   300
147
1.0
148
0.0
149
0.0
100
AcDbLayout
  1
Layout2
 70
     1
 71
     2
 10
0.0
 20
0.0
 11
0.0
 21
0.0
 12
0.0
 22
0.0
 32
0.0
 14
0.0
 24
0.0
 34
0.0
 15
0.0
 25
0.0
 35
0.0
146
0.0
 13
0.0
 23
0.0
 33
0.0
 16
1.0
 26
0.0
 36
0.0
 17
0.0
 27
1.0
 37
0.0
 76
     0
330
23
  0
LAYOUT
  5
22
102
{ACAD_REACTORS
330
1A
102
}
330
1A
100
AcDbPlotSettings
  1

  2
none_device
  4
Letter_(8.50_x_11.00_Inches)
  6

 40
6.35
 41
6.35
 42
6.350005
 43
6.350005
 44
215.9
 45
279.4
 46
0.0
 47
0.0
 48
0.0
 49
0.0
140
0.0
141
0.0
142
1.0
143
1.0
 70
  1712
 72
     1
 73
     0
 74
     0
  7

 75
     0
 76
     0
 77
     2
 78
   300
147
1.0
148
0.0
149
0.0
100
AcDbLayout
  1
Model
 70
     1
 71
     0
 10
0.0
 20
0.0
 11
420.0
 21
297.0
 12
0.0
 22
0.0
 32
0.0
 14
1.000000E+20
 24
1.000000E+20
 34
1.000000E+20
 15
-1.000000E+20
 25
-1.000000E+20
 35
-1.000000E+20
146
0.0
 13
0.0
 23
0.0
 33
0.0
 16
1.0
 26
0.0
 36
0.0
 17
0.0
 27
1.0
 37
0.0
 76
     0
330
1F
331
29
  0
MATERIAL
  5
45
102
{ACAD_REACTORS
330
43
102
}
330
43
100
AcDbMaterial
  1
ByBlock
 72
     1
 94
      127
  0
MATERIAL
  5
44
102
{ACAD_REACTORS
330
43
102
}
330
43
100
AcDbMaterial
  1
ByLayer
 72
     1
 94
      127
  0
MATERIAL
  5
46
102
{ACAD_REACTORS
330
43
102
}
330
43
100
AcDbMaterial
  1
Global
 72
     1
 94
      127
  0
MLEADERSTYLE
  5
6C
102
{ACAD_REACTORS
330
6B
102
}
330
6B
100
AcDbMLeaderStyle
179
     2
170
     2
171
     1
172
     0
 90
        2
 40
0.0
 41
0.0
173
     1
 91
-1056964608
340
14
 92
       -2
290
     1
 42
2.0
291
     1
 43
8.0
  3
Standard
341
0
 44
4.0
300

342
11
174
     1
178
     6
175
     1
176
     0
 93
-1056964608
 45
4.0
292
     0
297
     0
 46
4.0
343
0
 94
-1056964608
 47
1.0
 49
1.0
140
1.0
293
     1
141
0.0
294
     1
177
     0
142
1.0
295
     0
296
     0
143
3.75
271
     0
272
     9
273
     9
  0
MLINESTYLE
  5
18
102
{ACAD_REACTORS
330
17
102
}
330
17
100
AcDbMlineStyle
  2
Standard
 70
     0
  3

 62
   256
 51
90.0
 52
90.0
 71
     2
 49
0.5
 62
   256
  6
BYLAYER
 49
-0.5
 62
   256
  6
BYLAYER
  0
ACDBPLACEHOLDER
  5
F
102
{ACAD_REACTORS
330
E
102
}
330
E
  0
SCALE
  5
48
102
{ACAD_REACTORS
330
47
102
}
330
47
100
AcDbScale
 70
     0
300
1:1
140
1.0
141
1.0
290
     1
  0
SCALE
  5
49
102
{ACAD_REACTORS
330
47
102
}
330
47
100
AcDbScale
 70
     0
300
1:2
140
1.0
141
2.0
290
     0
  0
SCALE
  5
4A
102
{ACAD_REACTORS
330
47
102
}
330
47
100
AcDbScale
 70
     0
300
1:4
140
1.0
141
4.0
290
     0
  0
SCALE
  5
4B
102
{ACAD_REACTORS
330
47
102
}
330
47
100
AcDbScale
 70
     0
300
1:5
140
1.0
141
5.0
290
     0
  0
SCALE
  5
4C
102
{ACAD_REACTORS
330
47
102
}
330
47
100
AcDbScale
 70
     0
300
1:8
140
1.0
141
8.0
290
     0
  0
SCALE
  5
4D
102
{ACAD_REACTORS
330
47
102
}
330
47
100
AcDbScale
 70
     0
300
1:10
140
1.0
141
10.0
290
     0
  0
SCALE
  5
4E
102
{ACAD_REACTORS
330
47
102
}
330
47
100
AcDbScale
 70
     0
300
1:16
140
1.0
141
16.0
290
     0
  0
SCALE
  5
4F
102
{ACAD_REACTORS
330
47
102
}
330
47
100
AcDbScale
 70
     0
300
1:20
140
1.0
141
20.0
290
     0
  0
SCALE
  5
50
102
{ACAD_REACTORS
330
47
102
}
330
47
100
AcDbScale
 70
     0
300
1:30
140
1.0
141
30.0
290
     0
  0
SCALE
  5
51
102
{ACAD_REACTORS
330
47
102
}
330
47
100
AcDbScale
 70
     0
300
1:40
140
1.0
141
40.0
290
     0
  0
SCALE
  5
52
102
{ACAD_REACTORS
330
47
102
}
330
47
100
AcDbScale
 70
     0
300
1:50
140
1.0
141
50.0
290
     0
  0
SCALE
  5
53
102
{ACAD_REACTORS
330
47
102
}
330
47
100
AcDbScale
 70
     0
300
1:100
140
1.0
141
100.0
290
     0
  0
SCALE
  5
54
102
{ACAD_REACTORS
330
47
102
}
330
47
100
AcDbScale
 70
     0
300
2:1
140
2.0
141
1.0
290
     0
  0
SCALE
  5
55
102
{ACAD_REACTORS
330
47
102
}
330
47
100
AcDbScale
 70
     0
300
4:1
140
4.0
141
1.0
290
     0
  0
SCALE
  5
56
102
{ACAD_REACTORS
330
47
102
}
330
47
100
AcDbScale
 70
     0
300
8:1
140
8.0
141
1.0
290
     0
  0
SCALE
  5
57
102
{ACAD_REACTORS
330
47
102
}
330
47
100
AcDbScale
 70
     0
300
10:1
140
10.0
141
1.0
290
     0
  0
SCALE
  5
58
102
{ACAD_REACTORS
330
47
102
}
330
47
100
AcDbScale
 70
     0
300
100:1
140
100.0
141
1.0
290
     0
  0
SCALE
  5
59
102
{ACAD_REACTORS
330
47
102
}
330
47
100
AcDbScale
 70
     0
300
1/128" = 1'-0"
140
0.007812
141
12.0
290
     0
  0
SCALE
  5
5A
102
{ACAD_REACTORS
330
47
102
}
330
47
100
AcDbScale
 70
     0
300
1/64" = 1'-0"
140
0.015625
141
12.0
290
     0
  0
SCALE
  5
5B
102
{ACAD_REACTORS
330
47
102
}
330
47
100
AcDbScale
 70
     0
300
1/32" = 1'-0"
140
0.03125
141
12.0
290
     0
  0
SCALE
  5
5C
102
{ACAD_REACTORS
330
47
102
}
330
47
100
AcDbScale
 70
     0
300
1/16" = 1'-0"
140
0.0625
141
12.0
290
     0
  0
SCALE
  5
5D
102
{ACAD_REACTORS
330
47
102
}
330
47
100
AcDbScale
 70
     0
300
3/32" = 1'-0"
140
0.09375
141
12.0
290
     0
  0
SCALE
  5
5E
102
{ACAD_REACTORS
330
47
102
}
330
47
100
AcDbScale
 70
     0
300
1/8" = 1'-0"
140
0.125
141
12.0
290
     0
  0
SCALE
  5
5F
102
{ACAD_REACTORS
330
47
102
}
330
47
100
AcDbScale
 70
     0
300
3/16" = 1'-0"
140
0.1875
141
12.0
290
     0
  0
SCALE
  5
60
102
{ACAD_REACTORS
330
47
102
}
330
47
100
AcDbScale
 70
     0
300
1/4" = 1'-0"
140
0.25
141
12.0
290
     0
  0
SCALE
  5
61
102
{ACAD_REACTORS
330
47
102
}
330
47
100
AcDbScale
 70
     0
300
3/8" = 1'-0"
140
0.375
141
12.0
290
     0
  0
SCALE
  5
62
102
{ACAD_REACTORS
330
47
102
}
330
47
100
AcDbScale
 70
     0
300
1/2" = 1'-0"
140
0.5
141
12.0
290
     0
  0
SCALE
  5
63
102
{ACAD_REACTORS
330
47
102
}
330
47
100
AcDbScale
 70
     0
300
3/4" = 1'-0"
140
0.75
141
12.0
290
     0
  0
SCALE
  5
64
102
{ACAD_REACTORS
330
47
102
}
330
47
100
AcDbScale
 70
     0
300
1" = 1'-0"
140
1.0
141
12.0
290
     0
  0
SCALE
  5
65
102
{ACAD_REACTORS
330
47
102
}
330
47
100
AcDbScale
 70
     0
300
1-1/2" = 1'-0"
140
1.5
141
12.0
290
     0
  0
SCALE
  5
66
102
{ACAD_REACTORS
330
47
102
}
330
47
100
AcDbScale
 70
     0
300
3" = 1'-0"
140
3.0
141
12.0
290
     0
  0
SCALE
  5
67
102
{ACAD_REACTORS
330
47
102
}
330
47
100
AcDbScale
 70
     0
300
6" = 1'-0"
140
6.0
141
12.0
290
     0
  0
SCALE
  5
68
102
{ACAD_REACTORS
330
47
102
}
330
47
100
AcDbScale
 70
     0
300
1'-0" = 1'-0"
140
12.0
141
12.0
290
     0
  0
TABLESTYLE
  5
6A
102
{ACAD_REACTORS
330
69
102
}
102
{ACAD_XDICTIONARY
360
276
102
}
330
69
100
AcDbTableStyle
  3
Standard
 70
     0
 71
     0
 40
0.06
 41
0.06
280
     0
281
     0
  7
Standard
140
4.5
170
     2
 62
     0
 63
   257
283
     0
 90
        4
 91
        0
  1

274
    -2
284
     1
 64
     0
275
    -2
285
     1
 65
     0
276
    -2
286
     1
 66
     0
277
    -2
287
     1
 67
     0
278
    -2
288
     1
 68
     0
279
    -2
289
     1
 69
     0
  7
Standard
140
6.0
170
     5
 62
     0
 63
   257
283
     0
 90
        4
 91
        0
  1

274
    -2
284
     1
 64
     0
275
    -2
285
     1
 65
     0
276
    -2
286
     1
 66
     0
277
    -2
287
     1
 67
     0
278
    -2
288
     1
 68
     0
279
    -2
289
     1
 69
     0
  7
Standard
140
4.5
170
     5
 62
     0
 63
   257
283
     0
 90
        4
 91
        0
  1

274
    -2
284
     1
 64
     0
275
    -2
285
     1
 65
     0
276
    -2
286
     1
 66
     0
277
    -2
287
     1
 67
     0
278
    -2
288
     1
 68
     0
279
    -2
289
     1
 69
     0
  0
VISUALSTYLE
  5
2F
102
{ACAD_REACTORS
330
2A
102
}
102
{ACAD_XDICTIONARY
360
24E
102
}
330
2A
100
AcDbVisualStyle
  2
2dWireframe
 70
     4
177
     2
291
     0
 71
     0
176
     1
 72
     2
176
     1
 73
     0
176
     1
 90
        0
176
     1
 40
0.6
176
     1
 41
30.0
176
     1
 62
     5
 63
     7
421
 16777215
176
     1
 74
     1
176
     1
 91
        4
176
     1
 64
     7
176
     1
 65
   257
176
     1
 75
     1
176
     1
175
     1
176
     1
 42
1.0
176
     1
 92
        0
176
     1
 66
   257
176
     1
 43
1.0
176
     1
 76
     1
176
     1
 77
     6
176
     1
 78
     2
176
     1
 67
     7
176
     1
 79
     5
176
     1
170
     0
176
     1
171
     0
176
     1
290
     0
176
     1
 93
        1
176
     1
 44
0.0
176
     1
173
     0
176
     1
  0
VISUALSTYLE
  5
32
102
{ACAD_REACTORS
330
2A
102
}
102
{ACAD_XDICTIONARY
360
254
102
}
330
2A
100
AcDbVisualStyle
  2
Basic
 70
     7
177
     2
291
     1
 71
     1
176
     1
 72
     0
176
     1
 73
     1
176
     1
 90
        0
176
     1
 40
0.6
176
     1
 41
30.0
176
     1
 62
     5
 63
     7
421
 16777215
176
     1
 74
     0
176
     1
 91
        4
176
     1
 64
     7
176
     1
 65
   257
176
     1
 75
     1
176
     1
175
     1
176
     1
 42
1.0
176
     1
 92
        8
176
     1
 66
     7
176
     1
 43
1.0
176
     1
 76
     1
176
     1
 77
     6
176
     1
 78
     2
176
     1
 67
     7
176
     1
 79
     5
176
     1
170
     0
176
     1
171
     0
176
     1
290
     0
176
     1
 93
        1
176
     1
 44
0.0
176
     1
173
     0
176
     1
  0
VISUALSTYLE
  5
36
102
{ACAD_REACTORS
330
2A
102
}
102
{ACAD_XDICTIONARY
360
25C
102
}
330
2A
100
AcDbVisualStyle
  2
Brighten
 70
    12
177
     2
291
     1
 71
     2
176
     1
 72
     2
176
     1
 73
     0
176
     1
 90
        0
176
     1
 40
0.6
176
     1
 41
30.0
176
     1
 62
     5
 63
     7
421
 16777215
176
     1
 74
     1
176
     1
 91
        4
176
     1
 64
     7
176
     1
 65
   257
176
     1
 75
     1
176
     1
175
     1
176
     1
 42
1.0
176
     1
 92
        8
176
     1
 66
     7
176
     1
 43
1.0
176
     1
 76
     1
176
     1
 77
     6
176
     1
 78
     2
176
     1
 67
     7
176
     1
 79
     5
176
     1
170
     0
176
     1
171
     0
176
     1
290
     0
176
     1
 93
        1
176
     1
 44
50.0
176
     1
173
     0
176
     1
  0
VISUALSTYLE
  5
3A
102
{ACAD_REACTORS
330
2A
102
}
102
{ACAD_XDICTIONARY
360
264
102
}
330
2A
100
AcDbVisualStyle
  2
ColorChange
 70
    16
177
     2
291
     1
 71
     2
176
     1
 72
     2
176
     1
 73
     3
176
     1
 90
        0
176
     1
 40
0.6
176
     1
 41
30.0
176
     1
 62
     5
 63
     8
421
  8421504
176
     1
 74
     1
176
     1
 91
        4
176
     1
 64
     7
176
     1
 65
   257
176
     1
 75
     1
176
     1
175
     1
176
     1
 42
1.0
176
     1
 92
        8
176
     1
 66
     8
424
  8421504
176
     1
 43
1.0
176
     1
 76
     1
176
     1
 77
     6
176
     1
 78
     2
176
     1
 67
     7
176
     1
 79
     5
176
     1
170
     0
176
     1
171
     0
176
     1
290
     0
176
     1
 93
        1
176
     1
 44
0.0
176
     1
173
     0
176
     1
  0
VISUALSTYLE
  5
34
102
{ACAD_REACTORS
330
2A
102
}
102
{ACAD_XDICTIONARY
360
258
102
}
330
2A
100
AcDbVisualStyle
  2
Conceptual
 70
     9
177
     2
291
     0
 71
     3
176
     1
 72
     2
176
     1
 73
     0
176
     1
 90
        0
176
     1
 40
0.6
176
     1
 41
30.0
176
     1
 62
     5
 63
     7
421
 16777215
176
     1
 74
     2
176
     1
 91
        2
176
     1
 64
     7
176
     1
 65
   257
176
     1
 75
     1
176
     1
175
     1
176
     1
 42
179.0
176
     1
 92
        8
176
     1
 66
     7
176
     1
 43
1.0
176
     1
 76
     1
176
     1
 77
     6
176
     1
 78
     2
176
     1
 67
     7
176
     1
 79
     3
176
     1
170
     0
176
     1
171
     0
176
     1
290
     0
176
     1
 93
        1
176
     1
 44
0.0
176
     1
173
     0
176
     1
  0
VISUALSTYLE
  5
35
102
{ACAD_REACTORS
330
2A
102
}
102
{ACAD_XDICTIONARY
360
25A
102
}
330
2A
100
AcDbVisualStyle
  2
Dim
 70
    11
177
     2
291
     1
 71
     2
176
     1
 72
     2
176
     1
 73
     0
176
     1
 90
        0
176
     1
 40
0.6
176
     1
 41
30.0
176
     1
 62
     5
 63
     7
421
 16777215
176
     1
 74
     1
176
     1
 91
        4
176
     1
 64
     7
176
     1
 65
   257
176
     1
 75
     1
176
     1
175
     1
176
     1
 42
1.0
176
     1
 92
        8
176
     1
 66
     7
176
     1
 43
1.0
176
     1
 76
     1
176
     1
 77
     6
176
     1
 78
     2
176
     1
 67
     7
176
     1
 79
     5
176
     1
170
     0
176
     1
171
     0
176
     1
290
     0
176
     1
 93
        1
176
     1
 44
-50.0
176
     1
173
     0
176
     1
  0
VISUALSTYLE
  5
3D
102
{ACAD_REACTORS
330
2A
102
}
102
{ACAD_XDICTIONARY
360
26A
102
}
330
2A
100
AcDbVisualStyle
  2
EdgeColorOff
 70
    22
177
     2
291
     1
 71
     2
176
     0
 72
     2
176
     0
 73
     0
176
     0
 90
        0
176
     0
 40
0.6
176
     0
 41
30.0
176
     0
 62
     5
 63
     7
421
 16777215
176
     0
 74
     1
176
     0
 91
        4
176
     0
 64
     7
176
     0
 65
   257
176
     0
 75
     1
176
     0
175
     1
176
     0
 42
1.0
176
     0
 92
        8
176
     2
 66
     7
176
     0
 43
1.0
176
     0
 76
     1
176
     0
 77
     6
176
     0
 78
     2
176
     0
 67
     7
176
     0
 79
     5
176
     0
170
     0
176
     0
171
     0
176
     0
290
     0
176
     0
 93
        1
176
     0
 44
0.0
176
     0
173
     0
176
     0
  0
VISUALSTYLE
  5
39
102
{ACAD_REACTORS
330
2A
102
}
102
{ACAD_XDICTIONARY
360
262
102
}
330
2A
100
AcDbVisualStyle
  2
Facepattern
 70
    15
177
     2
291
     1
 71
     2
176
     1
 72
     2
176
     1
 73
     0
176
     1
 90
        0
176
     1
 40
0.6
176
     1
 41
30.0
176
     1
 62
     5
 63
     7
421
 16777215
176
     1
 74
     1
176
     1
 91
        4
176
     1
 64
     7
176
     1
 65
   257
176
     1
 75
     1
176
     1
175
     1
176
     1
 42
1.0
176
     1
 92
        8
176
     1
 66
     7
176
     1
 43
1.0
176
     1
 76
     1
176
     1
 77
     6
176
     1
 78
     2
176
     1
 67
     7
176
     1
 79
     5
176
     1
170
     0
176
     1
171
     0
176
     1
290
     0
176
     1
 93
        1
176
     1
 44
0.0
176
     1
173
     0
176
     1
  0
VISUALSTYLE
  5
2B
102
{ACAD_REACTORS
330
2A
102
}
102
{ACAD_XDICTIONARY
360
246
102
}
330
2A
100
AcDbVisualStyle
  2
Flat
 70
     0
177
     2
291
     1
 71
     2
176
     1
 72
     1
176
     1
 73
     1
176
     1
 90
        2
176
     1
 40
0.6
176
     1
 41
30.0
176
     1
 62
     5
 63
     7
421
 16777215
176
     1
 74
     0
176
     1
 91
        0
176
     1
 64
     7
176
     1
 65
   257
176
     1
 75
     1
176
     1
175
     1
176
     1
 42
1.0
176
     1
 92
        8
176
     1
 66
     7
176
     1
 43
1.0
176
     1
 76
     1
176
     1
 77
     6
176
     1
 78
     2
176
     1
 67
     7
176
     1
 79
     5
176
     1
170
     0
176
     1
171
     0
176
     1
290
     0
176
     1
 93
       13
176
     1
 44
0.0
176
     1
173
     0
176
     1
  0
VISUALSTYLE
  5
2C
102
{ACAD_REACTORS
330
2A
102
}
102
{ACAD_XDICTIONARY
360
248
102
}
330
2A
100
AcDbVisualStyle
  2
FlatWithEdges
 70
     1
177
     2
291
     1
 71
     2
176
     1
 72
     1
176
     1
 73
     1
176
     1
 90
        2
176
     1
 40
0.6
176
     1
 41
30.0
176
     1
 62
     5
 63
     7
421
 16777215
176
     1
 74
     1
176
     1
 91
        0
176
     1
 64
     7
176
     1
 65
   257
176
     1
 75
     1
176
     1
175
     1
176
     1
 42
1.0
176
     1
 92
        0
176
     1
 66
   257
176
     1
 43
1.0
176
     1
 76
     1
176
     1
 77
     6
176
     1
 78
     2
176
     1
 67
     7
176
     1
 79
     5
176
     1
170
     0
176
     1
171
     0
176
     1
290
     0
176
     1
 93
       13
176
     1
 44
0.0
176
     1
173
     0
176
     1
  0
VISUALSTYLE
  5
2D
102
{ACAD_REACTORS
330
2A
102
}
102
{ACAD_XDICTIONARY
360
24A
102
}
330
2A
100
AcDbVisualStyle
  2
Gouraud
 70
     2
177
     2
291
     1
 71
     2
176
     1
 72
     2
176
     1
 73
     1
176
     1
 90
        2
176
     1
 40
0.6
176
     1
 41
30.0
176
     1
 62
     5
 63
     7
421
 16777215
176
     1
 74
     0
176
     1
 91
        0
176
     1
 64
     7
176
     1
 65
   257
176
     1
 75
     1
176
     1
175
     1
176
     1
 42
1.0
176
     1
 92
        0
176
     1
 66
     7
176
     1
 43
1.0
176
     1
 76
     1
176
     1
 77
     6
176
     1
 78
     2
176
     1
 67
     7
176
     1
 79
     5
176
     1
170
     0
176
     1
171
     0
176
     1
290
     0
176
     1
 93
       13
176
     1
 44
0.0
176
     1
173
     0
176
     1
  0
VISUALSTYLE
  5
2E
102
{ACAD_REACTORS
330
2A
102
}
102
{ACAD_XDICTIONARY
360
24C
102
}
330
2A
100
AcDbVisualStyle
  2
GouraudWithEdges
 70
     3
177
     2
291
     1
 71
     2
176
     1
 72
     2
176
     1
 73
     1
176
     1
 90
        2
176
     1
 40
0.6
176
     1
 41
30.0
176
     1
 62
     5
 63
     7
421
 16777215
176
     1
 74
     1
176
     1
 91
        0
176
     1
 64
     7
176
     1
 65
   257
176
     1
 75
     1
176
     1
175
     1
176
     1
 42
1.0
176
     1
 92
        0
176
     1
 66
   257
176
     1
 43
1.0
176
     1
 76
     1
176
     1
 77
     6
176
     1
 78
     2
176
     1
 67
     7
176
     1
 79
     5
176
     1
170
     0
176
     1
171
     0
176
     1
290
     0
176
     1
 93
       13
176
     1
 44
0.0
176
     1
173
     0
176
     1
  0
VISUALSTYLE
  5
31
102
{ACAD_REACTORS
330
2A
102
}
102
{ACAD_XDICTIONARY
360
252
102
}
330
2A
100
AcDbVisualStyle
  2
Hidden
 70
     6
177
     2
291
     0
 71
     1
176
     1
 72
     2
176
     1
 73
     2
176
     1
 90
        0
176
     1
 40
0.6
176
     1
 41
30.0
176
     1
 62
     5
 63
     7
421
 16777215
176
     1
 74
     2
176
     1
 91
        2
176
     1
 64
     7
176
     1
 65
   257
176
     1
 75
     2
176
     1
175
     1
176
     1
 42
40.0
176
     1
 92
        0
176
     1
 66
   257
176
     1
 43
1.0
176
     1
 76
     1
176
     1
 77
     6
176
     1
 78
     2
176
     1
 67
     7
176
     1
 79
     3
176
     1
170
     0
176
     1
171
     0
176
     1
290
     0
176
     1
 93
        1
176
     1
 44
0.0
176
     1
173
     0
176
     1
  0
VISUALSTYLE
  5
3B
102
{ACAD_REACTORS
330
2A
102
}
102
{ACAD_XDICTIONARY
360
266
102
}
330
2A
100
AcDbVisualStyle
  2
JitterOff
 70
    20
177
     2
291
     1
 71
     2
176
     0
 72
     2
176
     0
 73
     0
176
     0
 90
        0
176
     0
 40
0.6
176
     0
 41
30.0
176
     0
 62
     5
 63
     7
421
 16777215
176
     0
 74
     1
176
     0
 91
        4
176
     0
 64
     7
176
     0
 65
   257
176
     0
 75
     1
176
     0
175
     1
176
     0
 42
1.0
176
     0
 92
       10
176
     2
 66
     7
176
     0
 43
1.0
176
     0
 76
     1
176
     0
 77
     6
176
     0
 78
     2
176
     0
 67
     7
176
     0
 79
     5
176
     0
170
     0
176
     0
171
     0
176
     0
290
     0
176
     0
 93
        1
176
     0
 44
0.0
176
     0
173
     0
176
     0
  0
VISUALSTYLE
  5
38
102
{ACAD_REACTORS
330
2A
102
}
102
{ACAD_XDICTIONARY
360
260
102
}
330
2A
100
AcDbVisualStyle
  2
Linepattern
 70
    14
177
     2
291
     1
 71
     2
176
     1
 72
     2
176
     1
 73
     0
176
     1
 90
        0
176
     1
 40
0.6
176
     1
 41
30.0
176
     1
 62
     5
 63
     7
421
 16777215
176
     1
 74
     1
176
     1
 91
        4
176
     1
 64
     7
176
     1
 65
   257
176
     1
 75
     7
176
     1
175
     7
176
     1
 42
1.0
176
     1
 92
        8
176
     1
 66
     7
176
     1
 43
1.0
176
     1
 76
     1
176
     1
 77
     6
176
     1
 78
     2
176
     1
 67
     7
176
     1
 79
     5
176
     1
170
     0
176
     1
171
     0
176
     1
290
     0
176
     1
 93
        1
176
     1
 44
0.0
176
     1
173
     0
176
     1
  0
VISUALSTYLE
  5
3C
102
{ACAD_REACTORS
330
2A
102
}
102
{ACAD_XDICTIONARY
360
268
102
}
330
2A
100
AcDbVisualStyle
  2
OverhangOff
 70
    21
177
     2
291
     1
 71
     2
176
     0
 72
     2
176
     0
 73
     0
176
     0
 90
        0
176
     0
 40
0.6
176
     0
 41
30.0
176
     0
 62
     5
 63
     7
421
 16777215
176
     0
 74
     1
176
     0
 91
        4
176
     0
 64
     7
176
     0
 65
   257
176
     0
 75
     1
176
     0
175
     1
176
     0
 42
1.0
176
     0
 92
        9
176
     2
 66
     7
176
     0
 43
1.0
176
     0
 76
     1
176
     0
 77
     6
176
     0
 78
     2
176
     0
 67
     7
176
     0
 79
     5
176
     0
170
     0
176
     0
171
     0
176
     0
290
     0
176
     0
 93
        1
176
     0
 44
0.0
176
     0
173
     0
176
     0
  0
VISUALSTYLE
  5
33
102
{ACAD_REACTORS
330
2A
102
}
102
{ACAD_XDICTIONARY
360
256
102
}
330
2A
100
AcDbVisualStyle
  2
Realistic
 70
     8
177
     2
291
     0
 71
     2
176
     1
 72
     3
176
     1
 73
     0
176
     1
 90
        2
176
     1
 40
0.6
176
     1
 41
30.0
176
     1
 62
     5
 63
     7
421
 16777215
176
     1
 74
     0
176
     1
 91
        0
176
     1
 64
     7
176
     1
 65
   257
176
     1
 75
     1
176
     1
175
     1
176
     1
 42
1.0
176
     1
 92
        8
176
     1
 66
   257
176
     1
 43
1.0
176
     1
 76
     1
176
     1
 77
     6
176
     1
 78
     2
176
     1
 67
     7
176
     1
 79
     3
176
     1
170
     0
176
     1
171
     0
176
     1
290
     0
176
     1
 93
       13
176
     1
 44
0.0
176
     1
173
     0
176
     1
  0
VISUALSTYLE
  5
42
102
{ACAD_REACTORS
330
2A
102
}
102
{ACAD_XDICTIONARY
360
274
102
}
330
2A
100
AcDbVisualStyle
  2
Shaded
 70
    27
177
     2
291
     0
 71
     2
176
     1
 72
     2
176
     1
 73
     1
176
     1
 90
        2
176
     1
 40
0.6
176
     1
 41
30.0
176
     1
 62
     5
 63
     7
421
 16777215
176
     1
 74
     0
176
     1
 91
        4
176
     1
 64
     7
176
     1
 65
   257
176
     1
 75
     1
176
     1
175
     1
176
     1
 42
1.0
176
     1
 92
        8
176
     1
 66
   257
176
     1
 43
1.0
176
     1
 76
     1
176
     1
 77
     6
176
     1
 78
     2
176
     1
 67
     8
425
  7895160
176
     1
 79
     3
176
     1
170
     0
176
     1
171
     0
176
     1
290
     0
176
     1
 93
        5
176
     1
 44
0.0
176
     1
173
     0
176
     1
  0
VISUALSTYLE
  5
41
102
{ACAD_REACTORS
330
2A
102
}
102
{ACAD_XDICTIONARY
360
272
102
}
330
2A
100
AcDbVisualStyle
  2
Shaded with edges
 70
    26
177
     2
291
     0
 71
     2
176
     1
 72
     2
176
     1
 73
     1
176
     1
 90
        2
176
     1
 40
0.6
176
     1
 41
30.0
176
     1
 62
     5
 63
     7
421
 16777215
176
     1
 74
     1
176
     1
 91
       10
176
     1
 64
     7
176
     1
 65
   257
176
     1
 75
     2
176
     1
175
     1
176
     1
 42
1.0
176
     1
 92
        8
176
     1
 66
   257
176
     1
 43
1.0
176
     1
 76
     1
176
     1
 77
     6
176
     1
 78
     2
176
     1
 67
     7
176
     1
 79
     3
176
     1
170
     0
176
     1
171
     0
176
     1
290
     0
176
     1
 93
        5
176
     1
 44
0.0
176
     1
173
     0
176
     1
  0
VISUALSTYLE
  5
3E
102
{ACAD_REACTORS
330
2A
102
}
102
{ACAD_XDICTIONARY
360
26C
102
}
330
2A
100
AcDbVisualStyle
  2
Shades of Gray
 70
    23
177
     2
291
     0
 71
     2
176
     1
 72
     2
176
     1
 73
     3
176
     1
 90
        0
176
     1
 40
0.6
176
     1
 41
30.0
176
     1
 62
     5
 63
     7
421
 16777215
176
     1
 74
     2
176
     1
 91
        2
176
     1
 64
     7
176
     1
 65
     7
176
     1
 75
     1
176
     1
175
     1
176
     1
 42
40.0
176
     1
 92
        8
176
     1
 66
     7
176
     1
 43
1.0
176
     1
 76
     1
176
     1
 77
     6
176
     1
 78
     2
176
     1
 67
     7
176
     1
 79
     3
176
     1
170
     0
176
     1
171
     0
176
     1
290
     0
176
     1
 93
        1
176
     1
 44
0.0
176
     1
173
     0
176
     1
  0
VISUALSTYLE
  5
3F
102
{ACAD_REACTORS
330
2A
102
}
102
{ACAD_XDICTIONARY
360
26E
102
}
330
2A
100
AcDbVisualStyle
  2
Sketchy
 70
    24
177
     2
291
     0
 71
     1
176
     1
 72
     2
176
     1
 73
     2
176
     1
 90
        0
176
     1
 40
0.6
176
     1
 41
30.0
176
     1
 62
     5
 63
     7
421
 16777215
176
     1
 74
     2
176
     1
 91
        2
176
     1
 64
     7
176
     1
 65
     7
176
     1
 75
     1
176
     1
175
     1
176
     1
 42
40.0
176
     1
 92
       11
176
     1
 66
     7
176
     1
 43
1.0
176
     1
 76
     1
176
     1
 77
     6
176
     1
 78
     2
176
     1
 67
     7
176
     1
 79
     6
176
     1
170
     0
176
     1
171
     0
176
     1
290
     0
176
     1
 93
        1
176
     1
 44
0.0
176
     1
173
     0
176
     1
  0
VISUALSTYLE
  5
37
102
{ACAD_REACTORS
330
2A
102
}
102
{ACAD_XDICTIONARY
360
25E
102
}
330
2A
100
AcDbVisualStyle
  2
Thicken
 70
    13
177
     2
291
     1
 71
     2
176
     1
 72
     2
176
     1
 73
     0
176
     1
 90
        0
176
     1
 40
0.6
176
     1
 41
30.0
176
     1
 62
     5
 63
     7
421
 16777215
176
     1
 74
     1
176
     1
 91
        4
176
     1
 64
     7
176
     1
 65
   257
176
     1
 75
     1
176
     1
175
     1
176
     1
 42
1.0
176
     1
 92
       12
176
     1
 66
     7
176
     1
 43
1.0
176
     1
 76
     1
176
     1
 77
     6
176
     1
 78
     2
176
     1
 67
     7
176
     1
 79
     5
176
     1
170
     0
176
     1
171
     0
176
     1
290
     0
176
     1
 93
        1
176
     1
 44
0.0
176
     1
173
     0
176
     1
  0
VISUALSTYLE
  5
30
102
{ACAD_REACTORS
330
2A
102
}
102
{ACAD_XDICTIONARY
360
250
102
}
330
2A
100
AcDbVisualStyle
  2
Wireframe
 70
     5
177
     2
291
     0
 71
     0
176
     1
 72
     2
176
     1
 73
     0
176
     1
 90
        0
176
     1
 40
0.6
176
     1
 41
30.0
176
     1
 62
     5
 63
     7
421
 16777215
176
     1
 74
     1
176
     1
 91
        4
176
     1
 64
     7
176
     1
 65
   257
176
     1
 75
     1
176
     1
175
     1
176
     1
 42
1.0
176
     1
 92
        0
176
     1
 66
   257
176
     1
 43
1.0
176
     1
 76
     1
176
     1
 77
     6
176
     1
 78
     2
176
     1
 67
     7
176
     1
 79
     3
176
     1
170
     0
176
     1
171
     0
176
     1
290
     0
176
     1
 93
        1
176
     1
 44
0.0
176
     1
173
     0
176
     1
  0
VISUALSTYLE
  5
40
102
{ACAD_REACTORS
330
2A
102
}
102
{ACAD_XDICTIONARY
360
270
102
}
330
2A
100
AcDbVisualStyle
  2
X-Ray
 70
    25
177
     2
291
     0
 71
     2
176
     1
 72
     2
176
     1
 73
     1
176
     1
 90
        1
176
     1
 40
0.5
176
     1
 41
30.0
176
     1
 62
     5
 63
     7
421
 16777215
176
     1
 74
     1
176
     1
 91
        0
176
     1
 64
     7
176
     1
 65
   257
176
     1
 75
     1
176
     1
175
     1
176
     1
 42
1.0
176
     1
 92
        8
176
     1
 66
     7
176
     1
 43
1.0
176
     1
 76
     1
176
     1
 77
     6
176
     1
 78
     2
176
     1
 67
     7
176
     1
 79
     3
176
     1
170
     0
176
     1
171
     0
176
     1
290
     0
176
     1
 93
       13
176
     1
 44
0.0
176
     1
173
     0
176
     1
  0
DICTIONARYVAR
  5
245
102
{ACAD_REACTORS
330
244
102
}
330
244
100
DictionaryVariables
280
     0
  1
1:1
  0
DICTIONARYVAR
  5
27A
102
{ACAD_REACTORS
330
244
102
}
330
244
100
DictionaryVariables
280
     0
  1
Standard
  0
DICTIONARYVAR
  5
279
102
{ACAD_REACTORS
330
244
102
}
330
244
100
DictionaryVariables
280
     0
  1
Standard
  0
DICTIONARY
  5
276
330
6A
100
AcDbDictionary
280
     1
281
     1
  3
ACAD_ROUNDTRIP_2008_TABLESTYLE_CELLSTYLEMAP
360
277
  0
DICTIONARY
  5
24E
330
2F
100
AcDbDictionary
280
     1
281
     1
  3
ACAD_XREC_ROUNDTRIP
360
24F
  0
DICTIONARY
  5
254
330
32
100
AcDbDictionary
280
     1
281
     1
  3
ACAD_XREC_ROUNDTRIP
360
255
  0
DICTIONARY
  5
25C
330
36
100
AcDbDictionary
280
     1
281
     1
  3
ACAD_XREC_ROUNDTRIP
360
25D
  0
DICTIONARY
  5
264
330
3A
100
AcDbDictionary
280
     1
281
     1
  3
ACAD_XREC_ROUNDTRIP
360
265
  0
DICTIONARY
  5
258
330
34
100
AcDbDictionary
280
     1
281
     1
  3
ACAD_XREC_ROUNDTRIP
360
259
  0
DICTIONARY
  5
25A
330
35
100
AcDbDictionary
280
     1
281
     1
  3
ACAD_XREC_ROUNDTRIP
360
25B
  0
DICTIONARY
  5
26A
330
3D
100
AcDbDictionary
280
     1
281
     1
  3
ACAD_XREC_ROUNDTRIP
360
26B
  0
DICTIONARY
  5
262
330
39
100
AcDbDictionary
280
     1
281
     1
  3
ACAD_XREC_ROUNDTRIP
360
263
  0
DICTIONARY
  5
246
330
2B
100
AcDbDictionary
280
     1
281
     1
  3
ACAD_XREC_ROUNDTRIP
360
247
  0
DICTIONARY
  5
248
330
2C
100
AcDbDictionary
280
     1
281
     1
  3
ACAD_XREC_ROUNDTRIP
360
249
  0
DICTIONARY
  5
24A
330
2D
100
AcDbDictionary
280
     1
281
     1
  3
ACAD_XREC_ROUNDTRIP
360
24B
  0
DICTIONARY
  5
24C
330
2E
100
AcDbDictionary
280
     1
281
     1
  3
ACAD_XREC_ROUNDTRIP
360
24D
  0
DICTIONARY
  5
252
330
31
100
AcDbDictionary
280
     1
281
     1
  3
ACAD_XREC_ROUNDTRIP
360
253
  0
DICTIONARY
  5
266
330
3B
100
AcDbDictionary
280
     1
281
     1
  3
ACAD_XREC_ROUNDTRIP
360
267
  0
DICTIONARY
  5
260
330
38
100
AcDbDictionary
280
     1
281
     1
  3
ACAD_XREC_ROUNDTRIP
360
261
  0
DICTIONARY
  5
268
330
3C
100
AcDbDictionary
280
     1
281
     1
  3
ACAD_XREC_ROUNDTRIP
360
269
  0
DICTIONARY
  5
256
330
33
100
AcDbDictionary
280
     1
281
     1
  3
ACAD_XREC_ROUNDTRIP
360
257
  0
DICTIONARY
  5
274
330
42
100
AcDbDictionary
280
     1
281
     1
  3
ACAD_XREC_ROUNDTRIP
360
275
  0
DICTIONARY
  5
272
330
41
100
AcDbDictionary
280
     1
281
     1
  3
ACAD_XREC_ROUNDTRIP
360
273
  0
DICTIONARY
  5
26C
330
3E
100
AcDbDictionary
280
     1
281
     1
  3
ACAD_XREC_ROUNDTRIP
360
26D
  0
DICTIONARY
  5
26E
330
3F
100
AcDbDictionary
280
     1
281
     1
  3
ACAD_XREC_ROUNDTRIP
360
26F
  0
DICTIONARY
  5
25E
330
37
100
AcDbDictionary
280
     1
281
     1
  3
ACAD_XREC_ROUNDTRIP
360
25F
  0
DICTIONARY
  5
250
330
30
100
AcDbDictionary
280
     1
281
     1
  3
ACAD_XREC_ROUNDTRIP
360
251
  0
DICTIONARY
  5
270
330
40
100
AcDbDictionary
280
     1
281
     1
  3
ACAD_XREC_ROUNDTRIP
360
271
  0
CELLSTYLEMAP
  5
277
102
{ACAD_REACTORS
330
276
102
}
330
276
100
AcDbCellStyleMap
 90
        3
300
CELLSTYLE
  1
TABLEFORMAT_BEGIN
 90
        5
170
     1
 91
        0
 92
    32768
 62
   257
 93
        1
300
CONTENTFORMAT
  1
CONTENTFORMAT_BEGIN
 90
        0
 91
        0
 92
        4
 93
        0
300

 40
0.0
140
1.0
 94
        5
 62
     0
340
11
144
6.0
309
CONTENTFORMAT_END
171
     1
301
MARGIN
  1
CELLMARGIN_BEGIN
 40
1.5
 40
1.5
 40
1.5
 40
1.5
 40
1.5
 40
1.5
309
CELLMARGIN_END
 94
        6
 95
        1
302
GRIDFORMAT
  1
GRIDFORMAT_BEGIN
 90
        0
 91
        1
 62
     0
 92
       -2
340
14
 93
        0
 40
0.045
309
GRIDFORMAT_END
 95
        2
302
GRIDFORMAT
  1
GRIDFORMAT_BEGIN
 90
        0
 91
        1
 62
     0
 92
       -2
340
14
 93
        0
 40
0.045
309
GRIDFORMAT_END
 95
        4
302
GRIDFORMAT
  1
GRIDFORMAT_BEGIN
 90
        0
 91
        1
 62
     0
 92
       -2
340
14
 93
        0
 40
0.045
309
GRIDFORMAT_END
 95
        8
302
GRIDFORMAT
  1
GRIDFORMAT_BEGIN
 90
        0
 91
        1
 62
     0
 92
       -2
340
14
 93
        0
 40
0.045
309
GRIDFORMAT_END
 95
       16
302
GRIDFORMAT
  1
GRIDFORMAT_BEGIN
 90
        0
 91
        1
 62
     0
 92
       -2
340
14
 93
        0
 40
0.045
309
GRIDFORMAT_END
 95
       32
302
GRIDFORMAT
  1
GRIDFORMAT_BEGIN
 90
        0
 91
        1
 62
     0
 92
       -2
340
14
 93
        0
 40
0.045
309
GRIDFORMAT_END
309
TABLEFORMAT_END
  1
CELLSTYLE_BEGIN
 90
        1
 91
        1
300
_TITLE
309
CELLSTYLE_END
300
CELLSTYLE
  1
TABLEFORMAT_BEGIN
 90
        5
170
     1
 91
        0
 92
        0
 62
   257
 93
        1
300
CONTENTFORMAT
  1
CONTENTFORMAT_BEGIN
 90
        0
 91
        0
 92
        4
 93
        0
300

 40
0.0
140
1.0
 94
        5
 62
     0
340
11
144
4.5
309
CONTENTFORMAT_END
171
     1
301
MARGIN
  1
CELLMARGIN_BEGIN
 40
1.5
 40
1.5
 40
1.5
 40
1.5
 40
1.5
 40
1.5
309
CELLMARGIN_END
 94
        6
 95
        1
302
GRIDFORMAT
  1
GRIDFORMAT_BEGIN
 90
        0
 91
        1
 62
     0
 92
       -2
340
14
 93
        0
 40
0.045
309
GRIDFORMAT_END
 95
        2
302
GRIDFORMAT
  1
GRIDFORMAT_BEGIN
 90
        0
 91
        1
 62
     0
 92
       -2
340
14
 93
        0
 40
0.045
309
GRIDFORMAT_END
 95
        4
302
GRIDFORMAT
  1
GRIDFORMAT_BEGIN
 90
        0
 91
        1
 62
     0
 92
       -2
340
14
 93
        0
 40
0.045
309
GRIDFORMAT_END
 95
        8
302
GRIDFORMAT
  1
GRIDFORMAT_BEGIN
 90
        0
 91
        1
 62
     0
 92
       -2
340
14
 93
        0
 40
0.045
309
GRIDFORMAT_END
 95
       16
302
GRIDFORMAT
  1
GRIDFORMAT_BEGIN
 90
        0
 91
        1
 62
     0
 92
       -2
340
14
 93
        0
 40
0.045
309
GRIDFORMAT_END
 95
       32
302
GRIDFORMAT
  1
GRIDFORMAT_BEGIN
 90
        0
 91
        1
 62
     0
 92
       -2
340
14
 93
        0
 40
0.045
309
GRIDFORMAT_END
309
TABLEFORMAT_END
  1
CELLSTYLE_BEGIN
 90
        2
 91
        1
300
_HEADER
309
CELLSTYLE_END
300
CELLSTYLE
  1
TABLEFORMAT_BEGIN
 90
        5
170
     1
 91
        0
 92
        0
 62
   257
 93
        1
300
CONTENTFORMAT
  1
CONTENTFORMAT_BEGIN
 90
        0
 91
        0
 92
        4
 93
        0
300

 40
0.0
140
1.0
 94
        2
 62
     0
340
11
144
4.5
309
CONTENTFORMAT_END
171
     1
301
MARGIN
  1
CELLMARGIN_BEGIN
 40
1.5
 40
1.5
 40
1.5
 40
1.5
 40
1.5
 40
1.5
309
CELLMARGIN_END
 94
        6
 95
        1
302
GRIDFORMAT
  1
GRIDFORMAT_BEGIN
 90
        0
 91
        1
 62
     0
 92
       -2
340
14
 93
        0
 40
0.045
309
GRIDFORMAT_END
 95
        2
302
GRIDFORMAT
  1
GRIDFORMAT_BEGIN
 90
        0
 91
        1
 62
     0
 92
       -2
340
14
 93
        0
 40
0.045
309
GRIDFORMAT_END
 95
        4
302
GRIDFORMAT
  1
GRIDFORMAT_BEGIN
 90
        0
 91
        1
 62
     0
 92
       -2
340
14
 93
        0
 40
0.045
309
GRIDFORMAT_END
 95
        8
302
GRIDFORMAT
  1
GRIDFORMAT_BEGIN
 90
        0
 91
        1
 62
     0
 92
       -2
340
14
 93
        0
 40
0.045
309
GRIDFORMAT_END
 95
       16
302
GRIDFORMAT
  1
GRIDFORMAT_BEGIN
 90
        0
 91
        1
 62
     0
 92
       -2
340
14
 93
        0
 40
0.045
309
GRIDFORMAT_END
 95
       32
302
GRIDFORMAT
  1
GRIDFORMAT_BEGIN
 90
        0
 91
        1
 62
     0
 92
       -2
340
14
 93
        0
 40
0.045
309
GRIDFORMAT_END
309
TABLEFORMAT_END
  1
CELLSTYLE_BEGIN
 90
        3
 91
        2
300
_DATA
309
CELLSTYLE_END
  0
XRECORD
  5
24F
102
{ACAD_REACTORS
330
24E
102
}
330
24E
100
AcDbXrecord
280
     1
102
RTVSPost2010Prop28
280
     1
102
RTVSPost2010PropOp28
 70
     1
102
RTVSPost2010Prop29
280
     1
102
RTVSPost2010PropOp29
 70
     1
102
RTVSPost2010Prop30
280
     0
102
RTVSPost2010PropOp30
 70
     1
102
RTVSPost2010Prop31
280
     0
102
RTVSPost2010PropOp31
 70
     1
102
RTVSPost2010Prop32
280
     0
102
RTVSPost2010PropOp32
 70
     1
102
RTVSPost2010Prop33
280
     0
102
RTVSPost2010PropOp33
 70
     1
102
RTVSPost2010Prop34
280
     0
102
RTVSPost2010PropOp34
 70
     1
102
RTVSPost2010Prop35
280
     0
102
RTVSPost2010PropOp35
 70
     1
102
RTVSPost2010Prop36
280
     0
102
RTVSPost2010PropOp36
 70
     1
102
RTVSPost2010Prop37
 90
       50
102
RTVSPost2010PropOp37
 70
     1
102
RTVSPost2010Prop38
140
0.0
102
RTVSPost2010PropOp38
 70
     1
102
RTVSPost2010Prop39
140
1.0
102
RTVSPost2010PropOp39
 70
     1
102
RTVSPost2010Prop40
 90
        0
102
RTVSPost2010PropOp40
 70
     1
102
RTVSPost2010Prop41ColorIndex
 90
       18
102
RTVSPost2010Prop41ColorRGB
 90
        0
102
RTVSPost2010PropOp41
 70
     1
102
RTVSPost2010Prop42
 90
       50
102
RTVSPost2010PropOp42
 70
     1
102
RTVSPost2010Prop43
 90
        3
102
RTVSPost2010PropOp43
 70
     1
102
RTVSPost2010Prop44ColorIndex
 90
        5
102
RTVSPost2010Prop44ColorRGB
 90
      255
102
RTVSPost2010PropOp44
 70
     1
102
RTVSPost2010Prop45
280
     0
102
RTVSPost2010PropOp45
 70
     1
102
RTVSPost2010Prop46
 90
       50
102
RTVSPost2010PropOp46
 70
     1
102
RTVSPost2010Prop47
 90
       50
102
RTVSPost2010PropOp47
 70
     1
102
RTVSPost2010Prop48
 90
       50
102
RTVSPost2010PropOp48
 70
     1
102
RTVSPost2010Prop49
280
     0
102
RTVSPost2010PropOp49
 70
     1
102
RTVSPost2010Prop50
 90
       50
102
RTVSPost2010PropOp50
 70
     1
102
RTVSPost2010Prop51ColorIndex
 90
      256
102
RTVSPost2010Prop51ColorRGB
 90
-16777216
102
RTVSPost2010PropOp51
 70
     0
102
RTVSPost2010Prop52
140
1.0
102
RTVSPost2010PropOp52
 70
     0
102
RTVSPost2010Prop53
 90
        2
102
RTVSPost2010PropOp53
 70
     1
102
RTVSPost2010Prop54
  1
strokes_ogs.tif
102
RTVSPost2010PropOp54
 70
     1
102
RTVSPost2010Prop55
280
     0
102
RTVSPost2010PropOp55
 70
     1
102
RTVSPost2010Prop56
140
1.0
102
RTVSPost2010PropOp56
 70
     1
102
RTVSPost2010Prop57
140
1.0
102
RTVSPost2010PropOp57
 70
     1
  0
XRECORD
  5
255
102
{ACAD_REACTORS
330
254
102
}
330
254
100
AcDbXrecord
280
     1
102
RTVSPost2010Prop28
280
     0
102
RTVSPost2010PropOp28
 70
     1
102
RTVSPost2010Prop29
280
     1
102
RTVSPost2010PropOp29
 70
     1
102
RTVSPost2010Prop30
280
     1
102
RTVSPost2010PropOp30
 70
     1
102
RTVSPost2010Prop31
280
     0
102
RTVSPost2010PropOp31
 70
     1
102
RTVSPost2010Prop32
280
     0
102
RTVSPost2010PropOp32
 70
     1
102
RTVSPost2010Prop33
280
     0
102
RTVSPost2010PropOp33
 70
     1
102
RTVSPost2010Prop34
280
     0
102
RTVSPost2010PropOp34
 70
     1
102
RTVSPost2010Prop35
280
     0
102
RTVSPost2010PropOp35
 70
     1
102
RTVSPost2010Prop36
280
     0
102
RTVSPost2010PropOp36
 70
     1
102
RTVSPost2010Prop37
 90
       50
102
RTVSPost2010PropOp37
 70
     1
102
RTVSPost2010Prop38
140
0.0
102
RTVSPost2010PropOp38
 70
     1
102
RTVSPost2010Prop39
140
1.0
102
RTVSPost2010PropOp39
 70
     1
102
RTVSPost2010Prop40
 90
        0
102
RTVSPost2010PropOp40
 70
     1
102
RTVSPost2010Prop41ColorIndex
 90
       18
102
RTVSPost2010Prop41ColorRGB
 90
        0
102
RTVSPost2010PropOp41
 70
     1
102
RTVSPost2010Prop42
 90
       50
102
RTVSPost2010PropOp42
 70
     1
102
RTVSPost2010Prop43
 90
        3
102
RTVSPost2010PropOp43
 70
     1
102
RTVSPost2010Prop44ColorIndex
 90
        5
102
RTVSPost2010Prop44ColorRGB
 90
      255
102
RTVSPost2010PropOp44
 70
     1
102
RTVSPost2010Prop45
280
     0
102
RTVSPost2010PropOp45
 70
     1
102
RTVSPost2010Prop46
 90
       50
102
RTVSPost2010PropOp46
 70
     1
102
RTVSPost2010Prop47
 90
       50
102
RTVSPost2010PropOp47
 70
     1
102
RTVSPost2010Prop48
 90
       50
102
RTVSPost2010PropOp48
 70
     1
102
RTVSPost2010Prop49
280
     0
102
RTVSPost2010PropOp49
 70
     1
102
RTVSPost2010Prop50
 90
       50
102
RTVSPost2010PropOp50
 70
     1
102
RTVSPost2010Prop51ColorIndex
 90
      256
102
RTVSPost2010Prop51ColorRGB
 90
-16777216
102
RTVSPost2010PropOp51
 70
     0
102
RTVSPost2010Prop52
140
1.0
102
RTVSPost2010PropOp52
 70
     0
102
RTVSPost2010Prop53
 90
        2
102
RTVSPost2010PropOp53
 70
     1
102
RTVSPost2010Prop54
  1
strokes_ogs.tif
102
RTVSPost2010PropOp54
 70
     1
102
RTVSPost2010Prop55
280
     0
102
RTVSPost2010PropOp55
 70
     1
102
RTVSPost2010Prop56
140
1.0
102
RTVSPost2010PropOp56
 70
     1
102
RTVSPost2010Prop57
140
1.0
102
RTVSPost2010PropOp57
 70
     1
  0
XRECORD
  5
25D
102
{ACAD_REACTORS
330
25C
102
}
330
25C
100
AcDbXrecord
280
     1
102
RTVSPost2010Prop28
280
     0
102
RTVSPost2010PropOp28
 70
     1
102
RTVSPost2010Prop29
280
     1
102
RTVSPost2010PropOp29
 70
     1
102
RTVSPost2010Prop30
280
     1
102
RTVSPost2010PropOp30
 70
     1
102
RTVSPost2010Prop31
280
     0
102
RTVSPost2010PropOp31
 70
     1
102
RTVSPost2010Prop32
280
     0
102
RTVSPost2010PropOp32
 70
     1
102
RTVSPost2010Prop33
280
     0
102
RTVSPost2010PropOp33
 70
     1
102
RTVSPost2010Prop34
280
     0
102
RTVSPost2010PropOp34
 70
     1
102
RTVSPost2010Prop35
280
     0
102
RTVSPost2010PropOp35
 70
     1
102
RTVSPost2010Prop36
280
     0
102
RTVSPost2010PropOp36
 70
     1
102
RTVSPost2010Prop37
 90
       50
102
RTVSPost2010PropOp37
 70
     1
102
RTVSPost2010Prop38
140
0.0
102
RTVSPost2010PropOp38
 70
     1
102
RTVSPost2010Prop39
140
1.0
102
RTVSPost2010PropOp39
 70
     1
102
RTVSPost2010Prop40
 90
        0
102
RTVSPost2010PropOp40
 70
     1
102
RTVSPost2010Prop41ColorIndex
 90
       18
102
RTVSPost2010Prop41ColorRGB
 90
        0
102
RTVSPost2010PropOp41
 70
     1
102
RTVSPost2010Prop42
 90
       50
102
RTVSPost2010PropOp42
 70
     1
102
RTVSPost2010Prop43
 90
        3
102
RTVSPost2010PropOp43
 70
     1
102
RTVSPost2010Prop44ColorIndex
 90
        5
102
RTVSPost2010Prop44ColorRGB
 90
      255
102
RTVSPost2010PropOp44
 70
     1
102
RTVSPost2010Prop45
280
     0
102
RTVSPost2010PropOp45
 70
     1
102
RTVSPost2010Prop46
 90
       50
102
RTVSPost2010PropOp46
 70
     1
102
RTVSPost2010Prop47
 90
       50
102
RTVSPost2010PropOp47
 70
     1
102
RTVSPost2010Prop48
 90
       50
102
RTVSPost2010PropOp48
 70
     1
102
RTVSPost2010Prop49
280
     0
102
RTVSPost2010PropOp49
 70
     1
102
RTVSPost2010Prop50
 90
       50
102
RTVSPost2010PropOp50
 70
     1
102
RTVSPost2010Prop51ColorIndex
 90
      256
102
RTVSPost2010Prop51ColorRGB
 90
-16777216
102
RTVSPost2010PropOp51
 70
     0
102
RTVSPost2010Prop52
140
1.0
102
RTVSPost2010PropOp52
 70
     0
102
RTVSPost2010Prop53
 90
        2
102
RTVSPost2010PropOp53
 70
     1
102
RTVSPost2010Prop54
  1
strokes_ogs.tif
102
RTVSPost2010PropOp54
 70
     1
102
RTVSPost2010Prop55
280
     0
102
RTVSPost2010PropOp55
 70
     1
102
RTVSPost2010Prop56
140
1.0
102
RTVSPost2010PropOp56
 70
     1
102
RTVSPost2010Prop57
140
1.0
102
RTVSPost2010PropOp57
 70
     1
  0
XRECORD
  5
265
102
{ACAD_REACTORS
330
264
102
}
330
264
100
AcDbXrecord
280
     1
102
RTVSPost2010Prop28
280
     0
102
RTVSPost2010PropOp28
 70
     1
102
RTVSPost2010Prop29
280
     1
102
RTVSPost2010PropOp29
 70
     1
102
RTVSPost2010Prop30
280
     1
102
RTVSPost2010PropOp30
 70
     1
102
RTVSPost2010Prop31
280
     0
102
RTVSPost2010PropOp31
 70
     1
102
RTVSPost2010Prop32
280
     0
102
RTVSPost2010PropOp32
 70
     1
102
RTVSPost2010Prop33
280
     0
102
RTVSPost2010PropOp33
 70
     1
102
RTVSPost2010Prop34
280
     0
102
RTVSPost2010PropOp34
 70
     1
102
RTVSPost2010Prop35
280
     0
102
RTVSPost2010PropOp35
 70
     1
102
RTVSPost2010Prop36
280
     0
102
RTVSPost2010PropOp36
 70
     1
102
RTVSPost2010Prop37
 90
       50
102
RTVSPost2010PropOp37
 70
     1
102
RTVSPost2010Prop38
140
0.0
102
RTVSPost2010PropOp38
 70
     1
102
RTVSPost2010Prop39
140
1.0
102
RTVSPost2010PropOp39
 70
     1
102
RTVSPost2010Prop40
 90
        0
102
RTVSPost2010PropOp40
 70
     1
102
RTVSPost2010Prop41ColorIndex
 90
       18
102
RTVSPost2010Prop41ColorRGB
 90
        0
102
RTVSPost2010PropOp41
 70
     1
102
RTVSPost2010Prop42
 90
       50
102
RTVSPost2010PropOp42
 70
     1
102
RTVSPost2010Prop43
 90
        3
102
RTVSPost2010PropOp43
 70
     1
102
RTVSPost2010Prop44ColorIndex
 90
        5
102
RTVSPost2010Prop44ColorRGB
 90
      255
102
RTVSPost2010PropOp44
 70
     1
102
RTVSPost2010Prop45
280
     0
102
RTVSPost2010PropOp45
 70
     1
102
RTVSPost2010Prop46
 90
       50
102
RTVSPost2010PropOp46
 70
     1
102
RTVSPost2010Prop47
 90
       50
102
RTVSPost2010PropOp47
 70
     1
102
RTVSPost2010Prop48
 90
       50
102
RTVSPost2010PropOp48
 70
     1
102
RTVSPost2010Prop49
280
     0
102
RTVSPost2010PropOp49
 70
     1
102
RTVSPost2010Prop50
 90
       50
102
RTVSPost2010PropOp50
 70
     1
102
RTVSPost2010Prop51ColorIndex
 90
      256
102
RTVSPost2010Prop51ColorRGB
 90
-16777216
102
RTVSPost2010PropOp51
 70
     0
102
RTVSPost2010Prop52
140
1.0
102
RTVSPost2010PropOp52
 70
     0
102
RTVSPost2010Prop53
 90
        2
102
RTVSPost2010PropOp53
 70
     1
102
RTVSPost2010Prop54
  1
strokes_ogs.tif
102
RTVSPost2010PropOp54
 70
     1
102
RTVSPost2010Prop55
280
     0
102
RTVSPost2010PropOp55
 70
     1
102
RTVSPost2010Prop56
140
1.0
102
RTVSPost2010PropOp56
 70
     1
102
RTVSPost2010Prop57
140
1.0
102
RTVSPost2010PropOp57
 70
     1
  0
XRECORD
  5
259
102
{ACAD_REACTORS
330
258
102
}
330
258
100
AcDbXrecord
280
     1
102
RTVSPost2010Prop28
280
     0
102
RTVSPost2010PropOp28
 70
     1
102
RTVSPost2010Prop29
280
     1
102
RTVSPost2010PropOp29
 70
     1
102
RTVSPost2010Prop30
280
     1
102
RTVSPost2010PropOp30
 70
     1
102
RTVSPost2010Prop31
280
     0
102
RTVSPost2010PropOp31
 70
     1
102
RTVSPost2010Prop32
280
     0
102
RTVSPost2010PropOp32
 70
     1
102
RTVSPost2010Prop33
280
     0
102
RTVSPost2010PropOp33
 70
     1
102
RTVSPost2010Prop34
280
     0
102
RTVSPost2010PropOp34
 70
     1
102
RTVSPost2010Prop35
280
     0
102
RTVSPost2010PropOp35
 70
     1
102
RTVSPost2010Prop36
280
     0
102
RTVSPost2010PropOp36
 70
     1
102
RTVSPost2010Prop37
 90
       50
102
RTVSPost2010PropOp37
 70
     1
102
RTVSPost2010Prop38
140
0.0
102
RTVSPost2010PropOp38
 70
     1
102
RTVSPost2010Prop39
140
1.0
102
RTVSPost2010PropOp39
 70
     1
102
RTVSPost2010Prop40
 90
        0
102
RTVSPost2010PropOp40
 70
     1
102
RTVSPost2010Prop41ColorIndex
 90
       18
102
RTVSPost2010Prop41ColorRGB
 90
        0
102
RTVSPost2010PropOp41
 70
     1
102
RTVSPost2010Prop42
 90
       50
102
RTVSPost2010PropOp42
 70
     1
102
RTVSPost2010Prop43
 90
        3
102
RTVSPost2010PropOp43
 70
     1
102
RTVSPost2010Prop44ColorIndex
 90
        5
102
RTVSPost2010Prop44ColorRGB
 90
      255
102
RTVSPost2010PropOp44
 70
     1
102
RTVSPost2010Prop45
280
     0
102
RTVSPost2010PropOp45
 70
     1
102
RTVSPost2010Prop46
 90
       50
102
RTVSPost2010PropOp46
 70
     1
102
RTVSPost2010Prop47
 90
       50
102
RTVSPost2010PropOp47
 70
     1
102
RTVSPost2010Prop48
 90
       50
102
RTVSPost2010PropOp48
 70
     1
102
RTVSPost2010Prop49
280
     0
102
RTVSPost2010PropOp49
 70
     1
102
RTVSPost2010Prop50
 90
       50
102
RTVSPost2010PropOp50
 70
     1
102
RTVSPost2010Prop51ColorIndex
 90
      256
102
RTVSPost2010Prop51ColorRGB
 90
-16777216
102
RTVSPost2010PropOp51
 70
     0
102
RTVSPost2010Prop52
140
1.0
102
RTVSPost2010PropOp52
 70
     0
102
RTVSPost2010Prop53
 90
        2
102
RTVSPost2010PropOp53
 70
     1
102
RTVSPost2010Prop54
  1
strokes_ogs.tif
102
RTVSPost2010PropOp54
 70
     1
102
RTVSPost2010Prop55
280
     0
102
RTVSPost2010PropOp55
 70
     1
102
RTVSPost2010Prop56
140
1.0
102
RTVSPost2010PropOp56
 70
     1
102
RTVSPost2010Prop57
140
1.0
102
RTVSPost2010PropOp57
 70
     1
  0
XRECORD
  5
25B
102
{ACAD_REACTORS
330
25A
102
}
330
25A
100
AcDbXrecord
280
     1
102
RTVSPost2010Prop28
280
     0
102
RTVSPost2010PropOp28
 70
     1
102
RTVSPost2010Prop29
280
     1
102
RTVSPost2010PropOp29
 70
     1
102
RTVSPost2010Prop30
280
     1
102
RTVSPost2010PropOp30
 70
     1
102
RTVSPost2010Prop31
280
     0
102
RTVSPost2010PropOp31
 70
     1
102
RTVSPost2010Prop32
280
     0
102
RTVSPost2010PropOp32
 70
     1
102
RTVSPost2010Prop33
280
     0
102
RTVSPost2010PropOp33
 70
     1
102
RTVSPost2010Prop34
280
     0
102
RTVSPost2010PropOp34
 70
     1
102
RTVSPost2010Prop35
280
     0
102
RTVSPost2010PropOp35
 70
     1
102
RTVSPost2010Prop36
280
     0
102
RTVSPost2010PropOp36
 70
     1
102
RTVSPost2010Prop37
 90
       50
102
RTVSPost2010PropOp37
 70
     1
102
RTVSPost2010Prop38
140
0.0
102
RTVSPost2010PropOp38
 70
     1
102
RTVSPost2010Prop39
140
1.0
102
RTVSPost2010PropOp39
 70
     1
102
RTVSPost2010Prop40
 90
        0
102
RTVSPost2010PropOp40
 70
     1
102
RTVSPost2010Prop41ColorIndex
 90
       18
102
RTVSPost2010Prop41ColorRGB
 90
        0
102
RTVSPost2010PropOp41
 70
     1
102
RTVSPost2010Prop42
 90
       50
102
RTVSPost2010PropOp42
 70
     1
102
RTVSPost2010Prop43
 90
        3
102
RTVSPost2010PropOp43
 70
     1
102
RTVSPost2010Prop44ColorIndex
 90
        5
102
RTVSPost2010Prop44ColorRGB
 90
      255
102
RTVSPost2010PropOp44
 70
     1
102
RTVSPost2010Prop45
280
     0
102
RTVSPost2010PropOp45
 70
     1
102
RTVSPost2010Prop46
 90
       50
102
RTVSPost2010PropOp46
 70
     1
102
RTVSPost2010Prop47
 90
       50
102
RTVSPost2010PropOp47
 70
     1
102
RTVSPost2010Prop48
 90
       50
102
RTVSPost2010PropOp48
 70
     1
102
RTVSPost2010Prop49
280
     0
102
RTVSPost2010PropOp49
 70
     1
102
RTVSPost2010Prop50
 90
       50
102
RTVSPost2010PropOp50
 70
     1
102
RTVSPost2010Prop51ColorIndex
 90
      256
102
RTVSPost2010Prop51ColorRGB
 90
-16777216
102
RTVSPost2010PropOp51
 70
     0
102
RTVSPost2010Prop52
140
1.0
102
RTVSPost2010PropOp52
 70
     0
102
RTVSPost2010Prop53
 90
        2
102
RTVSPost2010PropOp53
 70
     1
102
RTVSPost2010Prop54
  1
strokes_ogs.tif
102
RTVSPost2010PropOp54
 70
     1
102
RTVSPost2010Prop55
280
     0
102
RTVSPost2010PropOp55
 70
     1
102
RTVSPost2010Prop56
140
1.0
102
RTVSPost2010PropOp56
 70
     1
102
RTVSPost2010Prop57
140
1.0
102
RTVSPost2010PropOp57
 70
     1
  0
XRECORD
  5
26B
102
{ACAD_REACTORS
330
26A
102
}
330
26A
100
AcDbXrecord
280
     1
102
RTVSPost2010Prop28
280
     0
102
RTVSPost2010PropOp28
 70
     0
102
RTVSPost2010Prop29
280
     1
102
RTVSPost2010PropOp29
 70
     0
102
RTVSPost2010Prop30
280
     1
102
RTVSPost2010PropOp30
 70
     0
102
RTVSPost2010Prop31
280
     0
102
RTVSPost2010PropOp31
 70
     0
102
RTVSPost2010Prop32
280
     0
102
RTVSPost2010PropOp32
 70
     0
102
RTVSPost2010Prop33
280
     0
102
RTVSPost2010PropOp33
 70
     0
102
RTVSPost2010Prop34
280
     0
102
RTVSPost2010PropOp34
 70
     0
102
RTVSPost2010Prop35
280
     0
102
RTVSPost2010PropOp35
 70
     0
102
RTVSPost2010Prop36
280
     0
102
RTVSPost2010PropOp36
 70
     0
102
RTVSPost2010Prop37
 90
       50
102
RTVSPost2010PropOp37
 70
     0
102
RTVSPost2010Prop38
140
0.0
102
RTVSPost2010PropOp38
 70
     0
102
RTVSPost2010Prop39
140
1.0
102
RTVSPost2010PropOp39
 70
     0
102
RTVSPost2010Prop40
 90
        0
102
RTVSPost2010PropOp40
 70
     0
102
RTVSPost2010Prop41ColorIndex
 90
       18
102
RTVSPost2010Prop41ColorRGB
 90
        0
102
RTVSPost2010PropOp41
 70
     0
102
RTVSPost2010Prop42
 90
       50
102
RTVSPost2010PropOp42
 70
     0
102
RTVSPost2010Prop43
 90
        3
102
RTVSPost2010PropOp43
 70
     0
102
RTVSPost2010Prop44ColorIndex
 90
        5
102
RTVSPost2010Prop44ColorRGB
 90
      255
102
RTVSPost2010PropOp44
 70
     0
102
RTVSPost2010Prop45
280
     0
102
RTVSPost2010PropOp45
 70
     0
102
RTVSPost2010Prop46
 90
       50
102
RTVSPost2010PropOp46
 70
     0
102
RTVSPost2010Prop47
 90
       50
102
RTVSPost2010PropOp47
 70
     0
102
RTVSPost2010Prop48
 90
       50
102
RTVSPost2010PropOp48
 70
     0
102
RTVSPost2010Prop49
280
     0
102
RTVSPost2010PropOp49
 70
     0
102
RTVSPost2010Prop50
 90
       50
102
RTVSPost2010PropOp50
 70
     0
102
RTVSPost2010Prop51ColorIndex
 90
      256
102
RTVSPost2010Prop51ColorRGB
 90
-16777216
102
RTVSPost2010PropOp51
 70
     0
102
RTVSPost2010Prop52
140
1.0
102
RTVSPost2010PropOp52
 70
     0
102
RTVSPost2010Prop53
 90
        2
102
RTVSPost2010PropOp53
 70
     0
102
RTVSPost2010Prop54
  1
strokes_ogs.tif
102
RTVSPost2010PropOp54
 70
     0
102
RTVSPost2010Prop55
280
     0
102
RTVSPost2010PropOp55
 70
     0
102
RTVSPost2010Prop56
140
1.0
102
RTVSPost2010PropOp56
 70
     0
102
RTVSPost2010Prop57
140
1.0
102
RTVSPost2010PropOp57
 70
     0
  0
XRECORD
  5
263
102
{ACAD_REACTORS
330
262
102
}
330
262
100
AcDbXrecord
280
     1
102
RTVSPost2010Prop28
280
     0
102
RTVSPost2010PropOp28
 70
     1
102
RTVSPost2010Prop29
280
     1
102
RTVSPost2010PropOp29
 70
     1
102
RTVSPost2010Prop30
280
     1
102
RTVSPost2010PropOp30
 70
     1
102
RTVSPost2010Prop31
280
     0
102
RTVSPost2010PropOp31
 70
     1
102
RTVSPost2010Prop32
280
     0
102
RTVSPost2010PropOp32
 70
     1
102
RTVSPost2010Prop33
280
     0
102
RTVSPost2010PropOp33
 70
     1
102
RTVSPost2010Prop34
280
     0
102
RTVSPost2010PropOp34
 70
     1
102
RTVSPost2010Prop35
280
     0
102
RTVSPost2010PropOp35
 70
     1
102
RTVSPost2010Prop36
280
     0
102
RTVSPost2010PropOp36
 70
     1
102
RTVSPost2010Prop37
 90
       50
102
RTVSPost2010PropOp37
 70
     1
102
RTVSPost2010Prop38
140
0.0
102
RTVSPost2010PropOp38
 70
     1
102
RTVSPost2010Prop39
140
1.0
102
RTVSPost2010PropOp39
 70
     1
102
RTVSPost2010Prop40
 90
        0
102
RTVSPost2010PropOp40
 70
     1
102
RTVSPost2010Prop41ColorIndex
 90
       18
102
RTVSPost2010Prop41ColorRGB
 90
        0
102
RTVSPost2010PropOp41
 70
     1
102
RTVSPost2010Prop42
 90
       50
102
RTVSPost2010PropOp42
 70
     1
102
RTVSPost2010Prop43
 90
        3
102
RTVSPost2010PropOp43
 70
     1
102
RTVSPost2010Prop44ColorIndex
 90
        5
102
RTVSPost2010Prop44ColorRGB
 90
      255
102
RTVSPost2010PropOp44
 70
     1
102
RTVSPost2010Prop45
280
     0
102
RTVSPost2010PropOp45
 70
     1
102
RTVSPost2010Prop46
 90
       50
102
RTVSPost2010PropOp46
 70
     1
102
RTVSPost2010Prop47
 90
       50
102
RTVSPost2010PropOp47
 70
     1
102
RTVSPost2010Prop48
 90
       50
102
RTVSPost2010PropOp48
 70
     1
102
RTVSPost2010Prop49
280
     0
102
RTVSPost2010PropOp49
 70
     1
102
RTVSPost2010Prop50
 90
       50
102
RTVSPost2010PropOp50
 70
     1
102
RTVSPost2010Prop51ColorIndex
 90
      256
102
RTVSPost2010Prop51ColorRGB
 90
-16777216
102
RTVSPost2010PropOp51
 70
     0
102
RTVSPost2010Prop52
140
1.0
102
RTVSPost2010PropOp52
 70
     0
102
RTVSPost2010Prop53
 90
        2
102
RTVSPost2010PropOp53
 70
     1
102
RTVSPost2010Prop54
  1
strokes_ogs.tif
102
RTVSPost2010PropOp54
 70
     1
102
RTVSPost2010Prop55
280
     0
102
RTVSPost2010PropOp55
 70
     1
102
RTVSPost2010Prop56
140
1.0
102
RTVSPost2010PropOp56
 70
     1
102
RTVSPost2010Prop57
140
1.0
102
RTVSPost2010PropOp57
 70
     1
  0
XRECORD
  5
247
102
{ACAD_REACTORS
330
246
102
}
330
246
100
AcDbXrecord
280
     1
102
RTVSPost2010Prop28
280
     0
102
RTVSPost2010PropOp28
 70
     1
102
RTVSPost2010Prop29
280
     1
102
RTVSPost2010PropOp29
 70
     1
102
RTVSPost2010Prop30
280
     1
102
RTVSPost2010PropOp30
 70
     1
102
RTVSPost2010Prop31
280
     0
102
RTVSPost2010PropOp31
 70
     1
102
RTVSPost2010Prop32
280
     0
102
RTVSPost2010PropOp32
 70
     1
102
RTVSPost2010Prop33
280
     0
102
RTVSPost2010PropOp33
 70
     1
102
RTVSPost2010Prop34
280
     0
102
RTVSPost2010PropOp34
 70
     1
102
RTVSPost2010Prop35
280
     0
102
RTVSPost2010PropOp35
 70
     1
102
RTVSPost2010Prop36
280
     0
102
RTVSPost2010PropOp36
 70
     1
102
RTVSPost2010Prop37
 90
       50
102
RTVSPost2010PropOp37
 70
     1
102
RTVSPost2010Prop38
140
0.0
102
RTVSPost2010PropOp38
 70
     1
102
RTVSPost2010Prop39
140
1.0
102
RTVSPost2010PropOp39
 70
     1
102
RTVSPost2010Prop40
 90
        0
102
RTVSPost2010PropOp40
 70
     1
102
RTVSPost2010Prop41ColorIndex
 90
       18
102
RTVSPost2010Prop41ColorRGB
 90
        0
102
RTVSPost2010PropOp41
 70
     1
102
RTVSPost2010Prop42
 90
       50
102
RTVSPost2010PropOp42
 70
     1
102
RTVSPost2010Prop43
 90
        3
102
RTVSPost2010PropOp43
 70
     1
102
RTVSPost2010Prop44ColorIndex
 90
        5
102
RTVSPost2010Prop44ColorRGB
 90
      255
102
RTVSPost2010PropOp44
 70
     1
102
RTVSPost2010Prop45
280
     0
102
RTVSPost2010PropOp45
 70
     1
102
RTVSPost2010Prop46
 90
       50
102
RTVSPost2010PropOp46
 70
     1
102
RTVSPost2010Prop47
 90
       50
102
RTVSPost2010PropOp47
 70
     1
102
RTVSPost2010Prop48
 90
       50
102
RTVSPost2010PropOp48
 70
     1
102
RTVSPost2010Prop49
280
     0
102
RTVSPost2010PropOp49
 70
     1
102
RTVSPost2010Prop50
 90
       50
102
RTVSPost2010PropOp50
 70
     1
102
RTVSPost2010Prop51ColorIndex
 90
      256
102
RTVSPost2010Prop51ColorRGB
 90
-16777216
102
RTVSPost2010PropOp51
 70
     0
102
RTVSPost2010Prop52
140
1.0
102
RTVSPost2010PropOp52
 70
     0
102
RTVSPost2010Prop53
 90
        2
102
RTVSPost2010PropOp53
 70
     1
102
RTVSPost2010Prop54
  1
strokes_ogs.tif
102
RTVSPost2010PropOp54
 70
     1
102
RTVSPost2010Prop55
280
     0
102
RTVSPost2010PropOp55
 70
     1
102
RTVSPost2010Prop56
140
1.0
102
RTVSPost2010PropOp56
 70
     1
102
RTVSPost2010Prop57
140
1.0
102
RTVSPost2010PropOp57
 70
     1
  0
XRECORD
  5
249
102
{ACAD_REACTORS
330
248
102
}
330
248
100
AcDbXrecord
280
     1
102
RTVSPost2010Prop28
280
     0
102
RTVSPost2010PropOp28
 70
     1
102
RTVSPost2010Prop29
280
     1
102
RTVSPost2010PropOp29
 70
     1
102
RTVSPost2010Prop30
280
     1
102
RTVSPost2010PropOp30
 70
     1
102
RTVSPost2010Prop31
280
     0
102
RTVSPost2010PropOp31
 70
     1
102
RTVSPost2010Prop32
280
     0
102
RTVSPost2010PropOp32
 70
     1
102
RTVSPost2010Prop33
280
     0
102
RTVSPost2010PropOp33
 70
     1
102
RTVSPost2010Prop34
280
     0
102
RTVSPost2010PropOp34
 70
     1
102
RTVSPost2010Prop35
280
     0
102
RTVSPost2010PropOp35
 70
     1
102
RTVSPost2010Prop36
280
     0
102
RTVSPost2010PropOp36
 70
     1
102
RTVSPost2010Prop37
 90
       50
102
RTVSPost2010PropOp37
 70
     1
102
RTVSPost2010Prop38
140
0.0
102
RTVSPost2010PropOp38
 70
     1
102
RTVSPost2010Prop39
140
1.0
102
RTVSPost2010PropOp39
 70
     1
102
RTVSPost2010Prop40
 90
        0
102
RTVSPost2010PropOp40
 70
     1
102
RTVSPost2010Prop41ColorIndex
 90
       18
102
RTVSPost2010Prop41ColorRGB
 90
        0
102
RTVSPost2010PropOp41
 70
     1
102
RTVSPost2010Prop42
 90
       50
102
RTVSPost2010PropOp42
 70
     1
102
RTVSPost2010Prop43
 90
        3
102
RTVSPost2010PropOp43
 70
     1
102
RTVSPost2010Prop44ColorIndex
 90
        5
102
RTVSPost2010Prop44ColorRGB
 90
      255
102
RTVSPost2010PropOp44
 70
     1
102
RTVSPost2010Prop45
280
     0
102
RTVSPost2010PropOp45
 70
     1
102
RTVSPost2010Prop46
 90
       50
102
RTVSPost2010PropOp46
 70
     1
102
RTVSPost2010Prop47
 90
       50
102
RTVSPost2010PropOp47
 70
     1
102
RTVSPost2010Prop48
 90
       50
102
RTVSPost2010PropOp48
 70
     1
102
RTVSPost2010Prop49
280
     0
102
RTVSPost2010PropOp49
 70
     1
102
RTVSPost2010Prop50
 90
       50
102
RTVSPost2010PropOp50
 70
     1
102
RTVSPost2010Prop51ColorIndex
 90
      256
102
RTVSPost2010Prop51ColorRGB
 90
-16777216
102
RTVSPost2010PropOp51
 70
     0
102
RTVSPost2010Prop52
140
1.0
102
RTVSPost2010PropOp52
 70
     0
102
RTVSPost2010Prop53
 90
        2
102
RTVSPost2010PropOp53
 70
     1
102
RTVSPost2010Prop54
  1
strokes_ogs.tif
102
RTVSPost2010PropOp54
 70
     1
102
RTVSPost2010Prop55
280
     0
102
RTVSPost2010PropOp55
 70
     1
102
RTVSPost2010Prop56
140
1.0
102
RTVSPost2010PropOp56
 70
     1
102
RTVSPost2010Prop57
140
1.0
102
RTVSPost2010PropOp57
 70
     1
  0
XRECORD
  5
24B
102
{ACAD_REACTORS
330
24A
102
}
330
24A
100
AcDbXrecord
280
     1
102
RTVSPost2010Prop28
280
     0
102
RTVSPost2010PropOp28
 70
     1
102
RTVSPost2010Prop29
280
     1
102
RTVSPost2010PropOp29
 70
     1
102
RTVSPost2010Prop30
280
     1
102
RTVSPost2010PropOp30
 70
     1
102
RTVSPost2010Prop31
280
     0
102
RTVSPost2010PropOp31
 70
     1
102
RTVSPost2010Prop32
280
     0
102
RTVSPost2010PropOp32
 70
     1
102
RTVSPost2010Prop33
280
     0
102
RTVSPost2010PropOp33
 70
     1
102
RTVSPost2010Prop34
280
     0
102
RTVSPost2010PropOp34
 70
     1
102
RTVSPost2010Prop35
280
     0
102
RTVSPost2010PropOp35
 70
     1
102
RTVSPost2010Prop36
280
     0
102
RTVSPost2010PropOp36
 70
     1
102
RTVSPost2010Prop37
 90
       50
102
RTVSPost2010PropOp37
 70
     1
102
RTVSPost2010Prop38
140
0.0
102
RTVSPost2010PropOp38
 70
     1
102
RTVSPost2010Prop39
140
1.0
102
RTVSPost2010PropOp39
 70
     1
102
RTVSPost2010Prop40
 90
        0
102
RTVSPost2010PropOp40
 70
     1
102
RTVSPost2010Prop41ColorIndex
 90
       18
102
RTVSPost2010Prop41ColorRGB
 90
        0
102
RTVSPost2010PropOp41
 70
     1
102
RTVSPost2010Prop42
 90
       50
102
RTVSPost2010PropOp42
 70
     1
102
RTVSPost2010Prop43
 90
        3
102
RTVSPost2010PropOp43
 70
     1
102
RTVSPost2010Prop44ColorIndex
 90
        5
102
RTVSPost2010Prop44ColorRGB
 90
      255
102
RTVSPost2010PropOp44
 70
     1
102
RTVSPost2010Prop45
280
     0
102
RTVSPost2010PropOp45
 70
     1
102
RTVSPost2010Prop46
 90
       50
102
RTVSPost2010PropOp46
 70
     1
102
RTVSPost2010Prop47
 90
       50
102
RTVSPost2010PropOp47
 70
     1
102
RTVSPost2010Prop48
 90
       50
102
RTVSPost2010PropOp48
 70
     1
102
RTVSPost2010Prop49
280
     0
102
RTVSPost2010PropOp49
 70
     1
102
RTVSPost2010Prop50
 90
       50
102
RTVSPost2010PropOp50
 70
     1
102
RTVSPost2010Prop51ColorIndex
 90
      256
102
RTVSPost2010Prop51ColorRGB
 90
-16777216
102
RTVSPost2010PropOp51
 70
     0
102
RTVSPost2010Prop52
140
1.0
102
RTVSPost2010PropOp52
 70
     0
102
RTVSPost2010Prop53
 90
        2
102
RTVSPost2010PropOp53
 70
     1
102
RTVSPost2010Prop54
  1
strokes_ogs.tif
102
RTVSPost2010PropOp54
 70
     1
102
RTVSPost2010Prop55
280
     0
102
RTVSPost2010PropOp55
 70
     1
102
RTVSPost2010Prop56
140
1.0
102
RTVSPost2010PropOp56
 70
     1
102
RTVSPost2010Prop57
140
1.0
102
RTVSPost2010PropOp57
 70
     1
  0
XRECORD
  5
24D
102
{ACAD_REACTORS
330
24C
102
}
330
24C
100
AcDbXrecord
280
     1
102
RTVSPost2010Prop28
280
     0
102
RTVSPost2010PropOp28
 70
     1
102
RTVSPost2010Prop29
280
     1
102
RTVSPost2010PropOp29
 70
     1
102
RTVSPost2010Prop30
280
     1
102
RTVSPost2010PropOp30
 70
     1
102
RTVSPost2010Prop31
280
     0
102
RTVSPost2010PropOp31
 70
     1
102
RTVSPost2010Prop32
280
     0
102
RTVSPost2010PropOp32
 70
     1
102
RTVSPost2010Prop33
280
     0
102
RTVSPost2010PropOp33
 70
     1
102
RTVSPost2010Prop34
280
     0
102
RTVSPost2010PropOp34
 70
     1
102
RTVSPost2010Prop35
280
     0
102
RTVSPost2010PropOp35
 70
     1
102
RTVSPost2010Prop36
280
     0
102
RTVSPost2010PropOp36
 70
     1
102
RTVSPost2010Prop37
 90
       50
102
RTVSPost2010PropOp37
 70
     1
102
RTVSPost2010Prop38
140
0.0
102
RTVSPost2010PropOp38
 70
     1
102
RTVSPost2010Prop39
140
1.0
102
RTVSPost2010PropOp39
 70
     1
102
RTVSPost2010Prop40
 90
        0
102
RTVSPost2010PropOp40
 70
     1
102
RTVSPost2010Prop41ColorIndex
 90
       18
102
RTVSPost2010Prop41ColorRGB
 90
        0
102
RTVSPost2010PropOp41
 70
     1
102
RTVSPost2010Prop42
 90
       50
102
RTVSPost2010PropOp42
 70
     1
102
RTVSPost2010Prop43
 90
        3
102
RTVSPost2010PropOp43
 70
     1
102
RTVSPost2010Prop44ColorIndex
 90
        5
102
RTVSPost2010Prop44ColorRGB
 90
      255
102
RTVSPost2010PropOp44
 70
     1
102
RTVSPost2010Prop45
280
     0
102
RTVSPost2010PropOp45
 70
     1
102
RTVSPost2010Prop46
 90
       50
102
RTVSPost2010PropOp46
 70
     1
102
RTVSPost2010Prop47
 90
       50
102
RTVSPost2010PropOp47
 70
     1
102
RTVSPost2010Prop48
 90
       50
102
RTVSPost2010PropOp48
 70
     1
102
RTVSPost2010Prop49
280
     0
102
RTVSPost2010PropOp49
 70
     1
102
RTVSPost2010Prop50
 90
       50
102
RTVSPost2010PropOp50
 70
     1
102
RTVSPost2010Prop51ColorIndex
 90
      256
102
RTVSPost2010Prop51ColorRGB
 90
-16777216
102
RTVSPost2010PropOp51
 70
     0
102
RTVSPost2010Prop52
140
1.0
102
RTVSPost2010PropOp52
 70
     0
102
RTVSPost2010Prop53
 90
        2
102
RTVSPost2010PropOp53
 70
     1
102
RTVSPost2010Prop54
  1
strokes_ogs.tif
102
RTVSPost2010PropOp54
 70
     1
102
RTVSPost2010Prop55
280
     0
102
RTVSPost2010PropOp55
 70
     1
102
RTVSPost2010Prop56
140
1.0
102
RTVSPost2010PropOp56
 70
     1
102
RTVSPost2010Prop57
140
1.0
102
RTVSPost2010PropOp57
 70
     1
  0
XRECORD
  5
253
102
{ACAD_REACTORS
330
252
102
}
330
252
100
AcDbXrecord
280
     1
102
RTVSPost2010Prop28
280
     0
102
RTVSPost2010PropOp28
 70
     1
102
RTVSPost2010Prop29
280
     1
102
RTVSPost2010PropOp29
 70
     1
102
RTVSPost2010Prop30
280
     1
102
RTVSPost2010PropOp30
 70
     1
102
RTVSPost2010Prop31
280
     0
102
RTVSPost2010PropOp31
 70
     1
102
RTVSPost2010Prop32
280
     0
102
RTVSPost2010PropOp32
 70
     1
102
RTVSPost2010Prop33
280
     0
102
RTVSPost2010PropOp33
 70
     1
102
RTVSPost2010Prop34
280
     0
102
RTVSPost2010PropOp34
 70
     1
102
RTVSPost2010Prop35
280
     0
102
RTVSPost2010PropOp35
 70
     1
102
RTVSPost2010Prop36
280
     0
102
RTVSPost2010PropOp36
 70
     1
102
RTVSPost2010Prop37
 90
       50
102
RTVSPost2010PropOp37
 70
     1
102
RTVSPost2010Prop38
140
0.0
102
RTVSPost2010PropOp38
 70
     1
102
RTVSPost2010Prop39
140
1.0
102
RTVSPost2010PropOp39
 70
     1
102
RTVSPost2010Prop40
 90
        0
102
RTVSPost2010PropOp40
 70
     1
102
RTVSPost2010Prop41ColorIndex
 90
       18
102
RTVSPost2010Prop41ColorRGB
 90
        0
102
RTVSPost2010PropOp41
 70
     1
102
RTVSPost2010Prop42
 90
       50
102
RTVSPost2010PropOp42
 70
     1
102
RTVSPost2010Prop43
 90
        3
102
RTVSPost2010PropOp43
 70
     1
102
RTVSPost2010Prop44ColorIndex
 90
        5
102
RTVSPost2010Prop44ColorRGB
 90
      255
102
RTVSPost2010PropOp44
 70
     1
102
RTVSPost2010Prop45
280
     0
102
RTVSPost2010PropOp45
 70
     1
102
RTVSPost2010Prop46
 90
       50
102
RTVSPost2010PropOp46
 70
     1
102
RTVSPost2010Prop47
 90
       50
102
RTVSPost2010PropOp47
 70
     1
102
RTVSPost2010Prop48
 90
       50
102
RTVSPost2010PropOp48
 70
     1
102
RTVSPost2010Prop49
280
     0
102
RTVSPost2010PropOp49
 70
     1
102
RTVSPost2010Prop50
 90
       50
102
RTVSPost2010PropOp50
 70
     1
102
RTVSPost2010Prop51ColorIndex
 90
      256
102
RTVSPost2010Prop51ColorRGB
 90
-16777216
102
RTVSPost2010PropOp51
 70
     0
102
RTVSPost2010Prop52
140
1.0
102
RTVSPost2010PropOp52
 70
     0
102
RTVSPost2010Prop53
 90
        2
102
RTVSPost2010PropOp53
 70
     1
102
RTVSPost2010Prop54
  1
strokes_ogs.tif
102
RTVSPost2010PropOp54
 70
     1
102
RTVSPost2010Prop55
280
     0
102
RTVSPost2010PropOp55
 70
     1
102
RTVSPost2010Prop56
140
1.0
102
RTVSPost2010PropOp56
 70
     1
102
RTVSPost2010Prop57
140
1.0
102
RTVSPost2010PropOp57
 70
     1
  0
XRECORD
  5
267
102
{ACAD_REACTORS
330
266
102
}
330
266
100
AcDbXrecord
280
     1
102
RTVSPost2010Prop28
280
     0
102
RTVSPost2010PropOp28
 70
     0
102
RTVSPost2010Prop29
280
     1
102
RTVSPost2010PropOp29
 70
     0
102
RTVSPost2010Prop30
280
     1
102
RTVSPost2010PropOp30
 70
     0
102
RTVSPost2010Prop31
280
     0
102
RTVSPost2010PropOp31
 70
     0
102
RTVSPost2010Prop32
280
     0
102
RTVSPost2010PropOp32
 70
     0
102
RTVSPost2010Prop33
280
     0
102
RTVSPost2010PropOp33
 70
     0
102
RTVSPost2010Prop34
280
     0
102
RTVSPost2010PropOp34
 70
     0
102
RTVSPost2010Prop35
280
     0
102
RTVSPost2010PropOp35
 70
     0
102
RTVSPost2010Prop36
280
     0
102
RTVSPost2010PropOp36
 70
     0
102
RTVSPost2010Prop37
 90
       50
102
RTVSPost2010PropOp37
 70
     0
102
RTVSPost2010Prop38
140
0.0
102
RTVSPost2010PropOp38
 70
     0
102
RTVSPost2010Prop39
140
1.0
102
RTVSPost2010PropOp39
 70
     0
102
RTVSPost2010Prop40
 90
        0
102
RTVSPost2010PropOp40
 70
     0
102
RTVSPost2010Prop41ColorIndex
 90
       18
102
RTVSPost2010Prop41ColorRGB
 90
        0
102
RTVSPost2010PropOp41
 70
     0
102
RTVSPost2010Prop42
 90
       50
102
RTVSPost2010PropOp42
 70
     0
102
RTVSPost2010Prop43
 90
        3
102
RTVSPost2010PropOp43
 70
     0
102
RTVSPost2010Prop44ColorIndex
 90
        5
102
RTVSPost2010Prop44ColorRGB
 90
      255
102
RTVSPost2010PropOp44
 70
     0
102
RTVSPost2010Prop45
280
     0
102
RTVSPost2010PropOp45
 70
     0
102
RTVSPost2010Prop46
 90
       50
102
RTVSPost2010PropOp46
 70
     0
102
RTVSPost2010Prop47
 90
       50
102
RTVSPost2010PropOp47
 70
     0
102
RTVSPost2010Prop48
 90
       50
102
RTVSPost2010PropOp48
 70
     0
102
RTVSPost2010Prop49
280
     0
102
RTVSPost2010PropOp49
 70
     0
102
RTVSPost2010Prop50
 90
       50
102
RTVSPost2010PropOp50
 70
     0
102
RTVSPost2010Prop51ColorIndex
 90
      256
102
RTVSPost2010Prop51ColorRGB
 90
-16777216
102
RTVSPost2010PropOp51
 70
     0
102
RTVSPost2010Prop52
140
1.0
102
RTVSPost2010PropOp52
 70
     0
102
RTVSPost2010Prop53
 90
        2
102
RTVSPost2010PropOp53
 70
     0
102
RTVSPost2010Prop54
  1
strokes_ogs.tif
102
RTVSPost2010PropOp54
 70
     0
102
RTVSPost2010Prop55
280
     0
102
RTVSPost2010PropOp55
 70
     0
102
RTVSPost2010Prop56
140
1.0
102
RTVSPost2010PropOp56
 70
     0
102
RTVSPost2010Prop57
140
1.0
102
RTVSPost2010PropOp57
 70
     0
  0
XRECORD
  5
261
102
{ACAD_REACTORS
330
260
102
}
330
260
100
AcDbXrecord
280
     1
102
RTVSPost2010Prop28
280
     0
102
RTVSPost2010PropOp28
 70
     1
102
RTVSPost2010Prop29
280
     1
102
RTVSPost2010PropOp29
 70
     1
102
RTVSPost2010Prop30
280
     1
102
RTVSPost2010PropOp30
 70
     1
102
RTVSPost2010Prop31
280
     0
102
RTVSPost2010PropOp31
 70
     1
102
RTVSPost2010Prop32
280
     0
102
RTVSPost2010PropOp32
 70
     1
102
RTVSPost2010Prop33
280
     0
102
RTVSPost2010PropOp33
 70
     1
102
RTVSPost2010Prop34
280
     0
102
RTVSPost2010PropOp34
 70
     1
102
RTVSPost2010Prop35
280
     0
102
RTVSPost2010PropOp35
 70
     1
102
RTVSPost2010Prop36
280
     0
102
RTVSPost2010PropOp36
 70
     1
102
RTVSPost2010Prop37
 90
       50
102
RTVSPost2010PropOp37
 70
     1
102
RTVSPost2010Prop38
140
0.0
102
RTVSPost2010PropOp38
 70
     1
102
RTVSPost2010Prop39
140
1.0
102
RTVSPost2010PropOp39
 70
     1
102
RTVSPost2010Prop40
 90
        0
102
RTVSPost2010PropOp40
 70
     1
102
RTVSPost2010Prop41ColorIndex
 90
       18
102
RTVSPost2010Prop41ColorRGB
 90
        0
102
RTVSPost2010PropOp41
 70
     1
102
RTVSPost2010Prop42
 90
       50
102
RTVSPost2010PropOp42
 70
     1
102
RTVSPost2010Prop43
 90
        3
102
RTVSPost2010PropOp43
 70
     1
102
RTVSPost2010Prop44ColorIndex
 90
        5
102
RTVSPost2010Prop44ColorRGB
 90
      255
102
RTVSPost2010PropOp44
 70
     1
102
RTVSPost2010Prop45
280
     0
102
RTVSPost2010PropOp45
 70
     1
102
RTVSPost2010Prop46
 90
       50
102
RTVSPost2010PropOp46
 70
     1
102
RTVSPost2010Prop47
 90
       50
102
RTVSPost2010PropOp47
 70
     1
102
RTVSPost2010Prop48
 90
       50
102
RTVSPost2010PropOp48
 70
     1
102
RTVSPost2010Prop49
280
     0
102
RTVSPost2010PropOp49
 70
     1
102
RTVSPost2010Prop50
 90
       50
102
RTVSPost2010PropOp50
 70
     1
102
RTVSPost2010Prop51ColorIndex
 90
      256
102
RTVSPost2010Prop51ColorRGB
 90
-16777216
102
RTVSPost2010PropOp51
 70
     0
102
RTVSPost2010Prop52
140
1.0
102
RTVSPost2010PropOp52
 70
     0
102
RTVSPost2010Prop53
 90
        2
102
RTVSPost2010PropOp53
 70
     1
102
RTVSPost2010Prop54
  1
strokes_ogs.tif
102
RTVSPost2010PropOp54
 70
     1
102
RTVSPost2010Prop55
280
     0
102
RTVSPost2010PropOp55
 70
     1
102
RTVSPost2010Prop56
140
1.0
102
RTVSPost2010PropOp56
 70
     1
102
RTVSPost2010Prop57
140
1.0
102
RTVSPost2010PropOp57
 70
     1
  0
XRECORD
  5
269
102
{ACAD_REACTORS
330
268
102
}
330
268
100
AcDbXrecord
280
     1
102
RTVSPost2010Prop28
280
     0
102
RTVSPost2010PropOp28
 70
     0
102
RTVSPost2010Prop29
280
     1
102
RTVSPost2010PropOp29
 70
     0
102
RTVSPost2010Prop30
280
     1
102
RTVSPost2010PropOp30
 70
     0
102
RTVSPost2010Prop31
280
     0
102
RTVSPost2010PropOp31
 70
     0
102
RTVSPost2010Prop32
280
     0
102
RTVSPost2010PropOp32
 70
     0
102
RTVSPost2010Prop33
280
     0
102
RTVSPost2010PropOp33
 70
     0
102
RTVSPost2010Prop34
280
     0
102
RTVSPost2010PropOp34
 70
     0
102
RTVSPost2010Prop35
280
     0
102
RTVSPost2010PropOp35
 70
     0
102
RTVSPost2010Prop36
280
     0
102
RTVSPost2010PropOp36
 70
     0
102
RTVSPost2010Prop37
 90
       50
102
RTVSPost2010PropOp37
 70
     0
102
RTVSPost2010Prop38
140
0.0
102
RTVSPost2010PropOp38
 70
     0
102
RTVSPost2010Prop39
140
1.0
102
RTVSPost2010PropOp39
 70
     0
102
RTVSPost2010Prop40
 90
        0
102
RTVSPost2010PropOp40
 70
     0
102
RTVSPost2010Prop41ColorIndex
 90
       18
102
RTVSPost2010Prop41ColorRGB
 90
        0
102
RTVSPost2010PropOp41
 70
     0
102
RTVSPost2010Prop42
 90
       50
102
RTVSPost2010PropOp42
 70
     0
102
RTVSPost2010Prop43
 90
        3
102
RTVSPost2010PropOp43
 70
     0
102
RTVSPost2010Prop44ColorIndex
 90
        5
102
RTVSPost2010Prop44ColorRGB
 90
      255
102
RTVSPost2010PropOp44
 70
     0
102
RTVSPost2010Prop45
280
     0
102
RTVSPost2010PropOp45
 70
     0
102
RTVSPost2010Prop46
 90
       50
102
RTVSPost2010PropOp46
 70
     0
102
RTVSPost2010Prop47
 90
       50
102
RTVSPost2010PropOp47
 70
     0
102
RTVSPost2010Prop48
 90
       50
102
RTVSPost2010PropOp48
 70
     0
102
RTVSPost2010Prop49
280
     0
102
RTVSPost2010PropOp49
 70
     0
102
RTVSPost2010Prop50
 90
       50
102
RTVSPost2010PropOp50
 70
     0
102
RTVSPost2010Prop51ColorIndex
 90
      256
102
RTVSPost2010Prop51ColorRGB
 90
-16777216
102
RTVSPost2010PropOp51
 70
     0
102
RTVSPost2010Prop52
140
1.0
102
RTVSPost2010PropOp52
 70
     0
102
RTVSPost2010Prop53
 90
        2
102
RTVSPost2010PropOp53
 70
     0
102
RTVSPost2010Prop54
  1
strokes_ogs.tif
102
RTVSPost2010PropOp54
 70
     0
102
RTVSPost2010Prop55
280
     0
102
RTVSPost2010PropOp55
 70
     0
102
RTVSPost2010Prop56
140
1.0
102
RTVSPost2010PropOp56
 70
     0
102
RTVSPost2010Prop57
140
1.0
102
RTVSPost2010PropOp57
 70
     0
  0
XRECORD
  5
257
102
{ACAD_REACTORS
330
256
102
}
330
256
100
AcDbXrecord
280
     1
102
RTVSPost2010Prop28
280
     0
102
RTVSPost2010PropOp28
 70
     1
102
RTVSPost2010Prop29
280
     1
102
RTVSPost2010PropOp29
 70
     1
102
RTVSPost2010Prop30
280
     1
102
RTVSPost2010PropOp30
 70
     1
102
RTVSPost2010Prop31
280
     0
102
RTVSPost2010PropOp31
 70
     1
102
RTVSPost2010Prop32
280
     0
102
RTVSPost2010PropOp32
 70
     1
102
RTVSPost2010Prop33
280
     0
102
RTVSPost2010PropOp33
 70
     1
102
RTVSPost2010Prop34
280
     0
102
RTVSPost2010PropOp34
 70
     1
102
RTVSPost2010Prop35
280
     0
102
RTVSPost2010PropOp35
 70
     1
102
RTVSPost2010Prop36
280
     0
102
RTVSPost2010PropOp36
 70
     1
102
RTVSPost2010Prop37
 90
       50
102
RTVSPost2010PropOp37
 70
     1
102
RTVSPost2010Prop38
140
0.0
102
RTVSPost2010PropOp38
 70
     1
102
RTVSPost2010Prop39
140
1.0
102
RTVSPost2010PropOp39
 70
     1
102
RTVSPost2010Prop40
 90
        0
102
RTVSPost2010PropOp40
 70
     1
102
RTVSPost2010Prop41ColorIndex
 90
       18
102
RTVSPost2010Prop41ColorRGB
 90
        0
102
RTVSPost2010PropOp41
 70
     1
102
RTVSPost2010Prop42
 90
       50
102
RTVSPost2010PropOp42
 70
     1
102
RTVSPost2010Prop43
 90
        3
102
RTVSPost2010PropOp43
 70
     1
102
RTVSPost2010Prop44ColorIndex
 90
        5
102
RTVSPost2010Prop44ColorRGB
 90
      255
102
RTVSPost2010PropOp44
 70
     1
102
RTVSPost2010Prop45
280
     0
102
RTVSPost2010PropOp45
 70
     1
102
RTVSPost2010Prop46
 90
       50
102
RTVSPost2010PropOp46
 70
     1
102
RTVSPost2010Prop47
 90
       50
102
RTVSPost2010PropOp47
 70
     1
102
RTVSPost2010Prop48
 90
       50
102
RTVSPost2010PropOp48
 70
     1
102
RTVSPost2010Prop49
280
     0
102
RTVSPost2010PropOp49
 70
     1
102
RTVSPost2010Prop50
 90
       50
102
RTVSPost2010PropOp50
 70
     1
102
RTVSPost2010Prop51ColorIndex
 90
      256
102
RTVSPost2010Prop51ColorRGB
 90
-16777216
102
RTVSPost2010PropOp51
 70
     0
102
RTVSPost2010Prop52
140
1.0
102
RTVSPost2010PropOp52
 70
     0
102
RTVSPost2010Prop53
 90
        2
102
RTVSPost2010PropOp53
 70
     1
102
RTVSPost2010Prop54
  1
strokes_ogs.tif
102
RTVSPost2010PropOp54
 70
     1
102
RTVSPost2010Prop55
280
     0
102
RTVSPost2010PropOp55
 70
     1
102
RTVSPost2010Prop56
140
1.0
102
RTVSPost2010PropOp56
 70
     1
102
RTVSPost2010Prop57
140
1.0
102
RTVSPost2010PropOp57
 70
     1
  0
XRECORD
  5
275
102
{ACAD_REACTORS
330
274
102
}
330
274
100
AcDbXrecord
280
     1
102
RTVSPost2010Prop28
280
     0
102
RTVSPost2010PropOp28
 70
     1
102
RTVSPost2010Prop29
280
     1
102
RTVSPost2010PropOp29
 70
     1
102
RTVSPost2010Prop30
280
     1
102
RTVSPost2010PropOp30
 70
     1
102
RTVSPost2010Prop31
280
     0
102
RTVSPost2010PropOp31
 70
     1
102
RTVSPost2010Prop32
280
     0
102
RTVSPost2010PropOp32
 70
     1
102
RTVSPost2010Prop33
280
     0
102
RTVSPost2010PropOp33
 70
     1
102
RTVSPost2010Prop34
280
     0
102
RTVSPost2010PropOp34
 70
     1
102
RTVSPost2010Prop35
280
     0
102
RTVSPost2010PropOp35
 70
     1
102
RTVSPost2010Prop36
280
     0
102
RTVSPost2010PropOp36
 70
     1
102
RTVSPost2010Prop37
 90
       50
102
RTVSPost2010PropOp37
 70
     1
102
RTVSPost2010Prop38
140
0.0
102
RTVSPost2010PropOp38
 70
     1
102
RTVSPost2010Prop39
140
1.0
102
RTVSPost2010PropOp39
 70
     1
102
RTVSPost2010Prop40
 90
        0
102
RTVSPost2010PropOp40
 70
     1
102
RTVSPost2010Prop41ColorIndex
 90
       18
102
RTVSPost2010Prop41ColorRGB
 90
        0
102
RTVSPost2010PropOp41
 70
     1
102
RTVSPost2010Prop42
 90
       50
102
RTVSPost2010PropOp42
 70
     1
102
RTVSPost2010Prop43
 90
        3
102
RTVSPost2010PropOp43
 70
     1
102
RTVSPost2010Prop44ColorIndex
 90
        5
102
RTVSPost2010Prop44ColorRGB
 90
      255
102
RTVSPost2010PropOp44
 70
     1
102
RTVSPost2010Prop45
280
     0
102
RTVSPost2010PropOp45
 70
     1
102
RTVSPost2010Prop46
 90
       50
102
RTVSPost2010PropOp46
 70
     1
102
RTVSPost2010Prop47
 90
       50
102
RTVSPost2010PropOp47
 70
     1
102
RTVSPost2010Prop48
 90
       50
102
RTVSPost2010PropOp48
 70
     1
102
RTVSPost2010Prop49
280
     0
102
RTVSPost2010PropOp49
 70
     1
102
RTVSPost2010Prop50
 90
       50
102
RTVSPost2010PropOp50
 70
     1
102
RTVSPost2010Prop51ColorIndex
 90
      256
102
RTVSPost2010Prop51ColorRGB
 90
-16777216
102
RTVSPost2010PropOp51
 70
     0
102
RTVSPost2010Prop52
140
1.0
102
RTVSPost2010PropOp52
 70
     0
102
RTVSPost2010Prop53
 90
        2
102
RTVSPost2010PropOp53
 70
     1
102
RTVSPost2010Prop54
  1
strokes_ogs.tif
102
RTVSPost2010PropOp54
 70
     1
102
RTVSPost2010Prop55
280
     0
102
RTVSPost2010PropOp55
 70
     1
102
RTVSPost2010Prop56
140
1.0
102
RTVSPost2010PropOp56
 70
     1
102
RTVSPost2010Prop57
140
1.0
102
RTVSPost2010PropOp57
 70
     1
  0
XRECORD
  5
273
102
{ACAD_REACTORS
330
272
102
}
330
272
100
AcDbXrecord
280
     1
102
RTVSPost2010Prop28
280
     0
102
RTVSPost2010PropOp28
 70
     1
102
RTVSPost2010Prop29
280
     1
102
RTVSPost2010PropOp29
 70
     1
102
RTVSPost2010Prop30
280
     1
102
RTVSPost2010PropOp30
 70
     1
102
RTVSPost2010Prop31
280
     0
102
RTVSPost2010PropOp31
 70
     1
102
RTVSPost2010Prop32
280
     0
102
RTVSPost2010PropOp32
 70
     1
102
RTVSPost2010Prop33
280
     0
102
RTVSPost2010PropOp33
 70
     1
102
RTVSPost2010Prop34
280
     0
102
RTVSPost2010PropOp34
 70
     1
102
RTVSPost2010Prop35
280
     0
102
RTVSPost2010PropOp35
 70
     1
102
RTVSPost2010Prop36
280
     0
102
RTVSPost2010PropOp36
 70
     1
102
RTVSPost2010Prop37
 90
       50
102
RTVSPost2010PropOp37
 70
     1
102
RTVSPost2010Prop38
140
0.0
102
RTVSPost2010PropOp38
 70
     1
102
RTVSPost2010Prop39
140
1.0
102
RTVSPost2010PropOp39
 70
     1
102
RTVSPost2010Prop40
 90
        0
102
RTVSPost2010PropOp40
 70
     1
102
RTVSPost2010Prop41ColorIndex
 90
       18
102
RTVSPost2010Prop41ColorRGB
 90
        0
102
RTVSPost2010PropOp41
 70
     1
102
RTVSPost2010Prop42
 90
       50
102
RTVSPost2010PropOp42
 70
     1
102
RTVSPost2010Prop43
 90
        3
102
RTVSPost2010PropOp43
 70
     1
102
RTVSPost2010Prop44ColorIndex
 90
        5
102
RTVSPost2010Prop44ColorRGB
 90
      255
102
RTVSPost2010PropOp44
 70
     1
102
RTVSPost2010Prop45
280
     0
102
RTVSPost2010PropOp45
 70
     1
102
RTVSPost2010Prop46
 90
       50
102
RTVSPost2010PropOp46
 70
     1
102
RTVSPost2010Prop47
 90
       50
102
RTVSPost2010PropOp47
 70
     1
102
RTVSPost2010Prop48
 90
       50
102
RTVSPost2010PropOp48
 70
     1
102
RTVSPost2010Prop49
280
     0
102
RTVSPost2010PropOp49
 70
     1
102
RTVSPost2010Prop50
 90
       50
102
RTVSPost2010PropOp50
 70
     1
102
RTVSPost2010Prop51ColorIndex
 90
      256
102
RTVSPost2010Prop51ColorRGB
 90
-16777216
102
RTVSPost2010PropOp51
 70
     0
102
RTVSPost2010Prop52
140
1.0
102
RTVSPost2010PropOp52
 70
     0
102
RTVSPost2010Prop53
 90
        2
102
RTVSPost2010PropOp53
 70
     1
102
RTVSPost2010Prop54
  1
strokes_ogs.tif
102
RTVSPost2010PropOp54
 70
     1
102
RTVSPost2010Prop55
280
     0
102
RTVSPost2010PropOp55
 70
     1
102
RTVSPost2010Prop56
140
1.0
102
RTVSPost2010PropOp56
 70
     1
102
RTVSPost2010Prop57
140
1.0
102
RTVSPost2010PropOp57
 70
     1
  0
XRECORD
  5
26D
102
{ACAD_REACTORS
330
26C
102
}
330
26C
100
AcDbXrecord
280
     1
102
RTVSPost2010Prop28
280
     0
102
RTVSPost2010PropOp28
 70
     1
102
RTVSPost2010Prop29
280
     1
102
RTVSPost2010PropOp29
 70
     1
102
RTVSPost2010Prop30
280
     1
102
RTVSPost2010PropOp30
 70
     1
102
RTVSPost2010Prop31
280
     0
102
RTVSPost2010PropOp31
 70
     1
102
RTVSPost2010Prop32
280
     0
102
RTVSPost2010PropOp32
 70
     1
102
RTVSPost2010Prop33
280
     0
102
RTVSPost2010PropOp33
 70
     1
102
RTVSPost2010Prop34
280
     0
102
RTVSPost2010PropOp34
 70
     1
102
RTVSPost2010Prop35
280
     0
102
RTVSPost2010PropOp35
 70
     1
102
RTVSPost2010Prop36
280
     0
102
RTVSPost2010PropOp36
 70
     1
102
RTVSPost2010Prop37
 90
       50
102
RTVSPost2010PropOp37
 70
     1
102
RTVSPost2010Prop38
140
0.0
102
RTVSPost2010PropOp38
 70
     1
102
RTVSPost2010Prop39
140
1.0
102
RTVSPost2010PropOp39
 70
     1
102
RTVSPost2010Prop40
 90
        0
102
RTVSPost2010PropOp40
 70
     1
102
RTVSPost2010Prop41ColorIndex
 90
       18
102
RTVSPost2010Prop41ColorRGB
 90
        0
102
RTVSPost2010PropOp41
 70
     1
102
RTVSPost2010Prop42
 90
       50
102
RTVSPost2010PropOp42
 70
     1
102
RTVSPost2010Prop43
 90
        3
102
RTVSPost2010PropOp43
 70
     1
102
RTVSPost2010Prop44ColorIndex
 90
        5
102
RTVSPost2010Prop44ColorRGB
 90
      255
102
RTVSPost2010PropOp44
 70
     1
102
RTVSPost2010Prop45
280
     0
102
RTVSPost2010PropOp45
 70
     1
102
RTVSPost2010Prop46
 90
       50
102
RTVSPost2010PropOp46
 70
     1
102
RTVSPost2010Prop47
 90
       50
102
RTVSPost2010PropOp47
 70
     1
102
RTVSPost2010Prop48
 90
       50
102
RTVSPost2010PropOp48
 70
     1
102
RTVSPost2010Prop49
280
     0
102
RTVSPost2010PropOp49
 70
     1
102
RTVSPost2010Prop50
 90
       50
102
RTVSPost2010PropOp50
 70
     1
102
RTVSPost2010Prop51ColorIndex
 90
      256
102
RTVSPost2010Prop51ColorRGB
 90
-16777216
102
RTVSPost2010PropOp51
 70
     0
102
RTVSPost2010Prop52
140
1.0
102
RTVSPost2010PropOp52
 70
     0
102
RTVSPost2010Prop53
 90
        2
102
RTVSPost2010PropOp53
 70
     1
102
RTVSPost2010Prop54
  1
strokes_ogs.tif
102
RTVSPost2010PropOp54
 70
     1
102
RTVSPost2010Prop55
280
     0
102
RTVSPost2010PropOp55
 70
     1
102
RTVSPost2010Prop56
140
1.0
102
RTVSPost2010PropOp56
 70
     1
102
RTVSPost2010Prop57
140
1.0
102
RTVSPost2010PropOp57
 70
     1
  0
XRECORD
  5
26F
102
{ACAD_REACTORS
330
26E
102
}
330
26E
100
AcDbXrecord
280
     1
102
RTVSPost2010Prop28
280
     0
102
RTVSPost2010PropOp28
 70
     1
102
RTVSPost2010Prop29
280
     1
102
RTVSPost2010PropOp29
 70
     1
102
RTVSPost2010Prop30
280
     1
102
RTVSPost2010PropOp30
 70
     1
102
RTVSPost2010Prop31
280
     0
102
RTVSPost2010PropOp31
 70
     1
102
RTVSPost2010Prop32
280
     0
102
RTVSPost2010PropOp32
 70
     1
102
RTVSPost2010Prop33
280
     0
102
RTVSPost2010PropOp33
 70
     1
102
RTVSPost2010Prop34
280
     0
102
RTVSPost2010PropOp34
 70
     1
102
RTVSPost2010Prop35
280
     0
102
RTVSPost2010PropOp35
 70
     1
102
RTVSPost2010Prop36
280
     0
102
RTVSPost2010PropOp36
 70
     1
102
RTVSPost2010Prop37
 90
       50
102
RTVSPost2010PropOp37
 70
     1
102
RTVSPost2010Prop38
140
0.0
102
RTVSPost2010PropOp38
 70
     1
102
RTVSPost2010Prop39
140
1.0
102
RTVSPost2010PropOp39
 70
     1
102
RTVSPost2010Prop40
 90
        0
102
RTVSPost2010PropOp40
 70
     1
102
RTVSPost2010Prop41ColorIndex
 90
       18
102
RTVSPost2010Prop41ColorRGB
 90
        0
102
RTVSPost2010PropOp41
 70
     1
102
RTVSPost2010Prop42
 90
       50
102
RTVSPost2010PropOp42
 70
     1
102
RTVSPost2010Prop43
 90
        3
102
RTVSPost2010PropOp43
 70
     1
102
RTVSPost2010Prop44ColorIndex
 90
        5
102
RTVSPost2010Prop44ColorRGB
 90
      255
102
RTVSPost2010PropOp44
 70
     1
102
RTVSPost2010Prop45
280
     0
102
RTVSPost2010PropOp45
 70
     1
102
RTVSPost2010Prop46
 90
       50
102
RTVSPost2010PropOp46
 70
     1
102
RTVSPost2010Prop47
 90
       50
102
RTVSPost2010PropOp47
 70
     1
102
RTVSPost2010Prop48
 90
       50
102
RTVSPost2010PropOp48
 70
     1
102
RTVSPost2010Prop49
280
     0
102
RTVSPost2010PropOp49
 70
     1
102
RTVSPost2010Prop50
 90
       50
102
RTVSPost2010PropOp50
 70
     1
102
RTVSPost2010Prop51ColorIndex
 90
      256
102
RTVSPost2010Prop51ColorRGB
 90
-16777216
102
RTVSPost2010PropOp51
 70
     0
102
RTVSPost2010Prop52
140
1.0
102
RTVSPost2010PropOp52
 70
     0
102
RTVSPost2010Prop53
 90
        2
102
RTVSPost2010PropOp53
 70
     1
102
RTVSPost2010Prop54
  1
strokes_ogs.tif
102
RTVSPost2010PropOp54
 70
     1
102
RTVSPost2010Prop55
280
     0
102
RTVSPost2010PropOp55
 70
     1
102
RTVSPost2010Prop56
140
1.0
102
RTVSPost2010PropOp56
 70
     1
102
RTVSPost2010Prop57
140
1.0
102
RTVSPost2010PropOp57
 70
     1
  0
XRECORD
  5
25F
102
{ACAD_REACTORS
330
25E
102
}
330
25E
100
AcDbXrecord
280
     1
102
RTVSPost2010Prop28
280
     0
102
RTVSPost2010PropOp28
 70
     1
102
RTVSPost2010Prop29
280
     1
102
RTVSPost2010PropOp29
 70
     1
102
RTVSPost2010Prop30
280
     1
102
RTVSPost2010PropOp30
 70
     1
102
RTVSPost2010Prop31
280
     0
102
RTVSPost2010PropOp31
 70
     1
102
RTVSPost2010Prop32
280
     0
102
RTVSPost2010PropOp32
 70
     1
102
RTVSPost2010Prop33
280
     0
102
RTVSPost2010PropOp33
 70
     1
102
RTVSPost2010Prop34
280
     0
102
RTVSPost2010PropOp34
 70
     1
102
RTVSPost2010Prop35
280
     0
102
RTVSPost2010PropOp35
 70
     1
102
RTVSPost2010Prop36
280
     0
102
RTVSPost2010PropOp36
 70
     1
102
RTVSPost2010Prop37
 90
       50
102
RTVSPost2010PropOp37
 70
     1
102
RTVSPost2010Prop38
140
0.0
102
RTVSPost2010PropOp38
 70
     1
102
RTVSPost2010Prop39
140
1.0
102
RTVSPost2010PropOp39
 70
     1
102
RTVSPost2010Prop40
 90
        0
102
RTVSPost2010PropOp40
 70
     1
102
RTVSPost2010Prop41ColorIndex
 90
       18
102
RTVSPost2010Prop41ColorRGB
 90
        0
102
RTVSPost2010PropOp41
 70
     1
102
RTVSPost2010Prop42
 90
       50
102
RTVSPost2010PropOp42
 70
     1
102
RTVSPost2010Prop43
 90
        3
102
RTVSPost2010PropOp43
 70
     1
102
RTVSPost2010Prop44ColorIndex
 90
        5
102
RTVSPost2010Prop44ColorRGB
 90
      255
102
RTVSPost2010PropOp44
 70
     1
102
RTVSPost2010Prop45
280
     0
102
RTVSPost2010PropOp45
 70
     1
102
RTVSPost2010Prop46
 90
       50
102
RTVSPost2010PropOp46
 70
     1
102
RTVSPost2010Prop47
 90
       50
102
RTVSPost2010PropOp47
 70
     1
102
RTVSPost2010Prop48
 90
       50
102
RTVSPost2010PropOp48
 70
     1
102
RTVSPost2010Prop49
280
     0
102
RTVSPost2010PropOp49
 70
     1
102
RTVSPost2010Prop50
 90
       50
102
RTVSPost2010PropOp50
 70
     1
102
RTVSPost2010Prop51ColorIndex
 90
      256
102
RTVSPost2010Prop51ColorRGB
 90
-16777216
102
RTVSPost2010PropOp51
 70
     0
102
RTVSPost2010Prop52
140
1.0
102
RTVSPost2010PropOp52
 70
     0
102
RTVSPost2010Prop53
 90
        2
102
RTVSPost2010PropOp53
 70
     1
102
RTVSPost2010Prop54
  1
strokes_ogs.tif
102
RTVSPost2010PropOp54
 70
     1
102
RTVSPost2010Prop55
280
     0
102
RTVSPost2010PropOp55
 70
     1
102
RTVSPost2010Prop56
140
1.0
102
RTVSPost2010PropOp56
 70
     1
102
RTVSPost2010Prop57
140
1.0
102
RTVSPost2010PropOp57
 70
     1
  0
XRECORD
  5
251
102
{ACAD_REACTORS
330
250
102
}
330
250
100
AcDbXrecord
280
     1
102
RTVSPost2010Prop28
280
     0
102
RTVSPost2010PropOp28
 70
     1
102
RTVSPost2010Prop29
280
     1
102
RTVSPost2010PropOp29
 70
     1
102
RTVSPost2010Prop30
280
     1
102
RTVSPost2010PropOp30
 70
     1
102
RTVSPost2010Prop31
280
     0
102
RTVSPost2010PropOp31
 70
     1
102
RTVSPost2010Prop32
280
     0
102
RTVSPost2010PropOp32
 70
     1
102
RTVSPost2010Prop33
280
     0
102
RTVSPost2010PropOp33
 70
     1
102
RTVSPost2010Prop34
280
     0
102
RTVSPost2010PropOp34
 70
     1
102
RTVSPost2010Prop35
280
     0
102
RTVSPost2010PropOp35
 70
     1
102
RTVSPost2010Prop36
280
     0
102
RTVSPost2010PropOp36
 70
     1
102
RTVSPost2010Prop37
 90
       50
102
RTVSPost2010PropOp37
 70
     1
102
RTVSPost2010Prop38
140
0.0
102
RTVSPost2010PropOp38
 70
     1
102
RTVSPost2010Prop39
140
1.0
102
RTVSPost2010PropOp39
 70
     1
102
RTVSPost2010Prop40
 90
        0
102
RTVSPost2010PropOp40
 70
     1
102
RTVSPost2010Prop41ColorIndex
 90
       18
102
RTVSPost2010Prop41ColorRGB
 90
        0
102
RTVSPost2010PropOp41
 70
     1
102
RTVSPost2010Prop42
 90
       50
102
RTVSPost2010PropOp42
 70
     1
102
RTVSPost2010Prop43
 90
        3
102
RTVSPost2010PropOp43
 70
     1
102
RTVSPost2010Prop44ColorIndex
 90
        5
102
RTVSPost2010Prop44ColorRGB
 90
      255
102
RTVSPost2010PropOp44
 70
     1
102
RTVSPost2010Prop45
280
     0
102
RTVSPost2010PropOp45
 70
     1
102
RTVSPost2010Prop46
 90
       50
102
RTVSPost2010PropOp46
 70
     1
102
RTVSPost2010Prop47
 90
       50
102
RTVSPost2010PropOp47
 70
     1
102
RTVSPost2010Prop48
 90
       50
102
RTVSPost2010PropOp48
 70
     1
102
RTVSPost2010Prop49
280
     0
102
RTVSPost2010PropOp49
 70
     1
102
RTVSPost2010Prop50
 90
       50
102
RTVSPost2010PropOp50
 70
     1
102
RTVSPost2010Prop51ColorIndex
 90
      256
102
RTVSPost2010Prop51ColorRGB
 90
-16777216
102
RTVSPost2010PropOp51
 70
     0
102
RTVSPost2010Prop52
140
1.0
102
RTVSPost2010PropOp52
 70
     0
102
RTVSPost2010Prop53
 90
        2
102
RTVSPost2010PropOp53
 70
     1
102
RTVSPost2010Prop54
  1
strokes_ogs.tif
102
RTVSPost2010PropOp54
 70
     1
102
RTVSPost2010Prop55
280
     0
102
RTVSPost2010PropOp55
 70
     1
102
RTVSPost2010Prop56
140
1.0
102
RTVSPost2010PropOp56
 70
     1
102
RTVSPost2010Prop57
140
1.0
102
RTVSPost2010PropOp57
 70
     1
  0
XRECORD
  5
271
102
{ACAD_REACTORS
330
270
102
}
330
270
100
AcDbXrecord
280
     1
102
RTVSPost2010Prop28
280
     0
102
RTVSPost2010PropOp28
 70
     1
102
RTVSPost2010Prop29
280
     1
102
RTVSPost2010PropOp29
 70
     1
102
RTVSPost2010Prop30
280
     1
102
RTVSPost2010PropOp30
 70
     1
102
RTVSPost2010Prop31
280
     0
102
RTVSPost2010PropOp31
 70
     1
102
RTVSPost2010Prop32
280
     0
102
RTVSPost2010PropOp32
 70
     1
102
RTVSPost2010Prop33
280
     0
102
RTVSPost2010PropOp33
 70
     1
102
RTVSPost2010Prop34
280
     0
102
RTVSPost2010PropOp34
 70
     1
102
RTVSPost2010Prop35
280
     0
102
RTVSPost2010PropOp35
 70
     1
102
RTVSPost2010Prop36
280
     0
102
RTVSPost2010PropOp36
 70
     1
102
RTVSPost2010Prop37
 90
       50
102
RTVSPost2010PropOp37
 70
     1
102
RTVSPost2010Prop38
140
0.0
102
RTVSPost2010PropOp38
 70
     1
102
RTVSPost2010Prop39
140
1.0
102
RTVSPost2010PropOp39
 70
     1
102
RTVSPost2010Prop40
 90
        0
102
RTVSPost2010PropOp40
 70
     1
102
RTVSPost2010Prop41ColorIndex
 90
       18
102
RTVSPost2010Prop41ColorRGB
 90
        0
102
RTVSPost2010PropOp41
 70
     1
102
RTVSPost2010Prop42
 90
       50
102
RTVSPost2010PropOp42
 70
     1
102
RTVSPost2010Prop43
 90
        3
102
RTVSPost2010PropOp43
 70
     1
102
RTVSPost2010Prop44ColorIndex
 90
        5
102
RTVSPost2010Prop44ColorRGB
 90
      255
102
RTVSPost2010PropOp44
 70
     1
102
RTVSPost2010Prop45
280
     0
102
RTVSPost2010PropOp45
 70
     1
102
RTVSPost2010Prop46
 90
       50
102
RTVSPost2010PropOp46
 70
     1
102
RTVSPost2010Prop47
 90
       50
102
RTVSPost2010PropOp47
 70
     1
102
RTVSPost2010Prop48
 90
       50
102
RTVSPost2010PropOp48
 70
     1
102
RTVSPost2010Prop49
280
     0
102
RTVSPost2010PropOp49
 70
     1
102
RTVSPost2010Prop50
 90
       50
102
RTVSPost2010PropOp50
 70
     1
102
RTVSPost2010Prop51ColorIndex
 90
      256
102
RTVSPost2010Prop51ColorRGB
 90
-16777216
102
RTVSPost2010PropOp51
 70
     0
102
RTVSPost2010Prop52
140
1.0
102
RTVSPost2010PropOp52
 70
     0
102
RTVSPost2010Prop53
 90
        2
102
RTVSPost2010PropOp53
 70
     1
102
RTVSPost2010Prop54
  1
strokes_ogs.tif
102
RTVSPost2010PropOp54
 70
     1
102
RTVSPost2010Prop55
280
     0
102
RTVSPost2010PropOp55
 70
     1
102
RTVSPost2010Prop56
140
1.0
102
RTVSPost2010PropOp56
 70
     1
102
RTVSPost2010Prop57
140
1.0
102
RTVSPost2010PropOp57
 70
     1
  0
ENDSEC
  0
EOF
