  0
SECTION
  2
HEADER
  9
$ACADVER
  1
AC1015
  9
$ACADMAINTVER
 70
     6
  9
$DWGCODEPAGE
  3
ANSI_1252
  9
$INSBASE
 10
0.0
 20
0.0
 30
0.0
  9
$EXTMIN
 10
72.160202
 20
249.065536
 30
0.0
  9
$EXTMAX
 10
984.867004
 20
1424.972656
 30
0.0
  9
$LIMMIN
 10
72.160202
 20
249.065536
  9
$LIMMAX
 10
984.867004
 20
1424.972656
  9
$ORTHOMODE
 70
     0
  9
$REGENMODE
 70
     1
  9
$FILLMODE
 70
     1
  9
$QTEXTMODE
 70
     0
  9
$MIRRTEXT
 70
     1
  9
$LTSCALE
 40
1.0
  9
$ATTMODE
 70
     1
  9
$TEXTSIZE
 40
2.5
  9
$TRACEWID
 40
1.0
  9
$TEXTSTYLE
  7
Standard
  9
$CLAYER
  8
0
  9
$CELTYPE
  6
ByLayer
  9
$CECOLOR
 62
   256
  9
$CELTSCALE
 40
1.0
  9
$DISPSILH
 70
     0
  9
$DIMSCALE
 40
1.0
  9
$DIMASZ
 40
2.5
  9
$DIMEXO
 40
0.625
  9
$DIMDLI
 40
3.75
  9
$DIMRND
 40
0.0
  9
$DIMDLE
 40
0.0
  9
$DIMEXE
 40
1.25
  9
$DIMTP
 40
0.0
  9
$DIMTM
 40
0.0
  9
$DIMTXT
 40
2.5
  9
$DIMCEN
 40
2.5
  9
$DIMTSZ
 40
0.0
  9
$DIMTOL
 70
     0
  9
$DIMLIM
 70
     0
  9
$DIMTIH
 70
     0
  9
$DIMTOH
 70
     0
  9
$DIMSE1
 70
     0
  9
$DIMSE2
 70
     0
  9
$DIMTAD
 70
     1
  9
$DIMZIN
 70
     8
  9
$DIMBLK
  1

  9
$DIMASO
 70
     1
  9
$DIMSHO
 70
     1
  9
$DIMPOST
  1

  9
$DIMAPOST
  1

  9
$DIMALT
 70
     0
  9
$DIMALTD
 70
     3
  9
$DIMALTF
 40
0.03937
  9
$DIMLFAC
 40
1.0
  9
$DIMTOFL
 70
     1
  9
$DIMTVP
 40
0.0
  9
$DIMTIX
 70
     0
  9
$DIMSOXD
 70
     0
  9
$DIMSAH
 70
     0
  9
$DIMBLK1
  1

  9
$DIMBLK2
  1

  9
$DIMSTYLE
  2
ISO-25
  9
$DIMCLRD
 70
     0
  9
$DIMCLRE
 70
     0
  9
$DIMCLRT
 70
     0
  9
$DIMTFAC
 40
1.0
  9
$DIMGAP
 40
0.625
  9
$DIMJUST
 70
     0
  9
$DIMSD1
 70
     0
  9
$DIMSD2
 70
     0
  9
$DIMTOLJ
 70
     0
  9
$DIMTZIN
 70
     8
  9
$DIMALTZ
 70
     0
  9
$DIMALTTZ
 70
     0
  9
$DIMUPT
 70
     0
  9
$DIMDEC
 70
     2
  9
$DIMTDEC
 70
     2
  9
$DIMALTU
 70
     2
  9
$DIMALTTD
 70
     3
  9
$DIMTXSTY
  7
Standard
  9
$DIMAUNIT
 70
     0
  9
$DIMADEC
 70
     0
  9
$DIMALTRND
 40
0.0
  9
$DIMAZIN
 70
     0
  9
$DIMDSEP
 70
    44
  9
$DIMATFIT
 70
     3
  9
$DIMFRAC
 70
     0
  9
$DIMLDRBLK
  1

  9
$DIMLUNIT
 70
     2
  9
$DIMLWD
 70
    -2
  9
$DIMLWE
 70
    -2
  9
$DIMTMOVE
 70
     0
  9
$LUNITS
 70
     2
  9
$LUPREC
 70
     4
  9
$SKETCHINC
 40
1.0
  9
$FILLETRAD
 40
10.0
  9
$AUNITS
 70
     0
  9
$AUPREC
 70
     0
  9
$MENU
  1
.
  9
$ELEVATION
 40
0.0
  9
$PELEVATION
 40
0.0
  9
$THICKNESS
 40
0.0
  9
$LIMCHECK
 70
     0
  9
$CHAMFERA
 40
0.0
  9
$CHAMFERB
 40
0.0
  9
$CHAMFERC
 40
0.0
  9
$CHAMFERD
 40
0.0
  9
$SKPOLY
 70
     0
  9
$TDCREATE
 40
2459751.471371482
  9
$TDUCREATE
 40
2459751.388038148
  9
$TDUPDATE
 40
2459751.471372257
  9
$TDUUPDATE
 40
2459751.388038923
  9
$TDINDWG
 40
0.0000000116
  9
$TDUSRTIMER
 40
0.0000000116
  9
$USRTIMER
 70
     1
  9
$ANGBASE
 50
0.0
  9
$ANGDIR
 70
     0
  9
$PDMODE
 70
     0
  9
$PDSIZE
 40
0.0
  9
$PLINEWID
 40
0.0
  9
$SPLFRAME
 70
     0
  9
$SPLINETYPE
 70
     6
  9
$SPLINESEGS
 70
     8
  9
$HANDSEED
  5
284
  9
$SURFTAB1
 70
     6
  9
$SURFTAB2
 70
     6
  9
$SURFTYPE
 70
     6
  9
$SURFU
 70
     6
  9
$SURFV
 70
     6
  9
$UCSBASE
  2

  9
$UCSNAME
  2

  9
$UCSORG
 10
0.0
 20
0.0
 30
0.0
  9
$UCSXDIR
 10
1.0
 20
0.0
 30
0.0
  9
$UCSYDIR
 10
0.0
 20
1.0
 30
0.0
  9
$UCSORTHOREF
  2

  9
$UCSORTHOVIEW
 70
     0
  9
$UCSORGTOP
 10
0.0
 20
0.0
 30
0.0
  9
$UCSORGBOTTOM
 10
0.0
 20
0.0
 30
0.0
  9
$UCSORGLEFT
 10
0.0
 20
0.0
 30
0.0
  9
$UCSORGRIGHT
 10
0.0
 20
0.0
 30
0.0
  9
$UCSORGFRONT
 10
0.0
 20
0.0
 30
0.0
  9
$UCSORGBACK
 10
0.0
 20
0.0
 30
0.0
  9
$PUCSBASE
  2

  9
$PUCSNAME
  2

  9
$PUCSORG
 10
0.0
 20
0.0
 30
0.0
  9
$PUCSXDIR
 10
1.0
 20
0.0
 30
0.0
  9
$PUCSYDIR
 10
0.0
 20
1.0
 30
0.0
  9
$PUCSORTHOREF
  2

  9
$PUCSORTHOVIEW
 70
     0
  9
$PUCSORGTOP
 10
0.0
 20
0.0
 30
0.0
  9
$PUCSORGBOTTOM
 10
0.0
 20
0.0
 30
0.0
  9
$PUCSORGLEFT
 10
0.0
 20
0.0
 30
0.0
  9
$PUCSORGRIGHT
 10
0.0
 20
0.0
 30
0.0
  9
$PUCSORGFRONT
 10
0.0
 20
0.0
 30
0.0
  9
$PUCSORGBACK
 10
0.0
 20
0.0
 30
0.0
  9
$USERI1
 70
     0
  9
$USERI2
 70
     0
  9
$USERI3
 70
     0
  9
$USERI4
 70
     0
  9
$USERI5
 70
     0
  9
$USERR1
 40
0.0
  9
$USERR2
 40
0.0
  9
$USERR3
 40
0.0
  9
$USERR4
 40
0.0
  9
$USERR5
 40
0.0
  9
$WORLDVIEW
 70
     1
  9
$SHADEDGE
 70
     3
  9
$SHADEDIF
 70
    70
  9
$TILEMODE
 70
     1
  9
$MAXACTVP
 70
    64
  9
$PINSBASE
 10
0.0
 20
0.0
 30
0.0
  9
$PLIMCHECK
 70
     0
  9
$PEXTMIN
 10
1.000000E+20
 20
1.000000E+20
 30
1.000000E+20
  9
$PEXTMAX
 10
-1.000000E+20
 20
-1.000000E+20
 30
-1.000000E+20
  9
$PLIMMIN
 10
0.0
 20
0.0
  9
$PLIMMAX
 10
420.0
 20
297.0
  9
$UNITMODE
 70
     0
  9
$VISRETAIN
 70
     1
  9
$PLINEGEN
 70
     0
  9
$PSLTSCALE
 70
     1
  9
$TREEDEPTH
 70
  3020
  9
$CMLSTYLE
  2
Standard
  9
$CMLJUST
 70
     0
  9
$CMLSCALE
 40
20.0
  9
$PROXYGRAPHICS
 70
     1
  9
$MEASUREMENT
 70
     1
  9
$CELWEIGHT
370
    -1
  9
$ENDCAPS
280
     0
  9
$JOINSTYLE
280
     0
  9
$LWDISPLAY
290
     0
  9
$INSUNITS
 70
     4
  9
$HYPERLINKBASE
  1

  9
$STYLESHEET
  1

  9
$XEDIT
290
     1
  9
$CEPSNTYPE
380
     0
  9
$PSTYLEMODE
290
     1
  9
$FINGERPRINTGUID
  2
{f245fcb1-084a-4ae3-be6b-cb64be1513af}
  9
$VERSIONGUID
  2
{FAEB1C32-E019-11D5-929B-00C0DF256EC4}
  9
$EXTNAMES
290
     1
  9
$PSVPSCALE
 40
0.0
  9
$OLESTARTUP
290
     0
  0
ENDSEC
  0
SECTION
  2
CLASSES
  0
CLASS
  1
ACDBDICTIONARYWDFLT
  2
AcDbDictionaryWithDefault
  3
ObjectDBX Classes
 90
        0
280
     0
281
     0
  0
CLASS
  1
VISUALSTYLE
  2
AcDbVisualStyle
  3
ObjectDBX Classes
 90
     4095
280
     0
281
     0
  0
CLASS
  1
MATERIAL
  2
AcDbMaterial
  3
ObjectDBX Classes
 90
     1153
280
     0
281
     0
  0
CLASS
  1
SCALE
  2
AcDbScale
  3
ObjectDBX Classes
 90
     1153
280
     0
281
     0
  0
CLASS
  1
TABLESTYLE
  2
AcDbTableStyle
  3
ObjectDBX Classes
 90
     4095
280
     0
281
     0
  0
CLASS
  1
MLEADERSTYLE
  2
AcDbMLeaderStyle
  3
ACDB_MLEADERSTYLE_CLASS
 90
     4095
280
     0
281
     0
  0
CLASS
  1
SUN
  2
AcDbSun
  3
SCENEOE
 90
     1153
280
     0
281
     0
  0
CLASS
  1
DICTIONARYVAR
  2
AcDbDictionaryVar
  3
ObjectDBX Classes
 90
        0
280
     0
281
     0
  0
CLASS
  1
ACDBPLACEHOLDER
  2
AcDbPlaceHolder
  3
ObjectDBX Classes
 90
        0
280
     0
281
     0
  0
CLASS
  1
LAYOUT
  2
AcDbLayout
  3
ObjectDBX Classes
 90
        0
280
     0
281
     0
  0
ENDSEC
  0
SECTION
  2
TABLES
  0
TABLE
  2
VPORT
  5
8
102
{ACAD_XDICTIONARY
360
247
102
}
330
0
100
AcDbSymbolTable
 70
     1
  0
VPORT
  5
29
330
8
100
AcDbSymbolTableRecord
100
AcDbViewportTableRecord
  2
*Active
 70
     0
 10
0.0
 20
0.0
 11
1.0
 21
1.0
 12
344.186916
 22
148.5
 13
0.0
 23
0.0
 14
10.0
 24
10.0
 15
10.0
 25
10.0
 16
0.0
 26
0.0
 36
1.0
 17
0.0
 27
0.0
 37
0.0
 40
297.0
 41
1.972973
 42
50.0
 43
0.0
 44
0.0
 50
0.0
 51
0.0
 71
     0
 72
   100
 73
     1
 74
     3
 75
     0
 76
     0
 77
     0
 78
     0
281
     0
 65
     1
110
0.0
120
0.0
130
0.0
111
1.0
121
0.0
131
0.0
112
0.0
122
1.0
132
0.0
 79
     0
146
0.0
  0
ENDTAB
  0
TABLE
  2
LTYPE
  5
5
330
0
100
AcDbSymbolTable
 70
     1
  0
LTYPE
  5
14
330
5
100
AcDbSymbolTableRecord
100
AcDbLinetypeTableRecord
  2
ByBlock
 70
     0
  3

 72
    65
 73
     0
 40
0.0
  0
LTYPE
  5
15
330
5
100
AcDbSymbolTableRecord
100
AcDbLinetypeTableRecord
  2
ByLayer
 70
     0
  3

 72
    65
 73
     0
 40
0.0
  0
LTYPE
  5
16
330
5
100
AcDbSymbolTableRecord
100
AcDbLinetypeTableRecord
  2
Continuous
 70
     0
  3
Solid line
 72
    65
 73
     0
 40
0.0
  0
ENDTAB
  0
TABLE
  2
LAYER
  5
2
330
0
100
AcDbSymbolTable
 70
     1
  0
LAYER
  5
10
330
2
100
AcDbSymbolTableRecord
100
AcDbLayerTableRecord
  2
0
 70
     0
 62
   106
  6
Continuous
370
     0
390
F
  0
ENDTAB
  0
TABLE
  2
STYLE
  5
3
330
0
100
AcDbSymbolTable
 70
     4
  0
STYLE
  5
11
330
3
100
AcDbSymbolTableRecord
100
AcDbTextStyleTableRecord
  2
Standard
 70
     0
 40
0.0
 41
1.0
 50
0.0
 71
     0
 42
2.5
  3
txt
  4

  0
STYLE
  5
6E
330
3
100
AcDbSymbolTableRecord
100
AcDbTextStyleTableRecord
  2
Default
 70
     0
 40
0.0
 41
1.0
 50
0.0
 71
     0
 42
2.5
  3

  4

1001
ACAD
1000
txt
1071
        0
  0
STYLE
  5
6F
330
3
100
AcDbSymbolTableRecord
100
AcDbTextStyleTableRecord
  2
ISO
 70
     0
 40
0.0
 41
1.0
 50
0.0
 71
     0
 42
2.5
  3

  4

1001
ACAD
1000
txt
1071
        0
  0
STYLE
  5
70
330
3
100
AcDbSymbolTableRecord
100
AcDbTextStyleTableRecord
  2
zucchetti
 70
     0
 40
0.0
 41
1.0
 50
0.0
 71
     0
 42
2.5
  3

  4

1001
ACAD
1000
Arial
1071
        0
  0
ENDTAB
  0
TABLE
  2
VIEW
  5
6
330
0
100
AcDbSymbolTable
 70
     0
  0
ENDTAB
  0
TABLE
  2
UCS
  5
7
330
0
100
AcDbSymbolTable
 70
     0
  0
ENDTAB
  0
TABLE
  2
APPID
  5
9
330
0
100
AcDbSymbolTable
 70
     2
  0
APPID
  5
12
330
9
100
AcDbSymbolTableRecord
100
AcDbRegAppTableRecord
  2
ACAD
 70
     0
  0
APPID
  5
281
330
9
100
AcDbSymbolTableRecord
100
AcDbRegAppTableRecord
  2
ACAD_MLEADERVER
 70
     0
  0
ENDTAB
  0
TABLE
  2
DIMSTYLE
  5
A
330
0
100
AcDbSymbolTable
 70
     4
100
AcDbDimStyleTable
  0
DIMSTYLE
105
27
330
A
100
AcDbSymbolTableRecord
100
AcDbDimStyleTableRecord
  2
ISO-25
 70
     0
 41
2.5
 42
0.625
 43
3.75
 44
1.25
 73
     0
 74
     0
 77
     1
 78
     8
140
2.5
141
2.5
143
0.03937
147
0.625
171
     3
172
     1
178
     0
271
     2
272
     2
274
     3
278
    44
283
     0
284
     8
340
11
  0
DIMSTYLE
105
71
330
A
100
AcDbSymbolTableRecord
100
AcDbDimStyleTableRecord
  2
Default
 70
     0
  3
<>
 41
4.375
 42
1.05
 44
2.1
 73
     0
 74
     0
 77
     1
 78
     8
140
3.5
146
0.4
147
1.75
172
     1
271
     2
178
     3
271
     2
272
     3
284
     8
340
6E
341
72
342
72
  0
DIMSTYLE
105
79
330
A
100
AcDbSymbolTableRecord
100
AcDbDimStyleTableRecord
  2
ISO
 70
     0
  3
<>
 41
4.375
 42
1.05
 44
2.1
 73
     0
 74
     0
 77
     1
 78
     8
140
3.5
146
0.4
147
1.75
172
     1
271
     2
178
     3
271
     2
272
     3
284
     8
340
6F
341
72
342
72
  0
DIMSTYLE
105
7A
330
A
100
AcDbSymbolTableRecord
100
AcDbDimStyleTableRecord
  2
zucchetti
 70
     0
  3
<>
 41
3.0
 42
0.9
 44
1.8
 73
     0
 74
     0
 77
     1
 78
     8
140
3.0
146
0.6
147
1.5
172
     1
176
     3
177
     3
271
     2
178
     3
271
     2
272
     2
284
     8
340
70
  0
ENDTAB
  0
TABLE
  2
BLOCK_RECORD
  5
1
330
0
100
AcDbSymbolTable
 70
     6
  0
BLOCK_RECORD
  5
1F
330
1
100
AcDbSymbolTableRecord
100
AcDbBlockTableRecord
  2
*Model_Space
340
22
  0
BLOCK_RECORD
  5
1B
330
1
100
AcDbSymbolTableRecord
100
AcDbBlockTableRecord
  2
*Paper_Space
340
1E
  0
BLOCK_RECORD
  5
23
330
1
100
AcDbSymbolTableRecord
100
AcDbBlockTableRecord
  2
*Paper_Space0
340
26
  0
BLOCK_RECORD
  5
72
330
1
100
AcDbSymbolTableRecord
100
AcDbBlockTableRecord
  2
_Closed
340
0
  0
BLOCK_RECORD
  5
7B
330
1
100
AcDbSymbolTableRecord
100
AcDbBlockTableRecord
  2
a
340
0
102
{BLKREFS
331
ED
102
}
  0
BLOCK_RECORD
  5
EE
330
1
100
AcDbSymbolTableRecord
100
AcDbBlockTableRecord
  2
b
340
0
102
{BLKREFS
331
14E
102
}
  0
BLOCK_RECORD
  5
14F
330
1
100
AcDbSymbolTableRecord
100
AcDbBlockTableRecord
  2
c
340
0
102
{BLKREFS
331
1DD
102
}
  0
BLOCK_RECORD
  5
1DE
330
1
100
AcDbSymbolTableRecord
100
AcDbBlockTableRecord
  2
d
340
0
102
{BLKREFS
331
23B
102
}
  0
ENDTAB
  0
ENDSEC
  0
SECTION
  2
BLOCKS
  0
BLOCK
  5
20
330
1F
100
AcDbEntity
  8
0
100
AcDbBlockBegin
  2
*Model_Space
 70
     0
 10
0.0
 20
0.0
 30
0.0
  3
*Model_Space
  1

  0
ENDBLK
  5
21
330
1F
100
AcDbEntity
  8
0
100
AcDbBlockEnd
  0
BLOCK
  5
1C
330
1B
100
AcDbEntity
 67
     1
  8
0
100
AcDbBlockBegin
  2
*Paper_Space
 70
     0
 10
0.0
 20
0.0
 30
0.0
  3
*Paper_Space
  1

  0
ENDBLK
  5
1D
330
1B
100
AcDbEntity
 67
     1
  8
0
100
AcDbBlockEnd
  0
BLOCK
  5
24
330
23
100
AcDbEntity
  8
0
100
AcDbBlockBegin
  2
*Paper_Space0
 70
     0
 10
0.0
 20
0.0
 30
0.0
  3
*Paper_Space0
  1

  0
ENDBLK
  5
25
330
23
100
AcDbEntity
  8
0
100
AcDbBlockEnd
  0
BLOCK
  5
73
330
72
100
AcDbEntity
  8
0
100
AcDbBlockBegin
  2
_Closed
 70
     0
 10
0.0
 20
0.0
 30
0.0
  3
_Closed
  1

  0
LINE
  5
75
330
72
100
AcDbEntity
  8
0
  6
ByBlock
 62
     0
370
    -2
100
AcDbLine
 10
-1.0
 20
0.166667
 30
0.0
 11
0.0
 21
0.0
 31
0.0
  0
LINE
  5
76
330
72
100
AcDbEntity
  8
0
  6
ByBlock
 62
     0
370
    -2
100
AcDbLine
 10
0.0
 20
0.0
 30
0.0
 11
-1.0
 21
-0.166667
 31
0.0
  0
LINE
  5
77
330
72
100
AcDbEntity
  8
0
  6
ByBlock
 62
     0
370
    -2
100
AcDbLine
 10
-1.0
 20
0.166667
 30
0.0
 11
-1.0
 21
-0.166667
 31
0.0
  0
LINE
  5
78
330
72
100
AcDbEntity
  8
0
  6
ByBlock
 62
     0
370
    -2
100
AcDbLine
 10
0.0
 20
0.0
 30
0.0
 11
-1.0
 21
0.0
 31
0.0
  0
ENDBLK
  5
74
330
72
100
AcDbEntity
  8
0
100
AcDbBlockEnd
  0
BLOCK
  5
EB
330
7B
100
AcDbEntity
  8
0
100
AcDbBlockBegin
  2
a
 70
     0
 10
456.655762
 20
575.515869
 30
0.0
  3
a
  1

  0
ARC
  5
7C
330
7B
100
AcDbEntity
  8
0
  6
Continuous
 62
     0
370
    30
100
AcDbCircle
 10
580.914904
 20
1251.851895
 30
0.0
 40
30.0
100
AcDbArc
 50
282.415531
 51
26.239503
  0
ARC
  5
7D
330
7B
100
AcDbEntity
  8
0
  6
Continuous
 62
     0
370
    30
100
AcDbCircle
 10
580.914904
 20
1251.851895
 30
0.0
 40
30.0
100
AcDbArc
 50
26.239503
 51
257.388843
  0
ARC
  5
7E
330
7B
100
AcDbEntity
  8
0
  6
Continuous
 62
     0
370
     0
100
AcDbCircle
 10
580.914904
 20
1251.851895
 30
0.0
 40
29.5
100
AcDbArc
 50
26.239503
 51
257.171482
  0
ARC
  5
7F
330
7B
100
AcDbEntity
  8
0
  6
Continuous
 62
     0
370
     0
100
AcDbCircle
 10
580.914904
 20
1251.851895
 30
0.0
 40
29.5
100
AcDbArc
 50
282.629408
 51
26.239503
  0
ARC
  5
80
330
7B
100
AcDbEntity
  8
0
  6
Continuous
 62
     0
370
    30
100
AcDbCircle
 10
580.914904
 20
1251.851895
 30
0.0
 40
22.5
100
AcDbArc
 50
289.788934
 51
26.239503
  0
ARC
  5
81
330
7B
100
AcDbEntity
  8
0
  6
Continuous
 62
     0
370
    30
100
AcDbCircle
 10
580.914904
 20
1251.851895
 30
0.0
 40
22.5
100
AcDbArc
 50
26.239503
 51
249.811879
  0
ARC
  5
82
330
7B
100
AcDbEntity
  8
0
  6
Continuous
 62
     0
370
    30
100
AcDbCircle
 10
580.914906
 20
1251.851898
 30
0.0
 40
22.1
100
AcDbArc
 50
52.241557
 51
246.94468
  0
ARC
  5
83
330
7B
100
AcDbEntity
  8
0
  6
Continuous
 62
     0
370
    30
100
AcDbCircle
 10
580.914906
 20
1251.851898
 30
0.0
 40
22.1
100
AcDbArc
 50
292.375866
 51
52.241557
  0
SPLINE
  5
84
330
7B
100
AcDbEntity
  8
0
  6
Continuous
 62
     0
370
     0
100
AcDbSpline
210
0.0
220
0.0
230
1.0
 70
     8
 71
     3
 72
    15
 73
    11
 74
     0
 42
0.000000001
 43
0.0
 40
0.0
 40
0.0
 40
0.0
 40
0.0
 40
1.469674664182747
 40
2.962880568228435
 40
4.485177109110918
 40
6.02112409529523
 40
7.545861819389856
 40
9.039932754785566
 40
10.50608008789814
 40
10.50610419927259
 40
10.50610419927259
 40
10.50610419927259
 40
10.50610419927259
 10
580.8649056621107
 20
1224.767807279734
 30
0.0
 10
581.3547972168383
 20
1224.767807283541
 30
0.0
 10
582.3476280191487
 20
1224.85519518484
 30
0.0
 10
583.72767772566
 20
1225.213786272617
 30
0.0
 10
584.9401927173712
 20
1225.725533887824
 30
0.0
 10
585.9431866617347
 20
1226.297026256563
 30
0.0
 10
586.7051673335022
 20
1226.828093754581
 30
0.0
 10
587.1912631678406
 20
1227.214470754133
 30
0.0
 10
587.3045903235083
 20
1227.310582498438
 30
0.0
 10
587.3045893482054
 20
1227.310587540464
 30
0.0
 10
587.3045893481741
 20
1227.310587540534
 30
0.0
  0
SPLINE
  5
85
330
7B
100
AcDbEntity
  8
0
  6
Continuous
 62
     0
370
     0
100
AcDbSpline
210
0.0
220
0.0
230
1.0
 70
     8
 71
     3
 72
    14
 73
    10
 74
     0
 42
0.000000001
 43
0.0
 40
10.5061041992726
 40
10.5061041992726
 40
10.5061041992726
 40
10.5061041992726
 40
11.97224721254941
 40
13.46632750103146
 40
14.99102140770555
 40
16.52703805362475
 40
18.04922144612189
 40
19.54254960117321
 40
21.01220839854519
 40
21.01220839854519
 40
21.01220839854519
 40
21.01220839854519
 10
574.4252219365227
 20
1227.310587440438
 30
0.0
 10
574.4252238348606
 20
1227.310591699305
 30
0.0
 10
574.5385536925534
 20
1227.214501504049
 30
0.0
 10
575.0246465965431
 20
1226.828061671827
 30
0.0
 10
575.7866054881116
 20
1226.296907288502
 30
0.0
 10
576.7896111474877
 20
1225.725523593738
 30
0.0
 10
578.0021078924417
 20
1225.213688323864
 30
0.0
 10
579.3821239925202
 20
1224.85488085735
 30
0.0
 10
580.37501939632
 20
1224.767807275927
 30
0.0
 10
580.8649056621107
 20
1224.767807279734
 30
0.0
  0
LINE
  5
86
330
7B
100
AcDbEntity
  8
0
  6
Continuous
 62
     0
370
     0
100
AcDbLine
 10
580.864906
 20
1229.855069
 30
0.0
 11
580.864906
 21
1224.767807
 31
0.0
  0
CIRCLE
  5
87
330
7B
100
AcDbEntity
  8
0
  6
Continuous
 62
     0
370
    30
100
AcDbCircle
 10
580.864905
 20
1251.855069
 30
0.0
 40
22.0
  0
CIRCLE
  5
88
330
7B
100
AcDbEntity
  8
0
  6
Continuous
 62
     0
370
     0
100
AcDbCircle
 10
580.864905
 20
1251.855069
 30
0.0
 40
21.5
  0
LINE
  5
89
330
7B
100
AcDbEntity
  8
0
  6
Continuous
 62
     0
370
    30
100
AcDbLine
 10
574.364906
 20
1163.855069
 30
0.0
 11
580.134761
 21
1163.855069
 31
0.0
  0
LINE
  5
8A
330
7B
100
AcDbEntity
  8
0
  6
Continuous
 62
     0
370
    30
100
AcDbLine
 10
580.134761
 20
1163.855069
 30
0.0
 11
587.364906
 21
1163.855069
 31
0.0
  0
LINE
  5
8B
330
7B
100
AcDbEntity
  8
0
  6
Continuous
 62
     0
370
     0
100
AcDbLine
 10
580.864906
 20
1223.855069
 30
0.0
 11
580.13476
 21
1223.855069
 31
0.0
  0
LINE
  5
8C
330
7B
100
AcDbEntity
  8
0
  6
Continuous
 62
     0
370
     0
100
AcDbLine
 10
587.364906
 20
1223.855069
 30
0.0
 11
580.864906
 21
1223.855069
 31
0.0
  0
LINE
  5
8D
330
7B
100
AcDbEntity
  8
0
  6
Continuous
 62
     0
370
     0
100
AcDbLine
 10
580.13476
 20
1223.855069
 30
0.0
 11
574.364906
 21
1223.855069
 31
0.0
  0
LINE
  5
8E
330
7B
100
AcDbEntity
  8
0
  6
Continuous
 62
     0
370
    30
100
AcDbLine
 10
574.364906
 20
1223.855069
 30
0.0
 11
574.364906
 21
1163.855069
 31
0.0
  0
LINE
  5
8F
330
7B
100
AcDbEntity
  8
0
  6
Continuous
 62
     0
370
    30
100
AcDbLine
 10
587.364906
 20
1223.855069
 30
0.0
 11
587.364906
 21
1163.855069
 31
0.0
  0
SPLINE
  5
90
330
7B
100
AcDbEntity
  8
0
  6
Continuous
 62
     0
370
    30
100
AcDbSpline
210
0.0
220
0.0
230
1.0
 70
     8
 71
     3
 72
    19
 73
    15
 74
     0
 42
0.000000001
 43
0.0
 40
0.0
 40
0.0
 40
0.0
 40
0.0
 40
1.409316377589829
 40
2.113975628685159
 40
2.818635598118269
 40
3.170965921705025
 40
4.227958566440588
 40
4.756459546961727
 40
5.108804112460784
 40
5.285002902303548
 40
5.461350135313327
 40
5.549876385916487
 40
5.640742402660858
 40
5.698030153966878
 40
5.698030153966878
 40
5.698030153966878
 40
5.698030153966878
 10
587.304551530197
 20
1227.310587942232
 30
0.0
 10
587.2963762264444
 20
1227.778759189135
 30
0.0
 10
587.3840890804612
 20
1228.486912217207
 30
0.0
 10
587.6937574724112
 20
1229.37608946856
 30
0.0
 10
587.9634250234143
 20
1229.899465887551
 30
0.0
 10
588.3507484120785
 20
1230.488692262032
 30
0.0
 10
588.7802747355513
 20
1230.975993378017
 30
0.0
 10
589.2792990350497
 20
1231.387620190616
 30
0.0
 10
589.5699559060854
 20
1231.587176004524
 30
0.0
 10
589.7704309129498
 20
1231.709784764201
 30
0.0
 10
589.8984213863532
 20
1231.781922868694
 30
0.0
 10
590.0029212155905
 20
1231.837390217294
 30
0.0
 10
590.0719744020347
 20
1231.872078932707
 30
0.0
 10
590.1121723209135
 20
1231.892303796288
 30
0.0
 10
590.1272646854152
 20
1231.89990202298
 30
0.0
  0
SPLINE
  5
91
330
7B
100
AcDbEntity
  8
0
  6
Continuous
 62
     0
370
    30
100
AcDbSpline
210
0.0
220
0.0
230
1.0
 70
     8
 71
     3
 72
    19
 73
    15
 74
     0
 42
0.000000001
 43
0.0
 40
0.0
 40
0.0
 40
0.0
 40
0.0
 40
1.409316377589738
 40
2.113975628685229
 40
2.818635598118592
 40
3.170965921706329
 40
4.227958566451235
 40
4.7564595470191
 40
5.108804112655417
 40
5.285002902837563
 40
5.461350137625773
 40
5.549876392681076
 40
5.640742437197339
 40
5.698030223668326
 40
5.698030223668326
 40
5.698030223668326
 40
5.698030223668326
 10
574.4252597544997
 20
1227.310587842137
 30
0.0
 10
574.4334350509752
 20
1227.778759089167
 30
0.0
 10
574.3457221859516
 20
1228.486912115875
 30
0.0
 10
574.0360537801797
 20
1229.376089362414
 30
0.0
 10
573.7663862210447
 20
1229.899465777213
 30
0.0
 10
573.3790628232117
 20
1230.488692145677
 30
0.0
 10
572.9495364922435
 20
1230.975993254957
 30
0.0
 10
572.4505121861142
 20
1231.387620059909
 30
0.0
 10
572.1598553122966
 20
1231.587175869156
 30
0.0
 10
571.9593803024233
 20
1231.70978462628
 30
0.0
 10
571.8313898287088
 20
1231.781922728456
 30
0.0
 10
571.7268899877245
 20
1231.837390080924
 30
0.0
 10
571.6578368048666
 20
1231.872078793061
 30
0.0
 10
571.6176388892058
 20
1231.89230365414
 30
0.0
 10
571.6025465242485
 20
1231.899901880727
 30
0.0
  0
LINE
  5
92
330
7B
100
AcDbEntity
  8
0
  6
Continuous
 62
     0
370
    30
100
AcDbLine
 10
574.364906
 20
1223.855069
 30
0.0
 11
574.425222
 21
1227.310587
 31
0.0
  0
LINE
  5
93
330
7B
100
AcDbEntity
  8
0
  6
Continuous
 62
     0
370
    30
100
AcDbLine
 10
587.364906
 20
1223.855069
 30
0.0
 11
587.304589
 21
1227.310588
 31
0.0
  0
CIRCLE
  5
94
330
7B
100
AcDbEntity
  8
0
  6
Continuous
 62
     0
370
     0
100
AcDbCircle
 10
500.91491
 20
1251.851901
 30
0.0
 40
14.0
  0
CIRCLE
  5
95
330
7B
100
AcDbEntity
  8
0
  6
Continuous
 62
     0
370
    30
100
AcDbCircle
 10
500.91491
 20
1251.851901
 30
0.0
 40
15.0
  0
ARC
  5
96
330
7B
100
AcDbEntity
  8
0
  6
Continuous
 62
     0
370
    30
100
AcDbCircle
 10
500.914909
 20
1251.851901
 30
0.0
 40
30.00000018737843
100
AcDbArc
 50
109.471237
 51
123.853612
  0
ARC
  5
97
330
7B
100
AcDbEntity
  8
0
  6
Continuous
 62
     0
370
    30
100
AcDbCircle
 10
500.914909
 20
1251.851901
 30
0.0
 40
30.00000018737843
100
AcDbArc
 50
289.711773
 51
70.528777
  0
ARC
  5
98
330
7B
100
AcDbEntity
  8
0
  6
Continuous
 62
     0
370
    30
100
AcDbCircle
 10
500.914909
 20
1251.851901
 30
0.0
 40
30.00000018737843
100
AcDbArc
 50
123.853612
 51
245.588466
  0
ARC
  5
99
330
7B
100
AcDbEntity
  8
0
  6
Continuous
 62
     0
370
     0
100
AcDbCircle
 10
500.914909
 20
1251.851901
 30
0.0
 40
29.50000018737843
100
AcDbArc
 50
123.853612
 51
245.107263
  0
ARC
  5
9A
330
7B
100
AcDbEntity
  8
0
  6
Continuous
 62
     0
370
     0
100
AcDbCircle
 10
500.914909
 20
1251.851901
 30
0.0
 40
29.50000018737843
100
AcDbArc
 50
290.097011
 51
70.18507
  0
ARC
  5
9B
330
7B
100
AcDbEntity
  8
0
  6
Continuous
 62
     0
370
     0
100
AcDbCircle
 10
500.914909
 20
1251.851901
 30
0.0
 40
29.50000018737843
100
AcDbArc
 50
109.814945
 51
123.853612
  0
ARC
  5
9C
330
7B
100
AcDbEntity
  8
0
  6
Continuous
 62
     0
370
    30
100
AcDbCircle
 10
500.914909
 20
1251.851901
 30
0.0
 40
15.35000000545757
100
AcDbArc
 50
313.881596
 51
42.318404
  0
ARC
  5
9D
330
7B
100
AcDbEntity
  8
0
  6
Continuous
 62
     0
370
    30
100
AcDbCircle
 10
500.914909
 20
1251.851901
 30
0.0
 40
15.35000000545757
100
AcDbArc
 50
137.681616
 51
217.546835
  0
LINE
  5
9E
330
7B
100
AcDbEntity
  8
0
  6
Continuous
 62
     0
370
     0
100
AcDbLine
 10
493.914692
 20
1234.997461
 30
0.0
 11
488.39025
 21
1234.997461
 31
0.0
  0
LINE
  5
9F
330
7B
100
AcDbEntity
  8
0
  6
Continuous
 62
     0
370
     0
100
AcDbLine
 10
511.19025
 20
1234.997461
 30
0.0
 11
507.914692
 21
1234.997461
 31
0.0
  0
LINE
  5
A0
330
7B
100
AcDbEntity
  8
0
  6
Continuous
 62
     0
370
    30
100
AcDbLine
 10
507.914679
 20
1234.797461
 30
0.0
 11
510.99025
 21
1234.797461
 31
0.0
  0
LINE
  5
A1
330
7B
100
AcDbEntity
  8
0
  6
Continuous
 62
     0
370
    30
100
AcDbLine
 10
488.59025
 20
1234.797461
 30
0.0
 11
493.914679
 21
1234.797461
 31
0.0
  0
LINE
  5
A2
330
7B
100
AcDbEntity
  8
0
  6
Continuous
 62
     0
370
    30
100
AcDbLine
 10
495.921683
 20
1237.707373
 30
0.0
 11
490.860624
 21
1237.707373
 31
0.0
  0
LINE
  5
A3
330
7B
100
AcDbEntity
  8
0
  6
Continuous
 62
     0
370
    30
100
AcDbLine
 10
510.969189
 20
1237.707373
 30
0.0
 11
505.908137
 21
1237.707373
 31
0.0
  0
LINE
  5
A4
330
7B
100
AcDbEntity
  8
0
  6
Continuous
 62
     0
370
    30
100
AcDbLine
 10
493.914501
 20
1231.347373
 30
0.0
 11
492.981103
 21
1231.347373
 31
0.0
  0
LINE
  5
A5
330
7B
100
AcDbEntity
  8
0
  6
Continuous
 62
     0
370
    30
100
AcDbLine
 10
511.290249
 20
1231.347373
 30
0.0
 11
507.914501
 21
1231.347373
 31
0.0
  0
LINE
  5
A6
330
7B
100
AcDbEntity
  8
0
  6
Continuous
 62
     0
370
    30
100
AcDbLine
 10
492.981103
 20
1231.347373
 30
0.0
 11
488.290249
 21
1231.347373
 31
0.0
  0
LINE
  5
A7
330
7B
100
AcDbEntity
  8
0
  6
Continuous
 62
     0
370
    30
100
AcDbLine
 10
493.915264
 20
1202.347373
 30
0.0
 11
493.837112
 21
1202.347373
 31
0.0
  0
LINE
  5
A8
330
7B
100
AcDbEntity
  8
0
  6
Continuous
 62
     0
370
    30
100
AcDbLine
 10
509.844532
 20
1202.347373
 30
0.0
 11
507.915263
 21
1202.347373
 31
0.0
  0
LINE
  5
A9
330
7B
100
AcDbEntity
  8
0
  6
Continuous
 62
     0
370
    30
100
AcDbLine
 10
493.837112
 20
1202.347373
 30
0.0
 11
489.735967
 21
1202.347373
 31
0.0
  0
LINE
  5
AA
330
7B
100
AcDbEntity
  8
0
  6
Continuous
 62
     0
370
     0
100
AcDbLine
 10
489.236242
 20
1202.830795
 30
0.0
 11
493.541225
 21
1202.830795
 31
0.0
  0
LINE
  5
AB
330
7B
100
AcDbEntity
  8
0
  6
Continuous
 62
     0
370
     0
100
AcDbLine
 10
507.915239
 20
1202.830795
 30
0.0
 11
510.344257
 21
1202.830795
 31
0.0
  0
LINE
  5
AC
330
7B
100
AcDbEntity
  8
0
  6
Continuous
 62
     0
370
     0
100
AcDbLine
 10
493.541225
 20
1202.830795
 30
0.0
 11
493.915239
 21
1202.830795
 31
0.0
  0
LINE
  5
AD
330
7B
100
AcDbEntity
  8
0
  6
Continuous
 62
     0
370
    30
100
AcDbLine
 10
489.409753
 20
1360.97269
 30
0.0
 11
500.914905
 21
1360.97269
 31
0.0
  0
LINE
  5
AE
330
7B
100
AcDbEntity
  8
0
  6
Continuous
 62
     0
370
    30
100
AcDbLine
 10
500.914905
 20
1360.97269
 30
0.0
 11
512.420057
 21
1360.97269
 31
0.0
  0
CIRCLE
  5
AF
330
7B
100
AcDbEntity
  8
0
  6
Continuous
 62
     0
370
    30
100
AcDbCircle
 10
500.914905
 20
1376.97269
 30
0.0
 40
11.99999999995187
  0
CIRCLE
  5
B0
330
7B
100
AcDbEntity
  8
0
  6
Continuous
 62
     0
370
    30
100
AcDbCircle
 10
500.914905
 20
1376.97269
 30
0.0
 40
10.7
  0
CIRCLE
  5
B1
330
7B
100
AcDbEntity
  8
0
  6
Continuous
 62
     0
370
    30
100
AcDbCircle
 10
500.914905
 20
1376.97269
 30
0.0
 40
10.5
  0
LINE
  5
B2
330
7B
100
AcDbEntity
  8
0
  6
Continuous
 62
     0
370
    30
100
AcDbLine
 10
495.664905
 20
1377.97269
 30
0.0
 11
495.664905
 21
1375.97269
 31
0.0
  0
LINE
  5
B3
330
7B
100
AcDbEntity
  8
0
  6
Continuous
 62
     0
370
    30
100
AcDbLine
 10
495.664905
 20
1375.97269
 30
0.0
 11
506.164905
 21
1375.97269
 31
0.0
  0
LINE
  5
B4
330
7B
100
AcDbEntity
  8
0
  6
Continuous
 62
     0
370
    30
100
AcDbLine
 10
506.164905
 20
1375.97269
 30
0.0
 11
506.164905
 21
1377.97269
 31
0.0
  0
LINE
  5
B5
330
7B
100
AcDbEntity
  8
0
  6
Continuous
 62
     0
370
    30
100
AcDbLine
 10
506.164905
 20
1377.97269
 30
0.0
 11
495.664905
 21
1377.97269
 31
0.0
  0
CIRCLE
  5
B6
330
7B
100
AcDbEntity
  8
0
  6
Continuous
 62
     0
370
    30
100
AcDbCircle
 10
500.914905
 20
1384.47269
 30
0.0
 40
0.5
  0
CIRCLE
  5
B7
330
7B
100
AcDbEntity
  8
0
  6
Continuous
 62
     0
370
    30
100
AcDbCircle
 10
497.414905
 20
1380.47269
 30
0.0
 40
0.5
  0
CIRCLE
  5
B8
330
7B
100
AcDbEntity
  8
0
  6
Continuous
 62
     0
370
    30
100
AcDbCircle
 10
504.414905
 20
1380.47269
 30
0.0
 40
0.5
  0
CIRCLE
  5
B9
330
7B
100
AcDbEntity
  8
0
  6
Continuous
 62
     0
370
    30
100
AcDbCircle
 10
497.414905
 20
1373.47269
 30
0.0
 40
0.5
  0
CIRCLE
  5
BA
330
7B
100
AcDbEntity
  8
0
  6
Continuous
 62
     0
370
    30
100
AcDbCircle
 10
504.414905
 20
1373.47269
 30
0.0
 40
0.5
  0
CIRCLE
  5
BB
330
7B
100
AcDbEntity
  8
0
  6
Continuous
 62
     0
370
    30
100
AcDbCircle
 10
496.506515
 20
1383.040318
 30
0.0
 40
0.5
  0
CIRCLE
  5
BC
330
7B
100
AcDbEntity
  8
0
  6
Continuous
 62
     0
370
    30
100
AcDbCircle
 10
493.781981
 20
1379.290318
 30
0.0
 40
0.5
  0
CIRCLE
  5
BD
330
7B
100
AcDbEntity
  8
0
  6
Continuous
 62
     0
370
    30
100
AcDbCircle
 10
493.781981
 20
1374.655063
 30
0.0
 40
0.5
  0
CIRCLE
  5
BE
330
7B
100
AcDbEntity
  8
0
  6
Continuous
 62
     0
370
    30
100
AcDbCircle
 10
496.506515
 20
1370.905063
 30
0.0
 40
0.5
  0
CIRCLE
  5
BF
330
7B
100
AcDbEntity
  8
0
  6
Continuous
 62
     0
370
    30
100
AcDbCircle
 10
500.914905
 20
1369.47269
 30
0.0
 40
0.5
  0
CIRCLE
  5
C0
330
7B
100
AcDbEntity
  8
0
  6
Continuous
 62
     0
370
    30
100
AcDbCircle
 10
505.323294
 20
1370.905063
 30
0.0
 40
0.5
  0
CIRCLE
  5
C1
330
7B
100
AcDbEntity
  8
0
  6
Continuous
 62
     0
370
    30
100
AcDbCircle
 10
508.047829
 20
1374.655063
 30
0.0
 40
0.5
  0
CIRCLE
  5
C2
330
7B
100
AcDbEntity
  8
0
  6
Continuous
 62
     0
370
    30
100
AcDbCircle
 10
508.047829
 20
1379.290318
 30
0.0
 40
0.5
  0
CIRCLE
  5
C3
330
7B
100
AcDbEntity
  8
0
  6
Continuous
 62
     0
370
    30
100
AcDbCircle
 10
505.323294
 20
1383.040318
 30
0.0
 40
0.5
  0
LINE
  5
C4
330
7B
100
AcDbEntity
  8
0
  6
Continuous
 62
     0
370
    30
100
AcDbLine
 10
512.414905
 20
1273.97269
 30
0.0
 11
500.914905
 21
1273.97269
 31
0.0
  0
LINE
  5
C5
330
7B
100
AcDbEntity
  8
0
  6
Continuous
 62
     0
370
    30
100
AcDbLine
 10
500.914905
 20
1273.97269
 30
0.0
 11
489.414905
 21
1273.97269
 31
0.0
  0
LINE
  5
C6
330
7B
100
AcDbEntity
  8
0
  6
Continuous
 62
     0
370
    30
100
AcDbLine
 10
512.414905
 20
1266.97269
 30
0.0
 11
500.914905
 21
1266.97269
 31
0.0
  0
LINE
  5
C7
330
7B
100
AcDbEntity
  8
0
  6
Continuous
 62
     0
370
    30
100
AcDbLine
 10
500.914905
 20
1266.97269
 30
0.0
 11
489.414905
 21
1266.97269
 31
0.0
  0
LINE
  5
C8
330
7B
100
AcDbEntity
  8
0
  6
Continuous
 62
     0
370
     0
100
AcDbLine
 10
488.39025
 20
1242.297461
 30
0.0
 11
489.35149
 21
1242.297461
 31
0.0
  0
LINE
  5
C9
330
7B
100
AcDbEntity
  8
0
  6
Continuous
 62
     0
370
    30
100
AcDbLine
 10
489.189107
 20
1242.497461
 30
0.0
 11
488.59025
 21
1242.497461
 31
0.0
  0
LINE
  5
CA
330
7B
100
AcDbEntity
  8
0
  6
Continuous
 62
     0
370
    30
100
AcDbLine
 10
512.414907
 20
1266.707373
 30
0.0
 11
502.992158
 21
1266.707373
 31
0.0
  0
LINE
  5
CB
330
7B
100
AcDbEntity
  8
0
  6
Continuous
 62
     0
370
     0
100
AcDbLine
 10
490.360899
 20
1238.190795
 30
0.0
 11
494.72022
 21
1238.190795
 31
0.0
  0
LINE
  5
CC
330
7B
100
AcDbEntity
  8
0
  6
Continuous
 62
     0
370
     0
100
AcDbLine
 10
507.1096
 20
1238.190795
 30
0.0
 11
511.468915
 21
1238.190795
 31
0.0
  0
LINE
  5
CD
330
7B
100
AcDbEntity
  8
0
  6
Continuous
 62
     0
370
    30
100
AcDbLine
 10
489.414907
 20
1266.707373
 30
0.0
 11
498.837661
 21
1266.707373
 31
0.0
  0
LINE
  5
CE
330
7B
100
AcDbEntity
  8
0
  6
Continuous
 62
     0
370
    30
100
AcDbLine
 10
490.25789
 20
1241.295958
 30
0.0
 11
490.360899
 21
1238.190795
 31
0.0
  0
LINE
  5
CF
330
7B
100
AcDbEntity
  8
0
  6
Continuous
 62
     0
370
    30
100
AcDbLine
 10
489.414907
 20
1266.707373
 30
0.0
 11
489.581737
 21
1261.678354
 31
0.0
  0
LINE
  5
D0
330
7B
100
AcDbEntity
  8
0
  6
Continuous
 62
     0
370
    30
100
AcDbLine
 10
512.420057
 20
1360.97269
 30
0.0
 11
512.420057
 21
1373.561994
 31
0.0
  0
LINE
  5
D1
330
7B
100
AcDbEntity
  8
0
  6
Continuous
 62
     0
370
    30
100
AcDbLine
 10
489.409753
 20
1360.97269
 30
0.0
 11
489.409753
 21
1373.561994
 31
0.0
  0
LINE
  5
D2
330
7B
100
AcDbEntity
  8
0
  6
Continuous
 62
     0
370
    30
100
AcDbLine
 10
490.437405
 20
1266.97269
 30
0.0
 11
490.437405
 21
1266.707373
 31
0.0
  0
LINE
  5
D3
330
7B
100
AcDbEntity
  8
0
  6
Continuous
 62
     0
370
    30
100
AcDbLine
 10
511.392405
 20
1266.97269
 30
0.0
 11
511.392405
 21
1266.707373
 31
0.0
  0
LINE
  5
D4
330
7B
100
AcDbEntity
  8
0
  6
Continuous
 62
     0
370
    30
100
AcDbLine
 10
489.414905
 20
1273.97269
 30
0.0
 11
489.414905
 21
1266.97269
 31
0.0
  0
LINE
  5
D5
330
7B
100
AcDbEntity
  8
0
  6
Continuous
 62
     0
370
    30
100
AcDbLine
 10
512.414905
 20
1273.97269
 30
0.0
 11
512.414905
 21
1266.97269
 31
0.0
  0
LINE
  5
D6
330
7B
100
AcDbEntity
  8
0
  6
Continuous
 62
     0
370
    30
100
AcDbLine
 10
510.91491
 20
1273.97269
 30
0.0
 11
510.91491
 21
1360.97269
 31
0.0
  0
LINE
  5
D7
330
7B
100
AcDbEntity
  8
0
  6
Continuous
 62
     0
370
    30
100
AcDbLine
 10
490.9149
 20
1273.97269
 30
0.0
 11
490.9149
 21
1360.97269
 31
0.0
  0
ARC
  5
D8
330
7B
100
AcDbEntity
  8
0
  6
Continuous
 62
     0
370
    30
100
AcDbCircle
 10
489.735967
 20
1202.847373
 30
0.0
 40
0.4999999999999953
100
AcDbArc
 50
181.9
 51
270.0
  0
ARC
  5
D9
330
7B
100
AcDbEntity
  8
0
  6
Continuous
 62
     0
370
    30
100
AcDbCircle
 10
509.844532
 20
1202.847373
 30
0.0
 40
0.4999999999999989
100
AcDbArc
 50
270.0
 51
358.1
  0
LINE
  5
DA
330
7B
100
AcDbEntity
  8
0
  6
Continuous
 62
     0
370
    30
100
AcDbLine
 10
488.290249
 20
1231.347373
 30
0.0
 11
489.236242
 21
1202.830795
 31
0.0
  0
LINE
  5
DB
330
7B
100
AcDbEntity
  8
0
  6
Continuous
 62
     0
370
    30
100
AcDbLine
 10
511.290249
 20
1231.347373
 30
0.0
 11
510.344257
 21
1202.830795
 31
0.0
  0
ARC
  5
DC
330
7B
100
AcDbEntity
  8
0
  6
Continuous
 62
     0
370
    30
100
AcDbCircle
 10
510.969189
 20
1238.207373
 30
0.0
 40
0.4999999999999981
100
AcDbArc
 50
270.0
 51
358.1
  0
ARC
  5
DD
330
7B
100
AcDbEntity
  8
0
  6
Continuous
 62
     0
370
    30
100
AcDbCircle
 10
490.860624
 20
1238.207373
 30
0.0
 40
0.4999999999999998
100
AcDbArc
 50
181.9
 51
270.0
  0
LINE
  5
DE
330
7B
100
AcDbEntity
  8
0
  6
Continuous
 62
     0
370
    30
100
AcDbLine
 10
511.571923
 20
1241.295933
 30
0.0
 11
511.468915
 21
1238.190795
 31
0.0
  0
LINE
  5
DF
330
7B
100
AcDbEntity
  8
0
  6
Continuous
 62
     0
370
    30
100
AcDbLine
 10
512.414907
 20
1266.707373
 30
0.0
 11
512.248089
 21
1261.678716
 31
0.0
  0
SPLINE
  5
E0
330
7B
100
AcDbEntity
  8
0
  6
Continuous
 62
     0
370
    30
100
AcDbSpline
210
0.0
220
0.0
230
1.0
 70
     8
 71
     3
 72
   116
 73
   112
 74
     0
 42
0.000000001
 43
0.0
 40
0.0
 40
0.0
 40
0.0
 40
0.0
 40
31.48155526707814
 40
41.9755309111126
 40
57.71656264154216
 40
65.58724255347373
 40
73.45785180710472
 40
93.13258787858675
 40
113.7893386553614
 40
125.5939580856141
 40
134.4475676138908
 40
149.2040416133437
 40
161.009606773187
 40
187.5726695298879
 40
209.5358709371054
 40
240.0078892470586
 40
267.9402470410765
 40
293.3338357527369
 40
326.3471029896187
 40
346.6629153274533
 40
364.4377253000138
 40
374.593632904237
 40
397.4439467988494
 40
412.6820185116384
 40
422.8440885262819
 40
427.9263275568022
 40
438.0936385581563
 40
453.3506770589854
 40
463.5215551004125
 40
486.3845496379053
 40
496.530459168789
 40
501.5993392312845
 40
514.2637126743402
 40
524.3948692748503
 40
530.3374372400433
 40
537.7733022861581
 40
543.732498520455
 40
557.2061515486848
 40
567.7977049065801
 40
575.4124928926817
 40
582.2467258994432
 40
587.5241071894188
 40
597.923006527487
 40
605.9214679654467
 40
613.0716844241039
 40
620.0623034276529
 40
626.2521674516042
 40
633.780715451136
 40
639.523366462287
 40
647.9634795245615
 40
653.2333358887445
 40
658.5512863065644
 40
663.169099869076
 40
666.6668489778936
 40
669.301824658526
 40
672.8372042161405
 40
675.7744207542099
 40
676.9403485759855
 40
678.4268700682608
 40
679.6587236981458
 40
680.9657826682302
 40
682.0397632141436
 40
683.261553293168
 40
684.7337751417259
 40
686.0992407905106
 40
688.1208630739026
 40
689.5316637029116
 40
691.0357178696634
 40
692.780394389476
 40
694.4288074434791
 40
695.9817816776177
 40
696.8336631668772
 40
698.3781707133498
 40
700.2619222830939
 40
701.4783663352936
 40
703.4150632610109
 40
705.7438257591406
 40
708.038239178697
 40
712.4199522545609
 40
716.2202539100788
 40
723.7901265909749
 40
726.8911511023109
 40
731.1964395473267
 40
745.0723748894014
 40
750.3428760817959
 40
758.6779712752883
 40
765.0120914825055
 40
771.9279997428154
 40
778.8733294370579
 40
785.2623193699159
 40
794.3621259976194
 40
800.9774204261035
 40
806.3467220754338
 40
810.3953501857657
 40
821.2246197397786
 40
826.6225660448792
 40
831.9868284130363
 40
842.6156560361368
 40
850.5930648411414
 40
858.5246631089818
 40
874.3055376678441
 40
882.1818103860751
 40
894.0159442180139
 40
911.9020133015325
 40
929.9643196705197
 40
954.0779462054841
 40
978.1561974001668
 40
1002.205889095971
 40
1074.288010418128
 40
1146.380439577988
 40
1332.939337377487
 40
1332.939337377487
 40
1332.939337377487
 40
1332.939337377487
 10
507.9149058071765
 20
1237.707372499841
 30
0.0
 10
507.9139515201937
 20
1227.21354624267
 30
0.0
 10
507.9147061937234
 20
1213.221680633204
 30
0.0
 10
507.9156977857801
 20
1193.982844874268
 30
0.0
 10
507.9158134549699
 20
1182.614274516123
 30
0.0
 10
507.9149248603749
 20
1172.120183129068
 30
0.0
 10
507.9137782624623
 20
1160.314872469796
 30
0.0
 10
507.9134518043124
 20
1144.247457976478
 30
0.0
 10
507.9210993426687
 20
1126.869074716099
 30
0.0
 10
507.9364996642072
 20
1113.101383879404
 30
0.0
 10
507.955666232872
 20
1101.304031799948
 30
0.0
 10
507.9813830937092
 20
1089.512309795912
 30
0.0
 10
508.0308642930612
 20
1071.837787732354
 30
0.0
 10
508.1046031537016
 20
1051.792292430337
 30
0.0
 10
508.2292610796946
 20
1025.604141540627
 30
0.0
 10
508.3872029649162
 20
999.0427707514434
 30
0.0
 10
508.5883142031893
 20
971.4672632328317
 30
0.0
 10
508.8296712000163
 20
943.1894764094418
 30
0.0
 10
509.0835990040574
 20
917.5589463116903
 30
0.0
 10
509.3406107775826
 20
894.5549715250891
 30
0.0
 10
509.5283021356147
 20
879.0226077743322
 30
0.0
 10
509.7360808159243
 20
862.7374666084376
 30
0.0
 10
509.9448131445719
 20
847.3391184038355
 30
0.0
 10
510.1586916433989
 20
831.9738376054606
 30
0.0
 10
510.2937721383
 20
822.266297648925
 30
0.0
 10
510.4056345314702
 20
814.1684219982637
 30
0.0
 10
510.5385471913388
 20
804.4373924729745
 30
0.0
 10
510.6894966107421
 20
793.05570339631
 30
0.0
 10
510.8940411934688
 20
777.6134645967004
 30
0.0
 10
511.0806308815888
 20
763.8296241871549
 30
0.0
 10
511.2563504533296
 20
751.7528834651127
 30
0.0
 10
511.3900427201383
 20
742.94836895761
 30
0.0
 10
511.5296542756478
 20
734.1945701246002
 30
0.0
 10
511.673544470539
 20
725.165008908383
 30
0.0
 10
511.7876302989225
 20
717.7495223269378
 30
0.0
 10
511.8775222080471
 20
711.6199152674515
 30
0.0
 10
511.9943946760466
 20
703.0466308439236
 30
0.0
 10
512.1086443374592
 20
693.358330958653
 30
0.0
 10
512.1984642673641
 20
682.98082514338
 30
0.0
 10
512.2471214699623
 20
674.7002753738772
 30
0.0
 10
512.2692303073303
 20
668.1401909978795
 30
0.0
 10
512.2764994091258
 20
660.6364201676681
 30
0.0
 10
512.2567660985476
 20
652.744049294394
 30
0.0
 10
512.1917534632574
 20
644.3371924462153
 30
0.0
 10
512.0985179794395
 20
637.2370379183135
 30
0.0
 10
511.9772726505653
 20
630.993048675458
 30
0.0
 10
511.8175333341737
 20
625.0313207327608
 30
0.0
 10
511.6322217688898
 20
619.9479096348258
 30
0.0
 10
511.3950062954367
 20
614.8784768386126
 30
0.0
 10
511.1575269759552
 20
610.9187599002216
 30
0.0
 10
510.9051418165167
 20
607.5931250733676
 30
0.0
 10
510.6909859405401
 20
605.2673804248735
 30
0.0
 10
510.4895579305419
 20
603.4770474077825
 30
0.0
 10
510.3165829563761
 20
602.2022609920439
 30
0.0
 10
510.1476263599458
 20
601.1455768565334
 30
0.0
 10
509.9680182613369
 20
600.2131398548679
 30
0.0
 10
509.7769012645185
 20
599.4310431283334
 30
0.0
 10
509.5882506402253
 20
598.8060435990549
 30
0.0
 10
509.4231856418354
 20
598.3313872720415
 30
0.0
 10
509.1903493557048
 20
597.7700749681484
 30
0.0
 10
508.8998109037568
 20
597.1881681247044
 30
0.0
 10
508.4951578475982
 20
596.5306844028377
 30
0.0
 10
507.926671500186
 20
595.7891133517063
 30
0.0
 10
507.1135929970263
 20
594.9952952491503
 30
0.0
 10
505.9143647654934
 20
594.1732886722136
 30
0.0
 10
504.5248385997015
 20
593.6108599615034
 30
0.0
 10
502.991175326396
 20
593.3699897070261
 30
0.0
 10
501.5257777286674
 20
593.4255793682773
 30
0.0
 10
500.0458013324601
 20
593.8088253200533
 30
0.0
 10
498.7082643835795
 20
594.4933564459643
 30
0.0
 10
497.7928855570192
 20
595.2200044114636
 30
0.0
 10
497.0595251795492
 20
595.9818238179339
 30
0.0
 10
496.4418215717562
 20
596.8169360523807
 30
0.0
 10
496.0141423213266
 20
597.6243359972707
 30
0.0
 10
495.7042466768938
 20
598.3588555124772
 30
0.0
 10
495.47596990106
 20
599.0375938067898
 30
0.0
 10
495.2867402307713
 20
599.7478610597148
 30
0.0
 10
495.0838342556824
 20
600.6809563715658
 30
0.0
 10
494.8950773772332
 20
601.7971826166639
 30
0.0
 10
494.6419536529399
 20
603.6776311543454
 30
0.0
 10
494.4324907589747
 20
605.715495127248
 30
0.0
 10
494.2277441846092
 20
608.1505703554174
 30
0.0
 10
493.9489552035976
 20
611.9266449391278
 30
0.0
 10
493.6722429265124
 20
616.9288728816013
 30
0.0
 10
493.3925701574904
 20
623.730807216707
 30
0.0
 10
493.2153088560359
 20
629.1273472221164
 30
0.0
 10
493.0590991784417
 20
635.4575230828523
 30
0.0
 10
492.946909482349
 20
641.7298574284514
 30
0.0
 10
492.8666761789204
 20
648.2512360770077
 30
0.0
 10
492.807038367327
 20
655.6175770316468
 30
0.0
 10
492.7756185891611
 20
662.9590762271032
 30
0.0
 10
492.7641786368999
 20
669.9839682936591
 30
0.0
 10
492.7632622550018
 20
675.3287566261295
 30
0.0
 10
492.7676443606728
 20
682.0772924608012
 30
0.0
 10
492.7782996095161
 20
688.8320348450325
 30
0.0
 10
492.7896710536858
 20
696.0246931351899
 30
0.0
 10
492.7983813148948
 20
703.1524789760128
 30
0.0
 10
492.8038788040774
 20
711.1418987368181
 30
0.0
 10
492.805683893189
 20
719.9878290087197
 30
0.0
 10
492.8043781451596
 20
730.5511476436304
 30
0.0
 10
492.7994201907757
 20
741.080209463635
 30
0.0
 10
492.7931483957966
 20
752.9097951731935
 30
0.0
 10
492.7876755010811
 20
765.4413993767239
 30
0.0
 10
492.7856516397286
 20
781.3689400894771
 30
0.0
 10
492.7871661752225
 20
801.3895885915673
 30
0.0
 10
492.7908165026006
 20
823.4741821801599
 30
0.0
 10
492.7916232886174
 20
847.5547220553489
 30
0.0
 10
492.790012048875
 20
887.6247277394466
 30
0.0
 10
492.7902568361191
 20
943.699483804596
 30
0.0
 10
492.7902337629828
 20
1053.943962421738
 30
0.0
 10
492.7902448293719
 20
1140.161073235629
 30
0.0
 10
492.7902494471607
 20
1202.347372501874
 30
0.0
  0
SPLINE
  5
E1
330
7B
100
AcDbEntity
  8
0
  6
Continuous
 62
     0
370
    30
100
AcDbSpline
210
0.0
220
0.0
230
1.0
 70
     8
 71
     3
 72
    65
 73
    61
 74
     0
 42
0.000000001
 43
0.0
 40
0.0
 40
0.0
 40
0.0
 40
0.0
 40
31.4808147035823
 40
41.97478491430423
 40
57.71612890375208
 40
65.5874304462522
 40
73.45901501182156
 40
93.13783288970303
 40
113.7984010340193
 40
125.6041208270443
 40
134.4591808695857
 40
149.2189826616037
 40
161.0277589014415
 40
187.5985200675792
 40
209.5714171484155
 40
242.6033676921942
 40
268.0122158282475
 40
295.9631059740195
 40
316.2925311397514
 40
328.9989741184321
 40
341.7051443903999
 40
349.3284316260272
 40
367.1138982795003
 40
377.2750497563321
 40
387.4350047613485
 40
412.8361457076803
 40
428.0801660469315
 40
433.1623248693817
 40
443.3282401555313
 40
468.744581950459
 40
481.446057819025
 40
489.0631399923899
 40
499.214781218153
 40
504.2891098758173
 40
514.4368681811455
 40
527.5633547378535
 40
532.0314599128486
 40
539.4816591117143
 40
546.9409152645142
 40
558.9199414951095
 40
569.4883039842999
 40
576.3046042994773
 40
583.0894485578436
 40
589.06527066128
 40
598.6182148834093
 40
607.2398202512414
 40
613.5957559738011
 40
621.025372308941
 40
624.6895602793516
 40
627.1434868972581
 40
633.33852691918
 40
640.2607238436467
 40
648.5757712860822
 40
653.7486418302032
 40
658.9479251016181
 40
663.8607727643604
 40
668.9699953773868
 40
671.0949749414502
 40
673.5752551338333
 40
673.7040039551034
 40
673.7040039551034
 40
673.7040039551034
 40
673.7040039551034
 10
493.9149056965709
 20
1237.707372505621
 30
0.0
 10
493.9139512759673
 20
1227.213793118315
 30
0.0
 10
493.9147063719117
 20
1213.222176163278
 30
0.0
 10
493.9156981923117
 20
1193.983484984933
 30
0.0
 10
493.9158136617881
 20
1182.614605132373
 30
0.0
 10
493.9149244799819
 20
1172.119877372706
 30
0.0
 10
493.9137771083675
 20
1160.312673806774
 30
0.0
 10
493.9134505616421
 20
1144.242301365314
 30
0.0
 10
493.9211009925882
 20
1126.860917501693
 30
0.0
 10
493.9365014357697
 20
1113.091100291097
 30
0.0
 10
493.9556661850528
 20
1101.291774713224
 30
0.0
 10
493.9813803970124
 20
1089.497370487323
 30
0.0
 10
494.0308561364409
 20
1071.818037502293
 30
0.0
 10
494.1045907902566
 20
1051.765558716584
 30
0.0
 10
494.2332730920735
 20
1024.722726209344
 30
0.0
 10
494.392774410733
 20
998.1496182685726
 30
0.0
 10
494.6016931765585
 20
969.7262976129775
 30
0.0
 10
494.8090346034121
 20
945.59631566802
 30
0.0
 10
495.0022987300959
 20
925.724678966097
 30
0.0
 10
495.1583112783051
 20
910.8759737489061
 30
0.0
 10
495.2770960754266
 20
900.1844982040161
 30
0.0
 10
495.4197615467287
 20
887.8808909042882
 30
0.0
 10
495.5594078250799
 20
876.4365940416146
 30
0.0
 10
495.7167369912075
 20
864.2242685663366
 30
0.0
 10
495.9117946246091
 20
849.6120318690032
 30
0.0
 10
496.1369957704176
 20
833.4324782938547
 30
0.0
 10
496.3396191766914
 20
818.8701834237546
 30
0.0
 10
496.4730064090236
 20
809.1480204141374
 30
0.0
 10
496.6481897567705
 20
796.1644660537651
 30
0.0
 10
496.8506725131656
 20
780.7115080409602
 30
0.0
 10
497.0494531650136
 20
766.1197200432284
 30
0.0
 10
497.1864902052779
 20
756.4294616290015
 30
0.0
 10
497.2930448572396
 20
749.1915382607488
 30
0.0
 10
497.4162789567629
 20
741.187774338882
 30
0.0
 10
497.5581053597741
 20
732.2778368792278
 30
0.0
 10
497.6968220123574
 20
723.5582430250147
 30
0.0
 10
497.8166576532983
 20
715.6461413205155
 30
0.0
 10
497.9055746258757
 20
709.4967212905037
 30
0.0
 10
498.0195463199071
 20
700.8997774536542
 30
0.0
 10
498.1288940864623
 20
691.1948333896074
 30
0.0
 10
498.2084087774102
 20
681.5637532281899
 30
0.0
 10
498.252547446623
 20
673.5653594743579
 30
0.0
 10
498.2727531595763
 20
667.0527035567666
 30
0.0
 10
498.2765096086451
 20
659.61242983652
 30
0.0
 10
498.2515911040646
 20
651.5692963508927
 30
0.0
 10
498.1835315068386
 20
643.5186419795301
 30
0.0
 10
498.0830151539136
 20
636.3849260905049
 30
0.0
 10
497.9743795344035
 20
631.0864509811879
 30
0.0
 10
497.8701488104988
 20
627.2217774065207
 30
0.0
 10
497.7655864042668
 20
623.8580922256683
 30
0.0
 10
497.6166321763749
 20
619.887082047903
 30
0.0
 10
497.3836277008021
 20
615.0455788391396
 30
0.0
 10
497.1380966912137
 20
611.1484834216369
 30
0.0
 10
496.901363166572
 20
608.1839720019647
 30
0.0
 10
496.7038049161059
 20
606.1571602544088
 30
0.0
 10
496.5100540501866
 20
604.5590208701879
 30
0.0
 10
496.3668812735139
 20
603.6618232249525
 30
0.0
 10
496.2820746287099
 20
603.2381804753236
 30
0.0
 10
496.2583144036865
 20
603.1447600170857
 30
0.0
 10
496.2576631893587
 20
603.1422776582649
 30
0.0
 10
496.2576633798217
 20
603.1422776057667
 30
0.0
  0
ARC
  5
E2
330
7B
100
AcDbEntity
  8
0
  6
Continuous
 62
     0
370
    30
100
AcDbCircle
 10
488.59025
 20
1234.997461
 30
0.0
 40
0.2000000029802322
100
AcDbArc
 50
180.0
 51
270.0
  0
ARC
  5
E3
330
7B
100
AcDbEntity
  8
0
  6
Continuous
 62
     0
370
    30
100
AcDbCircle
 10
510.99025
 20
1234.997461
 30
0.0
 40
0.2000000029802322
100
AcDbArc
 50
270.0
 51
360.0
  0
ARC
  5
E4
330
7B
100
AcDbEntity
  8
0
  6
Continuous
 62
     0
370
    30
100
AcDbCircle
 10
488.59025
 20
1242.297461
 30
0.0
 40
0.2000000029802322
100
AcDbArc
 50
90.0
 51
180.0
  0
LINE
  5
E5
330
7B
100
AcDbEntity
  8
0
  6
Continuous
 62
     0
370
    30
100
AcDbLine
 10
488.39025
 20
1242.297461
 30
0.0
 11
488.39025
 21
1234.997461
 31
0.0
  0
LINE
  5
E6
330
7B
100
AcDbEntity
  8
0
  6
Continuous
 62
     0
370
    30
100
AcDbLine
 10
511.19025
 20
1237.758895
 30
0.0
 11
511.19025
 21
1234.997461
 31
0.0
  0
LINE
  5
E7
330
7B
100
AcDbEntity
  8
0
  6
Continuous
 62
     0
370
    30
100
AcDbLine
 10
490.69025
 20
1234.797461
 30
0.0
 11
490.69025
 21
1231.347373
 31
0.0
  0
LINE
  5
E8
330
7B
100
AcDbEntity
  8
0
  6
Continuous
 62
     0
370
    30
100
AcDbLine
 10
508.89025
 20
1234.797461
 30
0.0
 11
508.89025
 21
1231.347373
 31
0.0
  0
LINE
  5
E9
330
7B
100
AcDbEntity
  8
0
  6
Continuous
 62
     0
370
     0
100
AcDbLine
 10
510.230405
 20
1266.70731
 30
0.0
 11
510.230405
 21
1266.97269
 31
0.0
  0
LINE
  5
EA
330
7B
100
AcDbEntity
  8
0
  6
Continuous
 62
     0
370
     0
100
AcDbLine
 10
491.599405
 20
1266.70731
 30
0.0
 11
491.599405
 21
1266.97269
 31
0.0
  0
ENDBLK
  5
EC
330
7B
100
AcDbEntity
  8
0
100
AcDbBlockEnd
  0
BLOCK
  5
14C
330
EE
100
AcDbEntity
  8
0
100
AcDbBlockBegin
  2
b
 70
     0
 10
0.0
 20
487.465271
 30
0.0
  3
b
  1

  0
LINE
  5
EF
330
EE
100
AcDbEntity
  8
0
  6
Continuous
 62
     0
370
    30
100
AcDbLine
 10
610.414904
 20
426.027386
 30
0.0
 11
607.37504
 21
426.027386
 31
0.0
  0
LINE
  5
F0
330
EE
100
AcDbEntity
  8
0
  6
Continuous
 62
     0
370
    30
100
AcDbLine
 10
607.37504
 20
426.027386
 30
0.0
 11
551.414904
 21
426.027386
 31
0.0
  0
LINE
  5
F1
330
EE
100
AcDbEntity
  8
0
  6
Continuous
 62
     0
370
     0
100
AcDbLine
 10
610.914904
 20
421.527386
 30
0.0
 11
607.823517
 21
421.527386
 31
0.0
  0
LINE
  5
F2
330
EE
100
AcDbEntity
  8
0
  6
Continuous
 62
     0
370
     0
100
AcDbLine
 10
607.823517
 20
421.527386
 30
0.0
 11
550.914904
 21
421.527386
 31
0.0
  0
LINE
  5
F3
330
EE
100
AcDbEntity
  8
0
  6
Continuous
 62
     0
370
     0
100
AcDbLine
 10
550.914904
 20
425.527386
 30
0.0
 11
607.823517
 21
425.527386
 31
0.0
  0
LINE
  5
F4
330
EE
100
AcDbEntity
  8
0
  6
Continuous
 62
     0
370
     0
100
AcDbLine
 10
607.823517
 20
425.527386
 30
0.0
 11
610.914904
 21
425.527386
 31
0.0
  0
LINE
  5
F5
330
EE
100
AcDbEntity
  8
0
  6
Continuous
 62
     0
370
    30
100
AcDbLine
 10
551.414904
 20
421.027386
 30
0.0
 11
607.37504
 21
421.027386
 31
0.0
  0
LINE
  5
F6
330
EE
100
AcDbEntity
  8
0
  6
Continuous
 62
     0
370
    30
100
AcDbLine
 10
607.37504
 20
421.027386
 30
0.0
 11
610.414904
 21
421.027386
 31
0.0
  0
LINE
  5
F7
330
EE
100
AcDbEntity
  8
0
  6
Continuous
 62
     0
370
    30
100
AcDbLine
 10
558.814906
 20
384.216221
 30
0.0
 11
594.447482
 21
384.216221
 31
0.0
  0
LINE
  5
F8
330
EE
100
AcDbEntity
  8
0
  6
Continuous
 62
     0
370
    30
100
AcDbLine
 10
594.447482
 20
384.216221
 30
0.0
 11
603.014906
 21
384.216221
 31
0.0
  0
LINE
  5
F9
330
EE
100
AcDbEntity
  8
0
  6
Continuous
 62
     0
370
     0
100
AcDbLine
 10
601.225269
 20
383.716221
 30
0.0
 11
601.126557
 21
383.716221
 31
0.0
  0
LINE
  5
FA
330
EE
100
AcDbEntity
  8
0
  6
Continuous
 62
     0
370
     0
100
AcDbLine
 10
601.126557
 20
383.716221
 30
0.0
 11
601.166387
 21
384.216221
 31
0.0
  0
ELLIPSE
  5
FB
330
EE
100
AcDbEntity
  8
0
  6
Continuous
 62
     0
370
    30
100
AcDbEllipse
 10
580.864905
 20
382.323566
 30
0.0
 11
-22.0
 21
-7.173558573504752E-8
 31
0.0
210
0.0
220
0.0
230
-1.0
 40
0.36397
 41
3.117530575255081
 42
6.307247403431489
  0
LINE
  5
FC
330
EE
100
AcDbEntity
  8
0
  6
Continuous
 62
     0
370
    30
100
AcDbLine
 10
558.871274
 20
382.516221
 30
0.0
 11
559.771546
 21
382.516221
 31
0.0
  0
SPLINE
  5
FD
330
EE
100
AcDbEntity
  8
0
  6
Continuous
 62
     0
370
     0
100
AcDbSpline
210
0.0
220
0.0
230
1.0
 70
     8
 71
     3
 72
     9
 73
     5
 74
     0
 42
0.000000001
 43
0.0
 40
0.0
 40
0.0
 40
0.0
 40
0.0
 40
1.884994501647461
 40
4.47188637705632
 40
4.47188637705632
 40
4.47188637705632
 40
4.47188637705632
 10
559.7715456846911
 20
382.5162206290474
 30
0.0
 10
559.8337174328354
 20
382.302426350057
 30
0.0
 10
560.0385647889625
 20
381.7970114230889
 30
0.0
 10
560.3788462078396
 20
381.2997343180759
 30
0.0
 10
560.6201088985587
 20
381.016735066559
 30
0.0
  0
SPLINE
  5
FE
330
EE
100
AcDbEntity
  8
0
  6
Continuous
 62
     0
370
     0
100
AcDbSpline
210
0.0
220
0.0
230
1.0
 70
     8
 71
     3
 72
    21
 73
    17
 74
     0
 42
0.000000001
 43
0.0
 40
4.404570690192847
 40
4.404570690192847
 40
4.404570690192847
 40
4.404570690192847
 40
8.231102164378463
 40
12.70050705230178
 40
18.22016050878806
 40
22.79040453315088
 40
27.01885823645526
 40
31.30272701046248
 40
35.28527365884088
 40
39.40040600522551
 40
43.42839180031115
 40
47.26448185258403
 40
51.87945853949562
 40
57.53664410611303
 40
62.76236130765329
 40
63.10185571021122
 40
63.10185571021122
 40
63.10185571021122
 40
63.10185571021122
 10
560.6201089101114
 20
381.0167350440815
 30
0.0
 10
560.8409451573211
 20
380.58706633635
 30
0.0
 10
561.5446086985191
 20
379.6690473756146
 30
0.0
 10
563.5072406993785
 20
378.2356381757318
 30
0.0
 10
566.5194547866176
 20
376.917045072903
 30
0.0
 10
570.2861834660999
 20
375.898324174522
 30
0.0
 10
574.2296506579955
 20
375.2422164943609
 30
0.0
 10
578.3026376087967
 20
374.9057243861853
 30
0.0
 10
582.4506768302384
 20
374.872004001292
 30
0.0
 10
586.445566043298
 20
375.1283617186771
 30
0.0
 10
590.1531510418231
 20
375.6541715757364
 30
0.0
 10
593.6286310842981
 20
376.4472915703625
 30
0.0
 10
596.9527457060244
 20
377.5986027369725
 30
0.0
 10
599.6386902992582
 20
379.1247709665743
 30
0.0
 10
600.7556429237486
 20
380.3545167934949
 30
0.0
 10
601.0901231786356
 20
380.97861347495
 30
0.0
 10
601.1097103154686
 20
381.0167341934559
 30
0.0
  0
SPLINE
  5
FF
330
EE
100
AcDbEntity
  8
0
  6
Continuous
 62
     0
370
     0
100
AcDbSpline
210
0.0
220
0.0
230
1.0
 70
     8
 71
     3
 72
     9
 73
     5
 74
     0
 42
0.000000001
 43
0.0
 40
0.0
 40
0.0
 40
0.0
 40
0.0
 40
2.586891869974869
 40
4.471886377056387
 40
4.471886377056387
 40
4.471886377056387
 40
4.471886377056387
 10
601.1097104999097
 20
381.0167345524173
 30
0.0
 10
601.3509731568312
 20
381.2997337501135
 30
0.0
 10
601.6912429924545
 20
381.7970116291929
 30
0.0
 10
601.8960934692677
 20
382.3024263494428
 30
0.0
 10
601.9582652267216
 20
382.5162206290495
 30
0.0
  0
LINE
  5
100
330
EE
100
AcDbEntity
  8
0
  6
Continuous
 62
     0
370
    30
100
AcDbLine
 10
601.958265
 20
382.516221
 30
0.0
 11
602.858537
 21
382.516221
 31
0.0
  0
LINE
  5
101
330
EE
100
AcDbEntity
  8
0
  6
Continuous
 62
     0
370
     0
100
AcDbLine
 10
558.864905
 20
352.016221
 30
0.0
 11
602.864905
 21
352.016221
 31
0.0
  0
LINE
  5
102
330
EE
100
AcDbEntity
  8
0
  6
Continuous
 62
     0
370
    30
100
AcDbLine
 10
602.364905
 20
351.516221
 30
0.0
 11
559.364905
 21
351.516221
 31
0.0
  0
ARC
  5
103
330
EE
100
AcDbEntity
  8
0
  6
Continuous
 62
     0
370
    30
100
AcDbCircle
 10
581.019083
 20
385.586127
 30
0.0
 40
20.50000000930954
100
AcDbArc
 50
183.831629
 51
189.154257
  0
LINE
  5
104
330
EE
100
AcDbEntity
  8
0
  6
Continuous
 62
     0
370
    30
100
AcDbLine
 10
559.771546
 20
382.516221
 30
0.0
 11
560.757113
 21
382.516221
 31
0.0
  0
LINE
  5
105
330
EE
100
AcDbEntity
  8
0
  6
Continuous
 62
     0
370
    30
100
AcDbLine
 10
601.072698
 20
382.516221
 30
0.0
 11
601.958265
 21
382.516221
 31
0.0
  0
SPLINE
  5
106
330
EE
100
AcDbEntity
  8
0
  6
Continuous
 62
     0
370
    30
100
AcDbSpline
210
0.0
220
0.0
230
1.0
 70
     8
 71
     3
 72
    23
 73
    19
 74
     0
 42
0.000000001
 43
0.0
 40
0.5603841062126556
 40
0.5603841062126556
 40
0.5603841062126556
 40
0.5603841062126556
 40
1.539413908762783
 40
4.247557892119208
 40
8.955612081270173
 40
13.76518815111316
 40
19.10816241845124
 40
23.74108778601191
 40
27.9694979215846
 40
32.1505584080488
 40
36.437861103248
 40
41.2350541534154
 40
44.9414567528724
 40
48.65092724556777
 40
52.40506734284921
 40
56.58603915859835
 40
59.67318760394699
 40
61.69975486105652
 40
61.69975486105652
 40
61.69975486105652
 40
61.69975486105652
 10
601.0496335249849
 20
382.3247483761644
 30
0.0
 10
601.0316739766063
 20
382.2133026501838
 30
0.0
 10
600.9342641297263
 20
381.7940814306334
 30
0.0
 10
600.4580448044007
 20
380.848781603718
 30
0.0
 10
599.0341010583458
 20
379.5326509710217
 30
0.0
 10
596.2571501971413
 20
378.1151039729634
 30
0.0
 10
592.5482349385202
 20
376.9826403707191
 30
0.0
 10
588.323694083684
 20
376.2278895671802
 30
0.0
 10
584.101050138941
 20
375.8411185510392
 30
0.0
 10
579.8519619337943
 20
375.7639051757485
 30
0.0
 10
575.4596347777765
 20
376.001617244611
 30
0.0
 10
571.4757586607337
 20
376.5494944852176
 30
0.0
 10
568.0859232221788
 20
377.331158145158
 30
0.0
 10
565.4198896786187
 20
378.227823110981
 30
0.0
 10
563.1904876628398
 20
379.32159908823
 30
0.0
 10
561.7109793621764
 20
380.4792392167494
 30
0.0
 10
560.9966981820199
 20
381.5134515875004
 30
0.0
 10
560.817338449182
 20
382.0941231494076
 30
0.0
 10
560.7801788368197
 20
382.3247198983697
 30
0.0
  0
LINE
  5
107
330
EE
100
AcDbEntity
  8
0
  6
Continuous
 62
     0
370
    30
100
AcDbLine
 10
560.780179
 20
382.32472
 30
0.0
 11
560.757113
 21
382.516221
 31
0.0
  0
ARC
  5
108
330
EE
100
AcDbEntity
  8
0
  6
Continuous
 62
     0
370
    30
100
AcDbCircle
 10
602.364905
 20
352.016221
 30
0.0
 40
0.5
100
AcDbArc
 50
270.0
 51
360.0
  0
ARC
  5
109
330
EE
100
AcDbEntity
  8
0
  6
Continuous
 62
     0
370
    30
100
AcDbCircle
 10
559.364905
 20
352.016221
 30
0.0
 40
0.5
100
AcDbArc
 50
180.0
 51
270.0
  0
LINE
  5
10A
330
EE
100
AcDbEntity
  8
0
  6
Continuous
 62
     0
370
    30
100
AcDbLine
 10
602.864905
 20
382.323566
 30
0.0
 11
602.864905
 21
352.016221
 31
0.0
  0
LINE
  5
10B
330
EE
100
AcDbEntity
  8
0
  6
Continuous
 62
     0
370
    30
100
AcDbLine
 10
558.864905
 20
382.323566
 30
0.0
 11
558.864905
 21
352.016221
 31
0.0
  0
LINE
  5
10C
330
EE
100
AcDbEntity
  8
0
  6
Continuous
 62
     0
370
    30
100
AcDbLine
 10
601.264667
 20
384.216221
 30
0.0
 11
601.225269
 21
383.716221
 31
0.0
  0
ARC
  5
10D
330
EE
100
AcDbEntity
  8
0
  6
Continuous
 62
     0
370
    30
100
AcDbCircle
 10
580.401527
 20
385.637777
 30
0.0
 40
20.91221158094628
100
AcDbArc
 50
350.884478
 51
354.727838
  0
LINE
  5
10E
330
EE
100
AcDbEntity
  8
0
  6
Continuous
 62
     0
370
    30
100
AcDbLine
 10
603.014906
 20
421.027386
 30
0.0
 11
603.014906
 21
384.216221
 31
0.0
  0
LINE
  5
10F
330
EE
100
AcDbEntity
  8
0
  6
Continuous
 62
     0
370
    30
100
AcDbLine
 10
558.814906
 20
421.027386
 30
0.0
 11
558.814906
 21
384.216221
 31
0.0
  0
ARC
  5
110
330
EE
100
AcDbEntity
  8
0
  6
Continuous
 62
     0
370
    30
100
AcDbCircle
 10
610.414904
 20
425.527386
 30
0.0
 40
0.5
100
AcDbArc
 50
0.0
 51
90.0
  0
ARC
  5
111
330
EE
100
AcDbEntity
  8
0
  6
Continuous
 62
     0
370
    30
100
AcDbCircle
 10
551.414904
 20
425.527386
 30
0.0
 40
0.5
100
AcDbArc
 50
90.0
 51
180.0
  0
ARC
  5
112
330
EE
100
AcDbEntity
  8
0
  6
Continuous
 62
     0
370
    30
100
AcDbCircle
 10
610.414904
 20
421.527386
 30
0.0
 40
0.5
100
AcDbArc
 50
270.0
 51
360.0
  0
ARC
  5
113
330
EE
100
AcDbEntity
  8
0
  6
Continuous
 62
     0
370
    30
100
AcDbCircle
 10
551.414904
 20
421.527386
 30
0.0
 40
0.5
100
AcDbArc
 50
180.0
 51
270.0
  0
LINE
  5
114
330
EE
100
AcDbEntity
  8
0
  6
Continuous
 62
     0
370
    30
100
AcDbLine
 10
610.914904
 20
425.527386
 30
0.0
 11
610.914904
 21
421.527386
 31
0.0
  0
LINE
  5
115
330
EE
100
AcDbEntity
  8
0
  6
Continuous
 62
     0
370
    30
100
AcDbLine
 10
550.914904
 20
425.527386
 30
0.0
 11
550.914904
 21
421.527386
 31
0.0
  0
LINE
  5
116
330
EE
100
AcDbEntity
  8
0
  6
Continuous
 62
     0
370
    30
100
AcDbLine
 10
488.914905
 20
351.216217
 30
0.0
 11
486.91491
 21
351.216217
 31
0.0
  0
LINE
  5
117
330
EE
100
AcDbEntity
  8
0
  6
Continuous
 62
     0
370
    30
100
AcDbLine
 10
514.91491
 20
351.216217
 30
0.0
 11
512.914905
 21
351.216217
 31
0.0
  0
LINE
  5
118
330
EE
100
AcDbEntity
  8
0
  6
Continuous
 62
     0
370
    30
100
AcDbLine
 10
515.91491
 20
421.216219
 30
0.0
 11
515.91491
 21
352.216217
 31
0.0
  0
LINE
  5
119
330
EE
100
AcDbEntity
  8
0
  6
Continuous
 62
     0
370
     0
100
AcDbLine
 10
488.914905
 20
352.216217
 30
0.0
 11
485.91491
 21
352.216217
 31
0.0
  0
LINE
  5
11A
330
EE
100
AcDbEntity
  8
0
  6
Continuous
 62
     0
370
     0
100
AcDbLine
 10
515.91491
 20
352.216217
 30
0.0
 11
512.914905
 21
352.216217
 31
0.0
  0
ARC
  5
11B
330
EE
100
AcDbEntity
  8
0
  6
Continuous
 62
     0
370
    30
100
AcDbCircle
 10
514.91491
 20
352.216217
 30
0.0
 40
1.0
100
AcDbArc
 50
270.0
 51
0.0
  0
LINE
  5
11C
330
EE
100
AcDbEntity
  8
0
  6
Continuous
 62
     0
370
    30
100
AcDbLine
 10
530.414909
 20
426.216219
 30
0.0
 11
484.481257
 21
426.216219
 31
0.0
  0
LINE
  5
11D
330
EE
100
AcDbEntity
  8
0
  6
Continuous
 62
     0
370
    30
100
AcDbLine
 10
484.481257
 20
426.216219
 30
0.0
 11
471.414909
 21
426.216219
 31
0.0
  0
LINE
  5
11E
330
EE
100
AcDbEntity
  8
0
  6
Continuous
 62
     0
370
     0
100
AcDbLine
 10
530.914909
 20
421.716219
 30
0.0
 11
484.202721
 21
421.716219
 31
0.0
  0
LINE
  5
11F
330
EE
100
AcDbEntity
  8
0
  6
Continuous
 62
     0
370
     0
100
AcDbLine
 10
484.202721
 20
421.716219
 30
0.0
 11
470.914909
 21
421.716219
 31
0.0
  0
LINE
  5
120
330
EE
100
AcDbEntity
  8
0
  6
Continuous
 62
     0
370
     0
100
AcDbLine
 10
470.914909
 20
425.716219
 30
0.0
 11
484.202721
 21
425.716219
 31
0.0
  0
LINE
  5
121
330
EE
100
AcDbEntity
  8
0
  6
Continuous
 62
     0
370
     0
100
AcDbLine
 10
484.202721
 20
425.716219
 30
0.0
 11
530.914909
 21
425.716219
 31
0.0
  0
LINE
  5
122
330
EE
100
AcDbEntity
  8
0
  6
Continuous
 62
     0
370
    30
100
AcDbLine
 10
471.414909
 20
421.216219
 30
0.0
 11
484.481257
 21
421.216219
 31
0.0
  0
LINE
  5
123
330
EE
100
AcDbEntity
  8
0
  6
Continuous
 62
     0
370
    30
100
AcDbLine
 10
484.481257
 20
421.216219
 30
0.0
 11
530.414909
 21
421.216219
 31
0.0
  0
LINE
  5
124
330
EE
100
AcDbEntity
  8
0
  6
Continuous
 62
     0
370
    30
100
AcDbLine
 10
495.123484
 20
337.734082
 30
0.0
 11
498.28051
 21
267.663514
 31
0.0
  0
LINE
  5
125
330
EE
100
AcDbEntity
  8
0
  6
Continuous
 62
     0
370
    30
100
AcDbLine
 10
488.914905
 20
337.734062
 30
0.0
 11
500.914905
 21
337.734062
 31
0.0
  0
LINE
  5
126
330
EE
100
AcDbEntity
  8
0
  6
Continuous
 62
     0
370
    30
100
AcDbLine
 10
500.914905
 20
337.734062
 30
0.0
 11
512.914905
 21
337.734062
 31
0.0
  0
LINE
  5
127
330
EE
100
AcDbEntity
  8
0
  6
Continuous
 62
     0
370
     0
100
AcDbLine
 10
500.914905
 20
389.334062
 30
0.0
 11
509.414905
 21
389.334062
 31
0.0
  0
LINE
  5
128
330
EE
100
AcDbEntity
  8
0
  6
Continuous
 62
     0
370
    30
100
AcDbLine
 10
500.914905
 20
389.834062
 30
0.0
 11
508.914905
 21
389.834062
 31
0.0
  0
LINE
  5
129
330
EE
100
AcDbEntity
  8
0
  6
Continuous
 62
     0
370
     0
100
AcDbLine
 10
500.914905
 20
389.334062
 30
0.0
 11
492.414905
 21
389.334062
 31
0.0
  0
LINE
  5
12A
330
EE
100
AcDbEntity
  8
0
  6
Continuous
 62
     0
370
    30
100
AcDbLine
 10
500.914905
 20
389.834062
 30
0.0
 11
492.914905
 21
389.834062
 31
0.0
  0
LINE
  5
12B
330
EE
100
AcDbEntity
  8
0
  6
Continuous
 62
     0
370
    30
100
AcDbLine
 10
509.414905
 20
386.334062
 30
0.0
 11
509.414905
 21
389.334062
 31
0.0
  0
ARC
  5
12C
330
EE
100
AcDbEntity
  8
0
  6
Continuous
 62
     0
370
    30
100
AcDbCircle
 10
508.914905
 20
389.334062
 30
0.0
 40
0.5
100
AcDbArc
 50
359.999999
 51
89.999999
  0
LINE
  5
12D
330
EE
100
AcDbEntity
  8
0
  6
Continuous
 62
     0
370
     0
100
AcDbLine
 10
500.914905
 20
389.334062
 30
0.0
 11
500.914905
 21
389.834062
 31
0.0
  0
LINE
  5
12E
330
EE
100
AcDbEntity
  8
0
  6
Continuous
 62
     0
370
    30
100
AcDbLine
 10
492.414905
 20
386.334062
 30
0.0
 11
492.414905
 21
389.334062
 31
0.0
  0
ARC
  5
12F
330
EE
100
AcDbEntity
  8
0
  6
Continuous
 62
     0
370
    30
100
AcDbCircle
 10
492.914905
 20
389.334062
 30
0.0
 40
0.5
100
AcDbArc
 50
89.999999
 51
179.999999
  0
LINE
  5
130
330
EE
100
AcDbEntity
  8
0
  6
Continuous
 62
     0
370
     0
100
AcDbLine
 10
489.042494
 20
368.525113
 30
0.0
 11
500.914905
 21
368.525113
 31
0.0
  0
LINE
  5
131
330
EE
100
AcDbEntity
  8
0
  6
Continuous
 62
     0
370
     0
100
AcDbLine
 10
488.914905
 20
366.932788
 30
0.0
 11
500.914905
 21
366.932788
 31
0.0
  0
LINE
  5
132
330
EE
100
AcDbEntity
  8
0
  6
Continuous
 62
     0
370
     0
100
AcDbLine
 10
500.914905
 20
368.525113
 30
0.0
 11
512.787316
 21
368.525112
 31
0.0
  0
LINE
  5
133
330
EE
100
AcDbEntity
  8
0
  6
Continuous
 62
     0
370
     0
100
AcDbLine
 10
500.914905
 20
366.932788
 30
0.0
 11
512.914905
 21
366.932788
 31
0.0
  0
LINE
  5
134
330
EE
100
AcDbEntity
  8
0
  6
Continuous
 62
     0
370
     0
100
AcDbLine
 10
500.914905
 20
368.525112
 30
0.0
 11
500.914905
 21
366.932788
 31
0.0
  0
LINE
  5
135
330
EE
100
AcDbEntity
  8
0
  6
Continuous
 62
     0
370
    30
100
AcDbLine
 10
500.914905
 20
386.334062
 30
0.0
 11
509.914905
 21
386.334062
 31
0.0
  0
LINE
  5
136
330
EE
100
AcDbEntity
  8
0
  6
Continuous
 62
     0
370
    30
100
AcDbLine
 10
491.914905
 20
386.334062
 30
0.0
 11
500.914905
 21
386.334062
 31
0.0
  0
LINE
  5
137
330
EE
100
AcDbEntity
  8
0
  6
Continuous
 62
     0
370
    30
100
AcDbLine
 10
485.91491
 20
356.216217
 30
0.0
 11
488.914905
 21
356.216217
 31
0.0
  0
LINE
  5
138
330
EE
100
AcDbEntity
  8
0
  6
Continuous
 62
     0
370
    30
100
AcDbLine
 10
489.799123
 20
373.216217
 30
0.0
 11
485.91491
 21
373.216217
 31
0.0
  0
LINE
  5
139
330
EE
100
AcDbEntity
  8
0
  6
Continuous
 62
     0
370
    30
100
AcDbLine
 10
512.787316
 20
368.525112
 30
0.0
 11
509.914905
 21
386.334062
 31
0.0
  0
LINE
  5
13A
330
EE
100
AcDbEntity
  8
0
  6
Continuous
 62
     0
370
    30
100
AcDbLine
 10
489.042494
 20
368.525113
 30
0.0
 11
491.914905
 21
386.334062
 31
0.0
  0
LINE
  5
13B
330
EE
100
AcDbEntity
  8
0
  6
Continuous
 62
     0
370
    30
100
AcDbLine
 10
512.914905
 20
337.734062
 30
0.0
 11
512.914905
 21
366.932788
 31
0.0
  0
LINE
  5
13C
330
EE
100
AcDbEntity
  8
0
  6
Continuous
 62
     0
370
    30
100
AcDbLine
 10
488.914905
 20
337.734062
 30
0.0
 11
488.914905
 21
366.932788
 31
0.0
  0
ARC
  5
13D
330
EE
100
AcDbEntity
  8
0
  6
Continuous
 62
     0
370
    30
100
AcDbCircle
 10
498.914905
 20
366.932788
 30
0.0
 40
9.999999999999996
100
AcDbArc
 50
170.837652
 51
179.999999
  0
ARC
  5
13E
330
EE
100
AcDbEntity
  8
0
  6
Continuous
 62
     0
370
    30
100
AcDbCircle
 10
502.914905
 20
366.932788
 30
0.0
 40
9.99999999999997
100
AcDbArc
 50
359.999999
 51
9.162346
  0
SPLINE
  5
13F
330
EE
100
AcDbEntity
  8
0
  6
Continuous
 62
     0
370
    30
100
AcDbSpline
210
0.0
220
0.0
230
1.0
 70
     8
 71
     3
 72
    22
 73
    18
 74
     0
 42
0.000000001
 43
0.0
 40
16.94578383611417
 40
16.94578383611417
 40
16.94578383611417
 40
16.94578383611417
 40
17.00701100233036
 40
17.55540497972673
 40
18.5154103741454
 40
19.96640621435372
 40
21.02929063166022
 40
22.37686560843542
 40
23.36063568681316
 40
24.83187684408882
 40
26.27356022973919
 40
27.82714241867711
 40
29.76238443154493
 40
31.02677069325623
 40
32.13006622849169
 40
33.14887672049543
 40
33.9087612515311
 40
33.9087612515311
 40
33.9087612515311
 40
33.9087612515311
 10
510.7675943234469
 20
268.2316160260368
 30
0.0
 10
510.7685299763825
 20
268.2113235693005
 30
0.0
 10
510.7766272548982
 20
268.0092133282661
 30
0.0
 10
510.7662117252238
 20
267.4875164989619
 30
0.0
 10
510.6008019281661
 20
266.5146232496029
 30
0.0
 10
510.1431686322624
 20
265.4434162381733
 30
0.0
 10
509.3699990722938
 20
264.4107904449186
 30
0.0
 10
508.5029059841657
 20
263.6735582424444
 30
0.0
 10
507.3840181561396
 20
263.0700548151112
 30
0.0
 10
506.1245072502007
 20
262.7111481747261
 30
0.0
 10
504.6241773956075
 20
262.6757464850582
 30
0.0
 10
503.0122850819882
 20
263.0659951494436
 30
0.0
 10
501.6408670986343
 20
263.9030391844515
 30
0.0
 10
500.6838965187504
 20
264.9797209607482
 30
0.0
 10
500.1405033851886
 20
265.9716105031011
 30
0.0
 10
499.8610954739352
 20
266.8914125898066
 30
0.0
 10
499.7903834192681
 20
267.4793897797476
 30
0.0
 10
499.7789899971771
 20
267.731028026757
 30
0.0
  0
SPLINE
  5
140
330
EE
100
AcDbEntity
  8
0
  6
Continuous
 62
     0
370
    30
100
AcDbSpline
210
0.0
220
0.0
230
1.0
 70
     8
 71
     3
 72
    11
 73
     7
 74
     0
 42
0.000000001
 43
0.0
 40
38.63977278183754
 40
38.63977278183754
 40
38.63977278183754
 40
38.63977278183754
 40
39.17164175864449
 40
40.85160498549032
 40
42.18118556316158
 40
43.15667014151682
 40
43.15667014151682
 40
43.15667014151682
 40
43.15667014151682
 10
499.5922413782675
 20
271.8759361283275
 30
0.0
 10
499.486222942708
 20
271.7343830495596
 30
0.0
 10
499.0685067513546
 20
271.1285268515032
 30
0.0
 10
498.5647613659745
 20
270.0546995635154
 30
0.0
 10
498.2892694232125
 20
268.7536511181245
 30
0.0
 10
498.2660185414748
 20
267.986512107326
 30
0.0
 10
498.2805101446059
 20
267.663514091598
 30
0.0
  0
SPLINE
  5
141
330
EE
100
AcDbEntity
  8
0
  6
Continuous
 62
     0
370
    30
100
AcDbSpline
210
0.0
220
0.0
230
1.0
 70
     8
 71
     3
 72
    23
 73
    19
 74
     0
 42
0.000000001
 43
0.0
 40
0.0
 40
0.0
 40
0.0
 40
0.0
 40
1.191370892745589
 40
2.785049300704298
 40
4.621927727748615
 40
6.321402707698224
 40
8.133456622457388
 40
10.45333237506936
 40
12.90630227970949
 40
14.3451952816763
 40
15.97888118645219
 40
17.33406369577387
 40
18.91507153243174
 40
20.54761478508436
 40
21.94431962534416
 40
23.81099309853496
 40
25.07142599444561
 40
26.09608545789515
 40
26.09608545789515
 40
26.09608545789515
 40
26.09608545789515
 10
498.2806820732501
 20
267.6597230041809
 30
0.0
 10
498.2986857165866
 20
267.2653089259452
 30
0.0
 10
498.4262989884246
 20
266.3450103397518
 30
0.0
 10
498.9604178686545
 20
264.8948292834148
 30
0.0
 10
499.9504969957825
 20
263.4877882687799
 30
0.0
 10
501.3248329951323
 20
262.3368911354094
 30
0.0
 10
503.0906561402019
 20
261.4914588735639
 30
0.0
 10
505.2854006728547
 20
261.1384421900814
 30
0.0
 10
507.3563533674472
 20
261.4875619186544
 30
0.0
 10
509.033543052486
 20
262.2684874877843
 30
0.0
 10
510.2129409144293
 20
263.1686999923852
 30
0.0
 10
511.1997620085334
 20
264.334014792074
 30
0.0
 10
511.9123505172917
 20
265.6859095933191
 30
0.0
 10
512.2799702649658
 20
267.1839046869718
 30
0.0
 10
512.2910045121803
 20
268.8178718396005
 30
0.0
 10
511.9211032816228
 20
270.289544920666
 30
0.0
 10
511.2744511781524
 20
271.5146433801536
 30
0.0
 10
510.8090184002839
 20
272.117723743797
 30
0.0
 10
510.5810955166849
 20
272.3709964542896
 30
0.0
  0
LINE
  5
142
330
EE
100
AcDbEntity
  8
0
  6
Continuous
 62
     0
370
    30
100
AcDbLine
 10
509.137686
 20
337.734082
 30
0.0
 11
512.266321
 21
268.293668
 31
0.0
  0
ARC
  5
143
330
EE
100
AcDbEntity
  8
0
  6
Continuous
 62
     0
370
    30
100
AcDbCircle
 10
530.414909
 20
425.716219
 30
0.0
 40
0.5
100
AcDbArc
 50
0.0
 51
90.0
  0
ARC
  5
144
330
EE
100
AcDbEntity
  8
0
  6
Continuous
 62
     0
370
    30
100
AcDbCircle
 10
471.414909
 20
425.716219
 30
0.0
 40
0.5
100
AcDbArc
 50
90.0
 51
180.0
  0
ARC
  5
145
330
EE
100
AcDbEntity
  8
0
  6
Continuous
 62
     0
370
    30
100
AcDbCircle
 10
530.414909
 20
421.716219
 30
0.0
 40
0.5
100
AcDbArc
 50
270.0
 51
360.0
  0
ARC
  5
146
330
EE
100
AcDbEntity
  8
0
  6
Continuous
 62
     0
370
    30
100
AcDbCircle
 10
471.414909
 20
421.716219
 30
0.0
 40
0.5
100
AcDbArc
 50
180.0
 51
270.0
  0
LINE
  5
147
330
EE
100
AcDbEntity
  8
0
  6
Continuous
 62
     0
370
    30
100
AcDbLine
 10
530.914909
 20
425.716219
 30
0.0
 11
530.914909
 21
421.716219
 31
0.0
  0
LINE
  5
148
330
EE
100
AcDbEntity
  8
0
  6
Continuous
 62
     0
370
    30
100
AcDbLine
 10
470.914909
 20
425.716219
 30
0.0
 11
470.914909
 21
421.716219
 31
0.0
  0
ARC
  5
149
330
EE
100
AcDbEntity
  8
0
  6
Continuous
 62
     0
370
    30
100
AcDbCircle
 10
486.91491
 20
352.216217
 30
0.0
 40
1.0
100
AcDbArc
 50
180.0
 51
270.0
  0
LINE
  5
14A
330
EE
100
AcDbEntity
  8
0
  6
Continuous
 62
     0
370
    30
100
AcDbLine
 10
485.91491
 20
352.216217
 30
0.0
 11
485.91491
 21
356.216217
 31
0.0
  0
LINE
  5
14B
330
EE
100
AcDbEntity
  8
0
  6
Continuous
 62
     0
370
    30
100
AcDbLine
 10
485.91491
 20
373.216217
 30
0.0
 11
485.91491
 21
421.216219
 31
0.0
  0
ENDBLK
  5
14D
330
EE
100
AcDbEntity
  8
0
100
AcDbBlockEnd
  0
BLOCK
  5
1DB
330
14F
100
AcDbEntity
  8
0
100
AcDbBlockBegin
  2
c
 70
     0
 10
585.046265
 20
0.0
 30
0.0
  3
c
  1

  0
LINE
  5
150
330
14F
100
AcDbEntity
  8
0
  6
Continuous
 62
     0
370
    30
100
AcDbLine
 10
825.110844
 20
1266.851962
 30
0.0
 11
825.110844
 21
1281.351956
 31
0.0
  0
LINE
  5
151
330
14F
100
AcDbEntity
  8
0
  6
Continuous
 62
     0
370
    30
100
AcDbLine
 10
825.110844
 20
1222.351956
 30
0.0
 11
825.110844
 21
1236.851962
 31
0.0
  0
LINE
  5
152
330
14F
100
AcDbEntity
  8
0
  6
Continuous
 62
     0
370
    30
100
AcDbLine
 10
861.922009
 20
1266.851962
 30
0.0
 11
861.922009
 21
1273.951959
 31
0.0
  0
SPLINE
  5
153
330
14F
100
AcDbEntity
  8
0
  6
Continuous
 62
     0
370
     0
100
AcDbSpline
210
0.0
220
0.0
230
1.0
 70
     8
 71
     3
 72
    10
 73
     6
 74
     0
 42
0.000000001
 43
0.0
 40
0.0
 40
0.0
 40
0.0
 40
0.0
 40
1.46967466418275
 40
2.962880568228447
 40
4.210944240673033
 40
4.210944240673033
 40
4.210944240673033
 40
4.210944240673033
 10
873.1379410136717
 20
1224.767868319185
 30
0.0
 10
873.1379410350855
 20
1224.767868315377
 30
0.0
 10
873.2538112372226
 20
1224.855256201167
 30
0.0
 10
873.722249615753
 20
1225.191922278644
 30
0.0
 10
874.1769111071408
 20
1225.492041622066
 30
0.0
 10
874.4105827901453
 20
1225.636825538946
 30
0.0
  0
ARC
  5
154
330
14F
100
AcDbEntity
  8
0
  6
Continuous
 62
     0
370
    30
100
AcDbCircle
 10
868.138703
 20
1224.85513
 30
0.0
 40
5.000000000000002
100
AcDbArc
 50
359.0
 51
90.0
  0
SPLINE
  5
155
330
14F
100
AcDbEntity
  8
0
  6
Continuous
 62
     0
370
     0
100
AcDbSpline
210
0.0
220
0.0
230
1.0
 70
     8
 71
     3
 72
    10
 73
     6
 74
     0
 42
0.000000001
 43
0.0
 40
25.72206796585149
 40
25.72206796585149
 40
25.72206796585149
 40
25.72206796585149
 40
27.24518841621211
 40
30.59472225158421
 40
33.05208433184013
 40
33.05208433184013
 40
33.05208433184013
 40
33.05208433184013
 10
888.412536409453
 20
1230.688497506931
 30
0.0
 10
888.7654236158761
 20
1230.591927952074
 30
0.0
 10
889.7998845065873
 20
1230.292268786413
 30
0.0
 10
890.8496899721579
 20
1229.943879586169
 30
0.0
 10
891.1053157223268
 20
1229.855130339701
 30
0.0
 10
891.1053156901571
 20
1229.855130345421
 30
0.0
  0
SPLINE
  5
156
330
14F
100
AcDbEntity
  8
0
  6
Continuous
 62
     0
370
     0
100
AcDbSpline
210
0.0
220
0.0
230
1.0
 70
     8
 71
     3
 72
    12
 73
     8
 74
     0
 42
0.000000001
 43
0.0
 40
0.0
 40
0.0
 40
0.0
 40
0.0
 40
3.004295903646847
 40
6.017293057819065
 40
8.458208939344342
 40
9.934554958358262
 40
11.59258791181424
 40
11.59258791181424
 40
11.59258791181424
 40
11.59258791181424
 10
868.1387025395745
 20
1229.855130353027
 30
0.0
 10
868.1387025789045
 20
1229.855130346034
 30
0.0
 10
868.4640983194788
 20
1229.968965079768
 30
0.0
 10
869.7718925465786
 20
1230.394983127499
 30
0.0
 10
871.3709748578792
 20
1230.843574969934
 30
0.0
 10
872.9116588909218
 20
1231.20567136383
 30
0.0
 10
873.8785885284444
 20
1231.393616723582
 30
0.0
 10
874.413108283991
 20
1231.483661398727
 30
0.0
  0
ARC
  5
157
330
14F
100
AcDbEntity
  8
0
  6
Continuous
 62
     0
370
    30
100
AcDbCircle
 10
891.105316
 20
1224.85513
 30
0.0
 40
5.000000000000002
100
AcDbArc
 50
90.0
 51
122.599109
  0
LINE
  5
158
330
14F
100
AcDbEntity
  8
0
  6
Continuous
 62
     0
370
    30
100
AcDbLine
 10
869.922014
 20
1268.634936
 30
0.0
 11
869.273065
 21
1266.851962
 31
0.0
  0
LINE
  5
159
330
14F
100
AcDbEntity
  8
0
  6
Continuous
 62
     0
370
    30
100
AcDbLine
 10
867.910627
 20
1229.85513
 30
0.0
 11
868.138703
 21
1229.85513
 31
0.0
  0
LINE
  5
15A
330
14F
100
AcDbEntity
  8
0
  6
Continuous
 62
     0
370
    30
100
AcDbLine
 10
891.105316
 20
1229.85513
 30
0.0
 11
894.122009
 21
1229.85513
 31
0.0
  0
LINE
  5
15B
330
14F
100
AcDbEntity
  8
0
  6
Continuous
 62
     0
370
     0
100
AcDbLine
 10
894.122009
 20
1266.831759
 30
0.0
 11
894.122009
 21
1273.85513
 31
0.0
  0
LINE
  5
15C
330
14F
100
AcDbEntity
  8
0
  6
Continuous
 62
     0
370
     0
100
AcDbLine
 10
894.122009
 20
1229.85513
 30
0.0
 11
894.122009
 21
1236.872165
 31
0.0
  0
LINE
  5
15D
330
14F
100
AcDbEntity
  8
0
  6
Continuous
 62
     0
370
    30
100
AcDbLine
 10
894.622009
 20
1237.137815
 30
0.0
 11
894.622009
 21
1230.35513
 31
0.0
  0
LINE
  5
15E
330
14F
100
AcDbEntity
  8
0
  6
Continuous
 62
     0
370
    30
100
AcDbLine
 10
894.622009
 20
1273.35513
 30
0.0
 11
894.622009
 21
1266.566108
 31
0.0
  0
ARC
  5
15F
330
14F
100
AcDbEntity
  8
0
  6
Continuous
 62
     0
370
    30
100
AcDbCircle
 10
894.122009
 20
1230.35513
 30
0.0
 40
0.5
100
AcDbArc
 50
270.0
 51
360.0
  0
LINE
  5
160
330
14F
100
AcDbEntity
  8
0
  6
Continuous
 62
     0
370
    30
100
AcDbLine
 10
873.122009
 20
1163.85513
 30
0.0
 11
874.405909
 21
1163.85513
 31
0.0
  0
LINE
  5
161
330
14F
100
AcDbEntity
  8
0
  6
Continuous
 62
     0
370
     0
100
AcDbLine
 10
874.410726
 20
1223.85513
 30
0.0
 11
873.122009
 21
1223.85513
 31
0.0
  0
LINE
  5
162
330
14F
100
AcDbEntity
  8
0
  6
Continuous
 62
     0
370
    30
100
AcDbLine
 10
873.122009
 20
1223.85513
 30
0.0
 11
873.122009
 21
1163.85513
 31
0.0
  0
ARC
  5
163
330
14F
100
AcDbEntity
  8
0
  6
Continuous
 62
     0
370
    30
100
AcDbCircle
 10
894.122009
 20
1273.35513
 30
0.0
 40
0.5
100
AcDbArc
 50
360.0
 51
90.0
  0
LINE
  5
164
330
14F
100
AcDbEntity
  8
0
  6
Continuous
 62
     0
370
    30
100
AcDbLine
 10
892.922014
 20
1273.85513
 30
0.0
 11
894.122009
 21
1273.85513
 31
0.0
  0
LINE
  5
165
330
14F
100
AcDbEntity
  8
0
  6
Continuous
 62
     0
370
    30
100
AcDbLine
 10
873.122009
 20
1223.85513
 30
0.0
 11
873.137941
 21
1224.767868
 31
0.0
  0
ARC
  5
166
330
14F
100
AcDbEntity
  8
0
  6
Continuous
 62
     0
370
    30
100
AcDbCircle
 10
860.538411
 20
1251.674925
 30
0.0
 40
20.5736112662894
100
AcDbArc
 50
62.864336
 51
86.143886
  0
LINE
  5
167
330
14F
100
AcDbEntity
  8
0
  6
Continuous
 62
     0
370
    30
100
AcDbLine
 10
825.110844
 20
1229.751959
 30
0.0
 11
845.013059
 21
1229.751959
 31
0.0
  0
LINE
  5
168
330
14F
100
AcDbEntity
  8
0
  6
Continuous
 62
     0
370
    30
100
AcDbLine
 10
825.110844
 20
1273.951959
 30
0.0
 11
861.922009
 21
1273.951959
 31
0.0
  0
ARC
  5
169
330
14F
100
AcDbEntity
  8
0
  6
Continuous
 62
     0
370
    30
100
AcDbCircle
 10
824.610844
 20
1222.351956
 30
0.0
 40
0.5
100
AcDbArc
 50
270.0
 51
0.0
  0
ARC
  5
16A
330
14F
100
AcDbEntity
  8
0
  6
Continuous
 62
     0
370
    30
100
AcDbCircle
 10
824.610844
 20
1281.351956
 30
0.0
 40
0.5
100
AcDbArc
 50
0.0
 51
90.0
  0
LINE
  5
16B
330
14F
100
AcDbEntity
  8
0
  6
Continuous
 62
     0
370
    30
100
AcDbLine
 10
894.922016
 20
1265.851962
 30
0.0
 11
894.922016
 21
1237.851962
 31
0.0
  0
LINE
  5
16C
330
14F
100
AcDbEntity
  8
0
  6
Continuous
 62
     0
370
     0
100
AcDbLine
 10
893.922016
 20
1266.851962
 30
0.0
 11
893.922016
 21
1236.851962
 31
0.0
  0
SPLINE
  5
16D
330
14F
100
AcDbEntity
  8
0
  6
Continuous
 62
     0
370
     0
100
AcDbSpline
210
0.0
220
0.0
230
1.0
 70
     8
 71
     3
 72
    15
 73
    11
 74
     0
 42
0.000000001
 43
0.0
 40
6.390458652528941
 40
6.390458652528941
 40
6.390458652528941
 40
6.390458652528941
 40
6.549353348209934
 40
7.485033806391114
 40
8.420842859979185
 40
9.356526668047891
 40
10.29210450304696
 40
11.22780612592866
 40
12.1635590781751
 40
12.98732306932661
 40
12.98732306932661
 40
12.98732306932661
 40
12.98732306932661
 10
832.2418793873546
 20
1236.852010936907
 30
0.0
 10
832.241877028815
 20
1236.851994196255
 30
0.0
 10
832.2277784723993
 20
1236.853864483235
 30
0.0
 10
832.0194564999592
 20
1236.883861791379
 30
0.0
 10
831.3615698049732
 20
1236.956790169152
 30
0.0
 10
830.4611798385251
 20
1237.006707772654
 30
0.0
 10
829.4956651138543
 20
1236.995304094636
 30
0.0
 10
828.6612255004075
 20
1236.931456123241
 30
0.0
 10
828.140432153029
 20
1236.866314091112
 30
0.0
 10
828.0364628817607
 20
1236.851276643853
 30
0.0
 10
828.0427059924338
 20
1236.852075861191
 30
0.0
  0
LINE
  5
16E
330
14F
100
AcDbEntity
  8
0
  6
Continuous
 62
     0
370
    30
100
AcDbLine
 10
819.922014
 20
1281.351962
 30
0.0
 11
819.922014
 21
1276.350637
 31
0.0
  0
LINE
  5
16F
330
14F
100
AcDbEntity
  8
0
  6
Continuous
 62
     0
370
    30
100
AcDbLine
 10
819.922014
 20
1276.350637
 30
0.0
 11
819.922014
 21
1222.351962
 31
0.0
  0
LINE
  5
170
330
14F
100
AcDbEntity
  8
0
  6
Continuous
 62
     0
370
     0
100
AcDbLine
 10
824.422014
 20
1281.851962
 30
0.0
 11
824.422014
 21
1276.765869
 31
0.0
  0
LINE
  5
171
330
14F
100
AcDbEntity
  8
0
  6
Continuous
 62
     0
370
     0
100
AcDbLine
 10
824.422014
 20
1276.765869
 30
0.0
 11
824.422014
 21
1221.851962
 31
0.0
  0
LINE
  5
172
330
14F
100
AcDbEntity
  8
0
  6
Continuous
 62
     0
370
     0
100
AcDbLine
 10
820.422014
 20
1221.851962
 30
0.0
 11
820.422014
 21
1276.765869
 31
0.0
  0
LINE
  5
173
330
14F
100
AcDbEntity
  8
0
  6
Continuous
 62
     0
370
     0
100
AcDbLine
 10
820.422014
 20
1276.765869
 30
0.0
 11
820.422014
 21
1281.851962
 31
0.0
  0
LINE
  5
174
330
14F
100
AcDbEntity
  8
0
  6
Continuous
 62
     0
370
    30
100
AcDbLine
 10
824.922014
 20
1222.351962
 30
0.0
 11
824.922014
 21
1276.350637
 31
0.0
  0
LINE
  5
175
330
14F
100
AcDbEntity
  8
0
  6
Continuous
 62
     0
370
    30
100
AcDbLine
 10
824.922014
 20
1276.350637
 30
0.0
 11
824.922014
 21
1281.351962
 31
0.0
  0
LINE
  5
176
330
14F
100
AcDbEntity
  8
0
  6
Continuous
 62
     0
370
     0
100
AcDbLine
 10
867.860135
 20
1234.997522
 30
0.0
 11
849.588867
 21
1234.997522
 31
0.0
  0
LINE
  5
177
330
14F
100
AcDbEntity
  8
0
  6
Continuous
 62
     0
370
     0
100
AcDbLine
 10
849.588867
 20
1234.997522
 30
0.0
 11
845.060135
 21
1234.997522
 31
0.0
  0
LINE
  5
178
330
14F
100
AcDbEntity
  8
0
  6
Continuous
 62
     0
370
    30
100
AcDbLine
 10
845.260135
 20
1234.797522
 30
0.0
 11
849.709416
 21
1234.797522
 31
0.0
  0
LINE
  5
179
330
14F
100
AcDbEntity
  8
0
  6
Continuous
 62
     0
370
    30
100
AcDbLine
 10
849.709416
 20
1234.797522
 30
0.0
 11
867.660135
 21
1234.797522
 31
0.0
  0
LINE
  5
17A
330
14F
100
AcDbEntity
  8
0
  6
Continuous
 62
     0
370
    30
100
AcDbLine
 10
890.29319
 20
1237.707434
 30
0.0
 11
878.530382
 21
1237.707434
 31
0.0
  0
LINE
  5
17B
330
14F
100
AcDbEntity
  8
0
  6
Continuous
 62
     0
370
    30
100
AcDbLine
 10
878.530382
 20
1237.707434
 30
0.0
 11
872.550779
 21
1237.707434
 31
0.0
  0
LINE
  5
17C
330
14F
100
AcDbEntity
  8
0
  6
Continuous
 62
     0
370
    30
100
AcDbLine
 10
867.960135
 20
1231.347434
 30
0.0
 11
865.72758
 21
1231.347434
 31
0.0
  0
LINE
  5
17D
330
14F
100
AcDbEntity
  8
0
  6
Continuous
 62
     0
370
    30
100
AcDbLine
 10
865.72758
 20
1231.347434
 30
0.0
 11
844.960135
 21
1231.347434
 31
0.0
  0
LINE
  5
17E
330
14F
100
AcDbEntity
  8
0
  6
Continuous
 62
     0
370
    30
100
AcDbLine
 10
866.514418
 20
1202.347434
 30
0.0
 11
864.562527
 21
1202.347434
 31
0.0
  0
LINE
  5
17F
330
14F
100
AcDbEntity
  8
0
  6
Continuous
 62
     0
370
    30
100
AcDbLine
 10
864.562527
 20
1202.347434
 30
0.0
 11
846.405853
 21
1202.347434
 31
0.0
  0
LINE
  5
180
330
14F
100
AcDbEntity
  8
0
  6
Continuous
 62
     0
370
     0
100
AcDbLine
 10
845.906128
 20
1202.830856
 30
0.0
 11
864.965238
 21
1202.830856
 31
0.0
  0
LINE
  5
181
330
14F
100
AcDbEntity
  8
0
  6
Continuous
 62
     0
370
     0
100
AcDbLine
 10
864.965238
 20
1202.830856
 30
0.0
 11
867.014143
 21
1202.830856
 31
0.0
  0
LINE
  5
182
330
14F
100
AcDbEntity
  8
0
  6
Continuous
 62
     0
370
    30
100
AcDbLine
 10
891.325921
 20
1273.972751
 30
0.0
 11
891.325921
 21
1360.972751
 31
0.0
  0
LINE
  5
183
330
14F
100
AcDbEntity
  8
0
  6
Continuous
 62
     0
370
    30
100
AcDbLine
 10
869.900113
 20
1360.972751
 30
0.0
 11
892.910416
 21
1360.972751
 31
0.0
  0
LINE
  5
184
330
14F
100
AcDbEntity
  8
0
  6
Continuous
 62
     0
370
    30
100
AcDbLine
 10
908.404166
 20
1364.972751
 30
0.0
 11
908.404166
 21
1388.972751
 31
0.0
  0
LINE
  5
185
330
14F
100
AcDbEntity
  8
0
  6
Continuous
 62
     0
370
    30
100
AcDbLine
 10
857.804166
 20
1345.972751
 30
0.0
 11
859.804166
 21
1348.972751
 31
0.0
  0
LINE
  5
186
330
14F
100
AcDbEntity
  8
0
  6
Continuous
 62
     0
370
     0
100
AcDbLine
 10
856.804166
 20
1385.972751
 30
0.0
 11
856.804166
 21
1377.472751
 31
0.0
  0
LINE
  5
187
330
14F
100
AcDbEntity
  8
0
  6
Continuous
 62
     0
370
    30
100
AcDbLine
 10
856.304166
 20
1385.472751
 30
0.0
 11
856.304166
 21
1377.472751
 31
0.0
  0
LINE
  5
188
330
14F
100
AcDbEntity
  8
0
  6
Continuous
 62
     0
370
    30
100
AcDbLine
 10
856.304166
 20
1377.472751
 30
0.0
 11
856.304166
 21
1345.972751
 31
0.0
  0
LINE
  5
189
330
14F
100
AcDbEntity
  8
0
  6
Continuous
 62
     0
370
     0
100
AcDbLine
 10
856.804166
 20
1377.472751
 30
0.0
 11
856.804166
 21
1345.972751
 31
0.0
  0
LINE
  5
18A
330
14F
100
AcDbEntity
  8
0
  6
Continuous
 62
     0
370
    30
100
AcDbLine
 10
859.804166
 20
1385.972751
 30
0.0
 11
856.804166
 21
1385.972751
 31
0.0
  0
ARC
  5
18B
330
14F
100
AcDbEntity
  8
0
  6
Continuous
 62
     0
370
    30
100
AcDbCircle
 10
856.804166
 20
1385.472751
 30
0.0
 40
0.5
100
AcDbArc
 50
90.0
 51
180.0
  0
LINE
  5
18C
330
14F
100
AcDbEntity
  8
0
  6
Continuous
 62
     0
370
     0
100
AcDbLine
 10
859.804166
 20
1377.472751
 30
0.0
 11
856.804166
 21
1377.472751
 31
0.0
  0
LINE
  5
18D
330
14F
100
AcDbEntity
  8
0
  6
Continuous
 62
     0
370
    30
100
AcDbLine
 10
856.804166
 20
1345.972751
 30
0.0
 11
857.804166
 21
1345.972751
 31
0.0
  0
LINE
  5
18E
330
14F
100
AcDbEntity
  8
0
  6
Continuous
 62
     0
370
     0
100
AcDbLine
 10
856.304166
 20
1377.472751
 30
0.0
 11
856.804166
 21
1377.472751
 31
0.0
  0
LINE
  5
18F
330
14F
100
AcDbEntity
  8
0
  6
Continuous
 62
     0
370
    30
100
AcDbLine
 10
856.304166
 20
1345.972751
 30
0.0
 11
856.804166
 21
1345.972751
 31
0.0
  0
LINE
  5
190
330
14F
100
AcDbEntity
  8
0
  6
Continuous
 62
     0
370
    30
100
AcDbLine
 10
892.910416
 20
1360.972751
 30
0.0
 11
892.910416
 21
1364.972751
 31
0.0
  0
LINE
  5
191
330
14F
100
AcDbEntity
  8
0
  6
Continuous
 62
     0
370
    30
100
AcDbLine
 10
892.922017
 20
1273.972751
 30
0.0
 11
869.922017
 21
1273.972751
 31
0.0
  0
LINE
  5
192
330
14F
100
AcDbEntity
  8
0
  6
Continuous
 62
     0
370
    30
100
AcDbLine
 10
892.922017
 20
1266.972751
 30
0.0
 11
869.922017
 21
1266.972751
 31
0.0
  0
LINE
  5
193
330
14F
100
AcDbEntity
  8
0
  6
Continuous
 62
     0
370
    30
100
AcDbLine
 10
892.922017
 20
1273.972751
 30
0.0
 11
892.922017
 21
1266.972751
 31
0.0
  0
LINE
  5
194
330
14F
100
AcDbEntity
  8
0
  6
Continuous
 62
     0
370
     0
100
AcDbLine
 10
877.613115
 20
1372.180462
 30
0.0
 11
877.613115
 21
1388.845162
 31
0.0
  0
LINE
  5
195
330
14F
100
AcDbEntity
  8
0
  6
Continuous
 62
     0
370
     0
100
AcDbLine
 10
879.20544
 20
1372.914757
 30
0.0
 11
879.20544
 21
1388.972751
 31
0.0
  0
LINE
  5
196
330
14F
100
AcDbEntity
  8
0
  6
Continuous
 62
     0
370
    30
100
AcDbLine
 10
877.613115
 20
1388.845162
 30
0.0
 11
859.804166
 21
1385.972751
 31
0.0
  0
LINE
  5
197
330
14F
100
AcDbEntity
  8
0
  6
Continuous
 62
     0
370
    30
100
AcDbLine
 10
908.404166
 20
1388.972751
 30
0.0
 11
879.20544
 21
1388.972751
 31
0.0
  0
SPLINE
  5
198
330
14F
100
AcDbEntity
  8
0
  6
Continuous
 62
     0
370
    30
100
AcDbSpline
210
0.0
220
0.0
230
1.0
 70
     8
 71
     3
 72
    18
 73
    14
 74
     0
 42
0.000000001
 43
0.0
 40
16.41622716199696
 40
16.41622716199696
 40
16.41622716199696
 40
16.41622716199696
 40
16.86863241078802
 40
18.77327499397074
 40
20.45388564781332
 40
22.35887630619516
 40
24.23102309354149
 40
26.01954709906386
 40
28.23606445647989
 40
29.56327702092856
 40
30.40705612706835
 40
31.20620834391705
 40
31.96693378152118
 40
31.96693378152118
 40
31.96693378152118
 40
31.96693378152118
 10
869.9002108981718
 20
1366.344475177084
 30
0.0
 10
869.9001706787751
 20
1366.344433001268
 30
0.0
 10
869.9153935793443
 20
1366.358428084651
 30
0.0
 10
870.0804524348273
 20
1366.510583617599
 30
0.0
 10
870.5673798470257
 20
1366.956193308277
 30
0.0
 10
871.2747065409067
 20
1367.59551765961
 30
0.0
 10
872.1887385435389
 20
1368.403384785529
 30
0.0
 10
873.3143828691789
 20
1369.36308221723
 30
0.0
 10
874.4732424469553
 20
1370.292354803741
 30
0.0
 10
875.5274730179542
 20
1371.045952624459
 30
0.0
 10
876.2898946959292
 20
1371.528882617759
 30
0.0
 10
876.9413366288001
 20
1371.889219791572
 30
0.0
 10
877.3885348320241
 20
1372.092553612489
 30
0.0
 10
877.6131081788435
 20
1372.180477933419
 30
0.0
  0
ARC
  5
199
330
14F
100
AcDbEntity
  8
0
  6
Continuous
 62
     0
370
    30
100
AcDbCircle
 10
879.20544
 20
1378.972751
 30
0.0
 40
10.0
100
AcDbArc
 50
90.0
 51
99.162347
  0
SPLINE
  5
19A
330
14F
100
AcDbEntity
  8
0
  6
Continuous
 62
     0
370
    30
100
AcDbSpline
210
0.0
220
0.0
230
1.0
 70
     8
 71
     3
 72
    23
 73
    19
 74
     0
 42
0.000000001
 43
0.0
 40
0.9553401948527092
 40
0.9553401948527092
 40
0.9553401948527092
 40
0.9553401948527092
 40
1.397326887929738
 40
2.395928304511652
 40
3.023061100856006
 40
3.773453909343232
 40
4.587369697490498
 40
5.566239355724107
 40
6.498116677958614
 40
7.681754304579757
 40
9.001755409336393
 40
11.29685370731296
 40
12.86495997213502
 40
15.26879964918784
 40
17.44400700888651
 40
19.78486918086658
 40
21.98078497346992
 40
23.65944282701305
 40
23.65944282701305
 40
23.65944282701305
 40
23.65944282701305
 10
879.2054514571814
 20
1372.914762672819
 30
0.0
 10
879.3331754596668
 20
1372.983892389842
 30
0.0
 10
879.7562937901209
 20
1373.198719582411
 30
0.0
 10
880.3991524344929
 20
1373.445230731038
 30
0.0
 10
881.1824743933789
 20
1373.578429504624
 30
0.0
 10
881.9174554587157
 20
1373.553158946612
 30
0.0
 10
882.7401078592229
 20
1373.338908836751
 30
0.0
 10
883.5587987769231
 20
1372.959093511075
 30
0.0
 10
884.424921560839
 20
1372.433133184116
 30
0.0
 10
885.3286367266262
 20
1371.786891591124
 30
0.0
 10
886.5215936730187
 20
1370.839723569919
 30
0.0
 10
887.725065511125
 20
1369.799253352812
 30
0.0
 10
889.0775479052797
 20
1368.582061378784
 30
0.0
 10
890.2883227091227
 20
1367.46081189986
 30
0.0
 10
891.4535030355883
 20
1366.363197564135
 30
0.0
 10
892.3280832079015
 20
1365.530477728516
 30
0.0
 10
892.8154869793987
 20
1365.063800356676
 30
0.0
 10
892.9104164757641
 20
1364.972751218765
 30
0.0
 10
892.9104164598234
 20
1364.972751218765
 30
0.0
  0
ARC
  5
19B
330
14F
100
AcDbEntity
  8
0
  6
Continuous
 62
     0
370
    30
100
AcDbCircle
 10
872.470085
 20
1385.427286
 30
0.0
 40
14.21017545035944
100
AcDbArc
 50
291.218519
 51
298.293032
  0
LINE
  5
19C
330
14F
100
AcDbEntity
  8
0
  6
Continuous
 62
     0
370
    30
100
AcDbLine
 10
859.804166
 20
1348.972751
 30
0.0
 11
859.804166
 21
1374.014711
 31
0.0
  0
LINE
  5
19D
330
14F
100
AcDbEntity
  8
0
  6
Continuous
 62
     0
370
    30
100
AcDbLine
 10
859.804166
 20
1374.014711
 30
0.0
 11
859.804166
 21
1385.972751
 31
0.0
  0
LINE
  5
19E
330
14F
100
AcDbEntity
  8
0
  6
Continuous
 62
     0
370
    30
100
AcDbLine
 10
891.899517
 20
1266.972751
 30
0.0
 11
891.899517
 21
1266.707434
 31
0.0
  0
LINE
  5
19F
330
14F
100
AcDbEntity
  8
0
  6
Continuous
 62
     0
370
    30
100
AcDbLine
 10
889.922016
 20
1238.219546
 30
0.0
 11
889.922016
 21
1264.754888
 31
0.0
  0
LINE
  5
1A0
330
14F
100
AcDbEntity
  8
0
  6
Continuous
 62
     0
370
    30
100
AcDbLine
 10
872.922016
 20
1264.75489
 30
0.0
 11
872.922016
 21
1238.219544
 31
0.0
  0
ARC
  5
1A1
330
14F
100
AcDbEntity
  8
0
  6
Continuous
 62
     0
370
    30
100
AcDbCircle
 10
897.846474
 20
1198.502982
 30
0.0
 40
46.6568015164281
100
AcDbArc
 50
122.794281
 51
124.720404
  0
ARC
  5
1A2
330
14F
100
AcDbEntity
  8
0
  6
Continuous
 62
     0
370
    30
100
AcDbCircle
 10
865.043311
 20
1198.567396
 30
0.0
 40
46.57783918089207
100
AcDbArc
 50
55.280756
 51
57.210093
  0
LINE
  5
1A3
330
14F
100
AcDbEntity
  8
0
  6
Continuous
 62
     0
370
    30
100
AcDbLine
 10
892.420138
 20
1266.707354
 30
0.0
 11
892.619623
 21
1266.851812
 31
0.0
  0
SPLINE
  5
1A4
330
14F
100
AcDbEntity
  8
0
  6
Continuous
 62
     0
370
    30
100
AcDbSpline
210
0.0
220
0.0
230
1.0
 70
     8
 71
     3
 72
     9
 73
     5
 74
     0
 42
0.000000001
 43
0.0
 40
2.062139407254573
 40
2.062139407254573
 40
2.062139407254573
 40
2.062139407254573
 40
2.792597250132116
 40
4.188914705010877
 40
4.188914705010877
 40
4.188914705010877
 40
4.188914705010877
 10
870.2244585270832
 20
1266.85174442142
 30
0.0
 10
870.2237382900615
 20
1266.852221624102
 30
0.0
 10
870.2453835262818
 20
1266.836344121037
 30
0.0
 10
870.336145551853
 20
1266.77062157018
 30
0.0
 10
870.4238952889143
 20
1266.707265252486
 30
0.0
  0
ARC
  5
1A5
330
14F
100
AcDbEntity
  8
0
  6
Continuous
 62
     0
370
    30
100
AcDbCircle
 10
889.228079
 20
1180.92787
 30
0.0
 40
71.65960787839336
100
AcDbArc
 50
126.333026
 51
128.701291
  0
SPLINE
  5
1A6
330
14F
100
AcDbEntity
  8
0
  6
Continuous
 62
     0
370
    30
100
AcDbSpline
210
0.0
220
0.0
230
1.0
 70
     8
 71
     3
 72
    10
 73
     6
 74
     0
 42
0.000000001
 43
0.0
 40
0.0
 40
0.0
 40
0.0
 40
0.0
 40
1.731331494173779
 40
3.461918485655627
 40
5.193039346485667
 40
5.193039346485667
 40
5.193039346485667
 40
5.193039346485667
 10
853.8714127250005
 20
1242.49755508916
 30
0.0
 10
854.4163281877336
 20
1242.646129048872
 30
0.0
 10
855.5483142359542
 20
1242.865338251362
 30
0.0
 10
857.2958134832695
 20
1242.864910199603
 30
0.0
 10
858.4277303302101
 20
1242.645952352575
 30
0.0
 10
858.9725962774185
 20
1242.497460012059
 30
0.0
  0
SPLINE
  5
1A7
330
14F
100
AcDbEntity
  8
0
  6
Continuous
 62
     0
370
    30
100
AcDbSpline
210
0.0
220
0.0
230
1.0
 70
     8
 71
     3
 72
    10
 73
     6
 74
     0
 42
0.000000001
 43
0.0
 40
0.0
 40
0.0
 40
0.0
 40
0.0
 40
2.792345794348063
 40
5.582390710317938
 40
7.002662506822144
 40
7.002662506822144
 40
7.002662506822144
 40
7.002662506822144
 10
866.5334281757421
 20
1238.315324463279
 30
0.0
 10
866.9984574364764
 20
1237.967982946405
 30
0.0
 10
867.7932333004608
 20
1237.353641400893
 30
0.0
 10
868.3387015160457
 20
1236.918578463573
 30
0.0
 10
868.4215248011789
 20
1236.852489338819
 30
0.0
 10
868.421522550223
 20
1236.852486536379
 30
0.0
  0
LINE
  5
1A8
330
14F
100
AcDbEntity
  8
0
  6
Continuous
 62
     0
370
     0
100
AcDbLine
 10
851.878401
 20
1242.297522
 30
0.0
 11
861.04187
 21
1242.297522
 31
0.0
  0
LINE
  5
1A9
330
14F
100
AcDbEntity
  8
0
  6
Continuous
 62
     0
370
    30
100
AcDbLine
 10
860.073412
 20
1242.497522
 30
0.0
 11
852.846859
 21
1242.497522
 31
0.0
  0
LINE
  5
1AA
330
14F
100
AcDbEntity
  8
0
  6
Continuous
 62
     0
370
     0
100
AcDbLine
 10
878.38666
 20
1238.190856
 30
0.0
 11
889.966778
 21
1238.190856
 31
0.0
  0
LINE
  5
1AB
330
14F
100
AcDbEntity
  8
0
  6
Continuous
 62
     0
370
     0
100
AcDbLine
 10
872.877258
 20
1238.190856
 30
0.0
 11
878.38666
 21
1238.190856
 31
0.0
  0
ARC
  5
1AC
330
14F
100
AcDbEntity
  8
0
  6
Continuous
 62
     0
370
    30
100
AcDbCircle
 10
862.28126
 20
1223.020443
 30
0.0
 40
21.90491374029504
100
AcDbArc
 50
118.35348
 51
125.410554
  0
ARC
  5
1AD
330
14F
100
AcDbEntity
  8
0
  6
Continuous
 62
     0
370
    30
100
AcDbCircle
 10
870.143425
 20
1211.85639
 30
0.0
 40
35.55948913609233
100
AcDbArc
 50
125.312312
 51
131.092025
  0
SPLINE
  5
1AE
330
14F
100
AcDbEntity
  8
0
  6
Continuous
 62
     0
370
    30
100
AcDbSpline
210
0.0
220
0.0
230
1.0
 70
     8
 71
     3
 72
    12
 73
     8
 74
     0
 42
0.000000001
 43
0.0
 40
0.0
 40
0.0
 40
0.0
 40
0.0
 40
1.719933478023029
 40
3.51415053071932
 40
6.312083807599754
 40
7.625146102095301
 40
8.617063639413901
 40
8.617063639413901
 40
8.617063639413901
 40
8.617063639413901
 10
866.5334247751916
 20
1238.315320895895
 30
0.0
 10
866.2862979721262
 20
1238.537969606491
 30
0.0
 10
865.7219667631296
 20
1239.03069952777
 30
0.0
 10
864.5248305608707
 20
1240.008467786955
 30
0.0
 10
863.2088645613928
 20
1240.985441975494
 30
0.0
 10
861.9298428890277
 20
1241.803077935112
 30
0.0
 10
861.3140671825697
 20
1242.152930017872
 30
0.0
 10
861.0418702165166
 20
1242.29752239493
 30
0.0
  0
SPLINE
  5
1AF
330
14F
100
AcDbEntity
  8
0
  6
Continuous
 62
     0
370
    30
100
AcDbSpline
210
0.0
220
0.0
230
1.0
 70
     8
 71
     3
 72
    11
 73
     7
 74
     0
 42
0.000000001
 43
0.0
 40
0.0
 40
0.0
 40
0.0
 40
0.0
 40
0.3044018413800627
 40
0.527063114334906
 40
0.8022393611664295
 40
1.014304937876205
 40
1.014304937876205
 40
1.014304937876205
 40
1.014304937876205
 10
852.8468591247313
 20
1242.49752239791
 30
0.0
 10
852.7454880631733
 20
1242.49752239791
 30
0.0
 10
852.5699094958136
 20
1242.484751962119
 30
0.0
 10
852.3077603884954
 20
1242.44258363922
 30
0.0
 10
852.0824296396233
 20
1242.385309852476
 30
0.0
 10
851.9365179132717
 20
1242.328394340528
 30
0.0
 10
851.8784010856659
 20
1242.29752239493
 30
0.0
  0
SPLINE
  5
1B0
330
14F
100
AcDbEntity
  8
0
  6
Continuous
 62
     0
370
    30
100
AcDbSpline
210
0.0
220
0.0
230
1.0
 70
     8
 71
     3
 72
    11
 73
     7
 74
     0
 42
0.000000001
 43
0.0
 40
0.0
 40
0.0
 40
0.0
 40
0.0
 40
0.2120655767097838
 40
0.4872418235413004
 40
0.7099030964961442
 40
1.0143049378762
 40
1.0143049378762
 40
1.0143049378762
 40
1.0143049378762
 10
861.0418702165166
 20
1242.29752239493
 30
0.0
 10
860.9837533911409
 20
1242.328394340528
 30
0.0
 10
860.8378416688624
 20
1242.385309852476
 30
0.0
 10
860.6125109240377
 20
1242.44258363922
 30
0.0
 10
860.3503618196753
 20
1242.484751962119
 30
0.0
 10
860.1747832532053
 20
1242.49752239791
 30
0.0
 10
860.0734121916471
 20
1242.49752239791
 30
0.0
  0
LINE
  5
1B1
330
14F
100
AcDbEntity
  8
0
  6
Continuous
 62
     0
370
    30
100
AcDbLine
 10
872.877258
 20
1238.190856
 30
0.0
 11
872.922017
 21
1238.219544
 31
0.0
  0
LINE
  5
1B2
330
14F
100
AcDbEntity
  8
0
  6
Continuous
 62
     0
370
    30
100
AcDbLine
 10
889.922017
 20
1238.219546
 30
0.0
 11
889.966778
 21
1238.190856
 31
0.0
  0
ARC
  5
1B3
330
14F
100
AcDbEntity
  8
0
  6
Continuous
 62
     0
370
    30
100
AcDbCircle
 10
862.342569
 20
1307.4571
 30
0.0
 40
50.83409098023218
100
AcDbArc
 50
302.856608
 51
306.71484
  0
ARC
  5
1B4
330
14F
100
AcDbEntity
  8
0
  6
Continuous
 62
     0
370
    30
100
AcDbCircle
 10
900.501529
 20
1307.457196
 30
0.0
 40
50.8342052641411
100
AcDbArc
 50
233.285169
 51
237.143389
  0
SPLINE
  5
1B5
330
14F
100
AcDbEntity
  8
0
  6
Continuous
 62
     0
370
    30
100
AcDbSpline
210
0.0
220
0.0
230
1.0
 70
     8
 71
     3
 72
    14
 73
    10
 74
     0
 42
0.000000001
 43
0.0
 40
0.0
 40
0.0
 40
0.0
 40
0.0
 40
0.5441214460539315
 40
0.8451352815050245
 40
1.000109597401926
 40
1.090969085917001
 40
1.207542671318798
 40
1.278746058872053
 40
1.340134358774076
 40
1.340134358774076
 40
1.340134358774076
 40
1.340134358774076
 10
872.8772575232456
 20
1238.190855947836
 30
0.0
 10
872.7792821668338
 20
1238.127962347488
 30
0.0
 10
872.6467639089387
 20
1238.02777993523
 30
0.0
 10
872.5437123783524
 20
1237.908517069759
 30
0.0
 10
872.5124617425986
 20
1237.843526150755
 30
0.0
 10
872.5056928056558
 20
1237.800857268123
 30
0.0
 10
872.5129736949395
 20
1237.768549999709
 30
0.0
 10
872.5377552766167
 20
1237.741329661552
 30
0.0
 10
872.5620079136811
 20
1237.728586301075
 30
0.0
 10
872.5760287168941
 20
1237.723608517293
 30
0.0
  0
SPLINE
  5
1B6
330
14F
100
AcDbEntity
  8
0
  6
Continuous
 62
     0
370
    30
100
AcDbSpline
210
0.0
220
0.0
230
1.0
 70
     8
 71
     3
 72
    14
 73
    10
 74
     0
 42
0.000000001
 43
0.0
 40
0.0
 40
0.0
 40
0.0
 40
0.0
 40
0.0613887074185677
 40
0.132596151409623
 40
0.2491697368113856
 40
0.3400292253264607
 40
0.4950035412233632
 40
0.7960173766744648
 40
1.340138822728371
 40
1.340138822728371
 40
1.340138822728371
 40
1.340138822728371
 10
890.2680033717509
 20
1237.723607578517
 30
0.0
 10
890.2820244657926
 20
1237.728585318085
 30
0.0
 10
890.3062799455754
 20
1237.741328618413
 30
0.0
 10
890.3310617398897
 20
1237.768549589087
 30
0.0
 10
890.3383430013944
 20
1237.800857253881
 30
0.0
 10
890.3315740031624
 20
1237.843526156865
 30
0.0
 10
890.3003234175958
 20
1237.908517065713
 30
0.0
 10
890.1972718891527
 20
1238.027779937941
 30
0.0
 10
890.0647536608176
 20
1238.127962347488
 30
0.0
 10
889.966778316531
 20
1238.190855947836
 30
0.0
  0
LINE
  5
1B7
330
14F
100
AcDbEntity
  8
0
  6
Continuous
 62
     0
370
    30
100
AcDbLine
 10
870.11118
 20
1266.707434
 30
0.0
 11
892.732855
 21
1266.707434
 31
0.0
  0
LINE
  5
1B8
330
14F
100
AcDbEntity
  8
0
  6
Continuous
 62
     0
370
    30
100
AcDbLine
 10
869.900208
 20
1366.344357
 30
0.0
 11
859.804166
 21
1367.972751
 31
0.0
  0
LINE
  5
1B9
330
14F
100
AcDbEntity
  8
0
  6
Continuous
 62
     0
370
    30
100
AcDbLine
 10
908.404166
 20
1364.972751
 30
0.0
 11
892.910416
 21
1364.972751
 31
0.0
  0
LINE
  5
1BA
330
14F
100
AcDbEntity
  8
0
  6
Continuous
 62
     0
370
    30
100
AcDbLine
 10
869.900113
 20
1360.972751
 30
0.0
 11
869.900113
 21
1366.344475
 31
0.0
  0
LINE
  5
1BB
330
14F
100
AcDbEntity
  8
0
  6
Continuous
 62
     0
370
    30
100
AcDbLine
 10
870.944517
 20
1266.972751
 30
0.0
 11
870.944517
 21
1266.707434
 31
0.0
  0
LINE
  5
1BC
330
14F
100
AcDbEntity
  8
0
  6
Continuous
 62
     0
370
    30
100
AcDbLine
 10
869.922017
 20
1273.972751
 30
0.0
 11
869.922017
 21
1266.972751
 31
0.0
  0
LINE
  5
1BD
330
14F
100
AcDbEntity
  8
0
  6
Continuous
 62
     0
370
    30
100
AcDbLine
 10
871.325911
 20
1273.972751
 30
0.0
 11
871.325911
 21
1360.972751
 31
0.0
  0
ARC
  5
1BE
330
14F
100
AcDbEntity
  8
0
  6
Continuous
 62
     0
370
    30
100
AcDbCircle
 10
846.405853
 20
1202.847434
 30
0.0
 40
0.5000000000001373
100
AcDbArc
 50
181.9
 51
270.0
  0
ARC
  5
1BF
330
14F
100
AcDbEntity
  8
0
  6
Continuous
 62
     0
370
    30
100
AcDbCircle
 10
866.514418
 20
1202.847434
 30
0.0
 40
0.5000000000001373
100
AcDbArc
 50
270.0
 51
358.1
  0
LINE
  5
1C0
330
14F
100
AcDbEntity
  8
0
  6
Continuous
 62
     0
370
    30
100
AcDbLine
 10
844.960135
 20
1231.347434
 30
0.0
 11
845.906128
 21
1202.830856
 31
0.0
  0
LINE
  5
1C1
330
14F
100
AcDbEntity
  8
0
  6
Continuous
 62
     0
370
    30
100
AcDbLine
 10
867.960135
 20
1231.347434
 30
0.0
 11
867.014143
 21
1202.830856
 31
0.0
  0
SPLINE
  5
1C2
330
14F
100
AcDbEntity
  8
0
  6
Continuous
 62
     0
370
    30
100
AcDbSpline
210
0.0
220
0.0
230
1.0
 70
     8
 71
     3
 72
    97
 73
    93
 74
     0
 42
0.000000001
 43
0.0
 40
0.0
 40
0.0
 40
0.0
 40
0.0
 40
31.48940324291505
 40
41.9834364880395
 40
57.72115563101369
 40
65.58524283030438
 40
73.44550885460043
 40
93.07695825772689
 40
113.6932089358813
 40
125.4860681906178
 40
134.3241969768676
 40
149.0452335230894
 40
163.7591410717692
 40
187.2985108458208
 40
209.1598536184428
 40
241.9546732106485
 40
262.1371887679302
 40
294.9294524097642
 40
310.0605470942999
 40
320.1462887639253
 40
337.796496377935
 40
347.8846255201889
 40
365.547521245141
 40
375.6478012472614
 40
385.7559585848209
 40
411.0824107833797
 40
426.3307634659615
 40
431.4243184665713
 40
441.6290114408944
 40
467.160021718477
 40
479.8666672896654
 40
487.4516080284268
 40
494.998875234118
 40
502.5031463080867
 40
512.4639994495196
 40
527.4333853771673
 40
532.4623762698452
 40
538.7977940356016
 40
547.7950499241805
 40
556.9988061261869
 40
569.2384731938213
 40
577.6007213561929
 40
586.0204452832124
 40
591.6272112421085
 40
602.0578835955774
 40
609.6071727991954
 40
616.3942607841748
 40
623.8030447518776
 40
630.5371523617226
 40
636.6506668665561
 40
644.9156913789711
 40
651.9055079824476
 40
659.6885584232245
 40
674.7272029000153
 40
683.3602350157678
 40
689.8275172045884
 40
698.4365441019729
 40
704.9646951326091
 40
710.7652684166075
 40
720.2006089471055
 40
735.4357425456525
 40
746.2547846650506
 40
751.2937663316599
 40
759.8224984813073
 40
766.1107566840135
 40
770.2462601917282
 40
772.9780793788564
 40
780.4249968064088
 40
787.8502964227871
 40
794.6751065158142
 40
803.6353218674003
 40
811.9838137517532
 40
817.5742922589332
 40
821.7695206726108
 40
838.2361442088043
 40
851.3148173541474
 40
861.5654843886701
 40
874.2000441240551
 40
884.2274369725711
 40
894.2385255724707
 40
904.2833891688543
 40
918.4112802791257
 40
938.6160858871515
 40
954.8299310470525
 40
971.0298698430356
 40
979.1153611633607
 40
1011.39710603293
 40
1043.667120163308
 40
1124.963481188291
 40
1206.246977344247
 40
1274.664052281819
 40
1343.080866515992
 40
1343.080866515992
 40
1343.080866515992
 40
1343.080866515992
 10
888.4220447574478
 20
1237.707433537006
 30
0.0
 10
888.4008960434762
 20
1227.21099120174
 30
0.0
 10
888.4175467427583
 20
1213.216490456271
 30
0.0
 10
888.439501215739
 20
1193.976123609766
 30
0.0
 10
888.4421152532714
 20
1182.610835891057
 30
0.0
 10
888.4225309080889
 20
1172.123493811154
 30
0.0
 10
888.3972639089325
 20
1160.338256874941
 30
0.0
 10
888.390038989749
 20
1144.302220681665
 30
0.0
 10
888.5590935462035
 20
1126.955679652968
 30
0.0
 10
888.9008764604162
 20
1113.210571236011
 30
0.0
 10
889.3267120577502
 20
1101.434134667592
 30
0.0
 10
889.9457263367319
 20
1088.691119689211
 30
0.0
 10
891.0722461346554
 20
1071.068539746194
 30
0.0
 10
892.7388769907611
 20
1051.098506681375
 30
0.0
 10
895.4873174169213
 20
1025.177413746508
 30
0.0
 10
898.7923362605395
 20
1000.448111488131
 30
0.0
 10
903.337430442527
 20
972.2210622169309
 30
0.0
 10
907.5450601849457
 20
949.9100962917437
 30
0.0
 10
911.5842076246331
 20
931.0006157023356
 30
0.0
 10
914.7452317651769
 20
917.0661741446866
 30
0.0
 10
917.7055152933526
 20
904.8108187592231
 30
0.0
 10
921.4644786846839
 20
890.1521251596563
 30
0.0
 10
924.7689786852661
 20
877.9758293358454
 30
0.0
 10
928.2482707556799
 20
865.8418535015007
 30
0.0
 10
932.5708470390457
 20
851.293221872261
 30
0.0
 10
937.565599452995
 20
835.1555016803247
 30
0.0
 10
942.0521493013439
 20
820.61029096193
 30
0.0
 10
945.0093934186968
 20
810.8678660117564
 30
0.0
 10
948.8955100055923
 20
797.8258234979843
 30
0.0
 10
953.3812274727145
 20
782.3150065525035
 30
0.0
 10
957.8033446057268
 20
767.6960115348173
 30
0.0
 10
960.5967742761516
 20
758.8476160473557
 30
0.0
 10
962.9496038820016
 20
751.6789473232521
 30
0.0
 10
965.6691661574291
 20
743.7982324162764
 30
0.0
 10
969.3364933880594
 20
733.6291098751726
 30
0.0
 10
972.7110770388535
 20
724.2307460150801
 30
0.0
 10
975.4789143439684
 20
715.9011834147441
 30
0.0
 10
977.505310862304
 20
709.4237463528477
 30
0.0
 10
979.7111064844371
 20
701.5468281479908
 30
0.0
 10
982.005756982518
 20
691.6602015550219
 30
0.0
 10
983.6629890922025
 20
681.8574010878536
 30
0.0
 10
984.638484259167
 20
672.2288640179709
 30
0.0
 10
984.9318826921947
 20
664.7674041744644
 30
0.0
 10
984.7655747226347
 20
656.6143444710906
 30
0.0
 10
984.0093164821462
 20
648.7767298062272
 30
0.0
 10
982.358696434573
 20
640.6780798128194
 30
0.0
 10
980.2217731454268
 20
633.7430619309117
 30
0.0
 10
977.4394812583371
 20
627.331649260212
 30
0.0
 10
973.9955499339319
 20
621.509742358091
 30
0.0
 10
969.6949763441025
 20
615.9269984098369
 30
0.0
 10
964.6646844488057
 20
610.8643896856527
 30
0.0
 10
958.6283279656539
 20
606.1058881167323
 30
0.0
 10
950.1893331600754
 20
600.8401847808843
 30
0.0
 10
940.4770072471688
 20
596.7608481321149
 30
0.0
 10
930.6966955389523
 20
594.4196936202117
 30
0.0
 10
922.8552460473027
 20
593.4168521351085
 30
0.0
 10
915.6443777027023
 20
593.3046377061759
 30
0.0
 10
908.7000605572246
 20
594.0435139870071
 30
0.0
 10
901.593659454087
 20
595.5116726486726
 30
0.0
 10
891.9292421163925
 20
598.6896921811441
 30
0.0
 10
881.4405201885265
 20
604.2777930556197
 30
0.0
 10
873.2401060111204
 20
610.6499134386619
 30
0.0
 10
867.3858374488809
 20
616.2914883717199
 30
0.0
 10
863.062828800782
 20
621.3162690768364
 30
0.0
 10
859.4876620913917
 20
626.53184172598
 30
0.0
 10
857.3155841285329
 20
630.3432401619382
 30
0.0
 10
855.1972631782139
 20
634.6193532545741
 30
0.0
 10
853.0453963759292
 20
640.0890031748971
 30
0.0
 10
851.1525614511606
 20
647.0784194488197
 30
0.0
 10
849.7994607214282
 20
654.7017065783295
 30
0.0
 10
849.0336371559506
 20
662.7160140634319
 30
0.0
 10
848.7934089180058
 20
670.3476347646391
 30
0.0
 10
848.8141156824499
 20
676.3926962271901
 30
0.0
 10
848.9956789689722
 20
685.1418184585847
 30
0.0
 10
849.5130751328347
 20
696.377930102697
 30
0.0
 10
849.7848230637915
 20
709.6411601769951
 30
0.0
 10
849.8504934938599
 20
721.6291349613383
 30
0.0
 10
849.7854751723653
 20
732.599954172105
 30
0.0
 10
849.6561564669337
 20
743.4902092389027
 30
0.0
 10
849.5231000513381
 20
753.5171062714036
 30
0.0
 10
849.4069176944442
 20
764.9111598747509
 30
0.0
 10
849.3481374724593
 20
779.7036435881159
 30
0.0
 10
849.3721883058884
 20
796.5525085993482
 30
0.0
 10
849.4363931758514
 20
814.0919193810396
 30
0.0
 10
849.4730920858278
 20
827.5916323873515
 30
0.0
 10
849.4932835825841
 20
846.447351192227
 30
0.0
 10
849.4721698802432
 20
870.6597715915498
 30
0.0
 10
849.4387712466546
 20
919.2757970915793
 30
0.0
 10
849.4708226896603
 20
984.225762026693
 30
0.0
 10
849.4574775337153
 20
1061.224736824405
 30
0.0
 10
849.4608908822079
 20
1133.930532525477
 30
0.0
 10
849.4600936872055
 20
1179.541828792343
 30
0.0
 10
849.4601352474176
 20
1202.34743353703
 30
0.0
  0
SPLINE
  5
1C3
330
14F
100
AcDbEntity
  8
0
  6
Continuous
 62
     0
370
    30
100
AcDbSpline
210
0.0
220
0.0
230
1.0
 70
     8
 71
     3
 72
    97
 73
    93
 74
     0
 42
0.000000001
 43
0.0
 40
0.0
 40
0.0
 40
0.0
 40
0.0
 40
31.47296671799091
 40
41.9668795457574
 40
57.71152879043319
 40
65.58941258790283
 40
73.4713249730773
 40
93.19336742448077
 40
113.8943275158038
 40
125.7115675956749
 40
134.5818333083684
 40
149.3765286264196
 40
161.2189738036853
 40
187.8703781788175
 40
209.9451402814428
 40
240.6364326308647
 40
271.3252153883298
 40
294.3461819359229
 40
327.6130975880841
 40
348.0855853392379
 40
368.5416509592368
 40
376.2053775871362
 40
383.8639991351408
 40
399.1643705721938
 40
414.4385620877096
 40
424.603989069243
 40
429.6808116796728
 40
439.8216129373351
 40
455.0067504844282
 40
470.1961281842899
 40
487.9819509500589
 40
495.6432186097065
 40
500.7683343074785
 40
505.9095626649158
 40
516.2253953463915
 40
526.5420560749131
 40
531.6842015660883
 40
544.4426258184095
 40
559.4788933170048
 40
564.4092059100997
 40
571.7200450152408
 40
577.7152680592324
 40
584.7640380426542
 40
592.7603001360823
 40
601.592924457515
 40
609.0930568075673
 40
612.262959681377
 40
618.5767697606409
 40
623.3426174601096
 40
628.1775886425161
 40
634.7429889490268
 40
640.3111602949224
 40
646.5193775532265
 40
658.5170235740244
 40
665.3966323656157
 40
669.9731641600711
 40
676.8475716995041
 40
682.0375496870251
 40
686.6434366808226
 40
694.1274803317465
 40
706.2331914915637
 40
713.7043537755261
 40
717.7139377805192
 40
725.1305439254866
 40
729.6767445153283
 40
735.4098985378793
 40
741.7450299792979
 40
748.1841058789161
 40
757.8228955857492
 40
769.0805023211751
 40
778.1102286727831
 40
783.3371098624996
 40
785.9622177861527
 40
788.5922360128566
 40
793.8583066311423
 40
799.1212352532315
 40
804.379064974552
 40
813.447097731962
 40
824.8818309190221
 40
847.7312075491559
 40
859.1560648826511
 40
866.7754563451998
 40
904.9382739923383
 40
916.3914405516934
 40
927.8434821902154
 40
939.2941065998433
 40
979.3617726928388
 40
1013.701919260699
 40
1065.214318118629
 40
1099.555261048554
 40
1180.841044306978
 40
1299.446354771198
 40
1299.446354771198
 40
1299.446354771198
 40
1299.446354771198
 10
874.4219902704365
 20
1237.707433536796
 30
0.0
 10
874.4007757315901
 20
1227.216470229363
 30
0.0
 10
874.417634521237
 20
1213.227488342598
 30
0.0
 10
874.4397014715314
 20
1193.990330625456
 30
0.0
 10
874.4422171288186
 20
1182.618173990698
 30
0.0
 10
874.4223435192428
 20
1172.116707992341
 30
0.0
 10
874.3966953821785
 20
1160.289460025515
 30
0.0
 10
874.3894268841236
 20
1144.187771172791
 30
0.0
 10
874.5599058879513
 20
1126.774681759729
 30
0.0
 10
874.9017458851406
 20
1112.98248971623
 30
0.0
 10
875.3266728371248
 20
1101.16260194719
 30
0.0
 10
875.8967647532068
 20
1089.340220949329
 30
0.0
 10
876.9935511987774
 20
1071.611001035732
 30
0.0
 10
878.6289591306979
 20
1051.486177540273
 30
0.0
 10
881.3996655661547
 20
1025.157831056735
 30
0.0
 10
885.0284831905137
 20
997.5744796364525
 30
0.0
 10
889.5464104964258
 20
969.8033367895421
 30
0.0
 10
894.9654085020586
 20
941.3211209396304
 30
0.0
 10
900.4527846768719
 20
916.327278238592
 30
0.0
 10
906.3977929799103
 20
892.3207826318508
 30
0.0
 10
910.6057299431873
 20
876.6797860026469
 30
0.0
 10
913.8614646232529
 20
865.2074782497108
 30
0.0
 10
916.7212281051875
 20
855.4094487020914
 30
0.0
 10
920.402138715729
 20
843.2091577482599
 30
0.0
 10
924.4061348516218
 20
830.2340964896965
 30
0.0
 10
927.4094908960803
 20
820.5163746072004
 30
0.0
 10
929.8940662788541
 20
812.4291574866577
 30
0.0
 10
932.8440505347887
 20
802.7346347948003
 30
0.0
 10
936.677616066323
 20
789.7861455400312
 30
0.0
 10
941.2211093280189
 20
774.3904779035365
 30
0.0
 10
945.1560471465496
 20
761.429960146549
 30
0.0
 10
948.249756297447
 20
751.7210040646826
 30
0.0
 10
950.1112990830236
 20
746.0430274397112
 30
0.0
 10
952.300064896875
 20
739.5414606613144
 30
0.0
 10
955.1168477243266
 20
731.4259919549193
 30
0.0
 10
957.9366249658319
 20
723.3112772239944
 30
0.0
 10
960.948909994609
 20
714.4019137701432
 30
0.0
 10
964.3096053206095
 20
703.9501566042202
 30
0.0
 10
967.1847715156166
 20
693.4223611508892
 30
0.0
 10
969.1089181352149
 20
684.5351702462378
 30
0.0
 10
970.1701649656482
 20
678.5481132851439
 30
0.0
 10
971.0236966789168
 20
671.8152136970075
 30
0.0
 10
971.511471470036
 20
664.8149250564337
 30
0.0
 10
971.4379868422434
 20
656.8475736286055
 30
0.0
 10
970.4713043181875
 20
648.7783699832304
 30
0.0
 10
968.8246651270154
 20
642.4735579105254
 30
0.0
 10
966.8182602786419
 20
637.1774843710302
 30
0.0
 10
964.6920532395509
 20
632.9183356948238
 30
0.0
 10
961.7257627924157
 20
628.5128250062943
 30
0.0
 10
958.2345980680461
 20
624.4016259804806
 30
0.0
 10
954.0800350114621
 20
620.5516566004004
 30
0.0
 10
949.1465265701856
 20
616.9358430581038
 30
0.0
 10
942.298059646954
 20
612.9408366464309
 30
0.0
 10
934.4863776598415
 20
609.8669952414855
 30
0.0
 10
926.8478858702763
 20
608.1825491818656
 30
0.0
 10
920.7818282339945
 20
607.4723264772067
 30
0.0
 10
915.2304259457162
 20
607.4053718225562
 30
0.0
 10
909.7057828250288
 20
608.0040654780682
 30
0.0
 10
904.0662290513164
 20
609.1677655583806
 30
0.0
 10
896.3942342640753
 20
611.6868530087859
 30
0.0
 10
888.4136163390624
 20
615.9824580903316
 30
0.0
 10
882.2234033608343
 20
620.8473461724957
 30
0.0
 10
877.6981211954198
 20
625.2292359414781
 30
0.0
 10
874.2755393444327
 20
629.3207316561828
 30
0.0
 10
871.0346303790989
 20
634.2538354143016
 30
0.0
 10
868.4875383615108
 20
639.1808986013932
 30
0.0
 10
866.3474314560422
 20
644.9780123291566
 30
0.0
 10
864.532015965794
 20
652.2340777691563
 30
0.0
 10
863.2963682318557
 20
661.2759029948586
 30
0.0
 10
862.884102069137
 20
671.2499298108547
 30
0.0
 10
862.9630210375133
 20
679.7550942720441
 30
0.0
 10
863.1126994274769
 20
685.3803866975528
 30
0.0
 10
863.2205577241075
 20
688.872722350804
 30
0.0
 10
863.3328218099687
 20
692.377985558875
 30
0.0
 10
863.4694441025633
 20
696.762212121076
 30
0.0
 10
863.5919357590121
 20
702.0231063373528
 30
0.0
 10
863.6982825421062
 20
708.5518739779092
 30
0.0
 10
863.7656090791083
 20
717.1385787202269
 30
0.0
 10
863.7442739569806
 20
731.5894311222535
 30
0.0
 10
863.5727982729079
 20
746.8248974184227
 30
0.0
 10
863.4473237339055
 20
760.7888770091305
 30
0.0
 10
863.352436853985
 20
779.8577073718748
 30
0.0
 10
863.3971432423027
 20
798.9362518494906
 30
0.0
 10
863.4538545657131
 20
819.2921663153188
 30
0.0
 10
863.47432596615
 20
830.7440970602711
 30
0.0
 10
863.4884956579144
 20
851.7342062266816
 30
0.0
 10
863.4578356673367
 20
880.3536791582164
 30
0.0
 10
863.4519021210178
 20
922.3270825426965
 30
0.0
 10
863.4639281041034
 20
962.3915781862256
 30
0.0
 10
863.4587244305806
 20
1018.104619957935
 30
0.0
 10
863.4610658109966
 20
1096.181965455723
 30
0.0
 10
863.4600776252837
 20
1162.81233004902
 30
0.0
 10
863.4601352474103
 20
1202.34743353703
 30
0.0
  0
ARC
  5
1C4
330
14F
100
AcDbEntity
  8
0
  6
Continuous
 62
     0
370
    30
100
AcDbCircle
 10
867.660135
 20
1234.997522
 30
0.0
 40
0.2000000029802322
100
AcDbArc
 50
270.0
 51
360.0
  0
ARC
  5
1C5
330
14F
100
AcDbEntity
  8
0
  6
Continuous
 62
     0
370
    30
100
AcDbCircle
 10
845.260135
 20
1234.997522
 30
0.0
 40
0.2000000029802322
100
AcDbArc
 50
180.0
 51
270.0
  0
LINE
  5
1C6
330
14F
100
AcDbEntity
  8
0
  6
Continuous
 62
     0
370
    30
100
AcDbLine
 10
867.860135
 20
1237.29758
 30
0.0
 11
867.860135
 21
1234.997522
 31
0.0
  0
LINE
  5
1C7
330
14F
100
AcDbEntity
  8
0
  6
Continuous
 62
     0
370
    30
100
AcDbLine
 10
845.060135
 20
1237.35741
 30
0.0
 11
845.060135
 21
1234.997522
 31
0.0
  0
LINE
  5
1C8
330
14F
100
AcDbEntity
  8
0
  6
Continuous
 62
     0
370
    30
100
AcDbLine
 10
865.560135
 20
1234.797522
 30
0.0
 11
865.560135
 21
1231.347434
 31
0.0
  0
LINE
  5
1C9
330
14F
100
AcDbEntity
  8
0
  6
Continuous
 62
     0
370
    30
100
AcDbLine
 10
847.360135
 20
1234.797522
 30
0.0
 11
847.360135
 21
1231.347434
 31
0.0
  0
ARC
  5
1CA
330
14F
100
AcDbEntity
  8
0
  6
Continuous
 62
     0
370
    30
100
AcDbCircle
 10
820.422014
 20
1281.351962
 30
0.0
 40
0.5
100
AcDbArc
 50
90.0
 51
180.0
  0
ARC
  5
1CB
330
14F
100
AcDbEntity
  8
0
  6
Continuous
 62
     0
370
    30
100
AcDbCircle
 10
820.422014
 20
1222.351962
 30
0.0
 40
0.5
100
AcDbArc
 50
180.0
 51
270.0
  0
ARC
  5
1CC
330
14F
100
AcDbEntity
  8
0
  6
Continuous
 62
     0
370
    30
100
AcDbCircle
 10
824.422014
 20
1281.351962
 30
0.0
 40
0.5
100
AcDbArc
 50
0.0
 51
90.0
  0
ARC
  5
1CD
330
14F
100
AcDbEntity
  8
0
  6
Continuous
 62
     0
370
    30
100
AcDbCircle
 10
824.422014
 20
1222.351962
 30
0.0
 40
0.5
100
AcDbArc
 50
270.0
 51
0.0
  0
LINE
  5
1CE
330
14F
100
AcDbEntity
  8
0
  6
Continuous
 62
     0
370
    30
100
AcDbLine
 10
820.422014
 20
1281.851962
 30
0.0
 11
824.422014
 21
1281.851962
 31
0.0
  0
LINE
  5
1CF
330
14F
100
AcDbEntity
  8
0
  6
Continuous
 62
     0
370
    30
100
AcDbLine
 10
820.422014
 20
1221.851962
 30
0.0
 11
824.422014
 21
1221.851962
 31
0.0
  0
LINE
  5
1D0
330
14F
100
AcDbEntity
  8
0
  6
Continuous
 62
     0
370
    30
100
AcDbLine
 10
828.042079
 20
1236.851962
 30
0.0
 11
832.241865
 21
1236.851962
 31
0.0
  0
ARC
  5
1D1
330
14F
100
AcDbEntity
  8
0
  6
Continuous
 62
     0
370
    30
100
AcDbCircle
 10
893.922016
 20
1265.851962
 30
0.0
 40
1.0
100
AcDbArc
 50
0.0
 51
90.0
  0
ARC
  5
1D2
330
14F
100
AcDbEntity
  8
0
  6
Continuous
 62
     0
370
    30
100
AcDbCircle
 10
893.922016
 20
1237.851962
 30
0.0
 40
1.0
100
AcDbArc
 50
270.0
 51
360.0
  0
LINE
  5
1D3
330
14F
100
AcDbEntity
  8
0
  6
Continuous
 62
     0
370
    30
100
AcDbLine
 10
893.922016
 20
1266.851962
 30
0.0
 11
892.619462
 21
1266.851962
 31
0.0
  0
LINE
  5
1D4
330
14F
100
AcDbEntity
  8
0
  6
Continuous
 62
     0
370
    30
100
AcDbLine
 10
870.224611
 20
1266.851962
 30
0.0
 11
824.922014
 21
1266.851962
 31
0.0
  0
LINE
  5
1D5
330
14F
100
AcDbEntity
  8
0
  6
Continuous
 62
     0
370
    30
100
AcDbLine
 10
893.922016
 20
1236.851962
 30
0.0
 11
891.571957
 21
1236.851962
 31
0.0
  0
LINE
  5
1D6
330
14F
100
AcDbEntity
  8
0
  6
Continuous
 62
     0
370
    30
100
AcDbLine
 10
871.272026
 20
1236.851962
 30
0.0
 11
868.422007
 21
1236.851962
 31
0.0
  0
LINE
  5
1D7
330
14F
100
AcDbEntity
  8
0
  6
Continuous
 62
     0
370
    30
100
AcDbLine
 10
844.422096
 20
1236.851962
 30
0.0
 11
832.241989
 21
1236.851962
 31
0.0
  0
LINE
  5
1D8
330
14F
100
AcDbEntity
  8
0
  6
Continuous
 62
     0
370
    30
100
AcDbLine
 10
828.042087
 20
1236.851962
 30
0.0
 11
824.922014
 21
1236.851962
 31
0.0
  0
LINE
  5
1D9
330
14F
100
AcDbEntity
  8
0
  6
Continuous
 62
     0
370
     0
100
AcDbLine
 10
890.737517
 20
1266.707371
 30
0.0
 11
890.737517
 21
1266.972751
 31
0.0
  0
LINE
  5
1DA
330
14F
100
AcDbEntity
  8
0
  6
Continuous
 62
     0
370
     0
100
AcDbLine
 10
872.106517
 20
1266.707371
 30
0.0
 11
872.106517
 21
1266.972751
 31
0.0
  0
ENDBLK
  5
1DC
330
14F
100
AcDbEntity
  8
0
100
AcDbBlockEnd
  0
BLOCK
  5
239
330
1DE
100
AcDbEntity
  8
0
100
AcDbBlockBegin
  2
d
 70
     0
 10
298.356018
 20
0.0
 30
0.0
  3
d
  1

  0
LINE
  5
1DF
330
1DE
100
AcDbEntity
  8
0
  6
Continuous
 62
     0
370
    30
100
AcDbLine
 10
236.918141
 20
1222.351956
 30
0.0
 11
236.918141
 21
1264.894625
 31
0.0
  0
LINE
  5
1E0
330
1DE
100
AcDbEntity
  8
0
  6
Continuous
 62
     0
370
    30
100
AcDbLine
 10
236.918141
 20
1264.894625
 30
0.0
 11
236.918141
 21
1281.351956
 31
0.0
  0
LINE
  5
1E1
330
1DE
100
AcDbEntity
  8
0
  6
Continuous
 62
     0
370
     0
100
AcDbLine
 10
232.418141
 20
1221.851956
 30
0.0
 11
232.418141
 21
1265.115687
 31
0.0
  0
LINE
  5
1E2
330
1DE
100
AcDbEntity
  8
0
  6
Continuous
 62
     0
370
     0
100
AcDbLine
 10
232.418141
 20
1265.115687
 30
0.0
 11
232.418141
 21
1281.851956
 31
0.0
  0
LINE
  5
1E3
330
1DE
100
AcDbEntity
  8
0
  6
Continuous
 62
     0
370
     0
100
AcDbLine
 10
236.418141
 20
1281.851956
 30
0.0
 11
236.418141
 21
1265.115687
 31
0.0
  0
LINE
  5
1E4
330
1DE
100
AcDbEntity
  8
0
  6
Continuous
 62
     0
370
     0
100
AcDbLine
 10
236.418141
 20
1265.115687
 30
0.0
 11
236.418141
 21
1221.851956
 31
0.0
  0
LINE
  5
1E5
330
1DE
100
AcDbEntity
  8
0
  6
Continuous
 62
     0
370
    30
100
AcDbLine
 10
231.918141
 20
1281.351956
 30
0.0
 11
231.918141
 21
1264.894625
 31
0.0
  0
LINE
  5
1E6
330
1DE
100
AcDbEntity
  8
0
  6
Continuous
 62
     0
370
    30
100
AcDbLine
 10
231.918141
 20
1264.894625
 30
0.0
 11
231.918141
 21
1222.351956
 31
0.0
  0
LINE
  5
1E7
330
1DE
100
AcDbEntity
  8
0
  6
Continuous
 62
     0
370
    30
100
AcDbLine
 10
195.106976
 20
1273.951959
 30
0.0
 11
195.106976
 21
1269.324205
 31
0.0
  0
LINE
  5
1E8
330
1DE
100
AcDbEntity
  8
0
  6
Continuous
 62
     0
370
    30
100
AcDbLine
 10
195.106976
 20
1269.324205
 30
0.0
 11
195.106976
 21
1229.751959
 31
0.0
  0
LINE
  5
1E9
330
1DE
100
AcDbEntity
  8
0
  6
Continuous
 62
     0
370
     0
100
AcDbLine
 10
195.106975
 20
1249.851959
 30
0.0
 11
194.606975
 21
1249.851959
 31
0.0
  0
LINE
  5
1EA
330
1DE
100
AcDbEntity
  8
0
  6
Continuous
 62
     0
370
     0
100
AcDbLine
 10
194.606975
 20
1249.851959
 30
0.0
 11
194.606975
 21
1253.851959
 31
0.0
  0
LINE
  5
1EB
330
1DE
100
AcDbEntity
  8
0
  6
Continuous
 62
     0
370
     0
100
AcDbLine
 10
194.606975
 20
1253.851959
 30
0.0
 11
195.106975
 21
1253.851959
 31
0.0
  0
LINE
  5
1EC
330
1DE
100
AcDbEntity
  8
0
  6
Continuous
 62
     0
370
    30
100
AcDbLine
 10
170.906976
 20
1223.85513
 30
0.0
 11
170.922908
 21
1224.767868
 31
0.0
  0
SPLINE
  5
1ED
330
1DE
100
AcDbEntity
  8
0
  6
Continuous
 62
     0
370
     0
100
AcDbSpline
210
0.0
220
0.0
230
1.0
 70
     8
 71
     3
 72
    21
 73
    17
 74
     0
 42
0.000000001
 43
0.0
 40
0.0
 40
0.0
 40
0.0
 40
0.0
 40
1.469674664182747
 40
2.962880568228435
 40
4.485177109110918
 40
6.02112409529523
 40
7.545861819389856
 40
9.039932754785566
 40
10.50608008789814
 40
11.97224721254941
 40
13.46632750103145
 40
14.99102140770555
 40
16.52703805362477
 40
18.04922144612189
 40
19.5425496011732
 40
21.01220839854519
 40
21.01220839854519
 40
21.01220839854519
 40
21.01220839854519
 10
170.9229080480191
 20
1224.76786831489
 30
0.0
 10
170.922908026605
 20
1224.767868318698
 30
0.0
 10
171.0387781418883
 20
1224.855256219996
 30
0.0
 10
171.5377229065987
 20
1225.213847307774
 30
0.0
 10
172.3174844152825
 20
1225.72559492298
 30
0.0
 10
173.3340013377961
 20
1226.297087291719
 30
0.0
 10
174.5496110864703
 20
1226.828154789737
 30
0.0
 10
175.9270125271678
 20
1227.214531789289
 30
0.0
 10
177.4069787118026
 20
1227.358245568943
 30
0.0
 10
178.8869559733514
 20
1227.21456471606
 30
0.0
 10
180.2643376383278
 20
1226.828122799654
 30
0.0
 10
181.4799329281934
 20
1226.296968405291
 30
0.0
 10
182.4964609316132
 20
1225.72558469561
 30
0.0
 10
183.2762137533002
 20
1225.213749407406
 30
0.0
 10
183.775171500655
 20
1224.854941919772
 30
0.0
 10
183.891044225624
 20
1224.767868322992
 30
0.0
 10
183.8910442470378
 20
1224.767868319185
 30
0.0
  0
ARC
  5
1EE
330
1DE
100
AcDbEntity
  8
0
  6
Continuous
 62
     0
370
    30
100
AcDbCircle
 10
188.890283
 20
1224.85513
 30
0.0
 40
5.000000000000002
100
AcDbArc
 50
90.0
 51
181.0
  0
ARC
  5
1EF
330
1DE
100
AcDbEntity
  8
0
  6
Continuous
 62
     0
370
    30
100
AcDbCircle
 10
165.92367
 20
1224.85513
 30
0.0
 40
5.000000000000002
100
AcDbArc
 50
359.0
 51
90.0
  0
SPLINE
  5
1F0
330
1DE
100
AcDbEntity
  8
0
  6
Continuous
 62
     0
370
     0
100
AcDbSpline
210
0.0
220
0.0
230
1.0
 70
     8
 71
     3
 72
    21
 73
    17
 74
     0
 42
0.000000001
 43
0.0
 40
0.0
 40
0.0
 40
0.0
 40
0.0
 40
3.004295903647487
 40
6.01729305781994
 40
8.458208939345287
 40
9.934554958359266
 40
12.21528003185013
 40
14.06340335768736
 40
16.08163160756893
 40
18.25474785008434
 40
19.90381535291495
 40
21.8415966518898
 40
24.58282184243938
 40
27.24518841621357
 40
30.59472225158562
 40
33.05208433184011
 40
33.05208433184011
 40
33.05208433184011
 40
33.05208433184011
 10
165.9236695705524
 20
1229.855130345421
 30
0.0
 10
165.9236695312225
 20
1229.855130352414
 30
0.0
 10
166.249065114248
 20
1229.968965114362
 30
0.0
 10
167.5568591409246
 20
1230.394983198545
 30
0.0
 10
169.1559413147131
 20
1230.843575066435
 30
0.0
 10
170.8687007740461
 20
1231.246113209898
 30
0.0
 10
172.6336574489756
 20
1231.576664967945
 30
0.0
 10
174.7639485777245
 20
1231.835267926896
 30
0.0
 10
176.9699500250258
 20
1231.953852170119
 30
0.0
 10
179.1257886313958
 20
1231.902208768666
 30
0.0
 10
181.1750530952663
 20
1231.71249301644
 30
0.0
 10
183.2829037761569
 20
1231.390394516249
 30
0.0
 10
185.4220343039392
 20
1230.913305009979
 30
0.0
 10
187.4216882054711
 20
1230.34641622936
 30
0.0
 10
188.634656786694
 20
1229.943879632077
 30
0.0
 10
188.890282688965
 20
1229.855130358746
 30
0.0
 10
188.890282721135
 20
1229.855130353027
 30
0.0
  0
LINE
  5
1F1
330
1DE
100
AcDbEntity
  8
0
  6
Continuous
 62
     0
370
    30
100
AcDbLine
 10
193.406975
 20
1251.325816
 30
0.0
 11
185.206976
 21
1273.85513
 31
0.0
  0
LINE
  5
1F2
330
1DE
100
AcDbEntity
  8
0
  6
Continuous
 62
     0
370
    30
100
AcDbLine
 10
193.406976
 20
1229.85513
 30
0.0
 11
193.406976
 21
1251.325816
 31
0.0
  0
LINE
  5
1F3
330
1DE
100
AcDbEntity
  8
0
  6
Continuous
 62
     0
370
    30
100
AcDbLine
 10
193.406976
 20
1229.85513
 30
0.0
 11
188.890283
 21
1229.85513
 31
0.0
  0
LINE
  5
1F4
330
1DE
100
AcDbEntity
  8
0
  6
Continuous
 62
     0
370
    30
100
AcDbLine
 10
165.92367
 20
1229.85513
 30
0.0
 11
162.906976
 21
1229.85513
 31
0.0
  0
LINE
  5
1F5
330
1DE
100
AcDbEntity
  8
0
  6
Continuous
 62
     0
370
     0
100
AcDbLine
 10
162.906976
 20
1273.85513
 30
0.0
 11
162.906976
 21
1229.85513
 31
0.0
  0
LINE
  5
1F6
330
1DE
100
AcDbEntity
  8
0
  6
Continuous
 62
     0
370
    30
100
AcDbLine
 10
162.406976
 20
1230.35513
 30
0.0
 11
162.406976
 21
1273.35513
 31
0.0
  0
ARC
  5
1F7
330
1DE
100
AcDbEntity
  8
0
  6
Continuous
 62
     0
370
    30
100
AcDbCircle
 10
162.906976
 20
1230.35513
 30
0.0
 40
0.5
100
AcDbArc
 50
180.0
 51
270.0
  0
LINE
  5
1F8
330
1DE
100
AcDbEntity
  8
0
  6
Continuous
 62
     0
370
    30
100
AcDbLine
 10
170.906976
 20
1163.85513
 30
0.0
 11
183.906976
 21
1163.85513
 31
0.0
  0
LINE
  5
1F9
330
1DE
100
AcDbEntity
  8
0
  6
Continuous
 62
     0
370
     0
100
AcDbLine
 10
183.906976
 20
1223.85513
 30
0.0
 11
170.906976
 21
1223.85513
 31
0.0
  0
LINE
  5
1FA
330
1DE
100
AcDbEntity
  8
0
  6
Continuous
 62
     0
370
    30
100
AcDbLine
 10
183.906976
 20
1223.85513
 30
0.0
 11
183.906976
 21
1163.85513
 31
0.0
  0
LINE
  5
1FB
330
1DE
100
AcDbEntity
  8
0
  6
Continuous
 62
     0
370
    30
100
AcDbLine
 10
170.906976
 20
1223.85513
 30
0.0
 11
170.906976
 21
1163.85513
 31
0.0
  0
ARC
  5
1FC
330
1DE
100
AcDbEntity
  8
0
  6
Continuous
 62
     0
370
    30
100
AcDbCircle
 10
162.906976
 20
1273.35513
 30
0.0
 40
0.5
100
AcDbArc
 50
90.0
 51
180.0
  0
LINE
  5
1FD
330
1DE
100
AcDbEntity
  8
0
  6
Continuous
 62
     0
370
    30
100
AcDbLine
 10
185.206976
 20
1273.85513
 30
0.0
 11
162.906976
 21
1273.85513
 31
0.0
  0
LINE
  5
1FE
330
1DE
100
AcDbEntity
  8
0
  6
Continuous
 62
     0
370
    30
100
AcDbLine
 10
183.906976
 20
1223.85513
 30
0.0
 11
183.891044
 21
1224.767868
 31
0.0
  0
ARC
  5
1FF
330
1DE
100
AcDbEntity
  8
0
  6
Continuous
 62
     0
370
    30
100
AcDbCircle
 10
196.47915
 20
1251.739961
 30
0.0
 40
20.50795496911667
100
AcDbArc
 50
93.836488
 51
118.492305
  0
ARC
  5
200
330
1DE
100
AcDbEntity
  8
0
  6
Continuous
 62
     0
370
    30
100
AcDbCircle
 10
196.477163
 20
1251.958708
 30
0.0
 40
20.50258444354606
100
AcDbArc
 50
261.387773
 51
266.168069
  0
LINE
  5
201
330
1DE
100
AcDbEntity
  8
0
  6
Continuous
 62
     0
370
    30
100
AcDbLine
 10
231.918141
 20
1229.751959
 30
0.0
 11
195.106976
 21
1229.751959
 31
0.0
  0
LINE
  5
202
330
1DE
100
AcDbEntity
  8
0
  6
Continuous
 62
     0
370
    30
100
AcDbLine
 10
231.918141
 20
1273.951959
 30
0.0
 11
195.106976
 21
1273.951959
 31
0.0
  0
ARC
  5
203
330
1DE
100
AcDbEntity
  8
0
  6
Continuous
 62
     0
370
    30
100
AcDbCircle
 10
236.418141
 20
1222.351956
 30
0.0
 40
0.5
100
AcDbArc
 50
270.0
 51
360.0
  0
ARC
  5
204
330
1DE
100
AcDbEntity
  8
0
  6
Continuous
 62
     0
370
    30
100
AcDbCircle
 10
236.418141
 20
1281.351956
 30
0.0
 40
0.5
100
AcDbArc
 50
0.0
 51
90.0
  0
ARC
  5
205
330
1DE
100
AcDbEntity
  8
0
  6
Continuous
 62
     0
370
    30
100
AcDbCircle
 10
232.418141
 20
1222.351956
 30
0.0
 40
0.5
100
AcDbArc
 50
180.0
 51
270.0
  0
ARC
  5
206
330
1DE
100
AcDbEntity
  8
0
  6
Continuous
 62
     0
370
    30
100
AcDbCircle
 10
232.418141
 20
1281.351956
 30
0.0
 40
0.5
100
AcDbArc
 50
90.0
 51
180.0
  0
LINE
  5
207
330
1DE
100
AcDbEntity
  8
0
  6
Continuous
 62
     0
370
    30
100
AcDbLine
 10
236.418141
 20
1221.851956
 30
0.0
 11
232.418141
 21
1221.851956
 31
0.0
  0
LINE
  5
208
330
1DE
100
AcDbEntity
  8
0
  6
Continuous
 62
     0
370
    30
100
AcDbLine
 10
236.418141
 20
1281.851956
 30
0.0
 11
232.418141
 21
1281.851956
 31
0.0
  0
LINE
  5
209
330
1DE
100
AcDbEntity
  8
0
  6
Continuous
 62
     0
370
    30
100
AcDbLine
 10
162.106976
 20
1237.851962
 30
0.0
 11
162.106976
 21
1251.851962
 31
0.0
  0
LINE
  5
20A
330
1DE
100
AcDbEntity
  8
0
  6
Continuous
 62
     0
370
    30
100
AcDbLine
 10
162.106976
 20
1251.851962
 30
0.0
 11
162.106976
 21
1265.851962
 31
0.0
  0
LINE
  5
20B
330
1DE
100
AcDbEntity
  8
0
  6
Continuous
 62
     0
370
    30
100
AcDbLine
 10
237.106978
 20
1222.351962
 30
0.0
 11
237.106978
 21
1281.351962
 31
0.0
  0
LINE
  5
20C
330
1DE
100
AcDbEntity
  8
0
  6
Continuous
 62
     0
370
    30
100
AcDbLine
 10
195.106979
 20
1231.347434
 30
0.0
 11
193.406979
 21
1231.347434
 31
0.0
  0
LINE
  5
20D
330
1DE
100
AcDbEntity
  8
0
  6
Continuous
 62
     0
370
    30
100
AcDbLine
 10
210.62314
 20
1202.347434
 30
0.0
 11
190.514575
 21
1202.347434
 31
0.0
  0
LINE
  5
20E
330
1DE
100
AcDbEntity
  8
0
  6
Continuous
 62
     0
370
     0
100
AcDbLine
 10
190.014849
 20
1202.830856
 30
0.0
 11
211.122865
 21
1202.830856
 31
0.0
  0
LINE
  5
20F
330
1DE
100
AcDbEntity
  8
0
  6
Continuous
 62
     0
370
    30
100
AcDbLine
 10
165.703072
 20
1273.972751
 30
0.0
 11
165.703072
 21
1360.972751
 31
0.0
  0
LINE
  5
210
330
1DE
100
AcDbEntity
  8
0
  6
Continuous
 62
     0
370
    30
100
AcDbLine
 10
164.118576
 20
1360.972751
 30
0.0
 11
187.12888
 21
1360.972751
 31
0.0
  0
LINE
  5
211
330
1DE
100
AcDbEntity
  8
0
  6
Continuous
 62
     0
370
    30
100
AcDbLine
 10
148.624827
 20
1388.972751
 30
0.0
 11
148.624827
 21
1364.972751
 31
0.0
  0
LINE
  5
212
330
1DE
100
AcDbEntity
  8
0
  6
Continuous
 62
     0
370
    30
100
AcDbLine
 10
199.224826
 20
1345.972751
 30
0.0
 11
197.224826
 21
1348.972751
 31
0.0
  0
LINE
  5
213
330
1DE
100
AcDbEntity
  8
0
  6
Continuous
 62
     0
370
    30
100
AcDbLine
 10
200.724826
 20
1377.472751
 30
0.0
 11
200.724826
 21
1345.972751
 31
0.0
  0
LINE
  5
214
330
1DE
100
AcDbEntity
  8
0
  6
Continuous
 62
     0
370
     0
100
AcDbLine
 10
200.224826
 20
1377.472751
 30
0.0
 11
200.224826
 21
1345.972751
 31
0.0
  0
LINE
  5
215
330
1DE
100
AcDbEntity
  8
0
  6
Continuous
 62
     0
370
     0
100
AcDbLine
 10
200.224827
 20
1385.972751
 30
0.0
 11
200.224827
 21
1377.472751
 31
0.0
  0
LINE
  5
216
330
1DE
100
AcDbEntity
  8
0
  6
Continuous
 62
     0
370
    30
100
AcDbLine
 10
200.724827
 20
1385.472751
 30
0.0
 11
200.724827
 21
1377.472751
 31
0.0
  0
LINE
  5
217
330
1DE
100
AcDbEntity
  8
0
  6
Continuous
 62
     0
370
     0
100
AcDbLine
 10
197.224826
 20
1377.472751
 30
0.0
 11
200.224826
 21
1377.472751
 31
0.0
  0
LINE
  5
218
330
1DE
100
AcDbEntity
  8
0
  6
Continuous
 62
     0
370
    30
100
AcDbLine
 10
200.224826
 20
1345.972751
 30
0.0
 11
199.224826
 21
1345.972751
 31
0.0
  0
LINE
  5
219
330
1DE
100
AcDbEntity
  8
0
  6
Continuous
 62
     0
370
     0
100
AcDbLine
 10
200.724826
 20
1377.472751
 30
0.0
 11
200.224826
 21
1377.472751
 31
0.0
  0
LINE
  5
21A
330
1DE
100
AcDbEntity
  8
0
  6
Continuous
 62
     0
370
    30
100
AcDbLine
 10
197.224827
 20
1385.972751
 30
0.0
 11
200.224827
 21
1385.972751
 31
0.0
  0
ARC
  5
21B
330
1DE
100
AcDbEntity
  8
0
  6
Continuous
 62
     0
370
    30
100
AcDbCircle
 10
200.224827
 20
1385.472751
 30
0.0
 40
0.5
100
AcDbArc
 50
0.0
 51
90.0
  0
LINE
  5
21C
330
1DE
100
AcDbEntity
  8
0
  6
Continuous
 62
     0
370
    30
100
AcDbLine
 10
200.724826
 20
1345.972751
 30
0.0
 11
200.224826
 21
1345.972751
 31
0.0
  0
LINE
  5
21D
330
1DE
100
AcDbEntity
  8
0
  6
Continuous
 62
     0
370
    30
100
AcDbLine
 10
164.118576
 20
1360.972751
 30
0.0
 11
164.118576
 21
1364.972751
 31
0.0
  0
LINE
  5
21E
330
1DE
100
AcDbEntity
  8
0
  6
Continuous
 62
     0
370
    30
100
AcDbLine
 10
187.106975
 20
1273.972751
 30
0.0
 11
164.106975
 21
1273.972751
 31
0.0
  0
LINE
  5
21F
330
1DE
100
AcDbEntity
  8
0
  6
Continuous
 62
     0
370
    30
100
AcDbLine
 10
164.106975
 20
1273.972751
 30
0.0
 11
164.106975
 21
1273.85513
 31
0.0
  0
LINE
  5
220
330
1DE
100
AcDbEntity
  8
0
  6
Continuous
 62
     0
370
     0
100
AcDbLine
 10
179.415877
 20
1388.845162
 30
0.0
 11
179.415877
 21
1372.180454
 31
0.0
  0
LINE
  5
221
330
1DE
100
AcDbEntity
  8
0
  6
Continuous
 62
     0
370
     0
100
AcDbLine
 10
177.823553
 20
1388.972751
 30
0.0
 11
177.823553
 21
1372.914757
 31
0.0
  0
LINE
  5
222
330
1DE
100
AcDbEntity
  8
0
  6
Continuous
 62
     0
370
    30
100
AcDbLine
 10
179.415877
 20
1388.845162
 30
0.0
 11
197.224827
 21
1385.972751
 31
0.0
  0
LINE
  5
223
330
1DE
100
AcDbEntity
  8
0
  6
Continuous
 62
     0
370
    30
100
AcDbLine
 10
148.624827
 20
1388.972751
 30
0.0
 11
177.823553
 21
1388.972751
 31
0.0
  0
SPLINE
  5
224
330
1DE
100
AcDbEntity
  8
0
  6
Continuous
 62
     0
370
    30
100
AcDbSpline
210
0.0
220
0.0
230
1.0
 70
     8
 71
     3
 72
    17
 73
    13
 74
     0
 42
0.000000001
 43
0.0
 40
0.8655205424727442
 40
0.8655205424727442
 40
0.8655205424727442
 40
0.8655205424727442
 40
1.839404007071455
 40
2.673106884942948
 40
3.683981567028515
 40
5.038704091578598
 40
7.442469398457746
 40
9.19922994420758
 40
11.45304524476668
 40
13.32646705420495
 40
14.80084976219521
 40
16.41622716199696
 40
16.41622716199696
 40
16.41622716199696
 40
16.41622716199696
 10
179.4158806139321
 20
1372.180462297298
 30
0.0
 10
179.7034566803454
 20
1372.067886731598
 30
0.0
 10
180.217265686288
 20
1371.82511260803
 30
0.0
 10
180.9691568775961
 20
1371.390495320137
 30
0.0
 10
181.773454450072
 20
1370.85857316833
 30
0.0
 10
182.8918008354713
 20
1370.032409960269
 30
0.0
 10
184.0540308939228
 20
1369.0791986855
 30
0.0
 10
185.2271012147828
 20
1368.065319882647
 30
0.0
 10
186.1161336739851
 20
1367.270069219098
 30
0.0
 10
186.7249110197033
 20
1366.715636337726
 30
0.0
 10
187.0561296192934
 20
1366.41144789248
 30
0.0
 10
187.1286376958397
 20
1366.344625771846
 30
0.0
 10
187.1287813519955
 20
1366.344475177084
 30
0.0
  0
ARC
  5
225
330
1DE
100
AcDbEntity
  8
0
  6
Continuous
 62
     0
370
    30
100
AcDbCircle
 10
177.823553
 20
1378.972751
 30
0.0
 40
10.0
100
AcDbArc
 50
80.837653
 51
90.0
  0
SPLINE
  5
226
330
1DE
100
AcDbEntity
  8
0
  6
Continuous
 62
     0
370
    30
100
AcDbSpline
210
0.0
220
0.0
230
1.0
 70
     8
 71
     3
 72
    23
 73
    19
 74
     0
 42
0.000000001
 43
0.0
 40
0.0
 40
0.0
 40
0.0
 40
0.0
 40
1.678657853544623
 40
3.874573646148133
 40
6.215435818128352
 40
8.390643177826933
 40
10.79448285487983
 40
12.36258911970167
 40
14.65768741767781
 40
15.97768852243423
 40
17.16132614905511
 40
18.09320347128942
 40
19.07207312952277
 40
19.88598891767007
 40
20.63638172615725
 40
21.26351452250154
 40
22.26211593908337
 40
22.70410263216033
 40
22.70410263216033
 40
22.70410263216033
 40
22.70410263216033
 10
164.118575790337
 20
1364.972751218765
 30
0.0
 10
164.1185757574406
 20
1364.972751218765
 30
0.0
 10
164.2135052145588
 20
1365.063800356676
 30
0.0
 10
164.7009089261167
 20
1365.530477728516
 30
0.0
 10
165.5754890407482
 20
1366.363197564135
 30
0.0
 10
166.7406693164407
 20
1367.460811899861
 30
0.0
 10
167.9514440830699
 20
1368.582061378786
 30
0.0
 10
169.3039264459408
 20
1369.799253352813
 30
0.0
 10
170.5073982633101
 20
1370.83972356992
 30
0.0
 10
171.700355194771
 20
1371.786891591124
 30
0.0
 10
172.6040703519909
 20
1372.433133184117
 30
0.0
 10
173.4701931298832
 20
1372.959093511075
 30
0.0
 10
174.2888840437674
 20
1373.338908836751
 30
0.0
 10
175.111536442314
 20
1373.553158946612
 30
0.0
 10
175.8465175074275
 20
1373.578429504624
 30
0.0
 10
176.6298394675141
 20
1373.445230731038
 30
0.0
 10
177.2726981142404
 20
1373.198719582412
 30
0.0
 10
177.6958164469704
 20
1372.983892389843
 30
0.0
 10
177.8235404502103
 20
1372.91476267282
 30
0.0
  0
ARC
  5
227
330
1DE
100
AcDbEntity
  8
0
  6
Continuous
 62
     0
370
    30
100
AcDbCircle
 10
184.558907
 20
1385.427286
 30
0.0
 40
14.21017517095591
100
AcDbArc
 50
241.706968
 51
248.781481
  0
LINE
  5
228
330
1DE
100
AcDbEntity
  8
0
  6
Continuous
 62
     0
370
    30
100
AcDbLine
 10
197.224826
 20
1348.972751
 30
0.0
 11
197.224826
 21
1374.014711
 31
0.0
  0
LINE
  5
229
330
1DE
100
AcDbEntity
  8
0
  6
Continuous
 62
     0
370
    30
100
AcDbLine
 10
197.224827
 20
1385.972751
 30
0.0
 11
197.224827
 21
1374.014711
 31
0.0
  0
LINE
  5
22A
330
1DE
100
AcDbEntity
  8
0
  6
Continuous
 62
     0
370
    30
100
AcDbLine
 10
187.128784
 20
1366.344357
 30
0.0
 11
197.224827
 21
1367.972751
 31
0.0
  0
LINE
  5
22B
330
1DE
100
AcDbEntity
  8
0
  6
Continuous
 62
     0
370
    30
100
AcDbLine
 10
148.624827
 20
1364.972751
 30
0.0
 11
164.118576
 21
1364.972751
 31
0.0
  0
LINE
  5
22C
330
1DE
100
AcDbEntity
  8
0
  6
Continuous
 62
     0
370
    30
100
AcDbLine
 10
187.12888
 20
1360.972751
 30
0.0
 11
187.12888
 21
1366.344475
 31
0.0
  0
LINE
  5
22D
330
1DE
100
AcDbEntity
  8
0
  6
Continuous
 62
     0
370
    30
100
AcDbLine
 10
187.106975
 20
1273.972751
 30
0.0
 11
187.106975
 21
1269.98398
 31
0.0
  0
LINE
  5
22E
330
1DE
100
AcDbEntity
  8
0
  6
Continuous
 62
     0
370
    30
100
AcDbLine
 10
185.703081
 20
1273.972751
 30
0.0
 11
185.703081
 21
1360.972751
 31
0.0
  0
ARC
  5
22F
330
1DE
100
AcDbEntity
  8
0
  6
Continuous
 62
     0
370
    30
100
AcDbCircle
 10
210.62314
 20
1202.847434
 30
0.0
 40
0.5000000000001373
100
AcDbArc
 50
270.0
 51
358.1
  0
ARC
  5
230
330
1DE
100
AcDbEntity
  8
0
  6
Continuous
 62
     0
370
    30
100
AcDbCircle
 10
190.514575
 20
1202.847434
 30
0.0
 40
0.5000000000001373
100
AcDbArc
 50
181.9
 51
270.0
  0
LINE
  5
231
330
1DE
100
AcDbEntity
  8
0
  6
Continuous
 62
     0
370
    30
100
AcDbLine
 10
212.01593
 20
1229.751959
 30
0.0
 11
211.122865
 21
1202.830856
 31
0.0
  0
LINE
  5
232
330
1DE
100
AcDbEntity
  8
0
  6
Continuous
 62
     0
370
    30
100
AcDbLine
 10
189.118362
 20
1229.85513
 30
0.0
 11
190.014849
 21
1202.830856
 31
0.0
  0
SPLINE
  5
233
330
1DE
100
AcDbEntity
  8
0
  6
Continuous
 62
     0
370
    30
100
AcDbSpline
210
0.0
220
0.0
230
1.0
 70
     8
 71
     3
 72
    97
 73
    93
 74
     0
 42
0.000000001
 43
0.0
 40
8.640012033567357
 40
8.640012033567357
 40
8.640012033567357
 40
8.640012033567357
 40
31.48940324291505
 40
41.9834364880395
 40
57.72115563101369
 40
65.58524283030438
 40
73.44550885460043
 40
93.07695825772689
 40
113.6932089358813
 40
125.4860681906178
 40
134.3241969768676
 40
149.0452335230894
 40
163.7591410717692
 40
187.2985108458208
 40
209.1598536184428
 40
241.9546732106485
 40
262.1371887679302
 40
294.9294524097642
 40
310.0605470942999
 40
320.1462887639253
 40
337.796496377935
 40
347.8846255201889
 40
365.547521245141
 40
375.6478012472614
 40
385.7559585848209
 40
411.0824107833797
 40
426.3307634659615
 40
431.4243184665713
 40
441.6290114408944
 40
467.160021718477
 40
479.8666672896654
 40
487.4516080284268
 40
494.998875234118
 40
502.5031463080867
 40
512.4639994495196
 40
527.4333853771673
 40
532.4623762698452
 40
538.7977940356016
 40
547.7950499241805
 40
556.9988061261869
 40
569.2384731938213
 40
577.6007213561929
 40
586.0204452832124
 40
591.6272112421085
 40
602.0578835955774
 40
609.6071727991954
 40
616.3942607841748
 40
623.8030447518776
 40
630.5371523617226
 40
636.6506668665561
 40
644.9156913789711
 40
651.9055079824476
 40
659.6885584232245
 40
674.7272029000153
 40
683.3602350157678
 40
689.8275172045884
 40
698.4365441019729
 40
704.9646951326091
 40
710.7652684166075
 40
720.2006089471055
 40
735.4357425456525
 40
746.2547846650506
 40
751.2937663316599
 40
759.8224984813073
 40
766.1107566840135
 40
770.2462601917282
 40
772.9780793788564
 40
780.4249968064088
 40
787.8502964227871
 40
794.6751065158142
 40
803.6353218674003
 40
811.9838137517532
 40
817.5742922589332
 40
821.7695206726108
 40
838.2361442088043
 40
851.3148173541474
 40
861.5654843886701
 40
874.2000441240551
 40
884.2274369725711
 40
894.2385255724707
 40
904.2833891688543
 40
918.4112802791257
 40
938.6160858871515
 40
954.8299310470525
 40
971.0298698430356
 40
979.1153611633607
 40
1011.39710603293
 40
1043.667120163308
 40
1124.963481188291
 40
1206.246977344247
 40
1274.664052281819
 40
1343.080866515992
 40
1343.080866515992
 40
1343.080866515992
 40
1343.080866515992
 10
168.6174614529906
 20
1229.067434243676
 30
0.0
 10
168.6212718105816
 20
1221.450975652753
 30
0.0
 10
168.6081592441868
 20
1210.336489193879
 30
0.0
 10
168.5894910343518
 20
1193.976123609766
 30
0.0
 10
168.586876996809
 20
1182.610835891057
 30
0.0
 10
168.6064613420688
 20
1172.123493811154
 30
0.0
 10
168.6317283413246
 20
1160.338256874941
 30
0.0
 10
168.6389532605376
 20
1144.302220681665
 30
0.0
 10
168.4698987034126
 20
1126.955679652968
 30
0.0
 10
168.1281157878464
 20
1113.210571236011
 30
0.0
 10
167.7022801888213
 20
1101.434134667592
 30
0.0
 10
167.0832659073872
 20
1088.691119689211
 30
0.0
 10
165.9567461049908
 20
1071.068539746194
 30
0.0
 10
164.2901152422739
 20
1051.098506681375
 30
0.0
 10
161.5416748052126
 20
1025.177413746508
 30
0.0
 10
158.2366559484876
 20
1000.448111488131
 30
0.0
 10
153.6915617484681
 20
972.2210622169309
 30
0.0
 10
149.4839319893542
 20
949.9100962917437
 30
0.0
 10
145.4447845336497
 20
931.0006157023356
 30
0.0
 10
142.2837603805788
 20
917.0661741446866
 30
0.0
 10
139.3234768406637
 20
904.8108187592231
 30
0.0
 10
135.5645134344256
 20
890.1521251596563
 30
0.0
 10
132.2600134207294
 20
877.9758293358454
 30
0.0
 10
128.7807213365027
 20
865.8418535015007
 30
0.0
 10
124.4581450359956
 20
851.293221872261
 30
0.0
 10
119.4633926023048
 20
835.1555016803247
 30
0.0
 10
114.9768427363294
 20
820.61029096193
 30
0.0
 10
112.0195986073963
 20
810.8678660117564
 30
0.0
 10
108.1334820053248
 20
797.8258234979843
 30
0.0
 10
103.6477645206091
 20
782.3150065525035
 30
0.0
 10
99.22564737008042
 20
767.6960115348173
 30
0.0
 10
96.43221768852436
 20
758.8476160473557
 30
0.0
 10
94.07938807324149
 20
751.6789473232521
 30
0.0
 10
91.35982578682729
 20
743.7982324162764
 30
0.0
 10
87.6924985414496
 20
733.6291098751726
 30
0.0
 10
84.31791487727492
 20
724.2307460150801
 30
0.0
 10
81.55007756141049
 20
715.9011834147441
 30
0.0
 10
79.5236810353199
 20
709.4237463528477
 30
0.0
 10
77.31788540492425
 20
701.5468281479908
 30
0.0
 10
75.02323489852847
 20
691.6602015550219
 30
0.0
 10
73.36600278307264
 20
681.8574010878536
 30
0.0
 10
72.3905076128799
 20
672.2288640179709
 30
0.0
 10
72.09710917902089
 20
664.7674041744644
 30
0.0
 10
72.26341714935415
 20
656.6143444710906
 30
0.0
 10
73.01967539260045
 20
648.7767298062272
 30
0.0
 10
74.67029544586899
 20
640.6780798128194
 30
0.0
 10
76.80721874222854
 20
633.7430619309117
 30
0.0
 10
79.58951063862082
 20
627.331649260212
 30
0.0
 10
83.0334419744886
 20
621.509742358091
 30
0.0
 10
87.33401557886236
 20
615.9269984098369
 30
0.0
 10
92.36430749159308
 20
610.8643896856527
 30
0.0
 10
98.40066399596071
 20
606.1058881167323
 30
0.0
 10
106.8396588314649
 20
600.8401847808843
 30
0.0
 10
116.5519847790645
 20
596.7608481321149
 30
0.0
 10
126.3322965221219
 20
594.4196936202117
 30
0.0
 10
134.1737460415675
 20
593.4168521351085
 30
0.0
 10
141.3846144115425
 20
593.3046377061759
 30
0.0
 10
148.3289315812103
 20
594.0435139870071
 30
0.0
 10
155.4353327092595
 20
595.5116726486726
 30
0.0
 10
165.0997500809849
 20
598.6896921811441
 30
0.0
 10
175.5884720460485
 20
604.2777930556197
 30
0.0
 10
183.7888862527047
 20
610.6499134386619
 30
0.0
 10
189.6431548358705
 20
616.2914883717199
 30
0.0
 10
193.9661634994468
 20
621.3162690768364
 30
0.0
 10
197.5413302216225
 20
626.53184172598
 30
0.0
 10
199.7134081922159
 20
630.3432401619382
 30
0.0
 10
201.8317291500503
 20
634.6193532545741
 30
0.0
 10
203.9835959600364
 20
640.0890031748971
 30
0.0
 10
205.8764308916593
 20
647.0784194488197
 30
0.0
 10
207.2295316263337
 20
654.7017065783295
 30
0.0
 10
207.9953551946107
 20
662.7160140634319
 30
0.0
 10
208.2355834333903
 20
670.3476347646391
 30
0.0
 10
208.2148766687947
 20
676.3926962271901
 30
0.0
 10
208.0333133814647
 20
685.1418184585847
 30
0.0
 10
207.5159172154317
 20
696.377930102697
 30
0.0
 10
207.2441692832945
 20
709.6411601769951
 30
0.0
 10
207.1784988529294
 20
721.6291349613383
 30
0.0
 10
207.243517174697
 20
732.599954172105
 30
0.0
 10
207.3728358806916
 20
743.4902092389027
 30
0.0
 10
207.5058922968683
 20
753.5171062714036
 30
0.0
 10
207.622074654269
 20
764.9111598747509
 30
0.0
 10
207.680854876505
 20
779.7036435881159
 30
0.0
 10
207.6568040429711
 20
796.5525085993482
 30
0.0
 10
207.5925991727329
 20
814.0919193810396
 30
0.0
 10
207.5559002625996
 20
827.5916323873515
 30
0.0
 10
207.5357087657508
 20
846.447351192227
 30
0.0
 10
207.5568224681897
 20
870.6597715915498
 30
0.0
 10
207.5902211019156
 20
919.2757970915793
 30
0.0
 10
207.558169658779
 20
984.225762026693
 30
0.0
 10
207.5715148147763
 20
1061.224736824405
 30
0.0
 10
207.5681014662698
 20
1133.930532525477
 30
0.0
 10
207.5688986612747
 20
1179.541828792343
 30
0.0
 10
207.5688571010626
 20
1202.34743353703
 30
0.0
  0
SPLINE
  5
234
330
1DE
100
AcDbEntity
  8
0
  6
Continuous
 62
     0
370
    30
100
AcDbSpline
210
0.0
220
0.0
230
1.0
 70
     8
 71
     3
 72
    92
 73
    88
 74
     0
 42
0.000000001
 43
0.0
 40
73.85235009792062
 40
73.85235009792062
 40
73.85235009792062
 40
73.85235009792062
 40
93.19336742448077
 40
113.8943275158038
 40
125.7115675956749
 40
134.5818333083684
 40
149.3765286264196
 40
161.2189738036853
 40
187.8703781788175
 40
209.9451402814428
 40
240.6364326308647
 40
271.3252153883298
 40
294.3461819359229
 40
327.6130975880841
 40
348.0855853392379
 40
368.5416509592368
 40
376.2053775871362
 40
383.8639991351408
 40
399.1643705721938
 40
414.4385620877096
 40
424.603989069243
 40
429.6808116796728
 40
439.8216129373351
 40
455.0067504844282
 40
470.1961281842899
 40
487.9819509500589
 40
495.6432186097065
 40
500.7683343074785
 40
505.9095626649158
 40
516.2253953463915
 40
526.5420560749131
 40
531.6842015660883
 40
544.4426258184095
 40
559.4788933170048
 40
564.4092059100997
 40
571.7200450152408
 40
577.7152680592324
 40
584.7640380426542
 40
592.7603001360823
 40
601.592924457515
 40
609.0930568075673
 40
612.262959681377
 40
618.5767697606409
 40
623.3426174601096
 40
628.1775886425161
 40
634.7429889490268
 40
640.3111602949224
 40
646.5193775532265
 40
658.5170235740244
 40
665.3966323656157
 40
669.9731641600711
 40
676.8475716995041
 40
682.0375496870251
 40
686.6434366808226
 40
694.1274803317465
 40
706.2331914915637
 40
713.7043537755261
 40
717.7139377805192
 40
725.1305439254866
 40
729.6767445153283
 40
735.4098985378793
 40
741.7450299792979
 40
748.1841058789161
 40
757.8228955857492
 40
769.0805023211751
 40
778.1102286727831
 40
783.3371098624996
 40
785.9622177861527
 40
788.5922360128566
 40
793.8583066311423
 40
799.1212352532315
 40
804.379064974552
 40
813.447097731962
 40
824.8818309190221
 40
847.7312075491559
 40
859.1560648826511
 40
866.7754563451998
 40
904.9382739923383
 40
916.3914405516934
 40
927.8434821902154
 40
939.2941065998433
 40
979.3617726928388
 40
1013.701919260699
 40
1065.214318118629
 40
1099.555261048554
 40
1180.841044306978
 40
1299.446354771198
 40
1299.446354771198
 40
1299.446354771198
 40
1299.446354771198
 10
182.6230802638187
 20
1163.85513038302
 30
0.0
 10
182.6335852745623
 20
1157.408130128782
 30
0.0
 10
182.638321941925
 20
1144.060765166799
 30
0.0
 10
182.4690863616702
 20
1126.774681759729
 30
0.0
 10
182.1272463631419
 20
1112.98248971623
 30
0.0
 10
181.7023194094972
 20
1101.16260194719
 30
0.0
 10
181.1322274911827
 20
1089.340220949329
 30
0.0
 10
180.0354410413258
 20
1071.611001035732
 30
0.0
 10
178.4000331030093
 20
1051.486177540273
 30
0.0
 10
175.629326656715
 20
1025.157831056735
 30
0.0
 10
172.0005090181564
 20
997.5744796364525
 30
0.0
 10
167.4825816945788
 20
969.8033367895421
 30
0.0
 10
162.0635836677557
 20
941.3211209396304
 30
0.0
 10
156.5762074714664
 20
916.327278238592
 30
0.0
 10
150.6311991451648
 20
892.3207826318508
 30
0.0
 10
146.4232621654303
 20
876.6797860026469
 30
0.0
 10
143.1675274726376
 20
865.2074782497108
 30
0.0
 10
140.307763979524
 20
855.4094487020914
 30
0.0
 10
136.6268533545631
 20
843.2091577482599
 30
0.0
 10
132.6228572029363
 20
830.2340964896965
 30
0.0
 10
129.6195011466348
 20
820.5163746072004
 30
0.0
 10
127.1349257540433
 20
812.4291574866577
 30
0.0
 10
124.1849414864123
 20
802.7346347948003
 30
0.0
 10
120.3513759396717
 20
789.7861455400312
 30
0.0
 10
115.8078826600333
 20
774.3904779035365
 30
0.0
 10
111.8729448260838
 20
761.429960146549
 30
0.0
 10
108.7792356631539
 20
751.7210040646826
 30
0.0
 10
106.917692870376
 20
746.0430274397112
 30
0.0
 10
104.7289270480921
 20
739.5414606613144
 30
0.0
 10
101.9121442097617
 20
731.4259919549193
 30
0.0
 10
99.09236695728055
 20
723.3112772239944
 30
0.0
 10
96.08008191665385
 20
714.4019137701432
 30
0.0
 10
92.7193865772283
 20
703.9501566042202
 30
0.0
 10
89.84422037028435
 20
693.4223611508892
 30
0.0
 10
87.92007374238915
 20
684.5351702462378
 30
0.0
 10
86.85882690725066
 20
678.5481132851439
 30
0.0
 10
86.005295190065
 20
671.8152136970075
 30
0.0
 10
85.51752039655048
 20
664.8149250564337
 30
0.0
 10
85.59100502442129
 20
656.8475736286055
 30
0.0
 10
86.5576875527413
 20
648.7783699832304
 30
0.0
 10
88.2043267515669
 20
642.4735579105254
 30
0.0
 10
90.2107316093718
 20
637.1774843710302
 30
0.0
 10
92.33693865847931
 20
632.9183356948238
 30
0.0
 10
95.30322911953226
 20
628.5128250062943
 30
0.0
 10
98.79439385992032
 20
624.4016259804806
 30
0.0
 10
102.9489569352063
 20
620.5516566004004
 30
0.0
 10
107.8824653983993
 20
616.9358430581038
 30
0.0
 10
114.7309323518107
 20
612.9408366464309
 30
0.0
 10
122.5426143731474
 20
609.8669952414855
 30
0.0
 10
130.1811061963194
 20
608.1825491818656
 30
0.0
 10
136.247163859437
 20
607.4723264772067
 30
0.0
 10
141.7985661724852
 20
607.4053718225562
 30
0.0
 10
147.3232093180252
 20
608.0040654780682
 30
0.0
 10
152.9627631170015
 20
609.1677655583806
 30
0.0
 10
160.6347579385601
 20
611.6868530087859
 30
0.0
 10
168.6153758991354
 20
615.9824580903316
 30
0.0
 10
174.8055889048435
 20
620.8473461724957
 30
0.0
 10
179.3308710902825
 20
625.2292359414781
 30
0.0
 10
182.7534529563793
 20
629.3207316561828
 30
0.0
 10
185.9943619359876
 20
634.2538354143016
 30
0.0
 10
188.5414539648546
 20
639.1808986013932
 30
0.0
 10
190.6815608796664
 20
644.9780123291566
 30
0.0
 10
192.4969763777085
 20
652.2340777691563
 30
0.0
 10
193.7326241168478
 20
661.2759029948586
 30
0.0
 10
194.1448902813233
 20
671.2499298108547
 30
0.0
 10
194.0659713127243
 20
679.7550942720441
 30
0.0
 10
193.9162929222391
 20
685.3803866975528
 30
0.0
 10
193.8084346252247
 20
688.872722350804
 30
0.0
 10
193.6961705389622
 20
692.377985558875
 30
0.0
 10
193.5595482458839
 20
696.762212121076
 30
0.0
 10
193.4370565890065
 20
702.0231063373528
 30
0.0
 10
193.3307098055457
 20
708.5518739779092
 30
0.0
 10
193.2633832683184
 20
717.1385787202269
 30
0.0
 10
193.2847183905296
 20
731.5894311222535
 30
0.0
 10
193.4561940751908
 20
746.8248974184227
 30
0.0
 10
193.5816686146206
 20
760.7888770091305
 30
0.0
 10
193.6765554948677
 20
779.8577073718748
 30
0.0
 10
193.6318491063957
 20
798.9362518494906
 30
0.0
 10
193.5751377827905
 20
819.2921663153188
 30
0.0
 10
193.5546663822772
 20
830.7440970602711
 30
0.0
 10
193.5404966904737
 20
851.7342062266816
 30
0.0
 10
193.5711566811522
 20
880.3536791582164
 30
0.0
 10
193.5770902274933
 20
922.3270825426965
 30
0.0
 10
193.565064244362
 20
962.3915781862256
 30
0.0
 10
193.5702679179067
 20
1018.104619957935
 30
0.0
 10
193.5679265374804
 20
1096.181965455723
 30
0.0
 10
193.5689147231974
 20
1162.81233004902
 30
0.0
 10
193.5688571010705
 20
1202.34743353703
 30
0.0
  0
ARC
  5
235
330
1DE
100
AcDbEntity
  8
0
  6
Continuous
 62
     0
370
    30
100
AcDbCircle
 10
236.606978
 20
1281.351962
 30
0.0
 40
0.5
100
AcDbArc
 50
0.0
 51
90.0
  0
ARC
  5
236
330
1DE
100
AcDbEntity
  8
0
  6
Continuous
 62
     0
370
    30
100
AcDbCircle
 10
236.606978
 20
1222.351962
 30
0.0
 40
0.5
100
AcDbArc
 50
270.0
 51
360.0
  0
ARC
  5
237
330
1DE
100
AcDbEntity
  8
0
  6
Continuous
 62
     0
370
    30
100
AcDbCircle
 10
163.106976
 20
1265.851962
 30
0.0
 40
1.0
100
AcDbArc
 50
134.426704
 51
180.0
  0
ARC
  5
238
330
1DE
100
AcDbEntity
  8
0
  6
Continuous
 62
     0
370
    30
100
AcDbCircle
 10
163.106976
 20
1237.851962
 30
0.0
 40
1.0
100
AcDbArc
 50
180.0
 51
225.573297
  0
ENDBLK
  5
23A
330
1DE
100
AcDbEntity
  8
0
100
AcDbBlockEnd
  0
ENDSEC
  0
SECTION
  2
ENTITIES
  0
INSERT
  5
ED
330
1F
100
AcDbEntity
  8
0
  6
Continuous
 62
     7
370
     0
100
AcDbBlockReference
  2
a
 10
456.655762
 20
575.515869
 30
0.0
  0
INSERT
  5
14E
330
1F
100
AcDbEntity
  8
0
  6
Continuous
 62
     7
370
     0
100
AcDbBlockReference
  2
b
 10
0.0
 20
487.465271
 30
0.0
  0
INSERT
  5
1DD
330
1F
100
AcDbEntity
  8
0
  6
Continuous
 62
     7
370
     0
100
AcDbBlockReference
  2
c
 10
585.046265
 20
0.0
 30
0.0
  0
INSERT
  5
23B
330
1F
100
AcDbEntity
  8
0
  6
Continuous
 62
     7
370
     0
100
AcDbBlockReference
  2
d
 10
298.356018
 20
0.0
 30
0.0
  0
ENDSEC
  0
SECTION
  2
OBJECTS
  0
DICTIONARY
  5
C
330
0
100
AcDbDictionary
281
     1
  3
ACAD_GROUP
350
D
  3
ACAD_LAYOUT
350
1A
  3
ACAD_MATERIAL
350
43
  3
ACAD_MLEADERSTYLE
350
6B
  3
ACAD_MLINESTYLE
350
17
  3
ACAD_PLOTSETTINGS
350
19
  3
ACAD_PLOTSTYLENAME
350
E
  3
ACAD_SCALELIST
350
47
  3
ACAD_TABLESTYLE
350
69
  3
ACAD_VISUALSTYLE
350
2A
  3
AcDbVariableDictionary
350
23C
  0
DICTIONARY
  5
247
330
8
100
AcDbDictionary
280
     1
281
     1
  3
ACAD_XREC_ROUNDTRIP
360
248
  0
DICTIONARY
  5
D
102
{ACAD_REACTORS
330
C
102
}
330
C
100
AcDbDictionary
281
     1
  0
DICTIONARY
  5
1A
102
{ACAD_REACTORS
330
C
102
}
330
C
100
AcDbDictionary
281
     1
  3
Layout1
350
1E
  3
Layout2
350
26
  3
Model
350
22
  0
DICTIONARY
  5
43
102
{ACAD_REACTORS
330
C
102
}
330
C
100
AcDbDictionary
281
     1
  3
ByBlock
350
45
  3
ByLayer
350
44
  3
Global
350
46
  0
DICTIONARY
  5
6B
102
{ACAD_REACTORS
330
C
102
}
330
C
100
AcDbDictionary
281
     1
  3
Standard
350
6C
  0
DICTIONARY
  5
17
102
{ACAD_REACTORS
330
C
102
}
330
C
100
AcDbDictionary
281
     1
  3
Standard
350
18
  0
DICTIONARY
  5
19
102
{ACAD_REACTORS
330
C
102
}
330
C
100
AcDbDictionary
281
     1
  0
ACDBDICTIONARYWDFLT
  5
E
102
{ACAD_REACTORS
330
C
102
}
330
C
100
AcDbDictionary
281
     1
  3
Normal
350
F
100
AcDbDictionaryWithDefault
340
F
  0
DICTIONARY
  5
47
102
{ACAD_REACTORS
330
C
102
}
330
C
100
AcDbDictionary
281
     1
  3
A0
350
48
  3
A1
350
49
  3
A2
350
4A
  3
A3
350
4B
  3
A4
350
4C
  3
A5
350
4D
  3
A6
350
4E
  3
A7
350
4F
  3
A8
350
50
  3
A9
350
51
  3
B0
350
52
  3
B1
350
53
  3
B2
350
54
  3
B3
350
55
  3
B4
350
56
  3
B5
350
57
  3
B6
350
58
  3
B7
350
59
  3
B8
350
5A
  3
B9
350
5B
  3
C0
350
5C
  3
C1
350
5D
  3
C2
350
5E
  3
C3
350
5F
  3
C4
350
60
  3
C5
350
61
  3
C6
350
62
  3
C7
350
63
  3
C8
350
64
  3
C9
350
65
  3
D0
350
66
  3
D1
350
67
  3
D2
350
68
  0
DICTIONARY
  5
69
102
{ACAD_REACTORS
330
C
102
}
330
C
100
AcDbDictionary
281
     1
  3
Standard
350
6A
  0
DICTIONARY
  5
2A
102
{ACAD_REACTORS
330
C
102
}
330
C
100
AcDbDictionary
281
     1
  3
2dWireframe
350
2F
  3
Basic
350
32
  3
Brighten
350
36
  3
ColorChange
350
3A
  3
Conceptual
350
34
  3
Dim
350
35
  3
EdgeColorOff
350
3D
  3
Facepattern
350
39
  3
Flat
350
2B
  3
FlatWithEdges
350
2C
  3
Gouraud
350
2D
  3
GouraudWithEdges
350
2E
  3
Hidden
350
31
  3
JitterOff
350
3B
  3
Linepattern
350
38
  3
OverhangOff
350
3C
  3
Realistic
350
33
  3
Shaded
350
42
  3
Shaded with edges
350
41
  3
Shades of Gray
350
3E
  3
Sketchy
350
3F
  3
Thicken
350
37
  3
Wireframe
350
30
  3
X-Ray
350
40
  0
DICTIONARY
  5
23C
102
{ACAD_REACTORS
330
C
102
}
330
C
100
AcDbDictionary
281
     1
  3
CANNOSCALE
350
249
  3
CENTEREXE
350
243
  3
CENTERLTYPEFILE
350
244
  3
CMLEADERSTYLE
350
23E
  3
CTABLESTYLE
350
23D
  3
DIMASSOC
350
245
  3
HIDETEXT
350
246
  3
MSLTSCALE
350
24A
  3
PSOLHEIGHT
350
240
  3
PSOLWIDTH
350
23F
  0
XRECORD
  5
248
102
{ACAD_REACTORS
330
247
102
}
330
247
100
AcDbXrecord
280
     1
102
VTR_0.000_0.000_1.000_1.000_VISUALSTYLE
340
2F
102
VTR_0.000_0.000_1.000_1.000_GRIDDISPLAY
 70
     3
102
VTR_0.000_0.000_1.000_1.000_GRIDMAJOR
 70
     5
102
VTR_0.000_0.000_1.000_1.000_DEFAULTLIGHTING
280
     1
102
VTR_0.000_0.000_1.000_1.000_DEFAULTLIGHTINGTYPE
 70
     1
102
VTR_0.000_0.000_1.000_1.000_BRIGHTNESS
141
0.0
102
VTR_0.000_0.000_1.000_1.000_CONTRAST
142
0.0
  0
LAYOUT
  5
1E
102
{ACAD_REACTORS
330
1A
102
}
330
1A
100
AcDbPlotSettings
  1

  2
none_device
  4

  6

 40
0.0
 41
0.0
 42
0.0
 43
0.0
 44
0.0
 45
0.0
 46
0.0
 47
0.0
 48
0.0
 49
0.0
140
0.0
141
0.0
142
1.0
143
1.0
 70
   688
 72
     1
 73
     0
 74
     5
  7

 75
    16
147
1.0
148
0.0
149
0.0
100
AcDbLayout
  1
Layout1
 70
     1
 71
     1
 10
0.0
 20
0.0
 11
420.0
 21
297.0
 12
0.0
 22
0.0
 32
0.0
 14
1.000000E+20
 24
1.000000E+20
 34
1.000000E+20
 15
-1.000000E+20
 25
-1.000000E+20
 35
-1.000000E+20
146
0.0
 13
0.0
 23
0.0
 33
0.0
 16
1.0
 26
0.0
 36
0.0
 17
0.0
 27
1.0
 37
0.0
 76
     0
330
1B
  0
LAYOUT
  5
26
102
{ACAD_REACTORS
330
1A
102
}
330
1A
100
AcDbPlotSettings
  1

  2
none_device
  4

  6

 40
0.0
 41
0.0
 42
0.0
 43
0.0
 44
0.0
 45
0.0
 46
0.0
 47
0.0
 48
0.0
 49
0.0
140
0.0
141
0.0
142
1.0
143
1.0
 70
   688
 72
     1
 73
     0
 74
     5
  7

 75
    16
147
1.0
148
0.0
149
0.0
100
AcDbLayout
  1
Layout2
 70
     1
 71
     2
 10
0.0
 20
0.0
 11
0.0
 21
0.0
 12
0.0
 22
0.0
 32
0.0
 14
0.0
 24
0.0
 34
0.0
 15
0.0
 25
0.0
 35
0.0
146
0.0
 13
0.0
 23
0.0
 33
0.0
 16
1.0
 26
0.0
 36
0.0
 17
0.0
 27
1.0
 37
0.0
 76
     0
330
23
  0
LAYOUT
  5
22
102
{ACAD_REACTORS
330
1A
102
}
330
1A
100
AcDbPlotSettings
  1

  2
none_device
  4
Letter_(8.50_x_11.00_Inches)
  6

 40
6.35
 41
6.35
 42
6.350005
 43
6.350005
 44
215.9
 45
279.4
 46
0.0
 47
0.0
 48
0.0
 49
0.0
140
0.0
141
0.0
142
1.0
143
1.0
 70
  1712
 72
     1
 73
     0
 74
     0
  7

 75
     0
147
1.0
148
0.0
149
0.0
100
AcDbLayout
  1
Model
 70
     1
 71
     0
 10
72.160202
 20
249.065536
 11
984.867004
 21
1424.972656
 12
0.0
 22
0.0
 32
0.0
 14
72.160202
 24
249.065536
 34
0.0
 15
984.867004
 25
1424.972656
 35
0.0
146
0.0
 13
0.0
 23
0.0
 33
0.0
 16
1.0
 26
0.0
 36
0.0
 17
0.0
 27
1.0
 37
0.0
 76
     0
330
1F
331
29
  0
MATERIAL
  5
45
102
{ACAD_REACTORS
330
43
102
}
102
{ACAD_XDICTIONARY
360
27D
102
}
330
43
100
AcDbMaterial
  1
ByBlock
  0
MATERIAL
  5
44
102
{ACAD_REACTORS
330
43
102
}
102
{ACAD_XDICTIONARY
360
27B
102
}
330
43
100
AcDbMaterial
  1
ByLayer
  0
MATERIAL
  5
46
102
{ACAD_REACTORS
330
43
102
}
102
{ACAD_XDICTIONARY
360
27F
102
}
330
43
100
AcDbMaterial
  1
Global
  0
MLEADERSTYLE
  5
6C
102
{ACAD_REACTORS
330
6B
102
}
102
{ACAD_XDICTIONARY
360
282
102
}
330
6B
100
AcDbMLeaderStyle
170
     2
171
     1
172
     0
 90
        2
 40
0.0
 41
0.0
173
     1
 91
-1056964608
340
14
 92
       -2
290
     1
 42
2.0
291
     1
 43
8.0
  3
Standard
341
0
 44
4.0
300

342
11
174
     1
178
     6
175
     1
176
     0
 93
-1056964608
 45
4.0
292
     0
297
     0
 46
4.0
343
0
 94
-1056964608
 47
1.0
 49
1.0
140
1.0
293
     1
141
0.0
294
     1
177
     0
142
1.0
295
     0
296
     0
143
3.75
1001
ACAD_MLEADERVER
1070
     2
  0
MLINESTYLE
  5
18
102
{ACAD_REACTORS
330
17
102
}
330
17
100
AcDbMlineStyle
  2
Standard
 70
     0
  3

 62
   256
 51
90.0
 52
90.0
 71
     2
 49
0.5
 62
   256
  6
BYLAYER
 49
-0.5
 62
   256
  6
BYLAYER
  0
ACDBPLACEHOLDER
  5
F
102
{ACAD_REACTORS
330
E
102
}
330
E
  0
SCALE
  5
48
102
{ACAD_REACTORS
330
47
102
}
330
47
100
AcDbScale
 70
     0
300
1:1
140
1.0
141
1.0
290
     1
  0
SCALE
  5
49
102
{ACAD_REACTORS
330
47
102
}
330
47
100
AcDbScale
 70
     0
300
1:2
140
1.0
141
2.0
290
     0
  0
SCALE
  5
4A
102
{ACAD_REACTORS
330
47
102
}
330
47
100
AcDbScale
 70
     0
300
1:4
140
1.0
141
4.0
290
     0
  0
SCALE
  5
4B
102
{ACAD_REACTORS
330
47
102
}
330
47
100
AcDbScale
 70
     0
300
1:5
140
1.0
141
5.0
290
     0
  0
SCALE
  5
4C
102
{ACAD_REACTORS
330
47
102
}
330
47
100
AcDbScale
 70
     0
300
1:8
140
1.0
141
8.0
290
     0
  0
SCALE
  5
4D
102
{ACAD_REACTORS
330
47
102
}
330
47
100
AcDbScale
 70
     0
300
1:10
140
1.0
141
10.0
290
     0
  0
SCALE
  5
4E
102
{ACAD_REACTORS
330
47
102
}
330
47
100
AcDbScale
 70
     0
300
1:16
140
1.0
141
16.0
290
     0
  0
SCALE
  5
4F
102
{ACAD_REACTORS
330
47
102
}
330
47
100
AcDbScale
 70
     0
300
1:20
140
1.0
141
20.0
290
     0
  0
SCALE
  5
50
102
{ACAD_REACTORS
330
47
102
}
330
47
100
AcDbScale
 70
     0
300
1:30
140
1.0
141
30.0
290
     0
  0
SCALE
  5
51
102
{ACAD_REACTORS
330
47
102
}
330
47
100
AcDbScale
 70
     0
300
1:40
140
1.0
141
40.0
290
     0
  0
SCALE
  5
52
102
{ACAD_REACTORS
330
47
102
}
330
47
100
AcDbScale
 70
     0
300
1:50
140
1.0
141
50.0
290
     0
  0
SCALE
  5
53
102
{ACAD_REACTORS
330
47
102
}
330
47
100
AcDbScale
 70
     0
300
1:100
140
1.0
141
100.0
290
     0
  0
SCALE
  5
54
102
{ACAD_REACTORS
330
47
102
}
330
47
100
AcDbScale
 70
     0
300
2:1
140
2.0
141
1.0
290
     0
  0
SCALE
  5
55
102
{ACAD_REACTORS
330
47
102
}
330
47
100
AcDbScale
 70
     0
300
4:1
140
4.0
141
1.0
290
     0
  0
SCALE
  5
56
102
{ACAD_REACTORS
330
47
102
}
330
47
100
AcDbScale
 70
     0
300
8:1
140
8.0
141
1.0
290
     0
  0
SCALE
  5
57
102
{ACAD_REACTORS
330
47
102
}
330
47
100
AcDbScale
 70
     0
300
10:1
140
10.0
141
1.0
290
     0
  0
SCALE
  5
58
102
{ACAD_REACTORS
330
47
102
}
330
47
100
AcDbScale
 70
     0
300
100:1
140
100.0
141
1.0
290
     0
  0
SCALE
  5
59
102
{ACAD_REACTORS
330
47
102
}
330
47
100
AcDbScale
 70
     0
300
1/128" = 1'-0"
140
0.007812
141
12.0
290
     0
  0
SCALE
  5
5A
102
{ACAD_REACTORS
330
47
102
}
330
47
100
AcDbScale
 70
     0
300
1/64" = 1'-0"
140
0.015625
141
12.0
290
     0
  0
SCALE
  5
5B
102
{ACAD_REACTORS
330
47
102
}
330
47
100
AcDbScale
 70
     0
300
1/32" = 1'-0"
140
0.03125
141
12.0
290
     0
  0
SCALE
  5
5C
102
{ACAD_REACTORS
330
47
102
}
330
47
100
AcDbScale
 70
     0
300
1/16" = 1'-0"
140
0.0625
141
12.0
290
     0
  0
SCALE
  5
5D
102
{ACAD_REACTORS
330
47
102
}
330
47
100
AcDbScale
 70
     0
300
3/32" = 1'-0"
140
0.09375
141
12.0
290
     0
  0
SCALE
  5
5E
102
{ACAD_REACTORS
330
47
102
}
330
47
100
AcDbScale
 70
     0
300
1/8" = 1'-0"
140
0.125
141
12.0
290
     0
  0
SCALE
  5
5F
102
{ACAD_REACTORS
330
47
102
}
330
47
100
AcDbScale
 70
     0
300
3/16" = 1'-0"
140
0.1875
141
12.0
290
     0
  0
SCALE
  5
60
102
{ACAD_REACTORS
330
47
102
}
330
47
100
AcDbScale
 70
     0
300
1/4" = 1'-0"
140
0.25
141
12.0
290
     0
  0
SCALE
  5
61
102
{ACAD_REACTORS
330
47
102
}
330
47
100
AcDbScale
 70
     0
300
3/8" = 1'-0"
140
0.375
141
12.0
290
     0
  0
SCALE
  5
62
102
{ACAD_REACTORS
330
47
102
}
330
47
100
AcDbScale
 70
     0
300
1/2" = 1'-0"
140
0.5
141
12.0
290
     0
  0
SCALE
  5
63
102
{ACAD_REACTORS
330
47
102
}
330
47
100
AcDbScale
 70
     0
300
3/4" = 1'-0"
140
0.75
141
12.0
290
     0
  0
SCALE
  5
64
102
{ACAD_REACTORS
330
47
102
}
330
47
100
AcDbScale
 70
     0
300
1" = 1'-0"
140
1.0
141
12.0
290
     0
  0
SCALE
  5
65
102
{ACAD_REACTORS
330
47
102
}
330
47
100
AcDbScale
 70
     0
300
1-1/2" = 1'-0"
140
1.5
141
12.0
290
     0
  0
SCALE
  5
66
102
{ACAD_REACTORS
330
47
102
}
330
47
100
AcDbScale
 70
     0
300
3" = 1'-0"
140
3.0
141
12.0
290
     0
  0
SCALE
  5
67
102
{ACAD_REACTORS
330
47
102
}
330
47
100
AcDbScale
 70
     0
300
6" = 1'-0"
140
6.0
141
12.0
290
     0
  0
SCALE
  5
68
102
{ACAD_REACTORS
330
47
102
}
330
47
100
AcDbScale
 70
     0
300
1'-0" = 1'-0"
140
12.0
141
12.0
290
     0
  0
TABLESTYLE
  5
6A
102
{ACAD_REACTORS
330
69
102
}
330
69
100
AcDbTableStyle
  3
Standard
 70
     0
 71
     0
 40
1.5
 41
1.5
280
     0
281
     0
  7
Standard
140
4.5
170
     2
 62
     0
 63
   257
283
     0
274
    -2
284
     1
 64
     0
275
    -2
285
     1
 65
     0
276
    -2
286
     1
 66
     0
277
    -2
287
     1
 67
     0
278
    -2
288
     1
 68
     0
279
    -2
289
     1
 69
     0
  7
Standard
140
6.0
170
     5
 62
     0
 63
   257
283
     0
274
    -2
284
     1
 64
     0
275
    -2
285
     1
 65
     0
276
    -2
286
     1
 66
     0
277
    -2
287
     1
 67
     0
278
    -2
288
     1
 68
     0
279
    -2
289
     1
 69
     0
  7
Standard
140
4.5
170
     5
 62
     0
 63
   257
283
     0
274
    -2
284
     1
 64
     0
275
    -2
285
     1
 65
     0
276
    -2
286
     1
 66
     0
277
    -2
287
     1
 67
     0
278
    -2
288
     1
 68
     0
279
    -2
289
     1
 69
     0
  0
VISUALSTYLE
  5
2F
102
{ACAD_REACTORS
330
2A
102
}
102
{ACAD_XDICTIONARY
360
253
102
}
330
2A
100
AcDbVisualStyle
  2
2dWireframe
 70
     4
 71
     0
 72
     2
 73
     0
 90
        0
 40
0.6
 41
30.0
 62
     5
 63
     7
 74
     1
 91
        4
 64
     7
 65
   257
 75
     1
175
     1
 42
1.0
 92
        0
 66
   257
 43
1.0
 76
     1
 77
     6
 78
     2
 67
     7
 79
     5
170
     0
171
     0
290
     0
174
     0
 93
        1
 44
0.0
173
     0
291
     0
 45
0.0
1001
ACAD
1000
AcDbSavedByObjectVersion
1070
     0
  0
VISUALSTYLE
  5
32
102
{ACAD_REACTORS
330
2A
102
}
102
{ACAD_XDICTIONARY
360
259
102
}
330
2A
100
AcDbVisualStyle
  2
Basic
 70
     7
 71
     1
 72
     0
 73
     1
 90
        0
 40
0.6
 41
30.0
 62
     5
 63
     7
 74
     0
 91
        4
 64
     7
 65
   257
 75
     1
175
     1
 42
1.0
 92
        8
 66
     7
 43
1.0
 76
     1
 77
     6
 78
     2
 67
     7
 79
     5
170
     0
171
     0
290
     0
174
     0
 93
        1
 44
0.0
173
     0
291
     1
 45
0.0
1001
ACAD
1000
AcDbSavedByObjectVersion
1070
     0
  0
VISUALSTYLE
  5
36
102
{ACAD_REACTORS
330
2A
102
}
102
{ACAD_XDICTIONARY
360
261
102
}
330
2A
100
AcDbVisualStyle
  2
Brighten
 70
    12
 71
     2
 72
     2
 73
     0
 90
        0
 40
0.6
 41
30.0
 62
     5
 63
     7
 74
     1
 91
        4
 64
     7
 65
   257
 75
     1
175
     1
 42
1.0
 92
        8
 66
     7
 43
1.0
 76
     1
 77
     6
 78
     2
 67
     7
 79
     5
170
     0
171
     0
290
     0
174
     0
 93
        1
 44
50.0
173
     0
291
     1
 45
0.0
1001
ACAD
1000
AcDbSavedByObjectVersion
1070
     0
  0
VISUALSTYLE
  5
3A
102
{ACAD_REACTORS
330
2A
102
}
102
{ACAD_XDICTIONARY
360
269
102
}
330
2A
100
AcDbVisualStyle
  2
ColorChange
 70
    16
 71
     2
 72
     2
 73
     3
 90
        0
 40
0.6
 41
30.0
 62
     5
 63
     8
 74
     1
 91
        4
 64
     7
 65
   257
 75
     1
175
     1
 42
1.0
 92
        8
 66
     8
 43
1.0
 76
     1
 77
     6
 78
     2
 67
     7
 79
     5
170
     0
171
     0
290
     0
174
     0
 93
        1
 44
0.0
173
     0
291
     1
 45
0.0
1001
ACAD
1000
AcDbSavedByObjectVersion
1070
     0
  0
VISUALSTYLE
  5
34
102
{ACAD_REACTORS
330
2A
102
}
102
{ACAD_XDICTIONARY
360
25D
102
}
330
2A
100
AcDbVisualStyle
  2
Conceptual
 70
     9
 71
     3
 72
     2
 73
     0
 90
        0
 40
0.6
 41
30.0
 62
     5
 63
     7
 74
     2
 91
        2
 64
     7
 65
   257
 75
     1
175
     1
 42
179.0
 92
        8
 66
     7
 43
1.0
 76
     1
 77
     6
 78
     2
 67
     7
 79
     3
170
     0
171
     0
290
     0
174
     0
 93
        1
 44
0.0
173
     0
291
     0
 45
0.0
1001
ACAD
1000
AcDbSavedByObjectVersion
1070
     0
  0
VISUALSTYLE
  5
35
102
{ACAD_REACTORS
330
2A
102
}
102
{ACAD_XDICTIONARY
360
25F
102
}
330
2A
100
AcDbVisualStyle
  2
Dim
 70
    11
 71
     2
 72
     2
 73
     0
 90
        0
 40
0.6
 41
30.0
 62
     5
 63
     7
 74
     1
 91
        4
 64
     7
 65
   257
 75
     1
175
     1
 42
1.0
 92
        8
 66
     7
 43
1.0
 76
     1
 77
     6
 78
     2
 67
     7
 79
     5
170
     0
171
     0
290
     0
174
     0
 93
        1
 44
-50.0
173
     0
291
     1
 45
0.0
1001
ACAD
1000
AcDbSavedByObjectVersion
1070
     0
  0
VISUALSTYLE
  5
3D
102
{ACAD_REACTORS
330
2A
102
}
102
{ACAD_XDICTIONARY
360
26F
102
}
330
2A
100
AcDbVisualStyle
  2
EdgeColorOff
 70
    22
 71
     2
 72
     2
 73
     0
 90
        0
 40
0.6
 41
30.0
 62
     5
 63
     7
 74
     1
 91
        4
 64
     7
 65
   257
 75
     1
175
     1
 42
1.0
 92
        8
 66
     7
 43
1.0
 76
     1
 77
     6
 78
     2
 67
     7
 79
     5
170
     0
171
     0
290
     0
174
     0
 93
        1
 44
0.0
173
     0
291
     1
 45
0.0
1001
ACAD
1000
AcDbSavedByObjectVersion
1070
     0
  0
VISUALSTYLE
  5
39
102
{ACAD_REACTORS
330
2A
102
}
102
{ACAD_XDICTIONARY
360
267
102
}
330
2A
100
AcDbVisualStyle
  2
Facepattern
 70
    15
 71
     2
 72
     2
 73
     0
 90
        0
 40
0.6
 41
30.0
 62
     5
 63
     7
 74
     1
 91
        4
 64
     7
 65
   257
 75
     1
175
     1
 42
1.0
 92
        8
 66
     7
 43
1.0
 76
     1
 77
     6
 78
     2
 67
     7
 79
     5
170
     0
171
     0
290
     0
174
     0
 93
        1
 44
0.0
173
     0
291
     1
 45
0.0
1001
ACAD
1000
AcDbSavedByObjectVersion
1070
     0
  0
VISUALSTYLE
  5
2B
102
{ACAD_REACTORS
330
2A
102
}
102
{ACAD_XDICTIONARY
360
24B
102
}
330
2A
100
AcDbVisualStyle
  2
Flat
 70
     0
 71
     2
 72
     1
 73
     1
 90
        2
 40
0.6
 41
30.0
 62
     5
 63
     7
 74
     0
 91
        0
 64
     7
 65
   257
 75
     1
175
     1
 42
1.0
 92
        8
 66
     7
 43
1.0
 76
     1
 77
     6
 78
     2
 67
     7
 79
     5
170
     0
171
     0
290
     0
174
     0
 93
       13
 44
0.0
173
     0
291
     1
 45
0.0
1001
ACAD
1000
AcDbSavedByObjectVersion
1070
     0
  0
VISUALSTYLE
  5
2C
102
{ACAD_REACTORS
330
2A
102
}
102
{ACAD_XDICTIONARY
360
24D
102
}
330
2A
100
AcDbVisualStyle
  2
FlatWithEdges
 70
     1
 71
     2
 72
     1
 73
     1
 90
        2
 40
0.6
 41
30.0
 62
     5
 63
     7
 74
     1
 91
        0
 64
     7
 65
   257
 75
     1
175
     1
 42
1.0
 92
        0
 66
   257
 43
1.0
 76
     1
 77
     6
 78
     2
 67
     7
 79
     5
170
     0
171
     0
290
     0
174
     0
 93
       13
 44
0.0
173
     0
291
     1
 45
0.0
1001
ACAD
1000
AcDbSavedByObjectVersion
1070
     0
  0
VISUALSTYLE
  5
2D
102
{ACAD_REACTORS
330
2A
102
}
102
{ACAD_XDICTIONARY
360
24F
102
}
330
2A
100
AcDbVisualStyle
  2
Gouraud
 70
     2
 71
     2
 72
     2
 73
     1
 90
        2
 40
0.6
 41
30.0
 62
     5
 63
     7
 74
     0
 91
        0
 64
     7
 65
   257
 75
     1
175
     1
 42
1.0
 92
        0
 66
     7
 43
1.0
 76
     1
 77
     6
 78
     2
 67
     7
 79
     5
170
     0
171
     0
290
     0
174
     0
 93
       13
 44
0.0
173
     0
291
     1
 45
0.0
1001
ACAD
1000
AcDbSavedByObjectVersion
1070
     0
  0
VISUALSTYLE
  5
2E
102
{ACAD_REACTORS
330
2A
102
}
102
{ACAD_XDICTIONARY
360
251
102
}
330
2A
100
AcDbVisualStyle
  2
GouraudWithEdges
 70
     3
 71
     2
 72
     2
 73
     1
 90
        2
 40
0.6
 41
30.0
 62
     5
 63
     7
 74
     1
 91
        0
 64
     7
 65
   257
 75
     1
175
     1
 42
1.0
 92
        0
 66
   257
 43
1.0
 76
     1
 77
     6
 78
     2
 67
     7
 79
     5
170
     0
171
     0
290
     0
174
     0
 93
       13
 44
0.0
173
     0
291
     1
 45
0.0
1001
ACAD
1000
AcDbSavedByObjectVersion
1070
     0
  0
VISUALSTYLE
  5
31
102
{ACAD_REACTORS
330
2A
102
}
102
{ACAD_XDICTIONARY
360
257
102
}
330
2A
100
AcDbVisualStyle
  2
Hidden
 70
     6
 71
     1
 72
     2
 73
     2
 90
        0
 40
0.6
 41
30.0
 62
     5
 63
     7
 74
     2
 91
        2
 64
     7
 65
   257
 75
     2
175
     1
 42
40.0
 92
        0
 66
   257
 43
1.0
 76
     1
 77
     6
 78
     2
 67
     7
 79
     3
170
     0
171
     0
290
     0
174
     0
 93
        1
 44
0.0
173
     0
291
     0
 45
0.0
1001
ACAD
1000
AcDbSavedByObjectVersion
1070
     0
  0
VISUALSTYLE
  5
3B
102
{ACAD_REACTORS
330
2A
102
}
102
{ACAD_XDICTIONARY
360
26B
102
}
330
2A
100
AcDbVisualStyle
  2
JitterOff
 70
    20
 71
     2
 72
     2
 73
     0
 90
        0
 40
0.6
 41
30.0
 62
     5
 63
     7
 74
     1
 91
        4
 64
     7
 65
   257
 75
     1
175
     1
 42
1.0
 92
       10
 66
     7
 43
1.0
 76
     1
 77
     6
 78
     2
 67
     7
 79
     5
170
     0
171
     0
290
     0
174
     0
 93
        1
 44
0.0
173
     0
291
     1
 45
0.0
1001
ACAD
1000
AcDbSavedByObjectVersion
1070
     0
  0
VISUALSTYLE
  5
38
102
{ACAD_REACTORS
330
2A
102
}
102
{ACAD_XDICTIONARY
360
265
102
}
330
2A
100
AcDbVisualStyle
  2
Linepattern
 70
    14
 71
     2
 72
     2
 73
     0
 90
        0
 40
0.6
 41
30.0
 62
     5
 63
     7
 74
     1
 91
        4
 64
     7
 65
   257
 75
     7
175
     7
 42
1.0
 92
        8
 66
     7
 43
1.0
 76
     1
 77
     6
 78
     2
 67
     7
 79
     5
170
     0
171
     0
290
     0
174
     0
 93
        1
 44
0.0
173
     0
291
     1
 45
0.0
1001
ACAD
1000
AcDbSavedByObjectVersion
1070
     0
  0
VISUALSTYLE
  5
3C
102
{ACAD_REACTORS
330
2A
102
}
102
{ACAD_XDICTIONARY
360
26D
102
}
330
2A
100
AcDbVisualStyle
  2
OverhangOff
 70
    21
 71
     2
 72
     2
 73
     0
 90
        0
 40
0.6
 41
30.0
 62
     5
 63
     7
 74
     1
 91
        4
 64
     7
 65
   257
 75
     1
175
     1
 42
1.0
 92
        9
 66
     7
 43
1.0
 76
     1
 77
     6
 78
     2
 67
     7
 79
     5
170
     0
171
     0
290
     0
174
     0
 93
        1
 44
0.0
173
     0
291
     1
 45
0.0
1001
ACAD
1000
AcDbSavedByObjectVersion
1070
     0
  0
VISUALSTYLE
  5
33
102
{ACAD_REACTORS
330
2A
102
}
102
{ACAD_XDICTIONARY
360
25B
102
}
330
2A
100
AcDbVisualStyle
  2
Realistic
 70
     8
 71
     2
 72
     3
 73
     0
 90
        2
 40
0.6
 41
30.0
 62
     5
 63
     7
 74
     0
 91
        0
 64
     7
 65
   257
 75
     1
175
     1
 42
1.0
 92
        8
 66
   257
 43
1.0
 76
     1
 77
     6
 78
     2
 67
     7
 79
     3
170
     0
171
     0
290
     0
174
     0
 93
       13
 44
0.0
173
     0
291
     0
 45
0.0
1001
ACAD
1000
AcDbSavedByObjectVersion
1070
     0
  0
VISUALSTYLE
  5
42
102
{ACAD_REACTORS
330
2A
102
}
102
{ACAD_XDICTIONARY
360
279
102
}
330
2A
100
AcDbVisualStyle
  2
Shaded
 70
    27
 71
     2
 72
     2
 73
     1
 90
        2
 40
0.6
 41
30.0
 62
     5
 63
     7
 74
     0
 91
        4
 64
     7
 65
   257
 75
     1
175
     1
 42
1.0
 92
        8
 66
   257
 43
1.0
 76
     1
 77
     6
 78
     2
 67
     8
 79
     3
170
     0
171
     0
290
     0
174
     0
 93
        5
 44
0.0
173
     0
291
     0
 45
0.0
1001
ACAD
1000
AcDbSavedByObjectVersion
1070
     0
  0
VISUALSTYLE
  5
41
102
{ACAD_REACTORS
330
2A
102
}
102
{ACAD_XDICTIONARY
360
277
102
}
330
2A
100
AcDbVisualStyle
  2
Shaded with edges
 70
    26
 71
     2
 72
     2
 73
     1
 90
        2
 40
0.6
 41
30.0
 62
     5
 63
     7
 74
     1
 91
       10
 64
     7
 65
   257
 75
     2
175
     1
 42
1.0
 92
        8
 66
   257
 43
1.0
 76
     1
 77
     6
 78
     2
 67
     7
 79
     3
170
     0
171
     0
290
     0
174
     0
 93
        5
 44
0.0
173
     0
291
     0
 45
0.0
1001
ACAD
1000
AcDbSavedByObjectVersion
1070
     0
  0
VISUALSTYLE
  5
3E
102
{ACAD_REACTORS
330
2A
102
}
102
{ACAD_XDICTIONARY
360
271
102
}
330
2A
100
AcDbVisualStyle
  2
Shades of Gray
 70
    23
 71
     2
 72
     2
 73
     3
 90
        0
 40
0.6
 41
30.0
 62
     5
 63
     7
 74
     2
 91
        2
 64
     7
 65
     7
 75
     1
175
     1
 42
40.0
 92
        8
 66
     7
 43
1.0
 76
     1
 77
     6
 78
     2
 67
     7
 79
     3
170
     0
171
     0
290
     0
174
     0
 93
        1
 44
0.0
173
     0
291
     0
 45
0.0
1001
ACAD
1000
AcDbSavedByObjectVersion
1070
     0
  0
VISUALSTYLE
  5
3F
102
{ACAD_REACTORS
330
2A
102
}
102
{ACAD_XDICTIONARY
360
273
102
}
330
2A
100
AcDbVisualStyle
  2
Sketchy
 70
    24
 71
     1
 72
     2
 73
     2
 90
        0
 40
0.6
 41
30.0
 62
     5
 63
     7
 74
     2
 91
        2
 64
     7
 65
     7
 75
     1
175
     1
 42
40.0
 92
       11
 66
     7
 43
1.0
 76
     1
 77
     6
 78
     2
 67
     7
 79
     6
170
     0
171
     0
290
     0
174
     0
 93
        1
 44
0.0
173
     0
291
     0
 45
0.0
1001
ACAD
1000
AcDbSavedByObjectVersion
1070
     0
  0
VISUALSTYLE
  5
37
102
{ACAD_REACTORS
330
2A
102
}
102
{ACAD_XDICTIONARY
360
263
102
}
330
2A
100
AcDbVisualStyle
  2
Thicken
 70
    13
 71
     2
 72
     2
 73
     0
 90
        0
 40
0.6
 41
30.0
 62
     5
 63
     7
 74
     1
 91
        4
 64
     7
 65
   257
 75
     1
175
     1
 42
1.0
 92
       12
 66
     7
 43
1.0
 76
     1
 77
     6
 78
     2
 67
     7
 79
     5
170
     0
171
     0
290
     0
174
     0
 93
        1
 44
0.0
173
     0
291
     1
 45
0.0
1001
ACAD
1000
AcDbSavedByObjectVersion
1070
     0
  0
VISUALSTYLE
  5
30
102
{ACAD_REACTORS
330
2A
102
}
102
{ACAD_XDICTIONARY
360
255
102
}
330
2A
100
AcDbVisualStyle
  2
Wireframe
 70
     5
 71
     0
 72
     2
 73
     0
 90
        0
 40
0.6
 41
30.0
 62
     5
 63
     7
 74
     1
 91
        4
 64
     7
 65
   257
 75
     1
175
     1
 42
1.0
 92
        0
 66
   257
 43
1.0
 76
     1
 77
     6
 78
     2
 67
     7
 79
     3
170
     0
171
     0
290
     0
174
     0
 93
        1
 44
0.0
173
     0
291
     0
 45
0.0
1001
ACAD
1000
AcDbSavedByObjectVersion
1070
     0
  0
VISUALSTYLE
  5
40
102
{ACAD_REACTORS
330
2A
102
}
102
{ACAD_XDICTIONARY
360
275
102
}
330
2A
100
AcDbVisualStyle
  2
X-Ray
 70
    25
 71
     2
 72
     2
 73
     1
 90
        1
 40
0.5
 41
30.0
 62
     5
 63
     7
 74
     1
 91
        0
 64
     7
 65
   257
 75
     1
175
     1
 42
1.0
 92
        8
 66
     7
 43
1.0
 76
     1
 77
     6
 78
     2
 67
     7
 79
     3
170
     0
171
     0
290
     0
174
     0
 93
       13
 44
0.0
173
     0
291
     0
 45
0.0
1001
ACAD
1000
AcDbSavedByObjectVersion
1070
     0
  0
DICTIONARYVAR
  5
249
102
{ACAD_REACTORS
330
23C
102
}
330
23C
100
DictionaryVariables
280
     0
  1
1:1
  0
DICTIONARYVAR
  5
243
102
{ACAD_REACTORS
330
23C
102
}
330
23C
100
DictionaryVariables
280
     0
  1
3.500000
  0
DICTIONARYVAR
  5
244
102
{ACAD_REACTORS
330
23C
102
}
330
23C
100
DictionaryVariables
280
     0
  1
acadiso.lin
  0
DICTIONARYVAR
  5
23E
102
{ACAD_REACTORS
330
23C
102
}
330
23C
100
DictionaryVariables
280
     0
  1
Standard
  0
DICTIONARYVAR
  5
23D
102
{ACAD_REACTORS
330
23C
102
}
330
23C
100
DictionaryVariables
280
     0
  1
Standard
  0
DICTIONARYVAR
  5
245
102
{ACAD_REACTORS
330
23C
102
}
330
23C
100
DictionaryVariables
280
     0
  1
2
  0
DICTIONARYVAR
  5
246
102
{ACAD_REACTORS
330
23C
102
}
330
23C
100
DictionaryVariables
280
     0
  1
1
  0
DICTIONARYVAR
  5
24A
102
{ACAD_REACTORS
330
23C
102
}
330
23C
100
DictionaryVariables
280
     0
  1
1
  0
DICTIONARYVAR
  5
240
102
{ACAD_REACTORS
330
23C
102
}
330
23C
100
DictionaryVariables
280
     0
  1
80.000000
  0
DICTIONARYVAR
  5
23F
102
{ACAD_REACTORS
330
23C
102
}
330
23C
100
DictionaryVariables
280
     0
  1
5.000000
  0
DICTIONARY
  5
27D
330
45
100
AcDbDictionary
280
     1
281
     1
  3
ACAD_XREC_ROUNDTRIP
360
27E
  0
DICTIONARY
  5
27B
330
44
100
AcDbDictionary
280
     1
281
     1
  3
ACAD_XREC_ROUNDTRIP
360
27C
  0
DICTIONARY
  5
27F
330
46
100
AcDbDictionary
280
     1
281
     1
  3
ACAD_XREC_ROUNDTRIP
360
280
  0
DICTIONARY
  5
282
330
6C
100
AcDbDictionary
280
     1
281
     1
  3
ACAD_XREC_ROUNDTRIP
360
283
  0
DICTIONARY
  5
253
330
2F
100
AcDbDictionary
280
     1
281
     1
  3
ACAD_XREC_ROUNDTRIP
360
254
  0
DICTIONARY
  5
259
330
32
100
AcDbDictionary
280
     1
281
     1
  3
ACAD_XREC_ROUNDTRIP
360
25A
  0
DICTIONARY
  5
261
330
36
100
AcDbDictionary
280
     1
281
     1
  3
ACAD_XREC_ROUNDTRIP
360
262
  0
DICTIONARY
  5
269
330
3A
100
AcDbDictionary
280
     1
281
     1
  3
ACAD_XREC_ROUNDTRIP
360
26A
  0
DICTIONARY
  5
25D
330
34
100
AcDbDictionary
280
     1
281
     1
  3
ACAD_XREC_ROUNDTRIP
360
25E
  0
DICTIONARY
  5
25F
330
35
100
AcDbDictionary
280
     1
281
     1
  3
ACAD_XREC_ROUNDTRIP
360
260
  0
DICTIONARY
  5
26F
330
3D
100
AcDbDictionary
280
     1
281
     1
  3
ACAD_XREC_ROUNDTRIP
360
270
  0
DICTIONARY
  5
267
330
39
100
AcDbDictionary
280
     1
281
     1
  3
ACAD_XREC_ROUNDTRIP
360
268
  0
DICTIONARY
  5
24B
330
2B
100
AcDbDictionary
280
     1
281
     1
  3
ACAD_XREC_ROUNDTRIP
360
24C
  0
DICTIONARY
  5
24D
330
2C
100
AcDbDictionary
280
     1
281
     1
  3
ACAD_XREC_ROUNDTRIP
360
24E
  0
DICTIONARY
  5
24F
330
2D
100
AcDbDictionary
280
     1
281
     1
  3
ACAD_XREC_ROUNDTRIP
360
250
  0
DICTIONARY
  5
251
330
2E
100
AcDbDictionary
280
     1
281
     1
  3
ACAD_XREC_ROUNDTRIP
360
252
  0
DICTIONARY
  5
257
330
31
100
AcDbDictionary
280
     1
281
     1
  3
ACAD_XREC_ROUNDTRIP
360
258
  0
DICTIONARY
  5
26B
330
3B
100
AcDbDictionary
280
     1
281
     1
  3
ACAD_XREC_ROUNDTRIP
360
26C
  0
DICTIONARY
  5
265
330
38
100
AcDbDictionary
280
     1
281
     1
  3
ACAD_XREC_ROUNDTRIP
360
266
  0
DICTIONARY
  5
26D
330
3C
100
AcDbDictionary
280
     1
281
     1
  3
ACAD_XREC_ROUNDTRIP
360
26E
  0
DICTIONARY
  5
25B
330
33
100
AcDbDictionary
280
     1
281
     1
  3
ACAD_XREC_ROUNDTRIP
360
25C
  0
DICTIONARY
  5
279
330
42
100
AcDbDictionary
280
     1
281
     1
  3
ACAD_XREC_ROUNDTRIP
360
27A
  0
DICTIONARY
  5
277
330
41
100
AcDbDictionary
280
     1
281
     1
  3
ACAD_XREC_ROUNDTRIP
360
278
  0
DICTIONARY
  5
271
330
3E
100
AcDbDictionary
280
     1
281
     1
  3
ACAD_XREC_ROUNDTRIP
360
272
  0
DICTIONARY
  5
273
330
3F
100
AcDbDictionary
280
     1
281
     1
  3
ACAD_XREC_ROUNDTRIP
360
274
  0
DICTIONARY
  5
263
330
37
100
AcDbDictionary
280
     1
281
     1
  3
ACAD_XREC_ROUNDTRIP
360
264
  0
DICTIONARY
  5
255
330
30
100
AcDbDictionary
280
     1
281
     1
  3
ACAD_XREC_ROUNDTRIP
360
256
  0
DICTIONARY
  5
275
330
40
100
AcDbDictionary
280
     1
281
     1
  3
ACAD_XREC_ROUNDTRIP
360
276
  0
XRECORD
  5
27E
102
{ACAD_REACTORS
330
27D
102
}
330
27D
100
AcDbXrecord
280
     1
102
MATERIAL
148
0.0
149
0.0
149
0.0
 93
        0
 94
      127
282
     0
 72
     1
 77
     1
171
     1
175
     1
179
     1
273
     0
  0
XRECORD
  5
27C
102
{ACAD_REACTORS
330
27B
102
}
330
27B
100
AcDbXrecord
280
     1
102
MATERIAL
148
0.0
149
0.0
149
0.0
 93
        0
 94
      127
282
     0
 72
     1
 77
     1
171
     1
175
     1
179
     1
273
     0
  0
XRECORD
  5
280
102
{ACAD_REACTORS
330
27F
102
}
330
27F
100
AcDbXrecord
280
     1
102
MATERIAL
148
0.0
149
0.0
149
0.0
 93
        0
 94
      127
282
     0
 72
     1
 77
     1
171
     1
175
     1
179
     1
273
     0
  0
XRECORD
  5
283
102
{ACAD_REACTORS
330
282
102
}
330
282
100
AcDbXrecord
280
     1
102
ACAD_ROUNDTRIP_2010_MLEADER_STYLE
  0
XRECORD
  5
254
102
{ACAD_REACTORS
330
253
102
}
330
253
100
AcDbXrecord
280
     1
102
RTVSPropertyOp0
 70
     1
102
RTVSPropertyOp1
 70
     1
102
RTVSPropertyOp2
 70
     1
102
RTVSPropertyOp3
 70
     1
102
RTVSPropertyOp4
 70
     1
102
RTVSPropertyOp5
 70
     1
102
RTVSPropertyOp6
 70
     1
102
RTVSPropertyOp7
 70
     1
102
RTVSPropertyOp8
 70
     1
102
RTVSPropertyOp9
 70
     1
102
RTVSPropertyOp10
 70
     1
102
RTVSPropertyOp11
 70
     1
102
RTVSPropertyOp12
 70
     1
102
RTVSPropertyOp13
 70
     1
102
RTVSPropertyOp14
 70
     1
102
RTVSPropertyOp15
 70
     1
102
RTVSPropertyOp16
 70
     1
102
RTVSPropertyOp17
 70
     1
102
RTVSPropertyOp18
 70
     1
102
RTVSPropertyOp19
 70
     1
102
RTVSPropertyOp20
 70
     1
102
RTVSPropertyOp21
 70
     1
102
RTVSPropertyOp22
 70
     1
102
RTVSPropertyOp23
 70
     1
102
RTVSPropertyOp24
 70
     1
102
RTVSPropertyOp25
 70
     1
102
RTVSPropertyOp26
 70
     1
102
RTVSPropertyOp27
 70
     1
102
RTVSPropertyOp28
 70
     1
102
RTVSPropertyOp29
 70
     1
102
RTVSPropertyOp30
 70
     1
102
RTVSPropertyOp31
 70
     1
102
RTVSPropertyOp32
 70
     1
102
RTVSPropertyOp33
 70
     1
102
RTVSPropertyOp34
 70
     1
102
RTVSPropertyOp35
 70
     1
102
RTVSPropertyOp36
 70
     1
102
RTVSPropertyOp37
 70
     1
102
RTVSPropertyOp38
 70
     1
102
RTVSPropertyOp39
 70
     1
102
RTVSPropertyOp40
 70
     1
102
RTVSPropertyOp41
 70
     1
102
RTVSPropertyOp42
 70
     1
102
RTVSPropertyOp43
 70
     1
102
RTVSPropertyOp44
 70
     1
102
RTVSPropertyOp45
 70
     1
102
RTVSPropertyOp46
 70
     1
102
RTVSPropertyOp47
 70
     1
102
RTVSPropertyOp48
 70
     1
102
RTVSPropertyOp49
 70
     1
102
RTVSPropertyOp50
 70
     1
102
RTVSPropertyOp51
 70
     0
102
RTVSPropertyOp52
 70
     0
102
RTVSPropertyOp53
 70
     1
102
RTVSPropertyOp54
 70
     1
102
RTVSPropertyOp55
 70
     1
102
RTVSPropertyOp56
 70
     1
102
RTVSPropertyOp57
 70
     1
102
RTVSPost2010Prop28
280
     1
102
RTVSPost2010PropOp28
 70
     1
102
RTVSPost2010Prop29
280
     1
102
RTVSPost2010PropOp29
 70
     1
102
RTVSPost2010Prop30
280
     0
102
RTVSPost2010PropOp30
 70
     1
102
RTVSPost2010Prop31
280
     0
102
RTVSPost2010PropOp31
 70
     1
102
RTVSPost2010Prop32
280
     0
102
RTVSPost2010PropOp32
 70
     1
102
RTVSPost2010Prop33
280
     0
102
RTVSPost2010PropOp33
 70
     1
102
RTVSPost2010Prop34
280
     0
102
RTVSPost2010PropOp34
 70
     1
102
RTVSPost2010Prop35
280
     0
102
RTVSPost2010PropOp35
 70
     1
102
RTVSPost2010Prop36
280
     0
102
RTVSPost2010PropOp36
 70
     1
102
RTVSPost2010Prop37
 90
       50
102
RTVSPost2010PropOp37
 70
     1
102
RTVSPost2010Prop38
140
0.0
102
RTVSPost2010PropOp38
 70
     1
102
RTVSPost2010Prop39
140
1.0
102
RTVSPost2010PropOp39
 70
     1
102
RTVSPost2010Prop40
 90
        0
102
RTVSPost2010PropOp40
 70
     1
102
RTVSPost2010Prop41ColorIndex
 90
       18
102
RTVSPost2010Prop41ColorRGB
 90
        0
102
RTVSPost2010PropOp41
 70
     1
102
RTVSPost2010Prop42
 90
       50
102
RTVSPost2010PropOp42
 70
     1
102
RTVSPost2010Prop43
 90
        3
102
RTVSPost2010PropOp43
 70
     1
102
RTVSPost2010Prop44ColorIndex
 90
        5
102
RTVSPost2010Prop44ColorRGB
 90
      255
102
RTVSPost2010PropOp44
 70
     1
102
RTVSPost2010Prop45
280
     0
102
RTVSPost2010PropOp45
 70
     1
102
RTVSPost2010Prop46
 90
       50
102
RTVSPost2010PropOp46
 70
     1
102
RTVSPost2010Prop47
 90
       50
102
RTVSPost2010PropOp47
 70
     1
102
RTVSPost2010Prop48
 90
       50
102
RTVSPost2010PropOp48
 70
     1
102
RTVSPost2010Prop49
280
     0
102
RTVSPost2010PropOp49
 70
     1
102
RTVSPost2010Prop50
 90
       50
102
RTVSPost2010PropOp50
 70
     1
102
RTVSPost2010Prop51ColorIndex
 90
      256
102
RTVSPost2010Prop51ColorRGB
 90
-16777216
102
RTVSPost2010PropOp51
 70
     0
102
RTVSPost2010Prop52
140
1.0
102
RTVSPost2010PropOp52
 70
     0
102
RTVSPost2010Prop53
 90
        2
102
RTVSPost2010PropOp53
 70
     1
102
RTVSPost2010Prop54
  1
strokes_ogs.tif
102
RTVSPost2010PropOp54
 70
     1
102
RTVSPost2010Prop55
280
     0
102
RTVSPost2010PropOp55
 70
     1
102
RTVSPost2010Prop56
140
1.0
102
RTVSPost2010PropOp56
 70
     1
102
RTVSPost2010Prop57
140
1.0
102
RTVSPost2010PropOp57
 70
     1
  0
XRECORD
  5
25A
102
{ACAD_REACTORS
330
259
102
}
330
259
100
AcDbXrecord
280
     1
102
RTVSPropertyOp0
 70
     1
102
RTVSPropertyOp1
 70
     1
102
RTVSPropertyOp2
 70
     1
102
RTVSPropertyOp3
 70
     1
102
RTVSPropertyOp4
 70
     1
102
RTVSPropertyOp5
 70
     1
102
RTVSPropertyOp6
 70
     1
102
RTVSPropertyOp7
 70
     1
102
RTVSPropertyOp8
 70
     1
102
RTVSPropertyOp9
 70
     1
102
RTVSPropertyOp10
 70
     1
102
RTVSPropertyOp11
 70
     1
102
RTVSPropertyOp12
 70
     1
102
RTVSPropertyOp13
 70
     1
102
RTVSPropertyOp14
 70
     1
102
RTVSPropertyOp15
 70
     1
102
RTVSPropertyOp16
 70
     1
102
RTVSPropertyOp17
 70
     1
102
RTVSPropertyOp18
 70
     1
102
RTVSPropertyOp19
 70
     1
102
RTVSPropertyOp20
 70
     1
102
RTVSPropertyOp21
 70
     1
102
RTVSPropertyOp22
 70
     1
102
RTVSPropertyOp23
 70
     1
102
RTVSPropertyOp24
 70
     1
102
RTVSPropertyOp25
 70
     1
102
RTVSPropertyOp26
 70
     1
102
RTVSPropertyOp27
 70
     1
102
RTVSPropertyOp28
 70
     1
102
RTVSPropertyOp29
 70
     1
102
RTVSPropertyOp30
 70
     1
102
RTVSPropertyOp31
 70
     1
102
RTVSPropertyOp32
 70
     1
102
RTVSPropertyOp33
 70
     1
102
RTVSPropertyOp34
 70
     1
102
RTVSPropertyOp35
 70
     1
102
RTVSPropertyOp36
 70
     1
102
RTVSPropertyOp37
 70
     1
102
RTVSPropertyOp38
 70
     1
102
RTVSPropertyOp39
 70
     1
102
RTVSPropertyOp40
 70
     1
102
RTVSPropertyOp41
 70
     1
102
RTVSPropertyOp42
 70
     1
102
RTVSPropertyOp43
 70
     1
102
RTVSPropertyOp44
 70
     1
102
RTVSPropertyOp45
 70
     1
102
RTVSPropertyOp46
 70
     1
102
RTVSPropertyOp47
 70
     1
102
RTVSPropertyOp48
 70
     1
102
RTVSPropertyOp49
 70
     1
102
RTVSPropertyOp50
 70
     1
102
RTVSPropertyOp51
 70
     0
102
RTVSPropertyOp52
 70
     0
102
RTVSPropertyOp53
 70
     1
102
RTVSPropertyOp54
 70
     1
102
RTVSPropertyOp55
 70
     1
102
RTVSPropertyOp56
 70
     1
102
RTVSPropertyOp57
 70
     1
102
RTVSPost2010Prop28
280
     0
102
RTVSPost2010PropOp28
 70
     1
102
RTVSPost2010Prop29
280
     1
102
RTVSPost2010PropOp29
 70
     1
102
RTVSPost2010Prop30
280
     1
102
RTVSPost2010PropOp30
 70
     1
102
RTVSPost2010Prop31
280
     0
102
RTVSPost2010PropOp31
 70
     1
102
RTVSPost2010Prop32
280
     0
102
RTVSPost2010PropOp32
 70
     1
102
RTVSPost2010Prop33
280
     0
102
RTVSPost2010PropOp33
 70
     1
102
RTVSPost2010Prop34
280
     0
102
RTVSPost2010PropOp34
 70
     1
102
RTVSPost2010Prop35
280
     0
102
RTVSPost2010PropOp35
 70
     1
102
RTVSPost2010Prop36
280
     0
102
RTVSPost2010PropOp36
 70
     1
102
RTVSPost2010Prop37
 90
       50
102
RTVSPost2010PropOp37
 70
     1
102
RTVSPost2010Prop38
140
0.0
102
RTVSPost2010PropOp38
 70
     1
102
RTVSPost2010Prop39
140
1.0
102
RTVSPost2010PropOp39
 70
     1
102
RTVSPost2010Prop40
 90
        0
102
RTVSPost2010PropOp40
 70
     1
102
RTVSPost2010Prop41ColorIndex
 90
       18
102
RTVSPost2010Prop41ColorRGB
 90
        0
102
RTVSPost2010PropOp41
 70
     1
102
RTVSPost2010Prop42
 90
       50
102
RTVSPost2010PropOp42
 70
     1
102
RTVSPost2010Prop43
 90
        3
102
RTVSPost2010PropOp43
 70
     1
102
RTVSPost2010Prop44ColorIndex
 90
        5
102
RTVSPost2010Prop44ColorRGB
 90
      255
102
RTVSPost2010PropOp44
 70
     1
102
RTVSPost2010Prop45
280
     0
102
RTVSPost2010PropOp45
 70
     1
102
RTVSPost2010Prop46
 90
       50
102
RTVSPost2010PropOp46
 70
     1
102
RTVSPost2010Prop47
 90
       50
102
RTVSPost2010PropOp47
 70
     1
102
RTVSPost2010Prop48
 90
       50
102
RTVSPost2010PropOp48
 70
     1
102
RTVSPost2010Prop49
280
     0
102
RTVSPost2010PropOp49
 70
     1
102
RTVSPost2010Prop50
 90
       50
102
RTVSPost2010PropOp50
 70
     1
102
RTVSPost2010Prop51ColorIndex
 90
      256
102
RTVSPost2010Prop51ColorRGB
 90
-16777216
102
RTVSPost2010PropOp51
 70
     0
102
RTVSPost2010Prop52
140
1.0
102
RTVSPost2010PropOp52
 70
     0
102
RTVSPost2010Prop53
 90
        2
102
RTVSPost2010PropOp53
 70
     1
102
RTVSPost2010Prop54
  1
strokes_ogs.tif
102
RTVSPost2010PropOp54
 70
     1
102
RTVSPost2010Prop55
280
     0
102
RTVSPost2010PropOp55
 70
     1
102
RTVSPost2010Prop56
140
1.0
102
RTVSPost2010PropOp56
 70
     1
102
RTVSPost2010Prop57
140
1.0
102
RTVSPost2010PropOp57
 70
     1
  0
XRECORD
  5
262
102
{ACAD_REACTORS
330
261
102
}
330
261
100
AcDbXrecord
280
     1
102
RTVSPropertyOp0
 70
     1
102
RTVSPropertyOp1
 70
     1
102
RTVSPropertyOp2
 70
     1
102
RTVSPropertyOp3
 70
     1
102
RTVSPropertyOp4
 70
     1
102
RTVSPropertyOp5
 70
     1
102
RTVSPropertyOp6
 70
     1
102
RTVSPropertyOp7
 70
     1
102
RTVSPropertyOp8
 70
     1
102
RTVSPropertyOp9
 70
     1
102
RTVSPropertyOp10
 70
     1
102
RTVSPropertyOp11
 70
     1
102
RTVSPropertyOp12
 70
     1
102
RTVSPropertyOp13
 70
     1
102
RTVSPropertyOp14
 70
     1
102
RTVSPropertyOp15
 70
     1
102
RTVSPropertyOp16
 70
     1
102
RTVSPropertyOp17
 70
     1
102
RTVSPropertyOp18
 70
     1
102
RTVSPropertyOp19
 70
     1
102
RTVSPropertyOp20
 70
     1
102
RTVSPropertyOp21
 70
     1
102
RTVSPropertyOp22
 70
     1
102
RTVSPropertyOp23
 70
     1
102
RTVSPropertyOp24
 70
     1
102
RTVSPropertyOp25
 70
     1
102
RTVSPropertyOp26
 70
     1
102
RTVSPropertyOp27
 70
     1
102
RTVSPropertyOp28
 70
     1
102
RTVSPropertyOp29
 70
     1
102
RTVSPropertyOp30
 70
     1
102
RTVSPropertyOp31
 70
     1
102
RTVSPropertyOp32
 70
     1
102
RTVSPropertyOp33
 70
     1
102
RTVSPropertyOp34
 70
     1
102
RTVSPropertyOp35
 70
     1
102
RTVSPropertyOp36
 70
     1
102
RTVSPropertyOp37
 70
     1
102
RTVSPropertyOp38
 70
     1
102
RTVSPropertyOp39
 70
     1
102
RTVSPropertyOp40
 70
     1
102
RTVSPropertyOp41
 70
     1
102
RTVSPropertyOp42
 70
     1
102
RTVSPropertyOp43
 70
     1
102
RTVSPropertyOp44
 70
     1
102
RTVSPropertyOp45
 70
     1
102
RTVSPropertyOp46
 70
     1
102
RTVSPropertyOp47
 70
     1
102
RTVSPropertyOp48
 70
     1
102
RTVSPropertyOp49
 70
     1
102
RTVSPropertyOp50
 70
     1
102
RTVSPropertyOp51
 70
     0
102
RTVSPropertyOp52
 70
     0
102
RTVSPropertyOp53
 70
     1
102
RTVSPropertyOp54
 70
     1
102
RTVSPropertyOp55
 70
     1
102
RTVSPropertyOp56
 70
     1
102
RTVSPropertyOp57
 70
     1
102
RTVSPost2010Prop28
280
     0
102
RTVSPost2010PropOp28
 70
     1
102
RTVSPost2010Prop29
280
     1
102
RTVSPost2010PropOp29
 70
     1
102
RTVSPost2010Prop30
280
     1
102
RTVSPost2010PropOp30
 70
     1
102
RTVSPost2010Prop31
280
     0
102
RTVSPost2010PropOp31
 70
     1
102
RTVSPost2010Prop32
280
     0
102
RTVSPost2010PropOp32
 70
     1
102
RTVSPost2010Prop33
280
     0
102
RTVSPost2010PropOp33
 70
     1
102
RTVSPost2010Prop34
280
     0
102
RTVSPost2010PropOp34
 70
     1
102
RTVSPost2010Prop35
280
     0
102
RTVSPost2010PropOp35
 70
     1
102
RTVSPost2010Prop36
280
     0
102
RTVSPost2010PropOp36
 70
     1
102
RTVSPost2010Prop37
 90
       50
102
RTVSPost2010PropOp37
 70
     1
102
RTVSPost2010Prop38
140
0.0
102
RTVSPost2010PropOp38
 70
     1
102
RTVSPost2010Prop39
140
1.0
102
RTVSPost2010PropOp39
 70
     1
102
RTVSPost2010Prop40
 90
        0
102
RTVSPost2010PropOp40
 70
     1
102
RTVSPost2010Prop41ColorIndex
 90
       18
102
RTVSPost2010Prop41ColorRGB
 90
        0
102
RTVSPost2010PropOp41
 70
     1
102
RTVSPost2010Prop42
 90
       50
102
RTVSPost2010PropOp42
 70
     1
102
RTVSPost2010Prop43
 90
        3
102
RTVSPost2010PropOp43
 70
     1
102
RTVSPost2010Prop44ColorIndex
 90
        5
102
RTVSPost2010Prop44ColorRGB
 90
      255
102
RTVSPost2010PropOp44
 70
     1
102
RTVSPost2010Prop45
280
     0
102
RTVSPost2010PropOp45
 70
     1
102
RTVSPost2010Prop46
 90
       50
102
RTVSPost2010PropOp46
 70
     1
102
RTVSPost2010Prop47
 90
       50
102
RTVSPost2010PropOp47
 70
     1
102
RTVSPost2010Prop48
 90
       50
102
RTVSPost2010PropOp48
 70
     1
102
RTVSPost2010Prop49
280
     0
102
RTVSPost2010PropOp49
 70
     1
102
RTVSPost2010Prop50
 90
       50
102
RTVSPost2010PropOp50
 70
     1
102
RTVSPost2010Prop51ColorIndex
 90
      256
102
RTVSPost2010Prop51ColorRGB
 90
-16777216
102
RTVSPost2010PropOp51
 70
     0
102
RTVSPost2010Prop52
140
1.0
102
RTVSPost2010PropOp52
 70
     0
102
RTVSPost2010Prop53
 90
        2
102
RTVSPost2010PropOp53
 70
     1
102
RTVSPost2010Prop54
  1
strokes_ogs.tif
102
RTVSPost2010PropOp54
 70
     1
102
RTVSPost2010Prop55
280
     0
102
RTVSPost2010PropOp55
 70
     1
102
RTVSPost2010Prop56
140
1.0
102
RTVSPost2010PropOp56
 70
     1
102
RTVSPost2010Prop57
140
1.0
102
RTVSPost2010PropOp57
 70
     1
  0
XRECORD
  5
26A
102
{ACAD_REACTORS
330
269
102
}
330
269
100
AcDbXrecord
280
     1
102
RTVSPropertyOp0
 70
     1
102
RTVSPropertyOp1
 70
     1
102
RTVSPropertyOp2
 70
     1
102
RTVSPropertyOp3
 70
     1
102
RTVSPropertyOp4
 70
     1
102
RTVSPropertyOp5
 70
     1
102
RTVSPropertyOp6
 70
     1
102
RTVSPropertyOp7
 70
     1
102
RTVSPropertyOp8
 70
     1
102
RTVSPropertyOp9
 70
     1
102
RTVSPropertyOp10
 70
     1
102
RTVSPropertyOp11
 70
     1
102
RTVSPropertyOp12
 70
     1
102
RTVSPropertyOp13
 70
     1
102
RTVSPropertyOp14
 70
     1
102
RTVSPropertyOp15
 70
     1
102
RTVSPropertyOp16
 70
     1
102
RTVSPropertyOp17
 70
     1
102
RTVSPropertyOp18
 70
     1
102
RTVSPropertyOp19
 70
     1
102
RTVSPropertyOp20
 70
     1
102
RTVSPropertyOp21
 70
     1
102
RTVSPropertyOp22
 70
     1
102
RTVSPropertyOp23
 70
     1
102
RTVSPropertyOp24
 70
     1
102
RTVSPropertyOp25
 70
     1
102
RTVSPropertyOp26
 70
     1
102
RTVSPropertyOp27
 70
     1
102
RTVSPropertyOp28
 70
     1
102
RTVSPropertyOp29
 70
     1
102
RTVSPropertyOp30
 70
     1
102
RTVSPropertyOp31
 70
     1
102
RTVSPropertyOp32
 70
     1
102
RTVSPropertyOp33
 70
     1
102
RTVSPropertyOp34
 70
     1
102
RTVSPropertyOp35
 70
     1
102
RTVSPropertyOp36
 70
     1
102
RTVSPropertyOp37
 70
     1
102
RTVSPropertyOp38
 70
     1
102
RTVSPropertyOp39
 70
     1
102
RTVSPropertyOp40
 70
     1
102
RTVSPropertyOp41
 70
     1
102
RTVSPropertyOp42
 70
     1
102
RTVSPropertyOp43
 70
     1
102
RTVSPropertyOp44
 70
     1
102
RTVSPropertyOp45
 70
     1
102
RTVSPropertyOp46
 70
     1
102
RTVSPropertyOp47
 70
     1
102
RTVSPropertyOp48
 70
     1
102
RTVSPropertyOp49
 70
     1
102
RTVSPropertyOp50
 70
     1
102
RTVSPropertyOp51
 70
     0
102
RTVSPropertyOp52
 70
     0
102
RTVSPropertyOp53
 70
     1
102
RTVSPropertyOp54
 70
     1
102
RTVSPropertyOp55
 70
     1
102
RTVSPropertyOp56
 70
     1
102
RTVSPropertyOp57
 70
     1
102
RTVSPost2010Prop28
280
     0
102
RTVSPost2010PropOp28
 70
     1
102
RTVSPost2010Prop29
280
     1
102
RTVSPost2010PropOp29
 70
     1
102
RTVSPost2010Prop30
280
     1
102
RTVSPost2010PropOp30
 70
     1
102
RTVSPost2010Prop31
280
     0
102
RTVSPost2010PropOp31
 70
     1
102
RTVSPost2010Prop32
280
     0
102
RTVSPost2010PropOp32
 70
     1
102
RTVSPost2010Prop33
280
     0
102
RTVSPost2010PropOp33
 70
     1
102
RTVSPost2010Prop34
280
     0
102
RTVSPost2010PropOp34
 70
     1
102
RTVSPost2010Prop35
280
     0
102
RTVSPost2010PropOp35
 70
     1
102
RTVSPost2010Prop36
280
     0
102
RTVSPost2010PropOp36
 70
     1
102
RTVSPost2010Prop37
 90
       50
102
RTVSPost2010PropOp37
 70
     1
102
RTVSPost2010Prop38
140
0.0
102
RTVSPost2010PropOp38
 70
     1
102
RTVSPost2010Prop39
140
1.0
102
RTVSPost2010PropOp39
 70
     1
102
RTVSPost2010Prop40
 90
        0
102
RTVSPost2010PropOp40
 70
     1
102
RTVSPost2010Prop41ColorIndex
 90
       18
102
RTVSPost2010Prop41ColorRGB
 90
        0
102
RTVSPost2010PropOp41
 70
     1
102
RTVSPost2010Prop42
 90
       50
102
RTVSPost2010PropOp42
 70
     1
102
RTVSPost2010Prop43
 90
        3
102
RTVSPost2010PropOp43
 70
     1
102
RTVSPost2010Prop44ColorIndex
 90
        5
102
RTVSPost2010Prop44ColorRGB
 90
      255
102
RTVSPost2010PropOp44
 70
     1
102
RTVSPost2010Prop45
280
     0
102
RTVSPost2010PropOp45
 70
     1
102
RTVSPost2010Prop46
 90
       50
102
RTVSPost2010PropOp46
 70
     1
102
RTVSPost2010Prop47
 90
       50
102
RTVSPost2010PropOp47
 70
     1
102
RTVSPost2010Prop48
 90
       50
102
RTVSPost2010PropOp48
 70
     1
102
RTVSPost2010Prop49
280
     0
102
RTVSPost2010PropOp49
 70
     1
102
RTVSPost2010Prop50
 90
       50
102
RTVSPost2010PropOp50
 70
     1
102
RTVSPost2010Prop51ColorIndex
 90
      256
102
RTVSPost2010Prop51ColorRGB
 90
-16777216
102
RTVSPost2010PropOp51
 70
     0
102
RTVSPost2010Prop52
140
1.0
102
RTVSPost2010PropOp52
 70
     0
102
RTVSPost2010Prop53
 90
        2
102
RTVSPost2010PropOp53
 70
     1
102
RTVSPost2010Prop54
  1
strokes_ogs.tif
102
RTVSPost2010PropOp54
 70
     1
102
RTVSPost2010Prop55
280
     0
102
RTVSPost2010PropOp55
 70
     1
102
RTVSPost2010Prop56
140
1.0
102
RTVSPost2010PropOp56
 70
     1
102
RTVSPost2010Prop57
140
1.0
102
RTVSPost2010PropOp57
 70
     1
  0
XRECORD
  5
25E
102
{ACAD_REACTORS
330
25D
102
}
330
25D
100
AcDbXrecord
280
     1
102
RTVSPropertyOp0
 70
     1
102
RTVSPropertyOp1
 70
     1
102
RTVSPropertyOp2
 70
     1
102
RTVSPropertyOp3
 70
     1
102
RTVSPropertyOp4
 70
     1
102
RTVSPropertyOp5
 70
     1
102
RTVSPropertyOp6
 70
     1
102
RTVSPropertyOp7
 70
     1
102
RTVSPropertyOp8
 70
     1
102
RTVSPropertyOp9
 70
     1
102
RTVSPropertyOp10
 70
     1
102
RTVSPropertyOp11
 70
     1
102
RTVSPropertyOp12
 70
     1
102
RTVSPropertyOp13
 70
     1
102
RTVSPropertyOp14
 70
     1
102
RTVSPropertyOp15
 70
     1
102
RTVSPropertyOp16
 70
     1
102
RTVSPropertyOp17
 70
     1
102
RTVSPropertyOp18
 70
     1
102
RTVSPropertyOp19
 70
     1
102
RTVSPropertyOp20
 70
     1
102
RTVSPropertyOp21
 70
     1
102
RTVSPropertyOp22
 70
     1
102
RTVSPropertyOp23
 70
     1
102
RTVSPropertyOp24
 70
     1
102
RTVSPropertyOp25
 70
     1
102
RTVSPropertyOp26
 70
     1
102
RTVSPropertyOp27
 70
     1
102
RTVSPropertyOp28
 70
     1
102
RTVSPropertyOp29
 70
     1
102
RTVSPropertyOp30
 70
     1
102
RTVSPropertyOp31
 70
     1
102
RTVSPropertyOp32
 70
     1
102
RTVSPropertyOp33
 70
     1
102
RTVSPropertyOp34
 70
     1
102
RTVSPropertyOp35
 70
     1
102
RTVSPropertyOp36
 70
     1
102
RTVSPropertyOp37
 70
     1
102
RTVSPropertyOp38
 70
     1
102
RTVSPropertyOp39
 70
     1
102
RTVSPropertyOp40
 70
     1
102
RTVSPropertyOp41
 70
     1
102
RTVSPropertyOp42
 70
     1
102
RTVSPropertyOp43
 70
     1
102
RTVSPropertyOp44
 70
     1
102
RTVSPropertyOp45
 70
     1
102
RTVSPropertyOp46
 70
     1
102
RTVSPropertyOp47
 70
     1
102
RTVSPropertyOp48
 70
     1
102
RTVSPropertyOp49
 70
     1
102
RTVSPropertyOp50
 70
     1
102
RTVSPropertyOp51
 70
     0
102
RTVSPropertyOp52
 70
     0
102
RTVSPropertyOp53
 70
     1
102
RTVSPropertyOp54
 70
     1
102
RTVSPropertyOp55
 70
     1
102
RTVSPropertyOp56
 70
     1
102
RTVSPropertyOp57
 70
     1
102
RTVSPost2010Prop28
280
     0
102
RTVSPost2010PropOp28
 70
     1
102
RTVSPost2010Prop29
280
     1
102
RTVSPost2010PropOp29
 70
     1
102
RTVSPost2010Prop30
280
     1
102
RTVSPost2010PropOp30
 70
     1
102
RTVSPost2010Prop31
280
     0
102
RTVSPost2010PropOp31
 70
     1
102
RTVSPost2010Prop32
280
     0
102
RTVSPost2010PropOp32
 70
     1
102
RTVSPost2010Prop33
280
     0
102
RTVSPost2010PropOp33
 70
     1
102
RTVSPost2010Prop34
280
     0
102
RTVSPost2010PropOp34
 70
     1
102
RTVSPost2010Prop35
280
     0
102
RTVSPost2010PropOp35
 70
     1
102
RTVSPost2010Prop36
280
     0
102
RTVSPost2010PropOp36
 70
     1
102
RTVSPost2010Prop37
 90
       50
102
RTVSPost2010PropOp37
 70
     1
102
RTVSPost2010Prop38
140
0.0
102
RTVSPost2010PropOp38
 70
     1
102
RTVSPost2010Prop39
140
1.0
102
RTVSPost2010PropOp39
 70
     1
102
RTVSPost2010Prop40
 90
        0
102
RTVSPost2010PropOp40
 70
     1
102
RTVSPost2010Prop41ColorIndex
 90
       18
102
RTVSPost2010Prop41ColorRGB
 90
        0
102
RTVSPost2010PropOp41
 70
     1
102
RTVSPost2010Prop42
 90
       50
102
RTVSPost2010PropOp42
 70
     1
102
RTVSPost2010Prop43
 90
        3
102
RTVSPost2010PropOp43
 70
     1
102
RTVSPost2010Prop44ColorIndex
 90
        5
102
RTVSPost2010Prop44ColorRGB
 90
      255
102
RTVSPost2010PropOp44
 70
     1
102
RTVSPost2010Prop45
280
     0
102
RTVSPost2010PropOp45
 70
     1
102
RTVSPost2010Prop46
 90
       50
102
RTVSPost2010PropOp46
 70
     1
102
RTVSPost2010Prop47
 90
       50
102
RTVSPost2010PropOp47
 70
     1
102
RTVSPost2010Prop48
 90
       50
102
RTVSPost2010PropOp48
 70
     1
102
RTVSPost2010Prop49
280
     0
102
RTVSPost2010PropOp49
 70
     1
102
RTVSPost2010Prop50
 90
       50
102
RTVSPost2010PropOp50
 70
     1
102
RTVSPost2010Prop51ColorIndex
 90
      256
102
RTVSPost2010Prop51ColorRGB
 90
-16777216
102
RTVSPost2010PropOp51
 70
     0
102
RTVSPost2010Prop52
140
1.0
102
RTVSPost2010PropOp52
 70
     0
102
RTVSPost2010Prop53
 90
        2
102
RTVSPost2010PropOp53
 70
     1
102
RTVSPost2010Prop54
  1
strokes_ogs.tif
102
RTVSPost2010PropOp54
 70
     1
102
RTVSPost2010Prop55
280
     0
102
RTVSPost2010PropOp55
 70
     1
102
RTVSPost2010Prop56
140
1.0
102
RTVSPost2010PropOp56
 70
     1
102
RTVSPost2010Prop57
140
1.0
102
RTVSPost2010PropOp57
 70
     1
  0
XRECORD
  5
260
102
{ACAD_REACTORS
330
25F
102
}
330
25F
100
AcDbXrecord
280
     1
102
RTVSPropertyOp0
 70
     1
102
RTVSPropertyOp1
 70
     1
102
RTVSPropertyOp2
 70
     1
102
RTVSPropertyOp3
 70
     1
102
RTVSPropertyOp4
 70
     1
102
RTVSPropertyOp5
 70
     1
102
RTVSPropertyOp6
 70
     1
102
RTVSPropertyOp7
 70
     1
102
RTVSPropertyOp8
 70
     1
102
RTVSPropertyOp9
 70
     1
102
RTVSPropertyOp10
 70
     1
102
RTVSPropertyOp11
 70
     1
102
RTVSPropertyOp12
 70
     1
102
RTVSPropertyOp13
 70
     1
102
RTVSPropertyOp14
 70
     1
102
RTVSPropertyOp15
 70
     1
102
RTVSPropertyOp16
 70
     1
102
RTVSPropertyOp17
 70
     1
102
RTVSPropertyOp18
 70
     1
102
RTVSPropertyOp19
 70
     1
102
RTVSPropertyOp20
 70
     1
102
RTVSPropertyOp21
 70
     1
102
RTVSPropertyOp22
 70
     1
102
RTVSPropertyOp23
 70
     1
102
RTVSPropertyOp24
 70
     1
102
RTVSPropertyOp25
 70
     1
102
RTVSPropertyOp26
 70
     1
102
RTVSPropertyOp27
 70
     1
102
RTVSPropertyOp28
 70
     1
102
RTVSPropertyOp29
 70
     1
102
RTVSPropertyOp30
 70
     1
102
RTVSPropertyOp31
 70
     1
102
RTVSPropertyOp32
 70
     1
102
RTVSPropertyOp33
 70
     1
102
RTVSPropertyOp34
 70
     1
102
RTVSPropertyOp35
 70
     1
102
RTVSPropertyOp36
 70
     1
102
RTVSPropertyOp37
 70
     1
102
RTVSPropertyOp38
 70
     1
102
RTVSPropertyOp39
 70
     1
102
RTVSPropertyOp40
 70
     1
102
RTVSPropertyOp41
 70
     1
102
RTVSPropertyOp42
 70
     1
102
RTVSPropertyOp43
 70
     1
102
RTVSPropertyOp44
 70
     1
102
RTVSPropertyOp45
 70
     1
102
RTVSPropertyOp46
 70
     1
102
RTVSPropertyOp47
 70
     1
102
RTVSPropertyOp48
 70
     1
102
RTVSPropertyOp49
 70
     1
102
RTVSPropertyOp50
 70
     1
102
RTVSPropertyOp51
 70
     0
102
RTVSPropertyOp52
 70
     0
102
RTVSPropertyOp53
 70
     1
102
RTVSPropertyOp54
 70
     1
102
RTVSPropertyOp55
 70
     1
102
RTVSPropertyOp56
 70
     1
102
RTVSPropertyOp57
 70
     1
102
RTVSPost2010Prop28
280
     0
102
RTVSPost2010PropOp28
 70
     1
102
RTVSPost2010Prop29
280
     1
102
RTVSPost2010PropOp29
 70
     1
102
RTVSPost2010Prop30
280
     1
102
RTVSPost2010PropOp30
 70
     1
102
RTVSPost2010Prop31
280
     0
102
RTVSPost2010PropOp31
 70
     1
102
RTVSPost2010Prop32
280
     0
102
RTVSPost2010PropOp32
 70
     1
102
RTVSPost2010Prop33
280
     0
102
RTVSPost2010PropOp33
 70
     1
102
RTVSPost2010Prop34
280
     0
102
RTVSPost2010PropOp34
 70
     1
102
RTVSPost2010Prop35
280
     0
102
RTVSPost2010PropOp35
 70
     1
102
RTVSPost2010Prop36
280
     0
102
RTVSPost2010PropOp36
 70
     1
102
RTVSPost2010Prop37
 90
       50
102
RTVSPost2010PropOp37
 70
     1
102
RTVSPost2010Prop38
140
0.0
102
RTVSPost2010PropOp38
 70
     1
102
RTVSPost2010Prop39
140
1.0
102
RTVSPost2010PropOp39
 70
     1
102
RTVSPost2010Prop40
 90
        0
102
RTVSPost2010PropOp40
 70
     1
102
RTVSPost2010Prop41ColorIndex
 90
       18
102
RTVSPost2010Prop41ColorRGB
 90
        0
102
RTVSPost2010PropOp41
 70
     1
102
RTVSPost2010Prop42
 90
       50
102
RTVSPost2010PropOp42
 70
     1
102
RTVSPost2010Prop43
 90
        3
102
RTVSPost2010PropOp43
 70
     1
102
RTVSPost2010Prop44ColorIndex
 90
        5
102
RTVSPost2010Prop44ColorRGB
 90
      255
102
RTVSPost2010PropOp44
 70
     1
102
RTVSPost2010Prop45
280
     0
102
RTVSPost2010PropOp45
 70
     1
102
RTVSPost2010Prop46
 90
       50
102
RTVSPost2010PropOp46
 70
     1
102
RTVSPost2010Prop47
 90
       50
102
RTVSPost2010PropOp47
 70
     1
102
RTVSPost2010Prop48
 90
       50
102
RTVSPost2010PropOp48
 70
     1
102
RTVSPost2010Prop49
280
     0
102
RTVSPost2010PropOp49
 70
     1
102
RTVSPost2010Prop50
 90
       50
102
RTVSPost2010PropOp50
 70
     1
102
RTVSPost2010Prop51ColorIndex
 90
      256
102
RTVSPost2010Prop51ColorRGB
 90
-16777216
102
RTVSPost2010PropOp51
 70
     0
102
RTVSPost2010Prop52
140
1.0
102
RTVSPost2010PropOp52
 70
     0
102
RTVSPost2010Prop53
 90
        2
102
RTVSPost2010PropOp53
 70
     1
102
RTVSPost2010Prop54
  1
strokes_ogs.tif
102
RTVSPost2010PropOp54
 70
     1
102
RTVSPost2010Prop55
280
     0
102
RTVSPost2010PropOp55
 70
     1
102
RTVSPost2010Prop56
140
1.0
102
RTVSPost2010PropOp56
 70
     1
102
RTVSPost2010Prop57
140
1.0
102
RTVSPost2010PropOp57
 70
     1
  0
XRECORD
  5
270
102
{ACAD_REACTORS
330
26F
102
}
330
26F
100
AcDbXrecord
280
     1
102
RTVSPropertyOp0
 70
     0
102
RTVSPropertyOp1
 70
     0
102
RTVSPropertyOp2
 70
     0
102
RTVSPropertyOp3
 70
     0
102
RTVSPropertyOp4
 70
     0
102
RTVSPropertyOp5
 70
     0
102
RTVSPropertyOp6
 70
     0
102
RTVSPropertyOp7
 70
     0
102
RTVSPropertyOp8
 70
     0
102
RTVSPropertyOp9
 70
     0
102
RTVSPropertyOp10
 70
     0
102
RTVSPropertyOp11
 70
     0
102
RTVSPropertyOp12
 70
     0
102
RTVSPropertyOp13
 70
     0
102
RTVSPropertyOp14
 70
     2
102
RTVSPropertyOp15
 70
     0
102
RTVSPropertyOp16
 70
     0
102
RTVSPropertyOp17
 70
     0
102
RTVSPropertyOp18
 70
     0
102
RTVSPropertyOp19
 70
     0
102
RTVSPropertyOp20
 70
     0
102
RTVSPropertyOp21
 70
     0
102
RTVSPropertyOp22
 70
     0
102
RTVSPropertyOp23
 70
     0
102
RTVSPropertyOp24
 70
     0
102
RTVSPropertyOp25
 70
     0
102
RTVSPropertyOp26
 70
     0
102
RTVSPropertyOp27
 70
     0
102
RTVSPropertyOp28
 70
     0
102
RTVSPropertyOp29
 70
     0
102
RTVSPropertyOp30
 70
     0
102
RTVSPropertyOp31
 70
     0
102
RTVSPropertyOp32
 70
     0
102
RTVSPropertyOp33
 70
     0
102
RTVSPropertyOp34
 70
     0
102
RTVSPropertyOp35
 70
     0
102
RTVSPropertyOp36
 70
     0
102
RTVSPropertyOp37
 70
     0
102
RTVSPropertyOp38
 70
     0
102
RTVSPropertyOp39
 70
     0
102
RTVSPropertyOp40
 70
     0
102
RTVSPropertyOp41
 70
     0
102
RTVSPropertyOp42
 70
     0
102
RTVSPropertyOp43
 70
     0
102
RTVSPropertyOp44
 70
     0
102
RTVSPropertyOp45
 70
     0
102
RTVSPropertyOp46
 70
     0
102
RTVSPropertyOp47
 70
     0
102
RTVSPropertyOp48
 70
     0
102
RTVSPropertyOp49
 70
     0
102
RTVSPropertyOp50
 70
     0
102
RTVSPropertyOp51
 70
     0
102
RTVSPropertyOp52
 70
     0
102
RTVSPropertyOp53
 70
     0
102
RTVSPropertyOp54
 70
     0
102
RTVSPropertyOp55
 70
     0
102
RTVSPropertyOp56
 70
     0
102
RTVSPropertyOp57
 70
     0
102
RTVSPost2010Prop28
280
     0
102
RTVSPost2010PropOp28
 70
     0
102
RTVSPost2010Prop29
280
     1
102
RTVSPost2010PropOp29
 70
     0
102
RTVSPost2010Prop30
280
     1
102
RTVSPost2010PropOp30
 70
     0
102
RTVSPost2010Prop31
280
     0
102
RTVSPost2010PropOp31
 70
     0
102
RTVSPost2010Prop32
280
     0
102
RTVSPost2010PropOp32
 70
     0
102
RTVSPost2010Prop33
280
     0
102
RTVSPost2010PropOp33
 70
     0
102
RTVSPost2010Prop34
280
     0
102
RTVSPost2010PropOp34
 70
     0
102
RTVSPost2010Prop35
280
     0
102
RTVSPost2010PropOp35
 70
     0
102
RTVSPost2010Prop36
280
     0
102
RTVSPost2010PropOp36
 70
     0
102
RTVSPost2010Prop37
 90
       50
102
RTVSPost2010PropOp37
 70
     0
102
RTVSPost2010Prop38
140
0.0
102
RTVSPost2010PropOp38
 70
     0
102
RTVSPost2010Prop39
140
1.0
102
RTVSPost2010PropOp39
 70
     0
102
RTVSPost2010Prop40
 90
        0
102
RTVSPost2010PropOp40
 70
     0
102
RTVSPost2010Prop41ColorIndex
 90
       18
102
RTVSPost2010Prop41ColorRGB
 90
        0
102
RTVSPost2010PropOp41
 70
     0
102
RTVSPost2010Prop42
 90
       50
102
RTVSPost2010PropOp42
 70
     0
102
RTVSPost2010Prop43
 90
        3
102
RTVSPost2010PropOp43
 70
     0
102
RTVSPost2010Prop44ColorIndex
 90
        5
102
RTVSPost2010Prop44ColorRGB
 90
      255
102
RTVSPost2010PropOp44
 70
     0
102
RTVSPost2010Prop45
280
     0
102
RTVSPost2010PropOp45
 70
     0
102
RTVSPost2010Prop46
 90
       50
102
RTVSPost2010PropOp46
 70
     0
102
RTVSPost2010Prop47
 90
       50
102
RTVSPost2010PropOp47
 70
     0
102
RTVSPost2010Prop48
 90
       50
102
RTVSPost2010PropOp48
 70
     0
102
RTVSPost2010Prop49
280
     0
102
RTVSPost2010PropOp49
 70
     0
102
RTVSPost2010Prop50
 90
       50
102
RTVSPost2010PropOp50
 70
     0
102
RTVSPost2010Prop51ColorIndex
 90
      256
102
RTVSPost2010Prop51ColorRGB
 90
-16777216
102
RTVSPost2010PropOp51
 70
     0
102
RTVSPost2010Prop52
140
1.0
102
RTVSPost2010PropOp52
 70
     0
102
RTVSPost2010Prop53
 90
        2
102
RTVSPost2010PropOp53
 70
     0
102
RTVSPost2010Prop54
  1
strokes_ogs.tif
102
RTVSPost2010PropOp54
 70
     0
102
RTVSPost2010Prop55
280
     0
102
RTVSPost2010PropOp55
 70
     0
102
RTVSPost2010Prop56
140
1.0
102
RTVSPost2010PropOp56
 70
     0
102
RTVSPost2010Prop57
140
1.0
102
RTVSPost2010PropOp57
 70
     0
  0
XRECORD
  5
268
102
{ACAD_REACTORS
330
267
102
}
330
267
100
AcDbXrecord
280
     1
102
RTVSPropertyOp0
 70
     1
102
RTVSPropertyOp1
 70
     1
102
RTVSPropertyOp2
 70
     1
102
RTVSPropertyOp3
 70
     1
102
RTVSPropertyOp4
 70
     1
102
RTVSPropertyOp5
 70
     1
102
RTVSPropertyOp6
 70
     1
102
RTVSPropertyOp7
 70
     1
102
RTVSPropertyOp8
 70
     1
102
RTVSPropertyOp9
 70
     1
102
RTVSPropertyOp10
 70
     1
102
RTVSPropertyOp11
 70
     1
102
RTVSPropertyOp12
 70
     1
102
RTVSPropertyOp13
 70
     1
102
RTVSPropertyOp14
 70
     1
102
RTVSPropertyOp15
 70
     1
102
RTVSPropertyOp16
 70
     1
102
RTVSPropertyOp17
 70
     1
102
RTVSPropertyOp18
 70
     1
102
RTVSPropertyOp19
 70
     1
102
RTVSPropertyOp20
 70
     1
102
RTVSPropertyOp21
 70
     1
102
RTVSPropertyOp22
 70
     1
102
RTVSPropertyOp23
 70
     1
102
RTVSPropertyOp24
 70
     1
102
RTVSPropertyOp25
 70
     1
102
RTVSPropertyOp26
 70
     1
102
RTVSPropertyOp27
 70
     1
102
RTVSPropertyOp28
 70
     1
102
RTVSPropertyOp29
 70
     1
102
RTVSPropertyOp30
 70
     1
102
RTVSPropertyOp31
 70
     1
102
RTVSPropertyOp32
 70
     1
102
RTVSPropertyOp33
 70
     1
102
RTVSPropertyOp34
 70
     1
102
RTVSPropertyOp35
 70
     1
102
RTVSPropertyOp36
 70
     1
102
RTVSPropertyOp37
 70
     1
102
RTVSPropertyOp38
 70
     1
102
RTVSPropertyOp39
 70
     1
102
RTVSPropertyOp40
 70
     1
102
RTVSPropertyOp41
 70
     1
102
RTVSPropertyOp42
 70
     1
102
RTVSPropertyOp43
 70
     1
102
RTVSPropertyOp44
 70
     1
102
RTVSPropertyOp45
 70
     1
102
RTVSPropertyOp46
 70
     1
102
RTVSPropertyOp47
 70
     1
102
RTVSPropertyOp48
 70
     1
102
RTVSPropertyOp49
 70
     1
102
RTVSPropertyOp50
 70
     1
102
RTVSPropertyOp51
 70
     0
102
RTVSPropertyOp52
 70
     0
102
RTVSPropertyOp53
 70
     1
102
RTVSPropertyOp54
 70
     1
102
RTVSPropertyOp55
 70
     1
102
RTVSPropertyOp56
 70
     1
102
RTVSPropertyOp57
 70
     1
102
RTVSPost2010Prop28
280
     0
102
RTVSPost2010PropOp28
 70
     1
102
RTVSPost2010Prop29
280
     1
102
RTVSPost2010PropOp29
 70
     1
102
RTVSPost2010Prop30
280
     1
102
RTVSPost2010PropOp30
 70
     1
102
RTVSPost2010Prop31
280
     0
102
RTVSPost2010PropOp31
 70
     1
102
RTVSPost2010Prop32
280
     0
102
RTVSPost2010PropOp32
 70
     1
102
RTVSPost2010Prop33
280
     0
102
RTVSPost2010PropOp33
 70
     1
102
RTVSPost2010Prop34
280
     0
102
RTVSPost2010PropOp34
 70
     1
102
RTVSPost2010Prop35
280
     0
102
RTVSPost2010PropOp35
 70
     1
102
RTVSPost2010Prop36
280
     0
102
RTVSPost2010PropOp36
 70
     1
102
RTVSPost2010Prop37
 90
       50
102
RTVSPost2010PropOp37
 70
     1
102
RTVSPost2010Prop38
140
0.0
102
RTVSPost2010PropOp38
 70
     1
102
RTVSPost2010Prop39
140
1.0
102
RTVSPost2010PropOp39
 70
     1
102
RTVSPost2010Prop40
 90
        0
102
RTVSPost2010PropOp40
 70
     1
102
RTVSPost2010Prop41ColorIndex
 90
       18
102
RTVSPost2010Prop41ColorRGB
 90
        0
102
RTVSPost2010PropOp41
 70
     1
102
RTVSPost2010Prop42
 90
       50
102
RTVSPost2010PropOp42
 70
     1
102
RTVSPost2010Prop43
 90
        3
102
RTVSPost2010PropOp43
 70
     1
102
RTVSPost2010Prop44ColorIndex
 90
        5
102
RTVSPost2010Prop44ColorRGB
 90
      255
102
RTVSPost2010PropOp44
 70
     1
102
RTVSPost2010Prop45
280
     0
102
RTVSPost2010PropOp45
 70
     1
102
RTVSPost2010Prop46
 90
       50
102
RTVSPost2010PropOp46
 70
     1
102
RTVSPost2010Prop47
 90
       50
102
RTVSPost2010PropOp47
 70
     1
102
RTVSPost2010Prop48
 90
       50
102
RTVSPost2010PropOp48
 70
     1
102
RTVSPost2010Prop49
280
     0
102
RTVSPost2010PropOp49
 70
     1
102
RTVSPost2010Prop50
 90
       50
102
RTVSPost2010PropOp50
 70
     1
102
RTVSPost2010Prop51ColorIndex
 90
      256
102
RTVSPost2010Prop51ColorRGB
 90
-16777216
102
RTVSPost2010PropOp51
 70
     0
102
RTVSPost2010Prop52
140
1.0
102
RTVSPost2010PropOp52
 70
     0
102
RTVSPost2010Prop53
 90
        2
102
RTVSPost2010PropOp53
 70
     1
102
RTVSPost2010Prop54
  1
strokes_ogs.tif
102
RTVSPost2010PropOp54
 70
     1
102
RTVSPost2010Prop55
280
     0
102
RTVSPost2010PropOp55
 70
     1
102
RTVSPost2010Prop56
140
1.0
102
RTVSPost2010PropOp56
 70
     1
102
RTVSPost2010Prop57
140
1.0
102
RTVSPost2010PropOp57
 70
     1
  0
XRECORD
  5
24C
102
{ACAD_REACTORS
330
24B
102
}
330
24B
100
AcDbXrecord
280
     1
102
RTVSPropertyOp0
 70
     1
102
RTVSPropertyOp1
 70
     1
102
RTVSPropertyOp2
 70
     1
102
RTVSPropertyOp3
 70
     1
102
RTVSPropertyOp4
 70
     1
102
RTVSPropertyOp5
 70
     1
102
RTVSPropertyOp6
 70
     1
102
RTVSPropertyOp7
 70
     1
102
RTVSPropertyOp8
 70
     1
102
RTVSPropertyOp9
 70
     1
102
RTVSPropertyOp10
 70
     1
102
RTVSPropertyOp11
 70
     1
102
RTVSPropertyOp12
 70
     1
102
RTVSPropertyOp13
 70
     1
102
RTVSPropertyOp14
 70
     1
102
RTVSPropertyOp15
 70
     1
102
RTVSPropertyOp16
 70
     1
102
RTVSPropertyOp17
 70
     1
102
RTVSPropertyOp18
 70
     1
102
RTVSPropertyOp19
 70
     1
102
RTVSPropertyOp20
 70
     1
102
RTVSPropertyOp21
 70
     1
102
RTVSPropertyOp22
 70
     1
102
RTVSPropertyOp23
 70
     1
102
RTVSPropertyOp24
 70
     1
102
RTVSPropertyOp25
 70
     1
102
RTVSPropertyOp26
 70
     1
102
RTVSPropertyOp27
 70
     1
102
RTVSPropertyOp28
 70
     1
102
RTVSPropertyOp29
 70
     1
102
RTVSPropertyOp30
 70
     1
102
RTVSPropertyOp31
 70
     1
102
RTVSPropertyOp32
 70
     1
102
RTVSPropertyOp33
 70
     1
102
RTVSPropertyOp34
 70
     1
102
RTVSPropertyOp35
 70
     1
102
RTVSPropertyOp36
 70
     1
102
RTVSPropertyOp37
 70
     1
102
RTVSPropertyOp38
 70
     1
102
RTVSPropertyOp39
 70
     1
102
RTVSPropertyOp40
 70
     1
102
RTVSPropertyOp41
 70
     1
102
RTVSPropertyOp42
 70
     1
102
RTVSPropertyOp43
 70
     1
102
RTVSPropertyOp44
 70
     1
102
RTVSPropertyOp45
 70
     1
102
RTVSPropertyOp46
 70
     1
102
RTVSPropertyOp47
 70
     1
102
RTVSPropertyOp48
 70
     1
102
RTVSPropertyOp49
 70
     1
102
RTVSPropertyOp50
 70
     1
102
RTVSPropertyOp51
 70
     0
102
RTVSPropertyOp52
 70
     0
102
RTVSPropertyOp53
 70
     1
102
RTVSPropertyOp54
 70
     1
102
RTVSPropertyOp55
 70
     1
102
RTVSPropertyOp56
 70
     1
102
RTVSPropertyOp57
 70
     1
102
RTVSPost2010Prop28
280
     0
102
RTVSPost2010PropOp28
 70
     1
102
RTVSPost2010Prop29
280
     1
102
RTVSPost2010PropOp29
 70
     1
102
RTVSPost2010Prop30
280
     1
102
RTVSPost2010PropOp30
 70
     1
102
RTVSPost2010Prop31
280
     0
102
RTVSPost2010PropOp31
 70
     1
102
RTVSPost2010Prop32
280
     0
102
RTVSPost2010PropOp32
 70
     1
102
RTVSPost2010Prop33
280
     0
102
RTVSPost2010PropOp33
 70
     1
102
RTVSPost2010Prop34
280
     0
102
RTVSPost2010PropOp34
 70
     1
102
RTVSPost2010Prop35
280
     0
102
RTVSPost2010PropOp35
 70
     1
102
RTVSPost2010Prop36
280
     0
102
RTVSPost2010PropOp36
 70
     1
102
RTVSPost2010Prop37
 90
       50
102
RTVSPost2010PropOp37
 70
     1
102
RTVSPost2010Prop38
140
0.0
102
RTVSPost2010PropOp38
 70
     1
102
RTVSPost2010Prop39
140
1.0
102
RTVSPost2010PropOp39
 70
     1
102
RTVSPost2010Prop40
 90
        0
102
RTVSPost2010PropOp40
 70
     1
102
RTVSPost2010Prop41ColorIndex
 90
       18
102
RTVSPost2010Prop41ColorRGB
 90
        0
102
RTVSPost2010PropOp41
 70
     1
102
RTVSPost2010Prop42
 90
       50
102
RTVSPost2010PropOp42
 70
     1
102
RTVSPost2010Prop43
 90
        3
102
RTVSPost2010PropOp43
 70
     1
102
RTVSPost2010Prop44ColorIndex
 90
        5
102
RTVSPost2010Prop44ColorRGB
 90
      255
102
RTVSPost2010PropOp44
 70
     1
102
RTVSPost2010Prop45
280
     0
102
RTVSPost2010PropOp45
 70
     1
102
RTVSPost2010Prop46
 90
       50
102
RTVSPost2010PropOp46
 70
     1
102
RTVSPost2010Prop47
 90
       50
102
RTVSPost2010PropOp47
 70
     1
102
RTVSPost2010Prop48
 90
       50
102
RTVSPost2010PropOp48
 70
     1
102
RTVSPost2010Prop49
280
     0
102
RTVSPost2010PropOp49
 70
     1
102
RTVSPost2010Prop50
 90
       50
102
RTVSPost2010PropOp50
 70
     1
102
RTVSPost2010Prop51ColorIndex
 90
      256
102
RTVSPost2010Prop51ColorRGB
 90
-16777216
102
RTVSPost2010PropOp51
 70
     0
102
RTVSPost2010Prop52
140
1.0
102
RTVSPost2010PropOp52
 70
     0
102
RTVSPost2010Prop53
 90
        2
102
RTVSPost2010PropOp53
 70
     1
102
RTVSPost2010Prop54
  1
strokes_ogs.tif
102
RTVSPost2010PropOp54
 70
     1
102
RTVSPost2010Prop55
280
     0
102
RTVSPost2010PropOp55
 70
     1
102
RTVSPost2010Prop56
140
1.0
102
RTVSPost2010PropOp56
 70
     1
102
RTVSPost2010Prop57
140
1.0
102
RTVSPost2010PropOp57
 70
     1
  0
XRECORD
  5
24E
102
{ACAD_REACTORS
330
24D
102
}
330
24D
100
AcDbXrecord
280
     1
102
RTVSPropertyOp0
 70
     1
102
RTVSPropertyOp1
 70
     1
102
RTVSPropertyOp2
 70
     1
102
RTVSPropertyOp3
 70
     1
102
RTVSPropertyOp4
 70
     1
102
RTVSPropertyOp5
 70
     1
102
RTVSPropertyOp6
 70
     1
102
RTVSPropertyOp7
 70
     1
102
RTVSPropertyOp8
 70
     1
102
RTVSPropertyOp9
 70
     1
102
RTVSPropertyOp10
 70
     1
102
RTVSPropertyOp11
 70
     1
102
RTVSPropertyOp12
 70
     1
102
RTVSPropertyOp13
 70
     1
102
RTVSPropertyOp14
 70
     1
102
RTVSPropertyOp15
 70
     1
102
RTVSPropertyOp16
 70
     1
102
RTVSPropertyOp17
 70
     1
102
RTVSPropertyOp18
 70
     1
102
RTVSPropertyOp19
 70
     1
102
RTVSPropertyOp20
 70
     1
102
RTVSPropertyOp21
 70
     1
102
RTVSPropertyOp22
 70
     1
102
RTVSPropertyOp23
 70
     1
102
RTVSPropertyOp24
 70
     1
102
RTVSPropertyOp25
 70
     1
102
RTVSPropertyOp26
 70
     1
102
RTVSPropertyOp27
 70
     1
102
RTVSPropertyOp28
 70
     1
102
RTVSPropertyOp29
 70
     1
102
RTVSPropertyOp30
 70
     1
102
RTVSPropertyOp31
 70
     1
102
RTVSPropertyOp32
 70
     1
102
RTVSPropertyOp33
 70
     1
102
RTVSPropertyOp34
 70
     1
102
RTVSPropertyOp35
 70
     1
102
RTVSPropertyOp36
 70
     1
102
RTVSPropertyOp37
 70
     1
102
RTVSPropertyOp38
 70
     1
102
RTVSPropertyOp39
 70
     1
102
RTVSPropertyOp40
 70
     1
102
RTVSPropertyOp41
 70
     1
102
RTVSPropertyOp42
 70
     1
102
RTVSPropertyOp43
 70
     1
102
RTVSPropertyOp44
 70
     1
102
RTVSPropertyOp45
 70
     1
102
RTVSPropertyOp46
 70
     1
102
RTVSPropertyOp47
 70
     1
102
RTVSPropertyOp48
 70
     1
102
RTVSPropertyOp49
 70
     1
102
RTVSPropertyOp50
 70
     1
102
RTVSPropertyOp51
 70
     0
102
RTVSPropertyOp52
 70
     0
102
RTVSPropertyOp53
 70
     1
102
RTVSPropertyOp54
 70
     1
102
RTVSPropertyOp55
 70
     1
102
RTVSPropertyOp56
 70
     1
102
RTVSPropertyOp57
 70
     1
102
RTVSPost2010Prop28
280
     0
102
RTVSPost2010PropOp28
 70
     1
102
RTVSPost2010Prop29
280
     1
102
RTVSPost2010PropOp29
 70
     1
102
RTVSPost2010Prop30
280
     1
102
RTVSPost2010PropOp30
 70
     1
102
RTVSPost2010Prop31
280
     0
102
RTVSPost2010PropOp31
 70
     1
102
RTVSPost2010Prop32
280
     0
102
RTVSPost2010PropOp32
 70
     1
102
RTVSPost2010Prop33
280
     0
102
RTVSPost2010PropOp33
 70
     1
102
RTVSPost2010Prop34
280
     0
102
RTVSPost2010PropOp34
 70
     1
102
RTVSPost2010Prop35
280
     0
102
RTVSPost2010PropOp35
 70
     1
102
RTVSPost2010Prop36
280
     0
102
RTVSPost2010PropOp36
 70
     1
102
RTVSPost2010Prop37
 90
       50
102
RTVSPost2010PropOp37
 70
     1
102
RTVSPost2010Prop38
140
0.0
102
RTVSPost2010PropOp38
 70
     1
102
RTVSPost2010Prop39
140
1.0
102
RTVSPost2010PropOp39
 70
     1
102
RTVSPost2010Prop40
 90
        0
102
RTVSPost2010PropOp40
 70
     1
102
RTVSPost2010Prop41ColorIndex
 90
       18
102
RTVSPost2010Prop41ColorRGB
 90
        0
102
RTVSPost2010PropOp41
 70
     1
102
RTVSPost2010Prop42
 90
       50
102
RTVSPost2010PropOp42
 70
     1
102
RTVSPost2010Prop43
 90
        3
102
RTVSPost2010PropOp43
 70
     1
102
RTVSPost2010Prop44ColorIndex
 90
        5
102
RTVSPost2010Prop44ColorRGB
 90
      255
102
RTVSPost2010PropOp44
 70
     1
102
RTVSPost2010Prop45
280
     0
102
RTVSPost2010PropOp45
 70
     1
102
RTVSPost2010Prop46
 90
       50
102
RTVSPost2010PropOp46
 70
     1
102
RTVSPost2010Prop47
 90
       50
102
RTVSPost2010PropOp47
 70
     1
102
RTVSPost2010Prop48
 90
       50
102
RTVSPost2010PropOp48
 70
     1
102
RTVSPost2010Prop49
280
     0
102
RTVSPost2010PropOp49
 70
     1
102
RTVSPost2010Prop50
 90
       50
102
RTVSPost2010PropOp50
 70
     1
102
RTVSPost2010Prop51ColorIndex
 90
      256
102
RTVSPost2010Prop51ColorRGB
 90
-16777216
102
RTVSPost2010PropOp51
 70
     0
102
RTVSPost2010Prop52
140
1.0
102
RTVSPost2010PropOp52
 70
     0
102
RTVSPost2010Prop53
 90
        2
102
RTVSPost2010PropOp53
 70
     1
102
RTVSPost2010Prop54
  1
strokes_ogs.tif
102
RTVSPost2010PropOp54
 70
     1
102
RTVSPost2010Prop55
280
     0
102
RTVSPost2010PropOp55
 70
     1
102
RTVSPost2010Prop56
140
1.0
102
RTVSPost2010PropOp56
 70
     1
102
RTVSPost2010Prop57
140
1.0
102
RTVSPost2010PropOp57
 70
     1
  0
XRECORD
  5
250
102
{ACAD_REACTORS
330
24F
102
}
330
24F
100
AcDbXrecord
280
     1
102
RTVSPropertyOp0
 70
     1
102
RTVSPropertyOp1
 70
     1
102
RTVSPropertyOp2
 70
     1
102
RTVSPropertyOp3
 70
     1
102
RTVSPropertyOp4
 70
     1
102
RTVSPropertyOp5
 70
     1
102
RTVSPropertyOp6
 70
     1
102
RTVSPropertyOp7
 70
     1
102
RTVSPropertyOp8
 70
     1
102
RTVSPropertyOp9
 70
     1
102
RTVSPropertyOp10
 70
     1
102
RTVSPropertyOp11
 70
     1
102
RTVSPropertyOp12
 70
     1
102
RTVSPropertyOp13
 70
     1
102
RTVSPropertyOp14
 70
     1
102
RTVSPropertyOp15
 70
     1
102
RTVSPropertyOp16
 70
     1
102
RTVSPropertyOp17
 70
     1
102
RTVSPropertyOp18
 70
     1
102
RTVSPropertyOp19
 70
     1
102
RTVSPropertyOp20
 70
     1
102
RTVSPropertyOp21
 70
     1
102
RTVSPropertyOp22
 70
     1
102
RTVSPropertyOp23
 70
     1
102
RTVSPropertyOp24
 70
     1
102
RTVSPropertyOp25
 70
     1
102
RTVSPropertyOp26
 70
     1
102
RTVSPropertyOp27
 70
     1
102
RTVSPropertyOp28
 70
     1
102
RTVSPropertyOp29
 70
     1
102
RTVSPropertyOp30
 70
     1
102
RTVSPropertyOp31
 70
     1
102
RTVSPropertyOp32
 70
     1
102
RTVSPropertyOp33
 70
     1
102
RTVSPropertyOp34
 70
     1
102
RTVSPropertyOp35
 70
     1
102
RTVSPropertyOp36
 70
     1
102
RTVSPropertyOp37
 70
     1
102
RTVSPropertyOp38
 70
     1
102
RTVSPropertyOp39
 70
     1
102
RTVSPropertyOp40
 70
     1
102
RTVSPropertyOp41
 70
     1
102
RTVSPropertyOp42
 70
     1
102
RTVSPropertyOp43
 70
     1
102
RTVSPropertyOp44
 70
     1
102
RTVSPropertyOp45
 70
     1
102
RTVSPropertyOp46
 70
     1
102
RTVSPropertyOp47
 70
     1
102
RTVSPropertyOp48
 70
     1
102
RTVSPropertyOp49
 70
     1
102
RTVSPropertyOp50
 70
     1
102
RTVSPropertyOp51
 70
     0
102
RTVSPropertyOp52
 70
     0
102
RTVSPropertyOp53
 70
     1
102
RTVSPropertyOp54
 70
     1
102
RTVSPropertyOp55
 70
     1
102
RTVSPropertyOp56
 70
     1
102
RTVSPropertyOp57
 70
     1
102
RTVSPost2010Prop28
280
     0
102
RTVSPost2010PropOp28
 70
     1
102
RTVSPost2010Prop29
280
     1
102
RTVSPost2010PropOp29
 70
     1
102
RTVSPost2010Prop30
280
     1
102
RTVSPost2010PropOp30
 70
     1
102
RTVSPost2010Prop31
280
     0
102
RTVSPost2010PropOp31
 70
     1
102
RTVSPost2010Prop32
280
     0
102
RTVSPost2010PropOp32
 70
     1
102
RTVSPost2010Prop33
280
     0
102
RTVSPost2010PropOp33
 70
     1
102
RTVSPost2010Prop34
280
     0
102
RTVSPost2010PropOp34
 70
     1
102
RTVSPost2010Prop35
280
     0
102
RTVSPost2010PropOp35
 70
     1
102
RTVSPost2010Prop36
280
     0
102
RTVSPost2010PropOp36
 70
     1
102
RTVSPost2010Prop37
 90
       50
102
RTVSPost2010PropOp37
 70
     1
102
RTVSPost2010Prop38
140
0.0
102
RTVSPost2010PropOp38
 70
     1
102
RTVSPost2010Prop39
140
1.0
102
RTVSPost2010PropOp39
 70
     1
102
RTVSPost2010Prop40
 90
        0
102
RTVSPost2010PropOp40
 70
     1
102
RTVSPost2010Prop41ColorIndex
 90
       18
102
RTVSPost2010Prop41ColorRGB
 90
        0
102
RTVSPost2010PropOp41
 70
     1
102
RTVSPost2010Prop42
 90
       50
102
RTVSPost2010PropOp42
 70
     1
102
RTVSPost2010Prop43
 90
        3
102
RTVSPost2010PropOp43
 70
     1
102
RTVSPost2010Prop44ColorIndex
 90
        5
102
RTVSPost2010Prop44ColorRGB
 90
      255
102
RTVSPost2010PropOp44
 70
     1
102
RTVSPost2010Prop45
280
     0
102
RTVSPost2010PropOp45
 70
     1
102
RTVSPost2010Prop46
 90
       50
102
RTVSPost2010PropOp46
 70
     1
102
RTVSPost2010Prop47
 90
       50
102
RTVSPost2010PropOp47
 70
     1
102
RTVSPost2010Prop48
 90
       50
102
RTVSPost2010PropOp48
 70
     1
102
RTVSPost2010Prop49
280
     0
102
RTVSPost2010PropOp49
 70
     1
102
RTVSPost2010Prop50
 90
       50
102
RTVSPost2010PropOp50
 70
     1
102
RTVSPost2010Prop51ColorIndex
 90
      256
102
RTVSPost2010Prop51ColorRGB
 90
-16777216
102
RTVSPost2010PropOp51
 70
     0
102
RTVSPost2010Prop52
140
1.0
102
RTVSPost2010PropOp52
 70
     0
102
RTVSPost2010Prop53
 90
        2
102
RTVSPost2010PropOp53
 70
     1
102
RTVSPost2010Prop54
  1
strokes_ogs.tif
102
RTVSPost2010PropOp54
 70
     1
102
RTVSPost2010Prop55
280
     0
102
RTVSPost2010PropOp55
 70
     1
102
RTVSPost2010Prop56
140
1.0
102
RTVSPost2010PropOp56
 70
     1
102
RTVSPost2010Prop57
140
1.0
102
RTVSPost2010PropOp57
 70
     1
  0
XRECORD
  5
252
102
{ACAD_REACTORS
330
251
102
}
330
251
100
AcDbXrecord
280
     1
102
RTVSPropertyOp0
 70
     1
102
RTVSPropertyOp1
 70
     1
102
RTVSPropertyOp2
 70
     1
102
RTVSPropertyOp3
 70
     1
102
RTVSPropertyOp4
 70
     1
102
RTVSPropertyOp5
 70
     1
102
RTVSPropertyOp6
 70
     1
102
RTVSPropertyOp7
 70
     1
102
RTVSPropertyOp8
 70
     1
102
RTVSPropertyOp9
 70
     1
102
RTVSPropertyOp10
 70
     1
102
RTVSPropertyOp11
 70
     1
102
RTVSPropertyOp12
 70
     1
102
RTVSPropertyOp13
 70
     1
102
RTVSPropertyOp14
 70
     1
102
RTVSPropertyOp15
 70
     1
102
RTVSPropertyOp16
 70
     1
102
RTVSPropertyOp17
 70
     1
102
RTVSPropertyOp18
 70
     1
102
RTVSPropertyOp19
 70
     1
102
RTVSPropertyOp20
 70
     1
102
RTVSPropertyOp21
 70
     1
102
RTVSPropertyOp22
 70
     1
102
RTVSPropertyOp23
 70
     1
102
RTVSPropertyOp24
 70
     1
102
RTVSPropertyOp25
 70
     1
102
RTVSPropertyOp26
 70
     1
102
RTVSPropertyOp27
 70
     1
102
RTVSPropertyOp28
 70
     1
102
RTVSPropertyOp29
 70
     1
102
RTVSPropertyOp30
 70
     1
102
RTVSPropertyOp31
 70
     1
102
RTVSPropertyOp32
 70
     1
102
RTVSPropertyOp33
 70
     1
102
RTVSPropertyOp34
 70
     1
102
RTVSPropertyOp35
 70
     1
102
RTVSPropertyOp36
 70
     1
102
RTVSPropertyOp37
 70
     1
102
RTVSPropertyOp38
 70
     1
102
RTVSPropertyOp39
 70
     1
102
RTVSPropertyOp40
 70
     1
102
RTVSPropertyOp41
 70
     1
102
RTVSPropertyOp42
 70
     1
102
RTVSPropertyOp43
 70
     1
102
RTVSPropertyOp44
 70
     1
102
RTVSPropertyOp45
 70
     1
102
RTVSPropertyOp46
 70
     1
102
RTVSPropertyOp47
 70
     1
102
RTVSPropertyOp48
 70
     1
102
RTVSPropertyOp49
 70
     1
102
RTVSPropertyOp50
 70
     1
102
RTVSPropertyOp51
 70
     0
102
RTVSPropertyOp52
 70
     0
102
RTVSPropertyOp53
 70
     1
102
RTVSPropertyOp54
 70
     1
102
RTVSPropertyOp55
 70
     1
102
RTVSPropertyOp56
 70
     1
102
RTVSPropertyOp57
 70
     1
102
RTVSPost2010Prop28
280
     0
102
RTVSPost2010PropOp28
 70
     1
102
RTVSPost2010Prop29
280
     1
102
RTVSPost2010PropOp29
 70
     1
102
RTVSPost2010Prop30
280
     1
102
RTVSPost2010PropOp30
 70
     1
102
RTVSPost2010Prop31
280
     0
102
RTVSPost2010PropOp31
 70
     1
102
RTVSPost2010Prop32
280
     0
102
RTVSPost2010PropOp32
 70
     1
102
RTVSPost2010Prop33
280
     0
102
RTVSPost2010PropOp33
 70
     1
102
RTVSPost2010Prop34
280
     0
102
RTVSPost2010PropOp34
 70
     1
102
RTVSPost2010Prop35
280
     0
102
RTVSPost2010PropOp35
 70
     1
102
RTVSPost2010Prop36
280
     0
102
RTVSPost2010PropOp36
 70
     1
102
RTVSPost2010Prop37
 90
       50
102
RTVSPost2010PropOp37
 70
     1
102
RTVSPost2010Prop38
140
0.0
102
RTVSPost2010PropOp38
 70
     1
102
RTVSPost2010Prop39
140
1.0
102
RTVSPost2010PropOp39
 70
     1
102
RTVSPost2010Prop40
 90
        0
102
RTVSPost2010PropOp40
 70
     1
102
RTVSPost2010Prop41ColorIndex
 90
       18
102
RTVSPost2010Prop41ColorRGB
 90
        0
102
RTVSPost2010PropOp41
 70
     1
102
RTVSPost2010Prop42
 90
       50
102
RTVSPost2010PropOp42
 70
     1
102
RTVSPost2010Prop43
 90
        3
102
RTVSPost2010PropOp43
 70
     1
102
RTVSPost2010Prop44ColorIndex
 90
        5
102
RTVSPost2010Prop44ColorRGB
 90
      255
102
RTVSPost2010PropOp44
 70
     1
102
RTVSPost2010Prop45
280
     0
102
RTVSPost2010PropOp45
 70
     1
102
RTVSPost2010Prop46
 90
       50
102
RTVSPost2010PropOp46
 70
     1
102
RTVSPost2010Prop47
 90
       50
102
RTVSPost2010PropOp47
 70
     1
102
RTVSPost2010Prop48
 90
       50
102
RTVSPost2010PropOp48
 70
     1
102
RTVSPost2010Prop49
280
     0
102
RTVSPost2010PropOp49
 70
     1
102
RTVSPost2010Prop50
 90
       50
102
RTVSPost2010PropOp50
 70
     1
102
RTVSPost2010Prop51ColorIndex
 90
      256
102
RTVSPost2010Prop51ColorRGB
 90
-16777216
102
RTVSPost2010PropOp51
 70
     0
102
RTVSPost2010Prop52
140
1.0
102
RTVSPost2010PropOp52
 70
     0
102
RTVSPost2010Prop53
 90
        2
102
RTVSPost2010PropOp53
 70
     1
102
RTVSPost2010Prop54
  1
strokes_ogs.tif
102
RTVSPost2010PropOp54
 70
     1
102
RTVSPost2010Prop55
280
     0
102
RTVSPost2010PropOp55
 70
     1
102
RTVSPost2010Prop56
140
1.0
102
RTVSPost2010PropOp56
 70
     1
102
RTVSPost2010Prop57
140
1.0
102
RTVSPost2010PropOp57
 70
     1
  0
XRECORD
  5
258
102
{ACAD_REACTORS
330
257
102
}
330
257
100
AcDbXrecord
280
     1
102
RTVSPropertyOp0
 70
     1
102
RTVSPropertyOp1
 70
     1
102
RTVSPropertyOp2
 70
     1
102
RTVSPropertyOp3
 70
     1
102
RTVSPropertyOp4
 70
     1
102
RTVSPropertyOp5
 70
     1
102
RTVSPropertyOp6
 70
     1
102
RTVSPropertyOp7
 70
     1
102
RTVSPropertyOp8
 70
     1
102
RTVSPropertyOp9
 70
     1
102
RTVSPropertyOp10
 70
     1
102
RTVSPropertyOp11
 70
     1
102
RTVSPropertyOp12
 70
     1
102
RTVSPropertyOp13
 70
     1
102
RTVSPropertyOp14
 70
     1
102
RTVSPropertyOp15
 70
     1
102
RTVSPropertyOp16
 70
     1
102
RTVSPropertyOp17
 70
     1
102
RTVSPropertyOp18
 70
     1
102
RTVSPropertyOp19
 70
     1
102
RTVSPropertyOp20
 70
     1
102
RTVSPropertyOp21
 70
     1
102
RTVSPropertyOp22
 70
     1
102
RTVSPropertyOp23
 70
     1
102
RTVSPropertyOp24
 70
     1
102
RTVSPropertyOp25
 70
     1
102
RTVSPropertyOp26
 70
     1
102
RTVSPropertyOp27
 70
     1
102
RTVSPropertyOp28
 70
     1
102
RTVSPropertyOp29
 70
     1
102
RTVSPropertyOp30
 70
     1
102
RTVSPropertyOp31
 70
     1
102
RTVSPropertyOp32
 70
     1
102
RTVSPropertyOp33
 70
     1
102
RTVSPropertyOp34
 70
     1
102
RTVSPropertyOp35
 70
     1
102
RTVSPropertyOp36
 70
     1
102
RTVSPropertyOp37
 70
     1
102
RTVSPropertyOp38
 70
     1
102
RTVSPropertyOp39
 70
     1
102
RTVSPropertyOp40
 70
     1
102
RTVSPropertyOp41
 70
     1
102
RTVSPropertyOp42
 70
     1
102
RTVSPropertyOp43
 70
     1
102
RTVSPropertyOp44
 70
     1
102
RTVSPropertyOp45
 70
     1
102
RTVSPropertyOp46
 70
     1
102
RTVSPropertyOp47
 70
     1
102
RTVSPropertyOp48
 70
     1
102
RTVSPropertyOp49
 70
     1
102
RTVSPropertyOp50
 70
     1
102
RTVSPropertyOp51
 70
     0
102
RTVSPropertyOp52
 70
     0
102
RTVSPropertyOp53
 70
     1
102
RTVSPropertyOp54
 70
     1
102
RTVSPropertyOp55
 70
     1
102
RTVSPropertyOp56
 70
     1
102
RTVSPropertyOp57
 70
     1
102
RTVSPost2010Prop28
280
     0
102
RTVSPost2010PropOp28
 70
     1
102
RTVSPost2010Prop29
280
     1
102
RTVSPost2010PropOp29
 70
     1
102
RTVSPost2010Prop30
280
     1
102
RTVSPost2010PropOp30
 70
     1
102
RTVSPost2010Prop31
280
     0
102
RTVSPost2010PropOp31
 70
     1
102
RTVSPost2010Prop32
280
     0
102
RTVSPost2010PropOp32
 70
     1
102
RTVSPost2010Prop33
280
     0
102
RTVSPost2010PropOp33
 70
     1
102
RTVSPost2010Prop34
280
     0
102
RTVSPost2010PropOp34
 70
     1
102
RTVSPost2010Prop35
280
     0
102
RTVSPost2010PropOp35
 70
     1
102
RTVSPost2010Prop36
280
     0
102
RTVSPost2010PropOp36
 70
     1
102
RTVSPost2010Prop37
 90
       50
102
RTVSPost2010PropOp37
 70
     1
102
RTVSPost2010Prop38
140
0.0
102
RTVSPost2010PropOp38
 70
     1
102
RTVSPost2010Prop39
140
1.0
102
RTVSPost2010PropOp39
 70
     1
102
RTVSPost2010Prop40
 90
        0
102
RTVSPost2010PropOp40
 70
     1
102
RTVSPost2010Prop41ColorIndex
 90
       18
102
RTVSPost2010Prop41ColorRGB
 90
        0
102
RTVSPost2010PropOp41
 70
     1
102
RTVSPost2010Prop42
 90
       50
102
RTVSPost2010PropOp42
 70
     1
102
RTVSPost2010Prop43
 90
        3
102
RTVSPost2010PropOp43
 70
     1
102
RTVSPost2010Prop44ColorIndex
 90
        5
102
RTVSPost2010Prop44ColorRGB
 90
      255
102
RTVSPost2010PropOp44
 70
     1
102
RTVSPost2010Prop45
280
     0
102
RTVSPost2010PropOp45
 70
     1
102
RTVSPost2010Prop46
 90
       50
102
RTVSPost2010PropOp46
 70
     1
102
RTVSPost2010Prop47
 90
       50
102
RTVSPost2010PropOp47
 70
     1
102
RTVSPost2010Prop48
 90
       50
102
RTVSPost2010PropOp48
 70
     1
102
RTVSPost2010Prop49
280
     0
102
RTVSPost2010PropOp49
 70
     1
102
RTVSPost2010Prop50
 90
       50
102
RTVSPost2010PropOp50
 70
     1
102
RTVSPost2010Prop51ColorIndex
 90
      256
102
RTVSPost2010Prop51ColorRGB
 90
-16777216
102
RTVSPost2010PropOp51
 70
     0
102
RTVSPost2010Prop52
140
1.0
102
RTVSPost2010PropOp52
 70
     0
102
RTVSPost2010Prop53
 90
        2
102
RTVSPost2010PropOp53
 70
     1
102
RTVSPost2010Prop54
  1
strokes_ogs.tif
102
RTVSPost2010PropOp54
 70
     1
102
RTVSPost2010Prop55
280
     0
102
RTVSPost2010PropOp55
 70
     1
102
RTVSPost2010Prop56
140
1.0
102
RTVSPost2010PropOp56
 70
     1
102
RTVSPost2010Prop57
140
1.0
102
RTVSPost2010PropOp57
 70
     1
  0
XRECORD
  5
26C
102
{ACAD_REACTORS
330
26B
102
}
330
26B
100
AcDbXrecord
280
     1
102
RTVSPropertyOp0
 70
     0
102
RTVSPropertyOp1
 70
     0
102
RTVSPropertyOp2
 70
     0
102
RTVSPropertyOp3
 70
     0
102
RTVSPropertyOp4
 70
     0
102
RTVSPropertyOp5
 70
     0
102
RTVSPropertyOp6
 70
     0
102
RTVSPropertyOp7
 70
     0
102
RTVSPropertyOp8
 70
     0
102
RTVSPropertyOp9
 70
     0
102
RTVSPropertyOp10
 70
     0
102
RTVSPropertyOp11
 70
     0
102
RTVSPropertyOp12
 70
     0
102
RTVSPropertyOp13
 70
     0
102
RTVSPropertyOp14
 70
     2
102
RTVSPropertyOp15
 70
     0
102
RTVSPropertyOp16
 70
     0
102
RTVSPropertyOp17
 70
     0
102
RTVSPropertyOp18
 70
     0
102
RTVSPropertyOp19
 70
     0
102
RTVSPropertyOp20
 70
     0
102
RTVSPropertyOp21
 70
     0
102
RTVSPropertyOp22
 70
     0
102
RTVSPropertyOp23
 70
     0
102
RTVSPropertyOp24
 70
     0
102
RTVSPropertyOp25
 70
     0
102
RTVSPropertyOp26
 70
     0
102
RTVSPropertyOp27
 70
     0
102
RTVSPropertyOp28
 70
     0
102
RTVSPropertyOp29
 70
     0
102
RTVSPropertyOp30
 70
     0
102
RTVSPropertyOp31
 70
     0
102
RTVSPropertyOp32
 70
     0
102
RTVSPropertyOp33
 70
     0
102
RTVSPropertyOp34
 70
     0
102
RTVSPropertyOp35
 70
     0
102
RTVSPropertyOp36
 70
     0
102
RTVSPropertyOp37
 70
     0
102
RTVSPropertyOp38
 70
     0
102
RTVSPropertyOp39
 70
     0
102
RTVSPropertyOp40
 70
     0
102
RTVSPropertyOp41
 70
     0
102
RTVSPropertyOp42
 70
     0
102
RTVSPropertyOp43
 70
     0
102
RTVSPropertyOp44
 70
     0
102
RTVSPropertyOp45
 70
     0
102
RTVSPropertyOp46
 70
     0
102
RTVSPropertyOp47
 70
     0
102
RTVSPropertyOp48
 70
     0
102
RTVSPropertyOp49
 70
     0
102
RTVSPropertyOp50
 70
     0
102
RTVSPropertyOp51
 70
     0
102
RTVSPropertyOp52
 70
     0
102
RTVSPropertyOp53
 70
     0
102
RTVSPropertyOp54
 70
     0
102
RTVSPropertyOp55
 70
     0
102
RTVSPropertyOp56
 70
     0
102
RTVSPropertyOp57
 70
     0
102
RTVSPost2010Prop28
280
     0
102
RTVSPost2010PropOp28
 70
     0
102
RTVSPost2010Prop29
280
     1
102
RTVSPost2010PropOp29
 70
     0
102
RTVSPost2010Prop30
280
     1
102
RTVSPost2010PropOp30
 70
     0
102
RTVSPost2010Prop31
280
     0
102
RTVSPost2010PropOp31
 70
     0
102
RTVSPost2010Prop32
280
     0
102
RTVSPost2010PropOp32
 70
     0
102
RTVSPost2010Prop33
280
     0
102
RTVSPost2010PropOp33
 70
     0
102
RTVSPost2010Prop34
280
     0
102
RTVSPost2010PropOp34
 70
     0
102
RTVSPost2010Prop35
280
     0
102
RTVSPost2010PropOp35
 70
     0
102
RTVSPost2010Prop36
280
     0
102
RTVSPost2010PropOp36
 70
     0
102
RTVSPost2010Prop37
 90
       50
102
RTVSPost2010PropOp37
 70
     0
102
RTVSPost2010Prop38
140
0.0
102
RTVSPost2010PropOp38
 70
     0
102
RTVSPost2010Prop39
140
1.0
102
RTVSPost2010PropOp39
 70
     0
102
RTVSPost2010Prop40
 90
        0
102
RTVSPost2010PropOp40
 70
     0
102
RTVSPost2010Prop41ColorIndex
 90
       18
102
RTVSPost2010Prop41ColorRGB
 90
        0
102
RTVSPost2010PropOp41
 70
     0
102
RTVSPost2010Prop42
 90
       50
102
RTVSPost2010PropOp42
 70
     0
102
RTVSPost2010Prop43
 90
        3
102
RTVSPost2010PropOp43
 70
     0
102
RTVSPost2010Prop44ColorIndex
 90
        5
102
RTVSPost2010Prop44ColorRGB
 90
      255
102
RTVSPost2010PropOp44
 70
     0
102
RTVSPost2010Prop45
280
     0
102
RTVSPost2010PropOp45
 70
     0
102
RTVSPost2010Prop46
 90
       50
102
RTVSPost2010PropOp46
 70
     0
102
RTVSPost2010Prop47
 90
       50
102
RTVSPost2010PropOp47
 70
     0
102
RTVSPost2010Prop48
 90
       50
102
RTVSPost2010PropOp48
 70
     0
102
RTVSPost2010Prop49
280
     0
102
RTVSPost2010PropOp49
 70
     0
102
RTVSPost2010Prop50
 90
       50
102
RTVSPost2010PropOp50
 70
     0
102
RTVSPost2010Prop51ColorIndex
 90
      256
102
RTVSPost2010Prop51ColorRGB
 90
-16777216
102
RTVSPost2010PropOp51
 70
     0
102
RTVSPost2010Prop52
140
1.0
102
RTVSPost2010PropOp52
 70
     0
102
RTVSPost2010Prop53
 90
        2
102
RTVSPost2010PropOp53
 70
     0
102
RTVSPost2010Prop54
  1
strokes_ogs.tif
102
RTVSPost2010PropOp54
 70
     0
102
RTVSPost2010Prop55
280
     0
102
RTVSPost2010PropOp55
 70
     0
102
RTVSPost2010Prop56
140
1.0
102
RTVSPost2010PropOp56
 70
     0
102
RTVSPost2010Prop57
140
1.0
102
RTVSPost2010PropOp57
 70
     0
  0
XRECORD
  5
266
102
{ACAD_REACTORS
330
265
102
}
330
265
100
AcDbXrecord
280
     1
102
RTVSPropertyOp0
 70
     1
102
RTVSPropertyOp1
 70
     1
102
RTVSPropertyOp2
 70
     1
102
RTVSPropertyOp3
 70
     1
102
RTVSPropertyOp4
 70
     1
102
RTVSPropertyOp5
 70
     1
102
RTVSPropertyOp6
 70
     1
102
RTVSPropertyOp7
 70
     1
102
RTVSPropertyOp8
 70
     1
102
RTVSPropertyOp9
 70
     1
102
RTVSPropertyOp10
 70
     1
102
RTVSPropertyOp11
 70
     1
102
RTVSPropertyOp12
 70
     1
102
RTVSPropertyOp13
 70
     1
102
RTVSPropertyOp14
 70
     1
102
RTVSPropertyOp15
 70
     1
102
RTVSPropertyOp16
 70
     1
102
RTVSPropertyOp17
 70
     1
102
RTVSPropertyOp18
 70
     1
102
RTVSPropertyOp19
 70
     1
102
RTVSPropertyOp20
 70
     1
102
RTVSPropertyOp21
 70
     1
102
RTVSPropertyOp22
 70
     1
102
RTVSPropertyOp23
 70
     1
102
RTVSPropertyOp24
 70
     1
102
RTVSPropertyOp25
 70
     1
102
RTVSPropertyOp26
 70
     1
102
RTVSPropertyOp27
 70
     1
102
RTVSPropertyOp28
 70
     1
102
RTVSPropertyOp29
 70
     1
102
RTVSPropertyOp30
 70
     1
102
RTVSPropertyOp31
 70
     1
102
RTVSPropertyOp32
 70
     1
102
RTVSPropertyOp33
 70
     1
102
RTVSPropertyOp34
 70
     1
102
RTVSPropertyOp35
 70
     1
102
RTVSPropertyOp36
 70
     1
102
RTVSPropertyOp37
 70
     1
102
RTVSPropertyOp38
 70
     1
102
RTVSPropertyOp39
 70
     1
102
RTVSPropertyOp40
 70
     1
102
RTVSPropertyOp41
 70
     1
102
RTVSPropertyOp42
 70
     1
102
RTVSPropertyOp43
 70
     1
102
RTVSPropertyOp44
 70
     1
102
RTVSPropertyOp45
 70
     1
102
RTVSPropertyOp46
 70
     1
102
RTVSPropertyOp47
 70
     1
102
RTVSPropertyOp48
 70
     1
102
RTVSPropertyOp49
 70
     1
102
RTVSPropertyOp50
 70
     1
102
RTVSPropertyOp51
 70
     0
102
RTVSPropertyOp52
 70
     0
102
RTVSPropertyOp53
 70
     1
102
RTVSPropertyOp54
 70
     1
102
RTVSPropertyOp55
 70
     1
102
RTVSPropertyOp56
 70
     1
102
RTVSPropertyOp57
 70
     1
102
RTVSPost2010Prop28
280
     0
102
RTVSPost2010PropOp28
 70
     1
102
RTVSPost2010Prop29
280
     1
102
RTVSPost2010PropOp29
 70
     1
102
RTVSPost2010Prop30
280
     1
102
RTVSPost2010PropOp30
 70
     1
102
RTVSPost2010Prop31
280
     0
102
RTVSPost2010PropOp31
 70
     1
102
RTVSPost2010Prop32
280
     0
102
RTVSPost2010PropOp32
 70
     1
102
RTVSPost2010Prop33
280
     0
102
RTVSPost2010PropOp33
 70
     1
102
RTVSPost2010Prop34
280
     0
102
RTVSPost2010PropOp34
 70
     1
102
RTVSPost2010Prop35
280
     0
102
RTVSPost2010PropOp35
 70
     1
102
RTVSPost2010Prop36
280
     0
102
RTVSPost2010PropOp36
 70
     1
102
RTVSPost2010Prop37
 90
       50
102
RTVSPost2010PropOp37
 70
     1
102
RTVSPost2010Prop38
140
0.0
102
RTVSPost2010PropOp38
 70
     1
102
RTVSPost2010Prop39
140
1.0
102
RTVSPost2010PropOp39
 70
     1
102
RTVSPost2010Prop40
 90
        0
102
RTVSPost2010PropOp40
 70
     1
102
RTVSPost2010Prop41ColorIndex
 90
       18
102
RTVSPost2010Prop41ColorRGB
 90
        0
102
RTVSPost2010PropOp41
 70
     1
102
RTVSPost2010Prop42
 90
       50
102
RTVSPost2010PropOp42
 70
     1
102
RTVSPost2010Prop43
 90
        3
102
RTVSPost2010PropOp43
 70
     1
102
RTVSPost2010Prop44ColorIndex
 90
        5
102
RTVSPost2010Prop44ColorRGB
 90
      255
102
RTVSPost2010PropOp44
 70
     1
102
RTVSPost2010Prop45
280
     0
102
RTVSPost2010PropOp45
 70
     1
102
RTVSPost2010Prop46
 90
       50
102
RTVSPost2010PropOp46
 70
     1
102
RTVSPost2010Prop47
 90
       50
102
RTVSPost2010PropOp47
 70
     1
102
RTVSPost2010Prop48
 90
       50
102
RTVSPost2010PropOp48
 70
     1
102
RTVSPost2010Prop49
280
     0
102
RTVSPost2010PropOp49
 70
     1
102
RTVSPost2010Prop50
 90
       50
102
RTVSPost2010PropOp50
 70
     1
102
RTVSPost2010Prop51ColorIndex
 90
      256
102
RTVSPost2010Prop51ColorRGB
 90
-16777216
102
RTVSPost2010PropOp51
 70
     0
102
RTVSPost2010Prop52
140
1.0
102
RTVSPost2010PropOp52
 70
     0
102
RTVSPost2010Prop53
 90
        2
102
RTVSPost2010PropOp53
 70
     1
102
RTVSPost2010Prop54
  1
strokes_ogs.tif
102
RTVSPost2010PropOp54
 70
     1
102
RTVSPost2010Prop55
280
     0
102
RTVSPost2010PropOp55
 70
     1
102
RTVSPost2010Prop56
140
1.0
102
RTVSPost2010PropOp56
 70
     1
102
RTVSPost2010Prop57
140
1.0
102
RTVSPost2010PropOp57
 70
     1
  0
XRECORD
  5
26E
102
{ACAD_REACTORS
330
26D
102
}
330
26D
100
AcDbXrecord
280
     1
102
RTVSPropertyOp0
 70
     0
102
RTVSPropertyOp1
 70
     0
102
RTVSPropertyOp2
 70
     0
102
RTVSPropertyOp3
 70
     0
102
RTVSPropertyOp4
 70
     0
102
RTVSPropertyOp5
 70
     0
102
RTVSPropertyOp6
 70
     0
102
RTVSPropertyOp7
 70
     0
102
RTVSPropertyOp8
 70
     0
102
RTVSPropertyOp9
 70
     0
102
RTVSPropertyOp10
 70
     0
102
RTVSPropertyOp11
 70
     0
102
RTVSPropertyOp12
 70
     0
102
RTVSPropertyOp13
 70
     0
102
RTVSPropertyOp14
 70
     2
102
RTVSPropertyOp15
 70
     0
102
RTVSPropertyOp16
 70
     0
102
RTVSPropertyOp17
 70
     0
102
RTVSPropertyOp18
 70
     0
102
RTVSPropertyOp19
 70
     0
102
RTVSPropertyOp20
 70
     0
102
RTVSPropertyOp21
 70
     0
102
RTVSPropertyOp22
 70
     0
102
RTVSPropertyOp23
 70
     0
102
RTVSPropertyOp24
 70
     0
102
RTVSPropertyOp25
 70
     0
102
RTVSPropertyOp26
 70
     0
102
RTVSPropertyOp27
 70
     0
102
RTVSPropertyOp28
 70
     0
102
RTVSPropertyOp29
 70
     0
102
RTVSPropertyOp30
 70
     0
102
RTVSPropertyOp31
 70
     0
102
RTVSPropertyOp32
 70
     0
102
RTVSPropertyOp33
 70
     0
102
RTVSPropertyOp34
 70
     0
102
RTVSPropertyOp35
 70
     0
102
RTVSPropertyOp36
 70
     0
102
RTVSPropertyOp37
 70
     0
102
RTVSPropertyOp38
 70
     0
102
RTVSPropertyOp39
 70
     0
102
RTVSPropertyOp40
 70
     0
102
RTVSPropertyOp41
 70
     0
102
RTVSPropertyOp42
 70
     0
102
RTVSPropertyOp43
 70
     0
102
RTVSPropertyOp44
 70
     0
102
RTVSPropertyOp45
 70
     0
102
RTVSPropertyOp46
 70
     0
102
RTVSPropertyOp47
 70
     0
102
RTVSPropertyOp48
 70
     0
102
RTVSPropertyOp49
 70
     0
102
RTVSPropertyOp50
 70
     0
102
RTVSPropertyOp51
 70
     0
102
RTVSPropertyOp52
 70
     0
102
RTVSPropertyOp53
 70
     0
102
RTVSPropertyOp54
 70
     0
102
RTVSPropertyOp55
 70
     0
102
RTVSPropertyOp56
 70
     0
102
RTVSPropertyOp57
 70
     0
102
RTVSPost2010Prop28
280
     0
102
RTVSPost2010PropOp28
 70
     0
102
RTVSPost2010Prop29
280
     1
102
RTVSPost2010PropOp29
 70
     0
102
RTVSPost2010Prop30
280
     1
102
RTVSPost2010PropOp30
 70
     0
102
RTVSPost2010Prop31
280
     0
102
RTVSPost2010PropOp31
 70
     0
102
RTVSPost2010Prop32
280
     0
102
RTVSPost2010PropOp32
 70
     0
102
RTVSPost2010Prop33
280
     0
102
RTVSPost2010PropOp33
 70
     0
102
RTVSPost2010Prop34
280
     0
102
RTVSPost2010PropOp34
 70
     0
102
RTVSPost2010Prop35
280
     0
102
RTVSPost2010PropOp35
 70
     0
102
RTVSPost2010Prop36
280
     0
102
RTVSPost2010PropOp36
 70
     0
102
RTVSPost2010Prop37
 90
       50
102
RTVSPost2010PropOp37
 70
     0
102
RTVSPost2010Prop38
140
0.0
102
RTVSPost2010PropOp38
 70
     0
102
RTVSPost2010Prop39
140
1.0
102
RTVSPost2010PropOp39
 70
     0
102
RTVSPost2010Prop40
 90
        0
102
RTVSPost2010PropOp40
 70
     0
102
RTVSPost2010Prop41ColorIndex
 90
       18
102
RTVSPost2010Prop41ColorRGB
 90
        0
102
RTVSPost2010PropOp41
 70
     0
102
RTVSPost2010Prop42
 90
       50
102
RTVSPost2010PropOp42
 70
     0
102
RTVSPost2010Prop43
 90
        3
102
RTVSPost2010PropOp43
 70
     0
102
RTVSPost2010Prop44ColorIndex
 90
        5
102
RTVSPost2010Prop44ColorRGB
 90
      255
102
RTVSPost2010PropOp44
 70
     0
102
RTVSPost2010Prop45
280
     0
102
RTVSPost2010PropOp45
 70
     0
102
RTVSPost2010Prop46
 90
       50
102
RTVSPost2010PropOp46
 70
     0
102
RTVSPost2010Prop47
 90
       50
102
RTVSPost2010PropOp47
 70
     0
102
RTVSPost2010Prop48
 90
       50
102
RTVSPost2010PropOp48
 70
     0
102
RTVSPost2010Prop49
280
     0
102
RTVSPost2010PropOp49
 70
     0
102
RTVSPost2010Prop50
 90
       50
102
RTVSPost2010PropOp50
 70
     0
102
RTVSPost2010Prop51ColorIndex
 90
      256
102
RTVSPost2010Prop51ColorRGB
 90
-16777216
102
RTVSPost2010PropOp51
 70
     0
102
RTVSPost2010Prop52
140
1.0
102
RTVSPost2010PropOp52
 70
     0
102
RTVSPost2010Prop53
 90
        2
102
RTVSPost2010PropOp53
 70
     0
102
RTVSPost2010Prop54
  1
strokes_ogs.tif
102
RTVSPost2010PropOp54
 70
     0
102
RTVSPost2010Prop55
280
     0
102
RTVSPost2010PropOp55
 70
     0
102
RTVSPost2010Prop56
140
1.0
102
RTVSPost2010PropOp56
 70
     0
102
RTVSPost2010Prop57
140
1.0
102
RTVSPost2010PropOp57
 70
     0
  0
XRECORD
  5
25C
102
{ACAD_REACTORS
330
25B
102
}
330
25B
100
AcDbXrecord
280
     1
102
RTVSPropertyOp0
 70
     1
102
RTVSPropertyOp1
 70
     1
102
RTVSPropertyOp2
 70
     1
102
RTVSPropertyOp3
 70
     1
102
RTVSPropertyOp4
 70
     1
102
RTVSPropertyOp5
 70
     1
102
RTVSPropertyOp6
 70
     1
102
RTVSPropertyOp7
 70
     1
102
RTVSPropertyOp8
 70
     1
102
RTVSPropertyOp9
 70
     1
102
RTVSPropertyOp10
 70
     1
102
RTVSPropertyOp11
 70
     1
102
RTVSPropertyOp12
 70
     1
102
RTVSPropertyOp13
 70
     1
102
RTVSPropertyOp14
 70
     1
102
RTVSPropertyOp15
 70
     1
102
RTVSPropertyOp16
 70
     1
102
RTVSPropertyOp17
 70
     1
102
RTVSPropertyOp18
 70
     1
102
RTVSPropertyOp19
 70
     1
102
RTVSPropertyOp20
 70
     1
102
RTVSPropertyOp21
 70
     1
102
RTVSPropertyOp22
 70
     1
102
RTVSPropertyOp23
 70
     1
102
RTVSPropertyOp24
 70
     1
102
RTVSPropertyOp25
 70
     1
102
RTVSPropertyOp26
 70
     1
102
RTVSPropertyOp27
 70
     1
102
RTVSPropertyOp28
 70
     1
102
RTVSPropertyOp29
 70
     1
102
RTVSPropertyOp30
 70
     1
102
RTVSPropertyOp31
 70
     1
102
RTVSPropertyOp32
 70
     1
102
RTVSPropertyOp33
 70
     1
102
RTVSPropertyOp34
 70
     1
102
RTVSPropertyOp35
 70
     1
102
RTVSPropertyOp36
 70
     1
102
RTVSPropertyOp37
 70
     1
102
RTVSPropertyOp38
 70
     1
102
RTVSPropertyOp39
 70
     1
102
RTVSPropertyOp40
 70
     1
102
RTVSPropertyOp41
 70
     1
102
RTVSPropertyOp42
 70
     1
102
RTVSPropertyOp43
 70
     1
102
RTVSPropertyOp44
 70
     1
102
RTVSPropertyOp45
 70
     1
102
RTVSPropertyOp46
 70
     1
102
RTVSPropertyOp47
 70
     1
102
RTVSPropertyOp48
 70
     1
102
RTVSPropertyOp49
 70
     1
102
RTVSPropertyOp50
 70
     1
102
RTVSPropertyOp51
 70
     0
102
RTVSPropertyOp52
 70
     0
102
RTVSPropertyOp53
 70
     1
102
RTVSPropertyOp54
 70
     1
102
RTVSPropertyOp55
 70
     1
102
RTVSPropertyOp56
 70
     1
102
RTVSPropertyOp57
 70
     1
102
RTVSPost2010Prop28
280
     0
102
RTVSPost2010PropOp28
 70
     1
102
RTVSPost2010Prop29
280
     1
102
RTVSPost2010PropOp29
 70
     1
102
RTVSPost2010Prop30
280
     1
102
RTVSPost2010PropOp30
 70
     1
102
RTVSPost2010Prop31
280
     0
102
RTVSPost2010PropOp31
 70
     1
102
RTVSPost2010Prop32
280
     0
102
RTVSPost2010PropOp32
 70
     1
102
RTVSPost2010Prop33
280
     0
102
RTVSPost2010PropOp33
 70
     1
102
RTVSPost2010Prop34
280
     0
102
RTVSPost2010PropOp34
 70
     1
102
RTVSPost2010Prop35
280
     0
102
RTVSPost2010PropOp35
 70
     1
102
RTVSPost2010Prop36
280
     0
102
RTVSPost2010PropOp36
 70
     1
102
RTVSPost2010Prop37
 90
       50
102
RTVSPost2010PropOp37
 70
     1
102
RTVSPost2010Prop38
140
0.0
102
RTVSPost2010PropOp38
 70
     1
102
RTVSPost2010Prop39
140
1.0
102
RTVSPost2010PropOp39
 70
     1
102
RTVSPost2010Prop40
 90
        0
102
RTVSPost2010PropOp40
 70
     1
102
RTVSPost2010Prop41ColorIndex
 90
       18
102
RTVSPost2010Prop41ColorRGB
 90
        0
102
RTVSPost2010PropOp41
 70
     1
102
RTVSPost2010Prop42
 90
       50
102
RTVSPost2010PropOp42
 70
     1
102
RTVSPost2010Prop43
 90
        3
102
RTVSPost2010PropOp43
 70
     1
102
RTVSPost2010Prop44ColorIndex
 90
        5
102
RTVSPost2010Prop44ColorRGB
 90
      255
102
RTVSPost2010PropOp44
 70
     1
102
RTVSPost2010Prop45
280
     0
102
RTVSPost2010PropOp45
 70
     1
102
RTVSPost2010Prop46
 90
       50
102
RTVSPost2010PropOp46
 70
     1
102
RTVSPost2010Prop47
 90
       50
102
RTVSPost2010PropOp47
 70
     1
102
RTVSPost2010Prop48
 90
       50
102
RTVSPost2010PropOp48
 70
     1
102
RTVSPost2010Prop49
280
     0
102
RTVSPost2010PropOp49
 70
     1
102
RTVSPost2010Prop50
 90
       50
102
RTVSPost2010PropOp50
 70
     1
102
RTVSPost2010Prop51ColorIndex
 90
      256
102
RTVSPost2010Prop51ColorRGB
 90
-16777216
102
RTVSPost2010PropOp51
 70
     0
102
RTVSPost2010Prop52
140
1.0
102
RTVSPost2010PropOp52
 70
     0
102
RTVSPost2010Prop53
 90
        2
102
RTVSPost2010PropOp53
 70
     1
102
RTVSPost2010Prop54
  1
strokes_ogs.tif
102
RTVSPost2010PropOp54
 70
     1
102
RTVSPost2010Prop55
280
     0
102
RTVSPost2010PropOp55
 70
     1
102
RTVSPost2010Prop56
140
1.0
102
RTVSPost2010PropOp56
 70
     1
102
RTVSPost2010Prop57
140
1.0
102
RTVSPost2010PropOp57
 70
     1
  0
XRECORD
  5
27A
102
{ACAD_REACTORS
330
279
102
}
330
279
100
AcDbXrecord
280
     1
102
RTVSPropertyOp0
 70
     1
102
RTVSPropertyOp1
 70
     1
102
RTVSPropertyOp2
 70
     1
102
RTVSPropertyOp3
 70
     1
102
RTVSPropertyOp4
 70
     1
102
RTVSPropertyOp5
 70
     1
102
RTVSPropertyOp6
 70
     1
102
RTVSPropertyOp7
 70
     1
102
RTVSPropertyOp8
 70
     1
102
RTVSPropertyOp9
 70
     1
102
RTVSPropertyOp10
 70
     1
102
RTVSPropertyOp11
 70
     1
102
RTVSPropertyOp12
 70
     1
102
RTVSPropertyOp13
 70
     1
102
RTVSPropertyOp14
 70
     1
102
RTVSPropertyOp15
 70
     1
102
RTVSPropertyOp16
 70
     1
102
RTVSPropertyOp17
 70
     1
102
RTVSPropertyOp18
 70
     1
102
RTVSPropertyOp19
 70
     1
102
RTVSPropertyOp20
 70
     1
102
RTVSPropertyOp21
 70
     1
102
RTVSPropertyOp22
 70
     1
102
RTVSPropertyOp23
 70
     1
102
RTVSPropertyOp24
 70
     1
102
RTVSPropertyOp25
 70
     1
102
RTVSPropertyOp26
 70
     1
102
RTVSPropertyOp27
 70
     1
102
RTVSPropertyOp28
 70
     1
102
RTVSPropertyOp29
 70
     1
102
RTVSPropertyOp30
 70
     1
102
RTVSPropertyOp31
 70
     1
102
RTVSPropertyOp32
 70
     1
102
RTVSPropertyOp33
 70
     1
102
RTVSPropertyOp34
 70
     1
102
RTVSPropertyOp35
 70
     1
102
RTVSPropertyOp36
 70
     1
102
RTVSPropertyOp37
 70
     1
102
RTVSPropertyOp38
 70
     1
102
RTVSPropertyOp39
 70
     1
102
RTVSPropertyOp40
 70
     1
102
RTVSPropertyOp41
 70
     1
102
RTVSPropertyOp42
 70
     1
102
RTVSPropertyOp43
 70
     1
102
RTVSPropertyOp44
 70
     1
102
RTVSPropertyOp45
 70
     1
102
RTVSPropertyOp46
 70
     1
102
RTVSPropertyOp47
 70
     1
102
RTVSPropertyOp48
 70
     1
102
RTVSPropertyOp49
 70
     1
102
RTVSPropertyOp50
 70
     1
102
RTVSPropertyOp51
 70
     0
102
RTVSPropertyOp52
 70
     0
102
RTVSPropertyOp53
 70
     1
102
RTVSPropertyOp54
 70
     1
102
RTVSPropertyOp55
 70
     1
102
RTVSPropertyOp56
 70
     1
102
RTVSPropertyOp57
 70
     1
102
RTVSPost2010Prop28
280
     0
102
RTVSPost2010PropOp28
 70
     1
102
RTVSPost2010Prop29
280
     1
102
RTVSPost2010PropOp29
 70
     1
102
RTVSPost2010Prop30
280
     1
102
RTVSPost2010PropOp30
 70
     1
102
RTVSPost2010Prop31
280
     0
102
RTVSPost2010PropOp31
 70
     1
102
RTVSPost2010Prop32
280
     0
102
RTVSPost2010PropOp32
 70
     1
102
RTVSPost2010Prop33
280
     0
102
RTVSPost2010PropOp33
 70
     1
102
RTVSPost2010Prop34
280
     0
102
RTVSPost2010PropOp34
 70
     1
102
RTVSPost2010Prop35
280
     0
102
RTVSPost2010PropOp35
 70
     1
102
RTVSPost2010Prop36
280
     0
102
RTVSPost2010PropOp36
 70
     1
102
RTVSPost2010Prop37
 90
       50
102
RTVSPost2010PropOp37
 70
     1
102
RTVSPost2010Prop38
140
0.0
102
RTVSPost2010PropOp38
 70
     1
102
RTVSPost2010Prop39
140
1.0
102
RTVSPost2010PropOp39
 70
     1
102
RTVSPost2010Prop40
 90
        0
102
RTVSPost2010PropOp40
 70
     1
102
RTVSPost2010Prop41ColorIndex
 90
       18
102
RTVSPost2010Prop41ColorRGB
 90
        0
102
RTVSPost2010PropOp41
 70
     1
102
RTVSPost2010Prop42
 90
       50
102
RTVSPost2010PropOp42
 70
     1
102
RTVSPost2010Prop43
 90
        3
102
RTVSPost2010PropOp43
 70
     1
102
RTVSPost2010Prop44ColorIndex
 90
        5
102
RTVSPost2010Prop44ColorRGB
 90
      255
102
RTVSPost2010PropOp44
 70
     1
102
RTVSPost2010Prop45
280
     0
102
RTVSPost2010PropOp45
 70
     1
102
RTVSPost2010Prop46
 90
       50
102
RTVSPost2010PropOp46
 70
     1
102
RTVSPost2010Prop47
 90
       50
102
RTVSPost2010PropOp47
 70
     1
102
RTVSPost2010Prop48
 90
       50
102
RTVSPost2010PropOp48
 70
     1
102
RTVSPost2010Prop49
280
     0
102
RTVSPost2010PropOp49
 70
     1
102
RTVSPost2010Prop50
 90
       50
102
RTVSPost2010PropOp50
 70
     1
102
RTVSPost2010Prop51ColorIndex
 90
      256
102
RTVSPost2010Prop51ColorRGB
 90
-16777216
102
RTVSPost2010PropOp51
 70
     0
102
RTVSPost2010Prop52
140
1.0
102
RTVSPost2010PropOp52
 70
     0
102
RTVSPost2010Prop53
 90
        2
102
RTVSPost2010PropOp53
 70
     1
102
RTVSPost2010Prop54
  1
strokes_ogs.tif
102
RTVSPost2010PropOp54
 70
     1
102
RTVSPost2010Prop55
280
     0
102
RTVSPost2010PropOp55
 70
     1
102
RTVSPost2010Prop56
140
1.0
102
RTVSPost2010PropOp56
 70
     1
102
RTVSPost2010Prop57
140
1.0
102
RTVSPost2010PropOp57
 70
     1
  0
XRECORD
  5
278
102
{ACAD_REACTORS
330
277
102
}
330
277
100
AcDbXrecord
280
     1
102
RTVSPropertyOp0
 70
     1
102
RTVSPropertyOp1
 70
     1
102
RTVSPropertyOp2
 70
     1
102
RTVSPropertyOp3
 70
     1
102
RTVSPropertyOp4
 70
     1
102
RTVSPropertyOp5
 70
     1
102
RTVSPropertyOp6
 70
     1
102
RTVSPropertyOp7
 70
     1
102
RTVSPropertyOp8
 70
     1
102
RTVSPropertyOp9
 70
     1
102
RTVSPropertyOp10
 70
     1
102
RTVSPropertyOp11
 70
     1
102
RTVSPropertyOp12
 70
     1
102
RTVSPropertyOp13
 70
     1
102
RTVSPropertyOp14
 70
     1
102
RTVSPropertyOp15
 70
     1
102
RTVSPropertyOp16
 70
     1
102
RTVSPropertyOp17
 70
     1
102
RTVSPropertyOp18
 70
     1
102
RTVSPropertyOp19
 70
     1
102
RTVSPropertyOp20
 70
     1
102
RTVSPropertyOp21
 70
     1
102
RTVSPropertyOp22
 70
     1
102
RTVSPropertyOp23
 70
     1
102
RTVSPropertyOp24
 70
     1
102
RTVSPropertyOp25
 70
     1
102
RTVSPropertyOp26
 70
     1
102
RTVSPropertyOp27
 70
     1
102
RTVSPropertyOp28
 70
     1
102
RTVSPropertyOp29
 70
     1
102
RTVSPropertyOp30
 70
     1
102
RTVSPropertyOp31
 70
     1
102
RTVSPropertyOp32
 70
     1
102
RTVSPropertyOp33
 70
     1
102
RTVSPropertyOp34
 70
     1
102
RTVSPropertyOp35
 70
     1
102
RTVSPropertyOp36
 70
     1
102
RTVSPropertyOp37
 70
     1
102
RTVSPropertyOp38
 70
     1
102
RTVSPropertyOp39
 70
     1
102
RTVSPropertyOp40
 70
     1
102
RTVSPropertyOp41
 70
     1
102
RTVSPropertyOp42
 70
     1
102
RTVSPropertyOp43
 70
     1
102
RTVSPropertyOp44
 70
     1
102
RTVSPropertyOp45
 70
     1
102
RTVSPropertyOp46
 70
     1
102
RTVSPropertyOp47
 70
     1
102
RTVSPropertyOp48
 70
     1
102
RTVSPropertyOp49
 70
     1
102
RTVSPropertyOp50
 70
     1
102
RTVSPropertyOp51
 70
     0
102
RTVSPropertyOp52
 70
     0
102
RTVSPropertyOp53
 70
     1
102
RTVSPropertyOp54
 70
     1
102
RTVSPropertyOp55
 70
     1
102
RTVSPropertyOp56
 70
     1
102
RTVSPropertyOp57
 70
     1
102
RTVSPost2010Prop28
280
     0
102
RTVSPost2010PropOp28
 70
     1
102
RTVSPost2010Prop29
280
     1
102
RTVSPost2010PropOp29
 70
     1
102
RTVSPost2010Prop30
280
     1
102
RTVSPost2010PropOp30
 70
     1
102
RTVSPost2010Prop31
280
     0
102
RTVSPost2010PropOp31
 70
     1
102
RTVSPost2010Prop32
280
     0
102
RTVSPost2010PropOp32
 70
     1
102
RTVSPost2010Prop33
280
     0
102
RTVSPost2010PropOp33
 70
     1
102
RTVSPost2010Prop34
280
     0
102
RTVSPost2010PropOp34
 70
     1
102
RTVSPost2010Prop35
280
     0
102
RTVSPost2010PropOp35
 70
     1
102
RTVSPost2010Prop36
280
     0
102
RTVSPost2010PropOp36
 70
     1
102
RTVSPost2010Prop37
 90
       50
102
RTVSPost2010PropOp37
 70
     1
102
RTVSPost2010Prop38
140
0.0
102
RTVSPost2010PropOp38
 70
     1
102
RTVSPost2010Prop39
140
1.0
102
RTVSPost2010PropOp39
 70
     1
102
RTVSPost2010Prop40
 90
        0
102
RTVSPost2010PropOp40
 70
     1
102
RTVSPost2010Prop41ColorIndex
 90
       18
102
RTVSPost2010Prop41ColorRGB
 90
        0
102
RTVSPost2010PropOp41
 70
     1
102
RTVSPost2010Prop42
 90
       50
102
RTVSPost2010PropOp42
 70
     1
102
RTVSPost2010Prop43
 90
        3
102
RTVSPost2010PropOp43
 70
     1
102
RTVSPost2010Prop44ColorIndex
 90
        5
102
RTVSPost2010Prop44ColorRGB
 90
      255
102
RTVSPost2010PropOp44
 70
     1
102
RTVSPost2010Prop45
280
     0
102
RTVSPost2010PropOp45
 70
     1
102
RTVSPost2010Prop46
 90
       50
102
RTVSPost2010PropOp46
 70
     1
102
RTVSPost2010Prop47
 90
       50
102
RTVSPost2010PropOp47
 70
     1
102
RTVSPost2010Prop48
 90
       50
102
RTVSPost2010PropOp48
 70
     1
102
RTVSPost2010Prop49
280
     0
102
RTVSPost2010PropOp49
 70
     1
102
RTVSPost2010Prop50
 90
       50
102
RTVSPost2010PropOp50
 70
     1
102
RTVSPost2010Prop51ColorIndex
 90
      256
102
RTVSPost2010Prop51ColorRGB
 90
-16777216
102
RTVSPost2010PropOp51
 70
     0
102
RTVSPost2010Prop52
140
1.0
102
RTVSPost2010PropOp52
 70
     0
102
RTVSPost2010Prop53
 90
        2
102
RTVSPost2010PropOp53
 70
     1
102
RTVSPost2010Prop54
  1
strokes_ogs.tif
102
RTVSPost2010PropOp54
 70
     1
102
RTVSPost2010Prop55
280
     0
102
RTVSPost2010PropOp55
 70
     1
102
RTVSPost2010Prop56
140
1.0
102
RTVSPost2010PropOp56
 70
     1
102
RTVSPost2010Prop57
140
1.0
102
RTVSPost2010PropOp57
 70
     1
  0
XRECORD
  5
272
102
{ACAD_REACTORS
330
271
102
}
330
271
100
AcDbXrecord
280
     1
102
RTVSPropertyOp0
 70
     1
102
RTVSPropertyOp1
 70
     1
102
RTVSPropertyOp2
 70
     1
102
RTVSPropertyOp3
 70
     1
102
RTVSPropertyOp4
 70
     1
102
RTVSPropertyOp5
 70
     1
102
RTVSPropertyOp6
 70
     1
102
RTVSPropertyOp7
 70
     1
102
RTVSPropertyOp8
 70
     1
102
RTVSPropertyOp9
 70
     1
102
RTVSPropertyOp10
 70
     1
102
RTVSPropertyOp11
 70
     1
102
RTVSPropertyOp12
 70
     1
102
RTVSPropertyOp13
 70
     1
102
RTVSPropertyOp14
 70
     1
102
RTVSPropertyOp15
 70
     1
102
RTVSPropertyOp16
 70
     1
102
RTVSPropertyOp17
 70
     1
102
RTVSPropertyOp18
 70
     1
102
RTVSPropertyOp19
 70
     1
102
RTVSPropertyOp20
 70
     1
102
RTVSPropertyOp21
 70
     1
102
RTVSPropertyOp22
 70
     1
102
RTVSPropertyOp23
 70
     1
102
RTVSPropertyOp24
 70
     1
102
RTVSPropertyOp25
 70
     1
102
RTVSPropertyOp26
 70
     1
102
RTVSPropertyOp27
 70
     1
102
RTVSPropertyOp28
 70
     1
102
RTVSPropertyOp29
 70
     1
102
RTVSPropertyOp30
 70
     1
102
RTVSPropertyOp31
 70
     1
102
RTVSPropertyOp32
 70
     1
102
RTVSPropertyOp33
 70
     1
102
RTVSPropertyOp34
 70
     1
102
RTVSPropertyOp35
 70
     1
102
RTVSPropertyOp36
 70
     1
102
RTVSPropertyOp37
 70
     1
102
RTVSPropertyOp38
 70
     1
102
RTVSPropertyOp39
 70
     1
102
RTVSPropertyOp40
 70
     1
102
RTVSPropertyOp41
 70
     1
102
RTVSPropertyOp42
 70
     1
102
RTVSPropertyOp43
 70
     1
102
RTVSPropertyOp44
 70
     1
102
RTVSPropertyOp45
 70
     1
102
RTVSPropertyOp46
 70
     1
102
RTVSPropertyOp47
 70
     1
102
RTVSPropertyOp48
 70
     1
102
RTVSPropertyOp49
 70
     1
102
RTVSPropertyOp50
 70
     1
102
RTVSPropertyOp51
 70
     0
102
RTVSPropertyOp52
 70
     0
102
RTVSPropertyOp53
 70
     1
102
RTVSPropertyOp54
 70
     1
102
RTVSPropertyOp55
 70
     1
102
RTVSPropertyOp56
 70
     1
102
RTVSPropertyOp57
 70
     1
102
RTVSPost2010Prop28
280
     0
102
RTVSPost2010PropOp28
 70
     1
102
RTVSPost2010Prop29
280
     1
102
RTVSPost2010PropOp29
 70
     1
102
RTVSPost2010Prop30
280
     1
102
RTVSPost2010PropOp30
 70
     1
102
RTVSPost2010Prop31
280
     0
102
RTVSPost2010PropOp31
 70
     1
102
RTVSPost2010Prop32
280
     0
102
RTVSPost2010PropOp32
 70
     1
102
RTVSPost2010Prop33
280
     0
102
RTVSPost2010PropOp33
 70
     1
102
RTVSPost2010Prop34
280
     0
102
RTVSPost2010PropOp34
 70
     1
102
RTVSPost2010Prop35
280
     0
102
RTVSPost2010PropOp35
 70
     1
102
RTVSPost2010Prop36
280
     0
102
RTVSPost2010PropOp36
 70
     1
102
RTVSPost2010Prop37
 90
       50
102
RTVSPost2010PropOp37
 70
     1
102
RTVSPost2010Prop38
140
0.0
102
RTVSPost2010PropOp38
 70
     1
102
RTVSPost2010Prop39
140
1.0
102
RTVSPost2010PropOp39
 70
     1
102
RTVSPost2010Prop40
 90
        0
102
RTVSPost2010PropOp40
 70
     1
102
RTVSPost2010Prop41ColorIndex
 90
       18
102
RTVSPost2010Prop41ColorRGB
 90
        0
102
RTVSPost2010PropOp41
 70
     1
102
RTVSPost2010Prop42
 90
       50
102
RTVSPost2010PropOp42
 70
     1
102
RTVSPost2010Prop43
 90
        3
102
RTVSPost2010PropOp43
 70
     1
102
RTVSPost2010Prop44ColorIndex
 90
        5
102
RTVSPost2010Prop44ColorRGB
 90
      255
102
RTVSPost2010PropOp44
 70
     1
102
RTVSPost2010Prop45
280
     0
102
RTVSPost2010PropOp45
 70
     1
102
RTVSPost2010Prop46
 90
       50
102
RTVSPost2010PropOp46
 70
     1
102
RTVSPost2010Prop47
 90
       50
102
RTVSPost2010PropOp47
 70
     1
102
RTVSPost2010Prop48
 90
       50
102
RTVSPost2010PropOp48
 70
     1
102
RTVSPost2010Prop49
280
     0
102
RTVSPost2010PropOp49
 70
     1
102
RTVSPost2010Prop50
 90
       50
102
RTVSPost2010PropOp50
 70
     1
102
RTVSPost2010Prop51ColorIndex
 90
      256
102
RTVSPost2010Prop51ColorRGB
 90
-16777216
102
RTVSPost2010PropOp51
 70
     0
102
RTVSPost2010Prop52
140
1.0
102
RTVSPost2010PropOp52
 70
     0
102
RTVSPost2010Prop53
 90
        2
102
RTVSPost2010PropOp53
 70
     1
102
RTVSPost2010Prop54
  1
strokes_ogs.tif
102
RTVSPost2010PropOp54
 70
     1
102
RTVSPost2010Prop55
280
     0
102
RTVSPost2010PropOp55
 70
     1
102
RTVSPost2010Prop56
140
1.0
102
RTVSPost2010PropOp56
 70
     1
102
RTVSPost2010Prop57
140
1.0
102
RTVSPost2010PropOp57
 70
     1
  0
XRECORD
  5
274
102
{ACAD_REACTORS
330
273
102
}
330
273
100
AcDbXrecord
280
     1
102
RTVSPropertyOp0
 70
     1
102
RTVSPropertyOp1
 70
     1
102
RTVSPropertyOp2
 70
     1
102
RTVSPropertyOp3
 70
     1
102
RTVSPropertyOp4
 70
     1
102
RTVSPropertyOp5
 70
     1
102
RTVSPropertyOp6
 70
     1
102
RTVSPropertyOp7
 70
     1
102
RTVSPropertyOp8
 70
     1
102
RTVSPropertyOp9
 70
     1
102
RTVSPropertyOp10
 70
     1
102
RTVSPropertyOp11
 70
     1
102
RTVSPropertyOp12
 70
     1
102
RTVSPropertyOp13
 70
     1
102
RTVSPropertyOp14
 70
     1
102
RTVSPropertyOp15
 70
     1
102
RTVSPropertyOp16
 70
     1
102
RTVSPropertyOp17
 70
     1
102
RTVSPropertyOp18
 70
     1
102
RTVSPropertyOp19
 70
     1
102
RTVSPropertyOp20
 70
     1
102
RTVSPropertyOp21
 70
     1
102
RTVSPropertyOp22
 70
     1
102
RTVSPropertyOp23
 70
     1
102
RTVSPropertyOp24
 70
     1
102
RTVSPropertyOp25
 70
     1
102
RTVSPropertyOp26
 70
     1
102
RTVSPropertyOp27
 70
     1
102
RTVSPropertyOp28
 70
     1
102
RTVSPropertyOp29
 70
     1
102
RTVSPropertyOp30
 70
     1
102
RTVSPropertyOp31
 70
     1
102
RTVSPropertyOp32
 70
     1
102
RTVSPropertyOp33
 70
     1
102
RTVSPropertyOp34
 70
     1
102
RTVSPropertyOp35
 70
     1
102
RTVSPropertyOp36
 70
     1
102
RTVSPropertyOp37
 70
     1
102
RTVSPropertyOp38
 70
     1
102
RTVSPropertyOp39
 70
     1
102
RTVSPropertyOp40
 70
     1
102
RTVSPropertyOp41
 70
     1
102
RTVSPropertyOp42
 70
     1
102
RTVSPropertyOp43
 70
     1
102
RTVSPropertyOp44
 70
     1
102
RTVSPropertyOp45
 70
     1
102
RTVSPropertyOp46
 70
     1
102
RTVSPropertyOp47
 70
     1
102
RTVSPropertyOp48
 70
     1
102
RTVSPropertyOp49
 70
     1
102
RTVSPropertyOp50
 70
     1
102
RTVSPropertyOp51
 70
     0
102
RTVSPropertyOp52
 70
     0
102
RTVSPropertyOp53
 70
     1
102
RTVSPropertyOp54
 70
     1
102
RTVSPropertyOp55
 70
     1
102
RTVSPropertyOp56
 70
     1
102
RTVSPropertyOp57
 70
     1
102
RTVSPost2010Prop28
280
     0
102
RTVSPost2010PropOp28
 70
     1
102
RTVSPost2010Prop29
280
     1
102
RTVSPost2010PropOp29
 70
     1
102
RTVSPost2010Prop30
280
     1
102
RTVSPost2010PropOp30
 70
     1
102
RTVSPost2010Prop31
280
     0
102
RTVSPost2010PropOp31
 70
     1
102
RTVSPost2010Prop32
280
     0
102
RTVSPost2010PropOp32
 70
     1
102
RTVSPost2010Prop33
280
     0
102
RTVSPost2010PropOp33
 70
     1
102
RTVSPost2010Prop34
280
     0
102
RTVSPost2010PropOp34
 70
     1
102
RTVSPost2010Prop35
280
     0
102
RTVSPost2010PropOp35
 70
     1
102
RTVSPost2010Prop36
280
     0
102
RTVSPost2010PropOp36
 70
     1
102
RTVSPost2010Prop37
 90
       50
102
RTVSPost2010PropOp37
 70
     1
102
RTVSPost2010Prop38
140
0.0
102
RTVSPost2010PropOp38
 70
     1
102
RTVSPost2010Prop39
140
1.0
102
RTVSPost2010PropOp39
 70
     1
102
RTVSPost2010Prop40
 90
        0
102
RTVSPost2010PropOp40
 70
     1
102
RTVSPost2010Prop41ColorIndex
 90
       18
102
RTVSPost2010Prop41ColorRGB
 90
        0
102
RTVSPost2010PropOp41
 70
     1
102
RTVSPost2010Prop42
 90
       50
102
RTVSPost2010PropOp42
 70
     1
102
RTVSPost2010Prop43
 90
        3
102
RTVSPost2010PropOp43
 70
     1
102
RTVSPost2010Prop44ColorIndex
 90
        5
102
RTVSPost2010Prop44ColorRGB
 90
      255
102
RTVSPost2010PropOp44
 70
     1
102
RTVSPost2010Prop45
280
     0
102
RTVSPost2010PropOp45
 70
     1
102
RTVSPost2010Prop46
 90
       50
102
RTVSPost2010PropOp46
 70
     1
102
RTVSPost2010Prop47
 90
       50
102
RTVSPost2010PropOp47
 70
     1
102
RTVSPost2010Prop48
 90
       50
102
RTVSPost2010PropOp48
 70
     1
102
RTVSPost2010Prop49
280
     0
102
RTVSPost2010PropOp49
 70
     1
102
RTVSPost2010Prop50
 90
       50
102
RTVSPost2010PropOp50
 70
     1
102
RTVSPost2010Prop51ColorIndex
 90
      256
102
RTVSPost2010Prop51ColorRGB
 90
-16777216
102
RTVSPost2010PropOp51
 70
     0
102
RTVSPost2010Prop52
140
1.0
102
RTVSPost2010PropOp52
 70
     0
102
RTVSPost2010Prop53
 90
        2
102
RTVSPost2010PropOp53
 70
     1
102
RTVSPost2010Prop54
  1
strokes_ogs.tif
102
RTVSPost2010PropOp54
 70
     1
102
RTVSPost2010Prop55
280
     0
102
RTVSPost2010PropOp55
 70
     1
102
RTVSPost2010Prop56
140
1.0
102
RTVSPost2010PropOp56
 70
     1
102
RTVSPost2010Prop57
140
1.0
102
RTVSPost2010PropOp57
 70
     1
  0
XRECORD
  5
264
102
{ACAD_REACTORS
330
263
102
}
330
263
100
AcDbXrecord
280
     1
102
RTVSPropertyOp0
 70
     1
102
RTVSPropertyOp1
 70
     1
102
RTVSPropertyOp2
 70
     1
102
RTVSPropertyOp3
 70
     1
102
RTVSPropertyOp4
 70
     1
102
RTVSPropertyOp5
 70
     1
102
RTVSPropertyOp6
 70
     1
102
RTVSPropertyOp7
 70
     1
102
RTVSPropertyOp8
 70
     1
102
RTVSPropertyOp9
 70
     1
102
RTVSPropertyOp10
 70
     1
102
RTVSPropertyOp11
 70
     1
102
RTVSPropertyOp12
 70
     1
102
RTVSPropertyOp13
 70
     1
102
RTVSPropertyOp14
 70
     1
102
RTVSPropertyOp15
 70
     1
102
RTVSPropertyOp16
 70
     1
102
RTVSPropertyOp17
 70
     1
102
RTVSPropertyOp18
 70
     1
102
RTVSPropertyOp19
 70
     1
102
RTVSPropertyOp20
 70
     1
102
RTVSPropertyOp21
 70
     1
102
RTVSPropertyOp22
 70
     1
102
RTVSPropertyOp23
 70
     1
102
RTVSPropertyOp24
 70
     1
102
RTVSPropertyOp25
 70
     1
102
RTVSPropertyOp26
 70
     1
102
RTVSPropertyOp27
 70
     1
102
RTVSPropertyOp28
 70
     1
102
RTVSPropertyOp29
 70
     1
102
RTVSPropertyOp30
 70
     1
102
RTVSPropertyOp31
 70
     1
102
RTVSPropertyOp32
 70
     1
102
RTVSPropertyOp33
 70
     1
102
RTVSPropertyOp34
 70
     1
102
RTVSPropertyOp35
 70
     1
102
RTVSPropertyOp36
 70
     1
102
RTVSPropertyOp37
 70
     1
102
RTVSPropertyOp38
 70
     1
102
RTVSPropertyOp39
 70
     1
102
RTVSPropertyOp40
 70
     1
102
RTVSPropertyOp41
 70
     1
102
RTVSPropertyOp42
 70
     1
102
RTVSPropertyOp43
 70
     1
102
RTVSPropertyOp44
 70
     1
102
RTVSPropertyOp45
 70
     1
102
RTVSPropertyOp46
 70
     1
102
RTVSPropertyOp47
 70
     1
102
RTVSPropertyOp48
 70
     1
102
RTVSPropertyOp49
 70
     1
102
RTVSPropertyOp50
 70
     1
102
RTVSPropertyOp51
 70
     0
102
RTVSPropertyOp52
 70
     0
102
RTVSPropertyOp53
 70
     1
102
RTVSPropertyOp54
 70
     1
102
RTVSPropertyOp55
 70
     1
102
RTVSPropertyOp56
 70
     1
102
RTVSPropertyOp57
 70
     1
102
RTVSPost2010Prop28
280
     0
102
RTVSPost2010PropOp28
 70
     1
102
RTVSPost2010Prop29
280
     1
102
RTVSPost2010PropOp29
 70
     1
102
RTVSPost2010Prop30
280
     1
102
RTVSPost2010PropOp30
 70
     1
102
RTVSPost2010Prop31
280
     0
102
RTVSPost2010PropOp31
 70
     1
102
RTVSPost2010Prop32
280
     0
102
RTVSPost2010PropOp32
 70
     1
102
RTVSPost2010Prop33
280
     0
102
RTVSPost2010PropOp33
 70
     1
102
RTVSPost2010Prop34
280
     0
102
RTVSPost2010PropOp34
 70
     1
102
RTVSPost2010Prop35
280
     0
102
RTVSPost2010PropOp35
 70
     1
102
RTVSPost2010Prop36
280
     0
102
RTVSPost2010PropOp36
 70
     1
102
RTVSPost2010Prop37
 90
       50
102
RTVSPost2010PropOp37
 70
     1
102
RTVSPost2010Prop38
140
0.0
102
RTVSPost2010PropOp38
 70
     1
102
RTVSPost2010Prop39
140
1.0
102
RTVSPost2010PropOp39
 70
     1
102
RTVSPost2010Prop40
 90
        0
102
RTVSPost2010PropOp40
 70
     1
102
RTVSPost2010Prop41ColorIndex
 90
       18
102
RTVSPost2010Prop41ColorRGB
 90
        0
102
RTVSPost2010PropOp41
 70
     1
102
RTVSPost2010Prop42
 90
       50
102
RTVSPost2010PropOp42
 70
     1
102
RTVSPost2010Prop43
 90
        3
102
RTVSPost2010PropOp43
 70
     1
102
RTVSPost2010Prop44ColorIndex
 90
        5
102
RTVSPost2010Prop44ColorRGB
 90
      255
102
RTVSPost2010PropOp44
 70
     1
102
RTVSPost2010Prop45
280
     0
102
RTVSPost2010PropOp45
 70
     1
102
RTVSPost2010Prop46
 90
       50
102
RTVSPost2010PropOp46
 70
     1
102
RTVSPost2010Prop47
 90
       50
102
RTVSPost2010PropOp47
 70
     1
102
RTVSPost2010Prop48
 90
       50
102
RTVSPost2010PropOp48
 70
     1
102
RTVSPost2010Prop49
280
     0
102
RTVSPost2010PropOp49
 70
     1
102
RTVSPost2010Prop50
 90
       50
102
RTVSPost2010PropOp50
 70
     1
102
RTVSPost2010Prop51ColorIndex
 90
      256
102
RTVSPost2010Prop51ColorRGB
 90
-16777216
102
RTVSPost2010PropOp51
 70
     0
102
RTVSPost2010Prop52
140
1.0
102
RTVSPost2010PropOp52
 70
     0
102
RTVSPost2010Prop53
 90
        2
102
RTVSPost2010PropOp53
 70
     1
102
RTVSPost2010Prop54
  1
strokes_ogs.tif
102
RTVSPost2010PropOp54
 70
     1
102
RTVSPost2010Prop55
280
     0
102
RTVSPost2010PropOp55
 70
     1
102
RTVSPost2010Prop56
140
1.0
102
RTVSPost2010PropOp56
 70
     1
102
RTVSPost2010Prop57
140
1.0
102
RTVSPost2010PropOp57
 70
     1
  0
XRECORD
  5
256
102
{ACAD_REACTORS
330
255
102
}
330
255
100
AcDbXrecord
280
     1
102
RTVSPropertyOp0
 70
     1
102
RTVSPropertyOp1
 70
     1
102
RTVSPropertyOp2
 70
     1
102
RTVSPropertyOp3
 70
     1
102
RTVSPropertyOp4
 70
     1
102
RTVSPropertyOp5
 70
     1
102
RTVSPropertyOp6
 70
     1
102
RTVSPropertyOp7
 70
     1
102
RTVSPropertyOp8
 70
     1
102
RTVSPropertyOp9
 70
     1
102
RTVSPropertyOp10
 70
     1
102
RTVSPropertyOp11
 70
     1
102
RTVSPropertyOp12
 70
     1
102
RTVSPropertyOp13
 70
     1
102
RTVSPropertyOp14
 70
     1
102
RTVSPropertyOp15
 70
     1
102
RTVSPropertyOp16
 70
     1
102
RTVSPropertyOp17
 70
     1
102
RTVSPropertyOp18
 70
     1
102
RTVSPropertyOp19
 70
     1
102
RTVSPropertyOp20
 70
     1
102
RTVSPropertyOp21
 70
     1
102
RTVSPropertyOp22
 70
     1
102
RTVSPropertyOp23
 70
     1
102
RTVSPropertyOp24
 70
     1
102
RTVSPropertyOp25
 70
     1
102
RTVSPropertyOp26
 70
     1
102
RTVSPropertyOp27
 70
     1
102
RTVSPropertyOp28
 70
     1
102
RTVSPropertyOp29
 70
     1
102
RTVSPropertyOp30
 70
     1
102
RTVSPropertyOp31
 70
     1
102
RTVSPropertyOp32
 70
     1
102
RTVSPropertyOp33
 70
     1
102
RTVSPropertyOp34
 70
     1
102
RTVSPropertyOp35
 70
     1
102
RTVSPropertyOp36
 70
     1
102
RTVSPropertyOp37
 70
     1
102
RTVSPropertyOp38
 70
     1
102
RTVSPropertyOp39
 70
     1
102
RTVSPropertyOp40
 70
     1
102
RTVSPropertyOp41
 70
     1
102
RTVSPropertyOp42
 70
     1
102
RTVSPropertyOp43
 70
     1
102
RTVSPropertyOp44
 70
     1
102
RTVSPropertyOp45
 70
     1
102
RTVSPropertyOp46
 70
     1
102
RTVSPropertyOp47
 70
     1
102
RTVSPropertyOp48
 70
     1
102
RTVSPropertyOp49
 70
     1
102
RTVSPropertyOp50
 70
     1
102
RTVSPropertyOp51
 70
     0
102
RTVSPropertyOp52
 70
     0
102
RTVSPropertyOp53
 70
     1
102
RTVSPropertyOp54
 70
     1
102
RTVSPropertyOp55
 70
     1
102
RTVSPropertyOp56
 70
     1
102
RTVSPropertyOp57
 70
     1
102
RTVSPost2010Prop28
280
     0
102
RTVSPost2010PropOp28
 70
     1
102
RTVSPost2010Prop29
280
     1
102
RTVSPost2010PropOp29
 70
     1
102
RTVSPost2010Prop30
280
     1
102
RTVSPost2010PropOp30
 70
     1
102
RTVSPost2010Prop31
280
     0
102
RTVSPost2010PropOp31
 70
     1
102
RTVSPost2010Prop32
280
     0
102
RTVSPost2010PropOp32
 70
     1
102
RTVSPost2010Prop33
280
     0
102
RTVSPost2010PropOp33
 70
     1
102
RTVSPost2010Prop34
280
     0
102
RTVSPost2010PropOp34
 70
     1
102
RTVSPost2010Prop35
280
     0
102
RTVSPost2010PropOp35
 70
     1
102
RTVSPost2010Prop36
280
     0
102
RTVSPost2010PropOp36
 70
     1
102
RTVSPost2010Prop37
 90
       50
102
RTVSPost2010PropOp37
 70
     1
102
RTVSPost2010Prop38
140
0.0
102
RTVSPost2010PropOp38
 70
     1
102
RTVSPost2010Prop39
140
1.0
102
RTVSPost2010PropOp39
 70
     1
102
RTVSPost2010Prop40
 90
        0
102
RTVSPost2010PropOp40
 70
     1
102
RTVSPost2010Prop41ColorIndex
 90
       18
102
RTVSPost2010Prop41ColorRGB
 90
        0
102
RTVSPost2010PropOp41
 70
     1
102
RTVSPost2010Prop42
 90
       50
102
RTVSPost2010PropOp42
 70
     1
102
RTVSPost2010Prop43
 90
        3
102
RTVSPost2010PropOp43
 70
     1
102
RTVSPost2010Prop44ColorIndex
 90
        5
102
RTVSPost2010Prop44ColorRGB
 90
      255
102
RTVSPost2010PropOp44
 70
     1
102
RTVSPost2010Prop45
280
     0
102
RTVSPost2010PropOp45
 70
     1
102
RTVSPost2010Prop46
 90
       50
102
RTVSPost2010PropOp46
 70
     1
102
RTVSPost2010Prop47
 90
       50
102
RTVSPost2010PropOp47
 70
     1
102
RTVSPost2010Prop48
 90
       50
102
RTVSPost2010PropOp48
 70
     1
102
RTVSPost2010Prop49
280
     0
102
RTVSPost2010PropOp49
 70
     1
102
RTVSPost2010Prop50
 90
       50
102
RTVSPost2010PropOp50
 70
     1
102
RTVSPost2010Prop51ColorIndex
 90
      256
102
RTVSPost2010Prop51ColorRGB
 90
-16777216
102
RTVSPost2010PropOp51
 70
     0
102
RTVSPost2010Prop52
140
1.0
102
RTVSPost2010PropOp52
 70
     0
102
RTVSPost2010Prop53
 90
        2
102
RTVSPost2010PropOp53
 70
     1
102
RTVSPost2010Prop54
  1
strokes_ogs.tif
102
RTVSPost2010PropOp54
 70
     1
102
RTVSPost2010Prop55
280
     0
102
RTVSPost2010PropOp55
 70
     1
102
RTVSPost2010Prop56
140
1.0
102
RTVSPost2010PropOp56
 70
     1
102
RTVSPost2010Prop57
140
1.0
102
RTVSPost2010PropOp57
 70
     1
  0
XRECORD
  5
276
102
{ACAD_REACTORS
330
275
102
}
330
275
100
AcDbXrecord
280
     1
102
RTVSPropertyOp0
 70
     1
102
RTVSPropertyOp1
 70
     1
102
RTVSPropertyOp2
 70
     1
102
RTVSPropertyOp3
 70
     1
102
RTVSPropertyOp4
 70
     1
102
RTVSPropertyOp5
 70
     1
102
RTVSPropertyOp6
 70
     1
102
RTVSPropertyOp7
 70
     1
102
RTVSPropertyOp8
 70
     1
102
RTVSPropertyOp9
 70
     1
102
RTVSPropertyOp10
 70
     1
102
RTVSPropertyOp11
 70
     1
102
RTVSPropertyOp12
 70
     1
102
RTVSPropertyOp13
 70
     1
102
RTVSPropertyOp14
 70
     1
102
RTVSPropertyOp15
 70
     1
102
RTVSPropertyOp16
 70
     1
102
RTVSPropertyOp17
 70
     1
102
RTVSPropertyOp18
 70
     1
102
RTVSPropertyOp19
 70
     1
102
RTVSPropertyOp20
 70
     1
102
RTVSPropertyOp21
 70
     1
102
RTVSPropertyOp22
 70
     1
102
RTVSPropertyOp23
 70
     1
102
RTVSPropertyOp24
 70
     1
102
RTVSPropertyOp25
 70
     1
102
RTVSPropertyOp26
 70
     1
102
RTVSPropertyOp27
 70
     1
102
RTVSPropertyOp28
 70
     1
102
RTVSPropertyOp29
 70
     1
102
RTVSPropertyOp30
 70
     1
102
RTVSPropertyOp31
 70
     1
102
RTVSPropertyOp32
 70
     1
102
RTVSPropertyOp33
 70
     1
102
RTVSPropertyOp34
 70
     1
102
RTVSPropertyOp35
 70
     1
102
RTVSPropertyOp36
 70
     1
102
RTVSPropertyOp37
 70
     1
102
RTVSPropertyOp38
 70
     1
102
RTVSPropertyOp39
 70
     1
102
RTVSPropertyOp40
 70
     1
102
RTVSPropertyOp41
 70
     1
102
RTVSPropertyOp42
 70
     1
102
RTVSPropertyOp43
 70
     1
102
RTVSPropertyOp44
 70
     1
102
RTVSPropertyOp45
 70
     1
102
RTVSPropertyOp46
 70
     1
102
RTVSPropertyOp47
 70
     1
102
RTVSPropertyOp48
 70
     1
102
RTVSPropertyOp49
 70
     1
102
RTVSPropertyOp50
 70
     1
102
RTVSPropertyOp51
 70
     0
102
RTVSPropertyOp52
 70
     0
102
RTVSPropertyOp53
 70
     1
102
RTVSPropertyOp54
 70
     1
102
RTVSPropertyOp55
 70
     1
102
RTVSPropertyOp56
 70
     1
102
RTVSPropertyOp57
 70
     1
102
RTVSPost2010Prop28
280
     0
102
RTVSPost2010PropOp28
 70
     1
102
RTVSPost2010Prop29
280
     1
102
RTVSPost2010PropOp29
 70
     1
102
RTVSPost2010Prop30
280
     1
102
RTVSPost2010PropOp30
 70
     1
102
RTVSPost2010Prop31
280
     0
102
RTVSPost2010PropOp31
 70
     1
102
RTVSPost2010Prop32
280
     0
102
RTVSPost2010PropOp32
 70
     1
102
RTVSPost2010Prop33
280
     0
102
RTVSPost2010PropOp33
 70
     1
102
RTVSPost2010Prop34
280
     0
102
RTVSPost2010PropOp34
 70
     1
102
RTVSPost2010Prop35
280
     0
102
RTVSPost2010PropOp35
 70
     1
102
RTVSPost2010Prop36
280
     0
102
RTVSPost2010PropOp36
 70
     1
102
RTVSPost2010Prop37
 90
       50
102
RTVSPost2010PropOp37
 70
     1
102
RTVSPost2010Prop38
140
0.0
102
RTVSPost2010PropOp38
 70
     1
102
RTVSPost2010Prop39
140
1.0
102
RTVSPost2010PropOp39
 70
     1
102
RTVSPost2010Prop40
 90
        0
102
RTVSPost2010PropOp40
 70
     1
102
RTVSPost2010Prop41ColorIndex
 90
       18
102
RTVSPost2010Prop41ColorRGB
 90
        0
102
RTVSPost2010PropOp41
 70
     1
102
RTVSPost2010Prop42
 90
       50
102
RTVSPost2010PropOp42
 70
     1
102
RTVSPost2010Prop43
 90
        3
102
RTVSPost2010PropOp43
 70
     1
102
RTVSPost2010Prop44ColorIndex
 90
        5
102
RTVSPost2010Prop44ColorRGB
 90
      255
102
RTVSPost2010PropOp44
 70
     1
102
RTVSPost2010Prop45
280
     0
102
RTVSPost2010PropOp45
 70
     1
102
RTVSPost2010Prop46
 90
       50
102
RTVSPost2010PropOp46
 70
     1
102
RTVSPost2010Prop47
 90
       50
102
RTVSPost2010PropOp47
 70
     1
102
RTVSPost2010Prop48
 90
       50
102
RTVSPost2010PropOp48
 70
     1
102
RTVSPost2010Prop49
280
     0
102
RTVSPost2010PropOp49
 70
     1
102
RTVSPost2010Prop50
 90
       50
102
RTVSPost2010PropOp50
 70
     1
102
RTVSPost2010Prop51ColorIndex
 90
      256
102
RTVSPost2010Prop51ColorRGB
 90
-16777216
102
RTVSPost2010PropOp51
 70
     0
102
RTVSPost2010Prop52
140
1.0
102
RTVSPost2010PropOp52
 70
     0
102
RTVSPost2010Prop53
 90
        2
102
RTVSPost2010PropOp53
 70
     1
102
RTVSPost2010Prop54
  1
strokes_ogs.tif
102
RTVSPost2010PropOp54
 70
     1
102
RTVSPost2010Prop55
280
     0
102
RTVSPost2010PropOp55
 70
     1
102
RTVSPost2010Prop56
140
1.0
102
RTVSPost2010PropOp56
 70
     1
102
RTVSPost2010Prop57
140
1.0
102
RTVSPost2010PropOp57
 70
     1
  0
ENDSEC
  0
EOF
