  0
SECTION
  2
HEADER
  9
$ACADVER
  1
AC1024
  9
$ACADMAINTVER
 70
     6
  9
$DWGCODEPAGE
  3
ANSI_1252
  9
$INSBASE
 10
0.0
 20
0.0
 30
0.0
  9
$EXTMIN
 10
1.000000E+20
 20
1.000000E+20
 30
1.000000E+20
  9
$EXTMAX
 10
-1.000000E+20
 20
-1.000000E+20
 30
-1.000000E+20
  9
$LIMMIN
 10
0.0
 20
0.0
  9
$LIMMAX
 10
420.0
 20
297.0
  9
$ORTHOMODE
 70
     0
  9
$REGENMODE
 70
     1
  9
$FILLMODE
 70
     1
  9
$QTEXTMODE
 70
     0
  9
$MIRRTEXT
 70
     1
  9
$LTSCALE
 40
1.0
  9
$ATTMODE
 70
     1
  9
$TEXTSIZE
 40
2.5
  9
$TRACEWID
 40
1.0
  9
$TEXTSTYLE
  7
Standard
  9
$CLAYER
  8
0
  9
$CELTYPE
  6
ByLayer
  9
$CECOLOR
 62
   256
  9
$CELTSCALE
 40
1.0
  9
$DISPSILH
 70
     0
  9
$DIMSCALE
 40
1.0
  9
$DIMASZ
 40
2.5
  9
$DIMEXO
 40
0.625
  9
$DIMDLI
 40
3.75
  9
$DIMRND
 40
0.0
  9
$DIMDLE
 40
0.0
  9
$DIMEXE
 40
1.25
  9
$DIMTP
 40
0.0
  9
$DIMTM
 40
0.0
  9
$DIMTXT
 40
2.5
  9
$DIMCEN
 40
2.5
  9
$DIMTSZ
 40
0.0
  9
$DIMTOL
 70
     0
  9
$DIMLIM
 70
     0
  9
$DIMTIH
 70
     0
  9
$DIMTOH
 70
     0
  9
$DIMSE1
 70
     0
  9
$DIMSE2
 70
     0
  9
$DIMTAD
 70
     1
  9
$DIMZIN
 70
     8
  9
$DIMBLK
  1

  9
$DIMASO
 70
     1
  9
$DIMSHO
 70
     1
  9
$DIMPOST
  1

  9
$DIMAPOST
  1

  9
$DIMALT
 70
     0
  9
$DIMALTD
 70
     3
  9
$DIMALTF
 40
0.03937
  9
$DIMLFAC
 40
1.0
  9
$DIMTOFL
 70
     1
  9
$DIMTVP
 40
0.0
  9
$DIMTIX
 70
     0
  9
$DIMSOXD
 70
     0
  9
$DIMSAH
 70
     0
  9
$DIMBLK1
  1

  9
$DIMBLK2
  1

  9
$DIMSTYLE
  2
ISO-25
  9
$DIMCLRD
 70
     0
  9
$DIMCLRE
 70
     0
  9
$DIMCLRT
 70
     0
  9
$DIMTFAC
 40
1.0
  9
$DIMGAP
 40
0.625
  9
$DIMJUST
 70
     0
  9
$DIMSD1
 70
     0
  9
$DIMSD2
 70
     0
  9
$DIMTOLJ
 70
     0
  9
$DIMTZIN
 70
     8
  9
$DIMALTZ
 70
     0
  9
$DIMALTTZ
 70
     0
  9
$DIMUPT
 70
     0
  9
$DIMDEC
 70
     2
  9
$DIMTDEC
 70
     2
  9
$DIMALTU
 70
     2
  9
$DIMALTTD
 70
     3
  9
$DIMTXSTY
  7
Standard
  9
$DIMAUNIT
 70
     0
  9
$DIMADEC
 70
     0
  9
$DIMALTRND
 40
0.0
  9
$DIMAZIN
 70
     0
  9
$DIMDSEP
 70
    44
  9
$DIMATFIT
 70
     3
  9
$DIMFRAC
 70
     0
  9
$DIMLDRBLK
  1

  9
$DIMLUNIT
 70
     2
  9
$DIMLWD
 70
    -2
  9
$DIMLWE
 70
    -2
  9
$DIMTMOVE
 70
     0
  9
$DIMFXL
 40
1.0
  9
$DIMFXLON
 70
     0
  9
$DIMJOGANG
 40
0.785398
  9
$DIMTFILL
 70
     0
  9
$DIMTFILLCLR
 70
     0
  9
$DIMARCSYM
 70
     0
  9
$DIMLTYPE
  6

  9
$DIMLTEX1
  6

  9
$DIMLTEX2
  6

  9
$DIMTXTDIRECTION
 70
     0
  9
$LUNITS
 70
     2
  9
$LUPREC
 70
     4
  9
$SKETCHINC
 40
1.0
  9
$FILLETRAD
 40
10.0
  9
$AUNITS
 70
     0
  9
$AUPREC
 70
     0
  9
$MENU
  1
.
  9
$ELEVATION
 40
0.0
  9
$PELEVATION
 40
0.0
  9
$THICKNESS
 40
0.0
  9
$LIMCHECK
 70
     0
  9
$CHAMFERA
 40
10.0
  9
$CHAMFERB
 40
10.0
  9
$CHAMFERC
 40
20.0
  9
$CHAMFERD
 40
0.0
  9
$SKPOLY
 70
     0
  9
$TDCREATE
 40
2457128.601195451
  9
$TDUCREATE
 40
2457128.517862118
  9
$TDUPDATE
 40
2457128.601195463
  9
$TDUUPDATE
 40
2457128.517862129
  9
$TDINDWG
 40
0.0000000116
  9
$TDUSRTIMER
 40
0.0000000116
  9
$USRTIMER
 70
     1
  9
$ANGBASE
 50
0.0
  9
$ANGDIR
 70
     0
  9
$PDMODE
 70
     0
  9
$PDSIZE
 40
0.0
  9
$PLINEWID
 40
0.0
  9
$SPLFRAME
 70
     0
  9
$SPLINETYPE
 70
     6
  9
$SPLINESEGS
 70
     8
  9
$HANDSEED
  5
2F2
  9
$SURFTAB1
 70
     6
  9
$SURFTAB2
 70
     6
  9
$SURFTYPE
 70
     6
  9
$SURFU
 70
     6
  9
$SURFV
 70
     6
  9
$UCSBASE
  2

  9
$UCSNAME
  2

  9
$UCSORG
 10
0.0
 20
0.0
 30
0.0
  9
$UCSXDIR
 10
1.0
 20
0.0
 30
0.0
  9
$UCSYDIR
 10
0.0
 20
1.0
 30
0.0
  9
$UCSORTHOREF
  2

  9
$UCSORTHOVIEW
 70
     0
  9
$UCSORGTOP
 10
0.0
 20
0.0
 30
0.0
  9
$UCSORGBOTTOM
 10
0.0
 20
0.0
 30
0.0
  9
$UCSORGLEFT
 10
0.0
 20
0.0
 30
0.0
  9
$UCSORGRIGHT
 10
0.0
 20
0.0
 30
0.0
  9
$UCSORGFRONT
 10
0.0
 20
0.0
 30
0.0
  9
$UCSORGBACK
 10
0.0
 20
0.0
 30
0.0
  9
$PUCSBASE
  2

  9
$PUCSNAME
  2

  9
$PUCSORG
 10
0.0
 20
0.0
 30
0.0
  9
$PUCSXDIR
 10
1.0
 20
0.0
 30
0.0
  9
$PUCSYDIR
 10
0.0
 20
1.0
 30
0.0
  9
$PUCSORTHOREF
  2

  9
$PUCSORTHOVIEW
 70
     0
  9
$PUCSORGTOP
 10
0.0
 20
0.0
 30
0.0
  9
$PUCSORGBOTTOM
 10
0.0
 20
0.0
 30
0.0
  9
$PUCSORGLEFT
 10
0.0
 20
0.0
 30
0.0
  9
$PUCSORGRIGHT
 10
0.0
 20
0.0
 30
0.0
  9
$PUCSORGFRONT
 10
0.0
 20
0.0
 30
0.0
  9
$PUCSORGBACK
 10
0.0
 20
0.0
 30
0.0
  9
$USERI1
 70
     0
  9
$USERI2
 70
     0
  9
$USERI3
 70
     0
  9
$USERI4
 70
     0
  9
$USERI5
 70
     0
  9
$USERR1
 40
0.0
  9
$USERR2
 40
0.0
  9
$USERR3
 40
0.0
  9
$USERR4
 40
0.0
  9
$USERR5
 40
0.0
  9
$WORLDVIEW
 70
     1
  9
$SHADEDGE
 70
     3
  9
$SHADEDIF
 70
    70
  9
$TILEMODE
 70
     1
  9
$MAXACTVP
 70
    64
  9
$PINSBASE
 10
0.0
 20
0.0
 30
0.0
  9
$PLIMCHECK
 70
     0
  9
$PEXTMIN
 10
1.000000E+20
 20
1.000000E+20
 30
1.000000E+20
  9
$PEXTMAX
 10
-1.000000E+20
 20
-1.000000E+20
 30
-1.000000E+20
  9
$PLIMMIN
 10
0.0
 20
0.0
  9
$PLIMMAX
 10
420.0
 20
297.0
  9
$UNITMODE
 70
     0
  9
$VISRETAIN
 70
     1
  9
$PLINEGEN
 70
     0
  9
$PSLTSCALE
 70
     1
  9
$TREEDEPTH
 70
  3020
  9
$CMLSTYLE
  2
Standard
  9
$CMLJUST
 70
     0
  9
$CMLSCALE
 40
20.0
  9
$PROXYGRAPHICS
 70
     1
  9
$MEASUREMENT
 70
     1
  9
$CELWEIGHT
370
    -1
  9
$ENDCAPS
280
     0
  9
$JOINSTYLE
280
     0
  9
$LWDISPLAY
290
     0
  9
$INSUNITS
 70
     4
  9
$HYPERLINKBASE
  1

  9
$STYLESHEET
  1

  9
$XEDIT
290
     1
  9
$CEPSNTYPE
380
     0
  9
$PSTYLEMODE
290
     1
  9
$FINGERPRINTGUID
  2
{C2E60A1A-F504-4374-ACD2-EC7727D44343}
  9
$VERSIONGUID
  2
{FAEB1C32-E019-11D5-929B-00C0DF256EC4}
  9
$EXTNAMES
290
     1
  9
$PSVPSCALE
 40
0.0
  9
$OLESTARTUP
290
     0
  9
$SORTENTS
280
   127
  9
$INDEXCTL
280
     0
  9
$HIDETEXT
280
     1
  9
$XCLIPFRAME
280
     2
  9
$HALOGAP
280
     0
  9
$OBSCOLOR
 70
   257
  9
$OBSLTYPE
280
     0
  9
$INTERSECTIONDISPLAY
280
     0
  9
$INTERSECTIONCOLOR
 70
   257
  9
$DIMASSOC
280
     2
  9
$PROJECTNAME
  1

  9
$CAMERADISPLAY
290
     0
  9
$LENSLENGTH
 40
50.0
  9
$CAMERAHEIGHT
 40
0.0
  9
$STEPSPERSEC
 40
2.0
  9
$STEPSIZE
 40
6.0
  9
$3DDWFPREC
 40
2.0
  9
$PSOLWIDTH
 40
5.0
  9
$PSOLHEIGHT
 40
80.0
  9
$LOFTANG1
 40
1.570796
  9
$LOFTANG2
 40
1.570796
  9
$LOFTMAG1
 40
0.0
  9
$LOFTMAG2
 40
0.0
  9
$LOFTPARAM
 70
     7
  9
$LOFTNORMALS
280
     1
  9
$LATITUDE
 40
37.795
  9
$LONGITUDE
 40
-122.394
  9
$NORTHDIRECTION
 40
0.0
  9
$TIMEZONE
 70
 -8000
  9
$LIGHTGLYPHDISPLAY
280
     1
  9
$TILEMODELIGHTSYNCH
280
     1
  9
$SOLIDHIST
280
     1
  9
$SHOWHIST
280
     1
  9
$DWFFRAME
280
     2
  9
$DGNFRAME
280
     2
  9
$REALWORLDSCALE
290
     1
  9
$INTERFERECOLOR
 62
   256
  9
$CSHADOW
280
     0
  9
$SHADOWPLANELOCATION
 40
0.0
  0
ENDSEC
  0
SECTION
  2
CLASSES
  0
CLASS
  1
ACDBDICTIONARYWDFLT
  2
AcDbDictionaryWithDefault
  3
ObjectDBX Classes
 90
        0
 91
        4
280
     0
281
     0
  0
CLASS
  1
VISUALSTYLE
  2
AcDbVisualStyle
  3
ObjectDBX Classes
 90
     4095
 91
        4
280
     0
281
     0
  0
CLASS
  1
MATERIAL
  2
AcDbMaterial
  3
ObjectDBX Classes
 90
     1153
 91
        4
280
     0
281
     0
  0
ENDSEC
  0
SECTION
  2
TABLES
  0
TABLE
  2
VPORT
  5
8
330
0
100
AcDbSymbolTable
 70
     1
  0
VPORT
  5
29
330
8
100
AcDbSymbolTableRecord
100
AcDbViewportTableRecord
  2
*Active
 70
     0
 10
0.0
 20
0.0
 11
1.0
 21
1.0
 12
344.186916
 22
148.5
 13
0.0
 23
0.0
 14
10.0
 24
10.0
 15
10.0
 25
10.0
 16
0.0
 26
0.0
 36
1.0
 17
0.0
 27
0.0
 37
0.0
 40
297.0
 41
1.972973
 42
50.0
 43
0.0
 44
0.0
 50
0.0
 51
0.0
 71
     0
 72
   100
 73
     1
 74
     3
 75
     0
 76
     0
 77
     0
 78
     0
281
     0
 65
     1
110
0.0
120
0.0
130
0.0
111
1.0
121
0.0
131
0.0
112
0.0
122
1.0
132
0.0
 79
     0
146
0.0
 60
     3
 61
     5
292
     1
282
     1
141
0.0
142
0.0
 63
   250
  0
ENDTAB
  0
TABLE
  2
LTYPE
  5
5
330
0
100
AcDbSymbolTable
 70
     1
  0
LTYPE
  5
14
330
5
100
AcDbSymbolTableRecord
100
AcDbLinetypeTableRecord
  2
ByBlock
 70
     0
  3

 72
    65
 73
     0
 40
0.0
  0
LTYPE
  5
15
330
5
100
AcDbSymbolTableRecord
100
AcDbLinetypeTableRecord
  2
ByLayer
 70
     0
  3

 72
    65
 73
     0
 40
0.0
  0
LTYPE
  5
16
330
5
100
AcDbSymbolTableRecord
100
AcDbLinetypeTableRecord
  2
Continuous
 70
     0
  3
Solid line
 72
    65
 73
     0
 40
0.0
  0
ENDTAB
  0
TABLE
  2
LAYER
  5
2
330
0
100
AcDbSymbolTable
 70
     1
  0
LAYER
  5
10
330
2
100
AcDbSymbolTableRecord
100
AcDbLayerTableRecord
  2
0
 70
     0
 62
   102
  6
Continuous
370
     0
390
F
347
3E
  0
ENDTAB
  0
TABLE
  2
STYLE
  5
3
330
0
100
AcDbSymbolTable
 70
     4
  0
STYLE
  5
11
330
3
100
AcDbSymbolTableRecord
100
AcDbTextStyleTableRecord
  2
Standard
 70
     0
 40
0.0
 41
1.0
 50
0.0
 71
     0
 42
2.5
  3
txt
  4

1001
ACAD
1000
txt
1071
        0
  0
STYLE
  5
3F
330
3
100
AcDbSymbolTableRecord
100
AcDbTextStyleTableRecord
  2
Default
 70
     0
 40
0.0
 41
1.0
 50
0.0
 71
     0
 42
0.2
  3

  4

1001
ACAD
1000
txt
1071
        0
  0
STYLE
  5
40
330
3
100
AcDbSymbolTableRecord
100
AcDbTextStyleTableRecord
  2
ISO
 70
     0
 40
0.0
 41
1.0
 50
0.0
 71
     0
 42
0.2
  3

  4

1001
ACAD
1000
txt
1071
        0
  0
STYLE
  5
41
330
3
100
AcDbSymbolTableRecord
100
AcDbTextStyleTableRecord
  2
GIANLU
 70
     0
 40
0.0
 41
1.0
 50
0.0
 71
     0
 42
0.2
  3

  4

1001
ACAD
1000
Arial
1071
 33554432
  0
ENDTAB
  0
TABLE
  2
VIEW
  5
6
330
0
100
AcDbSymbolTable
 70
     0
  0
ENDTAB
  0
TABLE
  2
UCS
  5
7
330
0
100
AcDbSymbolTable
 70
     0
  0
ENDTAB
  0
TABLE
  2
APPID
  5
9
330
0
100
AcDbSymbolTable
 70
     1
  0
APPID
  5
12
330
9
100
AcDbSymbolTableRecord
100
AcDbRegAppTableRecord
  2
ACAD
 70
     0
  0
ENDTAB
  0
TABLE
  2
DIMSTYLE
  5
A
330
0
100
AcDbSymbolTable
 70
     5
100
AcDbDimStyleTable
  0
DIMSTYLE
105
27
330
A
100
AcDbSymbolTableRecord
100
AcDbDimStyleTableRecord
  2
ISO-25
 70
     0
 41
2.5
 42
0.625
 43
3.75
 44
1.25
 73
     0
 74
     0
 77
     1
 78
     8
140
2.5
141
2.5
143
0.03937
147
0.625
171
     3
172
     1
271
     2
272
     2
274
     3
278
    44
283
     0
284
     8
340
11
  0
DIMSTYLE
105
42
330
A
100
AcDbSymbolTableRecord
100
AcDbDimStyleTableRecord
  2
Default
 70
     0
  3
<>
 41
4.375
 42
1.05
 44
2.1
 49
10.01
 73
     0
 74
     0
 77
     1
 78
     8
140
3.5
146
0.4
147
1.75
172
     1
178
     2
271
     2
272
     3
284
     8
340
3F
341
43
342
43
  0
DIMSTYLE
105
4A
330
A
100
AcDbSymbolTableRecord
100
AcDbDimStyleTableRecord
  2
DefaultDimensionStyle
 70
     0
  3
<>
 41
2.5
 42
0.875
 44
1.75
 49
10.01
 73
     0
 74
     0
 77
     1
 78
     8
140
3.5
147
1.75
172
     1
178
     2
271
     2
272
     2
278
    44
284
     8
340
11
  0
DIMSTYLE
105
4B
330
A
100
AcDbSymbolTableRecord
100
AcDbDimStyleTableRecord
  2
ISO
 70
     0
  3
<>
 41
4.375
 42
1.05
 44
2.1
 49
10.01
 73
     0
 74
     0
 77
     1
 78
     8
140
3.5
146
0.4
147
1.75
172
     1
178
     2
271
     2
272
     3
284
     8
340
40
341
43
342
43
  0
DIMSTYLE
105
4C
330
A
100
AcDbSymbolTableRecord
100
AcDbDimStyleTableRecord
  2
zucchetti_unico
 70
     0
  3
<>
 41
3.5
 42
1.05
 44
2.1
 49
10.01
 73
     0
 74
     0
 77
     1
 78
     8
140
3.5
146
0.6
147
1.75
172
     1
178
     2
271
     2
272
     2
284
     8
340
11
  0
ENDTAB
  0
TABLE
  2
BLOCK_RECORD
  5
1
330
0
100
AcDbSymbolTable
 70
     7
  0
BLOCK_RECORD
  5
1F
330
1
100
AcDbSymbolTableRecord
100
AcDbBlockTableRecord
  2
*Model_Space
340
22
 70
     0
280
     1
281
     0
  0
BLOCK_RECORD
  5
1B
330
1
100
AcDbSymbolTableRecord
100
AcDbBlockTableRecord
  2
*Paper_Space
340
1E
 70
     0
280
     1
281
     0
  0
BLOCK_RECORD
  5
23
330
1
100
AcDbSymbolTableRecord
100
AcDbBlockTableRecord
  2
*Paper_Space0
340
26
 70
     0
280
     1
281
     0
  0
BLOCK_RECORD
  5
43
330
1
100
AcDbSymbolTableRecord
100
AcDbBlockTableRecord
  2
_CLOSED
340
0
 70
     0
280
     1
281
     0
  0
BLOCK_RECORD
  5
4D
330
1
100
AcDbSymbolTableRecord
100
AcDbBlockTableRecord
  2
a
340
0
102
{BLKREFS
331
FE
102
}
 70
     0
280
     1
281
     0
  0
BLOCK_RECORD
  5
FF
330
1
100
AcDbSymbolTableRecord
100
AcDbBlockTableRecord
  2
b
340
0
102
{BLKREFS
331
17E
102
}
 70
     0
280
     1
281
     0
  0
BLOCK_RECORD
  5
17F
330
1
100
AcDbSymbolTableRecord
100
AcDbBlockTableRecord
  2
c
340
0
102
{BLKREFS
331
1C7
102
}
 70
     0
280
     1
281
     0
  0
BLOCK_RECORD
  5
1C8
330
1
100
AcDbSymbolTableRecord
100
AcDbBlockTableRecord
  2
d
340
0
102
{BLKREFS
331
282
102
}
 70
     0
280
     1
281
     0
  0
BLOCK_RECORD
  5
283
330
1
100
AcDbSymbolTableRecord
100
AcDbBlockTableRecord
  2
e
340
0
102
{BLKREFS
331
2EF
102
}
 70
     0
280
     1
281
     0
  0
ENDTAB
  0
ENDSEC
  0
SECTION
  2
BLOCKS
  0
BLOCK
  5
20
330
1F
100
AcDbEntity
  8
0
100
AcDbBlockBegin
  2
*Model_Space
 70
     0
 10
0.0
 20
0.0
 30
0.0
  3
*Model_Space
  1

  0
ENDBLK
  5
21
330
1F
100
AcDbEntity
  8
0
100
AcDbBlockEnd
  0
BLOCK
  5
1C
330
1B
100
AcDbEntity
 67
     1
  8
0
100
AcDbBlockBegin
  2
*Paper_Space
 70
     0
 10
0.0
 20
0.0
 30
0.0
  3
*Paper_Space
  1

  0
ENDBLK
  5
1D
330
1B
100
AcDbEntity
 67
     1
  8
0
100
AcDbBlockEnd
  0
BLOCK
  5
24
330
23
100
AcDbEntity
  8
0
100
AcDbBlockBegin
  2
*Paper_Space0
 70
     0
 10
0.0
 20
0.0
 30
0.0
  3
*Paper_Space0
  1

  0
ENDBLK
  5
25
330
23
100
AcDbEntity
  8
0
100
AcDbBlockEnd
  0
BLOCK
  5
44
330
43
100
AcDbEntity
  8
0
100
AcDbBlockBegin
  2
_CLOSED
 70
     0
 10
0.0
 20
0.0
 30
0.0
  3
_CLOSED
  1

  0
LINE
  5
46
330
43
100
AcDbEntity
  8
0
  6
ByBlock
 62
     0
370
    -2
100
AcDbLine
 10
-1.0
 20
0.166667
 30
0.0
 11
0.0
 21
0.0
 31
0.0
  0
LINE
  5
47
330
43
100
AcDbEntity
  8
0
  6
ByBlock
 62
     0
370
    -2
100
AcDbLine
 10
0.0
 20
0.0
 30
0.0
 11
-1.0
 21
-0.166667
 31
0.0
  0
LINE
  5
48
330
43
100
AcDbEntity
  8
0
  6
ByBlock
 62
     0
370
    -2
100
AcDbLine
 10
-1.0
 20
0.166667
 30
0.0
 11
-1.0
 21
-0.166667
 31
0.0
  0
LINE
  5
49
330
43
100
AcDbEntity
  8
0
  6
ByBlock
 62
     0
370
    -2
100
AcDbLine
 10
0.0
 20
0.0
 30
0.0
 11
-1.0
 21
0.0
 31
0.0
  0
ENDBLK
  5
45
330
43
100
AcDbEntity
  8
0
100
AcDbBlockEnd
  0
BLOCK
  5
FC
330
4D
100
AcDbEntity
  8
0
100
AcDbBlockBegin
  2
a
 70
     0
 10
28.859177
 20
189.214294
 30
0.0
  3
a
  1

  0
ARC
  5
4E
330
4D
100
AcDbEntity
  8
0
  6
Continuous
 62
     0
370
     0
100
AcDbCircle
 10
105.060077
 20
678.373366
 30
0.0
 40
28.000487382772
100
AcDbArc
 50
180.001002
 51
269.999008
  0
LINE
  5
4F
330
4D
100
AcDbEntity
  8
0
  6
Continuous
 62
     0
370
     0
100
AcDbLine
 10
105.05959
 20
672.872878
 30
0.0
 11
105.059592
 21
650.372878
 31
0.0
  0
ARC
  5
50
330
4D
100
AcDbEntity
  8
0
  6
Continuous
 62
     0
370
    30
100
AcDbCircle
 10
105.059632
 20
678.372921
 30
0.0
 40
5.500042687151561
100
AcDbArc
 50
180.00045
 51
269.99956
  0
LINE
  5
51
330
4D
100
AcDbEntity
  8
0
  6
Continuous
 62
     0
370
     0
100
AcDbLine
 10
77.059589
 20
678.372876
 30
0.0
 11
99.559589
 21
678.372878
 31
0.0
  0
ARC
  5
52
330
4D
100
AcDbEntity
  8
0
  6
Continuous
 62
     0
370
     0
100
AcDbCircle
 10
105.060077
 20
622.372393
 30
0.0
 40
28.00048738277118
100
AcDbArc
 50
90.000992
 51
179.998998
  0
LINE
  5
53
330
4D
100
AcDbEntity
  8
0
  6
Continuous
 62
     0
370
     0
100
AcDbLine
 10
99.559589
 20
622.37288
 30
0.0
 11
77.059589
 21
622.372882
 31
0.0
  0
ARC
  5
54
330
4D
100
AcDbEntity
  8
0
  6
Continuous
 62
     0
370
    30
100
AcDbCircle
 10
105.059632
 20
622.372837
 30
0.0
 40
5.50004268715152
100
AcDbArc
 50
90.00044
 51
179.99955
  0
LINE
  5
55
330
4D
100
AcDbEntity
  8
0
  6
Continuous
 62
     0
370
     0
100
AcDbLine
 10
105.059592
 20
650.372878
 30
0.0
 11
105.05959
 21
627.87288
 31
0.0
  0
LINE
  5
56
330
4D
100
AcDbEntity
  8
0
  6
Continuous
 62
     0
370
    30
100
AcDbLine
 10
99.559591
 20
587.005371
 30
0.0
 11
99.559589
 21
622.37288
 31
0.0
  0
LINE
  5
57
330
4D
100
AcDbEntity
  8
0
  6
Continuous
 62
     0
370
     0
100
AcDbLine
 10
77.059589
 20
587.005339
 30
0.0
 11
77.059589
 21
622.372882
 31
0.0
  0
LINE
  5
58
330
4D
100
AcDbEntity
  8
0
  6
Continuous
 62
     0
370
     0
100
AcDbLine
 10
77.059589
 20
587.005339
 30
0.0
 11
99.559591
 21
587.005371
 31
0.0
  0
LINE
  5
59
330
4D
100
AcDbEntity
  8
0
  6
Continuous
 62
     0
370
    30
100
AcDbLine
 10
105.05959
 20
672.872878
 30
0.0
 11
107.367523
 21
672.872878
 31
0.0
  0
LINE
  5
5A
330
4D
100
AcDbEntity
  8
0
  6
Continuous
 62
     0
370
    30
100
AcDbLine
 10
107.486654
 20
627.87288
 30
0.0
 11
105.05959
 21
627.87288
 31
0.0
  0
SPLINE
  5
5B
330
4D
100
AcDbEntity
  8
0
  6
Continuous
 62
     0
370
     0
100
AcDbSpline
210
0.0
220
0.0
230
1.0
 70
     8
 71
     3
 72
    17
 73
    13
 74
     0
 42
0.0
 43
0.0
 40
0.0
 40
0.0
 40
0.0
 40
0.0
 40
1.718754101383531
 40
4.583500439394577
 40
9.48624150281726
 40
14.5486632533614
 40
19.61113947222288
 40
24.67377023188959
 40
27.83809520497009
 40
29.73680122144633
 40
33.11237746459108
 40
35.33169583367232
 40
35.33169583367232
 40
35.33169583367232
 40
35.33169583367232
 10
107.6508860578424
 20
650.372879902559
 30
0.0
 10
107.6524036243049
 20
649.8001014660613
 30
0.0
 10
107.6561837059481
 20
648.2720238905642
 30
0.0
 10
107.6595345340173
 20
645.1346734633393
 30
0.0
 10
107.6577401045495
 20
641.041029201466
 30
0.0
 10
107.6434320146449
 20
636.7021560643074
 30
0.0
 10
107.6182941651847
 20
633.0062153309267
 30
0.0
 10
107.5880905087333
 20
630.5385024868698
 30
0.0
 10
107.5604897954661
 20
629.2090462734279
 30
0.0
 10
107.5357685046422
 20
628.4002927446726
 30
0.0
 10
107.5127324095784
 20
627.9662612940072
 30
0.0
 10
107.4941270407302
 20
627.8732682463898
 30
0.0
 10
107.4867711353052
 20
627.8728827397218
 30
0.0
  0
LINE
  5
5C
330
4D
100
AcDbEntity
  8
0
  6
Continuous
 62
     0
370
     0
100
AcDbLine
 10
107.650886
 20
650.37288
 30
0.0
 11
105.059592
 21
650.37288
 31
0.0
  0
SPLINE
  5
5D
330
4D
100
AcDbEntity
  8
0
  6
Continuous
 62
     0
370
     0
100
AcDbSpline
210
0.0
220
0.0
230
1.0
 70
     8
 71
     3
 72
    17
 73
    13
 74
     0
 42
0.0
 43
0.0
 40
0.0
 40
0.0
 40
0.0
 40
0.0
 40
1.706339016653732
 40
4.550383530542367
 40
9.442487500490753
 40
14.50535991567011
 40
19.56799959870319
 40
24.63039839870083
 40
27.79445294476594
 40
29.69293249906594
 40
33.06807680507281
 40
35.34401262602155
 40
35.34401262602155
 40
35.34401262602155
 40
35.34401262602155
 10
107.3675234931056
 20
672.8728783633089
 30
0.0
 10
107.3731774207116
 20
672.8728783638034
 30
0.0
 10
107.3886924474109
 20
672.815327605939
 30
0.0
 10
107.4204018875213
 20
672.3784730364425
 30
0.0
 10
107.4649835186868
 20
671.0656885761016
 30
0.0
 10
107.514686081684
 20
668.5097576541148
 30
0.0
 10
107.5607369940414
 20
665.0105616310398
 30
0.0
 10
107.5953609542606
 20
661.303064404019
 30
0.0
 10
107.6167174628885
 20
658.1945402201642
 30
0.0
 10
107.6319092339249
 20
655.4997195371797
 30
0.0
 10
107.6432543732463
 20
653.0154614124623
 30
0.0
 10
107.6488777247515
 20
651.1312041675686
 30
0.0
 10
107.6508860578424
 20
650.3728799025699
 30
0.0
  0
LINE
  5
5E
330
4D
100
AcDbEntity
  8
0
  6
Continuous
 62
     0
370
    30
100
AcDbLine
 10
99.559589
 20
678.372878
 30
0.0
 11
99.559589
 21
678.800863
 31
0.0
  0
LINE
  5
5F
330
4D
100
AcDbEntity
  8
0
  6
Continuous
 62
     0
370
    30
100
AcDbLine
 10
99.559589
 20
678.800863
 30
0.0
 11
77.059589
 21
678.800864
 31
0.0
  0
LINE
  5
60
330
4D
100
AcDbEntity
  8
0
  6
Continuous
 62
     0
370
     0
100
AcDbLine
 10
77.059589
 20
678.372876
 30
0.0
 11
77.059589
 21
678.800864
 31
0.0
  0
LINE
  5
61
330
4D
100
AcDbEntity
  8
0
  6
Continuous
 62
     0
370
    30
100
AcDbLine
 10
115.059589
 20
628.269757
 30
0.0
 11
115.059589
 21
672.469757
 31
0.0
  0
LINE
  5
62
330
4D
100
AcDbEntity
  8
0
  6
Continuous
 62
     0
370
    30
100
AcDbLine
 10
115.059589
 20
628.269757
 30
0.0
 11
107.486771
 21
627.872883
 31
0.0
  0
LINE
  5
63
330
4D
100
AcDbEntity
  8
0
  6
Continuous
 62
     0
370
    30
100
AcDbLine
 10
98.859589
 20
683.372885
 30
0.0
 11
55.259589
 21
683.372885
 31
0.0
  0
LINE
  5
64
330
4D
100
AcDbEntity
  8
0
  6
Continuous
 62
     0
370
    30
100
AcDbLine
 10
54.559589
 20
678.800864
 30
0.0
 11
77.059589
 21
678.800864
 31
0.0
  0
LINE
  5
65
330
4D
100
AcDbEntity
  8
0
  6
Continuous
 62
     0
370
    30
100
AcDbLine
 10
99.185736
 20
683.074026
 30
0.0
 11
99.559589
 21
678.800863
 31
0.0
  0
LINE
  5
66
330
4D
100
AcDbEntity
  8
0
  6
Continuous
 62
     0
370
    30
100
AcDbLine
 10
99.185736
 20
683.074026
 30
0.0
 11
54.933443
 21
683.074026
 31
0.0
  0
LINE
  5
67
330
4D
100
AcDbEntity
  8
0
  6
Continuous
 62
     0
370
    30
100
AcDbLine
 10
99.185736
 20
683.074026
 30
0.0
 11
98.859589
 21
683.372885
 31
0.0
  0
LINE
  5
68
330
4D
100
AcDbEntity
  8
0
  6
Continuous
 62
     0
370
    30
100
AcDbLine
 10
54.959589
 20
579.372885
 30
0.0
 11
99.159589
 21
579.372885
 31
0.0
  0
LINE
  5
69
330
4D
100
AcDbEntity
  8
0
  6
Continuous
 62
     0
370
    30
100
AcDbLine
 10
54.959589
 20
579.372885
 30
0.0
 11
54.559589
 21
587.005339
 31
0.0
  0
LINE
  5
6A
330
4D
100
AcDbEntity
  8
0
  6
Continuous
 62
     0
370
     0
100
AcDbLine
 10
77.059589
 20
587.005339
 30
0.0
 11
54.559589
 21
587.005339
 31
0.0
  0
LINE
  5
6B
330
4D
100
AcDbEntity
  8
0
  6
Continuous
 62
     0
370
     0
100
AcDbLine
 10
77.059589
 20
678.372876
 30
0.0
 11
77.059589
 21
622.372882
 31
0.0
  0
LINE
  5
6C
330
4D
100
AcDbEntity
  8
0
  6
Continuous
 62
     0
370
    30
100
AcDbLine
 10
54.559589
 20
678.800864
 30
0.0
 11
54.559589
 21
587.005339
 31
0.0
  0
LINE
  5
6D
330
4D
100
AcDbEntity
  8
0
  6
Continuous
 62
     0
370
    30
100
AcDbLine
 10
99.559591
 20
587.005371
 30
0.0
 11
99.159589
 21
579.372885
 31
0.0
  0
LINE
  5
6E
330
4D
100
AcDbEntity
  8
0
  6
Continuous
 62
     0
370
    30
100
AcDbLine
 10
54.933443
 20
683.074026
 30
0.0
 11
55.259589
 21
683.372885
 31
0.0
  0
LINE
  5
6F
330
4D
100
AcDbEntity
  8
0
  6
Continuous
 62
     0
370
    30
100
AcDbLine
 10
54.559589
 20
678.800864
 30
0.0
 11
54.933443
 21
683.074026
 31
0.0
  0
LINE
  5
70
330
4D
100
AcDbEntity
  8
0
  6
Continuous
 62
     0
370
    30
100
AcDbLine
 10
107.367642
 20
672.872875
 30
0.0
 11
115.059589
 21
672.469757
 31
0.0
  0
LINE
  5
71
330
4D
100
AcDbEntity
  8
0
  6
Continuous
 62
     0
370
    30
100
AcDbLine
 10
125.65959
 20
738.372882
 30
0.0
 11
133.01161
 21
738.372882
 31
0.0
  0
LINE
  5
72
330
4D
100
AcDbEntity
  8
0
  6
Continuous
 62
     0
370
    30
100
AcDbLine
 10
133.01161
 20
738.372882
 30
0.0
 11
138.65959
 21
738.372882
 31
0.0
  0
LINE
  5
73
330
4D
100
AcDbEntity
  8
0
  6
Continuous
 62
     0
370
    30
100
AcDbLine
 10
138.65959
 20
678.372882
 30
0.0
 11
138.65959
 21
738.372882
 31
0.0
  0
LINE
  5
74
330
4D
100
AcDbEntity
  8
0
  6
Continuous
 62
     0
370
    30
100
AcDbLine
 10
125.65959
 20
678.372882
 30
0.0
 11
125.65959
 21
738.372882
 31
0.0
  0
LINE
  5
75
330
4D
100
AcDbEntity
  8
0
  6
Continuous
 62
     0
370
    30
100
AcDbLine
 10
125.659588
 20
678.372881
 30
0.0
 11
138.659588
 21
678.372881
 31
0.0
  0
LINE
  5
76
330
4D
100
AcDbEntity
  8
0
  6
Continuous
 62
     0
370
    30
100
AcDbLine
 10
138.659588
 20
678.372881
 30
0.0
 11
138.643656
 21
677.460144
 31
0.0
  0
SPLINE
  5
77
330
4D
100
AcDbEntity
  8
0
  6
Continuous
 62
     0
370
     0
100
AcDbSpline
210
0.0
220
0.0
230
1.0
 70
     8
 71
     3
 72
    21
 73
    17
 74
     0
 42
0.0
 43
0.0
 40
0.0
 40
0.0
 40
0.0
 40
0.0
 40
1.912405789321918
 40
3.830350421158677
 40
6.32391116788351
 40
7.661351199193069
 40
8.952158795729051
 40
10.23687625134339
 40
11.6201887532878
 40
12.6699143264469
 40
13.90342270692967
 40
15.64836897466497
 40
17.34311723258501
 40
18.41361149052811
 40
19.47528666719966
 40
21.03953786596914
 40
21.03953786596914
 40
21.03953786596914
 40
21.03953786596914
 10
138.6436559596168
 20
677.4601435044799
 30
0.0
 10
138.6436559596168
 20
677.460143426291
 30
0.0
 10
138.4588198001429
 20
677.3203921468407
 30
0.0
 10
137.5874158843259
 20
676.7065144283029
 30
0.0
 10
136.3030258638881
 20
675.9450863620403
 30
0.0
 10
134.8818834891351
 20
675.3596044934627
 30
0.0
 10
133.6845745528428
 20
675.0342879217175
 30
0.0
 10
132.4055753463812
 20
674.8844436445446
 30
0.0
 10
131.1920072553221
 20
674.947817049081
 30
0.0
 10
130.0377531605843
 20
675.1806563744182
 30
0.0
 10
128.8493420460962
 20
675.5759345327341
 30
0.0
 10
127.6410520249346
 20
676.1615840525865
 30
0.0
 10
126.7248372887322
 20
676.7243044107315
 30
0.0
 10
126.1557179095847
 20
677.1113362848438
 30
0.0
 10
125.7787709638215
 20
677.3824477812777
 30
0.0
 10
125.675519760598
 20
677.4601434405254
 30
0.0
 10
125.675519760598
 20
677.46014350448
 30
0.0
  0
ARC
  5
78
330
4D
100
AcDbEntity
  8
0
  6
Continuous
 62
     0
370
    30
100
AcDbCircle
 10
143.642894
 20
677.372881
 30
0.0
 40
5.000000000000002
100
AcDbArc
 50
179.0
 51
270.0
  0
ARC
  5
79
330
4D
100
AcDbEntity
  8
0
  6
Continuous
 62
     0
370
    30
100
AcDbCircle
 10
120.676281
 20
677.372881
 30
0.0
 40
5.000000000000002
100
AcDbArc
 50
270.0
 51
1.0
  0
SPLINE
  5
7A
330
4D
100
AcDbEntity
  8
0
  6
Continuous
 62
     0
370
     0
100
AcDbSpline
210
0.0
220
0.0
230
1.0
 70
     8
 71
     3
 72
    21
 73
    17
 74
     0
 42
0.0
 43
0.0
 40
0.0
 40
0.0
 40
0.0
 40
0.0
 40
3.004295903647487
 40
6.01729305781994
 40
8.458208939345289
 40
9.934554958359266
 40
12.21528003185013
 40
14.06340335768736
 40
16.08163160756893
 40
18.25474785008434
 40
19.90381535291495
 40
21.8415966518898
 40
24.58282184243938
 40
27.24518841621357
 40
30.59472225158563
 40
33.05208433184011
 40
33.05208433184011
 40
33.05208433184011
 40
33.05208433184011
 10
143.6428944353987
 20
672.3728814722936
 30
0.0
 10
143.6428944353987
 20
672.3728813594638
 30
0.0
 10
143.3174987735988
 20
672.2590463857421
 30
0.0
 10
142.0097046467105
 20
671.8330280327025
 30
0.0
 10
140.410622404166
 20
671.384435980718
 30
0.0
 10
138.6978628938809
 20
670.9818977010692
 30
0.0
 10
136.9329061829696
 20
670.6513458470733
 30
0.0
 10
134.8026150287006
 20
670.3927428203834
 30
0.0
 10
132.5966135703408
 20
670.2741585482379
 30
0.0
 10
130.440774968726
 20
670.3258019631559
 30
0.0
 10
128.3915105231023
 20
670.515517764994
 30
0.0
 10
126.2836598753332
 20
670.8376163547259
 30
0.0
 10
124.1445294037952
 20
671.3147060126337
 30
0.0
 10
122.144875589867
 20
671.8815950291508
 30
0.0
 10
120.9319071110361
 20
672.2841319020145
 30
0.0
 10
120.6762812848161
 20
672.3728813800045
 30
0.0
 10
120.6762812848161
 20
672.3728814722936
 30
0.0
  0
LINE
  5
7B
330
4D
100
AcDbEntity
  8
0
  6
Continuous
 62
     0
370
    30
100
AcDbLine
 10
116.159588
 20
650.902194
 30
0.0
 11
124.359588
 21
628.372881
 31
0.0
  0
LINE
  5
7C
330
4D
100
AcDbEntity
  8
0
  6
Continuous
 62
     0
370
    30
100
AcDbLine
 10
116.159588
 20
672.372881
 30
0.0
 11
116.159588
 21
650.902194
 31
0.0
  0
LINE
  5
7D
330
4D
100
AcDbEntity
  8
0
  6
Continuous
 62
     0
370
    30
100
AcDbLine
 10
116.159588
 20
672.372881
 30
0.0
 11
120.676281
 21
672.372881
 31
0.0
  0
LINE
  5
7E
330
4D
100
AcDbEntity
  8
0
  6
Continuous
 62
     0
370
    30
100
AcDbLine
 10
143.642894
 20
672.372881
 30
0.0
 11
146.659588
 21
672.372881
 31
0.0
  0
LINE
  5
7F
330
4D
100
AcDbEntity
  8
0
  6
Continuous
 62
     0
370
     0
100
AcDbLine
 10
146.659588
 20
672.372881
 30
0.0
 11
146.659588
 21
628.372881
 31
0.0
  0
LINE
  5
80
330
4D
100
AcDbEntity
  8
0
  6
Continuous
 62
     0
370
    30
100
AcDbLine
 10
147.159588
 20
671.872881
 30
0.0
 11
147.159588
 21
628.872881
 31
0.0
  0
ARC
  5
81
330
4D
100
AcDbEntity
  8
0
  6
Continuous
 62
     0
370
    30
100
AcDbCircle
 10
146.659588
 20
671.872881
 30
0.0
 40
0.5
100
AcDbArc
 50
0.0
 51
90.0
  0
ARC
  5
82
330
4D
100
AcDbEntity
  8
0
  6
Continuous
 62
     0
370
    30
100
AcDbCircle
 10
146.659551
 20
628.872918
 30
0.0
 40
0.5000369078942255
100
AcDbArc
 50
270.004229
 51
359.995771
  0
LINE
  5
83
330
4D
100
AcDbEntity
  8
0
  6
Continuous
 62
     0
370
    30
100
AcDbLine
 10
147.155921
 20
671.93294
 30
0.0
 11
147.159588
 21
671.872882
 31
0.0
  0
LINE
  5
84
330
4D
100
AcDbEntity
  8
0
  6
Continuous
 62
     0
370
    30
100
AcDbLine
 10
124.359641
 20
628.372881
 30
0.0
 11
146.659588
 21
628.372881
 31
0.0
  0
LINE
  5
85
330
4D
100
AcDbEntity
  8
0
  6
Continuous
 62
     0
370
    30
100
AcDbLine
 10
125.659588
 20
678.372881
 30
0.0
 11
125.67552
 21
677.460144
 31
0.0
  0
LINE
  5
86
330
4D
100
AcDbEntity
  8
0
  6
Continuous
 62
     0
370
    30
100
AcDbLine
 10
71.468185
 20
568.372894
 30
0.0
 11
106.559589
 21
568.372894
 31
0.0
  0
LINE
  5
87
330
4D
100
AcDbEntity
  8
0
  6
Continuous
 62
     0
370
    30
100
AcDbLine
 10
47.559589
 20
568.372894
 30
0.0
 11
71.468185
 21
568.372894
 31
0.0
  0
LINE
  5
88
330
4D
100
AcDbEntity
  8
0
  6
Continuous
 62
     0
370
     0
100
AcDbLine
 10
47.059589
 20
568.872894
 30
0.0
 11
71.373415
 21
568.872894
 31
0.0
  0
LINE
  5
89
330
4D
100
AcDbEntity
  8
0
  6
Continuous
 62
     0
370
     0
100
AcDbLine
 10
71.373415
 20
568.872894
 30
0.0
 11
107.059589
 21
568.872894
 31
0.0
  0
LINE
  5
8A
330
4D
100
AcDbEntity
  8
0
  6
Continuous
 62
     0
370
     0
100
AcDbLine
 10
71.373415
 20
573.872894
 30
0.0
 11
107.059589
 21
573.872894
 31
0.0
  0
LINE
  5
8B
330
4D
100
AcDbEntity
  8
0
  6
Continuous
 62
     0
370
     0
100
AcDbLine
 10
47.059589
 20
573.872894
 30
0.0
 11
71.373415
 21
573.872894
 31
0.0
  0
LINE
  5
8C
330
4D
100
AcDbEntity
  8
0
  6
Continuous
 62
     0
370
    30
100
AcDbLine
 10
47.559589
 20
574.372894
 30
0.0
 11
71.468185
 21
574.372894
 31
0.0
  0
LINE
  5
8D
330
4D
100
AcDbEntity
  8
0
  6
Continuous
 62
     0
370
    30
100
AcDbLine
 10
71.468185
 20
574.372894
 30
0.0
 11
106.559589
 21
574.372894
 31
0.0
  0
ARC
  5
8E
330
4D
100
AcDbEntity
  8
0
  6
Continuous
 62
     0
370
    30
100
AcDbCircle
 10
106.55955
 20
568.872932
 30
0.0
 40
0.5000377451441933
100
AcDbArc
 50
270.013032
 51
359.995676
  0
ARC
  5
8F
330
4D
100
AcDbEntity
  8
0
  6
Continuous
 62
     0
370
    30
100
AcDbCircle
 10
47.559616
 20
568.872932
 30
0.0
 40
0.5000379012343419
100
AcDbArc
 50
180.004342
 51
269.986567
  0
ARC
  5
90
330
4D
100
AcDbEntity
  8
0
  6
Continuous
 62
     0
370
    30
100
AcDbCircle
 10
106.55955
 20
573.872857
 30
0.0
 40
0.5000377451457424
100
AcDbArc
 50
0.004324
 51
89.986968
  0
ARC
  5
91
330
4D
100
AcDbEntity
  8
0
  6
Continuous
 62
     0
370
    30
100
AcDbCircle
 10
47.559616
 20
573.872856
 30
0.0
 40
0.5000379012422579
100
AcDbArc
 50
90.013433
 51
179.995658
  0
LINE
  5
92
330
4D
100
AcDbEntity
  8
0
  6
Continuous
 62
     0
370
    30
100
AcDbLine
 10
47.059589
 20
568.872894
 30
0.0
 11
47.059589
 21
573.872894
 31
0.0
  0
LINE
  5
93
330
4D
100
AcDbEntity
  8
0
  6
Continuous
 62
     0
370
    30
100
AcDbLine
 10
107.059589
 20
568.872894
 30
0.0
 11
107.059589
 21
573.872894
 31
0.0
  0
ARC
  5
94
330
4D
100
AcDbEntity
  8
0
  6
Continuous
 62
     0
370
    30
100
AcDbCircle
 10
104.059849
 20
579.373156
 30
0.0
 40
5.000261552262738
100
AcDbArc
 50
180.002996
 51
269.984394
  0
ARC
  5
95
330
4D
100
AcDbEntity
  8
0
  6
Continuous
 62
     0
370
    30
100
AcDbCircle
 10
50.059318
 20
579.373157
 30
0.0
 40
5.000262731638403
100
AcDbArc
 50
270.015593
 51
359.99699
  0
LINE
  5
96
330
4D
100
AcDbEntity
  8
0
  6
Continuous
 62
     0
370
    30
100
AcDbLine
 10
66.059589
 20
705.372889
 30
0.0
 11
66.059589
 21
818.722886
 31
0.0
  0
LINE
  5
97
330
4D
100
AcDbEntity
  8
0
  6
Continuous
 62
     0
370
    30
100
AcDbLine
 10
66.059589
 20
972.522888
 30
0.0
 11
66.059589
 21
862.522888
 31
0.0
  0
LINE
  5
98
330
4D
100
AcDbEntity
  8
0
  6
Continuous
 62
     0
370
     0
100
AcDbLine
 10
66.059589
 20
862.522888
 30
0.0
 11
88.059589
 21
862.522888
 31
0.0
  0
LINE
  5
99
330
4D
100
AcDbEntity
  8
0
  6
Continuous
 62
     0
370
    30
100
AcDbLine
 10
66.059589
 20
862.522888
 30
0.0
 11
66.059589
 21
838.522888
 31
0.0
  0
LINE
  5
9A
330
4D
100
AcDbEntity
  8
0
  6
Continuous
 62
     0
370
    30
100
AcDbLine
 10
66.059589
 20
838.522888
 30
0.0
 11
88.059589
 21
838.522888
 31
0.0
  0
LINE
  5
9B
330
4D
100
AcDbEntity
  8
0
  6
Continuous
 62
     0
370
    30
100
AcDbLine
 10
88.059589
 20
838.522888
 30
0.0
 11
88.059589
 21
862.522888
 31
0.0
  0
ARC
  5
9C
330
4D
100
AcDbEntity
  8
0
  6
Continuous
 62
     0
370
    30
100
AcDbCircle
 10
77.059315
 20
972.523188
 30
0.0
 40
10.99972549152329
100
AcDbArc
 50
359.996365
 51
179.969148
  0
LINE
  5
9D
330
4D
100
AcDbEntity
  8
0
  6
Continuous
 62
     0
370
    30
100
AcDbLine
 10
88.059589
 20
862.522888
 30
0.0
 11
88.059589
 21
972.52249
 31
0.0
  0
LINE
  5
9E
330
4D
100
AcDbEntity
  8
0
  6
Continuous
 62
     0
370
    30
100
AcDbLine
 10
88.059589
 20
818.722886
 30
0.0
 11
88.059589
 21
705.372889
 31
0.0
  0
LINE
  5
9F
330
4D
100
AcDbEntity
  8
0
  6
Continuous
 62
     0
370
    30
100
AcDbLine
 10
82.391623
 20
705.372889
 30
0.0
 11
98.559589
 21
705.372889
 31
0.0
  0
LINE
  5
A0
330
4D
100
AcDbEntity
  8
0
  6
Continuous
 62
     0
370
    30
100
AcDbLine
 10
55.559589
 20
705.372889
 30
0.0
 11
82.391623
 21
705.372889
 31
0.0
  0
LINE
  5
A1
330
4D
100
AcDbEntity
  8
0
  6
Continuous
 62
     0
370
     0
100
AcDbLine
 10
82.515623
 20
704.872889
 30
0.0
 11
99.059589
 21
704.872889
 31
0.0
  0
LINE
  5
A2
330
4D
100
AcDbEntity
  8
0
  6
Continuous
 62
     0
370
     0
100
AcDbLine
 10
55.059589
 20
704.872889
 30
0.0
 11
82.515623
 21
704.872889
 31
0.0
  0
LINE
  5
A3
330
4D
100
AcDbEntity
  8
0
  6
Continuous
 62
     0
370
    30
100
AcDbLine
 10
82.515623
 20
683.672889
 30
0.0
 11
99.059589
 21
683.672889
 31
0.0
  0
LINE
  5
A4
330
4D
100
AcDbEntity
  8
0
  6
Continuous
 62
     0
370
    30
100
AcDbLine
 10
55.059589
 20
683.672889
 30
0.0
 11
82.515623
 21
683.672889
 31
0.0
  0
LINE
  5
A5
330
4D
100
AcDbEntity
  8
0
  6
Continuous
 62
     0
370
    30
100
AcDbLine
 10
55.35962
 20
683.372912
 30
0.0
 11
55.059644
 21
683.672889
 31
0.0
  0
LINE
  5
A6
330
4D
100
AcDbEntity
  8
0
  6
Continuous
 62
     0
370
    30
100
AcDbLine
 10
98.759561
 20
683.372914
 30
0.0
 11
99.059534
 21
683.672889
 31
0.0
  0
LINE
  5
A7
330
4D
100
AcDbEntity
  8
0
  6
Continuous
 62
     0
370
    30
100
AcDbLine
 10
99.059589
 20
683.672889
 30
0.0
 11
99.059589
 21
704.872889
 31
0.0
  0
LINE
  5
A8
330
4D
100
AcDbEntity
  8
0
  6
Continuous
 62
     0
370
    30
100
AcDbLine
 10
55.059589
 20
683.672889
 30
0.0
 11
55.059589
 21
704.872889
 31
0.0
  0
ARC
  5
A9
330
4D
100
AcDbEntity
  8
0
  6
Continuous
 62
     0
370
    30
100
AcDbCircle
 10
55.559681
 20
704.872852
 30
0.0
 40
0.5000368064018407
100
AcDbArc
 50
90.009642
 51
179.995783
  0
ARC
  5
AA
330
4D
100
AcDbEntity
  8
0
  6
Continuous
 62
     0
370
    30
100
AcDbCircle
 10
98.559497
 20
704.872852
 30
0.0
 40
0.5000368616060308
100
AcDbArc
 50
0.004223
 51
89.98977
  0
LINE
  5
AB
330
4D
100
AcDbEntity
  8
0
  6
Continuous
 62
     0
370
     0
100
AcDbLine
 10
66.235525
 20
818.722886
 30
0.0
 11
66.059589
 21
818.722886
 31
0.0
  0
LINE
  5
AC
330
4D
100
AcDbEntity
  8
0
  6
Continuous
 62
     0
370
     0
100
AcDbLine
 10
88.059589
 20
818.722886
 30
0.0
 11
66.235525
 21
818.722886
 31
0.0
  0
LINE
  5
AD
330
4D
100
AcDbEntity
  8
0
  6
Continuous
 62
     0
370
    30
100
AcDbLine
 10
66.432326
 20
818.522886
 30
0.0
 11
66.259589
 21
818.522886
 31
0.0
  0
LINE
  5
AE
330
4D
100
AcDbEntity
  8
0
  6
Continuous
 62
     0
370
    30
100
AcDbLine
 10
87.859589
 20
818.522886
 30
0.0
 11
66.432326
 21
818.522886
 31
0.0
  0
ARC
  5
AF
330
4D
100
AcDbEntity
  8
0
  6
Continuous
 62
     0
370
    30
100
AcDbCircle
 10
87.859289
 20
818.723186
 30
0.0
 40
0.2003008867622775
100
AcDbArc
 50
270.086004
 51
359.913996
  0
ARC
  5
B0
330
4D
100
AcDbEntity
  8
0
  6
Continuous
 62
     0
370
    30
100
AcDbCircle
 10
66.25989
 20
818.723186
 30
0.0
 40
0.2003008867483949
100
AcDbArc
 50
180.086004
 51
269.913996
  0
LINE
  5
B1
330
4D
100
AcDbEntity
  8
0
  6
Continuous
 62
     0
370
    30
100
AcDbLine
 10
88.059589
 20
838.522886
 30
0.0
 11
88.059589
 21
818.722886
 31
0.0
  0
LINE
  5
B2
330
4D
100
AcDbEntity
  8
0
  6
Continuous
 62
     0
370
    30
100
AcDbLine
 10
66.059589
 20
838.522886
 30
0.0
 11
66.059589
 21
818.722886
 31
0.0
  0
ARC
  5
B3
330
4D
100
AcDbEntity
  8
0
  6
Continuous
 62
     0
370
    30
100
AcDbCircle
 10
113.681632
 20
650.50503
 30
0.0
 40
20.52844235784443
100
AcDbArc
 50
273.848833
 51
296.894751
  0
ARC
  5
B4
330
4D
100
AcDbEntity
  8
0
  6
Continuous
 62
     0
370
    30
100
AcDbCircle
 10
113.698005
 20
650.409145
 30
0.0
 40
20.35932260076549
100
AcDbArc
 50
83.055553
 51
86.165328
  0
LINE
  5
B5
330
4D
100
AcDbEntity
  8
0
  6
Continuous
 62
     0
370
    30
100
AcDbLine
 10
121.371134
 20
652.848034
 30
0.0
 11
121.726875
 21
652.848032
 31
0.0
  0
LINE
  5
B6
330
4D
100
AcDbEntity
  8
0
  6
Continuous
 62
     0
370
    30
100
AcDbLine
 10
121.726875
 20
652.848032
 30
0.0
 11
121.726875
 21
654.708322
 31
0.0
  0
LINE
  5
B7
330
4D
100
AcDbEntity
  8
0
  6
Continuous
 62
     0
370
    30
100
AcDbLine
 10
121.726875
 20
654.708322
 30
0.0
 11
121.413715
 21
654.708322
 31
0.0
  0
LINE
  5
B8
330
4D
100
AcDbEntity
  8
0
  6
Continuous
 62
     0
370
    30
100
AcDbLine
 10
121.413715
 20
654.708322
 30
0.0
 11
121.413715
 21
653.247958
 31
0.0
  0
ARC
  5
B9
330
4D
100
AcDbEntity
  8
0
  6
Continuous
 62
     0
370
    30
100
AcDbCircle
 10
28.606265
 20
532.360872
 30
0.0
 40
152.4037743888633
100
AcDbArc
 50
52.485825
 51
53.382005
  0
LINE
  5
BA
330
4D
100
AcDbEntity
  8
0
  6
Continuous
 62
     0
370
    30
100
AcDbLine
 10
119.511608
 20
654.684742
 30
0.0
 11
119.159588
 21
654.684739
 31
0.0
  0
LINE
  5
BB
330
4D
100
AcDbEntity
  8
0
  6
Continuous
 62
     0
370
    30
100
AcDbLine
 10
119.159588
 20
654.684739
 30
0.0
 11
119.159588
 21
652.88636
 31
0.0
  0
LINE
  5
BC
330
4D
100
AcDbEntity
  8
0
  6
Continuous
 62
     0
370
    30
100
AcDbLine
 10
119.159588
 20
652.88636
 30
0.0
 11
119.472541
 21
652.88636
 31
0.0
  0
LINE
  5
BD
330
4D
100
AcDbEntity
  8
0
  6
Continuous
 62
     0
370
    30
100
AcDbLine
 10
119.472541
 20
652.88636
 30
0.0
 11
119.472541
 21
654.283583
 31
0.0
  0
ARC
  5
BE
330
4D
100
AcDbEntity
  8
0
  6
Continuous
 62
     0
370
    30
100
AcDbCircle
 10
16.030696
 20
515.502756
 30
0.0
 40
173.0905346548271
100
AcDbArc
 50
52.512684
 51
53.300583
  0
LINE
  5
BF
330
4D
100
AcDbEntity
  8
0
  6
Continuous
 62
     0
370
    30
100
AcDbLine
 10
119.159225
 20
654.931995
 30
0.0
 11
119.159225
 21
655.263205
 31
0.0
  0
LINE
  5
C0
330
4D
100
AcDbEntity
  8
0
  6
Continuous
 62
     0
370
    30
100
AcDbLine
 10
119.159225
 20
655.263205
 30
0.0
 11
120.74838
 21
655.263198
 31
0.0
  0
SPLINE
  5
C1
330
4D
100
AcDbEntity
  8
0
  6
Continuous
 62
     0
370
    30
100
AcDbSpline
210
0.0
220
0.0
230
1.0
 70
     8
 71
     3
 72
    10
 73
     6
 74
     0
 42
0.0
 43
0.0
 40
0.0
 40
0.0
 40
0.0
 40
0.0
 40
0.1607383031801948
 40
0.3212678064986665
 40
0.4814978669279018
 40
0.4814978669279018
 40
0.4814978669279018
 40
0.4814978669279018
 10
120.7483798095386
 20
655.2631982651166
 30
0.0
 10
120.8019592424127
 20
655.2631898755111
 30
0.0
 10
120.9090247001282
 20
655.2672979303037
 30
0.0
 10
121.0685794042538
 20
655.2927206343732
 30
0.0
 10
121.1664280276162
 20
655.3393393887012
 30
0.0
 10
121.2105741519239
 20
655.3686182241638
 30
0.0
  0
SPLINE
  5
C2
330
4D
100
AcDbEntity
  8
0
  6
Continuous
 62
     0
370
    30
100
AcDbSpline
210
0.0
220
0.0
230
1.0
 70
     8
 71
     3
 72
    14
 73
    10
 74
     0
 42
0.0
 43
0.0
 40
0.0
 40
0.0
 40
0.0
 40
0.0
 40
0.2483063195049807
 40
0.4973415118280721
 40
0.7469539897613074
 40
0.9957853863575405
 40
1.243643039570703
 40
1.492316197299798
 40
1.742344279104773
 40
1.742344279104773
 40
1.742344279104773
 40
1.742344279104773
 10
121.2105741519284
 20
655.3686182241879
 30
0.0
 10
121.2778925113656
 20
655.415519428443
 30
0.0
 10
121.3941037239835
 20
655.5397571974204
 30
0.0
 10
121.4659433366081
 20
655.7771122293238
 30
0.0
 10
121.4676555275414
 20
656.0197509780268
 30
0.0
 10
121.4045319668611
 20
656.258264789175
 30
0.0
 10
121.2265457081807
 20
656.4414747525996
 30
0.0
 10
120.9844065886542
 20
656.5197547966628
 30
0.0
 10
120.8176662738223
 20
656.5271865612818
 30
0.0
 10
120.7343238108152
 20
656.5270038426302
 30
0.0
  0
LINE
  5
C3
330
4D
100
AcDbEntity
  8
0
  6
Continuous
 62
     0
370
    30
100
AcDbLine
 10
120.734324
 20
656.527004
 30
0.0
 11
119.159225
 21
656.527013
 31
0.0
  0
LINE
  5
C4
330
4D
100
AcDbEntity
  8
0
  6
Continuous
 62
     0
370
    30
100
AcDbLine
 10
119.159225
 20
656.527013
 30
0.0
 11
119.159225
 21
656.830362
 31
0.0
  0
LINE
  5
C5
330
4D
100
AcDbEntity
  8
0
  6
Continuous
 62
     0
370
    30
100
AcDbLine
 10
119.159225
 20
656.830362
 30
0.0
 11
120.741352
 21
656.830347
 31
0.0
  0
SPLINE
  5
C6
330
4D
100
AcDbEntity
  8
0
  6
Continuous
 62
     0
370
    30
100
AcDbSpline
210
0.0
220
0.0
230
1.0
 70
     8
 71
     3
 72
    10
 73
     6
 74
     0
 42
0.0
 43
0.0
 40
0.0
 40
0.0
 40
0.0
 40
0.0
 40
0.2406503714594196
 40
0.4809889051886758
 40
0.721158888053054
 40
0.721158888053054
 40
0.721158888053054
 40
0.721158888053054
 10
120.7413518192577
 20
656.8303470964281
 30
0.0
 10
120.821568609656
 20
656.83034709066
 30
0.0
 10
120.9824028810229
 20
656.8231248236353
 30
0.0
 10
121.2175088561696
 20
656.7665939294834
 30
0.0
 10
121.3599543695596
 20
656.6918451031705
 30
0.0
 10
121.4243079946324
 20
656.6462011650375
 30
0.0
  0
SPLINE
  5
C7
330
4D
100
AcDbEntity
  8
0
  6
Continuous
 62
     0
370
    30
100
AcDbSpline
210
0.0
220
0.0
230
1.0
 70
     8
 71
     3
 72
    14
 73
    10
 74
     0
 42
0.0
 43
0.0
 40
0.0
 40
0.0
 40
0.0
 40
0.0
 40
0.2658311356644136
 40
0.5318324899200813
 40
0.7981789482599619
 40
1.064703722663622
 40
1.331140912478696
 40
1.59725580011786
 40
1.863124513833546
 40
1.863124513833546
 40
1.863124513833546
 40
1.863124513833546
 10
121.4243079946323
 20
656.6462011650375
 30
0.0
 10
121.4956703227219
 20
656.5958531238998
 30
0.0
 10
121.6229329354073
 20
656.4722233503784
 30
0.0
 10
121.7395780539293
 20
656.237816337928
 30
0.0
 10
121.7869865229358
 20
655.9823106111326
 30
0.0
 10
121.7746382607774
 20
655.722668930871
 30
0.0
 10
121.7071497303664
 20
655.4701741449466
 30
0.0
 10
121.5769735250977
 20
655.2401320836517
 30
0.0
 10
121.4444413715671
 20
655.1196948742713
 30
0.0
 10
121.3707711514585
 20
655.0715745434113
 30
0.0
  0
SPLINE
  5
C8
330
4D
100
AcDbEntity
  8
0
  6
Continuous
 62
     0
370
    30
100
AcDbSpline
210
0.0
220
0.0
230
1.0
 70
     8
 71
     3
 72
    10
 73
     6
 74
     0
 42
0.0
 43
0.0
 40
0.0
 40
0.0
 40
0.0
 40
0.0
 40
0.2234824778642054
 40
0.4474133988426866
 40
0.6716368634533153
 40
0.6716368634533153
 40
0.6716368634533153
 40
0.6716368634533153
 10
121.3707711514591
 20
655.0715745434115
 30
0.0
 10
121.3084645445003
 20
655.0316876420201
 30
0.0
 10
121.1705778566115
 20
654.9693454752754
 30
0.0
 10
120.9476475374321
 20
654.9371161618258
 30
0.0
 10
120.7983162625099
 20
654.9319733022724
 30
0.0
 10
120.7235751081553
 20
654.9319813581859
 30
0.0
  0
LINE
  5
C9
330
4D
100
AcDbEntity
  8
0
  6
Continuous
 62
     0
370
    30
100
AcDbLine
 10
120.723575
 20
654.931981
 30
0.0
 11
119.159225
 21
654.931995
 31
0.0
  0
SPLINE
  5
CA
330
4D
100
AcDbEntity
  8
0
  6
Continuous
 62
     0
370
    30
100
AcDbSpline
210
0.0
220
0.0
230
1.0
 70
     8
 71
     3
 72
    25
 73
    21
 74
     0
 42
0.0
 43
0.0
 40
0.0
 40
0.0
 40
0.0
 40
0.0
 40
0.2754117203151685
 40
0.4117111493874493
 40
0.5484227172847359
 40
0.6882255408435669
 40
0.828517537529593
 40
1.101530130229451
 40
1.374996099329444
 40
1.654519371669836
 40
2.206611179020704
 40
2.483601928484152
 40
2.760074308334973
 40
3.036299766838883
 40
3.172821653322534
 40
3.311285244432745
 40
3.451140522921229
 40
3.589993566819087
 40
3.726555894954437
 40
3.865086221907652
 40
3.865086221907652
 40
3.865086221907652
 40
3.865086221907652
 10
119.8529512210644
 20
658.4319614375728
 30
0.0
 10
119.7613863440087
 20
658.4258035840545
 30
0.0
 10
119.6227588380338
 20
658.3838132105615
 30
0.0
 10
119.4875578169473
 20
658.2649277326946
 30
0.0
 10
119.4259811227972
 20
658.1472524513227
 30
0.0
 10
119.4013192625915
 20
658.0177763842709
 30
0.0
 10
119.41296579039
 20
657.8439694760455
 30
0.0
 10
119.5087243254161
 20
657.6360695832511
 30
0.0
 10
119.7415178380701
 20
657.4806166531889
 30
0.0
 10
120.0956570096963
 20
657.3770866383161
 30
0.0
 10
120.4690643975592
 20
657.3579377731078
 30
0.0
 10
120.8370207187238
 20
657.3863329067557
 30
0.0
 10
121.1058580874419
 20
657.4541273991551
 30
0.0
 10
121.3080328481715
 20
657.5716875281137
 30
0.0
 10
121.416128486349
 20
657.7147752632001
 30
0.0
 10
121.4636423391526
 20
657.8385449706974
 30
0.0
 10
121.4803480588464
 20
657.9692847446536
 30
0.0
 10
121.46646801253
 20
658.0995906004719
 30
0.0
 10
121.4171271720066
 20
658.2220150275276
 30
0.0
 10
121.3568663348933
 20
658.28932560906
 30
0.0
 10
121.3213896885426
 20
658.316886115272
 30
0.0
  0
ARC
  5
CB
330
4D
100
AcDbEntity
  8
0
  6
Continuous
 62
     0
370
    30
100
AcDbCircle
 10
120.985455
 20
657.828614
 30
0.0
 40
0.5926729910151223
100
AcDbArc
 50
55.471778
 51
83.628693
  0
LINE
  5
CC
330
4D
100
AcDbEntity
  8
0
  6
Continuous
 62
     0
370
    30
100
AcDbLine
 10
121.051225
 20
658.417627
 30
0.0
 11
121.051225
 21
658.730166
 31
0.0
  0
SPLINE
  5
CD
330
4D
100
AcDbEntity
  8
0
  6
Continuous
 62
     0
370
    30
100
AcDbSpline
210
0.0
220
0.0
230
1.0
 70
     8
 71
     3
 72
    26
 73
    22
 74
     0
 42
0.0
 43
0.0
 40
0.0
 40
0.0
 40
0.0
 40
0.0
 40
0.4329957280319827
 40
0.6503560515467744
 40
0.8672615756275351
 40
1.305446770178559
 40
1.739098905056484
 40
1.954088279332187
 40
2.172970668810697
 40
2.61441144428683
 40
3.050370624337332
 40
3.486677011425206
 40
3.927680242198664
 40
4.146685552390935
 40
4.362090948400036
 40
4.79543586142618
 40
5.017398464029136
 40
5.237524152879461
 40
5.453487952873494
 40
5.670035285782042
 40
6.104322691876692
 40
6.104322691876692
 40
6.104322691876692
 40
6.104322691876692
 10
121.0512251312091
 20
658.7301662734124
 30
0.0
 10
121.1954439102299
 20
658.7249122063436
 30
0.0
 10
121.4140604909101
 20
658.6466234783863
 30
0.0
 10
121.6173688139486
 20
658.4522259595227
 30
0.0
 10
121.7533124807534
 20
658.208744338182
 30
0.0
 10
121.7942763265921
 20
657.8592570656106
 30
0.0
 10
121.6765588308655
 20
657.5204704359015
 30
0.0
 10
121.479981833344
 20
657.3145029215607
 30
0.0
 10
121.2332386776405
 20
657.1626064227468
 30
0.0
 10
120.878574381912
 20
657.0564451144525
 30
0.0
 10
120.439429468605
 20
657.0319411556499
 30
0.0
 10
120.0012506846043
 20
657.0685370909235
 30
0.0
 10
119.6503273254401
 20
657.1854611903657
 30
0.0
 10
119.408443878556
 20
657.3440337384467
 30
0.0
 10
119.2154157995302
 20
657.5521612349511
 30
0.0
 10
119.1201234680769
 20
657.8240275303662
 30
0.0
 10
119.1198798768931
 20
658.0990021510247
 30
0.0
 10
119.1684396488118
 20
658.3009707100333
 30
0.0
 10
119.2721672189846
 20
658.4828739953563
 30
0.0
 10
119.4861374406859
 20
658.6682109156956
 30
0.0
 10
119.7081973926071
 20
658.7343004886513
 30
0.0
 10
119.8529512149815
 20
658.735731575169
 30
0.0
  0
LINE
  5
CE
330
4D
100
AcDbEntity
  8
0
  6
Continuous
 62
     0
370
    30
100
AcDbLine
 10
119.852951
 20
658.735732
 30
0.0
 11
119.852951
 21
658.431961
 31
0.0
  0
LINE
  5
CF
330
4D
100
AcDbEntity
  8
0
  6
Continuous
 62
     0
370
    30
100
AcDbLine
 10
121.051225
 20
660.120542
 30
0.0
 11
121.051225
 21
660.399408
 31
0.0
  0
SPLINE
  5
D0
330
4D
100
AcDbEntity
  8
0
  6
Continuous
 62
     0
370
    30
100
AcDbSpline
210
0.0
220
0.0
230
1.0
 70
     8
 71
     3
 72
    28
 73
    24
 74
     0
 42
0.0
 43
0.0
 40
0.0
 40
0.0
 40
0.0
 40
0.0
 40
0.420447163056052
 40
0.6302954727550846
 40
0.8408442242622233
 40
1.264356009512049
 40
1.683146518034478
 40
1.891353215850199
 40
2.103180002565582
 40
2.318745009213892
 40
2.532573572134464
 40
2.954756629199497
 40
3.377480775805025
 40
3.805430969074709
 40
4.017368875573592
 40
4.226305843304226
 40
4.645601066209493
 40
4.859869049938898
 40
5.073392086735822
 40
5.283190324930735
 40
5.492725046528274
 40
5.705976211204709
 40
5.918133441981339
 40
5.918133441981339
 40
5.918133441981339
 40
5.918133441981339
 10
121.0512251285832
 20
660.3994084886002
 30
0.0
 10
121.191220840647
 20
660.3936073771225
 30
0.0
 10
121.4040283106346
 20
660.3307573657603
 30
0.0
 10
121.6121129593923
 20
660.158344657575
 30
0.0
 10
121.7520881650568
 20
659.935405099503
 30
0.0
 10
121.7953829126335
 20
659.6066415119387
 30
0.0
 10
121.6605330425362
 20
659.2948654271929
 30
0.0
 10
121.4584350862042
 20
659.1132958311036
 30
0.0
 10
121.2729348396956
 20
659.0160273086618
 30
0.0
 10
121.071130185554
 20
658.949356479082
 30
0.0
 10
120.7934928485255
 20
658.8921835039632
 30
0.0
 10
120.4391661756308
 20
658.872886367225
 30
0.0
 10
120.0150554047966
 20
658.9068729745643
 30
0.0
 10
119.6718606474046
 20
659.0040831072487
 30
0.0
 10
119.4285563818423
 20
659.1403211446438
 30
0.0
 10
119.2296142794022
 20
659.3245065899976
 30
0.0
 10
119.1204744047798
 20
659.5747787364223
 30
0.0
 10
119.1183170482751
 20
659.8322682655262
 30
0.0
 10
119.1706005212606
 20
660.0201317933859
 30
0.0
 10
119.2782716138139
 20
660.1865887125887
 30
0.0
 10
119.443208499276
 20
660.3096155750646
 30
0.0
 10
119.640353074961
 20
660.383787473349
 30
0.0
 10
119.7822482269249
 20
660.4030398906375
 30
0.0
 10
119.8529512154344
 20
660.4043657291793
 30
0.0
  0
LINE
  5
D1
330
4D
100
AcDbEntity
  8
0
  6
Continuous
 62
     0
370
    30
100
AcDbLine
 10
119.852951
 20
660.404366
 30
0.0
 11
119.852951
 21
660.133352
 31
0.0
  0
SPLINE
  5
D2
330
4D
100
AcDbEntity
  8
0
  6
Continuous
 62
     0
370
    30
100
AcDbSpline
210
0.0
220
0.0
230
1.0
 70
     8
 71
     3
 72
    23
 73
    19
 74
     0
 42
0.0
 43
0.0
 40
0.0
 40
0.0
 40
0.0
 40
0.0
 40
0.1344406348959635
 40
0.2698087024253294
 40
0.4020113593220688
 40
0.5351093167956869
 40
0.8039622975256736
 40
1.068634646139707
 40
1.334722668476819
 40
1.605909583314183
 40
1.873103289376393
 40
2.143350905299619
 40
2.412004249781777
 40
2.680682206166634
 40
2.949290704837158
 40
3.213805505265973
 40
3.481377106834313
 40
3.74489199651304
 40
3.74489199651304
 40
3.74489199651304
 40
3.74489199651304
 10
119.8529512209488
 20
660.1333516253658
 30
0.0
 10
119.8082946172286
 20
660.1299947019619
 30
0.0
 10
119.7191926962747
 20
660.1150771291725
 30
0.0
 10
119.594552607838
 20
660.0677668643773
 30
0.0
 10
119.4904820948969
 20
659.9883761662303
 30
0.0
 10
119.4057238664889
 20
659.8441339213018
 30
0.0
 10
119.3928410845429
 20
659.6325441335285
 30
0.0
 10
119.522654199808
 20
659.4067277323901
 30
0.0
 10
119.7564611245705
 20
659.2731294948269
 30
0.0
 10
120.0163992575394
 20
659.2084914059146
 30
0.0
 10
120.284537324947
 20
659.177592680278
 30
0.0
 10
120.5535185855535
 20
659.1746806969647
 30
0.0
 10
120.8227762033564
 20
659.1932171374383
 30
0.0
 10
121.0848572701678
 20
659.2496170217808
 30
0.0
 10
121.3297445348577
 20
659.3649042245653
 30
0.0
 10
121.4762399321937
 20
659.5828720763996
 30
0.0
 10
121.4888786831092
 20
659.8328604650493
 30
0.0
 10
121.3911199865669
 20
659.9824901314165
 30
0.0
 10
121.321389688149
 20
660.0304759851344
 30
0.0
  0
ARC
  5
D3
330
4D
100
AcDbEntity
  8
0
  6
Continuous
 62
     0
370
    30
100
AcDbCircle
 10
120.991433
 20
659.49096
 30
0.0
 40
0.6324157082772557
100
AcDbArc
 50
58.550906
 51
84.574797
  0
LINE
  5
D4
330
4D
100
AcDbEntity
  8
0
  6
Continuous
 62
     0
370
    30
100
AcDbLine
 10
121.726668
 20
661.614514
 30
0.0
 11
121.726668
 21
661.83793
 31
0.0
  0
LINE
  5
D5
330
4D
100
AcDbEntity
  8
0
  6
Continuous
 62
     0
370
    30
100
AcDbLine
 10
121.726668
 20
661.83793
 30
0.0
 11
119.159588
 21
661.83793
 31
0.0
  0
LINE
  5
D6
330
4D
100
AcDbEntity
  8
0
  6
Continuous
 62
     0
370
    30
100
AcDbLine
 10
119.159588
 20
661.83793
 30
0.0
 11
119.159588
 21
661.614514
 31
0.0
  0
LINE
  5
D7
330
4D
100
AcDbEntity
  8
0
  6
Continuous
 62
     0
370
    30
100
AcDbLine
 10
119.159588
 20
661.614514
 30
0.0
 11
120.261744
 21
661.61451
 31
0.0
  0
LINE
  5
D8
330
4D
100
AcDbEntity
  8
0
  6
Continuous
 62
     0
370
    30
100
AcDbLine
 10
120.261744
 20
661.61451
 30
0.0
 11
120.261744
 21
660.811138
 31
0.0
  0
LINE
  5
D9
330
4D
100
AcDbEntity
  8
0
  6
Continuous
 62
     0
370
    30
100
AcDbLine
 10
120.261744
 20
660.811138
 30
0.0
 11
119.159588
 21
660.811141
 31
0.0
  0
LINE
  5
DA
330
4D
100
AcDbEntity
  8
0
  6
Continuous
 62
     0
370
    30
100
AcDbLine
 10
119.159588
 20
660.811141
 30
0.0
 11
119.159588
 21
660.566097
 31
0.0
  0
LINE
  5
DB
330
4D
100
AcDbEntity
  8
0
  6
Continuous
 62
     0
370
    30
100
AcDbLine
 10
119.159588
 20
660.566097
 30
0.0
 11
121.726668
 21
660.566097
 31
0.0
  0
LINE
  5
DC
330
4D
100
AcDbEntity
  8
0
  6
Continuous
 62
     0
370
    30
100
AcDbLine
 10
121.726668
 20
660.566097
 30
0.0
 11
121.726668
 21
660.811141
 31
0.0
  0
LINE
  5
DD
330
4D
100
AcDbEntity
  8
0
  6
Continuous
 62
     0
370
    30
100
AcDbLine
 10
121.726668
 20
660.811141
 30
0.0
 11
120.567462
 21
660.811136
 31
0.0
  0
LINE
  5
DE
330
4D
100
AcDbEntity
  8
0
  6
Continuous
 62
     0
370
    30
100
AcDbLine
 10
120.567462
 20
660.811136
 30
0.0
 11
120.567462
 21
661.614508
 31
0.0
  0
LINE
  5
DF
330
4D
100
AcDbEntity
  8
0
  6
Continuous
 62
     0
370
    30
100
AcDbLine
 10
120.567462
 20
661.614508
 30
0.0
 11
121.726668
 21
661.614514
 31
0.0
  0
LINE
  5
E0
330
4D
100
AcDbEntity
  8
0
  6
Continuous
 62
     0
370
    30
100
AcDbLine
 10
119.159588
 20
664.850832
 30
0.0
 11
119.472747
 21
664.85083
 31
0.0
  0
LINE
  5
E1
330
4D
100
AcDbEntity
  8
0
  6
Continuous
 62
     0
370
    30
100
AcDbLine
 10
119.472747
 20
664.85083
 30
0.0
 11
119.472747
 21
664.472599
 31
0.0
  0
LINE
  5
E2
330
4D
100
AcDbEntity
  8
0
  6
Continuous
 62
     0
370
    30
100
AcDbLine
 10
119.472747
 20
664.472599
 30
0.0
 11
121.726668
 21
664.472608
 31
0.0
  0
LINE
  5
E3
330
4D
100
AcDbEntity
  8
0
  6
Continuous
 62
     0
370
    30
100
AcDbLine
 10
121.726668
 20
664.472608
 30
0.0
 11
121.726668
 21
664.311507
 31
0.0
  0
LINE
  5
E4
330
4D
100
AcDbEntity
  8
0
  6
Continuous
 62
     0
370
    30
100
AcDbLine
 10
121.726668
 20
664.311507
 30
0.0
 11
119.472747
 21
664.311484
 31
0.0
  0
LINE
  5
E5
330
4D
100
AcDbEntity
  8
0
  6
Continuous
 62
     0
370
    30
100
AcDbLine
 10
119.472747
 20
664.311484
 30
0.0
 11
119.472747
 21
663.720193
 31
0.0
  0
LINE
  5
E6
330
4D
100
AcDbEntity
  8
0
  6
Continuous
 62
     0
370
    30
100
AcDbLine
 10
119.472747
 20
663.720193
 30
0.0
 11
121.726668
 21
663.720238
 31
0.0
  0
LINE
  5
E7
330
4D
100
AcDbEntity
  8
0
  6
Continuous
 62
     0
370
    30
100
AcDbLine
 10
121.726668
 20
663.720238
 30
0.0
 11
121.726668
 21
663.541452
 31
0.0
  0
LINE
  5
E8
330
4D
100
AcDbEntity
  8
0
  6
Continuous
 62
     0
370
    30
100
AcDbLine
 10
121.726668
 20
663.541452
 30
0.0
 11
119.472747
 21
663.541358
 31
0.0
  0
LINE
  5
E9
330
4D
100
AcDbEntity
  8
0
  6
Continuous
 62
     0
370
    30
100
AcDbLine
 10
119.472747
 20
663.541358
 30
0.0
 11
119.472747
 21
662.2431
 31
0.0
  0
LINE
  5
EA
330
4D
100
AcDbEntity
  8
0
  6
Continuous
 62
     0
370
    30
100
AcDbLine
 10
119.472747
 20
662.2431
 30
0.0
 11
120.261744
 21
662.243092
 31
0.0
  0
LINE
  5
EB
330
4D
100
AcDbEntity
  8
0
  6
Continuous
 62
     0
370
    30
100
AcDbLine
 10
120.261744
 20
662.243092
 30
0.0
 11
120.261744
 21
662.930245
 31
0.0
  0
LINE
  5
EC
330
4D
100
AcDbEntity
  8
0
  6
Continuous
 62
     0
370
    30
100
AcDbLine
 10
120.261744
 20
662.930245
 30
0.0
 11
120.567462
 21
662.930257
 31
0.0
  0
LINE
  5
ED
330
4D
100
AcDbEntity
  8
0
  6
Continuous
 62
     0
370
    30
100
AcDbLine
 10
120.567462
 20
662.930257
 30
0.0
 11
120.567462
 21
662.243096
 31
0.0
  0
LINE
  5
EE
330
4D
100
AcDbEntity
  8
0
  6
Continuous
 62
     0
370
    30
100
AcDbLine
 10
120.567462
 20
662.243096
 30
0.0
 11
121.413715
 21
662.2431
 31
0.0
  0
LINE
  5
EF
330
4D
100
AcDbEntity
  8
0
  6
Continuous
 62
     0
370
    30
100
AcDbLine
 10
121.413715
 20
662.2431
 30
0.0
 11
121.413715
 21
662.979415
 31
0.0
  0
LINE
  5
F0
330
4D
100
AcDbEntity
  8
0
  6
Continuous
 62
     0
370
    30
100
AcDbLine
 10
121.413715
 20
662.979415
 30
0.0
 11
121.726668
 21
662.979533
 31
0.0
  0
LINE
  5
F1
330
4D
100
AcDbEntity
  8
0
  6
Continuous
 62
     0
370
    30
100
AcDbLine
 10
121.726668
 20
662.979533
 30
0.0
 11
121.726668
 21
662.028494
 31
0.0
  0
LINE
  5
F2
330
4D
100
AcDbEntity
  8
0
  6
Continuous
 62
     0
370
    30
100
AcDbLine
 10
121.726668
 20
662.028494
 30
0.0
 11
119.159588
 21
662.028494
 31
0.0
  0
LINE
  5
F3
330
4D
100
AcDbEntity
  8
0
  6
Continuous
 62
     0
370
    30
100
AcDbLine
 10
119.159588
 20
662.028494
 30
0.0
 11
119.159588
 21
664.850832
 31
0.0
  0
LINE
  5
F4
330
4D
100
AcDbEntity
  8
0
  6
Continuous
 62
     0
370
    30
100
AcDbLine
 10
121.726668
 20
664.963622
 30
0.0
 11
121.726668
 21
665.110976
 31
0.0
  0
LINE
  5
F5
330
4D
100
AcDbEntity
  8
0
  6
Continuous
 62
     0
370
    30
100
AcDbLine
 10
121.726668
 20
665.110976
 30
0.0
 11
119.159588
 21
665.110976
 31
0.0
  0
LINE
  5
F6
330
4D
100
AcDbEntity
  8
0
  6
Continuous
 62
     0
370
    30
100
AcDbLine
 10
119.159588
 20
665.110976
 30
0.0
 11
119.159588
 21
664.963622
 31
0.0
  0
LINE
  5
F7
330
4D
100
AcDbEntity
  8
0
  6
Continuous
 62
     0
370
    30
100
AcDbLine
 10
119.159588
 20
664.963622
 30
0.0
 11
121.726668
 21
664.963622
 31
0.0
  0
LINE
  5
F8
330
4D
100
AcDbEntity
  8
0
  6
Continuous
 62
     0
370
    30
100
AcDbLine
 10
121.051153
 20
665.448033
 30
0.0
 11
121.051153
 21
665.308264
 31
0.0
  0
LINE
  5
F9
330
4D
100
AcDbEntity
  8
0
  6
Continuous
 62
     0
370
    30
100
AcDbLine
 10
121.051153
 20
665.308264
 30
0.0
 11
121.726668
 21
665.308264
 31
0.0
  0
LINE
  5
FA
330
4D
100
AcDbEntity
  8
0
  6
Continuous
 62
     0
370
    30
100
AcDbLine
 10
121.726668
 20
665.308264
 30
0.0
 11
121.726668
 21
665.448033
 31
0.0
  0
LINE
  5
FB
330
4D
100
AcDbEntity
  8
0
  6
Continuous
 62
     0
370
    30
100
AcDbLine
 10
121.726668
 20
665.448033
 30
0.0
 11
121.051153
 21
665.448033
 31
0.0
  0
ENDBLK
  5
FD
330
4D
100
AcDbEntity
  8
0
100
AcDbBlockEnd
  0
BLOCK
  5
17C
330
FF
100
AcDbEntity
  8
0
100
AcDbBlockBegin
  2
b
 70
     0
 10
28.859177
 20
189.214294
 30
0.0
  3
b
  1

  0
LINE
  5
100
330
FF
100
AcDbEntity
  8
0
  6
Continuous
 62
     0
370
    30
100
AcDbLine
 10
88.059593
 20
292.234686
 30
0.0
 11
105.059596
 21
292.234686
 31
0.0
  0
LINE
  5
101
330
FF
100
AcDbEntity
  8
0
  6
Continuous
 62
     0
370
     0
100
AcDbLine
 10
105.059594
 20
314.734685
 30
0.0
 11
105.059596
 21
292.234686
 31
0.0
  0
LINE
  5
102
330
FF
100
AcDbEntity
  8
0
  6
Continuous
 62
     0
370
     0
100
AcDbLine
 10
99.559593
 20
314.734685
 30
0.0
 11
105.059594
 21
314.734685
 31
0.0
  0
LINE
  5
103
330
FF
100
AcDbEntity
  8
0
  6
Continuous
 62
     0
370
    30
100
AcDbLine
 10
105.059596
 20
337.234686
 30
0.0
 11
77.059593
 21
337.234685
 31
0.0
  0
LINE
  5
104
330
FF
100
AcDbEntity
  8
0
  6
Continuous
 62
     0
370
     0
100
AcDbLine
 10
105.059596
 20
337.234686
 30
0.0
 11
105.059594
 21
314.734685
 31
0.0
  0
LINE
  5
105
330
FF
100
AcDbEntity
  8
0
  6
Continuous
 62
     0
370
     0
100
AcDbLine
 10
105.059594
 20
314.734685
 30
0.0
 11
107.367527
 21
314.734685
 31
0.0
  0
SPLINE
  5
106
330
FF
100
AcDbEntity
  8
0
  6
Continuous
 62
     0
370
     0
100
AcDbSpline
210
0.0
220
0.0
230
1.0
 70
     8
 71
     3
 72
    17
 73
    13
 74
     0
 42
0.0
 43
0.0
 40
0.0000008786908991
 40
0.0000008786908991
 40
0.0000008786908991
 40
0.0000008786908991
 40
1.722041878365568
 40
4.592242313609074
 40
9.497910929737008
 40
14.56034194697127
 40
19.62281862147591
 40
24.68543702431104
 40
27.84976335440597
 40
29.74847879832352
 40
33.12406851476702
 40
35.3434206042598
 40
35.3434206042598
 40
35.3434206042598
 40
35.3434206042598
 10
107.2033786231738
 20
337.2346862337656
 30
0.0
 10
107.2018597361898
 20
337.234686186248
 30
0.0
 10
107.1986517702932
 20
337.1760668369931
 30
0.0
 10
107.1942862795094
 20
336.7325696664417
 30
0.0
 10
107.1970630640458
 20
335.4067179198646
 30
0.0
 10
107.2109016407021
 20
332.8376872404677
 30
0.0
 10
107.235963698645
 20
329.3293152798987
 30
0.0
 10
107.2665279519806
 20
325.6155662484419
 30
0.0
 10
107.2938018383861
 20
322.5035377852557
 30
0.0
 10
107.3184418441268
 20
319.8064509220551
 30
0.0
 10
107.3421529080188
 20
317.3395675898082
 30
0.0
 10
107.360174713164
 20
315.4741376031271
 30
0.0
 10
107.3675273078029
 20
314.7346852428111
 30
0.0
  0
LINE
  5
107
330
FF
100
AcDbEntity
  8
0
  6
Continuous
 62
     0
370
    30
100
AcDbLine
 10
107.203379
 20
337.234686
 30
0.0
 11
105.059596
 21
337.234686
 31
0.0
  0
LINE
  5
108
330
FF
100
AcDbEntity
  8
0
  6
Continuous
 62
     0
370
    30
100
AcDbLine
 10
107.65089
 20
292.234686
 30
0.0
 11
105.059596
 21
292.234686
 31
0.0
  0
SPLINE
  5
109
330
FF
100
AcDbEntity
  8
0
  6
Continuous
 62
     0
370
     0
100
AcDbSpline
210
0.0
220
0.0
230
1.0
 70
     8
 71
     3
 72
    17
 73
    13
 74
     0
 42
0.0
 43
0.0
 40
0.0
 40
0.0
 40
0.0
 40
0.0
 40
1.706339016653732
 40
4.550383530542367
 40
9.442487500490753
 40
14.50535991567011
 40
19.56799959870319
 40
24.63039839870083
 40
27.79445294476594
 40
29.69293249906594
 40
33.06807680507281
 40
35.34401262602155
 40
35.34401262602155
 40
35.34401262602155
 40
35.34401262602155
 10
107.3675273078029
 20
314.7346852428137
 30
0.0
 10
107.3731812354088
 20
314.1660682687425
 30
0.0
 10
107.3886962621082
 20
312.6491098646983
 30
0.0
 10
107.4204057022185
 20
309.5260311178219
 30
0.0
 10
107.464987333384
 20
305.4403048468739
 30
0.0
 10
107.5146898963813
 20
301.0994973052191
 30
0.0
 10
107.5607408087386
 20
297.3967142400107
 30
0.0
 10
107.5953647689579
 20
294.9217977636764
 30
0.0
 10
107.6167212775858
 20
293.5862834325117
 30
0.0
 10
107.6319130486222
 20
292.7722580510898
 30
0.0
 10
107.6432581879435
 20
292.3300176194315
 30
0.0
 10
107.6488815394488
 20
292.2346862294177
 30
0.0
 10
107.6508898725397
 20
292.2346862188673
 30
0.0
  0
ARC
  5
10A
330
FF
100
AcDbEntity
  8
0
  6
Continuous
 62
     0
370
    30
100
AcDbCircle
 10
77.059299
 20
314.73439
 30
0.0
 40
22.50029451226934
100
AcDbArc
 50
0.00075
 51
89.99925
  0
ARC
  5
10B
330
FF
100
AcDbEntity
  8
0
  6
Continuous
 62
     0
370
    30
100
AcDbCircle
 10
77.058923
 20
314.73516
 30
0.0
 40
22.50066973561769
100
AcDbArc
 50
299.268577
 51
359.998791
  0
LINE
  5
10C
330
FF
100
AcDbEntity
  8
0
  6
Continuous
 62
     0
370
    30
100
AcDbLine
 10
115.059593
 20
314.722959
 30
0.0
 11
115.059593
 21
336.82296
 31
0.0
  0
LINE
  5
10D
330
FF
100
AcDbEntity
  8
0
  6
Continuous
 62
     0
370
    30
100
AcDbLine
 10
115.059593
 20
292.62296
 30
0.0
 11
115.059593
 21
314.722959
 31
0.0
  0
ARC
  5
10E
330
FF
100
AcDbEntity
  8
0
  6
Continuous
 62
     0
370
    30
100
AcDbCircle
 10
77.059593
 20
314.734685
 30
0.0
 40
22.50000000745057
100
AcDbArc
 50
90.0
 51
240.732422
  0
ARC
  5
10F
330
FF
100
AcDbEntity
  8
0
  6
Continuous
 62
     0
370
    30
100
AcDbCircle
 10
77.059593
 20
314.734685
 30
0.0
 40
22.12614672386328
100
AcDbArc
 50
180.0
 51
240.188417
  0
ARC
  5
110
330
FF
100
AcDbEntity
  8
0
  6
Continuous
 62
     0
370
    30
100
AcDbCircle
 10
77.059593
 20
314.734685
 30
0.0
 40
22.12614672386328
100
AcDbArc
 50
299.811583
 51
0.0
  0
ARC
  5
111
330
FF
100
AcDbEntity
  8
0
  6
Continuous
 62
     0
370
    30
100
AcDbCircle
 10
77.059593
 20
314.734685
 30
0.0
 40
22.12614672386328
100
AcDbArc
 50
0.0
 51
180.0
  0
LINE
  5
112
330
FF
100
AcDbEntity
  8
0
  6
Continuous
 62
     0
370
    30
100
AcDbLine
 10
107.203387
 20
337.234686
 30
0.0
 11
115.059593
 21
336.82296
 31
0.0
  0
LINE
  5
113
330
FF
100
AcDbEntity
  8
0
  6
Continuous
 62
     0
370
    30
100
AcDbLine
 10
107.650899
 20
292.234686
 30
0.0
 11
115.059593
 21
292.62296
 31
0.0
  0
ARC
  5
114
330
FF
100
AcDbEntity
  8
0
  6
Continuous
 62
     0
370
    30
100
AcDbCircle
 10
132.159594
 20
314.734668
 30
0.0
 40
6.5
100
AcDbArc
 50
97.531999
 51
277.531999
  0
ARC
  5
115
330
FF
100
AcDbEntity
  8
0
  6
Continuous
 62
     0
370
    30
100
AcDbCircle
 10
132.159594
 20
314.734668
 30
0.0
 40
6.5
100
AcDbArc
 50
277.531999
 51
97.531999
  0
LINE
  5
116
330
FF
100
AcDbEntity
  8
0
  6
Continuous
 62
     0
370
     0
100
AcDbLine
 10
138.659594
 20
314.734678
 30
0.0
 11
143.642898
 21
314.734678
 31
0.0
  0
SPLINE
  5
117
330
FF
100
AcDbEntity
  8
0
  6
Continuous
 62
     0
370
     0
100
AcDbSpline
210
0.0
220
0.0
230
1.0
 70
     8
 71
     3
 72
    21
 73
    17
 74
     0
 42
0.0
 43
0.0
 40
0.0
 40
0.0
 40
0.0
 40
0.0
 40
3.004295903646847
 40
6.017293057819065
 40
8.458208939344342
 40
9.93455495835826
 40
12.21528003184906
 40
14.06340335768629
 40
16.08163160756787
 40
18.25474785008328
 40
19.90381535291387
 40
21.84159665188864
 40
24.58282184243805
 40
27.2451884162121
 40
30.59472225158421
 40
33.05208433184013
 40
33.05208433184013
 40
33.05208433184013
 40
33.05208433184013
 10
120.6762850995134
 20
314.7346790797476
 30
0.0
 10
120.6762850995134
 20
315.6344425832139
 30
0.0
 10
121.0016807613131
 20
317.4357308999739
 30
0.0
 10
122.3094748882011
 20
319.7250783824505
 30
0.0
 10
123.9085571307454
 20
321.2946390929192
 30
0.0
 10
125.6213166410302
 20
322.4572334334862
 30
0.0
 10
127.3862733519414
 20
323.2779018914713
 30
0.0
 10
129.5165645062103
 20
323.859775813249
 30
0.0
 10
131.7225659645701
 20
324.111867959339
 30
0.0
 10
133.8784045661849
 20
324.003466819714
 30
0.0
 10
135.9276690118085
 20
323.5874690310862
 30
0.0
 10
138.0355196595778
 20
322.832177416407
 30
0.0
 10
140.1746501311158
 20
321.549066917631
 30
0.0
 10
142.1743039450443
 20
319.5492213356973
 30
0.0
 10
143.3872724238758
 20
317.2098126738899
 30
0.0
 10
143.642898250096
 20
315.4706401120587
 30
0.0
 10
143.642898250096
 20
314.7346790797476
 30
0.0
  0
LINE
  5
118
330
FF
100
AcDbEntity
  8
0
  6
Continuous
 62
     0
370
     0
100
AcDbLine
 10
120.676285
 20
314.734678
 30
0.0
 11
125.659592
 21
314.734678
 31
0.0
  0
SPLINE
  5
119
330
FF
100
AcDbEntity
  8
0
  6
Continuous
 62
     0
370
     0
100
AcDbSpline
210
0.0
220
0.0
230
1.0
 70
     8
 71
     3
 72
    21
 73
    17
 74
     0
 42
0.0
 43
0.0
 40
0.0
 40
0.0
 40
0.0
 40
0.0
 40
3.004295903647487
 40
6.01729305781994
 40
8.458208939345289
 40
9.934554958359266
 40
12.21528003185013
 40
14.06340335768736
 40
16.08163160756893
 40
18.25474785008434
 40
19.90381535291495
 40
21.8415966518898
 40
24.58282184243938
 40
27.24518841621357
 40
30.59472225158563
 40
33.05208433184011
 40
33.05208433184011
 40
33.05208433184011
 40
33.05208433184011
 10
143.642898250096
 20
314.7346790797475
 30
0.0
 10
143.642898250096
 20
313.8349155762811
 30
0.0
 10
143.3175025882961
 20
312.0336272980221
 30
0.0
 10
142.0097084614078
 20
309.7442799596338
 30
0.0
 10
140.4106262188632
 20
308.1747194008885
 30
0.0
 10
138.6978667085782
 20
307.0121251964686
 30
0.0
 10
136.9329099976669
 20
306.1914568502834
 30
0.0
 10
134.8026188433979
 20
305.6095830159708
 30
0.0
 10
132.5966173850381
 20
305.3574909099889
 30
0.0
 10
130.4407787834233
 20
305.4658920321471
 30
0.0
 10
128.3915143377996
 20
305.8818897566091
 30
0.0
 10
126.2836636900305
 20
306.6371812623479
 30
0.0
 10
124.1445332184924
 20
307.9202915997623
 30
0.0
 10
122.1448794045643
 20
309.9201369899623
 30
0.0
 10
120.9319109257333
 20
312.2595455156229
 30
0.0
 10
120.6762850995134
 20
313.9987180474369
 30
0.0
 10
120.6762850995134
 20
314.7346790797476
 30
0.0
  0
ARC
  5
11A
330
FF
100
AcDbEntity
  8
0
  6
Continuous
 62
     0
370
    30
100
AcDbCircle
 10
116.352316
 20
333.815409
 30
0.0
 40
2.919273344350485
100
AcDbArc
 50
90.00106
 51
93.78531
  0
ARC
  5
11B
330
FF
100
AcDbEntity
  8
0
  6
Continuous
 62
     0
370
    30
100
AcDbCircle
 10
116.352314
 20
295.653956
 30
0.0
 40
2.919273682631333
100
AcDbArc
 50
266.214743
 51
269.99866
  0
LINE
  5
11C
330
FF
100
AcDbEntity
  8
0
  6
Continuous
 62
     0
370
    30
100
AcDbLine
 10
116.159592
 20
336.728314
 30
0.0
 11
116.159592
 21
314.734679
 31
0.0
  0
LINE
  5
11D
330
FF
100
AcDbEntity
  8
0
  6
Continuous
 62
     0
370
    30
100
AcDbLine
 10
116.159592
 20
314.734679
 30
0.0
 11
116.159592
 21
292.741051
 31
0.0
  0
LINE
  5
11E
330
FF
100
AcDbEntity
  8
0
  6
Continuous
 62
     0
370
     0
100
AcDbLine
 10
146.659592
 20
336.734683
 30
0.0
 11
146.659592
 21
314.734679
 31
0.0
  0
LINE
  5
11F
330
FF
100
AcDbEntity
  8
0
  6
Continuous
 62
     0
370
     0
100
AcDbLine
 10
146.659592
 20
314.734679
 30
0.0
 11
146.659592
 21
292.734683
 31
0.0
  0
LINE
  5
120
330
FF
100
AcDbEntity
  8
0
  6
Continuous
 62
     0
370
    30
100
AcDbLine
 10
147.159592
 20
314.734679
 30
0.0
 11
147.159592
 21
293.234683
 31
0.0
  0
LINE
  5
121
330
FF
100
AcDbEntity
  8
0
  6
Continuous
 62
     0
370
    30
100
AcDbLine
 10
147.159592
 20
336.234683
 30
0.0
 11
147.159592
 21
314.734679
 31
0.0
  0
ARC
  5
122
330
FF
100
AcDbEntity
  8
0
  6
Continuous
 62
     0
370
    30
100
AcDbCircle
 10
146.659555
 20
336.234646
 30
0.0
 40
0.5000369491425254
100
AcDbArc
 50
0.008983
 51
89.995767
  0
ARC
  5
123
330
FF
100
AcDbEntity
  8
0
  6
Continuous
 62
     0
370
    30
100
AcDbCircle
 10
146.659555
 20
293.23472
 30
0.0
 40
0.5000369491412113
100
AcDbArc
 50
270.004233
 51
359.991017
  0
LINE
  5
124
330
FF
100
AcDbEntity
  8
0
  6
Continuous
 62
     0
370
    30
100
AcDbLine
 10
116.352245
 20
292.734683
 30
0.0
 11
146.659592
 21
292.734683
 31
0.0
  0
LINE
  5
125
330
FF
100
AcDbEntity
  8
0
  6
Continuous
 62
     0
370
    30
100
AcDbLine
 10
116.352248
 20
336.734683
 30
0.0
 11
146.659592
 21
336.734683
 31
0.0
  0
ARC
  5
126
330
FF
100
AcDbEntity
  8
0
  6
Continuous
 62
     0
370
     0
100
AcDbCircle
 10
77.059593
 20
314.73469
 30
0.0
 40
27.0
100
AcDbArc
 50
79.07411
 51
245.957924
  0
ARC
  5
127
330
FF
100
AcDbEntity
  8
0
  6
Continuous
 62
     0
370
     0
100
AcDbCircle
 10
77.059593
 20
314.73469
 30
0.0
 40
27.0
100
AcDbArc
 50
56.44269
 51
79.07411
  0
ARC
  5
128
330
FF
100
AcDbEntity
  8
0
  6
Continuous
 62
     0
370
     0
100
AcDbCircle
 10
77.059593
 20
314.73469
 30
0.0
 40
27.0
100
AcDbArc
 50
294.042076
 51
303.55731
  0
ARC
  5
129
330
FF
100
AcDbEntity
  8
0
  6
Continuous
 62
     0
370
    30
100
AcDbCircle
 10
77.059593
 20
314.73469
 30
0.0
 40
30.0
100
AcDbArc
 50
48.590378
 51
79.07411
  0
ARC
  5
12A
330
FF
100
AcDbEntity
  8
0
  6
Continuous
 62
     0
370
    30
100
AcDbCircle
 10
77.059593
 20
314.73469
 30
0.0
 40
30.0
100
AcDbArc
 50
291.510188
 51
311.409622
  0
ARC
  5
12B
330
FF
100
AcDbEntity
  8
0
  6
Continuous
 62
     0
370
    30
100
AcDbCircle
 10
77.059593
 20
314.73469
 30
0.0
 40
30.0
100
AcDbArc
 50
79.07411
 51
248.489812
  0
ARC
  5
12C
330
FF
100
AcDbEntity
  8
0
  6
Continuous
 62
     0
370
     0
100
AcDbCircle
 10
77.059593
 20
314.73469
 30
0.0
 40
29.5
100
AcDbArc
 50
79.07411
 51
248.106572
  0
ARC
  5
12D
330
FF
100
AcDbEntity
  8
0
  6
Continuous
 62
     0
370
     0
100
AcDbCircle
 10
77.059593
 20
314.73469
 30
0.0
 40
29.5
100
AcDbArc
 50
49.703857
 51
79.07411
  0
ARC
  5
12E
330
FF
100
AcDbEntity
  8
0
  6
Continuous
 62
     0
370
     0
100
AcDbCircle
 10
77.059593
 20
314.73469
 30
0.0
 40
29.5
100
AcDbArc
 50
291.893428
 51
310.296143
  0
ARC
  5
12F
330
FF
100
AcDbEntity
  8
0
  6
Continuous
 62
     0
370
    30
100
AcDbCircle
 10
77.059593
 20
314.734677
 30
0.0
 40
11.0
100
AcDbArc
 50
0.0
 51
180.0
  0
LINE
  5
130
330
FF
100
AcDbEntity
  8
0
  6
Continuous
 62
     0
370
    30
100
AcDbLine
 10
66.059593
 20
314.734677
 30
0.0
 11
66.059593
 21
94.734677
 31
0.0
  0
ARC
  5
131
330
FF
100
AcDbEntity
  8
0
  6
Continuous
 62
     0
370
    30
100
AcDbCircle
 10
77.059593
 20
94.734677
 30
0.0
 40
11.0
100
AcDbArc
 50
180.0
 51
360.0
  0
LINE
  5
132
330
FF
100
AcDbEntity
  8
0
  6
Continuous
 62
     0
370
    30
100
AcDbLine
 10
88.059593
 20
94.734681
 30
0.0
 11
88.059593
 21
314.734677
 31
0.0
  0
ARC
  5
133
330
FF
100
AcDbEntity
  8
0
  6
Continuous
 62
     0
370
    30
100
AcDbCircle
 10
77.059593
 20
314.734684
 30
0.0
 40
11.25
100
AcDbArc
 50
347.898508
 51
104.359285
  0
ARC
  5
134
330
FF
100
AcDbEntity
  8
0
  6
Continuous
 62
     0
370
    30
100
AcDbCircle
 10
77.059593
 20
314.734684
 30
0.0
 40
11.25
100
AcDbArc
 50
104.359285
 51
192.101492
  0
ARC
  5
135
330
FF
100
AcDbEntity
  8
0
  6
Continuous
 62
     0
370
     0
100
AcDbCircle
 10
77.059593
 20
314.734684
 30
0.0
 40
21.5
100
AcDbArc
 50
300.772325
 51
104.359285
  0
ARC
  5
136
330
FF
100
AcDbEntity
  8
0
  6
Continuous
 62
     0
370
     0
100
AcDbCircle
 10
77.059593
 20
314.734684
 30
0.0
 40
21.5
100
AcDbArc
 50
104.359285
 51
239.227675
  0
ARC
  5
137
330
FF
100
AcDbEntity
  8
0
  6
Continuous
 62
     0
370
    30
100
AcDbCircle
 10
77.059593
 20
314.734684
 30
0.0
 40
22.0
100
AcDbArc
 50
300.0
 51
104.359285
  0
ARC
  5
138
330
FF
100
AcDbEntity
  8
0
  6
Continuous
 62
     0
370
    30
100
AcDbCircle
 10
77.059593
 20
314.734684
 30
0.0
 40
22.0
100
AcDbArc
 50
104.359285
 51
240.0
  0
ARC
  5
139
330
FF
100
AcDbEntity
  8
0
  6
Continuous
 62
     0
370
    30
100
AcDbCircle
 10
113.689189
 20
314.673564
 30
0.0
 40
20.42760338744059
100
AcDbArc
 50
84.746492
 51
86.153372
  0
LINE
  5
13A
330
FF
100
AcDbEntity
  8
0
  6
Continuous
 62
     0
370
    30
100
AcDbLine
 10
115.559593
 20
335.045049
 30
0.0
 11
115.559593
 21
334.837206
 31
0.0
  0
ARC
  5
13B
330
FF
100
AcDbEntity
  8
0
  6
Continuous
 62
     0
370
    30
100
AcDbCircle
 10
113.689199
 20
314.495532
 30
0.0
 40
20.42748326543045
100
AcDbArc
 50
84.746488
 51
86.153376
  0
LINE
  5
13C
330
FF
100
AcDbEntity
  8
0
  6
Continuous
 62
     0
370
    30
100
AcDbLine
 10
115.559593
 20
335.045049
 30
0.0
 11
116.159592
 21
334.981108
 31
0.0
  0
ARC
  5
13D
330
FF
100
AcDbEntity
  8
0
  6
Continuous
 62
     0
370
    30
100
AcDbCircle
 10
113.698008
 20
314.698428
 30
0.0
 40
20.35932260074868
100
AcDbArc
 50
273.834672
 51
276.944447
  0
LINE
  5
13E
330
FF
100
AcDbEntity
  8
0
  6
Continuous
 62
     0
370
    30
100
AcDbLine
 10
121.371138
 20
292.874345
 30
0.0
 11
121.726879
 21
292.874362
 31
0.0
  0
LINE
  5
13F
330
FF
100
AcDbEntity
  8
0
  6
Continuous
 62
     0
370
    30
100
AcDbLine
 10
121.726879
 20
292.874362
 30
0.0
 11
121.726879
 21
293.166095
 31
0.0
  0
LINE
  5
140
330
FF
100
AcDbEntity
  8
0
  6
Continuous
 62
     0
370
    30
100
AcDbLine
 10
121.726879
 20
293.166095
 30
0.0
 11
121.413719
 21
293.166096
 31
0.0
  0
LINE
  5
141
330
FF
100
AcDbEntity
  8
0
  6
Continuous
 62
     0
370
    30
100
AcDbLine
 10
121.413719
 20
293.166096
 30
0.0
 11
121.413719
 21
292.923367
 31
0.0
  0
LINE
  5
142
330
FF
100
AcDbEntity
  8
0
  6
Continuous
 62
     0
370
    30
100
AcDbLine
 10
119.511612
 20
293.161353
 30
0.0
 11
119.159592
 21
293.161365
 31
0.0
  0
LINE
  5
143
330
FF
100
AcDbEntity
  8
0
  6
Continuous
 62
     0
370
    30
100
AcDbLine
 10
119.159592
 20
293.161365
 30
0.0
 11
119.159592
 21
292.878729
 31
0.0
  0
LINE
  5
144
330
FF
100
AcDbEntity
  8
0
  6
Continuous
 62
     0
370
    30
100
AcDbLine
 10
119.159592
 20
292.878729
 30
0.0
 11
119.472544
 21
292.878732
 31
0.0
  0
LINE
  5
145
330
FF
100
AcDbEntity
  8
0
  6
Continuous
 62
     0
370
    30
100
AcDbLine
 10
119.159229
 20
293.2851
 30
0.0
 11
120.748384
 21
293.285129
 31
0.0
  0
SPLINE
  5
146
330
FF
100
AcDbEntity
  8
0
  6
Continuous
 62
     0
370
    30
100
AcDbSpline
210
0.0
220
0.0
230
1.0
 70
     8
 71
     3
 72
    10
 73
     6
 74
     0
 42
0.0
 43
0.0
 40
0.0
 40
0.0
 40
0.0
 40
0.0
 40
0.1607383031801948
 40
0.3212678064986665
 40
0.4814978669279018
 40
0.4814978669279018
 40
0.4814978669279018
 40
0.4814978669279018
 10
120.7483836242359
 20
293.2851285351986
 30
0.0
 10
120.80196305711
 20
293.285138148699
 30
0.0
 10
120.9090285148255
 20
293.2860881881055
 30
0.0
 10
121.0685832189511
 20
293.2918647548875
 30
0.0
 10
121.1664318423135
 20
293.3025718336164
 30
0.0
 10
121.2105779666211
 20
293.3093909051662
 30
0.0
  0
SPLINE
  5
147
330
FF
100
AcDbEntity
  8
0
  6
Continuous
 62
     0
370
    30
100
AcDbSpline
210
0.0
220
0.0
230
1.0
 70
     8
 71
     3
 72
    14
 73
    10
 74
     0
 42
0.0
 43
0.0
 40
0.0
 40
0.0
 40
0.0
 40
0.0
 40
0.2483063195049807
 40
0.4973415118280721
 40
0.7469539897613074
 40
0.9957853863575405
 40
1.243643039570703
 40
1.492316197299798
 40
1.742344279104773
 40
1.742344279104773
 40
1.742344279104773
 40
1.742344279104773
 10
121.2105779666257
 20
293.3093909051718
 30
0.0
 10
121.2778963260628
 20
293.3203081066971
 30
0.0
 10
121.3941075386808
 20
293.3496474202493
 30
0.0
 10
121.4659471513054
 20
293.4082878965894
 30
0.0
 10
121.4676593422386
 20
293.4712414616729
 30
0.0
 10
121.4045357815583
 20
293.536118275637
 30
0.0
 10
121.2265495228779
 20
293.5880698116543
 30
0.0
 10
120.9844104033514
 20
293.6109146621168
 30
0.0
 10
120.8176700885195
 20
293.613075370206
 30
0.0
 10
120.7343276255125
 20
293.6130039128381
 30
0.0
  0
LINE
  5
148
330
FF
100
AcDbEntity
  8
0
  6
Continuous
 62
     0
370
    30
100
AcDbLine
 10
120.734328
 20
293.613004
 30
0.0
 11
119.159229
 21
293.612973
 31
0.0
  0
LINE
  5
149
330
FF
100
AcDbEntity
  8
0
  6
Continuous
 62
     0
370
    30
100
AcDbLine
 10
119.159229
 20
293.703731
 30
0.0
 11
120.741356
 21
293.70378
 31
0.0
  0
SPLINE
  5
14A
330
FF
100
AcDbEntity
  8
0
  6
Continuous
 62
     0
370
    30
100
AcDbSpline
210
0.0
220
0.0
230
1.0
 70
     8
 71
     3
 72
    10
 73
     6
 74
     0
 42
0.0
 43
0.0
 40
0.0
 40
0.0
 40
0.0
 40
0.0
 40
0.2406503714594196
 40
0.4809889051886758
 40
0.721158888053054
 40
0.721158888053054
 40
0.721158888053054
 40
0.721158888053054
 10
120.741355633955
 20
293.7037803129416
 30
0.0
 10
120.8215724243533
 20
293.7037765515463
 30
0.0
 10
120.9824066957201
 20
293.7015262797939
 30
0.0
 10
121.2175126708669
 20
293.6841636893594
 30
0.0
 10
121.3599581842569
 20
293.6616399281232
 30
0.0
 10
121.4243118093296
 20
293.6480638181956
 30
0.0
  0
SPLINE
  5
14B
330
FF
100
AcDbEntity
  8
0
  6
Continuous
 62
     0
370
    30
100
AcDbSpline
210
0.0
220
0.0
230
1.0
 70
     8
 71
     3
 72
    14
 73
    10
 74
     0
 42
0.0
 43
0.0
 40
0.0
 40
0.0
 40
0.0
 40
0.0
 40
0.2658311356644136
 40
0.5318324899200813
 40
0.7981789482599619
 40
1.064703722663622
 40
1.331140912478696
 40
1.59725580011786
 40
1.863124513833546
 40
1.863124513833546
 40
1.863124513833546
 40
1.863124513833546
 10
121.4243118093296
 20
293.6480638181956
 30
0.0
 10
121.4956741374192
 20
293.6330874366253
 30
0.0
 10
121.6229367501046
 20
293.5966742739492
 30
0.0
 10
121.7395818686266
 20
293.530368382284
 30
0.0
 10
121.786990337633
 20
293.4612636979191
 30
0.0
 10
121.7746420754747
 20
293.3945257558066
 30
0.0
 10
121.7071535450636
 20
293.3328543632085
 30
0.0
 10
121.576977339795
 20
293.2794910621942
 30
0.0
 10
121.4444451862643
 20
293.2528394327821
 30
0.0
 10
121.3707749661558
 20
293.2422965869853
 30
0.0
  0
SPLINE
  5
14C
330
FF
100
AcDbEntity
  8
0
  6
Continuous
 62
     0
370
    30
100
AcDbSpline
210
0.0
220
0.0
230
1.0
 70
     8
 71
     3
 72
    10
 73
     6
 74
     0
 42
0.0
 43
0.0
 40
0.0
 40
0.0
 40
0.0
 40
0.0
 40
0.2234824778642054
 40
0.4474133988426866
 40
0.6716368634533153
 40
0.6716368634533153
 40
0.6716368634533153
 40
0.6716368634533153
 10
121.3707749661564
 20
293.2422965869853
 30
0.0
 10
121.3084683591976
 20
293.2335615103259
 30
0.0
 10
121.1705816713088
 20
293.2201179665855
 30
0.0
 10
120.9476513521293
 20
293.2134173699819
 30
0.0
 10
120.7983200772072
 20
293.2123299073851
 30
0.0
 10
120.7235789228525
 20
293.2123264188771
 30
0.0
  0
LINE
  5
14D
330
FF
100
AcDbEntity
  8
0
  6
Continuous
 62
     0
370
    30
100
AcDbLine
 10
120.723579
 20
293.212326
 30
0.0
 11
119.159229
 21
293.212265
 31
0.0
  0
SPLINE
  5
14E
330
FF
100
AcDbEntity
  8
0
  6
Continuous
 62
     0
370
    30
100
AcDbSpline
210
0.0
220
0.0
230
1.0
 70
     8
 71
     3
 72
    25
 73
    21
 74
     0
 42
0.0
 43
0.0
 40
0.0
 40
0.0
 40
0.0
 40
0.0
 40
0.2754117203151685
 40
0.4117111493874493
 40
0.5484227172847359
 40
0.6882255408435669
 40
0.828517537529593
 40
1.101530130229451
 40
1.374996099329444
 40
1.654519371669836
 40
2.206611179020704
 40
2.483601928484152
 40
2.760074308334973
 40
3.036299766838883
 40
3.172821653322534
 40
3.311285244432745
 40
3.451140522921229
 40
3.589993566819087
 40
3.726555894954437
 40
3.865086221907652
 40
3.865086221907652
 40
3.865086221907652
 40
3.865086221907652
 10
119.8529550357617
 20
294.2639333762259
 30
0.0
 10
119.761390158706
 20
294.2615020335778
 30
0.0
 10
119.6227626527311
 20
294.2449933609253
 30
0.0
 10
119.4875616316446
 20
294.1988660648535
 30
0.0
 10
119.4259849374944
 20
294.1539394900739
 30
0.0
 10
119.4013230772888
 20
294.1054800786088
 30
0.0
 10
119.4129696050873
 20
294.0417433833894
 30
0.0
 10
119.5087281401134
 20
293.9679590329249
 30
0.0
 10
119.7415216527673
 20
293.9143689706414
 30
0.0
 10
120.0956608243936
 20
293.8794395754839
 30
0.0
 10
120.4690682122565
 20
293.8730178069804
 30
0.0
 10
120.837024533421
 20
293.8825891125598
 30
0.0
 10
121.1058619021392
 20
293.9053527111538
 30
0.0
 10
121.3080366628687
 20
293.945672519691
 30
0.0
 10
121.4161323010462
 20
293.9958690877897
 30
0.0
 10
121.4636461538499
 20
294.0400177356851
 30
0.0
 10
121.4803518735436
 20
294.0875835600654
 30
0.0
 10
121.4664718272273
 20
294.1359866648129
 30
0.0
 10
121.4171309867039
 20
294.1823766512097
 30
0.0
 10
121.3568701495905
 20
294.2083472546218
 30
0.0
 10
121.3213935032398
 20
294.219029981092
 30
0.0
  0
ARC
  5
14F
330
FF
100
AcDbEntity
  8
0
  6
Continuous
 62
     0
370
    30
100
AcDbCircle
 10
121.002793
 20
292.976309
 30
0.0
 40
1.282911366441333
100
AcDbArc
 50
75.620592
 51
87.836302
  0
SPLINE
  5
150
330
FF
100
AcDbEntity
  8
0
  6
Continuous
 62
     0
370
    30
100
AcDbSpline
210
0.0
220
0.0
230
1.0
 70
     8
 71
     3
 72
    26
 73
    22
 74
     0
 42
0.0
 43
0.0
 40
0.0
 40
0.0
 40
0.0
 40
0.0
 40
0.4329957280319827
 40
0.6503560515467744
 40
0.8672615756275351
 40
1.305446770178559
 40
1.739098905056484
 40
1.954088279332187
 40
2.172970668810697
 40
2.61441144428683
 40
3.050370624337332
 40
3.486677011425206
 40
3.927680242198664
 40
4.146685552390935
 40
4.362090948400036
 40
4.79543586142618
 40
5.017398464029136
 40
5.237524152879461
 40
5.453487952873494
 40
5.670035285782042
 40
6.104322691876692
 40
6.104322691876692
 40
6.104322691876692
 40
6.104322691876692
 10
121.0512289459063
 20
294.3838793837986
 30
0.0
 10
121.1954477249271
 20
294.3816346987794
 30
0.0
 10
121.4140643056074
 20
294.3494178010695
 30
0.0
 10
121.6173726286459
 20
294.2716711360996
 30
0.0
 10
121.7533162954506
 20
294.176645425133
 30
0.0
 10
121.7942801412893
 20
294.045956756768
 30
0.0
 10
121.6765626455628
 20
293.9275216618407
 30
0.0
 10
121.4799856480413
 20
293.8583933546187
 30
0.0
 10
121.2332424923377
 20
293.808374820988
 30
0.0
 10
120.8785781966093
 20
293.7744048135665
 30
0.0
 10
120.4394332833022
 20
293.766733444454
 30
0.0
 10
120.0012544993016
 20
293.778219974992
 30
0.0
 10
119.6503311401374
 20
293.8158084403154
 30
0.0
 10
119.4084476932533
 20
293.8682158965686
 30
0.0
 10
119.2154196142275
 20
293.9384468523006
 30
0.0
 10
119.1201272827742
 20
294.0339732825463
 30
0.0
 10
119.1198836915904
 20
294.1355854996792
 30
0.0
 10
119.1684434635091
 20
294.2124909741244
 30
0.0
 10
119.2721710336819
 20
294.2838060129039
 30
0.0
 10
119.4861412553831
 20
294.3582457285139
 30
0.0
 10
119.7082012073044
 20
294.385486352569
 30
0.0
 10
119.8529550296788
 20
294.3861610694693
 30
0.0
  0
SPLINE
  5
151
330
FF
100
AcDbEntity
  8
0
  6
Continuous
 62
     0
370
    30
100
AcDbSpline
210
0.0
220
0.0
230
1.0
 70
     8
 71
     3
 72
    28
 73
    24
 74
     0
 42
0.0
 43
0.0
 40
0.0
 40
0.0
 40
0.0
 40
0.0
 40
0.420447163056052
 40
0.6302954727550846
 40
0.8408442242622233
 40
1.264356009512049
 40
1.683146518034478
 40
1.891353215850199
 40
2.103180002565582
 40
2.318745009213892
 40
2.532573572134464
 40
2.954756629199497
 40
3.377480775805025
 40
3.805430969074709
 40
4.017368875573592
 40
4.226305843304226
 40
4.645601066209493
 40
4.859869049938898
 40
5.073392086735822
 40
5.283190324930735
 40
5.492725046528274
 40
5.705976211204709
 40
5.918133441981339
 40
5.918133441981339
 40
5.918133441981339
 40
5.918133441981339
 10
121.0512289432805
 20
295.1523356145112
 30
0.0
 10
121.1912246553443
 20
295.149285181167
 30
0.0
 10
121.4040321253319
 20
295.1170415800047
 30
0.0
 10
121.6121167740896
 20
295.030516024605
 30
0.0
 10
121.7520919797541
 20
294.9208214647505
 30
0.0
 10
121.7953867273307
 20
294.7646388878519
 30
0.0
 10
121.6605368572335
 20
294.6244795949937
 30
0.0
 10
121.4584389009015
 20
294.5453370921047
 30
0.0
 10
121.2729386543929
 20
294.5035104808758
 30
0.0
 10
121.0711340002513
 20
294.4751679048177
 30
0.0
 10
120.7934966632228
 20
294.4511360541156
 30
0.0
 10
120.4391699903281
 20
294.4430783265625
 30
0.0
 10
120.0150592194938
 20
294.4572605448659
 30
0.0
 10
119.6718644621019
 20
294.4982946916023
 30
0.0
 10
119.4285601965396
 20
294.5570381590954
 30
0.0
 10
119.2296180940995
 20
294.6376595900396
 30
0.0
 10
119.1204782194771
 20
294.7506492650624
 30
0.0
 10
119.1183208629724
 20
294.871783836121
 30
0.0
 10
119.1706043359579
 20
294.9623696263819
 30
0.0
 10
119.2782754285111
 20
295.0445774596814
 30
0.0
 10
119.4432123139733
 20
295.1065241922556
 30
0.0
 10
119.6403568896583
 20
295.1442632847281
 30
0.0
 10
119.7822520416222
 20
295.1541541544085
 30
0.0
 10
119.8529550301316
 20
295.1548734659631
 30
0.0
  0
SPLINE
  5
152
330
FF
100
AcDbEntity
  8
0
  6
Continuous
 62
     0
370
    30
100
AcDbSpline
210
0.0
220
0.0
230
1.0
 70
     8
 71
     3
 72
    23
 73
    19
 74
     0
 42
0.0
 43
0.0
 40
0.0
 40
0.0
 40
0.0
 40
0.0
 40
0.1344406348959635
 40
0.2698087024253294
 40
0.4020113593220688
 40
0.5351093167956869
 40
0.8039622975256736
 40
1.068634646139707
 40
1.334722668476819
 40
1.605909583314183
 40
1.873103289376393
 40
2.143350905299619
 40
2.412004249781777
 40
2.680682206166634
 40
2.949290704837158
 40
3.213805505265973
 40
3.481377106834313
 40
3.74489199651304
 40
3.74489199651304
 40
3.74489199651304
 40
3.74489199651304
 10
119.852955035646
 20
295.0183563959312
 30
0.0
 10
119.8082984319259
 20
295.0166912769224
 30
0.0
 10
119.719196510972
 20
295.0093272759249
 30
0.0
 10
119.5945564225352
 20
294.9860420751738
 30
0.0
 10
119.4904859095942
 20
294.9471694468896
 30
0.0
 10
119.4057276811861
 20
294.8774175853817
 30
0.0
 10
119.3928448992402
 20
294.777605819514
 30
0.0
 10
119.5226580145053
 20
294.6748278078561
 30
0.0
 10
119.7564649392677
 20
294.6152969447602
 30
0.0
 10
120.0164030722367
 20
294.5869416662453
 30
0.0
 10
120.2845411396442
 20
294.5734250076483
 30
0.0
 10
120.5535224002507
 20
294.5721387494979
 30
0.0
 10
120.8227800180537
 20
294.5802643204217
 30
0.0
 10
121.084861084865
 20
294.6049305415194
 30
0.0
 10
121.329748349555
 20
294.6560623441369
 30
0.0
 10
121.4762437468909
 20
294.7547295575477
 30
0.0
 10
121.4888824978065
 20
294.8717072042478
 30
0.0
 10
121.3911238012642
 20
294.9443252402203
 30
0.0
 10
121.3213935028462
 20
294.9677903114871
 30
0.0
  0
ARC
  5
153
330
FF
100
AcDbEntity
  8
0
  6
Continuous
 62
     0
370
    30
100
AcDbCircle
 10
121.00354
 20
293.873757
 30
0.0
 40
1.139271460751786
100
AcDbArc
 50
73.799661
 51
87.600968
  0
LINE
  5
154
330
FF
100
AcDbEntity
  8
0
  6
Continuous
 62
     0
370
    30
100
AcDbLine
 10
121.726672
 20
295.823682
 30
0.0
 11
121.726672
 21
295.958298
 31
0.0
  0
LINE
  5
155
330
FF
100
AcDbEntity
  8
0
  6
Continuous
 62
     0
370
    30
100
AcDbLine
 10
121.726672
 20
295.958298
 30
0.0
 11
119.159592
 21
295.958298
 31
0.0
  0
LINE
  5
156
330
FF
100
AcDbEntity
  8
0
  6
Continuous
 62
     0
370
    30
100
AcDbLine
 10
119.159592
 20
295.958298
 30
0.0
 11
119.159592
 21
295.823682
 31
0.0
  0
LINE
  5
157
330
FF
100
AcDbEntity
  8
0
  6
Continuous
 62
     0
370
    30
100
AcDbLine
 10
119.159592
 20
295.823682
 30
0.0
 11
120.261747
 21
295.823689
 31
0.0
  0
LINE
  5
158
330
FF
100
AcDbEntity
  8
0
  6
Continuous
 62
     0
370
    30
100
AcDbLine
 10
120.261747
 20
295.823689
 30
0.0
 11
120.261747
 21
295.368664
 31
0.0
  0
LINE
  5
159
330
FF
100
AcDbEntity
  8
0
  6
Continuous
 62
     0
370
    30
100
AcDbLine
 10
120.261747
 20
295.368664
 30
0.0
 11
119.159592
 21
295.368659
 31
0.0
  0
LINE
  5
15A
330
FF
100
AcDbEntity
  8
0
  6
Continuous
 62
     0
370
    30
100
AcDbLine
 10
119.159592
 20
295.368659
 30
0.0
 11
119.159592
 21
295.238572
 31
0.0
  0
LINE
  5
15B
330
FF
100
AcDbEntity
  8
0
  6
Continuous
 62
     0
370
    30
100
AcDbLine
 10
119.159592
 20
295.238572
 30
0.0
 11
121.726672
 21
295.238572
 31
0.0
  0
LINE
  5
15C
330
FF
100
AcDbEntity
  8
0
  6
Continuous
 62
     0
370
    30
100
AcDbLine
 10
121.726672
 20
295.238572
 30
0.0
 11
121.726672
 21
295.368659
 31
0.0
  0
LINE
  5
15D
330
FF
100
AcDbEntity
  8
0
  6
Continuous
 62
     0
370
    30
100
AcDbLine
 10
121.726672
 20
295.368659
 30
0.0
 11
120.567465
 21
295.368667
 31
0.0
  0
LINE
  5
15E
330
FF
100
AcDbEntity
  8
0
  6
Continuous
 62
     0
370
    30
100
AcDbLine
 10
120.567465
 20
295.368667
 30
0.0
 11
120.567465
 21
295.823692
 31
0.0
  0
LINE
  5
15F
330
FF
100
AcDbEntity
  8
0
  6
Continuous
 62
     0
370
    30
100
AcDbLine
 10
120.567465
 20
295.823692
 30
0.0
 11
121.726672
 21
295.823682
 31
0.0
  0
LINE
  5
160
330
FF
100
AcDbEntity
  8
0
  6
Continuous
 62
     0
370
    30
100
AcDbLine
 10
119.159592
 20
298.169992
 30
0.0
 11
119.472751
 21
298.169993
 31
0.0
  0
LINE
  5
161
330
FF
100
AcDbEntity
  8
0
  6
Continuous
 62
     0
370
    30
100
AcDbLine
 10
119.472751
 20
298.169993
 30
0.0
 11
119.472751
 21
297.846847
 31
0.0
  0
LINE
  5
162
330
FF
100
AcDbEntity
  8
0
  6
Continuous
 62
     0
370
    30
100
AcDbLine
 10
119.472751
 20
297.846847
 30
0.0
 11
121.726672
 21
297.846835
 31
0.0
  0
LINE
  5
163
330
FF
100
AcDbEntity
  8
0
  6
Continuous
 62
     0
370
    30
100
AcDbLine
 10
121.726672
 20
297.846835
 30
0.0
 11
121.726672
 21
297.713587
 31
0.0
  0
LINE
  5
164
330
FF
100
AcDbEntity
  8
0
  6
Continuous
 62
     0
370
    30
100
AcDbLine
 10
121.726672
 20
297.713587
 30
0.0
 11
119.472751
 21
297.713614
 31
0.0
  0
LINE
  5
165
330
FF
100
AcDbEntity
  8
0
  6
Continuous
 62
     0
370
    30
100
AcDbLine
 10
119.472751
 20
297.713614
 30
0.0
 11
119.472751
 21
297.246137
 31
0.0
  0
LINE
  5
166
330
FF
100
AcDbEntity
  8
0
  6
Continuous
 62
     0
370
    30
100
AcDbLine
 10
119.472751
 20
297.246137
 30
0.0
 11
121.726672
 21
297.246077
 31
0.0
  0
LINE
  5
167
330
FF
100
AcDbEntity
  8
0
  6
Continuous
 62
     0
370
    30
100
AcDbLine
 10
121.726672
 20
297.246077
 30
0.0
 11
121.726672
 21
297.110957
 31
0.0
  0
LINE
  5
168
330
FF
100
AcDbEntity
  8
0
  6
Continuous
 62
     0
370
    30
100
AcDbLine
 10
121.726672
 20
297.110957
 30
0.0
 11
119.472751
 21
297.111082
 31
0.0
  0
LINE
  5
169
330
FF
100
AcDbEntity
  8
0
  6
Continuous
 62
     0
370
    30
100
AcDbLine
 10
119.472751
 20
297.111082
 30
0.0
 11
119.472751
 21
296.211779
 31
0.0
  0
LINE
  5
16A
330
FF
100
AcDbEntity
  8
0
  6
Continuous
 62
     0
370
    30
100
AcDbLine
 10
119.472751
 20
296.211779
 30
0.0
 11
120.261747
 21
296.211792
 31
0.0
  0
LINE
  5
16B
330
FF
100
AcDbEntity
  8
0
  6
Continuous
 62
     0
370
    30
100
AcDbLine
 10
120.261747
 20
296.211792
 30
0.0
 11
120.261747
 21
296.67065
 31
0.0
  0
LINE
  5
16C
330
FF
100
AcDbEntity
  8
0
  6
Continuous
 62
     0
370
    30
100
AcDbLine
 10
120.261747
 20
296.67065
 30
0.0
 11
120.567465
 21
296.670632
 31
0.0
  0
LINE
  5
16D
330
FF
100
AcDbEntity
  8
0
  6
Continuous
 62
     0
370
    30
100
AcDbLine
 10
120.567465
 20
296.670632
 30
0.0
 11
120.567465
 21
296.211786
 31
0.0
  0
LINE
  5
16E
330
FF
100
AcDbEntity
  8
0
  6
Continuous
 62
     0
370
    30
100
AcDbLine
 10
120.567465
 20
296.211786
 30
0.0
 11
121.413719
 21
296.211779
 31
0.0
  0
LINE
  5
16F
330
FF
100
AcDbEntity
  8
0
  6
Continuous
 62
     0
370
    30
100
AcDbLine
 10
121.413719
 20
296.211779
 30
0.0
 11
121.413719
 21
296.704613
 31
0.0
  0
LINE
  5
170
330
FF
100
AcDbEntity
  8
0
  6
Continuous
 62
     0
370
    30
100
AcDbLine
 10
121.413719
 20
296.704613
 30
0.0
 11
121.726672
 21
296.704444
 31
0.0
  0
LINE
  5
171
330
FF
100
AcDbEntity
  8
0
  6
Continuous
 62
     0
370
    30
100
AcDbLine
 10
121.726672
 20
296.704444
 30
0.0
 11
121.726672
 21
296.075993
 31
0.0
  0
LINE
  5
172
330
FF
100
AcDbEntity
  8
0
  6
Continuous
 62
     0
370
    30
100
AcDbLine
 10
121.726672
 20
296.075993
 30
0.0
 11
119.159592
 21
296.075993
 31
0.0
  0
LINE
  5
173
330
FF
100
AcDbEntity
  8
0
  6
Continuous
 62
     0
370
    30
100
AcDbLine
 10
119.159592
 20
296.075993
 30
0.0
 11
119.159592
 21
298.169992
 31
0.0
  0
LINE
  5
174
330
FF
100
AcDbEntity
  8
0
  6
Continuous
 62
     0
370
    30
100
AcDbLine
 10
121.726672
 20
298.269255
 30
0.0
 11
121.726672
 21
298.401019
 31
0.0
  0
LINE
  5
175
330
FF
100
AcDbEntity
  8
0
  6
Continuous
 62
     0
370
    30
100
AcDbLine
 10
121.726672
 20
298.401019
 30
0.0
 11
119.159592
 21
298.401019
 31
0.0
  0
LINE
  5
176
330
FF
100
AcDbEntity
  8
0
  6
Continuous
 62
     0
370
    30
100
AcDbLine
 10
119.159592
 20
298.401019
 30
0.0
 11
119.159592
 21
298.269255
 31
0.0
  0
LINE
  5
177
330
FF
100
AcDbEntity
  8
0
  6
Continuous
 62
     0
370
    30
100
AcDbLine
 10
119.159592
 20
298.269255
 30
0.0
 11
121.726672
 21
298.269255
 31
0.0
  0
LINE
  5
178
330
FF
100
AcDbEntity
  8
0
  6
Continuous
 62
     0
370
    30
100
AcDbLine
 10
121.051157
 20
298.71158
 30
0.0
 11
121.051157
 21
298.58122
 31
0.0
  0
LINE
  5
179
330
FF
100
AcDbEntity
  8
0
  6
Continuous
 62
     0
370
    30
100
AcDbLine
 10
121.051157
 20
298.58122
 30
0.0
 11
121.726672
 21
298.58122
 31
0.0
  0
LINE
  5
17A
330
FF
100
AcDbEntity
  8
0
  6
Continuous
 62
     0
370
    30
100
AcDbLine
 10
121.726672
 20
298.58122
 30
0.0
 11
121.726672
 21
298.71158
 31
0.0
  0
LINE
  5
17B
330
FF
100
AcDbEntity
  8
0
  6
Continuous
 62
     0
370
    30
100
AcDbLine
 10
121.726672
 20
298.71158
 30
0.0
 11
121.051157
 21
298.71158
 31
0.0
  0
ENDBLK
  5
17D
330
FF
100
AcDbEntity
  8
0
100
AcDbBlockEnd
  0
BLOCK
  5
1C5
330
17F
100
AcDbEntity
  8
0
100
AcDbBlockBegin
  2
c
 70
     0
 10
280.751358
 20
189.214294
 30
0.0
  3
c
  1

  0
LINE
  5
180
330
17F
100
AcDbEntity
  8
0
  6
Continuous
 62
     0
370
    30
100
AcDbLine
 10
377.459129
 20
622.372882
 30
0.0
 11
377.459129
 21
587.005339
 31
0.0
  0
LINE
  5
181
330
17F
100
AcDbEntity
  8
0
  6
Continuous
 62
     0
370
    30
100
AcDbLine
 10
422.459129
 20
587.005339
 30
0.0
 11
422.459129
 21
622.372882
 31
0.0
  0
LINE
  5
182
330
17F
100
AcDbEntity
  8
0
  6
Continuous
 62
     0
370
    30
100
AcDbLine
 10
377.459129
 20
678.800864
 30
0.0
 11
377.459129
 21
678.372876
 31
0.0
  0
LINE
  5
183
330
17F
100
AcDbEntity
  8
0
  6
Continuous
 62
     0
370
    30
100
AcDbLine
 10
422.459129
 20
678.372876
 30
0.0
 11
422.459129
 21
678.800864
 31
0.0
  0
LINE
  5
184
330
17F
100
AcDbEntity
  8
0
  6
Continuous
 62
     0
370
    30
100
AcDbLine
 10
399.95913
 20
683.372885
 30
0.0
 11
378.159129
 21
683.372885
 31
0.0
  0
LINE
  5
185
330
17F
100
AcDbEntity
  8
0
  6
Continuous
 62
     0
370
    30
100
AcDbLine
 10
421.759129
 20
683.372885
 30
0.0
 11
399.95913
 21
683.372885
 31
0.0
  0
LINE
  5
186
330
17F
100
AcDbEntity
  8
0
  6
Continuous
 62
     0
370
    30
100
AcDbLine
 10
377.459129
 20
678.800864
 30
0.0
 11
422.459129
 21
678.800864
 31
0.0
  0
LINE
  5
187
330
17F
100
AcDbEntity
  8
0
  6
Continuous
 62
     0
370
    30
100
AcDbLine
 10
422.085276
 20
683.074026
 30
0.0
 11
399.95913
 21
683.074026
 31
0.0
  0
LINE
  5
188
330
17F
100
AcDbEntity
  8
0
  6
Continuous
 62
     0
370
    30
100
AcDbLine
 10
399.95913
 20
683.074026
 30
0.0
 11
377.832983
 21
683.074026
 31
0.0
  0
LINE
  5
189
330
17F
100
AcDbEntity
  8
0
  6
Continuous
 62
     0
370
    30
100
AcDbLine
 10
377.859129
 20
579.372885
 30
0.0
 11
399.95913
 21
579.372885
 31
0.0
  0
LINE
  5
18A
330
17F
100
AcDbEntity
  8
0
  6
Continuous
 62
     0
370
    30
100
AcDbLine
 10
399.95913
 20
579.372885
 30
0.0
 11
422.059129
 21
579.372885
 31
0.0
  0
LINE
  5
18B
330
17F
100
AcDbEntity
  8
0
  6
Continuous
 62
     0
370
     0
100
AcDbLine
 10
399.95913
 20
587.005339
 30
0.0
 11
377.459129
 21
587.005339
 31
0.0
  0
LINE
  5
18C
330
17F
100
AcDbEntity
  8
0
  6
Continuous
 62
     0
370
     0
100
AcDbLine
 10
422.459129
 20
587.005339
 30
0.0
 11
399.95913
 21
587.005339
 31
0.0
  0
LINE
  5
18D
330
17F
100
AcDbEntity
  8
0
  6
Continuous
 62
     0
370
    30
100
AcDbLine
 10
377.459129
 20
678.372876
 30
0.0
 11
377.459129
 21
622.372882
 31
0.0
  0
LINE
  5
18E
330
17F
100
AcDbEntity
  8
0
  6
Continuous
 62
     0
370
    30
100
AcDbLine
 10
422.459129
 20
678.372876
 30
0.0
 11
422.459129
 21
622.372882
 31
0.0
  0
LINE
  5
18F
330
17F
100
AcDbEntity
  8
0
  6
Continuous
 62
     0
370
    30
100
AcDbLine
 10
377.459129
 20
587.005339
 30
0.0
 11
377.859129
 21
579.372885
 31
0.0
  0
LINE
  5
190
330
17F
100
AcDbEntity
  8
0
  6
Continuous
 62
     0
370
    30
100
AcDbLine
 10
422.459129
 20
587.005339
 30
0.0
 11
422.059129
 21
579.372885
 31
0.0
  0
LINE
  5
191
330
17F
100
AcDbEntity
  8
0
  6
Continuous
 62
     0
370
    30
100
AcDbLine
 10
377.832983
 20
683.074026
 30
0.0
 11
378.159107
 21
683.372864
 31
0.0
  0
LINE
  5
192
330
17F
100
AcDbEntity
  8
0
  6
Continuous
 62
     0
370
    30
100
AcDbLine
 10
422.085276
 20
683.074026
 30
0.0
 11
421.759152
 21
683.372864
 31
0.0
  0
LINE
  5
193
330
17F
100
AcDbEntity
  8
0
  6
Continuous
 62
     0
370
    30
100
AcDbLine
 10
377.459129
 20
678.800864
 30
0.0
 11
377.832983
 21
683.074026
 31
0.0
  0
LINE
  5
194
330
17F
100
AcDbEntity
  8
0
  6
Continuous
 62
     0
370
    30
100
AcDbLine
 10
422.459129
 20
678.800864
 30
0.0
 11
422.085276
 21
683.074026
 31
0.0
  0
LINE
  5
195
330
17F
100
AcDbEntity
  8
0
  6
Continuous
 62
     0
370
    30
100
AcDbLine
 10
428.924388
 20
568.372894
 30
0.0
 11
429.459129
 21
568.372894
 31
0.0
  0
LINE
  5
196
330
17F
100
AcDbEntity
  8
0
  6
Continuous
 62
     0
370
    30
100
AcDbLine
 10
370.459129
 20
568.372894
 30
0.0
 11
428.924388
 21
568.372894
 31
0.0
  0
LINE
  5
197
330
17F
100
AcDbEntity
  8
0
  6
Continuous
 62
     0
370
     0
100
AcDbLine
 10
369.959129
 20
568.872894
 30
0.0
 11
429.415325
 21
568.872894
 31
0.0
  0
LINE
  5
198
330
17F
100
AcDbEntity
  8
0
  6
Continuous
 62
     0
370
     0
100
AcDbLine
 10
429.415325
 20
568.872894
 30
0.0
 11
429.959129
 21
568.872894
 31
0.0
  0
LINE
  5
199
330
17F
100
AcDbEntity
  8
0
  6
Continuous
 62
     0
370
     0
100
AcDbLine
 10
429.415325
 20
573.872894
 30
0.0
 11
429.959129
 21
573.872894
 31
0.0
  0
LINE
  5
19A
330
17F
100
AcDbEntity
  8
0
  6
Continuous
 62
     0
370
     0
100
AcDbLine
 10
369.959129
 20
573.872894
 30
0.0
 11
429.415325
 21
573.872894
 31
0.0
  0
LINE
  5
19B
330
17F
100
AcDbEntity
  8
0
  6
Continuous
 62
     0
370
    30
100
AcDbLine
 10
370.459129
 20
574.372894
 30
0.0
 11
428.924388
 21
574.372894
 31
0.0
  0
LINE
  5
19C
330
17F
100
AcDbEntity
  8
0
  6
Continuous
 62
     0
370
    30
100
AcDbLine
 10
428.924388
 20
574.372894
 30
0.0
 11
429.459129
 21
574.372894
 31
0.0
  0
ARC
  5
19D
330
17F
100
AcDbEntity
  8
0
  6
Continuous
 62
     0
370
    30
100
AcDbCircle
 10
429.45909
 20
568.872932
 30
0.0
 40
0.5000377434844239
100
AcDbArc
 50
270.012965
 51
359.995676
  0
ARC
  5
19E
330
17F
100
AcDbEntity
  8
0
  6
Continuous
 62
     0
370
    30
100
AcDbCircle
 10
370.459184
 20
568.872932
 30
0.0
 40
0.5000381596748548
100
AcDbArc
 50
180.004371
 51
269.98158
  0
ARC
  5
19F
330
17F
100
AcDbEntity
  8
0
  6
Continuous
 62
     0
370
    30
100
AcDbCircle
 10
429.45909
 20
573.872857
 30
0.0
 40
0.5000377434917614
100
AcDbArc
 50
0.004324
 51
89.987035
  0
ARC
  5
1A0
330
17F
100
AcDbEntity
  8
0
  6
Continuous
 62
     0
370
    30
100
AcDbCircle
 10
370.459184
 20
573.872856
 30
0.0
 40
0.5000381596698406
100
AcDbArc
 50
90.01842
 51
179.995629
  0
LINE
  5
1A1
330
17F
100
AcDbEntity
  8
0
  6
Continuous
 62
     0
370
    30
100
AcDbLine
 10
369.959129
 20
568.872894
 30
0.0
 11
369.959129
 21
573.872894
 31
0.0
  0
LINE
  5
1A2
330
17F
100
AcDbEntity
  8
0
  6
Continuous
 62
     0
370
    30
100
AcDbLine
 10
429.959129
 20
568.872894
 30
0.0
 11
429.959129
 21
573.872894
 31
0.0
  0
ARC
  5
1A3
330
17F
100
AcDbEntity
  8
0
  6
Continuous
 62
     0
370
    30
100
AcDbCircle
 10
426.95939
 20
579.373156
 30
0.0
 40
5.000261632243127
100
AcDbArc
 50
180.002997
 51
269.984395
  0
ARC
  5
1A4
330
17F
100
AcDbEntity
  8
0
  6
Continuous
 62
     0
370
    30
100
AcDbCircle
 10
372.958883
 20
579.373154
 30
0.0
 40
5.00026013594671
100
AcDbArc
 50
270.015622
 51
359.99702
  0
LINE
  5
1A5
330
17F
100
AcDbEntity
  8
0
  6
Continuous
 62
     0
370
     0
100
AcDbLine
 10
399.95913
 20
862.522888
 30
0.0
 11
388.959129
 21
862.522888
 31
0.0
  0
LINE
  5
1A6
330
17F
100
AcDbEntity
  8
0
  6
Continuous
 62
     0
370
     0
100
AcDbLine
 10
410.959129
 20
862.522888
 30
0.0
 11
399.95913
 21
862.522888
 31
0.0
  0
LINE
  5
1A7
330
17F
100
AcDbEntity
  8
0
  6
Continuous
 62
     0
370
     0
100
AcDbLine
 10
619.95913
 20
862.522888
 30
0.0
 11
630.959129
 21
862.522888
 31
0.0
  0
LINE
  5
1A8
330
17F
100
AcDbEntity
  8
0
  6
Continuous
 62
     0
370
     0
100
AcDbLine
 10
608.959129
 20
862.522888
 30
0.0
 11
619.95913
 21
862.522888
 31
0.0
  0
LINE
  5
1A9
330
17F
100
AcDbEntity
  8
0
  6
Continuous
 62
     0
370
    30
100
AcDbLine
 10
621.918625
 20
838.522888
 30
0.0
 11
630.959129
 21
838.522888
 31
0.0
  0
LINE
  5
1AA
330
17F
100
AcDbEntity
  8
0
  6
Continuous
 62
     0
370
    30
100
AcDbLine
 10
630.959129
 20
838.522888
 30
0.0
 11
630.959129
 21
862.522888
 31
0.0
  0
LINE
  5
1AB
330
17F
100
AcDbEntity
  8
0
  6
Continuous
 62
     0
370
    30
100
AcDbLine
 10
608.959129
 20
838.522888
 30
0.0
 11
608.959129
 21
862.522888
 31
0.0
  0
ARC
  5
1AC
330
17F
100
AcDbEntity
  8
0
  6
Continuous
 62
     0
370
    30
100
AcDbCircle
 10
509.959129
 20
862.522449
 30
0.0
 40
121.000000000796
100
AcDbArc
 50
0.000208
 51
179.999792
  0
ARC
  5
1AD
330
17F
100
AcDbEntity
  8
0
  6
Continuous
 62
     0
370
    30
100
AcDbCircle
 10
509.959129
 20
862.522529
 30
0.0
 40
99.00000000065128
100
AcDbArc
 50
0.000208
 51
179.999792
  0
LINE
  5
1AE
330
17F
100
AcDbEntity
  8
0
  6
Continuous
 62
     0
370
    30
100
AcDbLine
 10
388.959129
 20
862.522888
 30
0.0
 11
388.959129
 21
705.372889
 31
0.0
  0
LINE
  5
1AF
330
17F
100
AcDbEntity
  8
0
  6
Continuous
 62
     0
370
    30
100
AcDbLine
 10
410.959129
 20
862.522888
 30
0.0
 11
410.959129
 21
705.372889
 31
0.0
  0
LINE
  5
1B0
330
17F
100
AcDbEntity
  8
0
  6
Continuous
 62
     0
370
    30
100
AcDbLine
 10
378.459129
 20
705.372889
 30
0.0
 11
379.130797
 21
705.372889
 31
0.0
  0
LINE
  5
1B1
330
17F
100
AcDbEntity
  8
0
  6
Continuous
 62
     0
370
    30
100
AcDbLine
 10
379.130797
 20
705.372889
 30
0.0
 11
421.459129
 21
705.372889
 31
0.0
  0
LINE
  5
1B2
330
17F
100
AcDbEntity
  8
0
  6
Continuous
 62
     0
370
     0
100
AcDbLine
 10
377.959129
 20
704.872889
 30
0.0
 11
378.646418
 21
704.872889
 31
0.0
  0
LINE
  5
1B3
330
17F
100
AcDbEntity
  8
0
  6
Continuous
 62
     0
370
     0
100
AcDbLine
 10
378.646418
 20
704.872889
 30
0.0
 11
421.959129
 21
704.872889
 31
0.0
  0
LINE
  5
1B4
330
17F
100
AcDbEntity
  8
0
  6
Continuous
 62
     0
370
    30
100
AcDbLine
 10
377.959129
 20
683.672889
 30
0.0
 11
378.646418
 21
683.672889
 31
0.0
  0
LINE
  5
1B5
330
17F
100
AcDbEntity
  8
0
  6
Continuous
 62
     0
370
    30
100
AcDbLine
 10
378.646418
 20
683.672889
 30
0.0
 11
421.959129
 21
683.672889
 31
0.0
  0
LINE
  5
1B6
330
17F
100
AcDbEntity
  8
0
  6
Continuous
 62
     0
370
    30
100
AcDbLine
 10
421.659174
 20
683.372916
 30
0.0
 11
421.959148
 21
683.672889
 31
0.0
  0
LINE
  5
1B7
330
17F
100
AcDbEntity
  8
0
  6
Continuous
 62
     0
370
    30
100
AcDbLine
 10
378.259158
 20
683.372914
 30
0.0
 11
377.959184
 21
683.672889
 31
0.0
  0
LINE
  5
1B8
330
17F
100
AcDbEntity
  8
0
  6
Continuous
 62
     0
370
    30
100
AcDbLine
 10
377.959129
 20
683.672889
 30
0.0
 11
377.959129
 21
704.872889
 31
0.0
  0
LINE
  5
1B9
330
17F
100
AcDbEntity
  8
0
  6
Continuous
 62
     0
370
    30
100
AcDbLine
 10
421.959129
 20
683.672889
 30
0.0
 11
421.959129
 21
704.872889
 31
0.0
  0
ARC
  5
1BA
330
17F
100
AcDbEntity
  8
0
  6
Continuous
 62
     0
370
    30
100
AcDbCircle
 10
421.45911
 20
704.872851
 30
0.0
 40
0.5000377307410568
100
AcDbArc
 50
0.004323
 51
89.989546
  0
ARC
  5
1BB
330
17F
100
AcDbEntity
  8
0
  6
Continuous
 62
     0
370
    30
100
AcDbCircle
 10
378.459221
 20
704.872852
 30
0.0
 40
0.500036850237073
100
AcDbArc
 50
90.010087
 51
179.995778
  0
LINE
  5
1BC
330
17F
100
AcDbEntity
  8
0
  6
Continuous
 62
     0
370
    30
100
AcDbLine
 10
621.918625
 20
838.522886
 30
0.0
 11
608.959129
 21
838.522886
 31
0.0
  0
LINE
  5
1BD
330
17F
100
AcDbEntity
  8
0
  6
Continuous
 62
     0
370
     0
100
AcDbLine
 10
621.918625
 20
818.722886
 30
0.0
 11
608.959129
 21
818.722886
 31
0.0
  0
LINE
  5
1BE
330
17F
100
AcDbEntity
  8
0
  6
Continuous
 62
     0
370
     0
100
AcDbLine
 10
630.959129
 20
818.722886
 30
0.0
 11
621.918625
 21
818.722886
 31
0.0
  0
LINE
  5
1BF
330
17F
100
AcDbEntity
  8
0
  6
Continuous
 62
     0
370
    30
100
AcDbLine
 10
621.882998
 20
818.522886
 30
0.0
 11
609.159129
 21
818.522886
 31
0.0
  0
LINE
  5
1C0
330
17F
100
AcDbEntity
  8
0
  6
Continuous
 62
     0
370
    30
100
AcDbLine
 10
630.759129
 20
818.522886
 30
0.0
 11
621.882998
 21
818.522886
 31
0.0
  0
ARC
  5
1C1
330
17F
100
AcDbEntity
  8
0
  6
Continuous
 62
     0
370
    30
100
AcDbCircle
 10
630.758829
 20
818.723186
 30
0.0
 40
0.2003008867349108
100
AcDbArc
 50
270.086004
 51
359.913996
  0
ARC
  5
1C2
330
17F
100
AcDbEntity
  8
0
  6
Continuous
 62
     0
370
    30
100
AcDbCircle
 10
609.15943
 20
818.723186
 30
0.0
 40
0.2003008867681429
100
AcDbArc
 50
180.086004
 51
269.913996
  0
LINE
  5
1C3
330
17F
100
AcDbEntity
  8
0
  6
Continuous
 62
     0
370
    30
100
AcDbLine
 10
630.959129
 20
838.522886
 30
0.0
 11
630.959129
 21
818.722886
 31
0.0
  0
LINE
  5
1C4
330
17F
100
AcDbEntity
  8
0
  6
Continuous
 62
     0
370
    30
100
AcDbLine
 10
608.959129
 20
838.522886
 30
0.0
 11
608.959129
 21
818.722886
 31
0.0
  0
ENDBLK
  5
1C6
330
17F
100
AcDbEntity
  8
0
100
AcDbBlockEnd
  0
BLOCK
  5
280
330
1C8
100
AcDbEntity
  8
0
100
AcDbBlockBegin
  2
d
 70
     0
 10
324.691635
 20
169.237076
 30
0.0
  3
d
  1

  0
SPLINE
  5
1C9
330
1C8
100
AcDbEntity
  8
0
  6
Continuous
 62
     0
370
     0
100
AcDbSpline
210
0.0
220
0.0
230
1.0
 70
     8
 71
     3
 72
    16
 73
    12
 74
     0
 42
0.0
 43
0.0
 40
0.0
 40
0.0
 40
0.0
 40
0.0
 40
0.047619050732881
 40
0.142857152198643
 40
0.285714498032293
 40
0.428571514873237
 40
0.571428485126763
 40
0.714285501967706
 40
0.857142847801357
 40
0.9523809492671189
 40
1.0
 40
1.0
 40
1.0
 40
1.0
 10
433.494760522639
 20
208.1430753574689
 30
0.0
 10
433.4947605657049
 20
207.5742509267775
 30
0.0
 10
433.5501010514761
 20
205.8997284100545
 30
0.0
 10
433.9927930780289
 20
202.7565801879938
 30
0.0
 10
435.305240618796
 20
199.1862276373857
 30
0.0
 10
437.6839351266943
 20
196.1872431072045
 30
0.0
 10
440.8451096401449
 20
194.3621387891314
 30
0.0
 10
444.6316540986917
 20
193.8016221871435
 30
0.0
 10
448.379894107844
 20
194.4501864402447
 30
0.0
 10
451.3232864066875
 20
195.6383786491704
 30
0.0
 10
452.8011356979404
 20
196.427713944952
 30
0.0
 10
453.2937521267453
 20
196.712126222458
 30
0.0
  0
SPLINE
  5
1CA
330
1C8
100
AcDbEntity
  8
0
  6
Continuous
 62
     0
370
     0
100
AcDbSpline
210
0.0
220
0.0
230
1.0
 70
     8
 71
     3
 72
    15
 73
    11
 74
     0
 42
0.0
 43
0.0
 40
0.0884212738460595
 40
0.0884212738460595
 40
0.0884212738460595
 40
0.0884212738460595
 40
0.142857143981364
 40
0.28571428663672
 40
0.428571428663563
 40
0.5714285713364371
 40
0.71428571336328
 40
0.8571428560186358
 40
0.952380952006212
 40
1.0
 40
1.0
 40
1.0
 40
1.0
 10
439.5848580927145
 20
222.821312972026
 30
0.0
 10
440.0344209196928
 20
222.4892413021597
 30
0.0
 10
441.6551091339846
 20
221.2103308901488
 30
0.0
 10
444.3445289351871
 20
218.5703949441126
 30
0.0
 10
447.3872611893931
 20
214.6063859135171
 30
0.0
 10
449.9274877725504
 20
210.2065849216089
 30
0.0
 10
451.8390545998926
 20
205.5894972273155
 30
0.0
 10
452.8935379370448
 20
201.5027041509058
 30
0.0
 10
453.2494303800741
 20
198.5660874728918
 30
0.0
 10
453.2937520921386
 20
197.1692192619537
 30
0.0
 10
453.2937521267453
 20
196.712126222458
 30
0.0
  0
SPLINE
  5
1CB
330
1C8
100
AcDbEntity
  8
0
  6
Continuous
 62
     0
370
     0
100
AcDbSpline
210
0.0
220
0.0
230
1.0
 70
     8
 71
     3
 72
    12
 73
     8
 74
     0
 42
0.0
 43
0.0
 40
0.0
 40
0.0
 40
0.0
 40
0.0
 40
0.047619048741464
 40
0.142857146224391
 40
0.28571429152306
 40
0.428571433695539
 40
0.5085889540316344
 40
0.5085889540316344
 40
0.5085889540316344
 40
0.5085889540316344
 10
433.4947605226391
 20
208.1430753574691
 30
0.0
 10
433.8906147302542
 20
208.3716219153852
 30
0.0
 10
435.033855743214
 20
209.0828506849633
 30
0.0
 10
437.0432021653556
 20
210.6538965036703
 30
0.0
 10
439.0007443099836
 20
213.0016963966251
 30
0.0
 10
439.9660517758598
 20
215.4426589098307
 30
0.0
 10
440.0954311923369
 20
216.9597126639399
 30
0.0
 10
440.082733454468
 20
217.5039145549011
 30
0.0
  0
SPLINE
  5
1CC
330
1C8
100
AcDbEntity
  8
0
  6
Continuous
 62
     0
370
     0
100
AcDbSpline
210
0.0
220
0.0
230
1.0
 70
     8
 71
     3
 72
    16
 73
    12
 74
     0
 42
0.0
 43
0.0
 40
0.0
 40
0.0
 40
0.0
 40
0.0
 40
0.047619050732881
 40
0.142857152198643
 40
0.285714498032294
 40
0.4285715148732381
 40
0.571428485126764
 40
0.7142855019677079
 40
0.857142847801357
 40
0.9523809492671189
 40
1.0
 40
1.0
 40
1.0
 40
1.0
 10
453.2937521267453
 20
196.712127650066
 30
0.0
 10
452.8011356979404
 20
196.4277154720165
 30
0.0
 10
451.3232864066875
 20
195.510577395545
 30
0.0
 10
448.379894107844
 20
193.3000329323348
 30
0.0
 10
444.6316540986916
 20
189.6205024288931
 30
0.0
 10
440.8451096401449
 20
184.6876609020243
 30
0.0
 10
437.6839351266943
 20
179.212346671359
 30
0.0
 10
435.3052406187961
 20
173.4666823122679
 30
0.0
 10
433.9927930780286
 20
168.3808458797414
 30
0.0
 10
433.5501010514766
 20
164.7265209362843
 30
0.0
 10
433.4947605657052
 20
162.9880967308471
 30
0.0
 10
433.4947605226394
 20
162.4192722504274
 30
0.0
  0
SPLINE
  5
1CD
330
1C8
100
AcDbEntity
  8
0
  6
Continuous
 62
     0
370
     0
100
AcDbSpline
210
0.0
220
0.0
230
1.0
 70
     8
 71
     3
 72
    12
 73
     8
 74
     0
 42
0.0
 43
0.0
 40
0.4999999993810943
 40
0.4999999993810943
 40
0.4999999993810943
 40
0.4999999993810943
 40
0.5714285713364371
 40
0.71428571336328
 40
0.8571428560186358
 40
0.952380952006212
 40
1.0
 40
1.0
 40
1.0
 40
1.0
 10
440.0847778870979
 20
171.6048576658834
 30
0.0
 10
440.0847778879146
 20
171.1190257070901
 30
0.0
 10
439.9433821978998
 20
169.6615298505815
 30
0.0
 10
439.0007442584303
 20
167.2778920545542
 30
0.0
 10
437.0432021133382
 20
164.9300927011242
 30
0.0
 10
435.0338557199934
 20
163.3590473019886
 30
0.0
 10
433.8906147240389
 20
162.6478187402049
 30
0.0
 10
433.4947605226391
 20
162.4192722504272
 30
0.0
  0
SPLINE
  5
1CE
330
1C8
100
AcDbEntity
  8
0
  6
Continuous
 62
     0
370
     0
100
AcDbSpline
210
0.0
220
0.0
230
1.0
 70
     8
 71
     3
 72
    12
 73
     8
 74
     0
 42
0.0
 43
0.0
 40
0.0000000495751245
 40
0.0000000495751245
 40
0.0000000495751245
 40
0.0000000495751245
 40
0.047619047993788
 40
0.142857143981364
 40
0.28571428663672
 40
0.428571428663563
 40
0.5000000247875622
 40
0.5000000247875622
 40
0.5000000247875622
 40
0.5000000247875622
 10
453.2937521267452
 20
196.7121262224579
 30
0.0
 10
453.2937520613771
 20
196.2550336366313
 30
0.0
 10
453.2494303183221
 20
194.9093439864565
 30
0.0
 10
452.8935379370448
 20
192.3836764647215
 30
0.0
 10
451.8390545998926
 20
189.5144952573227
 30
0.0
 10
450.2460821337069
 20
187.5063275652976
 30
0.0
 10
449.0545511470324
 20
186.6551271868382
 30
0.0
 10
448.633808096463
 20
186.4122111111048
 30
0.0
  0
LINE
  5
1CF
330
1C8
100
AcDbEntity
  8
0
  6
Continuous
 62
     0
370
     0
100
AcDbLine
 10
433.494761
 20
133.541794
 30
0.0
 11
433.494761
 21
162.419272
 31
0.0
  0
SPLINE
  5
1D0
330
1C8
100
AcDbEntity
  8
0
  6
Continuous
 62
     0
370
     0
100
AcDbSpline
210
0.0
220
0.0
230
1.0
 70
     8
 71
     3
 72
    13
 73
     9
 74
     0
 42
0.0
 43
0.0
 40
0.0
 40
0.0
 40
0.0
 40
0.0
 40
2.297407004499248
 40
5.672395173834614
 40
7.570826023835553
 40
10.73487736145179
 40
15.79735940500662
 40
17.67140400169188
 40
17.67140400169188
 40
17.67140400169188
 40
17.67140400169188
 10
433.4947605225533
 20
133.5417943471234
 30
0.0
 10
434.0360330136159
 20
133.8542981689007
 30
0.0
 10
435.3051520890092
 20
134.6658816281223
 30
0.0
 10
436.751164600669
 20
135.8647981472456
 30
0.0
 10
438.078722338225
 20
137.2979930112791
 30
0.0
 10
439.329483276979
 20
139.1129929326564
 30
0.0
 10
439.9887710911739
 20
141.0317949073189
 30
0.0
 10
440.084774166556
 20
142.3667321333064
 30
0.0
 10
440.0847372427746
 20
142.7273951012955
 30
0.0
  0
SPLINE
  5
1D1
330
1C8
100
AcDbEntity
  8
0
  6
Continuous
 62
     0
370
     0
100
AcDbSpline
210
0.0
220
0.0
230
1.0
 70
     8
 71
     3
 72
    12
 73
     8
 74
     0
 42
0.0
 43
0.0
 40
0.0
 40
0.0
 40
0.0
 40
0.0
 40
1.718754101383531
 40
4.583500439394577
 40
9.48624150281726
 40
14.5486632533614
 40
17.672645379926
 40
17.672645379926
 40
17.672645379926
 40
17.672645379926
 10
455.1260738445974
 20
197.7700190871192
 30
0.0
 10
455.1271469261339
 20
197.3029669960037
 30
0.0
 10
455.0885257702208
 20
196.0806812387182
 30
0.0
 10
454.7782795638515
 20
193.700902012141
 30
0.0
 10
453.8414212781316
 20
190.8978857067149
 30
0.0
 10
452.2520576592736
 20
188.7196428865774
 30
0.0
 10
450.9734015188049
 20
187.7630292312782
 30
0.0
 10
450.4489393702286
 20
187.4602294775651
 30
0.0
  0
LINE
  5
1D2
330
1C8
100
AcDbEntity
  8
0
  6
Continuous
 62
     0
370
     0
100
AcDbLine
 10
455.126074
 20
197.770019
 30
0.0
 11
453.293752
 21
196.712128
 31
0.0
  0
SPLINE
  5
1D3
330
1C8
100
AcDbEntity
  8
0
  6
Continuous
 62
     0
370
     0
100
AcDbSpline
210
0.0
220
0.0
230
1.0
 70
     8
 71
     3
 72
    17
 73
    13
 74
     0
 42
0.0
 43
0.0
 40
0.7970294811677403
 40
0.7970294811677403
 40
0.7970294811677403
 40
0.7970294811677403
 40
1.706339016653732
 40
4.550383530542367
 40
9.442487500490753
 40
14.50535991567011
 40
19.56799959870319
 40
24.63039839870083
 40
27.79445294476594
 40
29.69293249906594
 40
33.06807680507281
 40
35.34401262602155
 40
35.34401262602155
 40
35.34401262602155
 40
35.34401262602155
 10
439.5848581210116
 20
224.8775640016495
 30
0.0
 10
439.8012177280701
 20
224.7463912959934
 30
0.0
 10
440.6937937803893
 20
224.1846790843503
 30
0.0
 10
442.7362690107584
 20
222.7025782612205
 30
0.0
 10
445.6568377773076
 20
219.9809038237218
 30
0.0
 10
448.7613973241754
 20
216.1421586474834
 30
0.0
 10
451.4122233594101
 20
211.7922223461176
 30
0.0
 10
453.1867365343525
 20
207.7688182223597
 30
0.0
 10
454.1461892024443
 20
204.6942161145888
 30
0.0
 10
454.732534357317
 20
202.1677817368244
 30
0.0
 10
455.05326786719
 20
199.9634811610534
 30
0.0
 10
455.124653707751
 20
198.3883683760226
 30
0.0
 10
455.1260738445974
 20
197.7700190871282
 30
0.0
  0
SPLINE
  5
1D4
330
1C8
100
AcDbEntity
  8
0
  6
Continuous
 62
     0
370
    30
100
AcDbSpline
210
0.0
220
0.0
230
1.0
 70
     8
 71
     3
 72
    13
 73
     9
 74
     0
 42
0.0
 43
0.0
 40
16.2772408113582
 40
16.2772408113582
 40
16.2772408113582
 40
16.2772408113582
 40
19.54542891079017
 40
24.60790930299991
 40
27.77195984095973
 40
29.67039033576874
 40
33.04537789116455
 40
35.3427847996936
 40
35.3427847996936
 40
35.3427847996936
 40
35.3427847996936
 10
440.0415572678966
 20
218.4825207766726
 30
0.0
 10
440.1089519975732
 20
217.8547574753068
 30
0.0
 10
440.0797685301374
 20
216.2473656084047
 30
0.0
 10
439.3294820209022
 20
214.0637199194379
 30
0.0
 10
438.0787215608838
 20
212.2487216798414
 30
0.0
 10
436.7511641780646
 20
210.8155283413936
 30
0.0
 10
435.305151900328
 20
209.6166129769607
 30
0.0
 10
434.0360329896902
 20
208.805029788864
 30
0.0
 10
433.4947605216204
 20
208.4925259813154
 30
0.0
  0
LINE
  5
1D5
330
1C8
100
AcDbEntity
  8
0
  6
Continuous
 62
     0
370
     0
100
AcDbLine
 10
433.494761
 20
208.143075
 30
0.0
 11
433.494761
 21
208.492526
 31
0.0
  0
ELLIPSE
  5
1D6
330
1C8
100
AcDbEntity
  8
0
  6
Continuous
 62
     0
370
    30
100
AcDbEllipse
 10
444.463208
 20
209.972859
 30
0.0
 11
11.05
 21
-19.1391614236361
 31
0.0
210
0.0
220
0.0
230
0.9999999999999999
 40
0.57735
 41
2.356194490192344
 42
2.673674186437009
  0
ELLIPSE
  5
1D7
330
1C8
100
AcDbEntity
  8
0
  6
Continuous
 62
     0
370
    30
100
AcDbEllipse
 10
444.463208
 20
209.972859
 30
0.0
 11
11.05
 21
-19.1391614236361
 31
0.0
210
0.0
220
0.0
230
0.9999999999999999
 40
0.57735
 41
0.0370664141853432
 42
2.356194490192344
  0
ELLIPSE
  5
1D8
330
1C8
100
AcDbEntity
  8
0
  6
Continuous
 62
     0
370
    30
100
AcDbEllipse
 10
417.584858
 20
221.411152
 30
0.0
 11
21.79999998807907
 21
0.0
 31
0.0
210
0.0
220
0.0
230
-1.0
 40
0.57735
 41
2.356194490192344
 42
2.659279498308472
  0
ELLIPSE
  5
1D9
330
1C8
100
AcDbEntity
  8
0
  6
Continuous
 62
     0
370
    30
100
AcDbEllipse
 10
417.584858
 20
221.411152
 30
0.0
 11
21.79999998807907
 21
0.0
 31
0.0
210
0.0
220
0.0
230
-1.0
 40
0.57735
 41
0.4823131724915363
 42
2.356194490192344
  0
ELLIPSE
  5
1DA
330
1C8
100
AcDbEntity
  8
0
  6
Continuous
 62
     0
370
    30
100
AcDbEllipse
 10
417.584858
 20
217.678113
 30
0.0
 11
-22.50000000745057
 21
0.0
 31
0.0
210
0.0
220
0.0
230
1.0
 40
0.57735
 41
6.22128193961797
 42
8.639379797371928
  0
ELLIPSE
  5
1DB
330
1C8
100
AcDbEntity
  8
0
  6
Continuous
 62
     0
370
    30
100
AcDbEllipse
 10
417.584858
 20
221.167135
 30
0.0
 11
22.12614672386328
 21
0.0
 31
0.0
210
0.0
220
0.0
230
-1.0
 40
0.57735
 41
6.176352015962983
 42
8.639379797371928
  0
ELLIPSE
  5
1DC
330
1C8
100
AcDbEntity
  8
0
  6
Continuous
 62
     0
370
    30
100
AcDbEllipse
 10
417.584858
 20
221.167135
 30
0.0
 11
22.12614672386328
 21
0.0
 31
0.0
210
0.0
220
0.0
230
-1.0
 40
0.57735
 41
2.356194490192344
 42
3.248425962073322
  0
ELLIPSE
  5
1DD
330
1C8
100
AcDbEntity
  8
0
  6
Continuous
 62
     0
370
    30
100
AcDbEllipse
 10
417.584858
 20
136.495508
 30
0.0
 11
-22.1
 21
0.0
 31
0.0
210
0.0
220
0.0
230
1.0
 40
0.57735
 41
0.0370663765978954
 42
0.7853981633974473
  0
ELLIPSE
  5
1DE
330
1C8
100
AcDbEntity
  8
0
  6
Continuous
 62
     0
370
    30
100
AcDbEllipse
 10
417.584858
 20
136.495508
 30
0.0
 11
-22.1
 21
0.0
 31
0.0
210
0.0
220
0.0
230
1.0
 40
0.57735
 41
0.785398163397448
 42
3.104526259712522
  0
ELLIPSE
  5
1DF
330
1C8
100
AcDbEntity
  8
0
  6
Continuous
 62
     0
370
     0
100
AcDbEllipse
 10
417.584858
 20
142.727381
 30
0.0
 11
22.50000000745057
 21
0.0
 31
0.0
210
0.0
220
0.0
230
-1.0
 40
0.57735
 41
2.356194490192344
 42
3.141592662229477
  0
ELLIPSE
  5
1E0
330
1C8
100
AcDbEntity
  8
0
  6
Continuous
 62
     0
370
     0
100
AcDbEllipse
 10
417.584858
 20
142.727381
 30
0.0
 11
22.50000000745057
 21
0.0
 31
0.0
210
0.0
220
0.0
230
-1.0
 40
0.57735
 41
0.785398163397448
 42
2.356194490192344
  0
LINE
  5
1E1
330
1C8
100
AcDbEntity
  8
0
  6
Continuous
 62
     0
370
     0
100
AcDbLine
 10
433.494761
 20
208.143075
 30
0.0
 11
433.494761
 21
162.419272
 31
0.0
  0
LINE
  5
1E2
330
1C8
100
AcDbEntity
  8
0
  6
Continuous
 62
     0
370
    30
100
AcDbLine
 10
395.084858
 20
217.678113
 30
0.0
 11
395.084858
 21
142.727381
 31
0.0
  0
LINE
  5
1E3
330
1C8
100
AcDbEntity
  8
0
  6
Continuous
 62
     0
370
    30
100
AcDbLine
 10
395.100313
 20
142.245985
 30
0.0
 11
395.500038
 21
136.02267
 31
0.0
  0
LINE
  5
1E4
330
1C8
100
AcDbEntity
  8
0
  6
Continuous
 62
     0
370
    30
100
AcDbLine
 10
440.069404
 20
142.245997
 30
0.0
 11
439.669678
 21
136.022669
 31
0.0
  0
LINE
  5
1E5
330
1C8
100
AcDbEntity
  8
0
  6
Continuous
 62
     0
370
    30
100
AcDbLine
 10
395.127954
 20
218.481747
 30
0.0
 11
395.501092
 21
221.957417
 31
0.0
  0
LINE
  5
1E6
330
1C8
100
AcDbEntity
  8
0
  6
Continuous
 62
     0
370
    30
100
AcDbLine
 10
440.041761
 20
218.481747
 30
0.0
 11
439.668624
 21
221.957417
 31
0.0
  0
LINE
  5
1E7
330
1C8
100
AcDbEntity
  8
0
  6
Continuous
 62
     0
370
    30
100
AcDbLine
 10
450.864482
 20
187.718088
 30
0.0
 11
455.915108
 21
191.083263
 31
0.0
  0
LINE
  5
1E8
330
1C8
100
AcDbEntity
  8
0
  6
Continuous
 62
     0
370
    30
100
AcDbLine
 10
448.633862
 20
186.41215
 30
0.0
 11
450.44962
 21
187.460484
 31
0.0
  0
LINE
  5
1E9
330
1C8
100
AcDbEntity
  8
0
  6
Continuous
 62
     0
370
    30
100
AcDbLine
 10
440.084857
 20
171.604858
 30
0.0
 11
440.084859
 21
142.727395
 31
0.0
  0
SPLINE
  5
1EA
330
1C8
100
AcDbEntity
  8
0
  6
Continuous
 62
     0
370
    30
100
AcDbSpline
210
0.0
220
0.0
230
1.0
 70
     8
 71
     3
 72
    15
 73
    11
 74
     0
 42
0.0
 43
0.0
 40
0.0
 40
0.0
 40
0.0
 40
0.0
 40
1.874352420655152
 40
4.774810434643257
 40
8.427591300868317
 40
11.71691949032169
 40
15.14313580184041
 40
18.53223257181813
 40
21.69272308759975
 40
23.93191246643529
 40
23.93191246643529
 40
23.93191246643529
 40
23.93191246643529
 10
448.633848938185
 20
186.4121428553462
 30
0.0
 10
448.5244007243316
 20
186.3489529261319
 30
0.0
 10
448.0894399629287
 20
186.0790336202763
 30
0.0
 10
446.784360538309
 20
185.0368499442462
 30
0.0
 10
444.8519439202084
 20
182.9366854869706
 30
0.0
 10
442.9107847844001
 20
180.086293437564
 30
0.0
 10
441.3869666200045
 20
177.0579887699853
 30
0.0
 10
440.4344511194079
 20
174.2408520535384
 30
0.0
 10
440.107102669268
 20
172.376676874431
 30
0.0
 10
440.0848573689025
 20
171.7556884329058
 30
0.0
 10
440.0848574191795
 20
171.6048546213872
 30
0.0
  0
ELLIPSE
  5
1EB
330
1C8
100
AcDbEntity
  8
0
  6
Continuous
 62
     0
370
    30
100
AcDbEllipse
 10
456.546452
 20
288.812937
 30
0.0
 11
-6.499999999999961
 21
7.058935174164559E-7
 31
0.0
210
0.0
220
0.0
230
1.0
 40
0.57735
 41
5.62924538873774
 42
8.770838042327528
  0
ELLIPSE
  5
1EC
330
1C8
100
AcDbEntity
  8
0
  6
Continuous
 62
     0
370
    30
100
AcDbEllipse
 10
456.546452
 20
288.812937
 30
0.0
 11
-6.499999999999961
 21
7.058935174164559E-7
 31
0.0
210
0.0
220
0.0
230
1.0
 40
0.57735
 41
2.487652735147944
 42
5.629245388737737
  0
LINE
  5
1ED
330
1C8
100
AcDbEntity
  8
0
  6
Continuous
 62
     0
370
    30
100
AcDbLine
 10
463.046447
 20
239.823145
 30
0.0
 11
463.046452
 21
288.812937
 31
0.0
  0
LINE
  5
1EE
330
1C8
100
AcDbEntity
  8
0
  6
Continuous
 62
     0
370
    30
100
AcDbLine
 10
450.046447
 20
239.823146
 30
0.0
 11
450.046452
 21
288.812938
 31
0.0
  0
ELLIPSE
  5
1EF
330
1C8
100
AcDbEntity
  8
0
  6
Continuous
 62
     0
370
    30
100
AcDbEllipse
 10
456.546445
 20
239.823144
 30
0.0
 11
-6.499999999999962
 21
7.058935509729468E-7
 31
0.0
210
0.0
220
0.0
230
1.0
 40
0.57735
 41
6.283185298539899
 42
7.068583533276703
  0
ELLIPSE
  5
1F0
330
1C8
100
AcDbEntity
  8
0
  6
Continuous
 62
     0
370
    30
100
AcDbEllipse
 10
456.546445
 20
239.823144
 30
0.0
 11
-6.499999999999962
 21
7.058935509729468E-7
 31
0.0
210
0.0
220
0.0
230
1.0
 40
0.57735
 41
0.7853982260971166
 42
3.141592644950106
  0
SPLINE
  5
1F1
330
1C8
100
AcDbEntity
  8
0
  6
Continuous
 62
     0
370
     0
100
AcDbSpline
210
0.0
220
0.0
230
1.0
 70
     8
 71
     3
 72
    10
 73
     6
 74
     0
 42
0.0
 43
0.0
 40
0.0
 40
0.0
 40
0.0
 40
0.0
 40
1.91240578932151
 40
3.830350421158118
 40
5.180497437671887
 40
5.180497437671887
 40
5.180497437671887
 40
5.180497437671887
 10
451.9615168067436
 20
236.4307868532212
 30
0.0
 10
451.5206219155272
 20
236.6853377011903
 30
0.0
 10
450.768701409285
 20
237.1562711138734
 30
0.0
 10
450.1955859179405
 20
237.6594107045291
 30
0.0
 10
450.0864861405494
 20
237.9303840488985
 30
0.0
 10
450.0841386837153
 20
238.0406232975295
 30
0.0
  0
SPLINE
  5
1F2
330
1C8
100
AcDbEntity
  8
0
  6
Continuous
 62
     0
370
     0
100
AcDbSpline
210
0.0
220
0.0
230
1.0
 70
     8
 71
     3
 72
    19
 73
    15
 74
     0
 42
0.0
 43
0.0
 40
5.343266495893237
 40
5.343266495893237
 40
5.343266495893237
 40
5.343266495893237
 40
6.32391116788351
 40
7.661351199193069
 40
8.952158795729051
 40
10.23687625134339
 40
11.6201887532878
 40
12.6699143264469
 40
13.90342270692967
 40
15.64836897466497
 40
17.34311723258501
 40
18.41361149052811
 40
19.47528666719966
 40
21.03953786596914
 40
21.03953786596914
 40
21.03953786596914
 40
21.03953786596914
 10
463.0077385095615
 20
237.9933129078042
 30
0.0
 10
463.0019650611069
 20
237.7132895530367
 30
0.0
 10
462.9350924439253
 20
237.0515106744741
 30
0.0
 10
462.6363136160682
 20
236.0695716283397
 30
0.0
 10
462.0797825547583
 20
235.1476664650534
 30
0.0
 10
461.3013902697796
 20
234.4304256412526
 30
0.0
 10
460.3906630266154
 20
234.0171042313046
 30
0.0
 10
459.372453625398
 20
233.8526356943571
 30
0.0
 10
458.1649143506132
 20
233.9022184727754
 30
0.0
 10
456.6856808882449
 20
234.247870470002
 30
0.0
 10
455.2471480149724
 20
234.789780860563
 30
0.0
 10
454.0720787758327
 20
235.3195335768059
 30
0.0
 10
453.0003640981463
 20
235.8518740519443
 30
0.0
 10
452.3221465255865
 20
236.2225771357508
 30
0.0
 10
451.9615168067436
 20
236.4307868532212
 30
0.0
  0
ELLIPSE
  5
1F3
330
1C8
100
AcDbEntity
  8
0
  6
Continuous
 62
     0
370
     0
100
AcDbEllipse
 10
464.666369
 20
243.694688
 30
0.0
 11
2.500000470247435
 21
4.330126747424679
 31
0.0
210
0.0
220
0.0
230
1.0
 40
0.57735
 41
3.446483624628149
 42
3.926990879686896
  0
SPLINE
  5
1F4
330
1C8
100
AcDbEntity
  8
0
  6
Continuous
 62
     0
370
     0
100
AcDbSpline
210
0.0
220
0.0
230
1.0
 70
     8
 71
     3
 72
     8
 73
     4
 74
     0
 42
0.0
 43
0.0
 40
0.0
 40
0.0
 40
0.0
 40
0.0
 40
1.0
 40
1.0
 40
1.0
 40
1.0
 10
463.0464472471159
 20
240.2492750326569
 30
0.0
 10
463.6407395803607
 20
240.1030209937603
 30
0.0
 10
464.1861308526354
 20
239.8894706472826
 30
0.0
 10
464.6663688283234
 20
239.6122050532063
 30
0.0
  0
SPLINE
  5
1F5
330
1C8
100
AcDbEntity
  8
0
  6
Continuous
 62
     0
370
     0
100
AcDbSpline
210
0.0
220
0.0
230
1.0
 70
     8
 71
     3
 72
    15
 73
    11
 74
     0
 42
0.0
 43
0.0
 40
0.0
 40
0.0
 40
0.0
 40
0.0
 40
3.004295903646847
 40
6.017293057819065
 40
8.458208939344342
 40
9.93455495835826
 40
12.21528003184906
 40
14.06340335768629
 40
16.08163160756787
 40
16.5054101384803
 40
16.5054101384803
 40
16.5054101384803
 40
16.5054101384803
 10
448.4265209286583
 20
230.236124496736
 30
0.0
 10
447.7902920538932
 20
230.603451500973
 30
0.0
 10
446.7466783527858
 20
231.3787210995728
 30
0.0
 10
446.0526153321202
 20
232.4994059446848
 30
0.0
 10
446.0734902215073
 20
233.4267254500695
 30
0.0
 10
446.4625157562293
 20
234.2719128460211
 30
0.0
 10
447.130228393485
 20
235.057595604551
 30
0.0
 10
448.2251247266787
 20
235.9536839877321
 30
0.0
 10
449.2065589494612
 20
236.5977495744775
 30
0.0
 10
449.8297566648324
 20
236.9646596752509
 30
0.0
 10
449.9397305821377
 20
237.0282689853465
 30
0.0
  0
ELLIPSE
  5
1F6
330
1C8
100
AcDbEntity
  8
0
  6
Continuous
 62
     0
370
     0
100
AcDbEllipse
 10
448.426521
 20
234.318607
 30
0.0
 11
2.500000470247433
 21
4.33012674742468
 31
0.0
210
0.0
220
0.0
230
1.0
 40
0.57735
 41
3.926990879686895
 42
5.515240499001734
  0
SPLINE
  5
1F7
330
1C8
100
AcDbEntity
  8
0
  6
Continuous
 62
     0
370
     0
100
AcDbSpline
210
0.0
220
0.0
230
1.0
 70
     8
 71
     3
 72
    21
 73
    17
 74
     0
 42
0.0
 43
0.0
 40
0.0
 40
0.0
 40
0.0
 40
0.0
 40
3.004295903647487
 40
6.01729305781994
 40
8.458208939345289
 40
9.934554958359266
 40
12.21528003185013
 40
14.06340335768736
 40
16.08163160756893
 40
18.25474785008434
 40
19.90381535291495
 40
21.8415966518898
 40
24.58282184243938
 40
27.24518841621357
 40
30.59472225158563
 40
33.05208433184011
 40
33.05208433184011
 40
33.05208433184011
 40
33.05208433184011
 10
464.6663688283235
 20
239.6122050532063
 30
0.0
 10
465.3025977030887
 20
239.2448780489692
 30
0.0
 10
466.3462113840087
 20
238.283717097218
 30
0.0
 10
467.0402743291233
 20
236.4673477071905
 30
0.0
 10
467.0193993601822
 20
234.8074808157914
 30
0.0
 10
466.6303737540733
 20
233.3049514410752
 30
0.0
 10
465.9626610581968
 20
231.9794799672293
 30
0.0
 10
464.867764679142
 20
230.6610947554603
 30
0.0
 10
463.4861421299171
 20
229.5607586051427
 30
0.0
 10
461.885082865409
 20
228.7670624269525
 30
0.0
 10
460.1418792616749
 20
228.255186387101
 30
0.0
 10
458.1173320194728
 20
227.9659988326015
 30
0.0
 10
455.6974423218629
 20
228.0060721592342
 30
0.0
 10
452.8693692957519
 20
228.4690133237876
 30
0.0
 10
450.3574594141029
 20
229.2575505347897
 30
0.0
 10
448.9469239652943
 20
229.9356695880935
 30
0.0
 10
448.4265209286583
 20
230.236124496736
 30
0.0
  0
LINE
  5
1F8
330
1C8
100
AcDbEntity
  8
0
  6
Continuous
 62
     0
370
    30
100
AcDbLine
 10
460.78458
 20
201.882587
 30
0.0
 11
460.147992
 21
202.250122
 31
0.0
  0
SPLINE
  5
1F9
330
1C8
100
AcDbEntity
  8
0
  6
Continuous
 62
     0
370
    30
100
AcDbSpline
210
0.0
220
0.0
230
1.0
 70
     8
 71
     3
 72
     9
 73
     5
 74
     0
 42
0.0
 43
0.0
 40
0.0
 40
0.0
 40
0.0
 40
0.0
 40
1.884994507081518
 40
4.471886377056387
 40
4.471886377056387
 40
4.471886377056387
 40
4.471886377056387
 10
460.1479922077774
 20
202.2501219766543
 30
0.0
 10
460.2552054542224
 20
201.8831787486329
 30
0.0
 10
460.4677363101949
 20
201.0393436674283
 30
0.0
 10
460.5787576062355
 20
200.265724891402
 30
0.0
 10
460.6082697083544
 20
199.844900246877
 30
0.0
  0
SPLINE
  5
1FA
330
1C8
100
AcDbEntity
  8
0
  6
Continuous
 62
     0
370
    30
100
AcDbSpline
210
0.0
220
0.0
230
1.0
 70
     8
 71
     3
 72
    11
 73
     7
 74
     0
 42
0.0
 43
0.0
 40
4.404563857902346
 40
4.404563857902346
 40
4.404563857902346
 40
4.404563857902346
 40
4.744068051412471
 40
9.96978525295273
 40
15.62697081957014
 40
18.76090241147
 40
18.76090241147
 40
18.76090241147
 40
18.76090241147
 10
460.6082784978221
 20
199.8448936684896
 30
0.0
 10
460.62138064073
 20
199.7829385802388
 30
0.0
 10
460.826116286178
 20
198.7742978902882
 30
0.0
 10
460.9059444379797
 20
196.9735531316129
 30
0.0
 10
460.1642033773912
 20
195.4323583776874
 30
0.0
 10
459.2778034059422
 20
194.890013183785
 30
0.0
 10
458.9106264178369
 20
194.7539355991411
 30
0.0
  0
SPLINE
  5
1FB
330
1C8
100
AcDbEntity
  8
0
  6
Continuous
 62
     0
370
    30
100
AcDbSpline
210
0.0
220
0.0
230
1.0
 70
    12
 71
     2
 72
     8
 73
     5
 74
     0
 42
0.0
 43
0.0
 40
0.0
 40
0.0
 40
0.0
 40
0.3333333333333333
 40
0.3333333333333333
 40
0.3343840844031123
 40
0.3343840844031123
 40
0.3343840844031123
 10
460.7845804400819
 20
201.8825874971932
 30
0.0
 41
1.0
 10
464.3335480444202
 20
193.1165817829782
 30
0.0
 41
0.861987242667228
 10
458.1355530991715
 20
193.2889582019222
 30
0.0
 41
1.0
 10
458.1187045646129
 20
193.2894267873402
 30
0.0
 41
0.9995649488427683
 10
458.101790860254
 20
193.2899833843962
 30
0.0
 41
0.9991326404683498
  0
ELLIPSE
  5
1FC
330
1C8
100
AcDbEntity
  8
0
  6
Continuous
 62
     0
370
    30
100
AcDbEllipse
 10
445.232734
 20
210.429268
 30
0.0
 11
-10.55000000745059
 21
18.27313603275645
 31
0.0
210
0.0
220
0.0
230
-0.9999999999999999
 40
0.57735
 41
0.785398288796773
 42
2.331105972374175
  0
ELLIPSE
  5
1FD
330
1C8
100
AcDbEntity
  8
0
  6
Continuous
 62
     0
370
    30
100
AcDbEllipse
 10
445.232734
 20
210.429268
 30
0.0
 11
-10.55000000745059
 21
18.27313603275645
 31
0.0
210
0.0
220
0.0
230
-0.9999999999999999
 40
0.57735
 41
0.6669544039956052
 42
0.7853982887967718
  0
ELLIPSE
  5
1FE
330
1C8
100
AcDbEntity
  8
0
  6
Continuous
 62
     0
370
    30
100
AcDbEllipse
 10
445.232734
 20
210.429268
 30
0.0
 11
-11.0
 21
19.05255888325765
 31
0.0
210
0.0
220
0.0
230
-0.9999999999999997
 40
0.57735
 41
0.4138490988239506
 42
0.7853982887967729
  0
ELLIPSE
  5
1FF
330
1C8
100
AcDbEntity
  8
0
  6
Continuous
 62
     0
370
    30
100
AcDbEllipse
 10
445.232734
 20
210.429268
 30
0.0
 11
-11.0
 21
19.05255888325765
 31
0.0
210
0.0
220
0.0
230
-0.9999999999999997
 40
0.57735
 41
0.7853982887967731
 42
2.332132528298362
  0
ELLIPSE
  5
200
330
1C8
100
AcDbEntity
  8
0
  6
Continuous
 62
     0
370
     0
100
AcDbEllipse
 10
466.799491
 20
222.880841
 30
0.0
 11
-11.0
 21
19.05255888325765
 31
0.0
210
0.0
220
0.0
230
-0.9999999999999997
 40
0.57735
 41
0.5417395394097217
 42
0.7853982887967721
  0
ELLIPSE
  5
201
330
1C8
100
AcDbEntity
  8
0
  6
Continuous
 62
     0
370
     0
100
AcDbEllipse
 10
466.799491
 20
222.880841
 30
0.0
 11
-11.0
 21
19.05255888325765
 31
0.0
210
0.0
220
0.0
230
-0.9999999999999997
 40
0.57735
 41
0.7853982887967729
 42
3.141592622099949
  0
SPLINE
  5
202
330
1C8
100
AcDbEntity
  8
0
  6
Continuous
 62
     0
370
    30
100
AcDbSpline
210
0.0
220
0.0
230
1.0
 70
     8
 71
     3
 72
    15
 73
    11
 74
     0
 42
0.0
 43
0.0
 40
0.0
 40
0.0
 40
0.0
 40
0.0
 40
3.604916580329949
 40
9.40474614464741
 40
17.66188983582949
 40
25.08417716696645
 40
33.34526373195439
 40
41.63782691759258
 40
47.73147479100489
 40
51.48905609367757
 40
51.48905609367757
 40
51.48905609367757
 40
51.48905609367757
 10
467.0494932139109
 20
240.8685293933825
 30
0.0
 10
467.9050956023103
 20
240.3745469998693
 30
0.0
 10
470.1362086497
 20
238.8731888735619
 30
0.0
 10
474.1591038284942
 20
235.1243050661375
 30
0.0
 10
478.3527047490629
 20
229.2435256319385
 30
0.0
 10
481.541514170132
 20
221.910214266422
 30
0.0
 10
482.8642774452315
 20
214.6640621012587
 30
0.0
 10
482.0601853160044
 20
208.8496347566988
 30
0.0
 10
480.023834465973
 20
205.4524921743298
 30
0.0
 10
478.4524767520103
 20
204.2052838398056
 30
0.0
 10
477.7994917060155
 20
203.8282827097275
 30
0.0
  0
ARC
  5
203
330
1C8
100
AcDbEntity
  8
0
  6
Continuous
 62
     0
370
    30
100
AcDbCircle
 10
458.428313
 20
226.220735
 30
0.0
 40
16.99654746705365
100
AcDbArc
 50
59.52042
 51
74.233942
  0
LINE
  5
204
330
1C8
100
AcDbEntity
  8
0
  6
Continuous
 62
     0
370
    30
100
AcDbLine
 10
460.372634
 20
193.766882
 30
0.0
 11
477.799492
 21
203.828283
 31
0.0
  0
LINE
  5
205
330
1C8
100
AcDbEntity
  8
0
  6
Continuous
 62
     0
370
    30
100
AcDbLine
 10
439.584858
 20
232.571878
 30
0.0
 11
450.071537
 21
238.626364
 31
0.0
  0
SPLINE
  5
206
330
1C8
100
AcDbEntity
  8
0
  6
Continuous
 62
     0
370
    30
100
AcDbSpline
210
0.0
220
0.0
230
1.0
 70
     8
 71
     3
 72
    11
 73
     7
 74
     0
 42
0.0
 43
0.0
 40
17.65491075341988
 40
17.65491075341988
 40
17.65491075341988
 40
17.65491075341988
 40
17.74230589009743
 40
18.99714629575569
 40
20.14710018845693
 40
22.13160281073323
 40
22.13160281073323
 40
22.13160281073323
 40
22.13160281073323
 10
449.5704204115998
 20
236.3026117312025
 30
0.0
 10
449.5704014704144
 20
236.3026288300956
 30
0.0
 10
449.5736521365753
 20
236.30681466685
 30
0.0
 10
449.680210515502
 20
236.4298195742741
 30
0.0
 10
449.9748889379868
 20
237.0062789268952
 30
0.0
 10
450.0924655615714
 20
237.6500476393292
 30
0.0
 10
450.0841392392097
 20
238.0405882205038
 30
0.0
  0
LINE
  5
207
330
1C8
100
AcDbEntity
  8
0
  6
Continuous
 62
     0
370
    30
100
AcDbLine
 10
450.046941
 20
239.776826
 30
0.0
 11
450.08406
 21
238.040622
 31
0.0
  0
LINE
  5
208
330
1C8
100
AcDbEntity
  8
0
  6
Continuous
 62
     0
370
    30
100
AcDbLine
 10
463.04595
 20
239.776824
 30
0.0
 11
463.007736
 21
237.989439
 31
0.0
  0
ELLIPSE
  5
209
330
1C8
100
AcDbEntity
  8
0
  6
Continuous
 62
     0
370
     0
100
AcDbEllipse
 10
417.584858
 20
132.413033
 30
0.0
 11
-27.0
 21
0.0
 31
0.0
210
0.0
220
0.0
230
1.0
 40
0.57735
 41
5.691586848344715
 42
8.448687043498577
  0
ELLIPSE
  5
20A
330
1C8
100
AcDbEntity
  8
0
  6
Continuous
 62
     0
370
     0
100
AcDbEllipse
 10
417.584858
 20
132.413033
 30
0.0
 11
-27.0
 21
0.0
 31
0.0
210
0.0
220
0.0
230
1.0
 40
0.57735
 41
2.165501736318991
 42
3.73319109514529
  0
ELLIPSE
  5
20B
330
1C8
100
AcDbEntity
  8
0
  6
Continuous
 62
     0
370
     0
100
AcDbEllipse
 10
417.584858
 20
127.922301
 30
0.0
 11
-30.0
 21
0.0
 31
0.0
210
0.0
220
0.0
230
1.0
 40
0.57735
 41
6.283185298539899
 42
8.448687043498577
  0
ELLIPSE
  5
20C
330
1C8
100
AcDbEntity
  8
0
  6
Continuous
 62
     0
370
     0
100
AcDbEllipse
 10
417.584858
 20
127.922301
 30
0.0
 11
-30.0
 21
0.0
 31
0.0
210
0.0
220
0.0
230
1.0
 40
0.57735
 41
2.165501736318991
 42
3.141592644950105
  0
ELLIPSE
  5
20D
330
1C8
100
AcDbEntity
  8
0
  6
Continuous
 62
     0
370
     0
100
AcDbEllipse
 10
417.584858
 20
132.004784
 30
0.0
 11
-30.0
 21
0.0
 31
0.0
210
0.0
220
0.0
230
1.0
 40
0.57735
 41
2.165501736318991
 42
3.144255229841147
  0
ELLIPSE
  5
20E
330
1C8
100
AcDbEntity
  8
0
  6
Continuous
 62
     0
370
     0
100
AcDbEllipse
 10
417.584858
 20
132.004784
 30
0.0
 11
-30.0
 21
0.0
 31
0.0
210
0.0
220
0.0
230
1.0
 40
0.57735
 41
6.272843835037387
 42
8.448687043498577
  0
ELLIPSE
  5
20F
330
1C8
100
AcDbEntity
  8
0
  6
Continuous
 62
     0
370
     0
100
AcDbEllipse
 10
417.584858
 20
132.413033
 30
0.0
 11
-29.5
 21
0.0
 31
0.0
210
0.0
220
0.0
230
1.0
 40
0.57735
 41
5.579884921951916
 42
8.448687043498577
  0
ELLIPSE
  5
210
330
1C8
100
AcDbEntity
  8
0
  6
Continuous
 62
     0
370
     0
100
AcDbEllipse
 10
417.584858
 20
132.413033
 30
0.0
 11
-29.5
 21
0.0
 31
0.0
210
0.0
220
0.0
230
1.0
 40
0.57735
 41
2.165501736318991
 42
3.844892984866644
  0
SPLINE
  5
211
330
1C8
100
AcDbEntity
  8
0
  6
Continuous
 62
     0
370
    30
100
AcDbSpline
210
0.0
220
0.0
230
1.0
 70
     8
 71
     3
 72
    19
 73
    15
 74
     0
 42
0.0
 43
0.0
 40
0.0
 40
0.0
 40
0.0
 40
0.0
 40
5.008419750291293
 40
13.01691180164012
 40
22.69982874197278
 40
31.51526435782112
 40
39.40623550412077
 40
47.28770900161565
 40
55.15691031453166
 40
63.03443301896423
 40
72.04304352611442
 40
81.56010593724045
 40
89.09896267775846
 40
93.84829866228708
 40
93.84829866228708
 40
93.84829866228708
 40
93.84829866228708
 10
447.5848522418813
 20
127.9230067452521
 30
0.0
 10
447.5848522274785
 20
126.9291747462183
 30
0.0
 10
447.2095664022397
 20
124.337570924498
 30
0.0
 10
444.8914867819508
 20
120.0296398087919
 30
0.0
 10
439.8098937074511
 20
115.7110741206638
 30
0.0
 10
432.7867157032714
 20
112.5338146271231
 30
0.0
 10
425.1158574128693
 20
110.7403836129608
 30
0.0
 10
417.2230866243079
 20
110.1901959054687
 30
0.0
 10
409.3600299299582
 20
110.8496336841464
 30
0.0
 10
401.7119125089542
 20
112.7600690403386
 30
0.0
 10
394.8283758838929
 20
116.0485778212983
 30
0.0
 10
390.0298365293344
 20
120.3733564674159
 30
0.0
 10
387.9215524073878
 20
124.5317514836269
 30
0.0
 10
387.5848726862193
 20
126.9780890187494
 30
0.0
 10
387.5848727224747
 20
127.9206386845837
 30
0.0
  0
SPLINE
  5
212
330
1C8
100
AcDbEntity
  8
0
  6
Continuous
 62
     0
370
    30
100
AcDbSpline
210
0.0
220
0.0
230
1.0
 70
     8
 71
     3
 72
    10
 73
     6
 74
     0
 42
0.0
 43
0.0
 40
0.0
 40
0.0
 40
0.0
 40
0.0
 40
5.008496504567288
 40
13.02191349700404
 40
21.4882374319136
 40
21.4882374319136
 40
21.4882374319136
 40
21.4882374319136
 10
447.5848522418813
 20
132.0054896498907
 30
0.0
 10
447.5848522562843
 20
132.999334983736
 30
0.0
 10
447.2087880889111
 20
135.5919951865341
 30
0.0
 10
445.0139017286139
 20
139.669934749568
 30
0.0
 10
441.9537177082917
 20
142.3842345427604
 30
0.0
 10
440.0848588090205
 20
143.6213926535558
 30
0.0
  0
SPLINE
  5
213
330
1C8
100
AcDbEntity
  8
0
  6
Continuous
 62
     0
370
    30
100
AcDbSpline
210
0.0
220
0.0
230
1.0
 70
     8
 71
     3
 72
    10
 73
     6
 74
     0
 42
0.0
 43
0.0
 40
0.0
 40
0.0
 40
0.0
 40
0.0
 40
5.007217914023217
 40
13.0131045163776
 40
21.49356692647167
 40
21.49356692647167
 40
21.49356692647167
 40
21.49356692647167
 10
387.5848727224747
 20
132.0031215994248
 30
0.0
 10
387.5848727368741
 20
132.9967297244465
 30
0.0
 10
387.959496680796
 20
135.5874132445551
 30
0.0
 10
390.1541274693802
 20
139.667028938601
 30
0.0
 10
393.2117507376282
 20
142.3825830549041
 30
0.0
 10
395.0848581029055
 20
143.6219694264124
 30
0.0
  0
LINE
  5
214
330
1C8
100
AcDbEntity
  8
0
  6
Continuous
 62
     0
370
    30
100
AcDbLine
 10
387.584858
 20
127.922302
 30
0.0
 11
387.584858
 21
132.004785
 31
0.0
  0
LINE
  5
215
330
1C8
100
AcDbEntity
  8
0
  6
Continuous
 62
     0
370
    30
100
AcDbLine
 10
447.584858
 20
127.922301
 30
0.0
 11
447.584858
 21
132.004784
 31
0.0
  0
ELLIPSE
  5
216
330
1C8
100
AcDbEntity
  8
0
  6
Continuous
 62
     0
370
     0
100
AcDbEllipse
 10
417.584858
 20
367.686517
 30
0.0
 11
11.0
 21
0.0
 31
0.0
210
0.0
220
0.0
230
-1.0
 40
0.57735
 41
2.356194490192345
 42
3.141596312484072
  0
ELLIPSE
  5
217
330
1C8
100
AcDbEntity
  8
0
  6
Continuous
 62
     0
370
     0
100
AcDbEllipse
 10
417.584858
 20
367.686517
 30
0.0
 11
11.0
 21
0.0
 31
0.0
210
0.0
220
0.0
230
-1.0
 40
0.57735
 41
6.28318499612295
 42
8.639379797371928
  0
ELLIPSE
  5
218
330
1C8
100
AcDbEntity
  8
0
  6
Continuous
 62
     0
370
     0
100
AcDbEllipse
 10
573.14835
 20
277.871894
 30
0.0
 11
-11.0
 21
0.0
 31
0.0
210
0.0
220
0.0
230
1.0
 40
0.57735
 41
0.7853981633974481
 42
3.141594136713869
  0
ELLIPSE
  5
219
330
1C8
100
AcDbEntity
  8
0
  6
Continuous
 62
     0
370
     0
100
AcDbEllipse
 10
573.14835
 20
277.871894
 30
0.0
 11
-11.0
 21
0.0
 31
0.0
210
0.0
220
0.0
230
1.0
 40
0.57735
 41
6.28318529853989
 42
7.068583470577034
  0
ELLIPSE
  5
21A
330
1C8
100
AcDbEntity
  8
0
  6
Continuous
 62
     0
370
    30
100
AcDbEllipse
 10
573.14835
 20
258.275976
 30
0.0
 11
-11.0
 21
0.0
 31
0.0
210
0.0
220
0.0
230
1.0
 40
0.57735
 41
0.7853981633974481
 42
3.141592644950105
  0
ELLIPSE
  5
21B
330
1C8
100
AcDbEntity
  8
0
  6
Continuous
 62
     0
370
    30
100
AcDbEllipse
 10
573.14835
 20
258.275976
 30
0.0
 11
-11.0
 21
0.0
 31
0.0
210
0.0
220
0.0
230
1.0
 40
0.57735
 41
6.283185298539901
 42
7.068583470577034
  0
LINE
  5
21C
330
1C8
100
AcDbEntity
  8
0
  6
Continuous
 62
     0
370
    30
100
AcDbLine
 10
584.14835
 20
258.275976
 30
0.0
 11
584.14835
 21
277.871894
 31
0.0
  0
LINE
  5
21D
330
1C8
100
AcDbEntity
  8
0
  6
Continuous
 62
     0
370
    30
100
AcDbLine
 10
562.14835
 20
258.275976
 30
0.0
 11
562.14835
 21
277.871894
 31
0.0
  0
SPLINE
  5
21E
330
1C8
100
AcDbEntity
  8
0
  6
Continuous
 62
     0
370
    30
100
AcDbSpline
210
0.0
220
0.0
230
1.0
 70
     8
 71
     3
 72
    22
 73
    18
 74
     0
 42
0.0
 43
0.0
 40
0.0
 40
0.0
 40
0.0
 40
0.0
 40
10.14248128462477
 40
23.23887146196449
 40
58.53518898005799
 40
84.42916090866512
 40
113.9342711799104
 40
140.7641019944075
 40
165.1349001021158
 40
198.4510591788496
 40
220.864917363527
 40
249.2713934459117
 40
273.909563499705
 40
296.5653904907815
 40
321.7645232557556
 40
352.2667324767864
 40
372.2527035404817
 40
372.2527035404817
 40
372.2527035404817
 40
372.2527035404817
 10
584.1483498017141
 20
277.8718935045737
 30
0.0
 10
584.1483498030761
 20
280.71962254406
 30
0.0
 10
583.9050718485444
 20
287.3581608068415
 30
0.0
 10
581.9130210042395
 20
304.5977157586128
 30
0.0
 10
575.8144380766325
 20
327.451734951518
 30
0.0
 10
563.4623549924074
 20
354.9376544732123
 30
0.0
 10
548.8027291397644
 20
378.3007608656196
 30
0.0
 10
531.7684337971557
 20
398.3746906785731
 30
0.0
 10
512.2085301398265
 20
415.6987373425208
 30
0.0
 10
492.6170365522315
 20
427.3820234242767
 30
0.0
 10
471.9611709823365
 20
433.9956156623273
 30
0.0
 10
453.8677057294894
 20
434.8643688239493
 30
0.0
 10
437.221023106112
 20
429.853199869578
 30
0.0
 10
423.8480432626844
 20
420.1317033348586
 30
0.0
 10
413.238904791699
 20
405.1676462211904
 30
0.0
 10
407.6259156002656
 20
387.0083024188949
 30
0.0
 10
406.5848590765744
 20
373.2935037338107
 30
0.0
 10
406.5848579407474
 20
367.6865406985925
 30
0.0
  0
SPLINE
  5
21F
330
1C8
100
AcDbEntity
  8
0
  6
Continuous
 62
     0
370
    30
100
AcDbSpline
210
0.0
220
0.0
230
1.0
 70
     8
 71
     3
 72
    26
 73
    22
 74
     0
 42
0.0
 43
0.0
 40
0.0
 40
0.0
 40
0.0
 40
0.0
 40
8.831230488533514
 40
20.30221632437509
 40
51.95703598514389
 40
67.17286249254313
 40
95.15764234130977
 40
115.4793373135096
 40
139.055720763924
 40
165.5075377081373
 40
182.065005111381
 40
206.1437779149702
 40
227.241774577801
 40
238.9127205078539
 40
248.7037403879636
 40
260.5056545559754
 40
272.2022107688107
 40
284.3729951641712
 40
296.5967607862438
 40
311.6259270933114
 40
320.8917553723181
 40
320.8917553723181
 40
320.8917553723181
 40
320.8917553723181
 10
562.1483498017141
 20
277.8718936143124
 30
0.0
 10
562.148349800348
 20
280.1799123267685
 30
0.0
 10
561.949610388005
 20
285.6368293663158
 30
0.0
 10
560.2585238700829
 20
300.3165898439723
 30
0.0
 10
555.5172038912642
 20
318.03517158329
 30
0.0
 10
545.8690845406497
 20
340.690159211934
 30
0.0
 10
535.1689824725961
 20
359.2037249321577
 30
0.0
 10
520.6921125467588
 20
377.8370400710326
 30
0.0
 10
505.085622931533
 20
393.198297431873
 30
0.0
 10
489.7262833972815
 20
403.7477207273245
 30
0.0
 10
474.8539528369663
 20
410.3495021042991
 30
0.0
 10
462.376546805539
 20
412.8018769425835
 30
0.0
 10
452.9745040964221
 20
411.685837651521
 30
0.0
 10
447.0530582949784
 20
409.3240829987732
 30
0.0
 10
442.8956118150093
 20
406.7009083846557
 30
0.0
 10
439.1505936300878
 20
403.2430847018614
 30
0.0
 10
435.6189577042504
 20
398.4672044689485
 30
0.0
 10
432.6297592628679
 20
392.4784715444952
 30
0.0
 10
430.1608691509977
 20
384.679626887571
 30
0.0
 10
428.8339310542541
 20
376.2758804182077
 30
0.0
 10
428.5848579392411
 20
370.1080492305057
 30
0.0
 10
428.5848579406737
 20
367.6865174066462
 30
0.0
  0
LINE
  5
220
330
1C8
100
AcDbEntity
  8
0
  6
Continuous
 62
     0
370
    30
100
AcDbLine
 10
406.584858
 20
367.686518
 30
0.0
 11
406.584858
 21
238.012402
 31
0.0
  0
LINE
  5
221
330
1C8
100
AcDbEntity
  8
0
  6
Continuous
 62
     0
370
    30
100
AcDbLine
 10
428.584858
 20
367.686517
 30
0.0
 11
428.584858
 21
238.012402
 31
0.0
  0
ELLIPSE
  5
222
330
1C8
100
AcDbEntity
  8
0
  6
Continuous
 62
     0
370
    30
100
AcDbEllipse
 10
417.584858
 20
237.00624
 30
0.0
 11
-11.25
 21
0.0
 31
0.0
210
0.0
220
0.0
230
1.0
 40
0.57735
 41
6.071974418180572
 42
6.099884151425982
  0
ELLIPSE
  5
223
330
1C8
100
AcDbEntity
  8
0
  6
Continuous
 62
     0
370
    30
100
AcDbEllipse
 10
417.584858
 20
237.00624
 30
0.0
 11
-11.25
 21
0.0
 31
0.0
210
0.0
220
0.0
230
1.0
 40
0.57735
 41
3.324893792064016
 42
3.352803525309136
  0
ELLIPSE
  5
224
330
1C8
100
AcDbEntity
  8
0
  6
Continuous
 62
     0
370
    30
100
AcDbEllipse
 10
417.584858
 20
238.557583
 30
0.0
 11
-11.25
 21
0.0
 31
0.0
210
0.0
220
0.0
230
1.0
 40
0.57735
 41
3.204488036688409
 42
3.352803525309138
  0
ELLIPSE
  5
225
330
1C8
100
AcDbEntity
  8
0
  6
Continuous
 62
     0
370
    30
100
AcDbEllipse
 10
417.584858
 20
238.557583
 30
0.0
 11
-11.25
 21
0.0
 31
0.0
210
0.0
220
0.0
230
1.0
 40
0.57735
 41
6.07197441818057
 42
6.220289906801589
  0
ELLIPSE
  5
226
330
1C8
100
AcDbEntity
  8
0
  6
Continuous
 62
     0
370
    30
100
AcDbEllipse
 10
417.584858
 20
239.37408
 30
0.0
 11
-11.25
 21
0.0
 31
0.0
210
0.0
220
0.0
230
1.0
 40
0.57735
 41
2.606811293971979
 42
3.352803525309136
  0
ELLIPSE
  5
227
330
1C8
100
AcDbEntity
  8
0
  6
Continuous
 62
     0
370
    30
100
AcDbEllipse
 10
417.584858
 20
239.37408
 30
0.0
 11
-11.25
 21
0.0
 31
0.0
210
0.0
220
0.0
230
1.0
 40
0.57735
 41
6.071974418180574
 42
8.889996601151566
  0
ELLIPSE
  5
228
330
1C8
100
AcDbEntity
  8
0
  6
Continuous
 62
     0
370
     0
100
AcDbEllipse
 10
417.584858
 20
239.37408
 30
0.0
 11
-21.5
 21
0.0
 31
0.0
210
0.0
220
0.0
230
1.0
 40
0.57735
 41
5.249467357438626
 42
5.748403947561769
  0
ELLIPSE
  5
229
330
1C8
100
AcDbEntity
  8
0
  6
Continuous
 62
     0
370
     0
100
AcDbEllipse
 10
417.584858
 20
239.37408
 30
0.0
 11
-21.5
 21
0.0
 31
0.0
210
0.0
220
0.0
230
1.0
 40
0.57735
 41
2.606811293971979
 42
4.17531058605134
  0
ELLIPSE
  5
22A
330
1C8
100
AcDbEntity
  8
0
  6
Continuous
 62
     0
370
     0
100
AcDbEllipse
 10
417.584858
 20
239.37408
 30
0.0
 11
-21.5
 21
0.0
 31
0.0
210
0.0
220
0.0
230
1.0
 40
0.57735
 41
5.748403947561773
 42
8.889996601151566
  0
ELLIPSE
  5
22B
330
1C8
100
AcDbEntity
  8
0
  6
Continuous
 62
     0
370
     0
100
AcDbEllipse
 10
417.584858
 20
238.965832
 30
0.0
 11
-22.0
 21
0.0
 31
0.0
210
0.0
220
0.0
230
1.0
 40
0.57735
 41
2.606811293971979
 42
3.153975731114197
  0
ELLIPSE
  5
22C
330
1C8
100
AcDbEntity
  8
0
  6
Continuous
 62
     0
370
     0
100
AcDbEllipse
 10
417.584858
 20
238.965832
 30
0.0
 11
-22.0
 21
0.0
 31
0.0
210
0.0
220
0.0
230
1.0
 40
0.57735
 41
6.269936603224567
 42
8.889996601151566
  0
ELLIPSE
  5
22D
330
1C8
100
AcDbEntity
  8
0
  6
Continuous
 62
     0
370
    30
100
AcDbEllipse
 10
417.584858
 20
221.656104
 30
0.0
 11
-22.0
 21
0.0
 31
0.0
210
0.0
220
0.0
230
1.0
 40
0.57735
 41
2.606811293971979
 42
3.141592644950105
  0
ELLIPSE
  5
22E
330
1C8
100
AcDbEntity
  8
0
  6
Continuous
 62
     0
370
    30
100
AcDbEllipse
 10
417.584858
 20
221.656104
 30
0.0
 11
-22.0
 21
0.0
 31
0.0
210
0.0
220
0.0
230
1.0
 40
0.57735
 41
6.283185298539899
 42
8.889996601151566
  0
ELLIPSE
  5
22F
330
1C8
100
AcDbEntity
  8
0
  6
Continuous
 62
     0
370
    30
100
AcDbEllipse
 10
417.584858
 20
221.411155
 30
0.0
 11
-21.69999998807907
 21
0.0
 31
0.0
210
0.0
220
0.0
230
1.0
 40
0.57735
 41
0.7785094401672097
 42
2.363083196143223
  0
LINE
  5
230
330
1C8
100
AcDbEntity
  8
0
  6
Continuous
 62
     0
370
    30
100
AcDbLine
 10
439.584858
 20
221.656104
 30
0.0
 11
439.584858
 21
238.965832
 31
0.0
  0
LINE
  5
231
330
1C8
100
AcDbEntity
  8
0
  6
Continuous
 62
     0
370
    30
100
AcDbLine
 10
395.584858
 20
221.656104
 30
0.0
 11
395.584858
 21
238.965832
 31
0.0
  0
SPLINE
  5
232
330
1C8
100
AcDbEntity
  8
0
  6
Continuous
 62
     0
370
    30
100
AcDbSpline
210
0.0
220
0.0
230
1.0
 70
     8
 71
     3
 72
    12
 73
     8
 74
     0
 42
0.0
 43
0.0
 40
45.88044827786625
 40
45.88044827786625
 40
45.88044827786625
 40
45.88044827786625
 40
46.21433530191725
 40
52.83197543953683
 40
59.75328016514409
 40
65.27868758071031
 40
68.72116058967798
 40
68.72116058967798
 40
68.72116058967798
 40
68.72116058967798
 10
428.5848581034524
 20
250.159357123364
 30
0.0
 10
428.6812568573022
 20
250.1268665585165
 30
0.0
 10
430.6794580325053
 20
249.4414474146882
 30
0.0
 10
434.2904845635147
 20
247.7035230724008
 30
0.0
 10
437.7984805710732
 20
244.5220160783221
 30
0.0
 10
439.3390804292717
 20
241.4639317583025
 30
0.0
 10
439.5847792976656
 20
239.6575734671476
 30
0.0
 10
439.5847792729159
 20
238.9667982228928
 30
0.0
  0
SPLINE
  5
233
330
1C8
100
AcDbEntity
  8
0
  6
Continuous
 62
     0
370
    30
100
AcDbSpline
210
0.0
220
0.0
230
1.0
 70
     8
 71
     3
 72
    11
 73
     7
 74
     0
 42
0.0
 43
0.0
 40
0.0
 40
0.0
 40
0.0
 40
0.0
 40
3.684081624716237
 40
9.552868407114593
 40
16.64052032707357
 40
22.84335554295348
 40
22.84335554295348
 40
22.84335554295348
 40
22.84335554295348
 10
395.5849128932473
 20
238.9651073595677
 30
0.0
 10
395.5849129038389
 20
239.7042504215939
 30
0.0
 10
395.8643658351534
 20
241.6287102264564
 30
0.0
 10
397.581547927844
 20
244.8118985314184
 30
0.0
 10
401.2703148686737
 20
247.9435460252927
 30
0.0
 10
404.7941455917171
 20
249.5555929210153
 30
0.0
 10
406.5848581034514
 20
250.1593060800297
 30
0.0
  0
ELLIPSE
  5
234
330
1C8
100
AcDbEntity
  8
0
  6
Continuous
 62
     0
370
     0
100
AcDbEllipse
 10
573.14835
 20
242.109341
 30
0.0
 11
11.00000000000004
 21
0.0
 31
0.0
210
0.0
220
0.0
230
-1.0
 40
0.57735
 41
2.177102772541442
 42
3.141592662229479
  0
ELLIPSE
  5
235
330
1C8
100
AcDbEntity
  8
0
  6
Continuous
 62
     0
370
     0
100
AcDbEllipse
 10
573.14835
 20
242.109341
 30
0.0
 11
11.00000000000004
 21
0.0
 31
0.0
210
0.0
220
0.0
230
-1.0
 40
0.57735
 41
0.0000000086394805
 42
2.177102772541442
  0
SPLINE
  5
236
330
1C8
100
AcDbEntity
  8
0
  6
Continuous
 62
     0
370
    30
100
AcDbSpline
210
0.0
220
0.0
230
1.0
 70
     8
 71
     3
 72
    15
 73
    11
 74
     0
 42
0.0
 43
0.0
 40
0.0
 40
0.0
 40
0.0
 40
0.0
 40
2.998849508634606
 40
8.800167060382377
 40
14.01414721765087
 40
18.95956055153033
 40
22.93299981302385
 40
28.05922916483767
 40
32.15335028200283
 40
34.39354631078213
 40
34.39354631078213
 40
34.39354631078213
 40
34.39354631078213
 10
584.1483498628154
 20
242.1093410573345
 30
0.0
 10
584.1483498542086
 20
241.5132579082601
 30
0.0
 10
583.7311476269682
 20
239.7554153321926
 30
0.0
 10
581.2182791823093
 20
237.3327648843376
 30
0.0
 10
576.4861070481322
 20
235.7328538220499
 30
0.0
 10
571.6640732413032
 20
235.5525972946712
 30
0.0
 10
567.1775644308015
 20
236.4790665734254
 30
0.0
 10
563.8845994416095
 20
238.2818849739432
 30
0.0
 10
562.3722554601779
 20
240.3988049384521
 30
0.0
 10
562.148350129836
 20
241.663436683607
 30
0.0
 10
562.148349862816
 20
242.1093388366447
 30
0.0
  0
LINE
  5
237
330
1C8
100
AcDbEntity
  8
0
  6
Continuous
 62
     0
370
    30
100
AcDbLine
 10
584.14835
 20
258.275973
 30
0.0
 11
584.14835
 21
242.109341
 31
0.0
  0
LINE
  5
238
330
1C8
100
AcDbEntity
  8
0
  6
Continuous
 62
     0
370
    30
100
AcDbLine
 10
562.14835
 20
258.275973
 30
0.0
 11
562.14835
 21
242.109341
 31
0.0
  0
ARC
  5
239
330
1C8
100
AcDbEntity
  8
0
  6
Continuous
 62
     0
370
    30
100
AcDbCircle
 10
443.477727
 20
209.462517
 30
0.0
 40
20.43303566240165
100
AcDbArc
 50
322.358678
 51
327.928763
  0
LINE
  5
23A
330
1C8
100
AcDbEntity
  8
0
  6
Continuous
 62
     0
370
    30
100
AcDbLine
 10
464.375447
 20
205.653381
 30
0.0
 11
464.626982
 21
205.798617
 31
0.0
  0
ARC
  5
23B
330
1C8
100
AcDbEntity
  8
0
  6
Continuous
 62
     0
370
    30
100
AcDbCircle
 10
439.46061
 20
203.461248
 30
0.0
 40
25.27468239471616
100
AcDbArc
 50
5.306219
 51
9.049482
  0
LINE
  5
23C
330
1C8
100
AcDbEntity
  8
0
  6
Continuous
 62
     0
370
    30
100
AcDbLine
 10
464.420695
 20
207.436637
 30
0.0
 11
464.199257
 21
207.308791
 31
0.0
  0
ARC
  5
23D
330
1C8
100
AcDbEntity
  8
0
  6
Continuous
 62
     0
370
    30
100
AcDbCircle
 10
438.82477
 20
203.279413
 30
0.0
 40
25.69242041089763
100
AcDbArc
 50
6.117315
 51
9.023024
  0
ARC
  5
23E
330
1C8
100
AcDbEntity
  8
0
  6
Continuous
 62
     0
370
    30
100
AcDbCircle
 10
427.413115
 20
95.31368
 30
0.0
 40
116.7097775849379
100
AcDbArc
 50
71.538706
 51
72.320162
  0
LINE
  5
23F
330
1C8
100
AcDbEntity
  8
0
  6
Continuous
 62
     0
370
    30
100
AcDbLine
 10
462.857618
 20
206.511069
 30
0.0
 11
462.608694
 21
206.367361
 31
0.0
  0
ARC
  5
240
330
1C8
100
AcDbEntity
  8
0
  6
Continuous
 62
     0
370
    30
100
AcDbCircle
 10
437.633878
 20
202.411296
 30
0.0
 40
25.28619873109421
100
AcDbArc
 50
5.383309
 51
9.000989
  0
LINE
  5
241
330
1C8
100
AcDbEntity
  8
0
  6
Continuous
 62
     0
370
    30
100
AcDbLine
 10
462.808548
 20
204.783604
 30
0.0
 11
463.029837
 21
204.911368
 31
0.0
  0
ARC
  5
242
330
1C8
100
AcDbEntity
  8
0
  6
Continuous
 62
     0
370
    30
100
AcDbCircle
 10
419.372974
 20
69.243504
 30
0.0
 40
143.6414885660139
100
AcDbArc
 50
71.741953
 51
72.367313
  0
LINE
  5
243
330
1C8
100
AcDbEntity
  8
0
  6
Continuous
 62
     0
370
    30
100
AcDbLine
 10
462.572446
 20
206.589875
 30
0.0
 11
462.520944
 21
206.890042
 31
0.0
  0
LINE
  5
244
330
1C8
100
AcDbEntity
  8
0
  6
Continuous
 62
     0
370
    30
100
AcDbLine
 10
462.520944
 20
206.890042
 30
0.0
 11
463.644625
 21
207.538818
 31
0.0
  0
SPLINE
  5
245
330
1C8
100
AcDbEntity
  8
0
  6
Continuous
 62
     0
370
    30
100
AcDbSpline
210
0.0
220
0.0
230
1.0
 70
     8
 71
     3
 72
    10
 73
     6
 74
     0
 42
0.0
 43
0.0
 40
0.0
 40
0.0
 40
0.0
 40
0.0
 40
0.1607383031802
 40
0.3212678064986678
 40
0.4814978669279015
 40
0.4814978669279015
 40
0.4814978669279015
 40
0.4814978669279015
 10
463.644625456694
 20
207.5388181104281
 30
0.0
 10
463.6825050392404
 20
207.5606888969137
 30
0.0
 10
463.7575399709881
 20
207.6081402517231
 30
0.0
 10
463.8662775339162
 20
207.6963940118356
 30
0.0
 10
463.9278959096087
 20
207.7787757459825
 30
0.0
 10
463.9542901208305
 20
207.8234882696356
 30
0.0
  0
SPLINE
  5
246
330
1C8
100
AcDbEntity
  8
0
  6
Continuous
 62
     0
370
    30
100
AcDbSpline
210
0.0
220
0.0
230
1.0
 70
     8
 71
     3
 72
    14
 73
    10
 74
     0
 42
0.0
 43
0.0
 40
0.0
 40
0.0
 40
0.0
 40
0.0
 40
0.2483063195049803
 40
0.4973415118280775
 40
0.7469539897613078
 40
0.9957853863575374
 40
1.243643039570712
 40
1.492316197299791
 40
1.742344279104765
 40
1.742344279104765
 40
1.742344279104765
 40
1.742344279104765
 10
463.9542901208298
 20
207.8234882696595
 30
0.0
 10
463.9941717606064
 20
207.8937224774284
 30
0.0
 10
464.0555994656904
 20
208.0545829467227
 30
0.0
 10
464.0649326571265
 20
208.3016507962329
 30
0.0
 10
464.0216284586762
 20
208.5261641936248
 30
0.0
 10
463.9311185183985
 20
208.7216256718435
 30
0.0
 10
463.7685279388539
 20
208.8197625237747
 30
0.0
 10
463.5811559743495
 20
208.7941514030501
 30
0.0
 10
463.4617249154629
 20
208.7330300704865
 30
0.0
 10
463.4028434227049
 20
208.698827290935
 30
0.0
  0
LINE
  5
247
330
1C8
100
AcDbEntity
  8
0
  6
Continuous
 62
     0
370
    30
100
AcDbLine
 10
463.402843
 20
208.698827
 30
0.0
 11
462.289102
 21
208.055791
 31
0.0
  0
LINE
  5
248
330
1C8
100
AcDbEntity
  8
0
  6
Continuous
 62
     0
370
    30
100
AcDbLine
 10
462.289102
 20
208.055791
 30
0.0
 11
462.224926
 21
208.340526
 31
0.0
  0
LINE
  5
249
330
1C8
100
AcDbEntity
  8
0
  6
Continuous
 62
     0
370
    30
100
AcDbLine
 10
462.224926
 20
208.340526
 30
0.0
 11
463.343624
 21
208.986435
 31
0.0
  0
SPLINE
  5
24A
330
1C8
100
AcDbEntity
  8
0
  6
Continuous
 62
     0
370
    30
100
AcDbSpline
210
0.0
220
0.0
230
1.0
 70
     8
 71
     3
 72
    10
 73
     6
 74
     0
 42
0.0
 43
0.0
 40
0.0
 40
0.0
 40
0.0
 40
0.0
 40
0.2406503714594215
 40
0.4809889051886851
 40
0.7211588880530552
 40
0.7211588880530552
 40
0.7211588880530552
 40
0.7211588880530552
 10
463.3436243576721
 20
208.9864345085104
 30
0.0
 10
463.4003488538359
 20
209.0191813357642
 30
0.0
 10
463.5156670404053
 20
209.0780260260407
 30
0.0
 10
463.6941892769116
 20
209.1207621078086
 30
0.0
 10
463.8108401719975
 20
209.1086877956681
 30
0.0
 10
463.8659448174832
 20
209.0921495091798
 30
0.0
  0
SPLINE
  5
24B
330
1C8
100
AcDbEntity
  8
0
  6
Continuous
 62
     0
370
    30
100
AcDbSpline
210
0.0
220
0.0
230
1.0
 70
     8
 71
     3
 72
    14
 73
    10
 74
     0
 42
0.0
 43
0.0
 40
0.0
 40
0.0
 40
0.0
 40
0.0
 40
0.2658311356644095
 40
0.5318324899200899
 40
0.7981789482599693
 40
1.064703722663629
 40
1.331140912478703
 40
1.597255800117859
 40
1.863124513833541
 40
1.863124513833541
 40
1.863124513833541
 40
1.863124513833541
 10
463.8659448174831
 20
209.0921495091798
 30
0.0
 10
463.9269955061188
 20
209.0740599711087
 30
0.0
 10
464.042731760614
 20
209.0102058141773
 30
0.0
 10
464.1720976677876
 20
208.8393641890906
 30
0.0
 10
464.2544849165312
 20
208.6218871893655
 30
0.0
 10
464.2929442360785
 20
208.3776038328394
 30
0.0
 10
464.2888309062881
 20
208.1187133811594
 30
0.0
 10
464.2345159879175
 20
207.8559551308649
 30
0.0
 10
464.1596471550402
 20
207.6926320517841
 30
0.0
 10
464.1150093620732
 20
207.6189621251145
 30
0.0
  0
SPLINE
  5
24C
330
1C8
100
AcDbEntity
  8
0
  6
Continuous
 62
     0
370
    30
100
AcDbSpline
210
0.0
220
0.0
230
1.0
 70
     8
 71
     3
 72
    10
 73
     6
 74
     0
 42
0.0
 43
0.0
 40
0.0
 40
0.0
 40
0.0
 40
0.0
 40
0.2234824778642142
 40
0.4474133988426941
 40
0.671636863453323
 40
0.671636863453323
 40
0.671636863453323
 40
0.671636863453323
 10
464.1150093620736
 20
207.618962125115
 30
0.0
 10
464.0771285709533
 20
207.5573919599044
 30
0.0
 10
463.9891339817808
 20
207.4447094844392
 30
0.0
 10
463.8362364796494
 20
207.3246479308207
 30
0.0
 10
463.7314122748442
 20
207.2590406110415
 30
0.0
 10
463.6785647645137
 20
207.2285328159975
 30
0.0
  0
LINE
  5
24D
330
1C8
100
AcDbEntity
  8
0
  6
Continuous
 62
     0
370
    30
100
AcDbLine
 10
463.678565
 20
207.228533
 30
0.0
 11
462.572446
 21
206.589875
 31
0.0
  0
SPLINE
  5
24E
330
1C8
100
AcDbEntity
  8
0
  6
Continuous
 62
     0
370
    30
100
AcDbSpline
210
0.0
220
0.0
230
1.0
 70
     8
 71
     3
 72
    25
 73
    21
 74
     0
 42
0.0
 43
0.0
 40
0.0
 40
0.0
 40
0.0
 40
0.0
 40
0.2754117203151599
 40
0.4117111493874385
 40
0.5484227172847349
 40
0.6882255408435608
 40
0.828517537529587
 40
1.101530130229459
 40
1.374996099329446
 40
1.654519371669829
 40
2.206611179020701
 40
2.483601928484151
 40
2.760074308334967
 40
3.036299766838877
 40
3.172821653322529
 40
3.311285244432747
 40
3.451140522921225
 40
3.589993566819079
 40
3.726555894954432
 40
3.865086221907658
 40
3.865086221907658
 40
3.865086221907658
 40
3.865086221907658
 10
462.3193421912249
 20
210.1601406756252
 30
0.0
 10
462.2563152648045
 20
210.1167390131677
 30
0.0
 10
462.1699642109495
 20
210.0191199363157
 30
0.0
 10
462.1069795796407
 20
209.8480233725013
 30
0.0
 10
462.0952061709634
 20
209.7084621280322
 30
0.0
 10
462.1120335848365
 20
209.5728937255058
 30
0.0
 10
462.1653375783923
 20
209.4097152542969
 30
0.0
 10
462.2852225088504
 20
209.2489366222268
 30
0.0
 10
462.4877262815141
 20
209.1951693358206
 30
0.0
 10
462.7628393066333
 20
209.2409542763488
 30
0.0
 10
463.0314190793842
 20
209.3751405447642
 30
0.0
 10
463.2848355533025
 20
209.5524500830304
 30
0.0
 10
463.4588359827339
 20
209.726849651893
 30
0.0
 10
463.5732847133642
 20
209.9218350906888
 30
0.0
 10
463.6142255340187
 20
210.1032882623189
 30
0.0
 10
463.6166050894038
 20
210.2417668667317
 30
0.0
 10
463.5947836960709
 20
210.3747541954849
 30
0.0
 10
463.5507428535723
 20
210.4952424631467
 30
0.0
 10
463.4830509329045
 20
210.593996910292
 30
0.0
 10
463.4220760944771
 20
210.6349568418865
 30
0.0
 10
463.3894364880882
 20
210.6473378260639
 30
0.0
  0
SPLINE
  5
24F
330
1C8
100
AcDbEntity
  8
0
  6
Continuous
 62
     0
370
    30
100
AcDbSpline
210
0.0
220
0.0
230
1.0
 70
     8
 71
     3
 72
     8
 73
     4
 74
     0
 42
0.0
 43
0.0
 40
0.0
 40
0.0
 40
0.0
 40
0.0
 40
1.0
 40
1.0
 40
1.0
 40
1.0
 10
463.3894364880856
 20
210.6473378260741
 30
0.0
 10
463.3205006046205
 20
210.6719167160737
 30
0.0
 10
463.2422430084615
 20
210.6610150470422
 30
0.0
 10
463.1706291266155
 20
210.6353321398657
 30
0.0
  0
LINE
  5
250
330
1C8
100
AcDbEntity
  8
0
  6
Continuous
 62
     0
370
    30
100
AcDbLine
 10
463.170629
 20
210.635332
 30
0.0
 11
463.081835
 21
210.941785
 31
0.0
  0
SPLINE
  5
251
330
1C8
100
AcDbEntity
  8
0
  6
Continuous
 62
     0
370
    30
100
AcDbSpline
210
0.0
220
0.0
230
1.0
 70
     8
 71
     3
 72
    26
 73
    22
 74
     0
 42
0.0
 43
0.0
 40
0.0
 40
0.0
 40
0.0
 40
0.0
 40
0.4329957280319897
 40
0.6503560515467781
 40
0.8672615756275532
 40
1.30544677017856
 40
1.739098905056486
 40
1.954088279332204
 40
2.172970668810715
 40
2.614411444286846
 40
3.050370624337348
 40
3.48667701142522
 40
3.927680242198689
 40
4.146685552390961
 40
4.362090948400045
 40
4.795435861426188
 40
5.017398464029146
 40
5.237524152879468
 40
5.453487952873516
 40
5.670035285782057
 40
6.10432269187669
 40
6.10432269187669
 40
6.10432269187669
 40
6.10432269187669
 10
463.0818351542591
 20
210.9417849376894
 30
0.0
 10
463.1854004630403
 20
210.9954556909643
 30
0.0
 10
463.3627665189783
 20
211.0076305627806
 30
0.0
 10
463.561502412894
 20
210.9001659820729
 30
0.0
 10
463.7248224336882
 20
210.7180687519047
 30
0.0
 10
463.8461991012916
 20
210.3960835771272
 30
0.0
 10
463.8467065310239
 20
210.0230565548371
 30
0.0
 10
463.756586704226
 20
209.7464110434913
 30
0.0
 10
463.6174813946269
 20
209.5012356164983
 30
0.0
 10
463.3907162919585
 20
209.2558959794783
 30
0.0
 10
463.0856184237134
 20
209.0534765970102
 30
0.0
 10
462.7676570294076
 20
208.9091606706598
 30
0.0
 10
462.4929376801272
 20
208.8767103654158
 30
0.0
 10
462.2848425819761
 20
208.9288310623236
 30
0.0
 10
462.0986903268573
 20
209.048634739672
 30
0.0
 10
461.9637610780793
 20
209.2707082156311
 30
0.0
 10
461.8917381368162
 20
209.5366076263981
 30
0.0
 10
461.8716946920997
 20
209.7527352402284
 30
0.0
 10
461.8946138072208
 20
209.9727194998633
 30
0.0
 10
461.993276768532
 20
210.2417893288074
 30
0.0
 10
462.1310348343295
 20
210.3975277742942
 30
0.0
 10
462.2329141467933
 20
210.458067204112
 30
0.0
  0
LINE
  5
252
330
1C8
100
AcDbEntity
  8
0
  6
Continuous
 62
     0
370
    30
100
AcDbLine
 10
462.232914
 20
210.458067
 30
0.0
 11
462.319342
 21
210.160141
 31
0.0
  0
LINE
  5
253
330
1C8
100
AcDbEntity
  8
0
  6
Continuous
 62
     0
370
    30
100
AcDbLine
 10
462.637666
 20
212.333464
 30
0.0
 11
462.538454
 21
212.618436
 31
0.0
  0
SPLINE
  5
254
330
1C8
100
AcDbEntity
  8
0
  6
Continuous
 62
     0
370
    30
100
AcDbSpline
210
0.0
220
0.0
230
1.0
 70
     8
 71
     3
 72
    28
 73
    24
 74
     0
 42
0.0
 43
0.0
 40
0.0
 40
0.0
 40
0.0
 40
0.0
 40
0.4204471630560343
 40
0.6302954727550704
 40
0.840844224262211
 40
1.264356009512046
 40
1.683146518034478
 40
1.891353215850194
 40
2.103180002565582
 40
2.31874500921389
 40
2.532573572134457
 40
2.954756629199493
 40
3.377480775805023
 40
3.805430969074711
 40
4.017368875573588
 40
4.226305843304237
 40
4.645601066209491
 40
4.859869049938903
 40
5.073392086735828
 40
5.283190324930742
 40
5.492725046528286
 40
5.70597621120472
 40
5.918133441981349
 40
5.918133441981349
 40
5.918133441981349
 40
5.918133441981349
 10
462.5384544890264
 20
212.618436470331
 30
0.0
 10
462.6396033886463
 20
212.6696075584647
 30
0.0
 10
462.8128806647361
 20
212.6920056287221
 30
0.0
 10
463.0212015432315
 20
212.6008575309573
 30
0.0
 10
463.1977447343781
 20
212.4311901619457
 30
0.0
 10
463.3387965133691
 20
212.1166695475643
 30
0.0
 10
463.3425508518441
 20
211.7498334141521
 30
0.0
 10
463.2556082225428
 20
211.4867665198184
 30
0.0
 10
463.1540156237652
 20
211.3145413010292
 30
0.0
 10
463.0313594141343
 20
211.166147582156
 30
0.0
 10
462.8520332567739
 20
210.9963101122531
 30
0.0
 10
462.6071841380051
 20
210.8326112537665
 30
0.0
 10
462.2972641921888
 20
210.69300857228
 30
0.0
 10
462.0255733255471
 20
210.6490237622374
 30
0.0
 10
461.8119933210507
 20
210.6849150260957
 30
0.0
 10
461.6143120451293
 20
210.7869976039057
 30
0.0
 10
461.4572427265377
 20
210.9929156346611
 30
0.0
 10
461.3700621605335
 20
211.2517272038399
 30
0.0
 10
461.3429783264463
 20
211.4634432678509
 30
0.0
 10
461.3609835645908
 20
211.6768725230967
 30
0.0
 10
461.4338085962907
 20
211.8699483870636
 30
0.0
 10
461.546525292136
 20
212.0264003457205
 30
0.0
 10
461.6398664146893
 20
212.1040862628073
 30
0.0
 10
461.6893523471955
 20
212.1343268373694
 30
0.0
  0
LINE
  5
255
330
1C8
100
AcDbEntity
  8
0
  6
Continuous
 62
     0
370
    30
100
AcDbLine
 10
461.689352
 20
212.134327
 30
0.0
 11
461.785885
 21
211.857312
 31
0.0
  0
SPLINE
  5
256
330
1C8
100
AcDbEntity
  8
0
  6
Continuous
 62
     0
370
    30
100
AcDbSpline
210
0.0
220
0.0
230
1.0
 70
     8
 71
     3
 72
    23
 73
    19
 74
     0
 42
0.0
 43
0.0
 40
0.0
 40
0.0
 40
0.0
 40
0.0
 40
0.1344406348959691
 40
0.2698087024253305
 40
0.4020113593220785
 40
0.5351093167957036
 40
0.8039622975256804
 40
1.068634646139707
 40
1.334722668476824
 40
1.605909583314207
 40
1.873103289376405
 40
2.143350905299621
 40
2.41200424978178
 40
2.680682206166646
 40
2.949290704837172
 40
3.213805505265991
 40
3.481377106834338
 40
3.74489199651306
 40
3.74489199651306
 40
3.74489199651306
 40
3.74489199651306
 10
461.7858845054387
 20
211.8573118851778
 30
0.0
 10
461.7554849351698
 20
211.8356602045207
 30
0.0
 10
461.6976874981496
 20
211.7840980093515
 30
0.0
 10
461.626018771223
 20
211.6850790926319
 30
0.0
 10
461.5799169073169
 20
211.5619005645819
 30
0.0
 10
461.5693058079791
 20
211.3810487821309
 30
0.0
 10
461.6307738885319
 20
211.1622790835894
 30
0.0
 10
461.7952406586026
 20
210.9889377949428
 30
0.0
 10
462.0026618017048
 20
210.9510031926146
 30
0.0
 10
462.2065160299344
 20
210.9927697172981
 30
0.0
 10
462.4056759976004
 20
211.0714897677719
 30
0.0
 10
462.5967839929379
 20
211.1783981704194
 30
0.0
 10
462.7814322334983
 20
211.3067743236205
 30
0.0
 10
462.9493098791136
 20
211.4698887274413
 30
0.0
 10
463.0863156766736
 20
211.6848696145698
 30
0.0
 10
463.1201353031218
 20
211.9629268409574
 30
0.0
 10
463.0463565546442
 20
212.2199571827653
 30
0.0
 10
462.9258820071018
 20
212.3318656647309
 30
0.0
 10
462.8599829277393
 20
212.3521582511884
 30
0.0
  0
SPLINE
  5
257
330
1C8
100
AcDbEntity
  8
0
  6
Continuous
 62
     0
370
    30
100
AcDbSpline
210
0.0
220
0.0
230
1.0
 70
     8
 71
     3
 72
     8
 73
     4
 74
     0
 42
0.0
 43
0.0
 40
0.0
 40
0.0
 40
0.0
 40
0.0
 40
1.0
 40
1.0
 40
1.0
 40
1.0
 10
462.8599829277364
 20
212.3521582511973
 30
0.0
 10
462.7877321944241
 20
212.3733800579977
 30
0.0
 10
462.7091761859378
 20
212.359856195375
 30
0.0
 10
462.6376655931728
 20
212.3334636712713
 30
0.0
  0
LINE
  5
258
330
1C8
100
AcDbEntity
  8
0
  6
Continuous
 62
     0
370
    30
100
AcDbLine
 10
462.541351
 20
214.16039
 30
0.0
 11
462.446164
 21
214.397765
 31
0.0
  0
LINE
  5
259
330
1C8
100
AcDbEntity
  8
0
  6
Continuous
 62
     0
370
    30
100
AcDbLine
 10
462.446164
 20
214.397765
 30
0.0
 11
460.630964
 21
213.349759
 31
0.0
  0
LINE
  5
25A
330
1C8
100
AcDbEntity
  8
0
  6
Continuous
 62
     0
370
    30
100
AcDbLine
 10
460.630964
 20
213.349759
 30
0.0
 11
460.726152
 21
213.112384
 31
0.0
  0
LINE
  5
25B
330
1C8
100
AcDbEntity
  8
0
  6
Continuous
 62
     0
370
    30
100
AcDbLine
 10
460.726152
 20
213.112384
 30
0.0
 11
461.505488
 21
213.562337
 31
0.0
  0
ARC
  5
25C
330
1C8
100
AcDbEntity
  8
0
  6
Continuous
 62
     0
370
    30
100
AcDbCircle
 10
430.273065
 20
201.141164
 30
0.0
 40
33.61175046364505
100
AcDbArc
 50
20.15166
 51
21.687776
  0
LINE
  5
25D
330
1C8
100
AcDbEntity
  8
0
  6
Continuous
 62
     0
370
    30
100
AcDbLine
 10
461.82724
 20
212.720623
 30
0.0
 11
461.047901
 21
212.27067
 31
0.0
  0
LINE
  5
25E
330
1C8
100
AcDbEntity
  8
0
  6
Continuous
 62
     0
370
    30
100
AcDbLine
 10
461.047901
 20
212.27067
 30
0.0
 11
461.139887
 21
212.017485
 31
0.0
  0
LINE
  5
25F
330
1C8
100
AcDbEntity
  8
0
  6
Continuous
 62
     0
370
    30
100
AcDbLine
 10
461.139887
 20
212.017485
 30
0.0
 11
462.955087
 21
213.065491
 31
0.0
  0
LINE
  5
260
330
1C8
100
AcDbEntity
  8
0
  6
Continuous
 62
     0
370
    30
100
AcDbLine
 10
462.955087
 20
213.065491
 30
0.0
 11
462.863101
 21
213.318676
 31
0.0
  0
LINE
  5
261
330
1C8
100
AcDbEntity
  8
0
  6
Continuous
 62
     0
370
    30
100
AcDbLine
 10
462.863101
 20
213.318676
 30
0.0
 11
462.043413
 21
212.845432
 31
0.0
  0
ARC
  5
262
330
1C8
100
AcDbEntity
  8
0
  6
Continuous
 62
     0
370
    30
100
AcDbCircle
 10
430.46221
 20
201.255647
 30
0.0
 40
33.64068182062248
100
AcDbArc
 50
20.152312
 51
21.687107
  0
LINE
  5
263
330
1C8
100
AcDbEntity
  8
0
  6
Continuous
 62
     0
370
    30
100
AcDbLine
 10
461.721662
 20
213.687146
 30
0.0
 11
462.541351
 21
214.16039
 31
0.0
  0
LINE
  5
264
330
1C8
100
AcDbEntity
  8
0
  6
Continuous
 62
     0
370
    30
100
AcDbLine
 10
459.06706
 20
216.712703
 30
0.0
 11
459.288496
 21
216.84055
 31
0.0
  0
ARC
  5
265
330
1C8
100
AcDbEntity
  8
0
  6
Continuous
 62
     0
370
    30
100
AcDbCircle
 10
419.928273
 20
196.155255
 30
0.0
 40
44.46468896214073
100
AcDbArc
 50
27.08391
 51
27.723634
  0
LINE
  5
266
330
1C8
100
AcDbEntity
  8
0
  6
Continuous
 62
     0
370
    30
100
AcDbLine
 10
459.516995
 20
216.399801
 30
0.0
 11
461.110765
 21
217.319964
 31
0.0
  0
LINE
  5
267
330
1C8
100
AcDbEntity
  8
0
  6
Continuous
 62
     0
370
    30
100
AcDbLine
 10
461.110765
 20
217.319964
 30
0.0
 11
461.204987
 21
217.134026
 31
0.0
  0
LINE
  5
268
330
1C8
100
AcDbEntity
  8
0
  6
Continuous
 62
     0
370
    30
100
AcDbLine
 10
461.204987
 20
217.134026
 30
0.0
 11
459.611204
 21
216.21386
 31
0.0
  0
ARC
  5
269
330
1C8
100
AcDbEntity
  8
0
  6
Continuous
 62
     0
370
    30
100
AcDbCircle
 10
425.997202
 20
199.301314
 30
0.0
 40
37.62891676442834
100
AcDbArc
 50
25.566226
 51
26.708793
  0
LINE
  5
26A
330
1C8
100
AcDbEntity
  8
0
  6
Continuous
 62
     0
370
    30
100
AcDbLine
 10
459.941761
 20
215.540226
 30
0.0
 11
461.535566
 21
216.460398
 31
0.0
  0
LINE
  5
26B
330
1C8
100
AcDbEntity
  8
0
  6
Continuous
 62
     0
370
    30
100
AcDbLine
 10
461.535566
 20
216.460398
 30
0.0
 11
461.63111
 21
216.259256
 31
0.0
  0
LINE
  5
26C
330
1C8
100
AcDbEntity
  8
0
  6
Continuous
 62
     0
370
    30
100
AcDbLine
 10
461.63111
 20
216.259256
 30
0.0
 11
460.037259
 21
215.339071
 31
0.0
  0
ARC
  5
26D
330
1C8
100
AcDbEntity
  8
0
  6
Continuous
 62
     0
370
    30
100
AcDbCircle
 10
427.502846
 20
199.987394
 30
0.0
 40
35.97446396091419
100
AcDbArc
 50
22.772102
 51
25.260735
  0
LINE
  5
26E
330
1C8
100
AcDbEntity
  8
0
  6
Continuous
 62
     0
370
    30
100
AcDbLine
 10
460.673162
 20
213.91191
 30
0.0
 11
461.231058
 21
214.234015
 31
0.0
  0
ARC
  5
26F
330
1C8
100
AcDbEntity
  8
0
  6
Continuous
 62
     0
370
    30
100
AcDbCircle
 10
428.103045
 20
200.315942
 30
0.0
 40
35.93296469511704
100
AcDbArc
 50
22.788738
 51
24.089405
  0
LINE
  5
270
330
1C8
100
AcDbEntity
  8
0
  6
Continuous
 62
     0
370
    30
100
AcDbLine
 10
460.906596
 20
214.9824
 30
0.0
 11
461.122784
 21
215.107212
 31
0.0
  0
ARC
  5
271
330
1C8
100
AcDbEntity
  8
0
  6
Continuous
 62
     0
370
    30
100
AcDbCircle
 10
428.023188
 20
200.312837
 30
0.0
 40
36.25543830934196
100
AcDbArc
 50
22.793897
 51
24.082993
  0
LINE
  5
272
330
1C8
100
AcDbEntity
  8
0
  6
Continuous
 62
     0
370
    30
100
AcDbLine
 10
461.447237
 20
214.358824
 30
0.0
 11
462.045634
 21
214.704307
 31
0.0
  0
ARC
  5
273
330
1C8
100
AcDbEntity
  8
0
  6
Continuous
 62
     0
370
    30
100
AcDbCircle
 10
427.611494
 20
200.226226
 30
0.0
 40
37.35404652730382
100
AcDbArc
 50
22.804668
 51
24.146524
  0
LINE
  5
274
330
1C8
100
AcDbEntity
  8
0
  6
Continuous
 62
     0
370
    30
100
AcDbLine
 10
461.697148
 20
215.506704
 30
0.0
 11
461.918558
 21
215.634493
 31
0.0
  0
ARC
  5
275
330
1C8
100
AcDbEntity
  8
0
  6
Continuous
 62
     0
370
    30
100
AcDbCircle
 10
426.79676
 20
199.914694
 30
0.0
 40
38.47925186139831
100
AcDbArc
 50
22.437711
 51
24.112313
  0
LINE
  5
276
330
1C8
100
AcDbEntity
  8
0
  6
Continuous
 62
     0
370
    30
100
AcDbLine
 10
462.362941
 20
214.601409
 30
0.0
 11
460.547741
 21
213.553403
 31
0.0
  0
ARC
  5
277
330
1C8
100
AcDbEntity
  8
0
  6
Continuous
 62
     0
370
    30
100
AcDbCircle
 10
426.086425
 20
199.328919
 30
0.0
 40
37.28160699426305
100
AcDbArc
 50
22.429206
 51
27.793296
  0
LINE
  5
278
330
1C8
100
AcDbEntity
  8
0
  6
Continuous
 62
     0
370
    30
100
AcDbLine
 10
460.81207
 20
217.893327
 30
0.0
 11
460.718899
 21
218.067433
 31
0.0
  0
LINE
  5
279
330
1C8
100
AcDbEntity
  8
0
  6
Continuous
 62
     0
370
    30
100
AcDbLine
 10
460.718899
 20
218.067433
 30
0.0
 11
458.903699
 21
217.019427
 31
0.0
  0
LINE
  5
27A
330
1C8
100
AcDbEntity
  8
0
  6
Continuous
 62
     0
370
    30
100
AcDbLine
 10
458.903699
 20
217.019427
 30
0.0
 11
458.99687
 21
216.845321
 31
0.0
  0
LINE
  5
27B
330
1C8
100
AcDbEntity
  8
0
  6
Continuous
 62
     0
370
    30
100
AcDbLine
 10
458.99687
 20
216.845321
 30
0.0
 11
460.81207
 21
217.893327
 31
0.0
  0
LINE
  5
27C
330
1C8
100
AcDbEntity
  8
0
  6
Continuous
 62
     0
370
    30
100
AcDbLine
 10
460.021638
 20
218.193647
 30
0.0
 11
460.113816
 21
218.026307
 31
0.0
  0
LINE
  5
27D
330
1C8
100
AcDbEntity
  8
0
  6
Continuous
 62
     0
370
    30
100
AcDbLine
 10
460.113816
 20
218.026307
 30
0.0
 11
460.591477
 21
218.302085
 31
0.0
  0
LINE
  5
27E
330
1C8
100
AcDbEntity
  8
0
  6
Continuous
 62
     0
370
    30
100
AcDbLine
 10
460.591477
 20
218.302085
 30
0.0
 11
460.499299
 21
218.469425
 31
0.0
  0
LINE
  5
27F
330
1C8
100
AcDbEntity
  8
0
  6
Continuous
 62
     0
370
    30
100
AcDbLine
 10
460.499299
 20
218.469425
 30
0.0
 11
460.021638
 21
218.193647
 31
0.0
  0
ENDBLK
  5
281
330
1C8
100
AcDbEntity
  8
0
100
AcDbBlockEnd
  0
BLOCK
  5
2ED
330
283
100
AcDbEntity
  8
0
100
AcDbBlockBegin
  2
e
 70
     0
 10
-298.490234
 20
0.0
 30
0.0
  3
e
  1

  0
LINE
  5
284
330
283
100
AcDbEntity
  8
0
  6
Continuous
 62
     0
370
    30
100
AcDbLine
 10
-246.293869
 20
678.372906
 30
0.0
 11
-246.29387
 21
650.372909
 31
0.0
  0
SPLINE
  5
285
330
283
100
AcDbEntity
  8
0
  6
Continuous
 62
     0
370
     0
100
AcDbSpline
210
0.0
220
0.0
230
1.0
 70
     8
 71
     3
 72
    14
 73
    10
 74
     0
 42
0.0
 43
0.0
 40
0.0
 40
0.0
 40
0.0
 40
0.0
 40
0.047619048741464
 40
0.142857146224391
 40
0.28571429152306
 40
0.428571433695539
 40
0.5714285733023969
 40
0.714285714258222
 40
0.8134511510728426
 40
0.8134511510728426
 40
0.8134511510728426
 40
0.8134511510728426
 10
-246.2938690260044
 20
678.3729062238326
 30
0.0
 10
-246.293869050475
 20
678.3729062539487
 30
0.0
 10
-246.2311889020806
 20
678.3729063472749
 30
0.0
 10
-245.7278814050206
 20
678.3729065323357
 30
0.0
 10
-244.2366172854327
 20
678.372906779578
 30
0.0
 10
-241.5332540850837
 20
678.3729070585289
 30
0.0
 10
-237.940831685813
 20
678.3729073389951
 30
0.0
 10
-234.0764455766153
 20
678.3729075916668
 30
0.0
 10
-231.4124838167621
 20
678.3729077527785
 30
0.0
 10
-230.2938768660715
 20
678.3729078184439
 30
0.0
  0
SPLINE
  5
286
330
283
100
AcDbEntity
  8
0
  6
Continuous
 62
     0
370
    30
100
AcDbSpline
210
0.0
220
0.0
230
1.0
 70
     8
 71
     3
 72
    16
 73
    12
 74
     0
 42
0.0
 43
0.0
 40
0.0
 40
0.0
 40
0.0
 40
0.0
 40
0.047619050732881
 40
0.142857152198643
 40
0.285714498032294
 40
0.4285715148732381
 40
0.571428485126764
 40
0.7142855019677079
 40
0.857142847801357
 40
0.9523809492671189
 40
1.0
 40
1.0
 40
1.0
 40
1.0
 10
-246.2938702499234
 20
650.3729104201262
 30
0.0
 10
-246.2938702194712
 20
650.3729104810307
 30
0.0
 10
-246.2938701281146
 20
650.2946475809309
 30
0.0
 10
-246.2938699461622
 20
649.6685872408356
 30
0.0
 10
-246.2938697144564
 20
647.8125070556029
 30
0.0
 10
-246.2938694803827
 20
644.4485259580856
 30
0.0
 10
-246.2938692849676
 20
639.9779508697959
 30
0.0
 10
-246.2938691379233
 20
634.6229689301678
 30
0.0
 10
-246.2938690567913
 20
629.3221573987225
 30
0.0
 10
-246.2938690294255
 20
625.1595721997775
 30
0.0
 10
-246.2938690260044
 20
623.0695777026282
 30
0.0
 10
-246.2938690260044
 20
622.3729128679644
 30
0.0
  0
LINE
  5
287
330
283
100
AcDbEntity
  8
0
  6
Continuous
 62
     0
370
     0
100
AcDbLine
 10
-223.79387
 20
622.372911
 30
0.0
 11
-246.293869
 21
622.372913
 31
0.0
  0
SPLINE
  5
288
330
283
100
AcDbEntity
  8
0
  6
Continuous
 62
     0
370
     0
100
AcDbSpline
210
0.0
220
0.0
230
1.0
 70
     8
 71
     3
 72
    16
 73
    12
 74
     0
 42
0.0
 43
0.0
 40
0.0
 40
0.0
 40
0.0
 40
0.0
 40
0.047618587247776
 40
0.142855761743327
 40
0.285714973445752
 40
0.428572131040739
 40
0.5714278689592599
 40
0.7142850265542481
 40
0.8571442382566719
 40
0.952381412752224
 40
1.0
 40
1.0
 40
1.0
 40
1.0
 10
-223.7938702424727
 20
627.8729104126758
 30
0.0
 10
-223.7938702364911
 20
627.872910424639
 30
0.0
 10
-223.7938702185462
 20
627.8575890021309
 30
0.0
 10
-223.7938701828054
 20
627.7345389335917
 30
0.0
 10
-223.7938701372914
 20
627.369992254637
 30
0.0
 10
-223.7938700913122
 20
626.7092063937333
 30
0.0
 10
-223.7938700529272
 20
625.8310601103958
 30
0.0
 10
-223.7938700240433
 20
624.7791779775733
 30
0.0
 10
-223.7938700081085
 20
623.73794001333
 30
0.0
 10
-223.7938700027298
 20
622.9202861187133
 30
0.0
 10
-223.7938700020601
 20
622.5097547057269
 30
0.0
 10
-223.7938700020601
 20
622.3729109009516
 30
0.0
  0
LINE
  5
289
330
283
100
AcDbEntity
  8
0
  6
Continuous
 62
     0
370
     0
100
AcDbLine
 10
-201.293869
 20
622.372913
 30
0.0
 11
-223.79387
 21
622.372911
 31
0.0
  0
SPLINE
  5
28A
330
283
100
AcDbEntity
  8
0
  6
Continuous
 62
     0
370
    30
100
AcDbSpline
210
0.0
220
0.0
230
1.0
 70
     8
 71
     3
 72
    16
 73
    12
 74
     0
 42
0.0
 43
0.0
 40
0.0
 40
0.0
 40
0.0
 40
0.0
 40
0.047619008806062
 40
0.142857026418187
 40
0.285714359327475
 40
0.428571395213536
 40
0.571428604786464
 40
0.7142856406725249
 40
0.8571429735818132
 40
0.9523809911939379
 40
1.0
 40
1.0
 40
1.0
 40
1.0
 10
-201.2938702350223
 20
650.3729104201262
 30
0.0
 10
-201.29387020457
 20
650.3729104810307
 30
0.0
 10
-201.2938701132134
 20
650.2949090981787
 30
0.0
 10
-201.2938699312606
 20
649.6684766977992
 30
0.0
 10
-201.2938696995537
 20
647.8126124029725
 30
0.0
 10
-201.2938694654781
 20
644.4486053581338
 30
0.0
 10
-201.293869270063
 20
639.9780294563243
 30
0.0
 10
-201.2938691230175
 20
634.623004143507
 30
0.0
 10
-201.2938690418951
 20
629.3221694638156
 30
0.0
 10
-201.2938690145128
 20
625.1595755953252
 30
0.0
 10
-201.2938690111033
 20
623.0695785515094
 30
0.0
 10
-201.2938690111033
 20
622.3729128679643
 30
0.0
  0
SPLINE
  5
28B
330
283
100
AcDbEntity
  8
0
  6
Continuous
 62
     0
370
    30
100
AcDbSpline
210
0.0
220
0.0
230
1.0
 70
     8
 71
     3
 72
    16
 73
    12
 74
     0
 42
0.0
 43
0.0
 40
0.0
 40
0.0
 40
0.0
 40
0.0
 40
0.047619050732881
 40
0.142857152198643
 40
0.285714498032292
 40
0.428571514873236
 40
0.5714284851267609
 40
0.714285501967704
 40
0.857142847801358
 40
0.9523809492671189
 40
1.0
 40
1.0
 40
1.0
 40
1.0
 10
-201.2938702350223
 20
650.3729086716706
 30
0.0
 10
-201.2938702045701
 20
650.3729086107662
 30
0.0
 10
-201.2938701132135
 20
650.451171510866
 30
0.0
 10
-201.2938699312611
 20
651.0772318509612
 30
0.0
 10
-201.2938696995553
 20
652.933312036194
 30
0.0
 10
-201.2938694654815
 20
656.2972931337113
 30
0.0
 10
-201.2938692700665
 20
660.767868222001
 30
0.0
 10
-201.2938691230221
 20
666.1228501616292
 30
0.0
 10
-201.2938690418903
 20
671.4236616930743
 30
0.0
 10
-201.2938690145241
 20
675.5862468920195
 30
0.0
 10
-201.2938690111032
 20
677.6762413891688
 30
0.0
 10
-201.2938690111032
 20
678.3729062238326
 30
0.0
  0
LINE
  5
28C
330
283
100
AcDbEntity
  8
0
  6
Continuous
 62
     0
370
     0
100
AcDbLine
 10
-217.293877
 20
678.372908
 30
0.0
 11
-201.293869
 21
678.372906
 31
0.0
  0
LINE
  5
28D
330
283
100
AcDbEntity
  8
0
  6
Continuous
 62
     0
370
     0
100
AcDbLine
 10
-223.79387
 20
587.005402
 30
0.0
 11
-223.79387
 21
622.372911
 31
0.0
  0
LINE
  5
28E
330
283
100
AcDbEntity
  8
0
  6
Continuous
 62
     0
370
     0
100
AcDbLine
 10
-223.79387
 20
587.005402
 30
0.0
 11
-201.293869
 21
587.00537
 31
0.0
  0
LINE
  5
28F
330
283
100
AcDbEntity
  8
0
  6
Continuous
 62
     0
370
    30
100
AcDbLine
 10
-201.293869
 20
622.372913
 30
0.0
 11
-201.293869
 21
587.00537
 31
0.0
  0
LINE
  5
290
330
283
100
AcDbEntity
  8
0
  6
Continuous
 62
     0
370
    30
100
AcDbLine
 10
-246.293869
 20
587.00537
 30
0.0
 11
-246.293869
 21
622.372913
 31
0.0
  0
SPLINE
  5
291
330
283
100
AcDbEntity
  8
0
  6
Continuous
 62
     0
370
     0
100
AcDbSpline
210
0.0
220
0.0
230
1.0
 70
     8
 71
     3
 72
    17
 73
    13
 74
     0
 42
0.0
 43
0.0
 40
0.0
 40
0.0
 40
0.0
 40
0.0
 40
2.297407004499248
 40
5.672395173834614
 40
7.570826023835553
 40
10.73487736145179
 40
15.79735940500662
 40
20.85984094734004
 40
25.92232241247725
 40
30.80867906996199
 40
33.64249601588607
 40
35.34278618556472
 40
35.34278618556472
 40
35.34278618556472
 40
35.34278618556472
 10
-246.2938690260076
 20
587.0053699072329
 30
0.0
 10
-246.293869059695
 20
587.0053699115722
 30
0.0
 10
-246.1972893912996
 20
587.0053701355458
 30
0.0
 10
-245.7514092539213
 20
587.0053714946367
 30
0.0
 10
-244.9348387491368
 20
587.00537385288
 30
0.0
 10
-243.5963520494277
 20
587.0053773211921
 30
0.0
 10
-241.1178264260471
 20
587.005382018603
 30
0.0
 10
-237.4116455639018
 20
587.0053872484218
 30
0.0
 10
-233.0699993783572
 20
587.0053891024172
 30
0.0
 10
-228.9882297630971
 20
587.0053963593297
 30
0.0
 10
-225.8721107260728
 20
587.0053861113082
 30
0.0
 10
-224.3605002114111
 20
587.0054019041711
 30
0.0
 10
-223.7938700020601
 20
587.0054019041711
 30
0.0
  0
ARC
  5
292
330
283
100
AcDbEntity
  8
0
  6
Continuous
 62
     0
370
    30
100
AcDbCircle
 10
-223.794072
 20
650.372763
 30
0.0
 40
22.50020156876768
100
AcDbArc
 50
0.000375
 51
70.001301
  0
ARC
  5
293
330
283
100
AcDbEntity
  8
0
  6
Continuous
 62
     0
370
    30
100
AcDbCircle
 10
-223.794174
 20
650.373214
 30
0.0
 40
22.50030388123655
100
AcDbArc
 50
270.000774
 51
359.999227
  0
LINE
  5
294
330
283
100
AcDbEntity
  8
0
  6
Continuous
 62
     0
370
    30
100
AcDbLine
 10
-223.805597
 20
627.872913
 30
0.0
 11
-223.79387
 21
627.87291
 31
0.0
  0
ARC
  5
295
330
283
100
AcDbEntity
  8
0
  6
Continuous
 62
     0
370
    30
100
AcDbCircle
 10
-223.793567
 20
650.373213
 30
0.0
 40
22.50030312198653
100
AcDbArc
 50
180.000771
 51
269.969367
  0
ARC
  5
296
330
283
100
AcDbEntity
  8
0
  6
Continuous
 62
     0
370
    30
100
AcDbCircle
 10
-223.793412
 20
650.372449
 30
0.0
 40
22.50045817905426
100
AcDbArc
 50
109.999673
 51
179.998826
  0
LINE
  5
297
330
283
100
AcDbEntity
  8
0
  6
Continuous
 62
     0
370
    30
100
AcDbLine
 10
-201.293869
 20
678.800894
 30
0.0
 11
-201.293869
 21
678.372906
 31
0.0
  0
LINE
  5
298
330
283
100
AcDbEntity
  8
0
  6
Continuous
 62
     0
370
    30
100
AcDbLine
 10
-201.293869
 20
678.800894
 30
0.0
 11
-217.293877
 21
678.800895
 31
0.0
  0
LINE
  5
299
330
283
100
AcDbEntity
  8
0
  6
Continuous
 62
     0
370
    30
100
AcDbLine
 10
-230.293877
 20
678.800895
 30
0.0
 11
-246.293869
 21
678.800894
 31
0.0
  0
LINE
  5
29A
330
283
100
AcDbEntity
  8
0
  6
Continuous
 62
     0
370
    30
100
AcDbLine
 10
-246.293869
 20
678.372906
 30
0.0
 11
-246.293869
 21
678.800894
 31
0.0
  0
ARC
  5
29B
330
283
100
AcDbEntity
  8
0
  6
Continuous
 62
     0
370
    30
100
AcDbCircle
 10
-223.805597
 20
650.369788
 30
0.0
 40
22.1
100
AcDbArc
 50
270.0
 51
67.153039
  0
ARC
  5
29C
330
283
100
AcDbEntity
  8
0
  6
Continuous
 62
     0
370
    30
100
AcDbCircle
 10
-223.805597
 20
650.369788
 30
0.0
 40
22.1
100
AcDbArc
 50
112.684744
 51
270.0
  0
LINE
  5
29D
330
283
100
AcDbEntity
  8
0
  6
Continuous
 62
     0
370
    30
100
AcDbLine
 10
-201.993869
 20
683.372915
 30
0.0
 11
-217.293877
 21
683.372915
 31
0.0
  0
LINE
  5
29E
330
283
100
AcDbEntity
  8
0
  6
Continuous
 62
     0
370
    30
100
AcDbLine
 10
-230.293877
 20
683.372915
 30
0.0
 11
-245.593869
 21
683.372915
 31
0.0
  0
LINE
  5
29F
330
283
100
AcDbEntity
  8
0
  6
Continuous
 62
     0
370
    30
100
AcDbLine
 10
-230.293877
 20
683.074057
 30
0.0
 11
-245.920016
 21
683.074057
 31
0.0
  0
LINE
  5
2A0
330
283
100
AcDbEntity
  8
0
  6
Continuous
 62
     0
370
    30
100
AcDbLine
 10
-201.667722
 20
683.074057
 30
0.0
 11
-217.293877
 21
683.074057
 31
0.0
  0
LINE
  5
2A1
330
283
100
AcDbEntity
  8
0
  6
Continuous
 62
     0
370
    30
100
AcDbLine
 10
-223.79387
 20
579.372915
 30
0.0
 11
-201.693869
 21
579.372915
 31
0.0
  0
LINE
  5
2A2
330
283
100
AcDbEntity
  8
0
  6
Continuous
 62
     0
370
    30
100
AcDbLine
 10
-245.893869
 20
579.372915
 30
0.0
 11
-223.79387
 21
579.372915
 31
0.0
  0
LINE
  5
2A3
330
283
100
AcDbEntity
  8
0
  6
Continuous
 62
     0
370
    30
100
AcDbLine
 10
-201.293869
 20
587.00537
 30
0.0
 11
-201.693869
 21
579.372915
 31
0.0
  0
LINE
  5
2A4
330
283
100
AcDbEntity
  8
0
  6
Continuous
 62
     0
370
    30
100
AcDbLine
 10
-246.293869
 20
587.00537
 30
0.0
 11
-245.893869
 21
579.372915
 31
0.0
  0
LINE
  5
2A5
330
283
100
AcDbEntity
  8
0
  6
Continuous
 62
     0
370
    30
100
AcDbLine
 10
-201.667722
 20
683.074057
 30
0.0
 11
-201.993846
 21
683.372894
 31
0.0
  0
LINE
  5
2A6
330
283
100
AcDbEntity
  8
0
  6
Continuous
 62
     0
370
    30
100
AcDbLine
 10
-245.920016
 20
683.074057
 30
0.0
 11
-245.593892
 21
683.372894
 31
0.0
  0
LINE
  5
2A7
330
283
100
AcDbEntity
  8
0
  6
Continuous
 62
     0
370
    30
100
AcDbLine
 10
-201.293869
 20
678.800894
 30
0.0
 11
-201.667722
 21
683.074057
 31
0.0
  0
LINE
  5
2A8
330
283
100
AcDbEntity
  8
0
  6
Continuous
 62
     0
370
    30
100
AcDbLine
 10
-246.293869
 20
678.800894
 30
0.0
 11
-245.920016
 21
683.074057
 31
0.0
  0
LINE
  5
2A9
330
283
100
AcDbEntity
  8
0
  6
Continuous
 62
     0
370
    30
100
AcDbLine
 10
-230.237795
 20
678.372912
 30
0.0
 11
-217.293878
 21
678.372914
 31
0.0
  0
LINE
  5
2AA
330
283
100
AcDbEntity
  8
0
  6
Continuous
 62
     0
370
    30
100
AcDbLine
 10
-230.293886
 20
738.372912
 30
0.0
 11
-230.237803
 21
738.372912
 31
0.0
  0
LINE
  5
2AB
330
283
100
AcDbEntity
  8
0
  6
Continuous
 62
     0
370
    30
100
AcDbLine
 10
-230.237803
 20
738.372912
 30
0.0
 11
-217.293886
 21
738.372914
 31
0.0
  0
LINE
  5
2AC
330
283
100
AcDbEntity
  8
0
  6
Continuous
 62
     0
370
    30
100
AcDbLine
 10
-217.293878
 20
678.372914
 30
0.0
 11
-217.293886
 21
738.372914
 31
0.0
  0
LINE
  5
2AD
330
283
100
AcDbEntity
  8
0
  6
Continuous
 62
     0
370
    30
100
AcDbLine
 10
-230.293878
 20
678.372912
 30
0.0
 11
-230.293886
 21
738.372912
 31
0.0
  0
LINE
  5
2AE
330
283
100
AcDbEntity
  8
0
  6
Continuous
 62
     0
370
    30
100
AcDbLine
 10
-230.293878
 20
678.372911
 30
0.0
 11
-230.237795
 21
678.372911
 31
0.0
  0
SPLINE
  5
2AF
330
283
100
AcDbEntity
  8
0
  6
Continuous
 62
     0
370
     0
100
AcDbSpline
210
0.0
220
0.0
230
1.0
 70
     8
 71
     3
 72
    15
 73
    11
 74
     0
 42
0.0
 43
0.0
 40
10.51976893298457
 40
10.51976893298457
 40
10.51976893298457
 40
10.51976893298457
 40
11.62018875328712
 40
12.66991432644621
 40
13.90342270692893
 40
15.64836897466411
 40
17.34311723258407
 40
18.41361149052697
 40
19.47528666719875
 40
21.03953786596914
 40
21.03953786596914
 40
21.03953786596914
 40
21.03953786596914
 10
-217.3542321350965
 20
674.9173946212293
 30
0.0
 10
-217.3542921667763
 20
674.9175478161685
 30
0.0
 10
-217.411796351366
 20
674.96581390383
 30
0.0
 10
-217.6754638121208
 20
675.1806884264861
 30
0.0
 10
-218.1947712682135
 20
675.5759664545604
 30
0.0
 10
-219.0784334711453
 20
676.1616157527915
 30
0.0
 10
-220.1966116154227
 20
676.724335830499
 30
0.0
 10
-221.2892912129378
 20
677.1113674305687
 30
0.0
 10
-222.4279777838245
 20
677.3824786414218
 30
0.0
 10
-223.2838710939544
 20
677.4601740860127
 30
0.0
 10
-223.7938785333372
 20
677.460174022058
 30
0.0
  0
SPLINE
  5
2B0
330
283
100
AcDbEntity
  8
0
  6
Continuous
 62
     0
370
     0
100
AcDbSpline
210
0.0
220
0.0
230
1.0
 70
     8
 71
     3
 72
    14
 73
    10
 74
     0
 42
0.0
 43
0.0
 40
0.0
 40
0.0
 40
0.0
 40
0.0
 40
1.912405789321918
 40
3.830350421158677
 40
6.32391116788351
 40
7.661351199193069
 40
8.952158795729051
 40
10.23687625134339
 40
10.51976893298457
 40
10.51976893298457
 40
10.51976893298457
 40
10.51976893298457
 10
-223.7938785333372
 20
677.460174022058
 30
0.0
 10
-224.4173980680766
 20
677.4601739438691
 30
0.0
 10
-225.6656103621758
 20
677.3204226644189
 30
0.0
 10
-227.5264130310363
 20
676.706544945881
 30
0.0
 10
-228.8624873725943
 20
675.9451168796185
 30
0.0
 10
-229.6839570636917
 20
675.3596350110408
 30
0.0
 10
-230.0942121728616
 20
675.0343184392956
 30
0.0
 10
-230.2228687940217
 20
674.9261256849011
 30
0.0
 10
-230.2335391597541
 20
674.9173536232677
 30
0.0
 10
-230.2335237269968
 20
674.9173930061747
 30
0.0
  0
LINE
  5
2B1
330
283
100
AcDbEntity
  8
0
  6
Continuous
 62
     0
370
     0
100
AcDbLine
 10
-223.793879
 20
677.460174
 30
0.0
 11
-223.793878
 21
672.372912
 31
0.0
  0
ARC
  5
2B2
330
283
100
AcDbEntity
  8
0
  6
Continuous
 62
     0
370
    30
100
AcDbCircle
 10
-223.793875
 20
650.372912
 30
0.0
 40
22.0
100
AcDbArc
 50
270.000007
 51
90.000007
  0
ARC
  5
2B3
330
283
100
AcDbEntity
  8
0
  6
Continuous
 62
     0
370
    30
100
AcDbCircle
 10
-223.793875
 20
650.372912
 30
0.0
 40
22.0
100
AcDbArc
 50
90.000007
 51
270.000007
  0
ARC
  5
2B4
330
283
100
AcDbEntity
  8
0
  6
Continuous
 62
     0
370
     0
100
AcDbCircle
 10
-223.793876
 20
650.372912
 30
0.0
 40
21.5
100
AcDbArc
 50
90.000007
 51
270.000007
  0
ARC
  5
2B5
330
283
100
AcDbEntity
  8
0
  6
Continuous
 62
     0
370
     0
100
AcDbCircle
 10
-223.793876
 20
650.372912
 30
0.0
 40
21.5
100
AcDbArc
 50
270.000007
 51
90.000007
  0
SPLINE
  5
2B6
330
283
100
AcDbEntity
  8
0
  6
Continuous
 62
     0
370
    30
100
AcDbSpline
210
0.0
220
0.0
230
1.0
 70
     8
 71
     3
 72
    18
 73
    14
 74
     0
 42
0.0
 43
0.0
 40
1.062771965689222
 40
1.062771965689222
 40
1.062771965689222
 40
1.062771965689222
 40
1.15278694556269
 40
1.369419972446693
 40
1.496338862799866
 40
1.686593611603636
 40
2.229652032535512
 40
2.934669082084802
 40
3.2869321714359
 40
3.639100897691612
 40
4.343364277904396
 40
5.047911622239654
 40
6.771249075136793
 40
6.771249075136793
 40
6.771249075136793
 40
6.771249075136793
 10
-233.0727722886235
 20
670.3207432043444
 30
0.0
 10
-233.0500491126591
 20
670.3317706291236
 30
0.0
 10
-232.9523410286482
 20
670.379230874771
 30
0.0
 10
-232.8284007944741
 20
670.4451835292806
 30
0.0
 10
-232.6732109664913
 20
670.5340655446565
 30
0.0
 10
-232.4294443800904
 20
670.6843855769931
 30
0.0
 10
-232.0396927959407
 20
670.9654829886946
 30
0.0
 10
-231.648494936085
 20
671.3301172200717
 30
0.0
 10
-231.340341666328
 20
671.6852914241499
 30
0.0
 10
-231.0579952200534
 20
672.0609591993938
 30
0.0
 10
-230.7561535486151
 20
672.5663260004796
 30
0.0
 10
-230.3503526982807
 20
673.5307719361141
 30
0.0
 10
-230.2235415106292
 20
674.3457507085873
 30
0.0
 10
-230.2335237278234
 20
674.9173930013292
 30
0.0
  0
SPLINE
  5
2B7
330
283
100
AcDbEntity
  8
0
  6
Continuous
 62
     0
370
    30
100
AcDbSpline
210
0.0
220
0.0
230
1.0
 70
     8
 71
     3
 72
    19
 73
    15
 74
     0
 42
0.0
 43
0.0
 40
0.8364736344684843
 40
0.8364736344684843
 40
0.8364736344684843
 40
0.8364736344684843
 40
1.061025725230382
 40
1.152786945561737
 40
1.369419972553527
 40
1.49633886301265
 40
1.686593611975078
 40
2.22965203306583
 40
2.934669082614557
 40
3.28693217196548
 40
3.639100898221086
 40
4.343364278433918
 40
5.047911622769554
 40
6.771249075125921
 40
6.771249075125921
 40
6.771249075125921
 40
6.771249075125921
 10
-214.4393489028847
 20
670.2841254841834
 30
0.0
 10
-214.4393664350185
 20
670.2840893485625
 30
0.0
 10
-214.4650009005183
 20
670.2964748413295
 30
0.0
 10
-214.6349145117354
 20
670.3789675399604
 30
0.0
 10
-214.7593539460975
 20
670.4451857951818
 30
0.0
 10
-214.9145437964779
 20
670.5340677717039
 30
0.0
 10
-215.1583104206895
 20
670.6843877429928
 30
0.0
 10
-215.5480620753988
 20
670.9654850570432
 30
0.0
 10
-215.9392600267029
 20
671.3301191903871
 30
0.0
 10
-216.2474133854987
 20
671.6852933172139
 30
0.0
 10
-216.5297599259497
 20
672.060961021676
 30
0.0
 10
-216.8316017240785
 20
672.5663277470933
 30
0.0
 10
-217.2374028161203
 20
673.5307735808311
 30
0.0
 10
-217.3642142080939
 20
674.3457523213159
 30
0.0
 10
-217.3542321342699
 20
674.9173946163836
 30
0.0
  0
LINE
  5
2B8
330
283
100
AcDbEntity
  8
0
  6
Continuous
 62
     0
370
    30
100
AcDbLine
 10
-217.293878
 20
678.372913
 30
0.0
 11
-217.354194
 21
674.917416
 31
0.0
  0
LINE
  5
2B9
330
283
100
AcDbEntity
  8
0
  6
Continuous
 62
     0
370
    30
100
AcDbLine
 10
-230.293878
 20
678.372911
 30
0.0
 11
-230.233562
 21
674.917414
 31
0.0
  0
LINE
  5
2BA
330
283
100
AcDbEntity
  8
0
  6
Continuous
 62
     0
370
    30
100
AcDbLine
 10
-253.293869
 20
568.372925
 30
0.0
 11
-194.828611
 21
568.372925
 31
0.0
  0
LINE
  5
2BB
330
283
100
AcDbEntity
  8
0
  6
Continuous
 62
     0
370
    30
100
AcDbLine
 10
-194.828611
 20
568.372925
 30
0.0
 11
-194.293869
 21
568.372925
 31
0.0
  0
LINE
  5
2BC
330
283
100
AcDbEntity
  8
0
  6
Continuous
 62
     0
370
     0
100
AcDbLine
 10
-194.337674
 20
568.872925
 30
0.0
 11
-193.793869
 21
568.872925
 31
0.0
  0
LINE
  5
2BD
330
283
100
AcDbEntity
  8
0
  6
Continuous
 62
     0
370
     0
100
AcDbLine
 10
-253.793869
 20
568.872925
 30
0.0
 11
-194.337674
 21
568.872925
 31
0.0
  0
LINE
  5
2BE
330
283
100
AcDbEntity
  8
0
  6
Continuous
 62
     0
370
     0
100
AcDbLine
 10
-253.793869
 20
573.872925
 30
0.0
 11
-194.337674
 21
573.872925
 31
0.0
  0
LINE
  5
2BF
330
283
100
AcDbEntity
  8
0
  6
Continuous
 62
     0
370
     0
100
AcDbLine
 10
-194.337674
 20
573.872925
 30
0.0
 11
-193.793869
 21
573.872925
 31
0.0
  0
LINE
  5
2C0
330
283
100
AcDbEntity
  8
0
  6
Continuous
 62
     0
370
    30
100
AcDbLine
 10
-194.828611
 20
574.372925
 30
0.0
 11
-194.293869
 21
574.372925
 31
0.0
  0
LINE
  5
2C1
330
283
100
AcDbEntity
  8
0
  6
Continuous
 62
     0
370
    30
100
AcDbLine
 10
-253.293869
 20
574.372925
 30
0.0
 11
-194.828611
 21
574.372925
 31
0.0
  0
ARC
  5
2C2
330
283
100
AcDbEntity
  8
0
  6
Continuous
 62
     0
370
    30
100
AcDbCircle
 10
-253.29383
 20
568.872963
 30
0.0
 40
0.5000377434849728
100
AcDbArc
 50
180.004324
 51
269.987035
  0
ARC
  5
2C3
330
283
100
AcDbEntity
  8
0
  6
Continuous
 62
     0
370
    30
100
AcDbCircle
 10
-194.293923
 20
568.872963
 30
0.0
 40
0.5000381596801768
100
AcDbArc
 50
270.01842
 51
359.995629
  0
ARC
  5
2C4
330
283
100
AcDbEntity
  8
0
  6
Continuous
 62
     0
370
    30
100
AcDbCircle
 10
-253.29383
 20
573.872887
 30
0.0
 40
0.5000377434920403
100
AcDbArc
 50
90.012965
 51
179.995676
  0
ARC
  5
2C5
330
283
100
AcDbEntity
  8
0
  6
Continuous
 62
     0
370
    30
100
AcDbCircle
 10
-194.293923
 20
573.872887
 30
0.0
 40
0.5000381596751413
100
AcDbArc
 50
0.004371
 51
89.98158
  0
LINE
  5
2C6
330
283
100
AcDbEntity
  8
0
  6
Continuous
 62
     0
370
    30
100
AcDbLine
 10
-193.793869
 20
568.872925
 30
0.0
 11
-193.793869
 21
573.872925
 31
0.0
  0
LINE
  5
2C7
330
283
100
AcDbEntity
  8
0
  6
Continuous
 62
     0
370
    30
100
AcDbLine
 10
-253.793869
 20
568.872925
 30
0.0
 11
-253.793869
 21
573.872925
 31
0.0
  0
ARC
  5
2C8
330
283
100
AcDbEntity
  8
0
  6
Continuous
 62
     0
370
    30
100
AcDbCircle
 10
-250.79413
 20
579.373186
 30
0.0
 40
5.000261632247478
100
AcDbArc
 50
270.015605
 51
359.997003
  0
ARC
  5
2C9
330
283
100
AcDbEntity
  8
0
  6
Continuous
 62
     0
370
    30
100
AcDbCircle
 10
-196.793623
 20
579.373185
 30
0.0
 40
5.000260135973766
100
AcDbArc
 50
180.00298
 51
269.984378
  0
LINE
  5
2CA
330
283
100
AcDbEntity
  8
0
  6
Continuous
 62
     0
370
     0
100
AcDbLine
 10
-212.793869
 20
862.522919
 30
0.0
 11
-223.793869
 21
862.522919
 31
0.0
  0
LINE
  5
2CB
330
283
100
AcDbEntity
  8
0
  6
Continuous
 62
     0
370
     0
100
AcDbLine
 10
-223.793869
 20
862.522919
 30
0.0
 11
-234.793869
 21
862.522919
 31
0.0
  0
LINE
  5
2CC
330
283
100
AcDbEntity
  8
0
  6
Continuous
 62
     0
370
     0
100
AcDbLine
 10
-454.793869
 20
862.522919
 30
0.0
 11
-443.793869
 21
862.522919
 31
0.0
  0
LINE
  5
2CD
330
283
100
AcDbEntity
  8
0
  6
Continuous
 62
     0
370
     0
100
AcDbLine
 10
-443.793869
 20
862.522919
 30
0.0
 11
-432.793869
 21
862.522919
 31
0.0
  0
LINE
  5
2CE
330
283
100
AcDbEntity
  8
0
  6
Continuous
 62
     0
370
    30
100
AcDbLine
 10
-443.793869
 20
838.522919
 30
0.0
 11
-432.793869
 21
838.522919
 31
0.0
  0
LINE
  5
2CF
330
283
100
AcDbEntity
  8
0
  6
Continuous
 62
     0
370
    30
100
AcDbLine
 10
-454.793869
 20
838.522919
 30
0.0
 11
-454.793869
 21
862.522919
 31
0.0
  0
LINE
  5
2D0
330
283
100
AcDbEntity
  8
0
  6
Continuous
 62
     0
370
    30
100
AcDbLine
 10
-432.793869
 20
838.522919
 30
0.0
 11
-432.793869
 21
862.522919
 31
0.0
  0
ARC
  5
2D1
330
283
100
AcDbEntity
  8
0
  6
Continuous
 62
     0
370
    30
100
AcDbCircle
 10
-333.793869
 20
862.52248
 30
0.0
 40
121.000000000796
100
AcDbArc
 50
0.000208
 51
179.999792
  0
ARC
  5
2D2
330
283
100
AcDbEntity
  8
0
  6
Continuous
 62
     0
370
    30
100
AcDbCircle
 10
-333.793869
 20
862.52256
 30
0.0
 40
99.00000000065128
100
AcDbArc
 50
0.000208
 51
179.999792
  0
LINE
  5
2D3
330
283
100
AcDbEntity
  8
0
  6
Continuous
 62
     0
370
    30
100
AcDbLine
 10
-212.793869
 20
862.522919
 30
0.0
 11
-212.793869
 21
705.372919
 31
0.0
  0
LINE
  5
2D4
330
283
100
AcDbEntity
  8
0
  6
Continuous
 62
     0
370
    30
100
AcDbLine
 10
-234.793869
 20
862.522919
 30
0.0
 11
-234.793869
 21
705.372919
 31
0.0
  0
LINE
  5
2D5
330
283
100
AcDbEntity
  8
0
  6
Continuous
 62
     0
370
    30
100
AcDbLine
 10
-217.29388
 20
705.372919
 30
0.0
 11
-202.293869
 21
705.372919
 31
0.0
  0
LINE
  5
2D6
330
283
100
AcDbEntity
  8
0
  6
Continuous
 62
     0
370
    30
100
AcDbLine
 10
-244.622201
 20
705.372919
 30
0.0
 11
-230.29388
 21
705.372919
 31
0.0
  0
LINE
  5
2D7
330
283
100
AcDbEntity
  8
0
  6
Continuous
 62
     0
370
    30
100
AcDbLine
 10
-245.293869
 20
705.372919
 30
0.0
 11
-244.622201
 21
705.372919
 31
0.0
  0
LINE
  5
2D8
330
283
100
AcDbEntity
  8
0
  6
Continuous
 62
     0
370
     0
100
AcDbLine
 10
-217.29388
 20
704.872919
 30
0.0
 11
-201.793869
 21
704.872919
 31
0.0
  0
LINE
  5
2D9
330
283
100
AcDbEntity
  8
0
  6
Continuous
 62
     0
370
     0
100
AcDbLine
 10
-245.106581
 20
704.872919
 30
0.0
 11
-230.29388
 21
704.872919
 31
0.0
  0
LINE
  5
2DA
330
283
100
AcDbEntity
  8
0
  6
Continuous
 62
     0
370
     0
100
AcDbLine
 10
-245.793869
 20
704.872919
 30
0.0
 11
-245.106581
 21
704.872919
 31
0.0
  0
LINE
  5
2DB
330
283
100
AcDbEntity
  8
0
  6
Continuous
 62
     0
370
    30
100
AcDbLine
 10
-217.293878
 20
683.672919
 30
0.0
 11
-201.793869
 21
683.672919
 31
0.0
  0
LINE
  5
2DC
330
283
100
AcDbEntity
  8
0
  6
Continuous
 62
     0
370
    30
100
AcDbLine
 10
-245.106581
 20
683.672919
 30
0.0
 11
-230.293878
 21
683.672919
 31
0.0
  0
LINE
  5
2DD
330
283
100
AcDbEntity
  8
0
  6
Continuous
 62
     0
370
    30
100
AcDbLine
 10
-245.793869
 20
683.672919
 30
0.0
 11
-245.106581
 21
683.672919
 31
0.0
  0
LINE
  5
2DE
330
283
100
AcDbEntity
  8
0
  6
Continuous
 62
     0
370
    30
100
AcDbLine
 10
-245.493914
 20
683.372946
 30
0.0
 11
-245.793887
 21
683.672919
 31
0.0
  0
LINE
  5
2DF
330
283
100
AcDbEntity
  8
0
  6
Continuous
 62
     0
370
    30
100
AcDbLine
 10
-202.093898
 20
683.372944
 30
0.0
 11
-201.793924
 21
683.672919
 31
0.0
  0
LINE
  5
2E0
330
283
100
AcDbEntity
  8
0
  6
Continuous
 62
     0
370
    30
100
AcDbLine
 10
-201.793869
 20
683.672919
 30
0.0
 11
-201.793869
 21
704.872919
 31
0.0
  0
LINE
  5
2E1
330
283
100
AcDbEntity
  8
0
  6
Continuous
 62
     0
370
    30
100
AcDbLine
 10
-245.793869
 20
683.672919
 30
0.0
 11
-245.793869
 21
704.872919
 31
0.0
  0
ARC
  5
2E2
330
283
100
AcDbEntity
  8
0
  6
Continuous
 62
     0
370
    30
100
AcDbCircle
 10
-245.293849
 20
704.872881
 30
0.0
 40
0.5000377307416861
100
AcDbArc
 50
90.010454
 51
179.995677
  0
ARC
  5
2E3
330
283
100
AcDbEntity
  8
0
  6
Continuous
 62
     0
370
    30
100
AcDbCircle
 10
-202.293961
 20
704.872882
 30
0.0
 40
0.5000368502383084
100
AcDbArc
 50
0.004222
 51
89.989913
  0
LINE
  5
2E4
330
283
100
AcDbEntity
  8
0
  6
Continuous
 62
     0
370
    30
100
AcDbLine
 10
-443.793869
 20
838.522916
 30
0.0
 11
-454.793869
 21
838.522916
 31
0.0
  0
LINE
  5
2E5
330
283
100
AcDbEntity
  8
0
  6
Continuous
 62
     0
370
     0
100
AcDbLine
 10
-432.793869
 20
818.722916
 30
0.0
 11
-441.834375
 21
818.722916
 31
0.0
  0
LINE
  5
2E6
330
283
100
AcDbEntity
  8
0
  6
Continuous
 62
     0
370
     0
100
AcDbLine
 10
-441.834375
 20
818.722916
 30
0.0
 11
-454.793869
 21
818.722916
 31
0.0
  0
LINE
  5
2E7
330
283
100
AcDbEntity
  8
0
  6
Continuous
 62
     0
370
    30
100
AcDbLine
 10
-432.993869
 20
818.522916
 30
0.0
 11
-441.870002
 21
818.522916
 31
0.0
  0
LINE
  5
2E8
330
283
100
AcDbEntity
  8
0
  6
Continuous
 62
     0
370
    30
100
AcDbLine
 10
-441.870002
 20
818.522916
 30
0.0
 11
-454.593869
 21
818.522916
 31
0.0
  0
ARC
  5
2E9
330
283
100
AcDbEntity
  8
0
  6
Continuous
 62
     0
370
    30
100
AcDbCircle
 10
-454.593568
 20
818.723217
 30
0.0
 40
0.2003008867349108
100
AcDbArc
 50
180.086004
 51
269.913996
  0
ARC
  5
2EA
330
283
100
AcDbEntity
  8
0
  6
Continuous
 62
     0
370
    30
100
AcDbCircle
 10
-432.99417
 20
818.723217
 30
0.0
 40
0.2003008867681429
100
AcDbArc
 50
270.086004
 51
359.913996
  0
LINE
  5
2EB
330
283
100
AcDbEntity
  8
0
  6
Continuous
 62
     0
370
    30
100
AcDbLine
 10
-454.793869
 20
838.522916
 30
0.0
 11
-454.793869
 21
818.722916
 31
0.0
  0
LINE
  5
2EC
330
283
100
AcDbEntity
  8
0
  6
Continuous
 62
     0
370
    30
100
AcDbLine
 10
-432.793869
 20
838.522916
 30
0.0
 11
-432.793869
 21
818.722916
 31
0.0
  0
ENDBLK
  5
2EE
330
283
100
AcDbEntity
  8
0
100
AcDbBlockEnd
  0
ENDSEC
  0
SECTION
  2
ENTITIES
  0
INSERT
  5
FE
330
1F
100
AcDbEntity
  8
0
  6
Continuous
 62
     7
420
 16777215
370
     0
100
AcDbBlockReference
  2
a
 10
28.859177
 20
189.214294
 30
0.0
  0
INSERT
  5
17E
330
1F
100
AcDbEntity
  8
0
  6
Continuous
 62
     7
420
 16777215
370
     0
100
AcDbBlockReference
  2
b
 10
28.859177
 20
189.214294
 30
0.0
  0
INSERT
  5
1C7
330
1F
100
AcDbEntity
  8
0
  6
Continuous
 62
     7
420
 16777215
370
     0
100
AcDbBlockReference
  2
c
 10
280.751358
 20
189.214294
 30
0.0
  0
INSERT
  5
282
330
1F
100
AcDbEntity
  8
0
  6
Continuous
 62
     7
420
 16777215
370
     0
100
AcDbBlockReference
  2
d
 10
324.691635
 20
169.237076
 30
0.0
  0
INSERT
  5
2EF
330
1F
100
AcDbEntity
  8
0
  6
Continuous
 62
     7
420
 16777215
370
     0
100
AcDbBlockReference
  2
e
 10
-298.490234
 20
0.0
 30
0.0
  0
ENDSEC
  0
SECTION
  2
OBJECTS
  0
DICTIONARY
  5
C
330
0
100
AcDbDictionary
281
     1
  3
ACAD_GROUP
350
D
  3
ACAD_LAYOUT
350
1A
  3
ACAD_MATERIAL
350
3B
  3
ACAD_MLEADERSTYLE
350
2F1
  3
ACAD_MLINESTYLE
350
17
  3
ACAD_PLOTSETTINGS
350
19
  3
ACAD_PLOTSTYLENAME
350
E
  3
ACAD_TABLESTYLE
350
2F0
  3
ACAD_VISUALSTYLE
350
2A
  0
DICTIONARY
  5
D
102
{ACAD_REACTORS
330
C
102
}
330
C
100
AcDbDictionary
281
     1
  0
DICTIONARY
  5
1A
102
{ACAD_REACTORS
330
C
102
}
330
C
100
AcDbDictionary
281
     1
  3
Layout1
350
1E
  3
Layout2
350
26
  3
Model
350
22
  0
DICTIONARY
  5
3B
102
{ACAD_REACTORS
330
C
102
}
330
C
100
AcDbDictionary
281
     1
  3
ByBlock
350
3D
  3
ByLayer
350
3C
  3
Global
350
3E
  0
DICTIONARY
  5
2F1
102
{ACAD_REACTORS
330
C
102
}
330
C
100
AcDbDictionary
281
     1
  0
DICTIONARY
  5
17
102
{ACAD_REACTORS
330
C
102
}
330
C
100
AcDbDictionary
281
     1
  3
Standard
350
18
  0
DICTIONARY
  5
19
102
{ACAD_REACTORS
330
C
102
}
330
C
100
AcDbDictionary
281
     1
  0
ACDBDICTIONARYWDFLT
  5
E
102
{ACAD_REACTORS
330
C
102
}
330
C
100
AcDbDictionary
281
     1
  3
Normal
350
F
100
AcDbDictionaryWithDefault
340
F
  0
DICTIONARY
  5
2F0
102
{ACAD_REACTORS
330
C
102
}
330
C
100
AcDbDictionary
281
     1
  0
DICTIONARY
  5
2A
102
{ACAD_REACTORS
330
C
102
}
330
C
100
AcDbDictionary
281
     1
  3
2dWireframe
350
2F
  3
3D Hidden
350
31
  3
3dWireframe
350
30
  3
Basic
350
32
  3
Brighten
350
36
  3
ColorChange
350
3A
  3
Conceptual
350
34
  3
Dim
350
35
  3
Facepattern
350
39
  3
Flat
350
2B
  3
FlatWithEdges
350
2C
  3
Gouraud
350
2D
  3
GouraudWithEdges
350
2E
  3
Linepattern
350
38
  3
Realistic
350
33
  3
Thicken
350
37
  0
LAYOUT
  5
1E
102
{ACAD_REACTORS
330
1A
102
}
330
1A
100
AcDbPlotSettings
  1

  2
none_device
  4

  6

 40
0.0
 41
0.0
 42
0.0
 43
0.0
 44
0.0
 45
0.0
 46
0.0
 47
0.0
 48
0.0
 49
0.0
140
0.0
141
0.0
142
1.0
143
1.0
 70
   688
 72
     0
 73
     0
 74
     5
  7

 75
    16
 76
     0
 77
     2
 78
   300
147
1.0
148
0.0
149
0.0
100
AcDbLayout
  1
Layout1
 70
     1
 71
     1
 10
0.0
 20
0.0
 11
420.0
 21
297.0
 12
0.0
 22
0.0
 32
0.0
 14
1.000000E+20
 24
1.000000E+20
 34
1.000000E+20
 15
-1.000000E+20
 25
-1.000000E+20
 35
-1.000000E+20
146
0.0
 13
0.0
 23
0.0
 33
0.0
 16
1.0
 26
0.0
 36
0.0
 17
0.0
 27
1.0
 37
0.0
 76
     0
330
1B
  0
LAYOUT
  5
26
102
{ACAD_REACTORS
330
1A
102
}
330
1A
100
AcDbPlotSettings
  1

  2
none_device
  4

  6

 40
0.0
 41
0.0
 42
0.0
 43
0.0
 44
0.0
 45
0.0
 46
0.0
 47
0.0
 48
0.0
 49
0.0
140
0.0
141
0.0
142
1.0
143
1.0
 70
   688
 72
     0
 73
     0
 74
     5
  7

 75
    16
 76
     0
 77
     2
 78
   300
147
1.0
148
0.0
149
0.0
100
AcDbLayout
  1
Layout2
 70
     1
 71
     2
 10
0.0
 20
0.0
 11
0.0
 21
0.0
 12
0.0
 22
0.0
 32
0.0
 14
0.0
 24
0.0
 34
0.0
 15
0.0
 25
0.0
 35
0.0
146
0.0
 13
0.0
 23
0.0
 33
0.0
 16
1.0
 26
0.0
 36
0.0
 17
0.0
 27
1.0
 37
0.0
 76
     0
330
23
  0
LAYOUT
  5
22
102
{ACAD_REACTORS
330
1A
102
}
330
1A
100
AcDbPlotSettings
  1

  2
none_device
  4

  6

 40
0.0
 41
0.0
 42
0.0
 43
0.0
 44
0.0
 45
0.0
 46
0.0
 47
0.0
 48
0.0
 49
0.0
140
0.0
141
0.0
142
1.0
143
1.0
 70
  1712
 72
     0
 73
     0
 74
     0
  7

 75
     0
 76
     0
 77
     2
 78
   300
147
1.0
148
0.0
149
0.0
100
AcDbLayout
  1
Model
 70
     1
 71
     0
 10
0.0
 20
0.0
 11
420.0
 21
297.0
 12
0.0
 22
0.0
 32
0.0
 14
1.000000E+20
 24
1.000000E+20
 34
1.000000E+20
 15
-1.000000E+20
 25
-1.000000E+20
 35
-1.000000E+20
146
0.0
 13
0.0
 23
0.0
 33
0.0
 16
1.0
 26
0.0
 36
0.0
 17
0.0
 27
1.0
 37
0.0
 76
     0
330
1F
331
29
  0
MATERIAL
  5
3D
102
{ACAD_REACTORS
330
3B
102
}
330
3B
100
AcDbMaterial
  1
ByBlock
 72
     1
 94
      127
  0
MATERIAL
  5
3C
102
{ACAD_REACTORS
330
3B
102
}
330
3B
100
AcDbMaterial
  1
ByLayer
 72
     1
 94
      127
  0
MATERIAL
  5
3E
102
{ACAD_REACTORS
330
3B
102
}
330
3B
100
AcDbMaterial
  1
Global
 72
     1
 94
      127
  0
MLINESTYLE
  5
18
102
{ACAD_REACTORS
330
17
102
}
330
17
100
AcDbMlineStyle
  2
Standard
 70
     0
  3

 62
   256
 51
90.0
 52
90.0
 71
     2
 49
0.5
 62
   256
  6
BYLAYER
 49
-0.5
 62
   256
  6
BYLAYER
  0
ACDBPLACEHOLDER
  5
F
102
{ACAD_REACTORS
330
E
102
}
330
E
  0
VISUALSTYLE
  5
2F
102
{ACAD_REACTORS
330
2A
102
}
330
2A
100
AcDbVisualStyle
  2
2dWireframe
 70
     4
177
     2
291
     0
 71
     0
176
     1
 72
     2
176
     1
 73
     0
176
     1
 90
        0
176
     1
 40
-0.6
176
     1
 41
-30.0
176
     1
 62
     5
 63
     7
421
 16777215
176
     1
 74
     1
176
     1
 91
        4
176
     1
 64
     7
176
     1
 65
   257
176
     1
 75
     1
176
     1
175
     1
176
     1
 42
1.0
176
     1
 92
        0
176
     1
 66
   257
176
     1
 43
1.0
176
     1
 76
     1
176
     1
 77
     6
176
     1
 78
     2
176
     1
 67
     7
176
     1
 79
     5
176
     1
170
     0
176
     1
171
     0
176
     1
290
     0
176
     1
 93
        1
176
     1
 44
0.0
176
     1
173
     0
176
     1
  0
VISUALSTYLE
  5
31
102
{ACAD_REACTORS
330
2A
102
}
330
2A
100
AcDbVisualStyle
  2
3D Hidden
 70
     6
177
     2
291
     0
 71
     1
176
     1
 72
     2
176
     1
 73
     2
176
     1
 90
        0
176
     1
 40
-0.6
176
     1
 41
-30.0
176
     1
 62
     5
 63
     7
421
 16777215
176
     1
 74
     2
176
     1
 91
        2
176
     1
 64
     7
176
     1
 65
   257
176
     1
 75
     2
176
     1
175
     1
176
     1
 42
40.0
176
     1
 92
        0
176
     1
 66
   257
176
     1
 43
1.0
176
     1
 76
     1
176
     1
 77
     6
176
     1
 78
     2
176
     1
 67
     7
176
     1
 79
     3
176
     1
170
     0
176
     1
171
     0
176
     1
290
     0
176
     1
 93
        1
176
     1
 44
0.0
176
     1
173
     0
176
     1
  0
VISUALSTYLE
  5
30
102
{ACAD_REACTORS
330
2A
102
}
330
2A
100
AcDbVisualStyle
  2
3dWireframe
 70
     5
177
     2
291
     0
 71
     0
176
     1
 72
     2
176
     1
 73
     0
176
     1
 90
        0
176
     1
 40
-0.6
176
     1
 41
-30.0
176
     1
 62
     5
 63
     7
421
 16777215
176
     1
 74
     1
176
     1
 91
        4
176
     1
 64
     7
176
     1
 65
   257
176
     1
 75
     1
176
     1
175
     1
176
     1
 42
1.0
176
     1
 92
        0
176
     1
 66
   257
176
     1
 43
1.0
176
     1
 76
     1
176
     1
 77
     6
176
     1
 78
     2
176
     1
 67
     7
176
     1
 79
     5
176
     1
170
     0
176
     1
171
     0
176
     1
290
     0
176
     1
 93
        1
176
     1
 44
0.0
176
     1
173
     0
176
     1
  0
VISUALSTYLE
  5
32
102
{ACAD_REACTORS
330
2A
102
}
330
2A
100
AcDbVisualStyle
  2
Basic
 70
     7
177
     2
291
     1
 71
     1
176
     1
 72
     0
176
     1
 73
     1
176
     1
 90
        0
176
     1
 40
-0.6
176
     1
 41
-30.0
176
     1
 62
     5
 63
     7
421
 16777215
176
     1
 74
     0
176
     1
 91
        4
176
     1
 64
     7
176
     1
 65
   257
176
     1
 75
     1
176
     1
175
     1
176
     1
 42
1.0
176
     1
 92
        8
176
     1
 66
     7
176
     1
 43
1.0
176
     1
 76
     1
176
     1
 77
     6
176
     1
 78
     2
176
     1
 67
     7
176
     1
 79
     5
176
     1
170
     0
176
     1
171
     0
176
     1
290
     0
176
     1
 93
        1
176
     1
 44
0.0
176
     1
173
     0
176
     1
  0
VISUALSTYLE
  5
36
102
{ACAD_REACTORS
330
2A
102
}
330
2A
100
AcDbVisualStyle
  2
Brighten
 70
    12
177
     2
291
     1
 71
     2
176
     1
 72
     2
176
     1
 73
     0
176
     1
 90
        0
176
     1
 40
-0.6
176
     1
 41
-30.0
176
     1
 62
     5
 63
     7
421
 16777215
176
     1
 74
     1
176
     1
 91
        4
176
     1
 64
     7
176
     1
 65
   257
176
     1
 75
     1
176
     1
175
     1
176
     1
 42
1.0
176
     1
 92
        8
176
     1
 66
     7
176
     1
 43
1.0
176
     1
 76
     1
176
     1
 77
     6
176
     1
 78
     2
176
     1
 67
     7
176
     1
 79
     5
176
     1
170
     0
176
     1
171
     0
176
     1
290
     0
176
     1
 93
        1
176
     1
 44
50.0
176
     1
173
     0
176
     1
  0
VISUALSTYLE
  5
3A
102
{ACAD_REACTORS
330
2A
102
}
330
2A
100
AcDbVisualStyle
  2
ColorChange
 70
    16
177
     2
291
     1
 71
     2
176
     1
 72
     2
176
     1
 73
     3
176
     1
 90
        0
176
     1
 40
-0.6
176
     1
 41
-30.0
176
     1
 62
     5
 63
     8
421
  8421504
176
     1
 74
     1
176
     1
 91
        4
176
     1
 64
     7
176
     1
 65
   257
176
     1
 75
     1
176
     1
175
     1
176
     1
 42
1.0
176
     1
 92
        8
176
     1
 66
     8
424
  8421504
176
     1
 43
1.0
176
     1
 76
     1
176
     1
 77
     6
176
     1
 78
     2
176
     1
 67
     7
176
     1
 79
     5
176
     1
170
     0
176
     1
171
     0
176
     1
290
     0
176
     1
 93
        1
176
     1
 44
0.0
176
     1
173
     0
176
     1
  0
VISUALSTYLE
  5
34
102
{ACAD_REACTORS
330
2A
102
}
330
2A
100
AcDbVisualStyle
  2
Conceptual
 70
     9
177
     2
291
     0
 71
     3
176
     1
 72
     2
176
     1
 73
     0
176
     1
 90
        0
176
     1
 40
-0.6
176
     1
 41
-30.0
176
     1
 62
     5
 63
     7
421
 16777215
176
     1
 74
     2
176
     1
 91
        2
176
     1
 64
     7
176
     1
 65
   257
176
     1
 75
     1
176
     1
175
     1
176
     1
 42
40.0
176
     1
 92
        8
176
     1
 66
     7
176
     1
 43
1.0
176
     1
 76
     1
176
     1
 77
     6
176
     1
 78
     2
176
     1
 67
     7
176
     1
 79
     3
176
     1
170
     0
176
     1
171
     0
176
     1
290
     0
176
     1
 93
        1
176
     1
 44
0.0
176
     1
173
     0
176
     1
  0
VISUALSTYLE
  5
35
102
{ACAD_REACTORS
330
2A
102
}
330
2A
100
AcDbVisualStyle
  2
Dim
 70
    11
177
     2
291
     1
 71
     2
176
     1
 72
     2
176
     1
 73
     0
176
     1
 90
        0
176
     1
 40
-0.6
176
     1
 41
-30.0
176
     1
 62
     5
 63
     7
421
 16777215
176
     1
 74
     1
176
     1
 91
        4
176
     1
 64
     7
176
     1
 65
   257
176
     1
 75
     1
176
     1
175
     1
176
     1
 42
1.0
176
     1
 92
        8
176
     1
 66
     7
176
     1
 43
1.0
176
     1
 76
     1
176
     1
 77
     6
176
     1
 78
     2
176
     1
 67
     7
176
     1
 79
     5
176
     1
170
     0
176
     1
171
     0
176
     1
290
     0
176
     1
 93
        1
176
     1
 44
-50.0
176
     1
173
     0
176
     1
  0
VISUALSTYLE
  5
39
102
{ACAD_REACTORS
330
2A
102
}
330
2A
100
AcDbVisualStyle
  2
Facepattern
 70
    15
177
     2
291
     1
 71
     2
176
     1
 72
     2
176
     1
 73
     0
176
     1
 90
        0
176
     1
 40
-0.6
176
     1
 41
-30.0
176
     1
 62
     5
 63
     7
421
 16777215
176
     1
 74
     1
176
     1
 91
        4
176
     1
 64
     7
176
     1
 65
   257
176
     1
 75
     1
176
     1
175
     1
176
     1
 42
1.0
176
     1
 92
        8
176
     1
 66
     7
176
     1
 43
1.0
176
     1
 76
     1
176
     1
 77
     6
176
     1
 78
     2
176
     1
 67
     7
176
     1
 79
     5
176
     1
170
     0
176
     1
171
     0
176
     1
290
     0
176
     1
 93
        1
176
     1
 44
0.0
176
     1
173
     0
176
     1
  0
VISUALSTYLE
  5
2B
102
{ACAD_REACTORS
330
2A
102
}
330
2A
100
AcDbVisualStyle
  2
Flat
 70
     0
177
     2
291
     1
 71
     2
176
     1
 72
     1
176
     1
 73
     1
176
     1
 90
        2
176
     1
 40
-0.6
176
     1
 41
30.0
176
     1
 62
     5
 63
     7
421
 16777215
176
     1
 74
     0
176
     1
 91
        4
176
     1
 64
     7
176
     1
 65
   257
176
     1
 75
     1
176
     1
175
     1
176
     1
 42
1.0
176
     1
 92
        8
176
     1
 66
     7
176
     1
 43
1.0
176
     1
 76
     1
176
     1
 77
     6
176
     1
 78
     2
176
     1
 67
     7
176
     1
 79
     5
176
     1
170
     0
176
     1
171
     0
176
     1
290
     0
176
     1
 93
       13
176
     1
 44
0.0
176
     1
173
     0
176
     1
  0
VISUALSTYLE
  5
2C
102
{ACAD_REACTORS
330
2A
102
}
330
2A
100
AcDbVisualStyle
  2
FlatWithEdges
 70
     1
177
     2
291
     1
 71
     2
176
     1
 72
     1
176
     1
 73
     1
176
     1
 90
        2
176
     1
 40
-0.6
176
     1
 41
30.0
176
     1
 62
     5
 63
     7
421
 16777215
176
     1
 74
     1
176
     1
 91
        4
176
     1
 64
     7
176
     1
 65
   257
176
     1
 75
     1
176
     1
175
     1
176
     1
 42
1.0
176
     1
 92
        0
176
     1
 66
   257
176
     1
 43
1.0
176
     1
 76
     1
176
     1
 77
     6
176
     1
 78
     2
176
     1
 67
     7
176
     1
 79
     5
176
     1
170
     0
176
     1
171
     0
176
     1
290
     0
176
     1
 93
       13
176
     1
 44
0.0
176
     1
173
     0
176
     1
  0
VISUALSTYLE
  5
2D
102
{ACAD_REACTORS
330
2A
102
}
330
2A
100
AcDbVisualStyle
  2
Gouraud
 70
     2
177
     2
291
     1
 71
     2
176
     1
 72
     2
176
     1
 73
     1
176
     1
 90
        2
176
     1
 40
-0.6
176
     1
 41
30.0
176
     1
 62
     5
 63
     7
421
 16777215
176
     1
 74
     0
176
     1
 91
        4
176
     1
 64
     7
176
     1
 65
   257
176
     1
 75
     1
176
     1
175
     1
176
     1
 42
1.0
176
     1
 92
        0
176
     1
 66
     7
176
     1
 43
1.0
176
     1
 76
     1
176
     1
 77
     6
176
     1
 78
     2
176
     1
 67
     7
176
     1
 79
     5
176
     1
170
     0
176
     1
171
     0
176
     1
290
     0
176
     1
 93
       13
176
     1
 44
0.0
176
     1
173
     0
176
     1
  0
VISUALSTYLE
  5
2E
102
{ACAD_REACTORS
330
2A
102
}
330
2A
100
AcDbVisualStyle
  2
GouraudWithEdges
 70
     3
177
     2
291
     1
 71
     2
176
     1
 72
     2
176
     1
 73
     1
176
     1
 90
        2
176
     1
 40
-0.6
176
     1
 41
30.0
176
     1
 62
     5
 63
     7
421
 16777215
176
     1
 74
     1
176
     1
 91
        4
176
     1
 64
     7
176
     1
 65
   257
176
     1
 75
     1
176
     1
175
     1
176
     1
 42
1.0
176
     1
 92
        0
176
     1
 66
   257
176
     1
 43
1.0
176
     1
 76
     1
176
     1
 77
     6
176
     1
 78
     2
176
     1
 67
     7
176
     1
 79
     5
176
     1
170
     0
176
     1
171
     0
176
     1
290
     0
176
     1
 93
       13
176
     1
 44
0.0
176
     1
173
     0
176
     1
  0
VISUALSTYLE
  5
38
102
{ACAD_REACTORS
330
2A
102
}
330
2A
100
AcDbVisualStyle
  2
Linepattern
 70
    14
177
     2
291
     1
 71
     2
176
     1
 72
     2
176
     1
 73
     0
176
     1
 90
        0
176
     1
 40
-0.6
176
     1
 41
-30.0
176
     1
 62
     5
 63
     7
421
 16777215
176
     1
 74
     1
176
     1
 91
        4
176
     1
 64
     7
176
     1
 65
   257
176
     1
 75
     7
176
     1
175
     7
176
     1
 42
1.0
176
     1
 92
        8
176
     1
 66
     7
176
     1
 43
1.0
176
     1
 76
     1
176
     1
 77
     6
176
     1
 78
     2
176
     1
 67
     7
176
     1
 79
     5
176
     1
170
     0
176
     1
171
     0
176
     1
290
     0
176
     1
 93
        1
176
     1
 44
0.0
176
     1
173
     0
176
     1
  0
VISUALSTYLE
  5
33
102
{ACAD_REACTORS
330
2A
102
}
330
2A
100
AcDbVisualStyle
  2
Realistic
 70
     8
177
     2
291
     0
 71
     2
176
     1
 72
     2
176
     1
 73
     0
176
     1
 90
        0
176
     1
 40
-0.6
176
     1
 41
-30.0
176
     1
 62
     5
 63
     7
421
 16777215
176
     1
 74
     1
176
     1
 91
        0
176
     1
 64
     7
176
     1
 65
   257
176
     1
 75
     1
176
     1
175
     1
176
     1
 42
1.0
176
     1
 92
        8
176
     1
 66
     8
424
  7895160
176
     1
 43
1.0
176
     1
 76
     1
176
     1
 77
     6
176
     1
 78
     2
176
     1
 67
     7
176
     1
 79
     5
176
     1
170
     0
176
     1
171
     0
176
     1
290
     0
176
     1
 93
       13
176
     1
 44
0.0
176
     1
173
     0
176
     1
  0
VISUALSTYLE
  5
37
102
{ACAD_REACTORS
330
2A
102
}
330
2A
100
AcDbVisualStyle
  2
Thicken
 70
    13
177
     2
291
     1
 71
     2
176
     1
 72
     2
176
     1
 73
     0
176
     1
 90
        0
176
     1
 40
-0.6
176
     1
 41
-30.0
176
     1
 62
     5
 63
     7
421
 16777215
176
     1
 74
     1
176
     1
 91
        4
176
     1
 64
     7
176
     1
 65
   257
176
     1
 75
     1
176
     1
175
     1
176
     1
 42
1.0
176
     1
 92
       12
176
     1
 66
     7
176
     1
 43
1.0
176
     1
 76
     1
176
     1
 77
     6
176
     1
 78
     2
176
     1
 67
     7
176
     1
 79
     5
176
     1
170
     0
176
     1
171
     0
176
     1
290
     0
176
     1
 93
        1
176
     1
 44
0.0
176
     1
173
     0
176
     1
  0
ENDSEC
  0
EOF
