  0
SECTION
  2
HEADER
  9
$ACADVER
  1
AC1015
  9
$ACADMAINTVER
 70
     6
  9
$DWGCODEPAGE
  3
ANSI_1252
  9
$INSBASE
 10
0.0
 20
0.0
 30
0.0
  9
$EXTMIN
 10
6.701966
 20
122.896019
 30
0.0
  9
$EXTMAX
 10
584.014282
 20
512.873535
 30
0.0
  9
$LIMMIN
 10
6.701966
 20
122.896019
  9
$LIMMAX
 10
584.014282
 20
512.873535
  9
$ORTHOMODE
 70
     0
  9
$REGENMODE
 70
     1
  9
$FILLMODE
 70
     1
  9
$QTEXTMODE
 70
     0
  9
$MIRRTEXT
 70
     1
  9
$LTSCALE
 40
1.0
  9
$ATTMODE
 70
     1
  9
$TEXTSIZE
 40
2.5
  9
$TRACEWID
 40
1.0
  9
$TEXTSTYLE
  7
Standard
  9
$CLAYER
  8
0
  9
$CELTYPE
  6
ByLayer
  9
$CECOLOR
 62
   256
  9
$CELTSCALE
 40
1.0
  9
$DISPSILH
 70
     0
  9
$DIMSCALE
 40
1.0
  9
$DIMASZ
 40
2.5
  9
$DIMEXO
 40
0.625
  9
$DIMDLI
 40
3.75
  9
$DIMRND
 40
0.0
  9
$DIMDLE
 40
0.0
  9
$DIMEXE
 40
1.25
  9
$DIMTP
 40
0.0
  9
$DIMTM
 40
0.0
  9
$DIMTXT
 40
2.5
  9
$DIMCEN
 40
2.5
  9
$DIMTSZ
 40
0.0
  9
$DIMTOL
 70
     0
  9
$DIMLIM
 70
     0
  9
$DIMTIH
 70
     0
  9
$DIMTOH
 70
     0
  9
$DIMSE1
 70
     0
  9
$DIMSE2
 70
     0
  9
$DIMTAD
 70
     1
  9
$DIMZIN
 70
     8
  9
$DIMBLK
  1

  9
$DIMASO
 70
     1
  9
$DIMSHO
 70
     1
  9
$DIMPOST
  1

  9
$DIMAPOST
  1

  9
$DIMALT
 70
     0
  9
$DIMALTD
 70
     3
  9
$DIMALTF
 40
0.03937
  9
$DIMLFAC
 40
1.0
  9
$DIMTOFL
 70
     1
  9
$DIMTVP
 40
0.0
  9
$DIMTIX
 70
     0
  9
$DIMSOXD
 70
     0
  9
$DIMSAH
 70
     0
  9
$DIMBLK1
  1

  9
$DIMBLK2
  1

  9
$DIMSTYLE
  2
ISO-25
  9
$DIMCLRD
 70
     0
  9
$DIMCLRE
 70
     0
  9
$DIMCLRT
 70
     0
  9
$DIMTFAC
 40
1.0
  9
$DIMGAP
 40
0.625
  9
$DIMJUST
 70
     0
  9
$DIMSD1
 70
     0
  9
$DIMSD2
 70
     0
  9
$DIMTOLJ
 70
     0
  9
$DIMTZIN
 70
     8
  9
$DIMALTZ
 70
     0
  9
$DIMALTTZ
 70
     0
  9
$DIMUPT
 70
     0
  9
$DIMDEC
 70
     2
  9
$DIMTDEC
 70
     2
  9
$DIMALTU
 70
     2
  9
$DIMALTTD
 70
     3
  9
$DIMTXSTY
  7
Standard
  9
$DIMAUNIT
 70
     0
  9
$DIMADEC
 70
     0
  9
$DIMALTRND
 40
0.0
  9
$DIMAZIN
 70
     0
  9
$DIMDSEP
 70
    44
  9
$DIMATFIT
 70
     3
  9
$DIMFRAC
 70
     0
  9
$DIMLDRBLK
  1

  9
$DIMLUNIT
 70
     2
  9
$DIMLWD
 70
    -2
  9
$DIMLWE
 70
    -2
  9
$DIMTMOVE
 70
     0
  9
$LUNITS
 70
     2
  9
$LUPREC
 70
     4
  9
$SKETCHINC
 40
1.0
  9
$FILLETRAD
 40
10.0
  9
$AUNITS
 70
     0
  9
$AUPREC
 70
     0
  9
$MENU
  1
.
  9
$ELEVATION
 40
0.0
  9
$PELEVATION
 40
0.0
  9
$THICKNESS
 40
0.0
  9
$LIMCHECK
 70
     0
  9
$CHAMFERA
 40
10.0
  9
$CHAMFERB
 40
10.0
  9
$CHAMFERC
 40
20.0
  9
$CHAMFERD
 40
0.0
  9
$SKPOLY
 70
     0
  9
$TDCREATE
 40
2455572.505993171
  9
$TDUCREATE
 40
2455572.464326505
  9
$TDUPDATE
 40
2455572.505993183
  9
$TDUUPDATE
 40
2455572.464326516
  9
$TDINDWG
 40
0.0000000116
  9
$TDUSRTIMER
 40
0.0000000116
  9
$USRTIMER
 70
     1
  9
$ANGBASE
 50
0.0
  9
$ANGDIR
 70
     0
  9
$PDMODE
 70
     0
  9
$PDSIZE
 40
0.0
  9
$PLINEWID
 40
0.0
  9
$SPLFRAME
 70
     0
  9
$SPLINETYPE
 70
     6
  9
$SPLINESEGS
 70
     8
  9
$HANDSEED
  5
165
  9
$SURFTAB1
 70
     6
  9
$SURFTAB2
 70
     6
  9
$SURFTYPE
 70
     6
  9
$SURFU
 70
     6
  9
$SURFV
 70
     6
  9
$UCSBASE
  2

  9
$UCSNAME
  2

  9
$UCSORG
 10
0.0
 20
0.0
 30
0.0
  9
$UCSXDIR
 10
1.0
 20
0.0
 30
0.0
  9
$UCSYDIR
 10
0.0
 20
1.0
 30
0.0
  9
$UCSORTHOREF
  2

  9
$UCSORTHOVIEW
 70
     0
  9
$UCSORGTOP
 10
0.0
 20
0.0
 30
0.0
  9
$UCSORGBOTTOM
 10
0.0
 20
0.0
 30
0.0
  9
$UCSORGLEFT
 10
0.0
 20
0.0
 30
0.0
  9
$UCSORGRIGHT
 10
0.0
 20
0.0
 30
0.0
  9
$UCSORGFRONT
 10
0.0
 20
0.0
 30
0.0
  9
$UCSORGBACK
 10
0.0
 20
0.0
 30
0.0
  9
$PUCSBASE
  2

  9
$PUCSNAME
  2

  9
$PUCSORG
 10
0.0
 20
0.0
 30
0.0
  9
$PUCSXDIR
 10
1.0
 20
0.0
 30
0.0
  9
$PUCSYDIR
 10
0.0
 20
1.0
 30
0.0
  9
$PUCSORTHOREF
  2

  9
$PUCSORTHOVIEW
 70
     0
  9
$PUCSORGTOP
 10
0.0
 20
0.0
 30
0.0
  9
$PUCSORGBOTTOM
 10
0.0
 20
0.0
 30
0.0
  9
$PUCSORGLEFT
 10
0.0
 20
0.0
 30
0.0
  9
$PUCSORGRIGHT
 10
0.0
 20
0.0
 30
0.0
  9
$PUCSORGFRONT
 10
0.0
 20
0.0
 30
0.0
  9
$PUCSORGBACK
 10
0.0
 20
0.0
 30
0.0
  9
$USERI1
 70
     0
  9
$USERI2
 70
     0
  9
$USERI3
 70
     0
  9
$USERI4
 70
     0
  9
$USERI5
 70
     0
  9
$USERR1
 40
0.0
  9
$USERR2
 40
0.0
  9
$USERR3
 40
0.0
  9
$USERR4
 40
0.0
  9
$USERR5
 40
0.0
  9
$WORLDVIEW
 70
     1
  9
$SHADEDGE
 70
     3
  9
$SHADEDIF
 70
    70
  9
$TILEMODE
 70
     1
  9
$MAXACTVP
 70
    64
  9
$PINSBASE
 10
0.0
 20
0.0
 30
0.0
  9
$PLIMCHECK
 70
     0
  9
$PEXTMIN
 10
1.000000E+20
 20
1.000000E+20
 30
1.000000E+20
  9
$PEXTMAX
 10
-1.000000E+20
 20
-1.000000E+20
 30
-1.000000E+20
  9
$PLIMMIN
 10
0.0
 20
0.0
  9
$PLIMMAX
 10
420.0
 20
297.0
  9
$UNITMODE
 70
     0
  9
$VISRETAIN
 70
     1
  9
$PLINEGEN
 70
     0
  9
$PSLTSCALE
 70
     1
  9
$TREEDEPTH
 70
  3020
  9
$CMLSTYLE
  2
Standard
  9
$CMLJUST
 70
     0
  9
$CMLSCALE
 40
20.0
  9
$PROXYGRAPHICS
 70
     1
  9
$MEASUREMENT
 70
     1
  9
$CELWEIGHT
370
    -1
  9
$ENDCAPS
280
     0
  9
$JOINSTYLE
280
     0
  9
$LWDISPLAY
290
     0
  9
$INSUNITS
 70
     4
  9
$HYPERLINKBASE
  1

  9
$STYLESHEET
  1

  9
$XEDIT
290
     1
  9
$CEPSNTYPE
380
     0
  9
$PSTYLEMODE
290
     1
  9
$FINGERPRINTGUID
  2
{A492C6D4-6E78-4FA6-B1A1-44A0004DCBF7}
  9
$VERSIONGUID
  2
{FAEB1C32-E019-11D5-929B-00C0DF256EC4}
  9
$EXTNAMES
290
     1
  9
$PSVPSCALE
 40
0.0
  9
$OLESTARTUP
290
     0
  0
ENDSEC
  0
SECTION
  2
CLASSES
  0
CLASS
  1
ACDBDICTIONARYWDFLT
  2
AcDbDictionaryWithDefault
  3
ObjectDBX Classes
 90
        0
280
     0
281
     0
  0
CLASS
  1
VISUALSTYLE
  2
AcDbVisualStyle
  3
ObjectDBX Classes
 90
     4095
280
     0
281
     0
  0
CLASS
  1
DICTIONARYVAR
  2
AcDbDictionaryVar
  3
ObjectDBX Classes
 90
        0
280
     0
281
     0
  0
CLASS
  1
ACDBPLACEHOLDER
  2
AcDbPlaceHolder
  3
ObjectDBX Classes
 90
        0
280
     0
281
     0
  0
CLASS
  1
LAYOUT
  2
AcDbLayout
  3
ObjectDBX Classes
 90
        0
280
     0
281
     0
  0
ENDSEC
  0
SECTION
  2
TABLES
  0
TABLE
  2
VPORT
  5
8
330
0
100
AcDbSymbolTable
 70
     1
  0
VPORT
  5
29
330
8
100
AcDbSymbolTableRecord
100
AcDbViewportTableRecord
  2
*Active
 70
     0
 10
0.0
 20
0.0
 11
1.0
 21
1.0
 12
344.186916
 22
148.5
 13
0.0
 23
0.0
 14
10.0
 24
10.0
 15
10.0
 25
10.0
 16
0.0
 26
0.0
 36
1.0
 17
0.0
 27
0.0
 37
0.0
 40
297.0
 41
1.972973
 42
50.0
 43
0.0
 44
0.0
 50
0.0
 51
0.0
 71
     0
 72
   100
 73
     1
 74
     3
 75
     0
 76
     0
 77
     0
 78
     0
281
     0
 65
     1
110
0.0
120
0.0
130
0.0
111
1.0
121
0.0
131
0.0
112
0.0
122
1.0
132
0.0
 79
     0
146
0.0
  0
ENDTAB
  0
TABLE
  2
LTYPE
  5
5
330
0
100
AcDbSymbolTable
 70
     1
  0
LTYPE
  5
14
330
5
100
AcDbSymbolTableRecord
100
AcDbLinetypeTableRecord
  2
ByBlock
 70
     0
  3

 72
    65
 73
     0
 40
0.0
  0
LTYPE
  5
15
330
5
100
AcDbSymbolTableRecord
100
AcDbLinetypeTableRecord
  2
ByLayer
 70
     0
  3

 72
    65
 73
     0
 40
0.0
  0
LTYPE
  5
16
330
5
100
AcDbSymbolTableRecord
100
AcDbLinetypeTableRecord
  2
Continuous
 70
     0
  3
Solid line
 72
    65
 73
     0
 40
0.0
  0
ENDTAB
  0
TABLE
  2
LAYER
  5
2
330
0
100
AcDbSymbolTable
 70
     1
  0
LAYER
  5
10
330
2
100
AcDbSymbolTableRecord
100
AcDbLayerTableRecord
  2
0
 70
     0
 62
   106
  6
Continuous
370
     0
390
F
  0
ENDTAB
  0
TABLE
  2
STYLE
  5
3
330
0
100
AcDbSymbolTable
 70
     4
  0
STYLE
  5
11
330
3
100
AcDbSymbolTableRecord
100
AcDbTextStyleTableRecord
  2
Standard
 70
     0
 40
0.0
 41
1.0
 50
0.0
 71
     0
 42
2.5
  3
txt
  4

  0
STYLE
  5
3B
330
3
100
AcDbSymbolTableRecord
100
AcDbTextStyleTableRecord
  2
Default
 70
     0
 40
0.0
 41
1.0
 50
0.0
 71
     0
 42
0.2
  3

  4

1001
ACAD
1000
txt
1071
        0
  0
STYLE
  5
3C
330
3
100
AcDbSymbolTableRecord
100
AcDbTextStyleTableRecord
  2
ISO
 70
     0
 40
0.0
 41
1.0
 50
0.0
 71
     0
 42
0.2
  3

  4

1001
ACAD
1000
txt
1071
        0
  0
STYLE
  5
3D
330
3
100
AcDbSymbolTableRecord
100
AcDbTextStyleTableRecord
  2
GIANLU
 70
     0
 40
0.0
 41
1.0
 50
0.0
 71
     0
 42
0.2
  3

  4

1001
ACAD
1000
Arial
1071
        0
  0
ENDTAB
  0
TABLE
  2
VIEW
  5
6
330
0
100
AcDbSymbolTable
 70
     0
  0
ENDTAB
  0
TABLE
  2
UCS
  5
7
330
0
100
AcDbSymbolTable
 70
     0
  0
ENDTAB
  0
TABLE
  2
APPID
  5
9
330
0
100
AcDbSymbolTable
 70
     1
  0
APPID
  5
12
330
9
100
AcDbSymbolTableRecord
100
AcDbRegAppTableRecord
  2
ACAD
 70
     0
  0
ENDTAB
  0
TABLE
  2
DIMSTYLE
  5
A
330
0
100
AcDbSymbolTable
 70
     4
100
AcDbDimStyleTable
  0
DIMSTYLE
105
27
330
A
100
AcDbSymbolTableRecord
100
AcDbDimStyleTableRecord
  2
ISO-25
 70
     0
 41
2.5
 42
0.625
 43
3.75
 44
1.25
 73
     0
 74
     0
 77
     1
 78
     8
140
2.5
141
2.5
143
0.03937
147
0.625
171
     3
172
     1
271
     2
272
     2
274
     3
278
    44
283
     0
284
     8
340
11
  0
DIMSTYLE
105
3E
330
A
100
AcDbSymbolTableRecord
100
AcDbDimStyleTableRecord
  2
Default
 70
     0
  3
<>
 41
4.375
 42
1.05
 44
2.1
 73
     0
 74
     0
 77
     1
 78
     8
140
3.5
146
0.4
147
1.75
178
     3
271
     2
272
     3
284
     8
340
3B
341
3F
342
3F
  0
DIMSTYLE
105
46
330
A
100
AcDbSymbolTableRecord
100
AcDbDimStyleTableRecord
  2
ISO
 70
     0
  3
<>
 41
4.375
 42
1.05
 44
2.1
 73
     0
 74
     0
 77
     1
 78
     8
140
3.5
146
0.4
147
1.75
178
     3
271
     2
272
     3
284
     8
340
3C
341
3F
342
3F
  0
DIMSTYLE
105
47
330
A
100
AcDbSymbolTableRecord
100
AcDbDimStyleTableRecord
  2
zucchetti_unico
 70
     0
  3
<>
 41
3.0
 42
0.9
 44
1.8
 73
     0
 74
     0
 77
     1
 78
     8
140
3.0
146
0.6
147
1.5
176
   104
177
     3
178
     3
271
     2
272
     2
284
     8
340
3D
  0
ENDTAB
  0
TABLE
  2
BLOCK_RECORD
  5
1
330
0
100
AcDbSymbolTable
 70
     7
  0
BLOCK_RECORD
  5
1F
330
1
100
AcDbSymbolTableRecord
100
AcDbBlockTableRecord
  2
*Model_Space
340
22
  0
BLOCK_RECORD
  5
1B
330
1
100
AcDbSymbolTableRecord
100
AcDbBlockTableRecord
  2
*Paper_Space
340
1E
  0
BLOCK_RECORD
  5
23
330
1
100
AcDbSymbolTableRecord
100
AcDbBlockTableRecord
  2
*Paper_Space0
340
26
  0
BLOCK_RECORD
  5
3F
330
1
100
AcDbSymbolTableRecord
100
AcDbBlockTableRecord
  2
_CLOSED
340
0
  0
BLOCK_RECORD
  5
48
330
1
100
AcDbSymbolTableRecord
100
AcDbBlockTableRecord
  2
a
340
0
102
{BLKREFS
331
78
102
}
  0
BLOCK_RECORD
  5
79
330
1
100
AcDbSymbolTableRecord
100
AcDbBlockTableRecord
  2
b
340
0
102
{BLKREFS
331
A7
102
}
  0
BLOCK_RECORD
  5
A8
330
1
100
AcDbSymbolTableRecord
100
AcDbBlockTableRecord
  2
c
340
0
102
{BLKREFS
331
E0
102
}
  0
BLOCK_RECORD
  5
E1
330
1
100
AcDbSymbolTableRecord
100
AcDbBlockTableRecord
  2
d
340
0
102
{BLKREFS
331
127
102
}
  0
BLOCK_RECORD
  5
128
330
1
100
AcDbSymbolTableRecord
100
AcDbBlockTableRecord
  2
e
340
0
102
{BLKREFS
331
15F
102
}
  0
ENDTAB
  0
ENDSEC
  0
SECTION
  2
BLOCKS
  0
BLOCK
  5
20
330
1F
100
AcDbEntity
  8
0
100
AcDbBlockBegin
  2
*Model_Space
 70
     0
 10
0.0
 20
0.0
 30
0.0
  3
*Model_Space
  1

  0
ENDBLK
  5
21
330
1F
100
AcDbEntity
  8
0
100
AcDbBlockEnd
  0
BLOCK
  5
1C
330
1B
100
AcDbEntity
 67
     1
  8
0
100
AcDbBlockBegin
  2
*Paper_Space
 70
     0
 10
0.0
 20
0.0
 30
0.0
  3
*Paper_Space
  1

  0
ENDBLK
  5
1D
330
1B
100
AcDbEntity
 67
     1
  8
0
100
AcDbBlockEnd
  0
BLOCK
  5
24
330
23
100
AcDbEntity
  8
0
100
AcDbBlockBegin
  2
*Paper_Space0
 70
     0
 10
0.0
 20
0.0
 30
0.0
  3
*Paper_Space0
  1

  0
ENDBLK
  5
25
330
23
100
AcDbEntity
  8
0
100
AcDbBlockEnd
  0
BLOCK
  5
40
330
3F
100
AcDbEntity
  8
0
100
AcDbBlockBegin
  2
_CLOSED
 70
     0
 10
0.0
 20
0.0
 30
0.0
  3
_CLOSED
  1

  0
LINE
  5
42
330
3F
100
AcDbEntity
  8
0
  6
ByBlock
 62
     0
370
    -2
100
AcDbLine
 10
-1.0
 20
0.166667
 30
0.0
 11
0.0
 21
0.0
 31
0.0
  0
LINE
  5
43
330
3F
100
AcDbEntity
  8
0
  6
ByBlock
 62
     0
370
    -2
100
AcDbLine
 10
0.0
 20
0.0
 30
0.0
 11
-1.0
 21
-0.166667
 31
0.0
  0
LINE
  5
44
330
3F
100
AcDbEntity
  8
0
  6
ByBlock
 62
     0
370
    -2
100
AcDbLine
 10
-1.0
 20
0.166667
 30
0.0
 11
-1.0
 21
-0.166667
 31
0.0
  0
LINE
  5
45
330
3F
100
AcDbEntity
  8
0
  6
ByBlock
 62
     0
370
    -2
100
AcDbLine
 10
0.0
 20
0.0
 30
0.0
 11
-1.0
 21
0.0
 31
0.0
  0
ENDBLK
  5
41
330
3F
100
AcDbEntity
  8
0
100
AcDbBlockEnd
  0
BLOCK
  5
76
330
48
100
AcDbEntity
  8
0
100
AcDbBlockBegin
  2
a
 70
     0
 10
227.15033
 20
131.312515
 30
0.0
  3
a
  1

  0
LINE
  5
49
330
48
100
AcDbEntity
  8
0
  6
Continuous
 62
     0
370
    30
100
AcDbLine
 10
260.99206
 20
481.873563
 30
0.0
 11
282.985691
 21
481.873563
 31
0.0
  0
LINE
  5
4A
330
48
100
AcDbEntity
  8
0
  6
Continuous
 62
     0
370
    30
100
AcDbLine
 10
282.985691
 20
481.873563
 30
0.0
 11
304.979323
 21
481.873563
 31
0.0
  0
LINE
  5
4B
330
48
100
AcDbEntity
  8
0
  6
Continuous
 62
     0
370
    30
100
AcDbLine
 10
282.985691
 20
512.873563
 30
0.0
 11
304.985691
 21
512.873563
 31
0.0
  0
LINE
  5
4C
330
48
100
AcDbEntity
  8
0
  6
Continuous
 62
     0
370
    30
100
AcDbLine
 10
260.985691
 20
512.873563
 30
0.0
 11
282.985691
 21
512.873563
 31
0.0
  0
LWPOLYLINE
  5
4D
330
48
100
AcDbEntity
  8
0
  6
Continuous
 62
     0
370
    30
100
AcDbPolyline
 90
        2
 70
     0
 43
0.0
 10
260.985687
 20
482.065857
 10
260.992065
 20
481.873566
  0
LWPOLYLINE
  5
4E
330
48
100
AcDbEntity
  8
0
  6
Continuous
 62
     0
370
    30
100
AcDbPolyline
 90
        2
 70
     0
 43
0.0
 10
304.979309
 20
481.873566
 10
304.985687
 20
482.065857
  0
LWPOLYLINE
  5
4F
330
48
100
AcDbEntity
  8
0
  6
Continuous
 62
     0
370
     0
100
AcDbPolyline
 90
       31
 70
     0
 43
0.0
 10
282.985687
 20
486.390259
 10
281.888428
 20
486.471436
 10
280.816071
 20
486.706238
 10
279.790131
 20
487.086121
 10
278.827118
 20
487.596619
 10
277.937927
 20
488.219574
 10
277.129761
 20
488.938995
 10
276.404938
 20
489.74054
 10
275.764404
 20
490.612396
 10
275.208771
 20
491.543243
 10
274.738434
 20
492.522827
 10
274.353119
 20
493.542786
 10
274.052917
 20
494.595001
 10
273.838074
 20
495.671417
 10
273.708771
 20
496.764099
 10
273.665161
 20
497.864929
 10
273.707397
 20
498.96582
 10
273.835388
 20
500.058685
 10
274.048889
 20
501.135437
 10
274.347748
 20
502.188049
 10
274.731812
 20
503.208618
 10
275.200836
 20
504.188904
 10
275.754761
 20
505.120331
 10
276.394073
 20
505.993378
 10
277.119171
 20
506.797577
 10
277.927826
 20
507.519318
 10
278.816467
 20
508.14389
 10
279.778503
 20
508.655609
 10
280.803619
 20
509.037842
 10
281.87558
 20
509.274963
 10
282.985687
 20
509.356873
  0
LWPOLYLINE
  5
50
330
48
100
AcDbEntity
  8
0
  6
Continuous
 62
     0
370
     0
100
AcDbPolyline
 90
       31
 70
     0
 43
0.0
 10
282.985687
 20
509.356873
 10
284.082977
 20
509.275696
 10
285.155304
 20
509.040863
 10
286.181244
 20
508.661011
 10
287.144257
 20
508.150513
 10
288.033447
 20
507.527557
 10
288.841644
 20
506.808136
 10
289.566437
 20
506.006592
 10
290.207001
 20
505.134735
 10
290.762604
 20
504.203888
 10
291.232971
 20
503.224304
 10
291.618256
 20
502.204346
 10
291.918457
 20
501.15213
 10
292.133301
 20
500.075714
 10
292.262604
 20
498.983032
 10
292.306213
 20
497.882202
 10
292.263977
 20
496.781311
 10
292.136017
 20
495.688446
 10
291.922485
 20
494.611694
 10
291.623627
 20
493.559052
 10
291.239594
 20
492.538513
 10
290.770538
 20
491.558228
 10
290.216614
 20
490.626801
 10
289.577332
 20
489.753754
 10
288.852203
 20
488.949554
 10
288.043579
 20
488.227814
 10
287.154938
 20
487.603241
 10
286.192871
 20
487.091492
 10
285.167755
 20
486.70929
 10
284.095795
 20
486.472168
 10
282.985687
 20
486.390259
  0
LINE
  5
51
330
48
100
AcDbEntity
  8
0
  6
Continuous
 62
     0
370
     0
100
AcDbLine
 10
282.985691
 20
509.35687
 30
0.0
 11
282.985691
 21
504.373557
 31
0.0
  0
LINE
  5
52
330
48
100
AcDbEntity
  8
0
  6
Continuous
 62
     0
370
     0
100
AcDbLine
 10
282.985691
 20
491.373569
 30
0.0
 11
282.985691
 21
486.390256
 31
0.0
  0
ARC
  5
53
330
48
100
AcDbEntity
  8
0
  6
Continuous
 62
     0
370
    30
100
AcDbCircle
 10
282.985691
 20
497.873563
 30
0.0
 40
6.499994153589111
100
AcDbArc
 50
270.0
 51
90.0
  0
ARC
  5
54
330
48
100
AcDbEntity
  8
0
  6
Continuous
 62
     0
370
    30
100
AcDbCircle
 10
282.985691
 20
497.873563
 30
0.0
 40
6.499994153589111
100
AcDbArc
 50
90.0
 51
270.0
  0
LWPOLYLINE
  5
55
330
48
100
AcDbEntity
  8
0
  6
Continuous
 62
     0
370
    30
100
AcDbPolyline
 90
       26
 70
     0
 43
0.0
 10
292.806091
 20
447.261719
 10
292.550964
 20
448.205383
 10
292.167328
 20
449.154205
 10
291.648956
 20
450.087952
 10
290.994904
 20
450.984253
 10
290.210205
 20
451.819946
 10
289.306366
 20
452.572754
 10
288.300964
 20
453.223083
 10
287.216614
 20
453.755615
 10
286.079254
 20
454.160461
 10
284.916199
 20
454.433838
 10
283.754028
 20
454.57782
 10
282.616852
 20
454.599701
 10
281.524963
 20
454.510773
 10
280.476044
 20
454.320892
 10
279.420135
 20
454.019257
 10
278.372559
 20
453.598083
 10
277.357452
 20
453.054688
 10
276.400421
 20
452.391479
 10
275.526917
 20
451.61676
 10
274.759979
 20
450.744415
 10
274.118622
 20
449.793213
 10
273.616119
 20
448.785645
 10
273.259125
 20
447.745972
 10
273.047668
 20
446.698547
 10
272.975494
 20
445.634247
  0
ARC
  5
56
330
48
100
AcDbEntity
  8
0
  6
Continuous
 62
     0
370
    30
100
AcDbCircle
 10
284.86813
 20
445.612914
 30
0.0
 40
8.107378309296957
100
AcDbArc
 50
359.912613
 51
11.734166
  0
ELLIPSE
  5
57
330
48
100
AcDbEntity
  8
0
  6
Continuous
 62
     0
370
    30
100
AcDbEllipse
 10
282.955061
 20
433.485982
 30
0.0
 11
-9.999994711466904
 21
0.01685187905553521
 31
0.0
210
0.0
220
0.0
230
-0.9999999999999999
 40
0.898794
 41
6.097327025000221
 42
9.238919847244373
  0
ELLIPSE
  5
58
330
48
100
AcDbEntity
  8
0
  6
Continuous
 62
     0
370
    30
100
AcDbEllipse
 10
282.955061
 20
433.485982
 30
0.0
 11
-9.999994711466904
 21
0.01685187905553521
 31
0.0
210
0.0
220
0.0
230
-0.9999999999999999
 40
0.898794
 41
2.955734540064793
 42
6.097327025000213
  0
LINE
  5
59
330
48
100
AcDbEntity
  8
0
  6
Continuous
 62
     0
370
    30
100
AcDbLine
 10
272.978087
 20
447.158271
 30
0.0
 11
272.981271
 21
449.048047
 31
0.0
  0
ELLIPSE
  5
5A
330
48
100
AcDbEntity
  8
0
  6
Continuous
 62
     0
370
     0
100
AcDbEllipse
 10
282.981257
 20
449.031195
 30
0.0
 11
9.99998580072384
 21
-0.01685186403925092
 31
0.0
210
0.0
220
0.0
230
0.9999999999999999
 40
0.898794
 41
6.283185307179587
 42
9.42477796076938
  0
ELLIPSE
  5
5B
330
48
100
AcDbEntity
  8
0
  6
Continuous
 62
     0
370
    30
100
AcDbEllipse
 10
282.978072
 20
447.141419
 30
0.0
 11
-9.99998580072384
 21
0.01685186403925092
 31
0.0
210
0.0
220
0.0
230
-0.9999999999999999
 40
0.898794
 41
6.283185307179585
 42
9.424777960769381
  0
ELLIPSE
  5
5C
330
48
100
AcDbEntity
  8
0
  6
Continuous
 62
     0
370
    30
100
AcDbEllipse
 10
282.978072
 20
447.141419
 30
0.0
 11
-9.99998580072384
 21
0.01685186403925092
 31
0.0
210
0.0
220
0.0
230
-0.9999999999999999
 40
0.898794
 41
6.198307205036095
 42
6.283185307179584
  0
ELLIPSE
  5
5D
330
48
100
AcDbEntity
  8
0
  6
Continuous
 62
     0
370
    30
100
AcDbEllipse
 10
282.978072
 20
447.141419
 30
0.0
 11
-9.99998580072384
 21
0.01685186403925092
 31
0.0
210
0.0
220
0.0
230
-0.9999999999999999
 40
0.898794
 41
3.141592653589795
 42
3.226470466672287
  0
LINE
  5
5E
330
48
100
AcDbEntity
  8
0
  6
Continuous
 62
     0
370
    30
100
AcDbLine
 10
272.981271
 20
449.048047
 30
0.0
 11
272.985706
 21
451.679398
 31
0.0
  0
ARC
  5
5F
330
48
100
AcDbEntity
  8
0
  6
Continuous
 62
     0
370
    30
100
AcDbCircle
 10
282.985691
 20
451.662546
 30
0.0
 40
9.999999999999993
100
AcDbArc
 50
359.903446
 51
179.903446
  0
LWPOLYLINE
  5
60
330
48
100
AcDbEntity
  8
0
  6
Continuous
 62
     0
370
     0
100
AcDbPolyline
 90
       32
 70
     0
 43
0.0
 10
282.985687
 20
469.662537
 10
284.197754
 20
469.586914
 10
285.387329
 20
469.362152
 10
286.535522
 20
468.99942
 10
287.628815
 20
468.511963
 10
288.657562
 20
467.915985
 10
289.617065
 20
467.226288
 10
290.506104
 20
466.455597
 10
291.32486
 20
465.61557
 10
292.074402
 20
464.716187
 10
292.75708
 20
463.764648
 10
293.374634
 20
462.767029
 10
293.928497
 20
461.729218
 10
294.419952
 20
460.656342
 10
294.850128
 20
459.552185
 10
295.220032
 20
458.42038
 10
295.530029
 20
457.264648
 10
295.780334
 20
456.088776
 10
295.970917
 20
454.896698
 10
296.101501
 20
453.692566
 10
296.171967
 20
452.480682
 10
296.182343
 20
451.265717
 10
296.13266
 20
450.052246
 10
296.022888
 20
448.844879
 10
295.85318
 20
447.648132
 10
295.623627
 20
446.466156
 10
295.334351
 20
445.303009
 10
294.985229
 20
444.162506
 10
294.576019
 20
443.04837
 10
294.105927
 20
441.964233
 10
293.573853
 20
440.913757
 10
292.965851
 20
439.88147
  0
LWPOLYLINE
  5
61
330
48
100
AcDbEntity
  8
0
  6
Continuous
 62
     0
370
     0
100
AcDbPolyline
 90
       32
 70
     0
 43
0.0
 10
272.965912
 20
439.944122
 10
272.374573
 20
440.955963
 10
271.8461
 20
442.005646
 10
271.379303
 20
443.088684
 10
270.973083
 20
444.201477
 10
270.626709
 20
445.340424
 10
270.339935
 20
446.50177
 10
270.11261
 20
447.681763
 10
269.944855
 20
448.876343
 10
269.836823
 20
450.08136
 10
269.788635
 20
451.292358
 10
269.800232
 20
452.504761
 10
269.871674
 20
453.713989
 10
270.002991
 20
454.915466
 10
270.194031
 20
456.104828
 10
270.44458
 20
457.277985
 10
270.754547
 20
458.431061
 10
271.124146
 20
459.560272
 10
271.553802
 20
460.661926
 10
272.044495
 20
461.732422
 10
272.59729
 20
462.768005
 10
273.213531
 20
463.763489
 10
273.894623
 20
464.713165
 10
274.642303
 20
465.610901
 10
275.458893
 20
466.449585
 10
276.34549
 20
467.219269
 10
277.302216
 20
467.908447
 10
278.327942
 20
468.504456
 10
279.41806
 20
468.992615
 10
280.563019
 20
469.356812
 10
281.74942
 20
469.583801
 10
282.985687
 20
469.662537
  0
LINE
  5
62
330
48
100
AcDbEntity
  8
0
  6
Continuous
 62
     0
370
    30
100
AcDbLine
 10
282.985691
 20
480.662546
 30
0.0
 11
260.985691
 21
480.662546
 31
0.0
  0
LINE
  5
63
330
48
100
AcDbEntity
  8
0
  6
Continuous
 62
     0
370
    30
100
AcDbLine
 10
304.985691
 20
480.662546
 30
0.0
 11
282.985691
 21
480.662546
 31
0.0
  0
LINE
  5
64
330
48
100
AcDbEntity
  8
0
  6
Continuous
 62
     0
370
     0
100
AcDbLine
 10
282.985691
 20
461.662546
 30
0.0
 11
282.985691
 21
469.662546
 31
0.0
  0
LINE
  5
65
330
48
100
AcDbEntity
  8
0
  6
Continuous
 62
     0
370
    30
100
AcDbLine
 10
281.221087
 20
361.662546
 30
0.0
 11
309.985683
 21
361.662546
 31
0.0
  0
LINE
  5
66
330
48
100
AcDbEntity
  8
0
  6
Continuous
 62
     0
370
    30
100
AcDbLine
 10
255.985683
 20
361.662546
 30
0.0
 11
281.221087
 21
361.662546
 31
0.0
  0
LINE
  5
67
330
48
100
AcDbEntity
  8
0
  6
Continuous
 62
     0
370
    30
100
AcDbLine
 10
281.221087
 20
365.662546
 30
0.0
 11
255.985683
 21
365.662546
 31
0.0
  0
LINE
  5
68
330
48
100
AcDbEntity
  8
0
  6
Continuous
 62
     0
370
    30
100
AcDbLine
 10
309.985683
 20
365.662546
 30
0.0
 11
281.221087
 21
365.662546
 31
0.0
  0
LINE
  5
69
330
48
100
AcDbEntity
  8
0
  6
Continuous
 62
     0
370
    30
100
AcDbLine
 10
309.985683
 20
361.662546
 30
0.0
 11
309.985683
 21
365.662546
 31
0.0
  0
LINE
  5
6A
330
48
100
AcDbEntity
  8
0
  6
Continuous
 62
     0
370
    30
100
AcDbLine
 10
255.985683
 20
361.662546
 30
0.0
 11
255.985683
 21
365.662546
 31
0.0
  0
LINE
  5
6B
330
48
100
AcDbEntity
  8
0
  6
Continuous
 62
     0
370
    30
100
AcDbLine
 10
304.985691
 20
365.662546
 30
0.0
 11
304.985691
 21
480.662546
 31
0.0
  0
LINE
  5
6C
330
48
100
AcDbEntity
  8
0
  6
Continuous
 62
     0
370
    30
100
AcDbLine
 10
260.985691
 20
365.662546
 30
0.0
 11
260.985691
 21
480.662546
 31
0.0
  0
LWPOLYLINE
  5
6D
330
48
100
AcDbEntity
  8
0
  6
Continuous
 62
     0
370
    30
100
AcDbPolyline
 90
        7
 70
     0
 43
0.0
 10
292.985657
 20
451.638885
 10
292.985657
 20
451.638306
 10
292.985657
 20
451.638123
 10
292.985657
 20
451.640808
 10
292.985687
 20
451.648163
 10
292.985657
 20
451.640656
 10
292.985687
 20
451.645691
  0
LINE
  5
6E
330
48
100
AcDbEntity
  8
0
  6
Continuous
 62
     0
370
    30
100
AcDbLine
 10
292.981243
 20
449.014343
 30
0.0
 11
292.985666
 21
451.638892
 31
0.0
  0
LINE
  5
6F
330
48
100
AcDbEntity
  8
0
  6
Continuous
 62
     0
370
    30
100
AcDbLine
 10
292.981243
 20
449.014343
 30
0.0
 11
292.978058
 21
447.124567
 31
0.0
  0
LINE
  5
70
330
48
100
AcDbEntity
  8
0
  6
Continuous
 62
     0
370
    30
100
AcDbLine
 10
292.975499
 20
445.60055
 30
0.0
 11
292.955055
 21
433.469131
 31
0.0
  0
LINE
  5
71
330
48
100
AcDbEntity
  8
0
  6
Continuous
 62
     0
370
    30
100
AcDbLine
 10
272.97551
 20
445.634254
 30
0.0
 11
272.955066
 21
433.502834
 31
0.0
  0
ARC
  5
72
330
48
100
AcDbEntity
  8
0
  6
Continuous
 62
     0
370
    30
100
AcDbCircle
 10
282.985546
 20
479.162539
 30
0.0
 40
20.50498912271473
100
AcDbArc
 50
172.402515
 51
175.80488
  0
ARC
  5
73
330
48
100
AcDbEntity
  8
0
  6
Continuous
 62
     0
370
    30
100
AcDbCircle
 10
282.985837
 20
479.162539
 30
0.0
 40
20.50498919506224
100
AcDbArc
 50
4.19512
 51
7.597485
  0
LINE
  5
74
330
48
100
AcDbEntity
  8
0
  6
Continuous
 62
     0
370
    30
100
AcDbLine
 10
304.985691
 20
482.066221
 30
0.0
 11
304.985691
 21
512.873563
 31
0.0
  0
LINE
  5
75
330
48
100
AcDbEntity
  8
0
  6
Continuous
 62
     0
370
    30
100
AcDbLine
 10
260.985691
 20
482.066221
 30
0.0
 11
260.985691
 21
512.873563
 31
0.0
  0
ENDBLK
  5
77
330
48
100
AcDbEntity
  8
0
100
AcDbBlockEnd
  0
BLOCK
  5
A5
330
79
100
AcDbEntity
  8
0
100
AcDbBlockBegin
  2
b
 70
     0
 10
181.724789
 20
131.312515
 30
0.0
  3
b
  1

  0
ARC
  5
7A
330
79
100
AcDbEntity
  8
0
  6
Continuous
 62
     0
370
    30
100
AcDbCircle
 10
282.985695
 20
248.787197
 30
0.0
 40
22.00000000000002
100
AcDbArc
 50
270.0
 51
90.0
  0
ARC
  5
7B
330
79
100
AcDbEntity
  8
0
  6
Continuous
 62
     0
370
    30
100
AcDbCircle
 10
282.985695
 20
248.787197
 30
0.0
 40
22.00000000000002
100
AcDbArc
 50
90.0
 51
270.0
  0
LINE
  5
7C
330
79
100
AcDbEntity
  8
0
  6
Continuous
 62
     0
370
     0
100
AcDbLine
 10
289.485695
 20
220.787198
 30
0.0
 11
282.985695
 21
220.787197
 31
0.0
  0
LINE
  5
7D
330
79
100
AcDbEntity
  8
0
  6
Continuous
 62
     0
370
     0
100
AcDbLine
 10
282.985695
 20
220.787197
 30
0.0
 11
276.485695
 21
220.787198
 31
0.0
  0
LWPOLYLINE
  5
7E
330
79
100
AcDbEntity
  8
0
  6
Continuous
 62
     0
370
     0
100
AcDbPolyline
 90
       13
 70
     0
 43
0.0
 10
276.54599
 20
224.242249
 10
276.605194
 20
224.193115
 10
276.777313
 20
224.053787
 10
277.053741
 20
223.838715
 10
277.424347
 20
223.568924
 10
277.879944
 20
223.264999
 10
278.414093
 20
222.946198
 10
279.022339
 20
222.630402
 10
279.701263
 20
222.335022
 10
280.446045
 20
222.077576
 10
281.248016
 20
221.875946
 10
282.094757
 20
221.745972
 10
282.985687
 20
221.699936
  0
LWPOLYLINE
  5
7F
330
79
100
AcDbEntity
  8
0
  6
Continuous
 62
     0
370
     0
100
AcDbPolyline
 90
       13
 70
     0
 43
0.0
 10
282.985687
 20
221.699936
 10
283.857849
 20
221.744141
 10
284.705383
 20
221.872528
 10
285.508484
 20
222.072693
 10
286.254639
 20
222.329041
 10
286.935028
 20
222.623764
 10
287.544861
 20
222.939301
 10
288.080658
 20
223.258255
 10
288.537994
 20
223.562683
 10
288.910583
 20
223.833374
 10
289.189148
 20
224.049835
 10
289.363617
 20
224.190994
 10
289.425385
 20
224.242249
  0
LWPOLYLINE
  5
80
330
79
100
AcDbEntity
  8
0
  6
Continuous
 62
     0
370
     0
100
AcDbPolyline
 90
       10
 70
     0
 43
0.0
 10
282.985687
 20
226.787201
 10
282.985687
 20
226.709488
 10
282.985687
 20
226.479874
 10
282.985687
 20
226.104431
 10
282.985687
 20
225.595566
 10
282.985687
 20
224.969208
 10
282.985687
 20
224.244064
 10
282.985687
 20
223.441818
 10
282.985687
 20
222.587357
 10
282.985687
 20
221.699936
  0
LINE
  5
81
330
79
100
AcDbEntity
  8
0
  6
Continuous
 62
     0
370
    30
100
AcDbLine
 10
282.985695
 20
160.787198
 30
0.0
 11
289.485689
 21
160.787198
 31
0.0
  0
LINE
  5
82
330
79
100
AcDbEntity
  8
0
  6
Continuous
 62
     0
370
    30
100
AcDbLine
 10
276.485701
 20
160.787198
 30
0.0
 11
282.985695
 21
160.787198
 31
0.0
  0
LWPOLYLINE
  5
83
330
79
100
AcDbEntity
  8
0
  6
Continuous
 62
     0
370
    30
100
AcDbPolyline
 90
       27
 70
     0
 43
0.0
 10
292.806091
 20
162.57135
 10
292.542206
 20
162.098633
 10
292.142456
 20
161.623642
 10
291.600342
 20
161.15715
 10
290.915192
 20
160.711029
 10
290.093201
 20
160.297516
 10
289.147644
 20
159.928238
 10
288.098511
 20
159.613251
 10
286.97113
 20
159.360184
 10
285.794037
 20
159.173553
 10
284.596893
 20
159.054626
 10
283.407959
 20
159.001511
 10
282.252289
 20
159.009659
 10
281.150482
 20
159.07254
 10
280.071838
 20
159.188507
 10
278.987671
 20
159.363998
 10
277.922455
 20
159.601883
 10
276.90329
 20
159.902451
 10
275.958069
 20
160.262985
 10
275.113403
 20
160.677673
 10
274.392303
 20
161.137756
 10
273.812195
 20
161.632156
 10
273.383545
 20
162.148315
 10
273.109283
 20
162.673279
 10
272.985229
 20
163.194626
 10
273.001068
 20
163.70137
 10
273.144928
 20
164.191483
  0
LWPOLYLINE
  5
84
330
79
100
AcDbEntity
  8
0
  6
Continuous
 62
     0
370
    30
100
AcDbPolyline
 90
        6
 70
     0
 43
0.0
 10
292.320129
 20
164.936096
 10
292.650208
 20
164.484024
 10
292.866241
 20
164.021149
 10
292.96701
 20
163.555664
 10
292.9552
 20
163.095566
 10
292.806091
 20
162.57135
  0
ARC
  5
85
330
79
100
AcDbEntity
  8
0
  6
Continuous
 62
     0
370
    30
100
AcDbCircle
 10
275.78285
 20
163.032785
 30
0.0
 40
2.88117632541637
100
AcDbArc
 50
138.246106
 51
156.28665
  0
ELLIPSE
  5
86
330
79
100
AcDbEntity
  8
0
  6
Continuous
 62
     0
370
    30
100
AcDbEllipse
 10
282.955064
 20
138.508284
 30
0.0
 11
-10.00000553298916
 21
0.00821920799292887
 31
0.0
210
0.0
220
0.0
230
0.9999999999999998
 40
0.438371
 41
0.0000000000399751
 42
2.957609482233051
  0
ELLIPSE
  5
87
330
79
100
AcDbEntity
  8
0
  6
Continuous
 62
     0
370
    30
100
AcDbEllipse
 10
282.955064
 20
138.508284
 30
0.0
 11
-10.00000553298916
 21
0.00821920799292887
 31
0.0
210
0.0
220
0.0
230
0.9999999999999998
 40
0.438371
 41
2.957609482233058
 42
3.141592653629768
  0
ELLIPSE
  5
88
330
79
100
AcDbEntity
  8
0
  6
Continuous
 62
     0
370
     0
100
AcDbEllipse
 10
282.981261
 20
170.380743
 30
0.0
 11
9.999996622236448
 21
-0.00821920066899998
 31
0.0
210
0.0
220
0.0
230
-0.9999999999999998
 40
0.438371
 41
3.139717711421531
 42
3.141592653549762
  0
ELLIPSE
  5
89
330
79
100
AcDbEntity
  8
0
  6
Continuous
 62
     0
370
     0
100
AcDbEllipse
 10
282.981261
 20
170.380743
 30
0.0
 11
9.999996622236448
 21
-0.00821920066899998
 31
0.0
210
0.0
220
0.0
230
-0.9999999999999998
 40
0.438371
 41
2.277436553421561
 42
3.139717711421531
  0
ELLIPSE
  5
8A
330
79
100
AcDbEntity
  8
0
  6
Continuous
 62
     0
370
     0
100
AcDbEllipse
 10
282.981261
 20
170.380743
 30
0.0
 11
9.999996622236448
 21
-0.00821920066899998
 31
0.0
210
0.0
220
0.0
230
-0.9999999999999998
 40
0.438371
 41
6.283185307139648
 42
7.145453767795087
  0
ELLIPSE
  5
8B
330
79
100
AcDbEntity
  8
0
  6
Continuous
 62
     0
370
    30
100
AcDbEllipse
 10
282.978076
 20
166.506122
 30
0.0
 11
-9.999996622236448
 21
0.00821920066899998
 31
0.0
210
0.0
220
0.0
230
0.9999999999999998
 40
0.438371
 41
2.279743544080254
 42
3.143467595758056
  0
ELLIPSE
  5
8C
330
79
100
AcDbEntity
  8
0
  6
Continuous
 62
     0
370
    30
100
AcDbEllipse
 10
282.978076
 20
166.506122
 30
0.0
 11
-9.999996622236448
 21
0.00821920066899998
 31
0.0
210
0.0
220
0.0
230
0.9999999999999998
 40
0.438371
 41
0.0018749421682625
 42
0.8645748827489479
  0
ELLIPSE
  5
8D
330
79
100
AcDbEntity
  8
0
  6
Continuous
 62
     0
370
    30
100
AcDbEllipse
 10
282.978076
 20
166.506122
 30
0.0
 11
-9.999996622236448
 21
0.00821920066899998
 31
0.0
210
0.0
220
0.0
230
0.9999999999999998
 40
0.438371
 41
0.000000000039976
 42
0.0018749421682589
  0
LINE
  5
8E
330
79
100
AcDbEntity
  8
0
  6
Continuous
 62
     0
370
     0
100
AcDbLine
 10
276.485701
 20
181.778392
 30
0.0
 11
272.985709
 21
181.778392
 31
0.0
  0
LWPOLYLINE
  5
8F
330
79
100
AcDbEntity
  8
0
  6
Continuous
 62
     0
370
     0
100
AcDbPolyline
 90
        8
 70
     0
 43
0.0
 10
292.985687
 20
181.778397
 10
292.923889
 20
181.778397
 10
292.725067
 20
181.778397
 10
292.37793
 20
181.778397
 10
291.87674
 20
181.778397
 10
291.2229
 20
181.778397
 10
290.425507
 20
181.778397
 10
289.485687
 20
181.778397
  0
LWPOLYLINE
  5
90
330
79
100
AcDbEntity
  8
0
  6
Continuous
 62
     0
370
     0
100
AcDbPolyline
 90
       10
 70
     0
 43
0.0
 10
292.985626
 20
224.787018
 10
292.939758
 20
224.725082
 10
292.803558
 20
224.544769
 10
292.579346
 20
224.255569
 10
292.270172
 20
223.873093
 10
291.879059
 20
223.414993
 10
291.406921
 20
222.898453
 10
290.853546
 20
222.340469
 10
290.216614
 20
221.757858
 10
289.479218
 20
221.157593
  0
ARC
  5
91
330
79
100
AcDbEntity
  8
0
  6
Continuous
 62
     0
370
    30
100
AcDbCircle
 10
282.985687
 20
248.787197
 30
0.0
 40
27.00000000000004
100
AcDbArc
 50
86.252738
 51
248.261557
  0
ARC
  5
92
330
79
100
AcDbEntity
  8
0
  6
Continuous
 62
     0
370
    30
100
AcDbCircle
 10
282.985687
 20
248.787197
 30
0.0
 40
27.00000000000004
100
AcDbArc
 50
291.738479
 51
86.252738
  0
LWPOLYLINE
  5
93
330
79
100
AcDbEntity
  8
0
  6
Continuous
 62
     0
370
     0
100
AcDbPolyline
 90
       10
 70
     0
 43
0.0
 10
272.985779
 20
224.787003
 10
273.033051
 20
224.723206
 10
273.170197
 20
224.541672
 10
273.394928
 20
224.251907
 10
273.704224
 20
223.869476
 10
274.095062
 20
223.411911
 10
274.566559
 20
222.896271
 10
275.118896
 20
222.339447
 10
275.754456
 20
221.758133
 10
276.492157
 20
221.157608
  0
LINE
  5
94
330
79
100
AcDbEntity
  8
0
  6
Continuous
 62
     0
370
    30
100
AcDbLine
 10
272.985695
 20
224.787007
 30
0.0
 11
272.985695
 21
181.778392
 31
0.0
  0
LINE
  5
95
330
79
100
AcDbEntity
  8
0
  6
Continuous
 62
     0
370
    30
100
AcDbLine
 10
292.985695
 20
224.787007
 30
0.0
 11
292.985695
 21
181.778392
 31
0.0
  0
ARC
  5
96
330
79
100
AcDbEntity
  8
0
  6
Continuous
 62
     0
370
    30
100
AcDbCircle
 10
264.985729
 20
224.787067
 30
0.0
 40
8.000024013251867
100
AcDbArc
 50
359.999635
 51
53.129714
  0
LWPOLYLINE
  5
97
330
79
100
AcDbEntity
  8
0
  6
Continuous
 62
     0
370
    30
100
AcDbPolyline
 90
       64
 70
     0
 43
0.0
 10
269.813477
 20
231.166199
 10
269.814209
 20
231.165619
 10
269.815186
 20
231.164902
 10
269.817535
 20
231.163116
 10
269.826019
 20
231.156693
 10
269.886292
 20
231.110413
 10
269.984253
 20
231.033249
 10
270.081818
 20
230.953918
 10
270.17807
 20
230.873093
 10
270.273041
 20
230.790756
 10
270.36673
 20
230.70694
 10
270.459076
 20
230.621674
 10
270.55011
 20
230.534958
 10
270.63974
 20
230.446823
 10
270.727966
 20
230.3573
 10
270.814789
 20
230.266388
 10
270.900177
 20
230.174118
 10
270.98407
 20
230.080521
 10
271.066498
 20
229.985611
 10
271.1474
 20
229.88942
 10
271.226807
 20
229.791946
 10
271.304657
 20
229.693253
 10
271.38092
 20
229.593338
 10
271.455658
 20
229.492249
 10
271.528778
 20
229.389999
 10
271.600281
 20
229.286621
 10
271.670166
 20
229.182129
 10
271.738403
 20
229.076553
 10
271.804993
 20
228.96994
 10
271.869873
 20
228.862289
 10
271.933105
 20
228.753632
 10
271.994598
 20
228.643982
 10
272.054352
 20
228.533401
 10
272.112335
 20
228.421875
 10
272.168579
 20
228.309448
 10
272.223022
 20
228.196152
 10
272.275665
 20
228.082001
 10
272.326508
 20
227.967041
 10
272.375549
 20
227.851288
 10
272.422791
 20
227.734787
 10
272.46817
 20
227.617569
 10
272.511688
 20
227.499649
 10
272.553375
 20
227.381058
 10
272.593201
 20
227.261826
 10
272.631134
 20
227.141998
 10
272.667206
 20
227.021576
 10
272.701355
 20
226.90062
 10
272.733612
 20
226.779129
 10
272.763977
 20
226.657166
 10
272.792419
 20
226.534714
 10
272.818939
 20
226.41185
 10
272.843536
 20
226.288574
 10
272.86618
 20
226.164917
 10
272.886871
 20
226.040924
 10
272.905609
 20
225.916611
 10
272.922394
 20
225.792007
 10
272.937225
 20
225.667145
 10
272.950073
 20
225.542068
 10
272.960938
 20
225.416809
 10
272.969849
 20
225.291397
 10
272.976776
 20
225.165878
 10
272.98175
 20
225.040283
 10
272.984741
 20
224.914658
 10
272.985748
 20
224.787018
  0
LWPOLYLINE
  5
98
330
79
100
AcDbEntity
  8
0
  6
Continuous
 62
     0
370
    30
100
AcDbPolyline
 90
       64
 70
     0
 43
0.0
 10
296.157928
 20
231.166199
 10
296.157166
 20
231.165619
 10
296.156219
 20
231.164902
 10
296.15387
 20
231.163116
 10
296.145386
 20
231.156693
 10
296.085083
 20
231.110413
 10
295.987122
 20
231.033249
 10
295.889587
 20
230.953918
 10
295.793335
 20
230.873093
 10
295.698334
 20
230.790756
 10
295.604645
 20
230.70694
 10
295.512299
 20
230.621674
 10
295.421295
 20
230.534958
 10
295.331665
 20
230.446823
 10
295.243408
 20
230.3573
 10
295.156586
 20
230.266388
 10
295.071228
 20
230.174118
 10
294.987305
 20
230.080521
 10
294.904877
 20
229.985611
 10
294.823975
 20
229.88942
 10
294.744598
 20
229.791946
 10
294.666748
 20
229.693253
 10
294.590454
 20
229.593338
 10
294.515747
 20
229.492249
 10
294.442627
 20
229.389999
 10
294.371124
 20
229.286621
 10
294.301239
 20
229.182129
 10
294.233002
 20
229.076553
 10
294.166412
 20
228.96994
 10
294.101501
 20
228.862289
 10
294.0383
 20
228.753632
 10
293.976807
 20
228.643982
 10
293.917053
 20
228.533401
 10
293.859039
 20
228.421875
 10
293.802826
 20
228.309448
 10
293.748383
 20
228.196152
 10
293.695709
 20
228.082001
 10
293.644867
 20
227.967041
 10
293.595825
 20
227.851288
 10
293.548615
 20
227.734787
 10
293.503235
 20
227.617569
 10
293.459686
 20
227.499649
 10
293.417999
 20
227.381058
 10
293.378204
 20
227.261826
 10
293.34024
 20
227.141998
 10
293.304199
 20
227.021576
 10
293.27002
 20
226.90062
 10
293.237762
 20
226.779129
 10
293.207397
 20
226.657166
 10
293.178986
 20
226.534714
 10
293.152466
 20
226.41185
 10
293.127869
 20
226.288574
 10
293.105225
 20
226.164917
 10
293.084503
 20
226.040924
 10
293.065765
 20
225.916611
 10
293.048981
 20
225.792007
 10
293.03418
 20
225.667145
 10
293.021332
 20
225.542068
 10
293.010437
 20
225.416809
 10
293.001556
 20
225.291397
 10
292.994598
 20
225.165878
 10
292.989655
 20
225.040283
 10
292.986664
 20
224.914658
 10
292.985626
 20
224.787018
  0
ARC
  5
99
330
79
100
AcDbEntity
  8
0
  6
Continuous
 62
     0
370
    30
100
AcDbCircle
 10
-13796.796011
 20
181.557393
 30
0.0
 40
14089.78170814925
100
AcDbArc
 50
359.954517
 51
0.000899
  0
ARC
  5
9A
330
79
100
AcDbEntity
  8
0
  6
Continuous
 62
     0
370
    30
100
AcDbCircle
 10
-13796.874361
 20
181.557417
 30
0.0
 40
14069.86005829297
100
AcDbArc
 50
359.954519
 51
0.0009
  0
LINE
  5
9B
330
79
100
AcDbEntity
  8
0
  6
Continuous
 62
     0
370
    30
100
AcDbLine
 10
272.981257
 20
170.380743
 30
0.0
 11
272.97808
 21
166.514341
 31
0.0
  0
LINE
  5
9C
330
79
100
AcDbEntity
  8
0
  6
Continuous
 62
     0
370
    30
100
AcDbLine
 10
292.981257
 20
170.372524
 30
0.0
 11
292.978073
 21
166.497903
 31
0.0
  0
LINE
  5
9D
330
79
100
AcDbEntity
  8
0
  6
Continuous
 62
     0
370
    30
100
AcDbLine
 10
292.975514
 20
163.373195
 30
0.0
 11
292.95507
 21
138.500065
 31
0.0
  0
LINE
  5
9E
330
79
100
AcDbEntity
  8
0
  6
Continuous
 62
     0
370
    30
100
AcDbLine
 10
272.975503
 20
163.389634
 30
0.0
 11
272.955059
 21
138.516503
 31
0.0
  0
LINE
  5
9F
330
79
100
AcDbEntity
  8
0
  6
Continuous
 62
     0
370
    30
100
AcDbLine
 10
276.485701
 20
220.787198
 30
0.0
 11
276.485701
 21
160.787198
 31
0.0
  0
LINE
  5
A0
330
79
100
AcDbEntity
  8
0
  6
Continuous
 62
     0
370
    30
100
AcDbLine
 10
289.485689
 20
220.787198
 30
0.0
 11
289.485689
 21
160.787198
 31
0.0
  0
LWPOLYLINE
  5
A1
330
79
100
AcDbEntity
  8
0
  6
Continuous
 62
     0
370
    30
100
AcDbPolyline
 90
       20
 70
     0
 43
0.0
 10
292.291656
 20
228.852249
 10
292.255341
 20
228.83493
 10
291.975739
 20
228.689148
 10
291.704987
 20
228.525467
 10
291.445038
 20
228.345078
 10
291.196991
 20
228.148682
 10
290.961884
 20
227.936935
 10
290.740723
 20
227.710693
 10
290.534302
 20
227.470917
 10
290.343414
 20
227.218582
 10
290.168884
 20
226.954697
 10
290.011414
 20
226.680267
 10
289.871582
 20
226.396439
 10
289.75
 20
226.104355
 10
289.647247
 20
225.805145
 10
289.563629
 20
225.500046
 10
289.49939
 20
225.190247
 10
289.454773
 20
224.876953
 10
289.430023
 20
224.561462
 10
289.425354
 20
224.242722
  0
LWPOLYLINE
  5
A2
330
79
100
AcDbEntity
  8
0
  6
Continuous
 62
     0
370
    30
100
AcDbPolyline
 90
       20
 70
     0
 43
0.0
 10
273.679718
 20
228.852249
 10
273.716064
 20
228.83493
 10
273.995667
 20
228.689148
 10
274.266418
 20
228.525467
 10
274.526337
 20
228.345078
 10
274.774414
 20
228.148682
 10
275.009491
 20
227.936935
 10
275.230652
 20
227.710693
 10
275.437103
 20
227.470917
 10
275.627991
 20
227.218582
 10
275.802521
 20
226.954697
 10
275.959991
 20
226.680267
 10
276.099792
 20
226.396439
 10
276.221375
 20
226.104355
 10
276.324127
 20
225.805145
 10
276.407776
 20
225.500046
 10
276.472015
 20
225.190247
 10
276.516632
 20
224.876953
 10
276.541382
 20
224.561462
 10
276.546051
 20
224.242722
  0
LINE
  5
A3
330
79
100
AcDbEntity
  8
0
  6
Continuous
 62
     0
370
    30
100
AcDbLine
 10
289.425391
 20
224.242022
 30
0.0
 11
289.485695
 21
220.787198
 31
0.0
  0
LINE
  5
A4
330
79
100
AcDbEntity
  8
0
  6
Continuous
 62
     0
370
    30
100
AcDbLine
 10
276.545999
 20
224.242022
 30
0.0
 11
276.485695
 21
220.787198
 31
0.0
  0
ENDBLK
  5
A6
330
79
100
AcDbEntity
  8
0
100
AcDbBlockEnd
  0
BLOCK
  5
DE
330
A8
100
AcDbEntity
  8
0
100
AcDbBlockBegin
  2
c
 70
     0
 10
227.15033
 20
131.312515
 30
0.0
  3
c
  1

  0
LINE
  5
A9
330
A8
100
AcDbEntity
  8
0
  6
Continuous
 62
     0
370
    30
100
AcDbLine
 10
469.880988
 20
481.873563
 30
0.0
 11
491.351672
 21
481.873563
 31
0.0
  0
LINE
  5
AA
330
A8
100
AcDbEntity
  8
0
  6
Continuous
 62
     0
370
    30
100
AcDbLine
 10
447.351672
 20
512.873563
 30
0.0
 11
491.351672
 21
512.873563
 31
0.0
  0
LINE
  5
AB
330
A8
100
AcDbEntity
  8
0
  6
Continuous
 62
     0
370
    30
100
AcDbLine
 10
447.351672
 20
490.073764
 30
0.0
 11
469.880988
 21
481.873563
 31
0.0
  0
LINE
  5
AC
330
A8
100
AcDbEntity
  8
0
  6
Continuous
 62
     0
370
    30
100
AcDbLine
 10
491.351672
 20
481.873563
 30
0.0
 11
491.351672
 21
486.390256
 31
0.0
  0
LWPOLYLINE
  5
AD
330
A8
100
AcDbEntity
  8
0
  6
Continuous
 62
     0
370
     0
100
AcDbPolyline
 90
       32
 70
     0
 43
0.0
 10
491.351685
 20
486.390259
 10
491.32605
 20
486.466156
 10
491.251129
 20
486.686401
 10
491.132507
 20
487.042755
 10
490.978119
 20
487.523163
 10
490.797241
 20
488.110809
 10
490.599365
 20
488.791107
 10
490.393372
 20
489.550629
 10
490.187408
 20
490.378357
 10
489.988983
 20
491.264099
 10
489.805084
 20
492.197968
 10
489.641663
 20
493.172119
 10
489.503967
 20
494.179169
 10
489.396454
 20
495.211823
 10
489.322571
 20
496.262848
 10
489.284729
 20
497.324951
 10
489.28418
 20
498.390869
 10
489.320923
 20
499.453217
 10
489.393799
 20
500.504669
 10
489.500366
 20
501.537933
 10
489.637238
 20
502.545837
 10
489.800018
 20
503.521118
 10
489.983368
 20
504.456238
 10
490.181335
 20
505.343231
 10
490.387268
 20
506.173279
 10
490.593872
 20
506.936432
 10
490.792389
 20
507.619965
 10
490.973877
 20
508.210419
 10
491.129028
 20
508.693512
 10
491.248627
 20
509.054016
 10
491.324738
 20
509.278137
 10
491.351685
 20
509.356873
  0
LINE
  5
AE
330
A8
100
AcDbEntity
  8
0
  6
Continuous
 62
     0
370
    30
100
AcDbLine
 10
491.351672
 20
509.35687
 30
0.0
 11
491.351672
 21
512.873563
 31
0.0
  0
LINE
  5
AF
330
A8
100
AcDbEntity
  8
0
  6
Continuous
 62
     0
370
    30
100
AcDbLine
 10
496.438934
 20
504.357631
 30
0.0
 11
497.351672
 21
504.373563
 31
0.0
  0
LINE
  5
B0
330
A8
100
AcDbEntity
  8
0
  6
Continuous
 62
     0
370
     0
100
AcDbLine
 10
497.351672
 20
504.373563
 30
0.0
 11
497.351672
 21
491.373563
 31
0.0
  0
LWPOLYLINE
  5
B1
330
A8
100
AcDbEntity
  8
0
  6
Continuous
 62
     0
370
     0
100
AcDbPolyline
 90
       25
 70
     0
 43
0.0
 10
496.438934
 20
491.389496
 10
496.394684
 20
491.44931
 10
496.266174
 20
491.625061
 10
496.065826
 20
491.907959
 10
495.809265
 20
492.287384
 10
495.514343
 20
492.752594
 10
495.198608
 20
493.295197
 10
494.879517
 20
493.909332
 10
494.575043
 20
494.590942
 10
494.304382
 20
495.335968
 10
494.088135
 20
496.136749
 10
493.947357
 20
496.985046
 10
493.896637
 20
497.85968
 10
493.944275
 20
498.734741
 10
494.082428
 20
499.584259
 10
494.296631
 20
500.386688
 10
494.565918
 20
501.133575
 10
494.869659
 20
501.817261
 10
495.188568
 20
502.433594
 10
495.504639
 20
502.978546
 10
495.800537
 20
503.446289
 10
496.058655
 20
503.828583
 10
496.261108
 20
504.114716
 10
496.391968
 20
504.293976
 10
496.438934
 20
504.357635
  0
ARC
  5
B2
330
A8
100
AcDbEntity
  8
0
  6
Continuous
 62
     0
370
    30
100
AcDbCircle
 10
496.351672
 20
509.35687
 30
0.0
 40
4.999999999999143
100
AcDbArc
 50
180.0
 51
271.0
  0
ARC
  5
B3
330
A8
100
AcDbEntity
  8
0
  6
Continuous
 62
     0
370
    30
100
AcDbCircle
 10
496.351672
 20
486.390256
 30
0.0
 40
4.999999999998964
100
AcDbArc
 50
89.0
 51
180.0
  0
LINE
  5
B4
330
A8
100
AcDbEntity
  8
0
  6
Continuous
 62
     0
370
    30
100
AcDbLine
 10
557.351672
 20
491.373569
 30
0.0
 11
557.351672
 21
504.373557
 31
0.0
  0
LINE
  5
B5
330
A8
100
AcDbEntity
  8
0
  6
Continuous
 62
     0
370
    30
100
AcDbLine
 10
557.351672
 20
504.373557
 30
0.0
 11
497.351672
 21
504.373557
 31
0.0
  0
LWPOLYLINE
  5
B6
330
A8
100
AcDbEntity
  8
0
  6
Continuous
 62
     0
370
    30
100
AcDbPolyline
 90
       15
 70
     0
 43
0.0
 10
559.141174
 20
454.605347
 10
559.109314
 20
454.542053
 10
559.02002
 20
454.360901
 10
558.869202
 20
454.053558
 10
558.651428
 20
453.608948
 10
558.364929
 20
453.023407
 10
558.011292
 20
452.300079
 10
557.595886
 20
451.44986
 10
557.127563
 20
450.490967
 10
556.618286
 20
449.447906
 10
556.082153
 20
448.349457
 10
555.533875
 20
447.225922
 10
554.987915
 20
446.10672
 10
554.456909
 20
445.018005
 10
553.947388
 20
443.973083
  0
ARC
  5
B7
330
A8
100
AcDbEntity
  8
0
  6
Continuous
 62
     0
370
    30
100
AcDbCircle
 10
2810.049205
 20
-658.458893
 30
0.0
 40
2511.045927860159
100
AcDbArc
 50
153.957802
 51
154.144153
  0
ELLIPSE
  5
B8
330
A8
100
AcDbEntity
  8
0
  6
Continuous
 62
     0
370
    30
100
AcDbEllipse
 10
579.630589
 20
433.485982
 30
0.0
 11
-4.383710345589971
 21
-8.987950924496708
 31
0.0
210
0.0
220
0.0
230
-0.9999999999999998
 40
0.000739
 41
1.386452700276465
 42
4.528045522520689
  0
ELLIPSE
  5
B9
330
A8
100
AcDbEntity
  8
0
  6
Continuous
 62
     0
370
    30
100
AcDbEllipse
 10
579.630589
 20
433.485982
 30
0.0
 11
-4.383710345589971
 21
-8.987950924496708
 31
0.0
210
0.0
220
0.0
230
-0.9999999999999998
 40
0.000739
 41
4.528045522520678
 42
7.669638007455903
  0
ELLIPSE
  5
BA
330
A8
100
AcDbEntity
  8
0
  6
Continuous
 62
     0
370
     0
100
AcDbEllipse
 10
547.758129
 20
449.031195
 30
0.0
 11
4.383706439376249
 21
8.987942915560334
 31
0.0
210
0.0
220
0.0
230
1.0
 40
0.000739
 41
1.569281671133931
 42
3.141592634427531
  0
ELLIPSE
  5
BB
330
A8
100
AcDbEntity
  8
0
  6
Continuous
 62
     0
370
     0
100
AcDbEllipse
 10
547.758129
 20
449.031195
 30
0.0
 11
4.383706439376249
 21
8.987942915560334
 31
0.0
210
0.0
220
0.0
230
1.0
 40
0.000739
 41
6.283060844527094
 42
7.852466978313517
  0
ELLIPSE
  5
BC
330
A8
100
AcDbEntity
  8
0
  6
Continuous
 62
     0
370
    30
100
AcDbEllipse
 10
551.63275
 20
447.141419
 30
0.0
 11
-4.383706439376249
 21
-8.987942915560334
 31
0.0
210
0.0
220
0.0
230
-1.0
 40
0.000739
 41
1.572310982455863
 42
4.245626131385873
  0
ELLIPSE
  5
BD
330
A8
100
AcDbEntity
  8
0
  6
Continuous
 62
     0
370
    30
100
AcDbEllipse
 10
551.63275
 20
447.141419
 30
0.0
 11
-4.383706439376249
 21
-8.987942915560334
 31
0.0
210
0.0
220
0.0
230
-1.0
 40
0.000739
 41
5.179151867707294
 42
7.855496289635446
  0
LINE
  5
BE
330
A8
100
AcDbEntity
  8
0
  6
Continuous
 62
     0
370
     0
100
AcDbLine
 10
536.36048
 20
451.679398
 30
0.0
 11
536.36048
 21
441.66256
 31
0.0
  0
LWPOLYLINE
  5
BF
330
A8
100
AcDbEntity
  8
0
  6
Continuous
 62
     0
370
     0
100
AcDbPolyline
 90
       14
 70
     0
 43
0.0
 10
536.360474
 20
461.662537
 10
536.360474
 20
461.602997
 10
536.360474
 20
461.411499
 10
536.360474
 20
461.077179
 10
536.360474
 20
460.59436
 10
536.360474
 20
459.963898
 10
536.360474
 20
459.193878
 10
536.360474
 20
458.299438
 10
536.360474
 20
457.302063
 10
536.360474
 20
456.227722
 10
536.360474
 20
455.104736
 10
536.360474
 20
453.961578
 10
536.360474
 20
452.824646
 10
536.360474
 20
451.679413
  0
LINE
  5
C0
330
A8
100
AcDbEntity
  8
0
  6
Continuous
 62
     0
370
    30
100
AcDbLine
 10
491.351672
 20
433.662546
 30
0.0
 11
491.351672
 21
365.662546
 31
0.0
  0
LWPOLYLINE
  5
C1
330
A8
100
AcDbEntity
  8
0
  6
Continuous
 62
     0
370
     0
100
AcDbPolyline
 90
       42
 70
     0
 43
0.0
 10
491.351685
 20
433.662537
 10
491.317688
 20
433.739777
 10
491.218048
 20
433.96817
 10
491.058807
 20
434.336334
 10
490.84845
 20
434.831146
 10
490.596893
 20
435.435883
 10
490.313873
 20
436.135406
 10
490.008331
 20
436.916565
 10
489.688568
 20
437.767487
 10
489.362244
 20
438.678223
 10
489.035919
 20
439.641541
 10
488.715668
 20
440.651215
 10
488.40744
 20
441.701233
 10
488.11676
 20
442.786438
 10
487.848694
 20
443.903046
 10
487.608063
 20
445.047302
 10
487.399323
 20
446.215454
 10
487.226715
 20
447.403564
 10
487.09375
 20
448.607574
 10
487.003387
 20
449.823212
 10
486.957611
 20
451.045929
 10
486.957428
 20
452.271057
 10
487.002869
 20
453.493835
 10
487.092926
 20
454.709534
 10
487.225708
 20
455.913605
 10
487.398102
 20
457.101837
 10
487.606598
 20
458.270111
 10
487.847015
 20
459.414551
 10
488.114899
 20
460.531372
 10
488.405426
 20
461.616821
 10
488.713562
 20
462.667053
 10
489.033783
 20
463.677002
 10
489.360107
 20
464.640625
 10
489.686432
 20
465.551758
 10
490.006226
 20
466.403168
 10
490.31192
 20
467.184784
 10
490.595154
 20
467.884766
 10
490.846924
 20
468.490173
 10
491.057556
 20
468.98584
 10
491.217163
 20
469.355225
 10
491.31723
 20
469.584595
 10
491.351685
 20
469.662537
  0
LINE
  5
C2
330
A8
100
AcDbEntity
  8
0
  6
Continuous
 62
     0
370
    30
100
AcDbLine
 10
491.351672
 20
469.662546
 30
0.0
 11
491.351672
 21
480.662546
 31
0.0
  0
LINE
  5
C3
330
A8
100
AcDbEntity
  8
0
  6
Continuous
 62
     0
370
    30
100
AcDbLine
 10
491.351672
 20
480.662546
 30
0.0
 11
447.351672
 21
480.662546
 31
0.0
  0
ARC
  5
C4
330
A8
100
AcDbEntity
  8
0
  6
Continuous
 62
     0
370
    30
100
AcDbCircle
 10
499.351672
 20
433.662546
 30
0.0
 40
7.999999999999879
100
AcDbArc
 50
90.0
 51
180.0
  0
ARC
  5
C5
330
A8
100
AcDbEntity
  8
0
  6
Continuous
 62
     0
370
    30
100
AcDbCircle
 10
499.351672
 20
469.662546
 30
0.0
 40
8.00000000000003
100
AcDbArc
 50
180.0
 51
270.0
  0
LINE
  5
C6
330
A8
100
AcDbEntity
  8
0
  6
Continuous
 62
     0
370
    30
100
AcDbLine
 10
496.293954
 20
361.662546
 30
0.0
 11
496.351679
 21
361.662546
 31
0.0
  0
LINE
  5
C7
330
A8
100
AcDbEntity
  8
0
  6
Continuous
 62
     0
370
    30
100
AcDbLine
 10
442.351679
 20
361.662546
 30
0.0
 11
496.293954
 21
361.662546
 31
0.0
  0
LINE
  5
C8
330
A8
100
AcDbEntity
  8
0
  6
Continuous
 62
     0
370
    30
100
AcDbLine
 10
496.293954
 20
365.662546
 30
0.0
 11
442.351679
 21
365.662546
 31
0.0
  0
LINE
  5
C9
330
A8
100
AcDbEntity
  8
0
  6
Continuous
 62
     0
370
    30
100
AcDbLine
 10
496.351679
 20
365.662546
 30
0.0
 11
496.293954
 21
365.662546
 31
0.0
  0
LWPOLYLINE
  5
CA
330
A8
100
AcDbEntity
  8
0
  6
Continuous
 62
     0
370
     0
100
AcDbPolyline
 90
       20
 70
     0
 43
0.0
 10
499.351685
 20
441.662537
 10
499.296265
 20
441.713776
 10
499.136383
 20
441.863098
 10
498.884521
 20
442.101318
 10
498.5578
 20
442.41626
 10
498.174164
 20
442.795593
 10
497.749359
 20
443.229248
 10
497.298187
 20
443.707947
 10
496.832611
 20
444.225403
 10
496.362701
 20
444.777161
 10
495.89801
 20
445.359619
 10
495.446991
 20
445.970642
 10
495.018097
 20
446.608246
 10
494.619934
 20
447.270905
 10
494.261169
 20
447.957275
 10
493.950592
 20
448.665527
 10
493.696899
 20
449.392944
 10
493.508789
 20
450.136536
 10
493.392334
 20
450.891724
 10
493.351868
 20
451.679413
  0
LWPOLYLINE
  5
CB
330
A8
100
AcDbEntity
  8
0
  6
Continuous
 62
     0
370
     0
100
AcDbPolyline
 90
       20
 70
     0
 43
0.0
 10
493.351868
 20
451.679413
 10
493.392792
 20
452.438477
 10
493.509308
 20
453.191711
 10
493.697205
 20
453.93335
 10
493.950378
 20
454.658875
 10
494.260162
 20
455.365356
 10
494.617767
 20
456.05011
 10
495.014557
 20
456.711304
 10
495.441986
 20
457.347534
 10
495.891632
 20
457.957336
 10
496.355072
 20
458.538727
 10
496.823853
 20
459.08963
 10
497.288513
 20
459.606537
 10
497.738861
 20
460.08493
 10
498.163239
 20
460.518646
 10
498.54715
 20
460.898621
 10
498.875214
 20
461.214905
 10
499.129456
 20
461.455383
 10
499.292542
 20
461.607727
 10
499.351654
 20
461.662537
  0
LINE
  5
CC
330
A8
100
AcDbEntity
  8
0
  6
Continuous
 62
     0
370
    30
100
AcDbLine
 10
499.351672
 20
441.662546
 30
0.0
 11
536.36048
 21
441.662546
 31
0.0
  0
LINE
  5
CD
330
A8
100
AcDbEntity
  8
0
  6
Continuous
 62
     0
370
    30
100
AcDbLine
 10
499.351656
 20
461.662546
 30
0.0
 11
536.36048
 21
461.662546
 31
0.0
  0
LINE
  5
CE
330
A8
100
AcDbEntity
  8
0
  6
Continuous
 62
     0
370
    30
100
AcDbLine
 10
496.351679
 20
361.662546
 30
0.0
 11
496.351679
 21
365.662546
 31
0.0
  0
LINE
  5
CF
330
A8
100
AcDbEntity
  8
0
  6
Continuous
 62
     0
370
    30
100
AcDbLine
 10
442.351679
 20
361.662546
 30
0.0
 11
442.351679
 21
365.662546
 31
0.0
  0
LINE
  5
D0
330
A8
100
AcDbEntity
  8
0
  6
Continuous
 62
     0
370
    30
100
AcDbLine
 10
447.351672
 20
365.662546
 30
0.0
 11
447.351672
 21
480.662546
 31
0.0
  0
ARC
  5
D1
330
A8
100
AcDbEntity
  8
0
  6
Continuous
 62
     0
370
    30
100
AcDbCircle
 10
536.360447
 20
425.662371
 30
0.0
 40
36.00017529815609
100
AcDbArc
 50
64.000087
 51
89.999948
  0
ARC
  5
D2
330
A8
100
AcDbEntity
  8
0
  6
Continuous
 62
     0
370
    30
100
AcDbCircle
 10
536.360465
 20
425.662451
 30
0.0
 40
16.00009484714859
100
AcDbArc
 50
64.000089
 51
89.999949
  0
LINE
  5
D3
330
A8
100
AcDbEntity
  8
0
  6
Continuous
 62
     0
370
    30
100
AcDbLine
 10
543.374423
 20
440.043252
 30
0.0
 11
547.249044
 21
438.153476
 31
0.0
  0
LINE
  5
D4
330
A8
100
AcDbEntity
  8
0
  6
Continuous
 62
     0
370
    30
100
AcDbLine
 10
552.141836
 20
458.019138
 30
0.0
 11
556.016457
 21
456.129362
 31
0.0
  0
LINE
  5
D5
330
A8
100
AcDbEntity
  8
0
  6
Continuous
 62
     0
370
    30
100
AcDbLine
 10
550.373747
 20
436.629451
 30
0.0
 11
575.246878
 21
424.498031
 31
0.0
  0
LINE
  5
D6
330
A8
100
AcDbEntity
  8
0
  6
Continuous
 62
     0
370
    30
100
AcDbLine
 10
559.141168
 20
454.605353
 30
0.0
 11
584.014299
 21
442.473933
 31
0.0
  0
LINE
  5
D7
330
A8
100
AcDbEntity
  8
0
  6
Continuous
 62
     0
370
    30
100
AcDbLine
 10
549.660092
 20
443.096864
 30
0.0
 11
552.778869
 21
441.575737
 31
0.0
  0
LINE
  5
D8
330
A8
100
AcDbEntity
  8
0
  6
Continuous
 62
     0
370
    30
100
AcDbLine
 10
553.605408
 20
451.185973
 30
0.0
 11
556.724186
 21
449.664846
 31
0.0
  0
ARC
  5
D9
330
A8
100
AcDbEntity
  8
0
  6
Continuous
 62
     0
370
    30
100
AcDbCircle
 10
469.351733
 20
479.162507
 30
0.0
 40
20.50519694038491
100
AcDbArc
 50
152.354586
 51
175.804833
  0
ARC
  5
DA
330
A8
100
AcDbEntity
  8
0
  6
Continuous
 62
     0
370
    30
100
AcDbCircle
 10
469.351374
 20
479.162495
 30
0.0
 40
20.50543443731393
100
AcDbArc
 50
4.195152
 51
7.597443
  0
LINE
  5
DB
330
A8
100
AcDbEntity
  8
0
  6
Continuous
 62
     0
370
    30
100
AcDbLine
 10
497.351672
 20
491.373569
 30
0.0
 11
557.351672
 21
491.373569
 31
0.0
  0
LINE
  5
DC
330
A8
100
AcDbEntity
  8
0
  6
Continuous
 62
     0
370
    30
100
AcDbLine
 10
496.438934
 20
491.389495
 30
0.0
 11
497.351672
 21
491.373563
 31
0.0
  0
LINE
  5
DD
330
A8
100
AcDbEntity
  8
0
  6
Continuous
 62
     0
370
    30
100
AcDbLine
 10
447.351672
 20
490.073862
 30
0.0
 11
447.351672
 21
512.873563
 31
0.0
  0
ENDBLK
  5
DF
330
A8
100
AcDbEntity
  8
0
100
AcDbBlockEnd
  0
BLOCK
  5
125
330
E1
100
AcDbEntity
  8
0
100
AcDbBlockBegin
  2
d
 70
     0
 10
227.15033
 20
131.312515
 30
0.0
  3
d
  1

  0
ARC
  5
E2
330
E1
100
AcDbEntity
  8
0
  6
Continuous
 62
     0
370
    30
100
AcDbCircle
 10
526.117372
 20
259.647404
 30
0.0
 40
18.69134410972589
100
AcDbArc
 50
226.141496
 51
234.847087
  0
LWPOLYLINE
  5
E3
330
E1
100
AcDbEntity
  8
0
  6
Continuous
 62
     0
370
    30
100
AcDbPolyline
 90
       18
 70
     0
 43
0.0
 10
515.355652
 20
244.365021
 10
516.707458
 20
243.485794
 10
518.204651
 20
242.666138
 10
519.840942
 20
241.921951
 10
521.605896
 20
241.268982
 10
523.484436
 20
240.722076
 10
525.457275
 20
240.294418
 10
527.501221
 20
239.996765
 10
529.59021
 20
239.836777
 10
531.696106
 20
239.818558
 10
533.790039
 20
239.942368
 10
535.843811
 20
240.20459
 10
537.830933
 20
240.598038
 10
539.727966
 20
241.112335
 10
541.515137
 20
241.734665
 10
543.17688
 20
242.450439
 10
544.702087
 20
243.244095
 10
546.089539
 20
244.103546
  0
LWPOLYLINE
  5
E4
330
E1
100
AcDbEntity
  8
0
  6
Continuous
 62
     0
370
    30
100
AcDbPolyline
 90
       40
 70
     0
 43
0.0
 10
515.355652
 20
266.285339
 10
516.541504
 20
265.506348
 10
517.841675
 20
264.771973
 10
519.252747
 20
264.093262
 10
520.768311
 20
263.481232
 10
522.379578
 20
262.946594
 10
524.074707
 20
262.499329
 10
525.839478
 20
262.148132
 10
527.657288
 20
261.900146
 10
529.509827
 20
261.76062
 10
531.377441
 20
261.732452
 10
533.240051
 20
261.816315
 10
535.077637
 20
262.010406
 10
536.871216
 20
262.310547
 10
538.603271
 20
262.710632
 10
540.25824
 20
263.202576
 10
541.823181
 20
263.777069
 10
543.287598
 20
264.423676
 10
544.644043
 20
265.1315
 10
545.887573
 20
265.889465
 10
547.023987
 20
266.69281
 10
548.09613
 20
267.571808
 10
549.097473
 20
268.53067
 10
550.012268
 20
269.565918
 10
550.825134
 20
270.672211
 10
551.521362
 20
271.842224
 10
552.087646
 20
273.066772
 10
552.512695
 20
274.3349
 10
552.78772
 20
275.634186
 10
552.906921
 20
276.951202
 10
552.867676
 20
278.27182
 10
552.670959
 20
279.581818
 10
552.320801
 20
280.86731
 10
551.824707
 20
282.115356
 10
551.192627
 20
283.31424
 10
550.437012
 20
284.453796
 10
549.571838
 20
285.525757
 10
548.612305
 20
286.523773
 10
547.574036
 20
287.443481
 10
546.468323
 20
288.285339
  0
LWPOLYLINE
  5
E5
330
E1
100
AcDbEntity
  8
0
  6
Continuous
 62
     0
370
    30
100
AcDbPolyline
 90
       39
 70
     0
 43
0.0
 10
546.468323
 20
288.285339
 10
545.180054
 20
289.126404
 10
543.775085
 20
289.905579
 10
542.262268
 20
290.61145
 10
540.65332
 20
291.233551
 10
538.962524
 20
291.762695
 10
537.206482
 20
292.191376
 10
535.403259
 20
292.514069
 10
533.572388
 20
292.727509
 10
531.733521
 20
292.830841
 10
529.906128
 20
292.825409
 10
528.108704
 20
292.714874
 10
526.358215
 20
292.504791
 10
524.665894
 20
292.201538
 10
522.995422
 20
291.799591
 10
521.34845
 20
291.294952
 10
519.743408
 20
290.687988
 10
518.199036
 20
289.981415
 10
516.733459
 20
289.180054
 10
515.363708
 20
288.291046
 10
514.105042
 20
287.323425
 10
512.970154
 20
286.287872
 10
511.969208
 20
285.196442
 10
511.1091
 20
284.061981
 10
510.393616
 20
282.897644
 10
509.823395
 20
281.716553
 10
509.392914
 20
280.520294
 10
509.094147
 20
279.28302
 10
508.936035
 20
278.01239
 10
508.926483
 20
276.720398
 10
509.070679
 20
275.420135
 10
509.370636
 20
274.125336
 10
509.825134
 20
272.849976
 10
510.429535
 20
271.607758
 10
511.176178
 20
270.41153
 10
512.054443
 20
269.273071
 10
513.051331
 20
268.202484
 10
514.152039
 20
267.208038
 10
515.355652
 20
266.285339
  0
LWPOLYLINE
  5
E6
330
E1
100
AcDbEntity
  8
0
  6
Continuous
 62
     0
370
    30
100
AcDbPolyline
 90
       11
 70
     0
 43
0.0
 10
546.089539
 20
244.103546
 10
547.309204
 20
245.44487
 10
548.42804
 20
246.855148
 10
549.438477
 20
248.325043
 10
550.33075
 20
249.841858
 10
551.09729
 20
251.39502
 10
551.734863
 20
252.978546
 10
552.23999
 20
254.585587
 10
552.607483
 20
256.20639
 10
552.832458
 20
257.830536
 10
552.911926
 20
259.506744
  0
LWPOLYLINE
  5
E7
330
E1
100
AcDbEntity
  8
0
  6
Continuous
 62
     0
370
     0
100
AcDbPolyline
 90
       16
 70
     0
 43
0.0
 10
510.258087
 20
260.299011
 10
510.230957
 20
261.195282
 10
510.241974
 20
262.019012
 10
510.291534
 20
262.763214
 10
510.381226
 20
263.421967
 10
510.513855
 20
263.990234
 10
510.69339
 20
264.463867
 10
510.924805
 20
264.839142
 10
511.21402
 20
265.112335
 10
511.568298
 20
265.2789
 10
511.994751
 20
265.334045
 10
512.49939
 20
265.272888
 10
513.086853
 20
265.0914
 10
513.758118
 20
264.78717
 10
514.508362
 20
264.360809
 10
515.355652
 20
263.798645
  0
LINE
  5
E8
330
E1
100
AcDbEntity
  8
0
  6
Continuous
 62
     0
370
     0
100
AcDbLine
 10
515.355633
 20
247.558803
 30
0.0
 11
515.237544
 21
247.645375
 31
0.0
  0
LWPOLYLINE
  5
E9
330
E1
100
AcDbEntity
  8
0
  6
Continuous
 62
     0
370
     0
100
AcDbPolyline
 90
       31
 70
     0
 43
0.0
 10
515.355652
 20
263.798645
 10
516.15033
 20
263.206757
 10
516.964478
 20
262.544983
 10
517.778503
 20
261.827057
 10
518.574463
 20
261.066833
 10
519.337341
 20
260.277496
 10
520.054749
 20
259.468719
 10
520.718079
 20
258.646973
 10
521.320557
 20
257.81662
 10
521.855957
 20
256.981934
 10
522.318787
 20
256.146637
 10
522.704712
 20
255.31337
 10
523.009888
 20
254.485138
 10
523.230896
 20
253.665451
 10
523.365234
 20
252.858414
 10
523.411316
 20
252.068726
 10
523.368469
 20
251.301788
 10
523.237366
 20
250.563644
 10
523.019531
 20
249.860901
 10
522.717407
 20
249.200745
 10
522.33429
 20
248.590973
 10
521.874146
 20
248.039993
 10
521.341675
 20
247.557007
 10
520.741455
 20
247.152496
 10
520.078796
 20
246.837982
 10
519.361755
 20
246.626556
 10
518.599854
 20
246.531799
 10
517.804932
 20
246.566589
 10
516.991333
 20
246.742676
 10
516.176819
 20
247.067551
 10
515.355652
 20
247.558807
  0
LWPOLYLINE
  5
EA
330
E1
100
AcDbEntity
  8
0
  6
Continuous
 62
     0
370
     0
100
AcDbPolyline
 90
       16
 70
     0
 43
0.0
 10
514.862183
 20
247.368988
 10
515.220886
 20
247.712387
 10
515.480042
 20
248.157669
 10
515.639709
 20
248.681824
 10
515.705994
 20
249.259964
 10
515.687866
 20
249.886017
 10
515.581726
 20
250.593643
 10
515.378906
 20
251.373138
 10
515.075684
 20
252.205154
 10
514.675293
 20
253.064163
 10
514.187805
 20
253.920746
 10
513.629944
 20
254.744705
 10
513.023071
 20
255.508591
 10
512.390381
 20
256.190582
 10
511.754517
 20
256.776306
 10
511.113007
 20
257.274933
  0
LWPOLYLINE
  5
EB
330
E1
100
AcDbEntity
  8
0
  6
Continuous
 62
     0
370
     0
100
AcDbPolyline
 90
        8
 70
     0
 43
0.0
 10
511.113007
 20
257.274933
 10
510.550842
 20
257.637909
 10
509.973083
 20
257.937347
 10
509.394196
 20
258.15683
 10
508.83078
 20
258.282043
 10
508.300537
 20
258.302704
 10
507.820465
 20
258.213806
 10
507.360229
 20
257.985962
  0
LWPOLYLINE
  5
EC
330
E1
100
AcDbEntity
  8
0
  6
Continuous
 62
     0
370
     0
100
AcDbPolyline
 90
        7
 70
     0
 43
0.0
 10
509.219452
 20
259.245605
 10
509.394165
 20
259.276093
 10
509.648621
 20
259.178375
 10
510.000488
 20
258.963684
 10
510.464844
 20
258.641663
 10
511.050171
 20
258.223755
 10
511.758392
 20
257.720032
  0
LWPOLYLINE
  5
ED
330
E1
100
AcDbEntity
  8
0
  6
Continuous
 62
     0
370
     0
100
AcDbPolyline
 90
       18
 70
     0
 43
0.0
 10
511.758392
 20
257.720032
 10
512.39032
 20
257.275024
 10
513.063049
 20
256.803558
 10
513.755005
 20
256.314972
 10
514.447815
 20
255.815002
 10
515.123779
 20
255.306747
 10
515.767883
 20
254.790161
 10
516.366455
 20
254.262756
 10
516.904968
 20
253.7211
 10
517.367188
 20
253.161392
 10
517.733948
 20
252.58313
 10
517.984558
 20
251.985809
 10
518.102234
 20
251.37764
 10
518.075012
 20
250.773819
 10
517.906494
 20
250.191895
 10
517.610413
 20
249.650116
 10
517.205933
 20
249.160797
 10
516.695496
 20
248.721024
  0
LWPOLYLINE
  5
EE
330
E1
100
AcDbEntity
  8
0
  6
Continuous
 62
     0
370
     0
100
AcDbPolyline
 90
       10
 70
     0
 43
0.0
 10
515.355652
 20
263.798645
 10
515.301697
 20
263.148163
 10
515.142395
 20
262.438995
 10
514.881775
 20
261.695557
 10
514.52832
 20
260.940948
 10
514.092896
 20
260.197601
 10
513.588257
 20
259.487335
 10
513.029236
 20
258.83136
 10
512.432678
 20
258.250244
 10
511.758392
 20
257.720032
  0
ARC
  5
EF
330
E1
100
AcDbEntity
  8
0
  6
Continuous
 62
     0
370
     0
100
AcDbCircle
 10
512.062478
 20
247.560089
 30
0.0
 40
3.29315549507456
100
AcDbArc
 50
359.977621
 51
2.94513
  0
ELLIPSE
  5
F0
330
E1
100
AcDbEntity
  8
0
  6
Continuous
 62
     0
370
    30
100
AcDbEllipse
 10
468.686586
 20
222.678726
 30
0.0
 11
-3.75277345834205
 21
5.307222943033022
 31
0.0
210
0.0
220
0.0
230
-0.9999999999999998
 40
0.5
 41
0.9553166497931928
 42
4.09690930338299
  0
ELLIPSE
  5
F1
330
E1
100
AcDbEntity
  8
0
  6
Continuous
 62
     0
370
    30
100
AcDbEllipse
 10
468.686586
 20
222.678726
 30
0.0
 11
-3.75277345834205
 21
5.307222943033022
 31
0.0
210
0.0
220
0.0
230
-0.9999999999999998
 40
0.5
 41
4.09690930338299
 42
7.238501956972779
  0
ELLIPSE
  5
F2
330
E1
100
AcDbEntity
  8
0
  6
Continuous
 62
     0
370
    30
100
AcDbEllipse
 10
472.725087
 20
189.668954
 30
0.0
 11
3.449001371130901
 21
-2.890361733553856
 31
0.0
210
0.0
220
0.0
230
0.9999999999999998
 40
0.139053
 41
0.000000049041665
 42
1.504057129982854
  0
ELLIPSE
  5
F3
330
E1
100
AcDbEntity
  8
0
  6
Continuous
 62
     0
370
    30
100
AcDbEllipse
 10
472.725087
 20
189.668954
 30
0.0
 11
3.449001371130901
 21
-2.890361733553856
 31
0.0
210
0.0
220
0.0
230
0.9999999999999998
 40
0.139053
 41
1.504057129982868
 42
3.141592702631453
  0
LWPOLYLINE
  5
F4
330
E1
100
AcDbEntity
  8
0
  6
Continuous
 62
     0
370
    30
100
AcDbPolyline
 90
       22
 70
     0
 43
0.0
 10
476.892242
 20
182.872635
 10
476.397491
 20
183.425522
 10
475.813843
 20
184.042587
 10
475.143555
 20
184.717987
 10
474.393036
 20
185.442657
 10
473.572876
 20
186.204269
 10
472.697601
 20
186.98793
 10
471.785034
 20
187.776901
 10
470.855011
 20
188.553848
 10
469.928009
 20
189.302032
 10
469.023743
 20
190.006516
 10
468.159729
 20
190.65509
 10
467.350403
 20
191.238815
 10
466.606476
 20
191.752274
 10
465.931244
 20
192.195679
 10
465.291931
 20
192.590927
 10
464.692719
 20
192.932968
 10
464.150543
 20
193.208984
 10
463.682037
 20
193.407303
 10
463.302277
 20
193.518539
 10
463.023499
 20
193.536484
 10
462.849274
 20
193.453308
  0
LWPOLYLINE
  5
F5
330
E1
100
AcDbEntity
  8
0
  6
Continuous
 62
     0
370
    30
100
AcDbPolyline
 90
        7
 70
     0
 43
0.0
 10
478.177948
 20
180.606796
 10
478.230072
 20
180.779358
 10
478.171722
 20
181.042374
 10
478.003845
 20
181.390381
 10
477.732147
 20
181.814346
 10
477.366364
 20
182.30249
 10
476.892242
 20
182.872635
  0
ELLIPSE
  5
F6
330
E1
100
AcDbEntity
  8
0
  6
Continuous
 62
     0
370
    30
100
AcDbEllipse
 10
452.911353
 20
166.025689
 30
0.0
 11
-7.664491903817579
 21
6.423063293437839
 31
0.0
210
0.0
220
0.0
230
-1.0
 40
0.139053
 41
5.569449238804562
 42
8.71104206104871
  0
ELLIPSE
  5
F7
330
E1
100
AcDbEntity
  8
0
  6
Continuous
 62
     0
370
    30
100
AcDbEllipse
 10
452.911353
 20
166.025689
 30
0.0
 11
-7.664491903817579
 21
6.423063293437839
 31
0.0
210
0.0
220
0.0
230
-1.0
 40
0.139053
 41
2.427856753869132
 42
5.56944923880455
  0
ELLIPSE
  5
F8
330
E1
100
AcDbEntity
  8
0
  6
Continuous
 62
     0
370
     0
100
AcDbEllipse
 10
475.467109
 20
192.940946
 30
0.0
 11
7.664485074182159
 21
-6.423057570008143
 31
0.0
210
0.0
220
0.0
230
1.0
 40
0.139053
 41
0.0000000490416623
 42
0.5278777861956669
  0
ELLIPSE
  5
F9
330
E1
100
AcDbEntity
  8
0
  6
Continuous
 62
     0
370
     0
100
AcDbEllipse
 10
475.467109
 20
192.940946
 30
0.0
 11
7.664485074182159
 21
-6.423057570008143
 31
0.0
210
0.0
220
0.0
230
1.0
 40
0.139053
 41
0.5278777861956669
 42
3.141592702631448
  0
ELLIPSE
  5
FA
330
E1
100
AcDbEntity
  8
0
  6
Continuous
 62
     0
370
    30
100
AcDbEllipse
 10
472.725087
 20
189.668954
 30
0.0
 11
-7.664485074182159
 21
6.423057570008143
 31
0.0
210
0.0
220
0.0
230
-1.0
 40
0.139053
 41
5.755307520983925
 42
8.896900174573727
  0
ELLIPSE
  5
FB
330
E1
100
AcDbEntity
  8
0
  6
Continuous
 62
     0
370
    30
100
AcDbEllipse
 10
472.725087
 20
189.668954
 30
0.0
 11
-7.664485074182159
 21
6.423057570008143
 31
0.0
210
0.0
220
0.0
230
-1.0
 40
0.139053
 41
5.179151799503691
 42
5.755307520983928
  0
ELLIPSE
  5
FC
330
E1
100
AcDbEntity
  8
0
  6
Continuous
 62
     0
370
    30
100
AcDbEllipse
 10
472.725087
 20
189.668954
 30
0.0
 11
-7.664485074182159
 21
6.423057570008143
 31
0.0
210
0.0
220
0.0
230
-1.0
 40
0.139053
 41
2.61371486739414
 42
4.245626063182343
  0
LWPOLYLINE
  5
FD
330
E1
100
AcDbEntity
  8
0
  6
Continuous
 62
     0
370
     0
100
AcDbPolyline
 90
        7
 70
     0
 43
0.0
 10
489.303101
 20
192.333237
 10
489.697113
 20
192.678513
 10
490.019775
 20
193.102219
 10
490.269501
 20
193.593765
 10
490.447144
 20
194.141251
 10
490.555511
 20
194.732239
 10
490.600647
 20
195.486298
  0
LWPOLYLINE
  5
FE
330
E1
100
AcDbEntity
  8
0
  6
Continuous
 62
     0
370
     0
100
AcDbPolyline
 90
       22
 70
     0
 43
0.0
 10
490.600647
 20
195.486298
 10
490.55896
 20
196.294617
 10
490.424835
 20
197.189606
 10
490.190704
 20
198.160797
 10
489.85257
 20
199.192657
 10
489.410919
 20
200.26506
 10
488.871277
 20
201.354263
 10
488.24411
 20
202.43457
 10
487.544312
 20
203.480209
 10
486.789856
 20
204.467468
 10
486.000488
 20
205.376328
 10
485.196075
 20
206.191696
 10
484.395172
 20
206.904037
 10
483.613892
 20
207.509155
 10
482.837494
 20
208.024719
 10
482.038696
 20
208.464523
 10
481.232849
 20
208.809921
 10
480.438049
 20
209.043686
 10
479.673981
 20
209.151947
 10
478.960571
 20
209.125656
 10
478.316315
 20
208.961761
 10
477.756104
 20
208.663162
  0
LWPOLYLINE
  5
FF
330
E1
100
AcDbEntity
  8
0
  6
Continuous
 62
     0
370
     0
100
AcDbPolyline
 90
       41
 70
     0
 43
0.0
 10
515.355652
 20
235.73053
 10
516.266602
 20
235.064896
 10
517.208679
 20
234.333801
 10
518.162781
 20
233.552734
 10
519.112
 20
232.735077
 10
520.041626
 20
231.893127
 10
520.941223
 20
231.035217
 10
521.803345
 20
230.166702
 10
522.621887
 20
229.291962
 10
523.392517
 20
228.413376
 10
524.112061
 20
227.531494
 10
524.777161
 20
226.646851
 10
525.384338
 20
225.759995
 10
525.930542
 20
224.87088
 10
526.412781
 20
223.979111
 10
526.828125
 20
223.084595
 10
527.173401
 20
222.187759
 10
527.445618
 20
221.289398
 10
527.642212
 20
220.391052
 10
527.760864
 20
219.494629
 10
527.800537
 20
218.603012
 10
527.760803
 20
217.719406
 10
527.642212
 20
216.847794
 10
527.44574
 20
215.992416
 10
527.173645
 20
215.157974
 10
526.828491
 20
214.349289
 10
526.413208
 20
213.571594
 10
525.930969
 20
212.830292
 10
525.384766
 20
212.13118
 10
524.777649
 20
211.480347
 10
524.112671
 20
210.884888
 10
523.393188
 20
210.353287
 10
522.62262
 20
209.894333
 10
521.804016
 20
209.518066
 10
520.941956
 20
209.236343
 10
520.04248
 20
209.062668
 10
519.112854
 20
209.011276
 10
518.163635
 20
209.096466
 10
517.209473
 20
209.331284
 10
516.267334
 20
209.723282
 10
515.355652
 20
210.274689
  0
ELLIPSE
  5
100
330
E1
100
AcDbEntity
  8
0
  6
Continuous
 62
     0
370
    30
100
AcDbEllipse
 10
530.911982
 20
173.191423
 30
0.0
 11
-22.0
 21
0.0
 31
0.0
210
0.0
220
0.0
230
1.0
 40
0.707107
 41
0.7853981633974483
 42
3.141592630131495
  0
ELLIPSE
  5
101
330
E1
100
AcDbEntity
  8
0
  6
Continuous
 62
     0
370
    30
100
AcDbEllipse
 10
530.911982
 20
173.191423
 30
0.0
 11
-22.0
 21
0.0
 31
0.0
210
0.0
220
0.0
230
1.0
 40
0.707107
 41
6.283185283721288
 42
7.068583470577035
  0
LWPOLYLINE
  5
102
330
E1
100
AcDbEntity
  8
0
  6
Continuous
 62
     0
370
     0
100
AcDbPolyline
 90
       19
 70
     0
 43
0.0
 10
509.135254
 20
232.338486
 10
509.149567
 20
233.220306
 10
509.178284
 20
234.03125
 10
509.22348
 20
234.768799
 10
509.287994
 20
235.43129
 10
509.375519
 20
236.017532
 10
509.490417
 20
236.526642
 10
509.637878
 20
236.957672
 10
509.823639
 20
237.309662
 10
510.054077
 20
237.580734
 10
510.336182
 20
237.768295
 10
510.67746
 20
237.869263
 10
511.086426
 20
237.879395
 10
511.571228
 20
237.793121
 10
512.139832
 20
237.604858
 10
512.798584
 20
237.309326
 10
513.549622
 20
236.903
 10
514.389404
 20
236.38623
 10
515.355652
 20
235.73053
  0
LWPOLYLINE
  5
103
330
E1
100
AcDbEntity
  8
0
  6
Continuous
 62
     0
370
     0
100
AcDbPolyline
 90
        2
 70
     0
 43
0.0
 10
515.355652
 20
210.274689
 10
515.025269
 20
210.521561
  0
ELLIPSE
  5
104
330
E1
100
AcDbEntity
  8
0
  6
Continuous
 62
     0
370
    30
100
AcDbEllipse
 10
530.911982
 20
254.508701
 30
0.0
 11
22.0
 21
0.0
 31
0.0
210
0.0
220
0.0
230
-1.0
 40
0.707107
 41
2.356194490192345
 42
2.548708271929857
  0
ELLIPSE
  5
105
330
E1
100
AcDbEntity
  8
0
  6
Continuous
 62
     0
370
    30
100
AcDbEllipse
 10
530.911982
 20
254.508701
 30
0.0
 11
22.0
 21
0.0
 31
0.0
210
0.0
220
0.0
230
-1.0
 40
0.707107
 41
6.141570172147394
 42
8.63937979737193
  0
LWPOLYLINE
  5
106
330
E1
100
AcDbEntity
  8
0
  6
Continuous
 62
     0
370
     0
100
AcDbPolyline
 90
       23
 70
     0
 43
0.0
 10
518.165955
 20
212.74234
 10
518.898804
 20
213.310257
 10
519.542725
 20
213.920303
 10
520.08606
 20
214.562607
 10
520.515747
 20
215.226868
 10
520.818115
 20
215.902573
 10
520.982666
 20
216.579102
 10
521.002258
 20
217.245895
 10
520.875488
 20
217.894669
 10
520.608765
 20
218.520432
 10
520.211304
 20
219.120804
 10
519.696716
 20
219.698257
 10
519.078369
 20
220.256561
 10
518.368042
 20
220.801544
 10
517.576721
 20
221.339554
 10
516.713745
 20
221.87738
 10
515.788025
 20
222.421936
 10
514.808411
 20
222.980194
 10
513.785889
 20
223.558014
 10
512.738403
 20
224.157776
 10
511.689056
 20
224.779465
 10
510.672241
 20
225.416153
 10
509.698792
 20
226.073669
  0
ARC
  5
107
330
E1
100
AcDbEntity
  8
0
  6
Continuous
 62
     0
370
     0
100
AcDbCircle
 10
510.201738
 20
210.281219
 30
0.0
 40
5.153899346877691
100
AcDbArc
 50
359.92733
 51
5.114253
  0
LWPOLYLINE
  5
108
330
E1
100
AcDbEntity
  8
0
  6
Continuous
 62
     0
370
     0
100
AcDbPolyline
 90
       12
 70
     0
 43
0.0
 10
509.698792
 20
226.073669
 10
510.496307
 20
226.694183
 10
511.278107
 20
227.415237
 10
512.028503
 20
228.22316
 10
512.733826
 20
229.103622
 10
513.379517
 20
230.037888
 10
513.950928
 20
231.006668
 10
514.436096
 20
231.989883
 10
514.825989
 20
232.966583
 10
515.112122
 20
233.916122
 10
515.289429
 20
234.821243
 10
515.355652
 20
235.73053
  0
ELLIPSE
  5
109
330
E1
100
AcDbEntity
  8
0
  6
Continuous
 62
     0
370
    30
100
AcDbEllipse
 10
530.911972
 20
170.362997
 30
0.0
 11
-27.00000000000004
 21
1.498801083243963E-15
 31
0.0
210
0.0
220
0.0
230
1.0
 40
0.707107
 41
0.7199961065643627
 42
3.141592630131494
  0
ELLIPSE
  5
10A
330
E1
100
AcDbEntity
  8
0
  6
Continuous
 62
     0
370
    30
100
AcDbEllipse
 10
530.911972
 20
170.362997
 30
0.0
 11
-27.00000000000004
 21
1.498801083243963E-15
 31
0.0
210
0.0
220
0.0
230
1.0
 40
0.707107
 41
6.283185283721287
 42
7.003181413743946
  0
ELLIPSE
  5
10B
330
E1
100
AcDbEntity
  8
0
  6
Continuous
 62
     0
370
    30
100
AcDbEllipse
 10
530.911972
 20
173.191424
 30
0.0
 11
27.00000000000004
 21
-1.498801083243963E-15
 31
0.0
210
0.0
220
0.0
230
-1.0
 40
0.707107
 41
2.421596547025432
 42
3.759979973081875
  0
ELLIPSE
  5
10C
330
E1
100
AcDbEntity
  8
0
  6
Continuous
 62
     0
370
    30
100
AcDbEllipse
 10
530.911972
 20
173.191424
 30
0.0
 11
27.00000000000004
 21
-1.498801083243963E-15
 31
0.0
210
0.0
220
0.0
230
-1.0
 40
0.707107
 41
5.664799342900261
 42
8.704781854205017
  0
LWPOLYLINE
  5
10D
330
E1
100
AcDbEntity
  8
0
  6
Continuous
 62
     0
370
     0
100
AcDbPolyline
 90
       10
 70
     0
 43
0.0
 10
506.645294
 20
229.091003
 10
506.658997
 20
229.048035
 10
506.716949
 20
228.927963
 10
506.832947
 20
228.733322
 10
507.023682
 20
228.464615
 10
507.306793
 20
228.122269
 10
507.700836
 20
227.707306
 10
508.22403
 20
227.22229
 10
508.888123
 20
226.674973
 10
509.698792
 20
226.073685
  0
LINE
  5
10E
330
E1
100
AcDbEntity
  8
0
  6
Continuous
 62
     0
370
    30
100
AcDbLine
 10
518.192286
 20
212.760972
 30
0.0
 11
489.303103
 21
192.333234
 31
0.0
  0
LINE
  5
10F
330
E1
100
AcDbEntity
  8
0
  6
Continuous
 62
     0
370
    30
100
AcDbLine
 10
506.64535
 20
229.090953
 30
0.0
 11
477.756097
 21
208.663165
 31
0.0
  0
LWPOLYLINE
  5
110
330
E1
100
AcDbEntity
  8
0
  6
Continuous
 62
     0
370
    30
100
AcDbPolyline
 90
       11
 70
     0
 43
0.0
 10
506.645294
 20
229.091019
 10
507.168579
 20
229.498871
 10
507.644897
 20
229.94725
 10
508.067413
 20
230.425705
 10
508.430267
 20
230.921326
 10
508.728821
 20
231.416519
 10
508.95929
 20
231.885956
 10
509.121368
 20
232.297928
 10
509.221008
 20
232.620499
 10
509.270172
 20
232.826096
 10
509.28421
 20
232.902069
  0
LINE
  5
111
330
E1
100
AcDbEntity
  8
0
  6
Continuous
 62
     0
370
    30
100
AcDbLine
 10
557.911972
 20
170.362997
 30
0.0
 11
557.911972
 21
173.191424
 31
0.0
  0
LINE
  5
112
330
E1
100
AcDbEntity
  8
0
  6
Continuous
 62
     0
370
    30
100
AcDbLine
 10
503.911972
 20
170.362997
 30
0.0
 11
503.911972
 21
173.191425
 31
0.0
  0
LINE
  5
113
330
E1
100
AcDbEntity
  8
0
  6
Continuous
 62
     0
370
    30
100
AcDbLine
 10
552.911982
 20
173.191423
 30
0.0
 11
552.911982
 21
254.5087
 31
0.0
  0
LINE
  5
114
330
E1
100
AcDbEntity
  8
0
  6
Continuous
 62
     0
370
    30
100
AcDbLine
 10
508.911982
 20
231.780908
 30
0.0
 11
508.911982
 21
243.16154
 31
0.0
  0
LINE
  5
115
330
E1
100
AcDbEntity
  8
0
  6
Continuous
 62
     0
370
    30
100
AcDbLine
 10
508.911982
 20
173.191424
 30
0.0
 11
508.911982
 21
206.198803
 31
0.0
  0
LWPOLYLINE
  5
116
330
E1
100
AcDbEntity
  8
0
  6
Continuous
 62
     0
370
    30
100
AcDbPolyline
 90
        7
 70
     0
 43
0.0
 10
467.802612
 20
199.363998
 10
469.289032
 20
201.07132
 10
470.826019
 20
202.706116
 10
472.407776
 20
204.261261
 10
474.029053
 20
205.730469
 10
475.685089
 20
207.107941
 10
477.756104
 20
208.663162
  0
LWPOLYLINE
  5
117
330
E1
100
AcDbEntity
  8
0
  6
Continuous
 62
     0
370
    30
100
AcDbPolyline
 90
        6
 70
     0
 43
0.0
 10
483.131592
 20
186.517883
 10
484.344269
 20
187.899185
 10
485.586273
 20
189.186096
 10
486.839935
 20
190.36319
 10
488.085754
 20
191.416229
 10
489.303101
 20
192.333237
  0
LINE
  5
118
330
E1
100
AcDbEntity
  8
0
  6
Continuous
 62
     0
370
    30
100
AcDbLine
 10
483.131594
 20
186.517888
 30
0.0
 11
480.389572
 21
183.245897
 31
0.0
  0
LINE
  5
119
330
E1
100
AcDbEntity
  8
0
  6
Continuous
 62
     0
370
    30
100
AcDbLine
 10
467.802624
 20
199.364003
 30
0.0
 11
465.060602
 21
196.092012
 31
0.0
  0
LINE
  5
11A
330
E1
100
AcDbEntity
  8
0
  6
Continuous
 62
     0
370
    30
100
AcDbLine
 10
478.178261
 20
180.607178
 30
0.0
 11
460.575845
 21
159.602626
 31
0.0
  0
LINE
  5
11B
330
E1
100
AcDbEntity
  8
0
  6
Continuous
 62
     0
370
    30
100
AcDbLine
 10
462.849277
 20
193.453305
 30
0.0
 11
445.246862
 21
172.448752
 31
0.0
  0
LINE
  5
11C
330
E1
100
AcDbEntity
  8
0
  6
Continuous
 62
     0
370
    30
100
AcDbLine
 10
476.174088
 20
186.778592
 30
0.0
 11
474.760376
 21
185.091643
 31
0.0
  0
LINE
  5
11D
330
E1
100
AcDbEntity
  8
0
  6
Continuous
 62
     0
370
    30
100
AcDbLine
 10
469.276085
 20
192.559316
 30
0.0
 11
467.862373
 21
190.872366
 31
0.0
  0
LINE
  5
11E
330
E1
100
AcDbEntity
  8
0
  6
Continuous
 62
     0
370
    30
100
AcDbLine
 10
507.360219
 20
257.985949
 30
0.0
 11
464.933812
 21
227.985948
 31
0.0
  0
LINE
  5
11F
330
E1
100
AcDbEntity
  8
0
  6
Continuous
 62
     0
370
    30
100
AcDbLine
 10
514.865766
 20
247.371504
 30
0.0
 11
472.439359
 21
217.371503
 31
0.0
  0
LWPOLYLINE
  5
120
330
E1
100
AcDbEntity
  8
0
  6
Continuous
 62
     0
370
    30
100
AcDbPolyline
 90
        8
 70
     0
 43
0.0
 10
510.579559
 20
260.995361
 10
510.564575
 20
260.93927
 10
510.506317
 20
260.774628
 10
510.38913
 20
260.523529
 10
510.205963
 20
260.220154
 10
509.955841
 20
259.896484
 10
509.643829
 20
259.578766
 10
509.222778
 20
259.247864
  0
LINE
  5
121
330
E1
100
AcDbEntity
  8
0
  6
Continuous
 62
     0
370
    30
100
AcDbLine
 10
516.710416
 20
248.73203
 30
0.0
 11
514.892321
 21
247.390678
 31
0.0
  0
LINE
  5
122
330
E1
100
AcDbEntity
  8
0
  6
Continuous
 62
     0
370
    30
100
AcDbLine
 10
509.222709
 20
259.247814
 30
0.0
 11
507.387148
 21
258.004594
 31
0.0
  0
LINE
  5
123
330
E1
100
AcDbEntity
  8
0
  6
Continuous
 62
     0
370
    30
100
AcDbLine
 10
552.911982
 20
259.50491
 30
0.0
 11
552.911982
 21
277.285328
 31
0.0
  0
LINE
  5
124
330
E1
100
AcDbEntity
  8
0
  6
Continuous
 62
     0
370
    30
100
AcDbLine
 10
508.911982
 20
259.037359
 30
0.0
 11
508.911982
 21
277.261814
 31
0.0
  0
ENDBLK
  5
126
330
E1
100
AcDbEntity
  8
0
100
AcDbBlockEnd
  0
BLOCK
  5
15D
330
128
100
AcDbEntity
  8
0
100
AcDbBlockBegin
  2
e
 70
     0
 10
183.833038
 20
0.0
 30
0.0
  3
e
  1

  0
LWPOLYLINE
  5
129
330
128
100
AcDbEntity
  8
0
  6
Continuous
 62
     0
370
    30
100
AcDbPolyline
 90
       20
 70
     0
 43
0.0
 10
99.364594
 20
481.873535
 10
99.425575
 20
481.873535
 10
99.615013
 20
481.873535
 10
99.941475
 20
481.873535
 10
100.411552
 20
481.873535
 10
101.029434
 20
481.873535
 10
101.796448
 20
481.873535
 10
102.710762
 20
481.873535
 10
103.767242
 20
481.873535
 10
104.957443
 20
481.873535
 10
106.269783
 20
481.873535
 10
107.689949
 20
481.873535
 10
109.201347
 20
481.873535
 10
110.785812
 20
481.873535
 10
112.424255
 20
481.873535
 10
114.097366
 20
481.873535
 10
115.786331
 20
481.873535
 10
117.473389
 20
481.873535
 10
119.142288
 20
481.873535
 10
120.835274
 20
481.873535
  0
LWPOLYLINE
  5
12A
330
128
100
AcDbEntity
  8
0
  6
Continuous
 62
     0
370
    30
100
AcDbPolyline
 90
       39
 70
     0
 43
0.0
 10
99.364594
 20
512.873535
 10
99.427307
 20
512.873535
 10
99.622353
 20
512.873535
 10
99.958839
 20
512.873535
 10
100.44381
 20
512.873535
 10
101.081741
 20
512.873535
 10
101.874039
 20
512.873535
 10
102.818756
 20
512.873535
 10
103.910355
 20
512.873535
 10
105.139763
 20
512.873535
 10
106.494545
 20
512.873535
 10
107.959343
 20
512.873535
 10
109.516418
 20
512.873535
 10
111.146385
 20
512.873535
 10
112.828949
 20
512.873535
 10
114.543724
 20
512.873535
 10
116.270905
 20
512.873535
 10
117.991943
 20
512.873535
 10
119.690033
 20
512.873535
 10
121.350426
 20
512.873535
 10
123.010056
 20
512.873535
 10
124.707611
 20
512.873535
 10
126.428391
 20
512.873535
 10
128.155624
 20
512.873535
 10
129.870773
 20
512.873535
 10
131.554062
 20
512.873535
 10
133.18512
 20
512.873535
 10
134.743622
 20
512.873535
 10
136.210175
 20
512.873535
 10
137.567001
 20
512.873535
 10
138.798691
 20
512.873535
 10
139.892761
 20
512.873535
 10
140.840073
 20
512.873535
 10
141.63504
 20
512.873535
 10
142.275635
 20
512.873535
 10
142.763229
 20
512.873535
 10
143.102234
 20
512.873535
 10
143.299652
 20
512.873535
 10
143.364594
 20
512.873535
  0
LINE
  5
12B
330
128
100
AcDbEntity
  8
0
  6
Continuous
 62
     0
370
    30
100
AcDbLine
 10
120.835277
 20
481.873548
 30
0.0
 11
143.364592
 21
490.073749
 31
0.0
  0
LINE
  5
12C
330
128
100
AcDbEntity
  8
0
  6
Continuous
 62
     0
370
    30
100
AcDbLine
 10
99.364592
 20
481.873548
 30
0.0
 11
99.364592
 21
486.390241
 31
0.0
  0
LINE
  5
12D
330
128
100
AcDbEntity
  8
0
  6
Continuous
 62
     0
370
    30
100
AcDbLine
 10
99.364592
 20
509.356854
 30
0.0
 11
99.364592
 21
512.873548
 31
0.0
  0
LWPOLYLINE
  5
12E
330
128
100
AcDbEntity
  8
0
  6
Continuous
 62
     0
370
     0
100
AcDbPolyline
 90
       32
 70
     0
 43
0.0
 10
99.364594
 20
509.356842
 10
99.390228
 20
509.280945
 10
99.465126
 20
509.060699
 10
99.583755
 20
508.704346
 10
99.738129
 20
508.223938
 10
99.919029
 20
507.636292
 10
100.116913
 20
506.956024
 10
100.322906
 20
506.196503
 10
100.528847
 20
505.368744
 10
100.727272
 20
504.483032
 10
100.911171
 20
503.549133
 10
101.074593
 20
502.575012
 10
101.212288
 20
501.567963
 10
101.319801
 20
500.535278
 10
101.3937
 20
499.484283
 10
101.431534
 20
498.42215
 10
101.432091
 20
497.356232
 10
101.39534
 20
496.293884
 10
101.322472
 20
495.242462
 10
101.215897
 20
494.209167
 10
101.079025
 20
493.201263
 10
100.916252
 20
492.225983
 10
100.732895
 20
491.290894
 10
100.53492
 20
490.4039
 10
100.328979
 20
489.573822
 10
100.122406
 20
488.810669
 10
99.923866
 20
488.127136
 10
99.742378
 20
487.536682
 10
99.58725
 20
487.053589
 10
99.467628
 20
486.693085
 10
99.391533
 20
486.468964
 10
99.364594
 20
486.390228
  0
LINE
  5
12F
330
128
100
AcDbEntity
  8
0
  6
Continuous
 62
     0
370
    30
100
AcDbLine
 10
94.27733
 20
504.357616
 30
0.0
 11
93.364592
 21
504.373548
 31
0.0
  0
LINE
  5
130
330
128
100
AcDbEntity
  8
0
  6
Continuous
 62
     0
370
     0
100
AcDbLine
 10
93.364592
 20
491.373548
 30
0.0
 11
93.364592
 21
504.373548
 31
0.0
  0
LWPOLYLINE
  5
131
330
128
100
AcDbEntity
  8
0
  6
Continuous
 62
     0
370
     0
100
AcDbPolyline
 90
       25
 70
     0
 43
0.0
 10
94.277328
 20
504.357605
 10
94.321587
 20
504.297791
 10
94.450081
 20
504.12207
 10
94.650436
 20
503.839172
 10
94.90699
 20
503.459717
 10
95.20192
 20
502.994537
 10
95.517654
 20
502.451904
 10
95.836746
 20
501.837769
 10
96.141228
 20
501.156158
 10
96.411873
 20
500.411133
 10
96.628128
 20
499.610352
 10
96.768913
 20
498.762054
 10
96.819633
 20
497.887421
 10
96.771973
 20
497.01239
 10
96.633842
 20
496.162872
 10
96.419632
 20
495.360443
 10
96.150337
 20
494.613525
 10
95.846603
 20
493.92984
 10
95.52771
 20
493.313538
 10
95.211617
 20
492.768555
 10
94.915733
 20
492.300812
 10
94.657623
 20
491.918518
 10
94.45517
 20
491.632385
 10
94.32431
 20
491.453125
 10
94.277328
 20
491.389465
  0
ARC
  5
132
330
128
100
AcDbEntity
  8
0
  6
Continuous
 62
     0
370
    30
100
AcDbCircle
 10
94.364592
 20
509.356854
 30
0.0
 40
4.999999999999654
100
AcDbArc
 50
269.0
 51
0.0
  0
ARC
  5
133
330
128
100
AcDbEntity
  8
0
  6
Continuous
 62
     0
370
    30
100
AcDbCircle
 10
94.364592
 20
486.390241
 30
0.0
 40
4.999999999999616
100
AcDbArc
 50
0.0
 51
91.0
  0
LINE
  5
134
330
128
100
AcDbEntity
  8
0
  6
Continuous
 62
     0
370
    30
100
AcDbLine
 10
33.364592
 20
504.373542
 30
0.0
 11
33.364592
 21
491.373554
 31
0.0
  0
LINE
  5
135
330
128
100
AcDbEntity
  8
0
  6
Continuous
 62
     0
370
    30
100
AcDbLine
 10
33.364592
 20
504.373542
 30
0.0
 11
93.364592
 21
504.373542
 31
0.0
  0
LWPOLYLINE
  5
136
330
128
100
AcDbEntity
  8
0
  6
Continuous
 62
     0
370
    30
100
AcDbPolyline
 90
       22
 70
     0
 43
0.0
 10
35.148739
 20
447.261719
 10
34.686691
 20
448.209473
 10
34.222263
 20
449.162354
 10
33.765453
 20
450.099823
 10
33.327324
 20
450.999237
 10
32.919312
 20
451.837128
 10
32.552391
 20
452.590942
 10
32.236198
 20
453.240967
 10
31.978212
 20
453.771729
 10
31.783188
 20
454.173523
 10
31.652878
 20
454.442688
 10
31.586115
 20
454.581543
 10
31.579176
 20
454.597687
 10
31.626371
 20
454.502747
 10
31.723234
 20
454.305939
 10
31.875437
 20
453.995667
 10
32.08659
 20
453.564484
 10
32.357864
 20
453.01001
 10
32.687798
 20
452.335144
 10
33.072098
 20
451.548676
 10
33.50367
 20
450.665131
 10
33.992081
 20
449.664825
  0
LWPOLYLINE
  5
137
330
128
100
AcDbEntity
  8
0
  6
Continuous
 62
     0
370
    30
100
AcDbPolyline
 90
       25
 70
     0
 43
0.0
 10
37.937397
 20
441.575714
 10
38.39325
 20
440.640076
 10
38.816734
 20
439.770569
 10
39.198154
 20
438.987091
 10
39.529652
 20
438.305847
 10
39.805725
 20
437.738129
 10
40.02351
 20
437.289825
 10
40.184162
 20
436.958618
 10
40.291412
 20
436.736816
 10
40.340031
 20
436.635132
 10
40.325947
 20
436.661987
 10
40.247646
 20
436.820496
 10
40.106407
 20
437.108093
 10
39.90625
 20
437.516602
 10
39.653561
 20
438.032959
 10
39.356541
 20
438.64035
 10
39.017967
 20
439.333099
 10
38.629704
 20
440.127869
 10
38.196335
 20
441.015289
 10
37.725319
 20
441.980072
 10
37.226139
 20
443.002838
 10
36.70969
 20
444.061249
 10
36.187508
 20
445.131653
 10
35.670921
 20
446.190826
 10
35.148739
 20
447.261719
  0
ELLIPSE
  5
138
330
128
100
AcDbEntity
  8
0
  6
Continuous
 62
     0
370
    30
100
AcDbEllipse
 10
11.085676
 20
433.485967
 30
0.0
 11
-4.383710345844428
 21
8.987950924372599
 31
0.0
210
0.0
220
0.0
230
1.0
 40
0.000739
 41
6.283185288016253
 42
7.669638137786705
  0
ELLIPSE
  5
139
330
128
100
AcDbEntity
  8
0
  6
Continuous
 62
     0
370
    30
100
AcDbEllipse
 10
11.085676
 20
433.485967
 30
0.0
 11
-4.383710345844428
 21
8.987950924372599
 31
0.0
210
0.0
220
0.0
230
1.0
 40
0.000739
 41
1.38645283060711
 42
3.14159263442646
  0
ELLIPSE
  5
13A
330
128
100
AcDbEntity
  8
0
  6
Continuous
 62
     0
370
     0
100
AcDbEllipse
 10
42.958135
 20
449.03118
 30
0.0
 11
4.383706439630707
 21
-8.987942915436228
 31
0.0
210
0.0
220
0.0
230
-1.0
 40
0.000739
 41
6.283182368316583
 42
7.852467016637106
  0
ELLIPSE
  5
13B
330
128
100
AcDbEntity
  8
0
  6
Continuous
 62
     0
370
     0
100
AcDbEllipse
 10
42.958135
 20
449.03118
 30
0.0
 11
4.383706439630707
 21
-8.987942915436228
 31
0.0
210
0.0
220
0.0
230
-1.0
 40
0.000739
 41
1.56928170945752
 42
3.141592672751039
  0
ELLIPSE
  5
13C
330
128
100
AcDbEntity
  8
0
  6
Continuous
 62
     0
370
    30
100
AcDbEllipse
 10
39.083514
 20
447.141403
 30
0.0
 11
-4.383706439630707
 21
8.987942915436228
 31
0.0
210
0.0
220
0.0
230
1.0
 40
0.000739
 41
6.283185288016597
 42
7.855496251311862
  0
ELLIPSE
  5
13D
330
128
100
AcDbEntity
  8
0
  6
Continuous
 62
     0
370
    30
100
AcDbEllipse
 10
39.083514
 20
447.141403
 30
0.0
 11
-4.383706439630707
 21
8.987942915436228
 31
0.0
210
0.0
220
0.0
230
1.0
 40
0.000739
 41
1.572310944132275
 42
3.141592634426803
  0
LWPOLYLINE
  5
13E
330
128
100
AcDbEntity
  8
0
  6
Continuous
 62
     0
370
     0
100
AcDbPolyline
 90
       14
 70
     0
 43
0.0
 10
54.355785
 20
441.662537
 10
54.355785
 20
441.722076
 10
54.355785
 20
441.913574
 10
54.355785
 20
442.247925
 10
54.355785
 20
442.730713
 10
54.355785
 20
443.361176
 10
54.355785
 20
444.131195
 10
54.355785
 20
445.025635
 10
54.355785
 20
446.02301
 10
54.355785
 20
447.097351
 10
54.355785
 20
448.220337
 10
54.355785
 20
449.363495
 10
54.355785
 20
450.500427
 10
54.355785
 20
451.645691
  0
LINE
  5
13F
330
128
100
AcDbEntity
  8
0
  6
Continuous
 62
     0
370
     0
100
AcDbLine
 10
54.355785
 20
451.645679
 30
0.0
 11
54.355785
 21
461.662516
 31
0.0
  0
LWPOLYLINE
  5
140
330
128
100
AcDbEntity
  8
0
  6
Continuous
 62
     0
370
     0
100
AcDbPolyline
 90
       42
 70
     0
 43
0.0
 10
99.364594
 20
469.662537
 10
99.39859
 20
469.585632
 10
99.498215
 20
469.357208
 10
99.657455
 20
468.988708
 10
99.867783
 20
468.493835
 10
100.119331
 20
467.88913
 10
100.40239
 20
467.189728
 10
100.707939
 20
466.4086
 10
101.027664
 20
465.557617
 10
101.353981
 20
464.646851
 10
101.680328
 20
463.683563
 10
102.000595
 20
462.67392
 10
102.308853
 20
461.623932
 10
102.599503
 20
460.538696
 10
102.867554
 20
459.422089
 10
103.108162
 20
458.277802
 10
103.316902
 20
457.10968
 10
103.489548
 20
455.92157
 10
103.622581
 20
454.71756
 10
103.712936
 20
453.501953
 10
103.758682
 20
452.279205
 10
103.758804
 20
451.054077
 10
103.713318
 20
449.831299
 10
103.623268
 20
448.615631
 10
103.490555
 20
447.41153
 10
103.318207
 20
446.223267
 10
103.109695
 20
445.054993
 10
102.86927
 20
443.910553
 10
102.601364
 20
442.793762
 10
102.310837
 20
441.708344
 10
102.002693
 20
440.658081
 10
101.682503
 20
439.648102
 10
101.356194
 20
438.684448
 10
101.029839
 20
437.773346
 10
100.710037
 20
436.921997
 10
100.404366
 20
436.14032
 10
100.121155
 20
435.440216
 10
99.869354
 20
434.834839
 10
99.658714
 20
434.339203
 10
99.499084
 20
433.970154
 10
99.39904
 20
433.740814
 10
99.364594
 20
433.662537
  0
LINE
  5
141
330
128
100
AcDbEntity
  8
0
  6
Continuous
 62
     0
370
    30
100
AcDbLine
 10
99.364592
 20
433.662531
 30
0.0
 11
99.364592
 21
365.662531
 31
0.0
  0
LINE
  5
142
330
128
100
AcDbEntity
  8
0
  6
Continuous
 62
     0
370
    30
100
AcDbLine
 10
99.364592
 20
469.662531
 30
0.0
 11
99.364592
 21
480.662531
 31
0.0
  0
LINE
  5
143
330
128
100
AcDbEntity
  8
0
  6
Continuous
 62
     0
370
    30
100
AcDbLine
 10
143.364592
 20
480.662531
 30
0.0
 11
99.364592
 21
480.662531
 31
0.0
  0
LWPOLYLINE
  5
144
330
128
100
AcDbEntity
  8
0
  6
Continuous
 62
     0
370
     0
100
AcDbPolyline
 90
       37
 70
     0
 43
0.0
 10
91.364594
 20
441.662537
 10
91.426323
 20
441.719604
 10
91.603844
 20
441.88559
 10
91.882034
 20
442.149323
 10
92.240257
 20
442.496216
 10
92.657845
 20
442.912231
 10
93.116631
 20
443.385864
 10
93.599884
 20
443.906921
 10
94.094765
 20
444.469208
 10
94.589539
 20
445.067749
 10
95.073692
 20
445.699249
 10
95.537308
 20
446.361359
 10
95.970322
 20
447.051971
 10
96.362541
 20
447.769562
 10
96.703697
 20
448.512207
 10
96.983452
 20
449.276917
 10
97.191528
 20
450.060242
 10
97.320229
 20
450.857086
 10
97.36441
 20
451.660767
 10
97.320694
 20
452.464478
 10
97.192375
 20
453.261383
 10
96.984558
 20
454.044769
 10
96.704964
 20
454.809509
 10
96.363968
 20
455.552277
 10
95.972015
 20
456.269989
 10
95.539284
 20
456.960785
 10
95.075851
 20
457.623016
 10
94.591743
 20
458.254639
 10
94.096901
 20
458.853302
 10
93.601898
 20
459.415802
 10
93.118599
 20
459.937073
 10
92.659866
 20
460.410858
 10
92.242195
 20
460.827118
 10
91.883522
 20
461.174347
 10
91.60466
 20
461.438599
 10
91.426468
 20
461.605164
 10
91.364594
 20
461.662537
  0
ARC
  5
145
330
128
100
AcDbEntity
  8
0
  6
Continuous
 62
     0
370
    30
100
AcDbCircle
 10
91.364592
 20
433.662531
 30
0.0
 40
7.999999999999904
100
AcDbArc
 50
360.0
 51
90.0
  0
ARC
  5
146
330
128
100
AcDbEntity
  8
0
  6
Continuous
 62
     0
370
    30
100
AcDbCircle
 10
91.364592
 20
469.662531
 30
0.0
 40
7.999999999999947
100
AcDbArc
 50
270.0
 51
360.0
  0
LINE
  5
147
330
128
100
AcDbEntity
  8
0
  6
Continuous
 62
     0
370
    30
100
AcDbLine
 10
94.364586
 20
361.662531
 30
0.0
 11
148.306861
 21
361.662531
 31
0.0
  0
LINE
  5
148
330
128
100
AcDbEntity
  8
0
  6
Continuous
 62
     0
370
    30
100
AcDbLine
 10
148.306861
 20
361.662531
 30
0.0
 11
148.364586
 21
361.662531
 31
0.0
  0
LINE
  5
149
330
128
100
AcDbEntity
  8
0
  6
Continuous
 62
     0
370
    30
100
AcDbLine
 10
148.364586
 20
365.662531
 30
0.0
 11
148.306861
 21
365.662531
 31
0.0
  0
LINE
  5
14A
330
128
100
AcDbEntity
  8
0
  6
Continuous
 62
     0
370
    30
100
AcDbLine
 10
148.306861
 20
365.662531
 30
0.0
 11
94.364586
 21
365.662531
 31
0.0
  0
LINE
  5
14B
330
128
100
AcDbEntity
  8
0
  6
Continuous
 62
     0
370
    30
100
AcDbLine
 10
91.364592
 20
441.662531
 30
0.0
 11
54.355785
 21
441.662531
 31
0.0
  0
LINE
  5
14C
330
128
100
AcDbEntity
  8
0
  6
Continuous
 62
     0
370
    30
100
AcDbLine
 10
91.364609
 20
461.662531
 30
0.0
 11
54.355785
 21
461.662531
 31
0.0
  0
LINE
  5
14D
330
128
100
AcDbEntity
  8
0
  6
Continuous
 62
     0
370
    30
100
AcDbLine
 10
94.364586
 20
361.662531
 30
0.0
 11
94.364586
 21
365.662531
 31
0.0
  0
LINE
  5
14E
330
128
100
AcDbEntity
  8
0
  6
Continuous
 62
     0
370
    30
100
AcDbLine
 10
148.364586
 20
361.662531
 30
0.0
 11
148.364586
 21
365.662531
 31
0.0
  0
LINE
  5
14F
330
128
100
AcDbEntity
  8
0
  6
Continuous
 62
     0
370
    30
100
AcDbLine
 10
143.364592
 20
365.662531
 30
0.0
 11
143.364592
 21
480.662531
 31
0.0
  0
ARC
  5
150
330
128
100
AcDbEntity
  8
0
  6
Continuous
 62
     0
370
    30
100
AcDbCircle
 10
54.355818
 20
425.662355
 30
0.0
 40
36.00017529569227
100
AcDbArc
 50
90.000052
 51
115.999913
  0
ARC
  5
151
330
128
100
AcDbEntity
  8
0
  6
Continuous
 62
     0
370
    30
100
AcDbCircle
 10
54.355799
 20
425.662436
 30
0.0
 40
16.0000948446604
100
AcDbArc
 50
90.000051
 51
115.999911
  0
LINE
  5
152
330
128
100
AcDbEntity
  8
0
  6
Continuous
 62
     0
370
    30
100
AcDbLine
 10
47.341842
 20
440.043237
 30
0.0
 11
43.467221
 21
438.153461
 31
0.0
  0
LINE
  5
153
330
128
100
AcDbEntity
  8
0
  6
Continuous
 62
     0
370
    30
100
AcDbLine
 10
38.574429
 20
458.019123
 30
0.0
 11
34.699808
 21
456.129346
 31
0.0
  0
LINE
  5
154
330
128
100
AcDbEntity
  8
0
  6
Continuous
 62
     0
370
    30
100
AcDbLine
 10
40.342517
 20
436.629435
 30
0.0
 11
15.469386
 21
424.498016
 31
0.0
  0
LINE
  5
155
330
128
100
AcDbEntity
  8
0
  6
Continuous
 62
     0
370
    30
100
AcDbLine
 10
31.575097
 20
454.605337
 30
0.0
 11
6.701966
 21
442.473918
 31
0.0
  0
LINE
  5
156
330
128
100
AcDbEntity
  8
0
  6
Continuous
 62
     0
370
    30
100
AcDbLine
 10
41.050243
 20
443.093957
 30
0.0
 11
37.931466
 21
441.57283
 31
0.0
  0
LINE
  5
157
330
128
100
AcDbEntity
  8
0
  6
Continuous
 62
     0
370
    30
100
AcDbLine
 10
37.104927
 20
451.183066
 30
0.0
 11
33.98615
 21
449.661939
 31
0.0
  0
ARC
  5
158
330
128
100
AcDbEntity
  8
0
  6
Continuous
 62
     0
370
    30
100
AcDbCircle
 10
121.364532
 20
479.162492
 30
0.0
 40
20.50519694038623
100
AcDbArc
 50
4.195167
 51
27.645414
  0
ARC
  5
159
330
128
100
AcDbEntity
  8
0
  6
Continuous
 62
     0
370
    30
100
AcDbCircle
 10
121.36489
 20
479.16248
 30
0.0
 40
20.50543443736542
100
AcDbArc
 50
172.402557
 51
175.804848
  0
LINE
  5
15A
330
128
100
AcDbEntity
  8
0
  6
Continuous
 62
     0
370
    30
100
AcDbLine
 10
93.364592
 20
491.373554
 30
0.0
 11
33.364592
 21
491.373554
 31
0.0
  0
LINE
  5
15B
330
128
100
AcDbEntity
  8
0
  6
Continuous
 62
     0
370
    30
100
AcDbLine
 10
94.27733
 20
491.38948
 30
0.0
 11
93.364592
 21
491.373548
 31
0.0
  0
LINE
  5
15C
330
128
100
AcDbEntity
  8
0
  6
Continuous
 62
     0
370
    30
100
AcDbLine
 10
143.364592
 20
490.073847
 30
0.0
 11
143.364592
 21
512.873548
 31
0.0
  0
ENDBLK
  5
15E
330
128
100
AcDbEntity
  8
0
100
AcDbBlockEnd
  0
ENDSEC
  0
SECTION
  2
ENTITIES
  0
INSERT
  5
78
330
1F
100
AcDbEntity
  8
0
  6
Continuous
 62
   250
370
     0
100
AcDbBlockReference
  2
a
 10
227.15033
 20
131.312515
 30
0.0
  0
INSERT
  5
A7
330
1F
100
AcDbEntity
  8
0
  6
Continuous
 62
   250
370
     0
100
AcDbBlockReference
  2
b
 10
181.724789
 20
131.312515
 30
0.0
  0
INSERT
  5
E0
330
1F
100
AcDbEntity
  8
0
  6
Continuous
 62
   250
370
     0
100
AcDbBlockReference
  2
c
 10
227.15033
 20
131.312515
 30
0.0
  0
INSERT
  5
127
330
1F
100
AcDbEntity
  8
0
  6
Continuous
 62
   250
370
     0
100
AcDbBlockReference
  2
d
 10
227.15033
 20
131.312515
 30
0.0
  0
INSERT
  5
15F
330
1F
100
AcDbEntity
  8
0
  6
Continuous
 62
   250
370
     0
100
AcDbBlockReference
  2
e
 10
183.833038
 20
0.0
 30
0.0
  0
ENDSEC
  0
SECTION
  2
OBJECTS
  0
DICTIONARY
  5
C
330
0
100
AcDbDictionary
281
     1
  3
ACAD_GROUP
350
D
  3
ACAD_LAYOUT
350
1A
  3
ACAD_MLEADERSTYLE
350
162
  3
ACAD_MLINESTYLE
350
17
  3
ACAD_PLOTSETTINGS
350
19
  3
ACAD_PLOTSTYLENAME
350
E
  3
ACAD_VISUALSTYLE
350
2A
  3
AcDbVariableDictionary
350
160
  0
DICTIONARY
  5
D
102
{ACAD_REACTORS
330
C
102
}
330
C
100
AcDbDictionary
281
     1
  0
DICTIONARY
  5
1A
102
{ACAD_REACTORS
330
C
102
}
330
C
100
AcDbDictionary
281
     1
  3
Layout1
350
1E
  3
Layout2
350
26
  3
Model
350
22
  0
DICTIONARY
  5
162
102
{ACAD_REACTORS
330
C
102
}
330
C
100
AcDbDictionary
281
     1
  0
DICTIONARY
  5
17
102
{ACAD_REACTORS
330
C
102
}
330
C
100
AcDbDictionary
281
     1
  3
Standard
350
18
  0
DICTIONARY
  5
19
102
{ACAD_REACTORS
330
C
102
}
330
C
100
AcDbDictionary
281
     1
  0
ACDBDICTIONARYWDFLT
  5
E
102
{ACAD_REACTORS
330
C
102
}
330
C
100
AcDbDictionary
281
     1
  3
Normal
350
F
100
AcDbDictionaryWithDefault
340
F
  0
DICTIONARY
  5
2A
102
{ACAD_REACTORS
330
C
102
}
330
C
100
AcDbDictionary
281
     1
  3
2dWireframe
350
2F
  3
3D Hidden
350
31
  3
3dWireframe
350
30
  3
Basic
350
32
  3
Brighten
350
36
  3
ColorChange
350
3A
  3
Conceptual
350
34
  3
Dim
350
35
  3
Facepattern
350
39
  3
Flat
350
2B
  3
FlatWithEdges
350
2C
  3
Gouraud
350
2D
  3
GouraudWithEdges
350
2E
  3
Linepattern
350
38
  3
Realistic
350
33
  3
Thicken
350
37
  0
DICTIONARY
  5
160
102
{ACAD_REACTORS
330
C
102
}
330
C
100
AcDbDictionary
281
     1
  3
PSOLHEIGHT
350
164
  3
PSOLWIDTH
350
163
  0
LAYOUT
  5
1E
102
{ACAD_REACTORS
330
1A
102
}
330
1A
100
AcDbPlotSettings
  1

  2
none_device
  4

  6

 40
0.0
 41
0.0
 42
0.0
 43
0.0
 44
0.0
 45
0.0
 46
0.0
 47
0.0
 48
0.0
 49
0.0
140
0.0
141
0.0
142
1.0
143
1.0
 70
   688
 72
     0
 73
     0
 74
     5
  7

 75
    16
147
1.0
148
0.0
149
0.0
100
AcDbLayout
  1
Layout1
 70
     1
 71
     1
 10
0.0
 20
0.0
 11
420.0
 21
297.0
 12
0.0
 22
0.0
 32
0.0
 14
1.000000E+20
 24
1.000000E+20
 34
1.000000E+20
 15
-1.000000E+20
 25
-1.000000E+20
 35
-1.000000E+20
146
0.0
 13
0.0
 23
0.0
 33
0.0
 16
1.0
 26
0.0
 36
0.0
 17
0.0
 27
1.0
 37
0.0
 76
     0
330
1B
  0
LAYOUT
  5
26
102
{ACAD_REACTORS
330
1A
102
}
330
1A
100
AcDbPlotSettings
  1

  2
none_device
  4

  6

 40
0.0
 41
0.0
 42
0.0
 43
0.0
 44
0.0
 45
0.0
 46
0.0
 47
0.0
 48
0.0
 49
0.0
140
0.0
141
0.0
142
1.0
143
1.0
 70
   688
 72
     0
 73
     0
 74
     5
  7

 75
    16
147
1.0
148
0.0
149
0.0
100
AcDbLayout
  1
Layout2
 70
     1
 71
     2
 10
0.0
 20
0.0
 11
0.0
 21
0.0
 12
0.0
 22
0.0
 32
0.0
 14
0.0
 24
0.0
 34
0.0
 15
0.0
 25
0.0
 35
0.0
146
0.0
 13
0.0
 23
0.0
 33
0.0
 16
1.0
 26
0.0
 36
0.0
 17
0.0
 27
1.0
 37
0.0
 76
     0
330
23
  0
LAYOUT
  5
22
102
{ACAD_REACTORS
330
1A
102
}
330
1A
100
AcDbPlotSettings
  1

  2
none_device
  4

  6

 40
0.0
 41
0.0
 42
0.0
 43
0.0
 44
0.0
 45
0.0
 46
0.0
 47
0.0
 48
0.0
 49
0.0
140
0.0
141
0.0
142
1.0
143
1.0
 70
  1712
 72
     0
 73
     0
 74
     0
  7

 75
     0
147
1.0
148
0.0
149
0.0
100
AcDbLayout
  1
Model
 70
     1
 71
     0
 10
6.701966
 20
122.896019
 11
584.014282
 21
512.873535
 12
0.0
 22
0.0
 32
0.0
 14
6.701966
 24
122.896019
 34
0.0
 15
584.014282
 25
512.873535
 35
0.0
146
0.0
 13
0.0
 23
0.0
 33
0.0
 16
1.0
 26
0.0
 36
0.0
 17
0.0
 27
1.0
 37
0.0
 76
     0
330
1F
331
29
  0
MLINESTYLE
  5
18
102
{ACAD_REACTORS
330
17
102
}
330
17
100
AcDbMlineStyle
  2
Standard
 70
     0
  3

 62
   256
 51
90.0
 52
90.0
 71
     2
 49
0.5
 62
   256
  6
BYLAYER
 49
-0.5
 62
   256
  6
BYLAYER
  0
ACDBPLACEHOLDER
  5
F
102
{ACAD_REACTORS
330
E
102
}
330
E
  0
VISUALSTYLE
  5
2F
102
{ACAD_REACTORS
330
2A
102
}
330
2A
100
AcDbVisualStyle
  2
2dWireframe
 70
     4
 71
     0
 72
     2
 73
     0
 90
        0
 40
-0.6
 41
-30.0
 62
     5
 63
     7
 74
     1
 91
        4
 64
     7
 65
   257
 75
     1
175
     1
 42
1.0
 92
        0
 66
   257
 43
1.0
 76
     1
 77
     6
 78
     2
 67
     7
 79
     5
170
     0
171
     0
290
     0
174
     0
 93
        1
 44
0.0
173
     0
291
     0
 45
0.0
1001
ACAD
1000
AcDbSavedByObjectVersion
1070
     0
  0
VISUALSTYLE
  5
31
102
{ACAD_REACTORS
330
2A
102
}
330
2A
100
AcDbVisualStyle
  2
3D Hidden
 70
     6
 71
     1
 72
     2
 73
     2
 90
        0
 40
-0.6
 41
-30.0
 62
     5
 63
     7
 74
     2
 91
        2
 64
     7
 65
   257
 75
     2
175
     1
 42
40.0
 92
        0
 66
   257
 43
1.0
 76
     1
 77
     6
 78
     2
 67
     7
 79
     3
170
     0
171
     0
290
     0
174
     0
 93
        1
 44
0.0
173
     0
291
     0
 45
0.0
1001
ACAD
1000
AcDbSavedByObjectVersion
1070
     0
  0
VISUALSTYLE
  5
30
102
{ACAD_REACTORS
330
2A
102
}
330
2A
100
AcDbVisualStyle
  2
3dWireframe
 70
     5
 71
     0
 72
     2
 73
     0
 90
        0
 40
-0.6
 41
-30.0
 62
     5
 63
     7
 74
     1
 91
        4
 64
     7
 65
   257
 75
     1
175
     1
 42
1.0
 92
        0
 66
   257
 43
1.0
 76
     1
 77
     6
 78
     2
 67
     7
 79
     5
170
     0
171
     0
290
     0
174
     0
 93
        1
 44
0.0
173
     0
291
     0
 45
0.0
1001
ACAD
1000
AcDbSavedByObjectVersion
1070
     0
  0
VISUALSTYLE
  5
32
102
{ACAD_REACTORS
330
2A
102
}
330
2A
100
AcDbVisualStyle
  2
Basic
 70
     7
 71
     1
 72
     0
 73
     1
 90
        0
 40
-0.6
 41
-30.0
 62
     5
 63
     7
 74
     0
 91
        4
 64
     7
 65
   257
 75
     1
175
     1
 42
1.0
 92
        8
 66
     7
 43
1.0
 76
     1
 77
     6
 78
     2
 67
     7
 79
     5
170
     0
171
     0
290
     0
174
     0
 93
        1
 44
0.0
173
     0
291
     1
 45
0.0
1001
ACAD
1000
AcDbSavedByObjectVersion
1070
     0
  0
VISUALSTYLE
  5
36
102
{ACAD_REACTORS
330
2A
102
}
330
2A
100
AcDbVisualStyle
  2
Brighten
 70
    12
 71
     2
 72
     2
 73
     0
 90
        0
 40
-0.6
 41
-30.0
 62
     5
 63
     7
 74
     1
 91
        4
 64
     7
 65
   257
 75
     1
175
     1
 42
1.0
 92
        8
 66
     7
 43
1.0
 76
     1
 77
     6
 78
     2
 67
     7
 79
     5
170
     0
171
     0
290
     0
174
     0
 93
        1
 44
50.0
173
     0
291
     1
 45
0.0
1001
ACAD
1000
AcDbSavedByObjectVersion
1070
     0
  0
VISUALSTYLE
  5
3A
102
{ACAD_REACTORS
330
2A
102
}
330
2A
100
AcDbVisualStyle
  2
ColorChange
 70
    16
 71
     2
 72
     2
 73
     3
 90
        0
 40
-0.6
 41
-30.0
 62
     5
 63
     8
 74
     1
 91
        4
 64
     7
 65
   257
 75
     1
175
     1
 42
1.0
 92
        8
 66
     8
 43
1.0
 76
     1
 77
     6
 78
     2
 67
     7
 79
     5
170
     0
171
     0
290
     0
174
     0
 93
        1
 44
0.0
173
     0
291
     1
 45
0.0
1001
ACAD
1000
AcDbSavedByObjectVersion
1070
     0
  0
VISUALSTYLE
  5
34
102
{ACAD_REACTORS
330
2A
102
}
330
2A
100
AcDbVisualStyle
  2
Conceptual
 70
     9
 71
     3
 72
     2
 73
     0
 90
        0
 40
-0.6
 41
-30.0
 62
     5
 63
     7
 74
     2
 91
        2
 64
     7
 65
   257
 75
     1
175
     1
 42
40.0
 92
        8
 66
     7
 43
1.0
 76
     1
 77
     6
 78
     2
 67
     7
 79
     3
170
     0
171
     0
290
     0
174
     0
 93
        1
 44
0.0
173
     0
291
     0
 45
0.0
1001
ACAD
1000
AcDbSavedByObjectVersion
1070
     0
  0
VISUALSTYLE
  5
35
102
{ACAD_REACTORS
330
2A
102
}
330
2A
100
AcDbVisualStyle
  2
Dim
 70
    11
 71
     2
 72
     2
 73
     0
 90
        0
 40
-0.6
 41
-30.0
 62
     5
 63
     7
 74
     1
 91
        4
 64
     7
 65
   257
 75
     1
175
     1
 42
1.0
 92
        8
 66
     7
 43
1.0
 76
     1
 77
     6
 78
     2
 67
     7
 79
     5
170
     0
171
     0
290
     0
174
     0
 93
        1
 44
-50.0
173
     0
291
     1
 45
0.0
1001
ACAD
1000
AcDbSavedByObjectVersion
1070
     0
  0
VISUALSTYLE
  5
39
102
{ACAD_REACTORS
330
2A
102
}
330
2A
100
AcDbVisualStyle
  2
Facepattern
 70
    15
 71
     2
 72
     2
 73
     0
 90
        0
 40
-0.6
 41
-30.0
 62
     5
 63
     7
 74
     1
 91
        4
 64
     7
 65
   257
 75
     1
175
     1
 42
1.0
 92
        8
 66
     7
 43
1.0
 76
     1
 77
     6
 78
     2
 67
     7
 79
     5
170
     0
171
     0
290
     0
174
     0
 93
        1
 44
0.0
173
     0
291
     1
 45
0.0
1001
ACAD
1000
AcDbSavedByObjectVersion
1070
     0
  0
VISUALSTYLE
  5
2B
102
{ACAD_REACTORS
330
2A
102
}
330
2A
100
AcDbVisualStyle
  2
Flat
 70
     0
 71
     2
 72
     1
 73
     1
 90
        2
 40
-0.6
 41
30.0
 62
     5
 63
     7
 74
     0
 91
        4
 64
     7
 65
   257
 75
     1
175
     1
 42
1.0
 92
        8
 66
     7
 43
1.0
 76
     1
 77
     6
 78
     2
 67
     7
 79
     5
170
     0
171
     0
290
     0
174
     0
 93
       13
 44
0.0
173
     0
291
     1
 45
0.0
1001
ACAD
1000
AcDbSavedByObjectVersion
1070
     0
  0
VISUALSTYLE
  5
2C
102
{ACAD_REACTORS
330
2A
102
}
330
2A
100
AcDbVisualStyle
  2
FlatWithEdges
 70
     1
 71
     2
 72
     1
 73
     1
 90
        2
 40
-0.6
 41
30.0
 62
     5
 63
     7
 74
     1
 91
        4
 64
     7
 65
   257
 75
     1
175
     1
 42
1.0
 92
        0
 66
   257
 43
1.0
 76
     1
 77
     6
 78
     2
 67
     7
 79
     5
170
     0
171
     0
290
     0
174
     0
 93
       13
 44
0.0
173
     0
291
     1
 45
0.0
1001
ACAD
1000
AcDbSavedByObjectVersion
1070
     0
  0
VISUALSTYLE
  5
2D
102
{ACAD_REACTORS
330
2A
102
}
330
2A
100
AcDbVisualStyle
  2
Gouraud
 70
     2
 71
     2
 72
     2
 73
     1
 90
        2
 40
-0.6
 41
30.0
 62
     5
 63
     7
 74
     0
 91
        4
 64
     7
 65
   257
 75
     1
175
     1
 42
1.0
 92
        0
 66
     7
 43
1.0
 76
     1
 77
     6
 78
     2
 67
     7
 79
     5
170
     0
171
     0
290
     0
174
     0
 93
       13
 44
0.0
173
     0
291
     1
 45
0.0
1001
ACAD
1000
AcDbSavedByObjectVersion
1070
     0
  0
VISUALSTYLE
  5
2E
102
{ACAD_REACTORS
330
2A
102
}
330
2A
100
AcDbVisualStyle
  2
GouraudWithEdges
 70
     3
 71
     2
 72
     2
 73
     1
 90
        2
 40
-0.6
 41
30.0
 62
     5
 63
     7
 74
     1
 91
        4
 64
     7
 65
   257
 75
     1
175
     1
 42
1.0
 92
        0
 66
   257
 43
1.0
 76
     1
 77
     6
 78
     2
 67
     7
 79
     5
170
     0
171
     0
290
     0
174
     0
 93
       13
 44
0.0
173
     0
291
     1
 45
0.0
1001
ACAD
1000
AcDbSavedByObjectVersion
1070
     0
  0
VISUALSTYLE
  5
38
102
{ACAD_REACTORS
330
2A
102
}
330
2A
100
AcDbVisualStyle
  2
Linepattern
 70
    14
 71
     2
 72
     2
 73
     0
 90
        0
 40
-0.6
 41
-30.0
 62
     5
 63
     7
 74
     1
 91
        4
 64
     7
 65
   257
 75
     7
175
     7
 42
1.0
 92
        8
 66
     7
 43
1.0
 76
     1
 77
     6
 78
     2
 67
     7
 79
     5
170
     0
171
     0
290
     0
174
     0
 93
        1
 44
0.0
173
     0
291
     1
 45
0.0
1001
ACAD
1000
AcDbSavedByObjectVersion
1070
     0
  0
VISUALSTYLE
  5
33
102
{ACAD_REACTORS
330
2A
102
}
330
2A
100
AcDbVisualStyle
  2
Realistic
 70
     8
 71
     2
 72
     2
 73
     0
 90
        0
 40
-0.6
 41
-30.0
 62
     5
 63
     7
 74
     1
 91
        0
 64
     7
 65
   257
 75
     1
175
     1
 42
1.0
 92
        8
 66
     8
 43
1.0
 76
     1
 77
     6
 78
     2
 67
     7
 79
     5
170
     0
171
     0
290
     0
174
     0
 93
       13
 44
0.0
173
     0
291
     0
 45
0.0
1001
ACAD
1000
AcDbSavedByObjectVersion
1070
     0
  0
VISUALSTYLE
  5
37
102
{ACAD_REACTORS
330
2A
102
}
330
2A
100
AcDbVisualStyle
  2
Thicken
 70
    13
 71
     2
 72
     2
 73
     0
 90
        0
 40
-0.6
 41
-30.0
 62
     5
 63
     7
 74
     1
 91
        4
 64
     7
 65
   257
 75
     1
175
     1
 42
1.0
 92
       12
 66
     7
 43
1.0
 76
     1
 77
     6
 78
     2
 67
     7
 79
     5
170
     0
171
     0
290
     0
174
     0
 93
        1
 44
0.0
173
     0
291
     1
 45
0.0
1001
ACAD
1000
AcDbSavedByObjectVersion
1070
     0
  0
DICTIONARYVAR
  5
164
102
{ACAD_REACTORS
330
160
102
}
330
160
100
DictionaryVariables
280
     0
  1
80.000000
  0
DICTIONARYVAR
  5
163
102
{ACAD_REACTORS
330
160
102
}
330
160
100
DictionaryVariables
280
     0
  1
5.000000
  0
ENDSEC
  0
EOF
