  0
SECTION
  2
HEADER
  9
$ACADVER
  1
AC1015
  9
$ACADMAINTVER
 70
     6
  9
$DWGCODEPAGE
  3
ANSI_1252
  9
$INSBASE
 10
0.0
 20
0.0
 30
0.0
  9
$EXTMIN
 10
121.675644
 20
147.963333
 30
0.0
  9
$EXTMAX
 10
798.589539
 20
732.666931
 30
0.0
  9
$LIMMIN
 10
121.675644
 20
147.963333
  9
$LIMMAX
 10
798.589539
 20
732.666931
  9
$ORTHOMODE
 70
     0
  9
$REGENMODE
 70
     1
  9
$FILLMODE
 70
     1
  9
$QTEXTMODE
 70
     0
  9
$MIRRTEXT
 70
     1
  9
$LTSCALE
 40
1.0
  9
$ATTMODE
 70
     1
  9
$TEXTSIZE
 40
2.5
  9
$TRACEWID
 40
1.0
  9
$TEXTSTYLE
  7
Standard
  9
$CLAYER
  8
0
  9
$CELTYPE
  6
ByLayer
  9
$CECOLOR
 62
   256
  9
$CELTSCALE
 40
1.0
  9
$DISPSILH
 70
     0
  9
$DIMSCALE
 40
1.0
  9
$DIMASZ
 40
2.5
  9
$DIMEXO
 40
0.625
  9
$DIMDLI
 40
3.75
  9
$DIMRND
 40
0.0
  9
$DIMDLE
 40
0.0
  9
$DIMEXE
 40
1.25
  9
$DIMTP
 40
0.0
  9
$DIMTM
 40
0.0
  9
$DIMTXT
 40
2.5
  9
$DIMCEN
 40
2.5
  9
$DIMTSZ
 40
0.0
  9
$DIMTOL
 70
     0
  9
$DIMLIM
 70
     0
  9
$DIMTIH
 70
     0
  9
$DIMTOH
 70
     0
  9
$DIMSE1
 70
     0
  9
$DIMSE2
 70
     0
  9
$DIMTAD
 70
     1
  9
$DIMZIN
 70
     8
  9
$DIMBLK
  1

  9
$DIMASO
 70
     1
  9
$DIMSHO
 70
     1
  9
$DIMPOST
  1

  9
$DIMAPOST
  1

  9
$DIMALT
 70
     0
  9
$DIMALTD
 70
     3
  9
$DIMALTF
 40
0.03937
  9
$DIMLFAC
 40
1.0
  9
$DIMTOFL
 70
     1
  9
$DIMTVP
 40
0.0
  9
$DIMTIX
 70
     0
  9
$DIMSOXD
 70
     0
  9
$DIMSAH
 70
     0
  9
$DIMBLK1
  1

  9
$DIMBLK2
  1

  9
$DIMSTYLE
  2
ISO-25
  9
$DIMCLRD
 70
     0
  9
$DIMCLRE
 70
     0
  9
$DIMCLRT
 70
     0
  9
$DIMTFAC
 40
1.0
  9
$DIMGAP
 40
0.625
  9
$DIMJUST
 70
     0
  9
$DIMSD1
 70
     0
  9
$DIMSD2
 70
     0
  9
$DIMTOLJ
 70
     0
  9
$DIMTZIN
 70
     8
  9
$DIMALTZ
 70
     0
  9
$DIMALTTZ
 70
     0
  9
$DIMUPT
 70
     0
  9
$DIMDEC
 70
     2
  9
$DIMTDEC
 70
     2
  9
$DIMALTU
 70
     2
  9
$DIMALTTD
 70
     3
  9
$DIMTXSTY
  7
Standard
  9
$DIMAUNIT
 70
     0
  9
$DIMADEC
 70
     0
  9
$DIMALTRND
 40
0.0
  9
$DIMAZIN
 70
     0
  9
$DIMDSEP
 70
    44
  9
$DIMATFIT
 70
     3
  9
$DIMFRAC
 70
     0
  9
$DIMLDRBLK
  1

  9
$DIMLUNIT
 70
     2
  9
$DIMLWD
 70
    -2
  9
$DIMLWE
 70
    -2
  9
$DIMTMOVE
 70
     0
  9
$LUNITS
 70
     2
  9
$LUPREC
 70
     4
  9
$SKETCHINC
 40
1.0
  9
$FILLETRAD
 40
10.0
  9
$AUNITS
 70
     0
  9
$AUPREC
 70
     0
  9
$MENU
  1
.
  9
$ELEVATION
 40
0.0
  9
$PELEVATION
 40
0.0
  9
$THICKNESS
 40
0.0
  9
$LIMCHECK
 70
     0
  9
$CHAMFERA
 40
10.0
  9
$CHAMFERB
 40
10.0
  9
$CHAMFERC
 40
20.0
  9
$CHAMFERD
 40
0.0
  9
$SKPOLY
 70
     0
  9
$TDCREATE
 40
2455572.503956088
  9
$TDUCREATE
 40
2455572.462289421
  9
$TDUPDATE
 40
2455572.5039561
  9
$TDUUPDATE
 40
2455572.462289433
  9
$TDINDWG
 40
0.0000000116
  9
$TDUSRTIMER
 40
0.0000000116
  9
$USRTIMER
 70
     1
  9
$ANGBASE
 50
0.0
  9
$ANGDIR
 70
     0
  9
$PDMODE
 70
     0
  9
$PDSIZE
 40
0.0
  9
$PLINEWID
 40
0.0
  9
$SPLFRAME
 70
     0
  9
$SPLINETYPE
 70
     6
  9
$SPLINESEGS
 70
     8
  9
$HANDSEED
  5
12A
  9
$SURFTAB1
 70
     6
  9
$SURFTAB2
 70
     6
  9
$SURFTYPE
 70
     6
  9
$SURFU
 70
     6
  9
$SURFV
 70
     6
  9
$UCSBASE
  2

  9
$UCSNAME
  2

  9
$UCSORG
 10
0.0
 20
0.0
 30
0.0
  9
$UCSXDIR
 10
1.0
 20
0.0
 30
0.0
  9
$UCSYDIR
 10
0.0
 20
1.0
 30
0.0
  9
$UCSORTHOREF
  2

  9
$UCSORTHOVIEW
 70
     0
  9
$UCSORGTOP
 10
0.0
 20
0.0
 30
0.0
  9
$UCSORGBOTTOM
 10
0.0
 20
0.0
 30
0.0
  9
$UCSORGLEFT
 10
0.0
 20
0.0
 30
0.0
  9
$UCSORGRIGHT
 10
0.0
 20
0.0
 30
0.0
  9
$UCSORGFRONT
 10
0.0
 20
0.0
 30
0.0
  9
$UCSORGBACK
 10
0.0
 20
0.0
 30
0.0
  9
$PUCSBASE
  2

  9
$PUCSNAME
  2

  9
$PUCSORG
 10
0.0
 20
0.0
 30
0.0
  9
$PUCSXDIR
 10
1.0
 20
0.0
 30
0.0
  9
$PUCSYDIR
 10
0.0
 20
1.0
 30
0.0
  9
$PUCSORTHOREF
  2

  9
$PUCSORTHOVIEW
 70
     0
  9
$PUCSORGTOP
 10
0.0
 20
0.0
 30
0.0
  9
$PUCSORGBOTTOM
 10
0.0
 20
0.0
 30
0.0
  9
$PUCSORGLEFT
 10
0.0
 20
0.0
 30
0.0
  9
$PUCSORGRIGHT
 10
0.0
 20
0.0
 30
0.0
  9
$PUCSORGFRONT
 10
0.0
 20
0.0
 30
0.0
  9
$PUCSORGBACK
 10
0.0
 20
0.0
 30
0.0
  9
$USERI1
 70
     0
  9
$USERI2
 70
     0
  9
$USERI3
 70
     0
  9
$USERI4
 70
     0
  9
$USERI5
 70
     0
  9
$USERR1
 40
0.0
  9
$USERR2
 40
0.0
  9
$USERR3
 40
0.0
  9
$USERR4
 40
0.0
  9
$USERR5
 40
0.0
  9
$WORLDVIEW
 70
     1
  9
$SHADEDGE
 70
     3
  9
$SHADEDIF
 70
    70
  9
$TILEMODE
 70
     1
  9
$MAXACTVP
 70
    64
  9
$PINSBASE
 10
0.0
 20
0.0
 30
0.0
  9
$PLIMCHECK
 70
     0
  9
$PEXTMIN
 10
1.000000E+20
 20
1.000000E+20
 30
1.000000E+20
  9
$PEXTMAX
 10
-1.000000E+20
 20
-1.000000E+20
 30
-1.000000E+20
  9
$PLIMMIN
 10
0.0
 20
0.0
  9
$PLIMMAX
 10
420.0
 20
297.0
  9
$UNITMODE
 70
     0
  9
$VISRETAIN
 70
     1
  9
$PLINEGEN
 70
     0
  9
$PSLTSCALE
 70
     1
  9
$TREEDEPTH
 70
  3020
  9
$CMLSTYLE
  2
Standard
  9
$CMLJUST
 70
     0
  9
$CMLSCALE
 40
20.0
  9
$PROXYGRAPHICS
 70
     1
  9
$MEASUREMENT
 70
     1
  9
$CELWEIGHT
370
    -1
  9
$ENDCAPS
280
     0
  9
$JOINSTYLE
280
     0
  9
$LWDISPLAY
290
     0
  9
$INSUNITS
 70
     4
  9
$HYPERLINKBASE
  1

  9
$STYLESHEET
  1

  9
$XEDIT
290
     1
  9
$CEPSNTYPE
380
     0
  9
$PSTYLEMODE
290
     1
  9
$FINGERPRINTGUID
  2
{975FFF52-F94E-4CD0-B9CD-5BF0922A8823}
  9
$VERSIONGUID
  2
{FAEB1C32-E019-11D5-929B-00C0DF256EC4}
  9
$EXTNAMES
290
     1
  9
$PSVPSCALE
 40
0.0
  9
$OLESTARTUP
290
     0
  0
ENDSEC
  0
SECTION
  2
CLASSES
  0
CLASS
  1
ACDBDICTIONARYWDFLT
  2
AcDbDictionaryWithDefault
  3
ObjectDBX Classes
 90
        0
280
     0
281
     0
  0
CLASS
  1
VISUALSTYLE
  2
AcDbVisualStyle
  3
ObjectDBX Classes
 90
     4095
280
     0
281
     0
  0
CLASS
  1
DICTIONARYVAR
  2
AcDbDictionaryVar
  3
ObjectDBX Classes
 90
        0
280
     0
281
     0
  0
CLASS
  1
ACDBPLACEHOLDER
  2
AcDbPlaceHolder
  3
ObjectDBX Classes
 90
        0
280
     0
281
     0
  0
CLASS
  1
LAYOUT
  2
AcDbLayout
  3
ObjectDBX Classes
 90
        0
280
     0
281
     0
  0
ENDSEC
  0
SECTION
  2
TABLES
  0
TABLE
  2
VPORT
  5
8
330
0
100
AcDbSymbolTable
 70
     1
  0
VPORT
  5
29
330
8
100
AcDbSymbolTableRecord
100
AcDbViewportTableRecord
  2
*Active
 70
     0
 10
0.0
 20
0.0
 11
1.0
 21
1.0
 12
344.186916
 22
148.5
 13
0.0
 23
0.0
 14
10.0
 24
10.0
 15
10.0
 25
10.0
 16
0.0
 26
0.0
 36
1.0
 17
0.0
 27
0.0
 37
0.0
 40
297.0
 41
1.972973
 42
50.0
 43
0.0
 44
0.0
 50
0.0
 51
0.0
 71
     0
 72
   100
 73
     1
 74
     3
 75
     0
 76
     0
 77
     0
 78
     0
281
     0
 65
     1
110
0.0
120
0.0
130
0.0
111
1.0
121
0.0
131
0.0
112
0.0
122
1.0
132
0.0
 79
     0
146
0.0
  0
ENDTAB
  0
TABLE
  2
LTYPE
  5
5
330
0
100
AcDbSymbolTable
 70
     1
  0
LTYPE
  5
14
330
5
100
AcDbSymbolTableRecord
100
AcDbLinetypeTableRecord
  2
ByBlock
 70
     0
  3

 72
    65
 73
     0
 40
0.0
  0
LTYPE
  5
15
330
5
100
AcDbSymbolTableRecord
100
AcDbLinetypeTableRecord
  2
ByLayer
 70
     0
  3

 72
    65
 73
     0
 40
0.0
  0
LTYPE
  5
16
330
5
100
AcDbSymbolTableRecord
100
AcDbLinetypeTableRecord
  2
Continuous
 70
     0
  3
Solid line
 72
    65
 73
     0
 40
0.0
  0
ENDTAB
  0
TABLE
  2
LAYER
  5
2
330
0
100
AcDbSymbolTable
 70
     1
  0
LAYER
  5
10
330
2
100
AcDbSymbolTableRecord
100
AcDbLayerTableRecord
  2
0
 70
     0
 62
   106
  6
Continuous
370
     0
390
F
  0
ENDTAB
  0
TABLE
  2
STYLE
  5
3
330
0
100
AcDbSymbolTable
 70
     4
  0
STYLE
  5
11
330
3
100
AcDbSymbolTableRecord
100
AcDbTextStyleTableRecord
  2
Standard
 70
     0
 40
0.0
 41
1.0
 50
0.0
 71
     0
 42
2.5
  3
txt
  4

  0
STYLE
  5
3B
330
3
100
AcDbSymbolTableRecord
100
AcDbTextStyleTableRecord
  2
Default
 70
     0
 40
0.0
 41
1.0
 50
0.0
 71
     0
 42
0.2
  3

  4

1001
ACAD
1000
txt
1071
        0
  0
STYLE
  5
3C
330
3
100
AcDbSymbolTableRecord
100
AcDbTextStyleTableRecord
  2
ISO
 70
     0
 40
0.0
 41
1.0
 50
0.0
 71
     0
 42
0.2
  3

  4

1001
ACAD
1000
txt
1071
        0
  0
STYLE
  5
3D
330
3
100
AcDbSymbolTableRecord
100
AcDbTextStyleTableRecord
  2
GIANLU
 70
     0
 40
0.0
 41
1.0
 50
0.0
 71
     0
 42
0.2
  3

  4

1001
ACAD
1000
Arial
1071
        0
  0
ENDTAB
  0
TABLE
  2
VIEW
  5
6
330
0
100
AcDbSymbolTable
 70
     0
  0
ENDTAB
  0
TABLE
  2
UCS
  5
7
330
0
100
AcDbSymbolTable
 70
     0
  0
ENDTAB
  0
TABLE
  2
APPID
  5
9
330
0
100
AcDbSymbolTable
 70
     1
  0
APPID
  5
12
330
9
100
AcDbSymbolTableRecord
100
AcDbRegAppTableRecord
  2
ACAD
 70
     0
  0
ENDTAB
  0
TABLE
  2
DIMSTYLE
  5
A
330
0
100
AcDbSymbolTable
 70
     4
100
AcDbDimStyleTable
  0
DIMSTYLE
105
27
330
A
100
AcDbSymbolTableRecord
100
AcDbDimStyleTableRecord
  2
ISO-25
 70
     0
 41
2.5
 42
0.625
 43
3.75
 44
1.25
 73
     0
 74
     0
 77
     1
 78
     8
140
2.5
141
2.5
143
0.03937
147
0.625
171
     3
172
     1
271
     2
272
     2
274
     3
278
    44
283
     0
284
     8
340
11
  0
DIMSTYLE
105
3E
330
A
100
AcDbSymbolTableRecord
100
AcDbDimStyleTableRecord
  2
Default
 70
     0
  3
<>
 41
4.375
 42
1.05
 44
2.1
 73
     0
 74
     0
 77
     1
 78
     8
140
3.5
146
0.4
147
1.75
178
     3
271
     2
272
     3
284
     8
340
3B
341
3F
342
3F
  0
DIMSTYLE
105
46
330
A
100
AcDbSymbolTableRecord
100
AcDbDimStyleTableRecord
  2
ISO
 70
     0
  3
<>
 41
4.375
 42
1.05
 44
2.1
 73
     0
 74
     0
 77
     1
 78
     8
140
3.5
146
0.4
147
1.75
178
     3
271
     2
272
     3
284
     8
340
3C
341
3F
342
3F
  0
DIMSTYLE
105
47
330
A
100
AcDbSymbolTableRecord
100
AcDbDimStyleTableRecord
  2
zucchetti_unico
 70
     0
  3
<>
 41
3.0
 42
0.9
 44
1.8
 73
     0
 74
     0
 77
     1
 78
     8
140
3.0
146
0.6
147
1.5
176
   104
177
     3
178
     3
271
     2
272
     2
284
     8
340
3D
  0
ENDTAB
  0
TABLE
  2
BLOCK_RECORD
  5
1
330
0
100
AcDbSymbolTable
 70
     7
  0
BLOCK_RECORD
  5
1F
330
1
100
AcDbSymbolTableRecord
100
AcDbBlockTableRecord
  2
*Model_Space
340
22
  0
BLOCK_RECORD
  5
1B
330
1
100
AcDbSymbolTableRecord
100
AcDbBlockTableRecord
  2
*Paper_Space
340
1E
  0
BLOCK_RECORD
  5
23
330
1
100
AcDbSymbolTableRecord
100
AcDbBlockTableRecord
  2
*Paper_Space0
340
26
  0
BLOCK_RECORD
  5
3F
330
1
100
AcDbSymbolTableRecord
100
AcDbBlockTableRecord
  2
_CLOSED
340
0
  0
BLOCK_RECORD
  5
48
330
1
100
AcDbSymbolTableRecord
100
AcDbBlockTableRecord
  2
a
340
0
102
{BLKREFS
331
72
102
}
  0
BLOCK_RECORD
  5
73
330
1
100
AcDbSymbolTableRecord
100
AcDbBlockTableRecord
  2
b
340
0
102
{BLKREFS
331
8E
102
}
  0
BLOCK_RECORD
  5
8F
330
1
100
AcDbSymbolTableRecord
100
AcDbBlockTableRecord
  2
c
340
0
102
{BLKREFS
331
BD
102
}
  0
BLOCK_RECORD
  5
BE
330
1
100
AcDbSymbolTableRecord
100
AcDbBlockTableRecord
  2
d
340
0
102
{BLKREFS
331
F8
102
}
  0
BLOCK_RECORD
  5
F9
330
1
100
AcDbSymbolTableRecord
100
AcDbBlockTableRecord
  2
e
340
0
102
{BLKREFS
331
124
102
}
  0
ENDTAB
  0
ENDSEC
  0
SECTION
  2
BLOCKS
  0
BLOCK
  5
20
330
1F
100
AcDbEntity
  8
0
100
AcDbBlockBegin
  2
*Model_Space
 70
     0
 10
0.0
 20
0.0
 30
0.0
  3
*Model_Space
  1

  0
ENDBLK
  5
21
330
1F
100
AcDbEntity
  8
0
100
AcDbBlockEnd
  0
BLOCK
  5
1C
330
1B
100
AcDbEntity
 67
     1
  8
0
100
AcDbBlockBegin
  2
*Paper_Space
 70
     0
 10
0.0
 20
0.0
 30
0.0
  3
*Paper_Space
  1

  0
ENDBLK
  5
1D
330
1B
100
AcDbEntity
 67
     1
  8
0
100
AcDbBlockEnd
  0
BLOCK
  5
24
330
23
100
AcDbEntity
  8
0
100
AcDbBlockBegin
  2
*Paper_Space0
 70
     0
 10
0.0
 20
0.0
 30
0.0
  3
*Paper_Space0
  1

  0
ENDBLK
  5
25
330
23
100
AcDbEntity
  8
0
100
AcDbBlockEnd
  0
BLOCK
  5
40
330
3F
100
AcDbEntity
  8
0
100
AcDbBlockBegin
  2
_CLOSED
 70
     0
 10
0.0
 20
0.0
 30
0.0
  3
_CLOSED
  1

  0
LINE
  5
42
330
3F
100
AcDbEntity
  8
0
  6
ByBlock
 62
     0
370
    -2
100
AcDbLine
 10
-1.0
 20
0.166667
 30
0.0
 11
0.0
 21
0.0
 31
0.0
  0
LINE
  5
43
330
3F
100
AcDbEntity
  8
0
  6
ByBlock
 62
     0
370
    -2
100
AcDbLine
 10
0.0
 20
0.0
 30
0.0
 11
-1.0
 21
-0.166667
 31
0.0
  0
LINE
  5
44
330
3F
100
AcDbEntity
  8
0
  6
ByBlock
 62
     0
370
    -2
100
AcDbLine
 10
-1.0
 20
0.166667
 30
0.0
 11
-1.0
 21
-0.166667
 31
0.0
  0
LINE
  5
45
330
3F
100
AcDbEntity
  8
0
  6
ByBlock
 62
     0
370
    -2
100
AcDbLine
 10
0.0
 20
0.0
 30
0.0
 11
-1.0
 21
0.0
 31
0.0
  0
ENDBLK
  5
41
330
3F
100
AcDbEntity
  8
0
100
AcDbBlockEnd
  0
BLOCK
  5
70
330
48
100
AcDbEntity
  8
0
100
AcDbBlockBegin
  2
a
 70
     0
 10
360.537476
 20
163.280991
 30
0.0
  3
a
  1

  0
LINE
  5
49
330
48
100
AcDbEntity
  8
0
  6
Continuous
 62
     0
370
    30
100
AcDbLine
 10
477.416842
 20
567.397794
 30
0.0
 11
499.410756
 21
567.397794
 31
0.0
  0
LINE
  5
4A
330
48
100
AcDbEntity
  8
0
  6
Continuous
 62
     0
370
    30
100
AcDbLine
 10
499.410756
 20
567.397794
 30
0.0
 11
521.404105
 21
567.397825
 31
0.0
  0
LINE
  5
4B
330
48
100
AcDbEntity
  8
0
  6
Continuous
 62
     0
370
    30
100
AcDbLine
 10
499.410734
 20
598.397794
 30
0.0
 11
521.410444
 21
598.397825
 31
0.0
  0
LINE
  5
4C
330
48
100
AcDbEntity
  8
0
  6
Continuous
 62
     0
370
    30
100
AcDbLine
 10
477.410444
 20
598.397794
 30
0.0
 11
499.410734
 21
598.397794
 31
0.0
  0
LWPOLYLINE
  5
4D
330
48
100
AcDbEntity
  8
0
  6
Continuous
 62
     0
370
    30
100
AcDbPolyline
 90
        2
 70
     0
 43
0.0
 10
477.410461
 20
567.590149
 10
477.41684
 20
567.397766
  0
LWPOLYLINE
  5
4E
330
48
100
AcDbEntity
  8
0
  6
Continuous
 62
     0
370
    30
100
AcDbPolyline
 90
        2
 70
     0
 43
0.0
 10
521.404114
 20
567.397827
 10
521.410461
 20
567.590027
  0
LWPOLYLINE
  5
4F
330
48
100
AcDbEntity
  8
0
  6
Continuous
 62
     0
370
     0
100
AcDbPolyline
 90
       31
 70
     0
 43
0.0
 10
499.410767
 20
571.91449
 10
498.313599
 20
571.99585
 10
497.241333
 20
572.23053
 10
496.215454
 20
572.610168
 10
495.252502
 20
573.120667
 10
494.363342
 20
573.743469
 10
493.555206
 20
574.46283
 10
492.830414
 20
575.264221
 10
492.18985
 20
576.135986
 10
491.634216
 20
577.066711
 10
491.163849
 20
578.046143
 10
490.778473
 20
579.065979
 10
490.47821
 20
580.118103
 10
490.263306
 20
581.194397
 10
490.133911
 20
582.286926
 10
490.090179
 20
583.387695
 10
490.132324
 20
584.488464
 10
490.260132
 20
585.581238
 10
490.473511
 20
586.657959
 10
490.772186
 20
587.71051
 10
491.156067
 20
588.731079
 10
491.624939
 20
589.711365
 10
492.178619
 20
590.642761
 10
492.817688
 20
591.515869
 10
493.542572
 20
592.320129
 10
494.350952
 20
593.042053
 10
495.239349
 20
593.666809
 10
496.201141
 20
594.178772
 10
497.226044
 20
594.561279
 10
498.297791
 20
594.798767
 10
499.410736
 20
594.881104
  0
LWPOLYLINE
  5
50
330
48
100
AcDbEntity
  8
0
  6
Continuous
 62
     0
370
     0
100
AcDbPolyline
 90
       31
 70
     0
 43
0.0
 10
499.410736
 20
594.881104
 10
500.507904
 20
594.799744
 10
501.580139
 20
594.565063
 10
502.606049
 20
594.185425
 10
503.56897
 20
593.674927
 10
504.45813
 20
593.052063
 10
505.266266
 20
592.332764
 10
505.991058
 20
591.531372
 10
506.631592
 20
590.659607
 10
507.187225
 20
589.728882
 10
507.657623
 20
588.749451
 10
508.042969
 20
587.729614
 10
508.343231
 20
586.67749
 10
508.558136
 20
585.601196
 10
508.687531
 20
584.508667
 10
508.731232
 20
583.407898
 10
508.689117
 20
582.307129
 10
508.561279
 20
581.214355
 10
508.347931
 20
580.137634
 10
508.049255
 20
579.085083
 10
507.665375
 20
578.064514
 10
507.196533
 20
577.084229
 10
506.642822
 20
576.152832
 10
506.003754
 20
575.279724
 10
505.2789
 20
574.475464
 10
504.47052
 20
573.75354
 10
503.582123
 20
573.128784
 10
502.620331
 20
572.616821
 10
501.595428
 20
572.234314
 10
500.523682
 20
571.996826
 10
499.410767
 20
571.91449
  0
LINE
  5
51
330
48
100
AcDbEntity
  8
0
  6
Continuous
 62
     0
370
     0
100
AcDbLine
 10
499.410736
 20
594.881101
 30
0.0
 11
499.4108
 21
589.89779
 31
0.0
  0
LINE
  5
52
330
48
100
AcDbEntity
  8
0
  6
Continuous
 62
     0
370
     0
100
AcDbLine
 10
499.41081
 20
576.897753
 30
0.0
 11
499.410753
 21
571.914487
 31
0.0
  0
ARC
  5
53
330
48
100
AcDbEntity
  8
0
  6
Continuous
 62
     0
370
    30
100
AcDbCircle
 10
499.411613
 20
583.397747
 30
0.0
 40
6.499994153589111
100
AcDbArc
 50
270.000041
 51
90.000041
  0
ARC
  5
54
330
48
100
AcDbEntity
  8
0
  6
Continuous
 62
     0
370
    30
100
AcDbCircle
 10
499.411613
 20
583.397747
 30
0.0
 40
6.499994153589111
100
AcDbArc
 50
90.000041
 51
270.000041
  0
LINE
  5
55
330
48
100
AcDbEntity
  8
0
  6
Continuous
 62
     0
370
    30
100
AcDbLine
 10
477.410467
 20
566.186777
 30
0.0
 11
499.410324
 21
566.186793
 31
0.0
  0
LINE
  5
56
330
48
100
AcDbEntity
  8
0
  6
Continuous
 62
     0
370
    30
100
AcDbLine
 10
499.410324
 20
566.186793
 30
0.0
 11
521.410467
 21
566.186808
 31
0.0
  0
LINE
  5
57
330
48
100
AcDbEntity
  8
0
  6
Continuous
 62
     0
370
    30
100
AcDbLine
 10
499.410309
 20
515.186751
 30
0.0
 11
469.410507
 21
515.18673
 31
0.0
  0
LINE
  5
58
330
48
100
AcDbEntity
  8
0
  6
Continuous
 62
     0
370
    30
100
AcDbLine
 10
529.4105
 20
515.186773
 30
0.0
 11
499.410309
 21
515.186751
 31
0.0
  0
LINE
  5
59
330
48
100
AcDbEntity
  8
0
  6
Continuous
 62
     0
370
    30
100
AcDbLine
 10
499.410311
 20
511.186752
 30
0.0
 11
469.41051
 21
511.186731
 31
0.0
  0
LINE
  5
5A
330
48
100
AcDbEntity
  8
0
  6
Continuous
 62
     0
370
    30
100
AcDbLine
 10
529.410503
 20
511.186774
 30
0.0
 11
499.410311
 21
511.186752
 31
0.0
  0
LINE
  5
5B
330
48
100
AcDbEntity
  8
0
  6
Continuous
 62
     0
370
    30
100
AcDbLine
 10
469.41051
 20
511.186731
 30
0.0
 11
469.410507
 21
515.18673
 31
0.0
  0
LINE
  5
5C
330
48
100
AcDbEntity
  8
0
  6
Continuous
 62
     0
370
    30
100
AcDbLine
 10
529.410503
 20
511.186774
 30
0.0
 11
529.4105
 21
515.186773
 31
0.0
  0
LINE
  5
5D
330
48
100
AcDbEntity
  8
0
  6
Continuous
 62
     0
370
    30
100
AcDbLine
 10
521.410504
 20
515.186767
 30
0.0
 11
521.410467
 21
566.186808
 31
0.0
  0
LINE
  5
5E
330
48
100
AcDbEntity
  8
0
  6
Continuous
 62
     0
370
    30
100
AcDbLine
 10
477.410504
 20
515.186736
 30
0.0
 11
477.410467
 21
566.186777
 31
0.0
  0
ARC
  5
5F
330
48
100
AcDbEntity
  8
0
  6
Continuous
 62
     0
370
    30
100
AcDbCircle
 10
499.410323
 20
564.686786
 30
0.0
 40
20.5049890375134
100
AcDbArc
 50
172.402572
 51
175.804921
  0
ARC
  5
60
330
48
100
AcDbEntity
  8
0
  6
Continuous
 62
     0
370
    30
100
AcDbCircle
 10
499.410614
 20
564.686786
 30
0.0
 40
20.50498926519961
100
AcDbArc
 50
4.195161
 51
7.597509
  0
LINE
  5
61
330
48
100
AcDbEntity
  8
0
  6
Continuous
 62
     0
370
    30
100
AcDbLine
 10
521.410466
 20
567.590377
 30
0.0
 11
521.410444
 21
598.397825
 31
0.0
  0
LINE
  5
62
330
48
100
AcDbEntity
  8
0
  6
Continuous
 62
     0
370
    30
100
AcDbLine
 10
477.410466
 20
567.590556
 30
0.0
 11
477.410444
 21
598.397794
 31
0.0
  0
LINE
  5
63
330
48
100
AcDbEntity
  8
0
  6
Continuous
 62
     0
370
    30
100
AcDbLine
 10
429.410507
 20
626.686695
 30
0.0
 11
409.410507
 21
626.686695
 31
0.0
  0
LINE
  5
64
330
48
100
AcDbEntity
  8
0
  6
Continuous
 62
     0
370
    30
100
AcDbLine
 10
409.410507
 20
626.686695
 30
0.0
 11
409.410507
 21
646.686695
 31
0.0
  0
LINE
  5
65
330
48
100
AcDbEntity
  8
0
  6
Continuous
 62
     0
370
     0
100
AcDbLine
 10
429.410507
 20
646.686695
 30
0.0
 11
409.410507
 21
646.686695
 31
0.0
  0
LINE
  5
66
330
48
100
AcDbEntity
  8
0
  6
Continuous
 62
     0
370
    30
100
AcDbLine
 10
409.410507
 20
646.686695
 30
0.0
 11
409.410507
 21
722.686695
 31
0.0
  0
LINE
  5
67
330
48
100
AcDbEntity
  8
0
  6
Continuous
 62
     0
370
    30
100
AcDbLine
 10
389.410507
 20
510.186695
 30
0.0
 11
389.410507
 21
514.186695
 31
0.0
  0
LINE
  5
68
330
48
100
AcDbEntity
  8
0
  6
Continuous
 62
     0
370
    30
100
AcDbLine
 10
389.410507
 20
514.186695
 30
0.0
 11
449.410507
 21
514.186695
 31
0.0
  0
LINE
  5
69
330
48
100
AcDbEntity
  8
0
  6
Continuous
 62
     0
370
    30
100
AcDbLine
 10
449.410507
 20
510.186695
 30
0.0
 11
389.410507
 21
510.186695
 31
0.0
  0
LINE
  5
6A
330
48
100
AcDbEntity
  8
0
  6
Continuous
 62
     0
370
    30
100
AcDbLine
 10
409.410507
 20
626.686695
 30
0.0
 11
409.410507
 21
514.186695
 31
0.0
  0
LINE
  5
6B
330
48
100
AcDbEntity
  8
0
  6
Continuous
 62
     0
370
    30
100
AcDbLine
 10
429.410507
 20
514.186695
 30
0.0
 11
429.410507
 21
626.686695
 31
0.0
  0
LINE
  5
6C
330
48
100
AcDbEntity
  8
0
  6
Continuous
 62
     0
370
    30
100
AcDbLine
 10
449.410507
 20
514.186695
 30
0.0
 11
449.410507
 21
510.186695
 31
0.0
  0
ARC
  5
6D
330
48
100
AcDbEntity
  8
0
  6
Continuous
 62
     0
370
    30
100
AcDbCircle
 10
419.410502
 20
722.68665
 30
0.0
 40
9.999995353979532
100
AcDbArc
 50
359.998881
 51
179.999744
  0
LINE
  5
6E
330
48
100
AcDbEntity
  8
0
  6
Continuous
 62
     0
370
    30
100
AcDbLine
 10
429.410507
 20
722.686455
 30
0.0
 11
429.410507
 21
646.686695
 31
0.0
  0
LINE
  5
6F
330
48
100
AcDbEntity
  8
0
  6
Continuous
 62
     0
370
    30
100
AcDbLine
 10
429.410507
 20
646.686695
 30
0.0
 11
429.410507
 21
626.686695
 31
0.0
  0
ENDBLK
  5
71
330
48
100
AcDbEntity
  8
0
100
AcDbBlockEnd
  0
BLOCK
  5
8C
330
73
100
AcDbEntity
  8
0
100
AcDbBlockBegin
  2
b
 70
     0
 10
360.537476
 20
163.280991
 30
0.0
  3
b
  1

  0
ARC
  5
74
330
73
100
AcDbEntity
  8
0
  6
Continuous
 62
     0
370
    30
100
AcDbCircle
 10
499.410448
 20
322.312773
 30
0.0
 40
21.99999999999373
100
AcDbArc
 50
270.000754
 51
90.000754
  0
ARC
  5
75
330
73
100
AcDbEntity
  8
0
  6
Continuous
 62
     0
370
    30
100
AcDbCircle
 10
499.410448
 20
322.312773
 30
0.0
 40
21.99999999999373
100
AcDbArc
 50
90.000754
 51
270.000754
  0
LINE
  5
76
330
73
100
AcDbEntity
  8
0
  6
Continuous
 62
     0
370
     0
100
AcDbLine
 10
505.910827
 20
294.31287
 30
0.0
 11
499.410823
 21
294.31278
 31
0.0
  0
LINE
  5
77
330
73
100
AcDbEntity
  8
0
  6
Continuous
 62
     0
370
     0
100
AcDbLine
 10
499.410823
 20
294.31278
 30
0.0
 11
492.910827
 21
294.312699
 31
0.0
  0
LWPOLYLINE
  5
78
330
73
100
AcDbEntity
  8
0
  6
Continuous
 62
     0
370
     0
100
AcDbPolyline
 90
       13
 70
     0
 43
0.0
 10
492.9711
 20
297.767975
 10
493.030273
 20
297.71875
 10
493.202423
 20
297.579285
 10
493.478851
 20
297.364197
 10
493.849487
 20
297.094391
 10
494.305115
 20
296.790466
 10
494.839325
 20
296.471649
 10
495.447601
 20
296.155853
 10
496.126556
 20
295.860474
 10
496.871399
 20
295.603058
 10
497.673431
 20
295.401428
 10
498.520203
 20
295.271271
 10
499.410797
 20
295.225525
  0
LWPOLYLINE
  5
79
330
73
100
AcDbEntity
  8
0
  6
Continuous
 62
     0
370
     0
100
AcDbPolyline
 90
       13
 70
     0
 43
0.0
 10
499.410797
 20
295.225525
 10
500.28299
 20
295.26947
 10
501.130554
 20
295.398132
 10
501.933685
 20
295.598328
 10
502.679871
 20
295.854706
 10
503.36026
 20
296.149445
 10
503.970093
 20
296.465027
 10
504.50589
 20
296.783997
 10
504.963226
 20
297.08844
 10
505.335785
 20
297.359131
 10
505.614319
 20
297.575562
 10
505.788757
 20
297.716827
 10
505.850464
 20
297.768158
  0
LWPOLYLINE
  5
7A
330
73
100
AcDbEntity
  8
0
  6
Continuous
 62
     0
370
     0
100
AcDbPolyline
 90
       10
 70
     0
 43
0.0
 10
499.410736
 20
300.312775
 10
499.410736
 20
300.235077
 10
499.410736
 20
300.005463
 10
499.410736
 20
299.630005
 10
499.410767
 20
299.121155
 10
499.410767
 20
298.494781
 10
499.410767
 20
297.769653
 10
499.410797
 20
296.967407
 10
499.410797
 20
296.112946
 10
499.410797
 20
295.225525
  0
LINE
  5
7B
330
73
100
AcDbEntity
  8
0
  6
Continuous
 62
     0
370
    30
100
AcDbLine
 10
499.411612
 20
234.312785
 30
0.0
 11
505.911611
 21
234.31287
 31
0.0
  0
LINE
  5
7C
330
73
100
AcDbEntity
  8
0
  6
Continuous
 62
     0
370
    30
100
AcDbLine
 10
492.911622
 20
234.312699
 30
0.0
 11
499.411612
 21
234.312785
 31
0.0
  0
ARC
  5
7D
330
73
100
AcDbEntity
  8
0
  6
Continuous
 62
     0
370
    30
100
AcDbCircle
 10
499.410507
 20
322.312836
 30
0.0
 40
29.99999615613207
100
AcDbArc
 50
89.999627
 51
257.487343
  0
ARC
  5
7E
330
73
100
AcDbEntity
  8
0
  6
Continuous
 62
     0
370
    30
100
AcDbCircle
 10
499.410507
 20
322.312836
 30
0.0
 40
29.99999615613207
100
AcDbArc
 50
282.513974
 51
89.999627
  0
LINE
  5
7F
330
73
100
AcDbEntity
  8
0
  6
Continuous
 62
     0
370
    30
100
AcDbLine
 10
492.910833
 20
294.312699
 30
0.0
 11
492.911622
 21
234.312699
 31
0.0
  0
LINE
  5
80
330
73
100
AcDbEntity
  8
0
  6
Continuous
 62
     0
370
    30
100
AcDbLine
 10
505.910821
 20
294.31287
 30
0.0
 11
505.911611
 21
234.31287
 31
0.0
  0
LWPOLYLINE
  5
81
330
73
100
AcDbEntity
  8
0
  6
Continuous
 62
     0
370
    30
100
AcDbPolyline
 90
       21
 70
     0
 43
0.0
 10
508.716644
 20
302.37793
 10
508.692932
 20
302.366669
 10
508.429688
 20
302.230988
 10
508.171448
 20
302.077759
 10
507.922821
 20
301.909363
 10
507.684692
 20
301.72644
 10
507.458008
 20
301.529541
 10
507.243591
 20
301.319305
 10
507.042206
 20
301.096558
 10
506.854523
 20
300.862152
 10
506.681244
 20
300.616943
 10
506.52301
 20
300.361725
 10
506.380402
 20
300.097473
 10
506.253876
 20
299.825134
 10
506.143982
 20
299.545715
 10
506.051117
 20
299.260193
 10
505.975555
 20
298.969604
 10
505.91748
 20
298.674988
 10
505.877106
 20
298.37735
 10
505.854675
 20
298.07785
 10
505.850433
 20
297.768402
  0
LWPOLYLINE
  5
82
330
73
100
AcDbEntity
  8
0
  6
Continuous
 62
     0
370
    30
100
AcDbPolyline
 90
       23
 70
     0
 43
0.0
 10
490.104614
 20
302.377777
 10
490.117981
 20
302.371429
 10
490.346222
 20
302.255646
 10
490.582581
 20
302.119568
 10
490.811127
 20
301.970886
 10
491.031281
 20
301.810059
 10
491.242371
 20
301.637482
 10
491.443695
 20
301.453613
 10
491.634644
 20
301.258972
 10
491.814697
 20
301.05426
 10
491.983368
 20
300.840027
 10
492.140137
 20
300.616913
 10
492.284454
 20
300.38562
 10
492.415955
 20
300.146759
 10
492.534241
 20
299.901093
 10
492.638977
 20
299.649353
 10
492.729736
 20
299.392303
 10
492.806335
 20
299.130646
 10
492.868622
 20
298.865204
 10
492.916412
 20
298.596741
 10
492.949554
 20
298.32605
 10
492.967896
 20
298.053955
 10
492.97113
 20
297.768219
  0
LINE
  5
83
330
73
100
AcDbEntity
  8
0
  6
Continuous
 62
     0
370
    30
100
AcDbLine
 10
505.850474
 20
297.767925
 30
0.0
 11
505.910827
 21
294.31287
 31
0.0
  0
LINE
  5
84
330
73
100
AcDbEntity
  8
0
  6
Continuous
 62
     0
370
    30
100
AcDbLine
 10
492.97109
 20
297.767755
 30
0.0
 11
492.910827
 21
294.312699
 31
0.0
  0
ARC
  5
85
330
73
100
AcDbEntity
  8
0
  6
Continuous
 62
     0
370
    30
100
AcDbCircle
 10
419.410511
 20
170.313354
 30
0.0
 40
10.0
100
AcDbArc
 50
180.0
 51
360.0
  0
LWPOLYLINE
  5
86
330
73
100
AcDbEntity
  8
0
  6
Continuous
 62
     0
370
    30
100
AcDbPolyline
 90
       71
 70
     0
 43
0.0
 10
409.410522
 20
170.313354
 10
409.410522
 20
170.376404
 10
409.410522
 20
170.56955
 10
409.410522
 20
170.898453
 10
409.410522
 20
171.368332
 10
409.410522
 20
171.983841
 10
409.410522
 20
172.748962
 10
409.410522
 20
173.666962
 10
409.410522
 20
174.740295
 10
409.410522
 20
175.97049
 10
409.410522
 20
177.35817
 10
409.410522
 20
178.902893
 10
409.410522
 20
180.60321
 10
409.410522
 20
182.456543
 10
409.410522
 20
184.45929
 10
409.410522
 20
186.606735
 10
409.410522
 20
188.893112
 10
409.410522
 20
191.311707
 10
409.410522
 20
193.854813
 10
409.410522
 20
196.513901
 10
409.410522
 20
199.279678
 10
409.410522
 20
202.142197
 10
409.410522
 20
205.090988
 10
409.410522
 20
208.115173
 10
409.410522
 20
211.203583
 10
409.410522
 20
214.344879
 10
409.410522
 20
217.527756
 10
409.410522
 20
220.740936
 10
409.410522
 20
223.973404
 10
409.410522
 20
227.214432
 10
409.410522
 20
230.453705
 10
409.410522
 20
233.681442
 10
409.410522
 20
236.888351
 10
409.410522
 20
240.065826
 10
409.410522
 20
243.205872
 10
409.410522
 20
246.301208
 10
409.410522
 20
249.396164
 10
409.410522
 20
252.535873
 10
409.410522
 20
255.713089
 10
409.410522
 20
258.9198
 10
409.410522
 20
262.1474
 10
409.410522
 20
265.386627
 10
409.410522
 20
268.627686
 10
409.410522
 20
271.86026
 10
409.410522
 20
275.073639
 10
409.410522
 20
278.256775
 10
409.410522
 20
281.398468
 10
409.410522
 20
284.487335
 10
409.410522
 20
287.512054
 10
409.410522
 20
290.461517
 10
409.410522
 20
293.324738
 10
409.410522
 20
296.091339
 10
409.410522
 20
298.751312
 10
409.410522
 20
301.295349
 10
409.410522
 20
303.714966
 10
409.410522
 20
306.002441
 10
409.410522
 20
308.151001
 10
409.410522
 20
310.154907
 10
409.410522
 20
312.00943
 10
409.410522
 20
313.710968
 10
409.410522
 20
315.256927
 10
409.410522
 20
316.645844
 10
409.410522
 20
317.877289
 10
409.410522
 20
318.951874
 10
409.410522
 20
319.871094
 10
409.410522
 20
320.637421
 10
409.410522
 20
321.254089
 10
409.410522
 20
321.725098
 10
409.410522
 20
322.055115
 10
409.410522
 20
322.249298
 10
409.410522
 20
322.313354
  0
ARC
  5
87
330
73
100
AcDbEntity
  8
0
  6
Continuous
 62
     0
370
    30
100
AcDbCircle
 10
419.410511
 20
322.313354
 30
0.0
 40
9.999999999999986
100
AcDbArc
 50
360.0
 51
180.0
  0
ARC
  5
88
330
73
100
AcDbEntity
  8
0
  6
Continuous
 62
     0
370
    30
100
AcDbCircle
 10
419.410511
 20
322.31336
 30
0.0
 40
30.0
100
AcDbArc
 50
360.0
 51
180.0
  0
ARC
  5
89
330
73
100
AcDbEntity
  8
0
  6
Continuous
 62
     0
370
    30
100
AcDbCircle
 10
419.410511
 20
322.31336
 30
0.0
 40
30.0
100
AcDbArc
 50
289.47122
 51
360.0
  0
ARC
  5
8A
330
73
100
AcDbEntity
  8
0
  6
Continuous
 62
     0
370
    30
100
AcDbCircle
 10
419.410511
 20
322.31336
 30
0.0
 40
30.0
100
AcDbArc
 50
180.0
 51
250.528779
  0
LINE
  5
8B
330
73
100
AcDbEntity
  8
0
  6
Continuous
 62
     0
370
    30
100
AcDbLine
 10
429.410511
 20
170.313357
 30
0.0
 11
429.410511
 21
322.313354
 31
0.0
  0
ENDBLK
  5
8D
330
73
100
AcDbEntity
  8
0
100
AcDbBlockEnd
  0
BLOCK
  5
BB
330
8F
100
AcDbEntity
  8
0
100
AcDbBlockBegin
  2
c
 70
     0
 10
360.537476
 20
163.280991
 30
0.0
  3
c
  1

  0
LINE
  5
90
330
8F
100
AcDbEntity
  8
0
  6
Continuous
 62
     0
370
    30
100
AcDbLine
 10
628.675161
 20
567.397789
 30
0.0
 11
640.675858
 21
567.397794
 31
0.0
  0
LINE
  5
91
330
8F
100
AcDbEntity
  8
0
  6
Continuous
 62
     0
370
    30
100
AcDbLine
 10
628.675214
 20
598.397789
 30
0.0
 11
640.67588
 21
598.397794
 31
0.0
  0
LINE
  5
92
330
8F
100
AcDbEntity
  8
0
  6
Continuous
 62
     0
370
    30
100
AcDbLine
 10
596.67588
 20
598.397825
 30
0.0
 11
608.675382
 21
598.397803
 31
0.0
  0
LINE
  5
93
330
8F
100
AcDbEntity
  8
0
  6
Continuous
 62
     0
370
    30
100
AcDbLine
 10
596.675864
 20
575.59793
 30
0.0
 11
608.675429
 21
571.230412
 31
0.0
  0
LINE
  5
94
330
8F
100
AcDbEntity
  8
0
  6
Continuous
 62
     0
370
    30
100
AcDbLine
 10
640.675858
 20
567.397794
 30
0.0
 11
640.675861
 21
571.914487
 31
0.0
  0
LWPOLYLINE
  5
95
330
8F
100
AcDbEntity
  8
0
  6
Continuous
 62
     0
370
     0
100
AcDbPolyline
 90
       32
 70
     0
 43
0.0
 10
640.675842
 20
571.91449
 10
640.650269
 20
571.990601
 10
640.575378
 20
572.210693
 10
640.456787
 20
572.566833
 10
640.302429
 20
573.047241
 10
640.121582
 20
573.634766
 10
639.923706
 20
574.315002
 10
639.717773
 20
575.074402
 10
639.511841
 20
575.902039
 10
639.313416
 20
576.787659
 10
639.129517
 20
577.721436
 10
638.966125
 20
578.695496
 10
638.82843
 20
579.702393
 10
638.720886
 20
580.734985
 10
638.646973
 20
581.785889
 10
638.60907
 20
582.8479
 10
638.608459
 20
583.913757
 10
638.645142
 20
584.976013
 10
638.717957
 20
586.027405
 10
638.824524
 20
587.060608
 10
638.961304
 20
588.068481
 10
639.124023
 20
589.043762
 10
639.307312
 20
589.978821
 10
639.505249
 20
590.865845
 10
639.711182
 20
591.695984
 10
639.917725
 20
592.459229
 10
640.116272
 20
593.142883
 10
640.297791
 20
593.733459
 10
640.452942
 20
594.216797
 10
640.572632
 20
594.577576
 10
640.648804
 20
594.802002
 10
640.675903
 20
594.881104
  0
LINE
  5
96
330
8F
100
AcDbEntity
  8
0
  6
Continuous
 62
     0
370
    30
100
AcDbLine
 10
640.675878
 20
594.881101
 30
0.0
 11
640.67588
 21
598.397794
 31
0.0
  0
LINE
  5
97
330
8F
100
AcDbEntity
  8
0
  6
Continuous
 62
     0
370
     0
100
AcDbLine
 10
646.675874
 20
589.89779
 30
0.0
 11
646.675865
 21
576.89779
 31
0.0
  0
LWPOLYLINE
  5
98
330
8F
100
AcDbEntity
  8
0
  6
Continuous
 62
     0
370
     0
100
AcDbPolyline
 90
       25
 70
     0
 43
0.0
 10
645.763123
 20
576.913696
 10
645.719116
 20
576.973572
 10
645.590393
 20
577.149292
 10
645.390015
 20
577.432251
 10
645.133423
 20
577.811707
 10
644.838501
 20
578.276978
 10
644.522766
 20
578.819641
 10
644.203613
 20
579.433838
 10
643.89917
 20
580.11554
 10
643.62854
 20
580.860657
 10
643.412292
 20
581.661499
 10
643.271423
 20
582.509888
 10
643.220703
 20
583.384583
 10
643.268494
 20
584.259644
 10
643.40686
 20
585.109131
 10
643.621155
 20
585.91156
 10
643.890503
 20
586.658508
 10
644.194275
 20
587.342163
 10
644.513184
 20
587.958435
 10
644.829224
 20
588.503357
 10
645.125122
 20
588.971008
 10
645.383179
 20
589.353271
 10
645.585571
 20
589.639282
 10
645.716553
 20
589.818359
 10
645.763123
 20
589.881836
  0
ARC
  5
99
330
8F
100
AcDbEntity
  8
0
  6
Continuous
 62
     0
370
    30
100
AcDbCircle
 10
645.675878
 20
594.881097
 30
0.0
 40
4.999999999716593
100
AcDbArc
 50
179.999959
 51
270.999959
  0
ARC
  5
9A
330
8F
100
AcDbEntity
  8
0
  6
Continuous
 62
     0
370
    30
100
AcDbCircle
 10
645.675861
 20
571.914484
 30
0.0
 40
4.999999999828916
100
AcDbArc
 50
88.999959
 51
179.999959
  0
LINE
  5
9B
330
8F
100
AcDbEntity
  8
0
  6
Continuous
 62
     0
370
    30
100
AcDbLine
 10
706.675865
 20
576.897753
 30
0.0
 11
706.675874
 21
589.897741
 31
0.0
  0
LINE
  5
9C
330
8F
100
AcDbEntity
  8
0
  6
Continuous
 62
     0
370
    30
100
AcDbLine
 10
706.675874
 20
589.897741
 30
0.0
 11
646.675874
 21
589.897784
 31
0.0
  0
LINE
  5
9D
330
8F
100
AcDbEntity
  8
0
  6
Continuous
 62
     0
370
    30
100
AcDbLine
 10
640.675857
 20
566.186777
 30
0.0
 11
640.675821
 21
515.186736
 31
0.0
  0
LINE
  5
9E
330
8F
100
AcDbEntity
  8
0
  6
Continuous
 62
     0
370
    30
100
AcDbLine
 10
628.675159
 20
566.186785
 30
0.0
 11
640.675857
 21
566.186777
 31
0.0
  0
LINE
  5
9F
330
8F
100
AcDbEntity
  8
0
  6
Continuous
 62
     0
370
    30
100
AcDbLine
 10
596.675857
 20
566.186808
 30
0.0
 11
608.675437
 21
566.1868
 31
0.0
  0
LINE
  5
A0
330
8F
100
AcDbEntity
  8
0
  6
Continuous
 62
     0
370
    30
100
AcDbLine
 10
608.675526
 20
515.186759
 30
0.0
 11
588.675825
 21
515.186773
 31
0.0
  0
LINE
  5
A1
330
8F
100
AcDbEntity
  8
0
  6
Continuous
 62
     0
370
    30
100
AcDbLine
 10
648.675817
 20
515.18673
 30
0.0
 11
628.675071
 21
515.186744
 31
0.0
  0
LINE
  5
A2
330
8F
100
AcDbEntity
  8
0
  6
Continuous
 62
     0
370
    30
100
AcDbLine
 10
588.675825
 20
515.186773
 30
0.0
 11
588.675824
 21
514.186695
 31
0.0
  0
LINE
  5
A3
330
8F
100
AcDbEntity
  8
0
  6
Continuous
 62
     0
370
    30
100
AcDbLine
 10
648.675816
 20
514.186695
 30
0.0
 11
648.675817
 21
515.18673
 31
0.0
  0
LINE
  5
A4
330
8F
100
AcDbEntity
  8
0
  6
Continuous
 62
     0
370
    30
100
AcDbLine
 10
596.675821
 20
515.186767
 30
0.0
 11
596.675857
 21
566.186808
 31
0.0
  0
ARC
  5
A5
330
8F
100
AcDbEntity
  8
0
  6
Continuous
 62
     0
370
    30
100
AcDbCircle
 10
618.675917
 20
564.686754
 30
0.0
 40
20.50519694044239
100
AcDbArc
 50
152.354546
 51
175.804793
  0
ARC
  5
A6
330
8F
100
AcDbEntity
  8
0
  6
Continuous
 62
     0
370
    30
100
AcDbCircle
 10
618.675558
 20
564.686742
 30
0.0
 40
20.50543443732612
100
AcDbArc
 50
4.195111
 51
7.597402
  0
LINE
  5
A7
330
8F
100
AcDbEntity
  8
0
  6
Continuous
 62
     0
370
    30
100
AcDbLine
 10
646.675865
 20
576.897796
 30
0.0
 11
706.675865
 21
576.897753
 31
0.0
  0
LINE
  5
A8
330
8F
100
AcDbEntity
  8
0
  6
Continuous
 62
     0
370
    30
100
AcDbLine
 10
596.675864
 20
575.598026
 30
0.0
 11
596.67588
 21
598.397825
 31
0.0
  0
LINE
  5
A9
330
8F
100
AcDbEntity
  8
0
  6
Continuous
 62
     0
370
    30
100
AcDbLine
 10
770.675301
 20
626.686695
 30
0.0
 11
760.675301
 21
626.686695
 31
0.0
  0
LWPOLYLINE
  5
AA
330
8F
100
AcDbEntity
  8
0
  6
Continuous
 62
     0
370
    30
100
AcDbPolyline
 90
       14
 70
     0
 43
0.0
 10
780.675293
 20
626.686707
 10
780.599426
 20
626.686707
 10
780.375244
 20
626.686707
 10
780.012634
 20
626.686707
 10
779.526794
 20
626.686707
 10
778.928284
 20
626.686707
 10
778.200867
 20
626.686707
 10
777.349609
 20
626.686707
 10
776.387878
 20
626.686707
 10
775.334534
 20
626.686707
 10
774.213135
 20
626.686707
 10
773.050049
 20
626.686707
 10
771.872437
 20
626.686707
 10
770.675293
 20
626.686707
  0
LINE
  5
AB
330
8F
100
AcDbEntity
  8
0
  6
Continuous
 62
     0
370
     0
100
AcDbLine
 10
770.675301
 20
646.686695
 30
0.0
 11
760.675301
 21
646.686695
 31
0.0
  0
LINE
  5
AC
330
8F
100
AcDbEntity
  8
0
  6
Continuous
 62
     0
370
     0
100
AcDbLine
 10
780.675301
 20
646.686695
 30
0.0
 11
770.675301
 21
646.686695
 31
0.0
  0
LINE
  5
AD
330
8F
100
AcDbEntity
  8
0
  6
Continuous
 62
     0
370
     0
100
AcDbLine
 10
618.675301
 20
646.686695
 30
0.0
 11
628.675301
 21
646.686695
 31
0.0
  0
LINE
  5
AE
330
8F
100
AcDbEntity
  8
0
  6
Continuous
 62
     0
370
     0
100
AcDbLine
 10
608.675301
 20
646.686695
 30
0.0
 11
618.675301
 21
646.686695
 31
0.0
  0
LINE
  5
AF
330
8F
100
AcDbEntity
  8
0
  6
Continuous
 62
     0
370
    30
100
AcDbLine
 10
588.675301
 20
514.186695
 30
0.0
 11
618.675302
 21
514.186695
 31
0.0
  0
LINE
  5
B0
330
8F
100
AcDbEntity
  8
0
  6
Continuous
 62
     0
370
    30
100
AcDbLine
 10
618.675302
 20
514.186695
 30
0.0
 11
648.675301
 21
514.186695
 31
0.0
  0
LINE
  5
B1
330
8F
100
AcDbEntity
  8
0
  6
Continuous
 62
     0
370
    30
100
AcDbLine
 10
648.675301
 20
510.186695
 30
0.0
 11
618.675302
 21
510.186695
 31
0.0
  0
LINE
  5
B2
330
8F
100
AcDbEntity
  8
0
  6
Continuous
 62
     0
370
    30
100
AcDbLine
 10
618.675302
 20
510.186695
 30
0.0
 11
588.675301
 21
510.186695
 31
0.0
  0
LINE
  5
B3
330
8F
100
AcDbEntity
  8
0
  6
Continuous
 62
     0
370
    30
100
AcDbLine
 10
628.675071
 20
514.186695
 30
0.0
 11
628.675301
 21
646.686695
 31
0.0
  0
LINE
  5
B4
330
8F
100
AcDbEntity
  8
0
  6
Continuous
 62
     0
370
    30
100
AcDbLine
 10
608.675301
 20
646.686695
 30
0.0
 11
608.67553
 21
514.186695
 31
0.0
  0
LINE
  5
B5
330
8F
100
AcDbEntity
  8
0
  6
Continuous
 62
     0
370
    30
100
AcDbLine
 10
588.675301
 20
514.186695
 30
0.0
 11
588.675301
 21
510.186695
 31
0.0
  0
LINE
  5
B6
330
8F
100
AcDbEntity
  8
0
  6
Continuous
 62
     0
370
    30
100
AcDbLine
 10
648.675301
 20
514.186695
 30
0.0
 11
648.675301
 21
510.186695
 31
0.0
  0
ARC
  5
B7
330
8F
100
AcDbEntity
  8
0
  6
Continuous
 62
     0
370
    30
100
AcDbCircle
 10
694.675301
 20
646.686456
 30
0.0
 40
66.00000000043251
100
AcDbArc
 50
0.000207
 51
179.999793
  0
ARC
  5
B8
330
8F
100
AcDbEntity
  8
0
  6
Continuous
 62
     0
370
    30
100
AcDbCircle
 10
694.675301
 20
646.686635
 30
0.0
 40
86.00000000002046
100
AcDbArc
 50
0.00004
 51
179.99996
  0
LINE
  5
B9
330
8F
100
AcDbEntity
  8
0
  6
Continuous
 62
     0
370
    30
100
AcDbLine
 10
760.675301
 20
646.686695
 30
0.0
 11
760.675301
 21
626.686695
 31
0.0
  0
LINE
  5
BA
330
8F
100
AcDbEntity
  8
0
  6
Continuous
 62
     0
370
    30
100
AcDbLine
 10
780.675301
 20
646.686695
 30
0.0
 11
780.675301
 21
626.686695
 31
0.0
  0
ENDBLK
  5
BC
330
8F
100
AcDbEntity
  8
0
100
AcDbBlockEnd
  0
BLOCK
  5
F6
330
BE
100
AcDbEntity
  8
0
100
AcDbBlockBegin
  2
d
 70
     0
 10
360.537476
 20
163.280991
 30
0.0
  3
d
  1

  0
ARC
  5
BF
330
BE
100
AcDbEntity
  8
0
  6
Continuous
 62
     0
370
    30
100
AcDbCircle
 10
763.795019
 20
251.567414
 30
0.0
 40
18.69162669073321
100
AcDbArc
 50
226.142587
 51
234.847816
  0
LWPOLYLINE
  5
C0
330
BE
100
AcDbEntity
  8
0
  6
Continuous
 62
     0
370
    30
100
AcDbPolyline
 90
       18
 70
     0
 43
0.0
 10
753.033325
 20
236.284653
 10
754.385132
 20
235.405457
 10
755.882324
 20
234.585815
 10
757.518677
 20
233.841644
 10
759.28363
 20
233.18869
 10
761.16217
 20
232.6418
 10
763.13501
 20
232.214157
 10
765.179016
 20
231.916519
 10
767.268005
 20
231.756561
 10
769.373901
 20
231.738358
 10
771.467834
 20
231.862183
 10
773.521545
 20
232.124435
 10
775.508728
 20
232.517899
 10
777.405762
 20
233.032227
 10
779.192871
 20
233.654572
 10
780.854553
 20
234.370346
 10
782.379761
 20
235.164017
 10
783.767212
 20
236.023499
  0
LWPOLYLINE
  5
C1
330
BE
100
AcDbEntity
  8
0
  6
Continuous
 62
     0
370
    30
100
AcDbPolyline
 90
       40
 70
     0
 43
0.0
 10
753.033264
 20
258.204956
 10
754.219116
 20
257.425995
 10
755.519348
 20
256.69165
 10
756.93042
 20
256.012939
 10
758.446045
 20
255.400925
 10
760.057251
 20
254.866318
 10
761.752441
 20
254.419052
 10
763.517212
 20
254.067871
 10
765.335022
 20
253.819916
 10
767.187561
 20
253.680389
 10
769.055176
 20
253.652267
 10
770.917725
 20
253.736145
 10
772.755371
 20
253.930237
 10
774.54895
 20
254.230423
 10
776.281006
 20
254.630493
 10
777.935974
 20
255.122482
 10
779.500854
 20
255.696976
 10
780.965271
 20
256.343597
 10
782.321716
 20
257.051453
 10
783.565247
 20
257.809418
 10
784.70166
 20
258.612762
 10
785.773743
 20
259.491791
 10
786.775085
 20
260.450653
 10
787.68988
 20
261.485901
 10
788.502686
 20
262.592194
 10
789.198853
 20
263.762238
 10
789.765137
 20
264.986786
 10
790.190186
 20
266.254913
 10
790.46521
 20
267.554199
 10
790.584351
 20
268.871216
 10
790.545105
 20
270.191833
 10
790.348328
 20
271.501831
 10
789.99823
 20
272.787323
 10
789.502075
 20
274.03537
 10
788.869934
 20
275.234222
 10
788.114319
 20
276.373779
 10
787.249146
 20
277.44574
 10
786.289612
 20
278.443756
 10
785.251282
 20
279.363434
 10
784.145569
 20
280.205292
  0
LWPOLYLINE
  5
C2
330
BE
100
AcDbEntity
  8
0
  6
Continuous
 62
     0
370
    30
100
AcDbPolyline
 90
       40
 70
     0
 43
0.0
 10
784.145569
 20
280.205292
 10
782.959717
 20
280.984253
 10
781.659485
 20
281.718597
 10
780.248474
 20
282.397308
 10
778.732849
 20
283.009338
 10
777.121582
 20
283.543945
 10
775.426392
 20
283.991211
 10
773.661621
 20
284.342377
 10
771.843811
 20
284.590332
 10
769.991272
 20
284.729858
 10
768.123657
 20
284.757996
 10
766.261108
 20
284.674103
 10
764.423462
 20
284.480011
 10
762.629883
 20
284.17984
 10
760.897888
 20
283.779755
 10
759.24292
 20
283.287781
 10
757.677979
 20
282.713287
 10
756.213562
 20
282.06665
 10
754.857117
 20
281.358795
 10
753.613586
 20
280.60083
 10
752.477234
 20
279.797485
 10
751.40509
 20
278.918457
 10
750.403809
 20
277.959625
 10
749.489014
 20
276.924347
 10
748.676147
 20
275.818054
 10
747.97998
 20
274.64801
 10
747.413696
 20
273.423462
 10
746.988708
 20
272.155334
 10
746.713684
 20
270.856049
 10
746.594482
 20
269.539032
 10
746.633728
 20
268.218414
 10
746.830505
 20
266.908417
 10
747.180664
 20
265.622925
 10
747.676819
 20
264.374878
 10
748.308899
 20
263.176025
 10
749.064514
 20
262.036469
 10
749.929688
 20
260.964508
 10
750.889282
 20
259.966492
 10
751.927551
 20
259.046814
 10
753.033264
 20
258.204956
  0
LWPOLYLINE
  5
C3
330
BE
100
AcDbEntity
  8
0
  6
Continuous
 62
     0
370
    30
100
AcDbPolyline
 90
       11
 70
     0
 43
0.0
 10
783.767212
 20
236.023499
 10
784.986816
 20
237.364807
 10
786.105652
 20
238.77507
 10
787.116028
 20
240.244949
 10
788.008301
 20
241.761749
 10
788.774841
 20
243.314896
 10
789.412415
 20
244.898392
 10
789.91748
 20
246.505417
 10
790.284973
 20
248.126205
 10
790.509949
 20
249.75032
 10
790.589417
 20
251.426529
  0
LWPOLYLINE
  5
C4
330
BE
100
AcDbEntity
  8
0
  6
Continuous
 62
     0
370
     0
100
AcDbPolyline
 90
       16
 70
     0
 43
0.0
 10
747.935669
 20
252.218506
 10
747.908508
 20
253.114792
 10
747.919495
 20
253.938522
 10
747.969116
 20
254.682739
 10
748.058777
 20
255.341507
 10
748.191406
 20
255.90979
 10
748.370972
 20
256.383423
 10
748.602356
 20
256.758728
 10
748.891541
 20
257.031921
 10
749.24585
 20
257.198486
 10
749.672302
 20
257.253632
 10
750.177002
 20
257.192505
 10
750.764404
 20
257.011017
 10
751.435669
 20
256.706848
 10
752.185974
 20
256.280457
 10
753.033264
 20
255.718292
  0
LINE
  5
C5
330
BE
100
AcDbEntity
  8
0
  6
Continuous
 62
     0
370
     0
100
AcDbLine
 10
753.033307
 20
239.478444
 30
0.0
 11
752.915177
 21
239.564917
 31
0.0
  0
LWPOLYLINE
  5
C6
330
BE
100
AcDbEntity
  8
0
  6
Continuous
 62
     0
370
     0
100
AcDbPolyline
 90
       31
 70
     0
 43
0.0
 10
753.033264
 20
255.718292
 10
753.827942
 20
255.126297
 10
754.642029
 20
254.464661
 10
755.456055
 20
253.746841
 10
756.252014
 20
252.986633
 10
757.014893
 20
252.197388
 10
757.732239
 20
251.388641
 10
758.395569
 20
250.566956
 10
758.998047
 20
249.736649
 10
759.533447
 20
248.902023
 10
759.996338
 20
248.066772
 10
760.382263
 20
247.233551
 10
760.6875
 20
246.40535
 10
760.908508
 20
245.585693
 10
761.042908
 20
244.778687
 10
761.08905
 20
243.989029
 10
761.046265
 20
243.222107
 10
760.915222
 20
242.483963
 10
760.69751
 20
241.781235
 10
760.395447
 20
241.121063
 10
760.012451
 20
240.511276
 10
759.552429
 20
239.960251
 10
759.02002
 20
239.477203
 10
758.419922
 20
239.072617
 10
757.757324
 20
238.757996
 10
757.040405
 20
238.546432
 10
756.278564
 20
238.451523
 10
755.483704
 20
238.486115
 10
754.670166
 20
238.661972
 10
753.855713
 20
238.986618
 10
753.033325
 20
239.478439
  0
LWPOLYLINE
  5
C7
330
BE
100
AcDbEntity
  8
0
  6
Continuous
 62
     0
370
     0
100
AcDbPolyline
 90
       16
 70
     0
 43
0.0
 10
752.539978
 20
239.288635
 10
752.898682
 20
239.63205
 10
753.157837
 20
240.077316
 10
753.317505
 20
240.601486
 10
753.383789
 20
241.179626
 10
753.365662
 20
241.805679
 10
753.259521
 20
242.513306
 10
753.056641
 20
243.292801
 10
752.753479
 20
244.124802
 10
752.353027
 20
244.98381
 10
751.86554
 20
245.840378
 10
751.307739
 20
246.664337
 10
750.700806
 20
247.428207
 10
750.068115
 20
248.110199
 10
749.432251
 20
248.695923
 10
748.79071
 20
249.194519
  0
LWPOLYLINE
  5
C8
330
BE
100
AcDbEntity
  8
0
  6
Continuous
 62
     0
370
     0
100
AcDbPolyline
 90
        8
 70
     0
 43
0.0
 10
748.79071
 20
249.194519
 10
748.228516
 20
249.55751
 10
747.650757
 20
249.856949
 10
747.071838
 20
250.076401
 10
746.508423
 20
250.20163
 10
745.97821
 20
250.22226
 10
745.498108
 20
250.133362
 10
745.037842
 20
249.905502
  0
LWPOLYLINE
  5
C9
330
BE
100
AcDbEntity
  8
0
  6
Continuous
 62
     0
370
     0
100
AcDbPolyline
 90
        7
 70
     0
 43
0.0
 10
746.897095
 20
251.165176
 10
747.071838
 20
251.195694
 10
747.326294
 20
251.097961
 10
747.678101
 20
250.883301
 10
748.142456
 20
250.561295
 10
748.727722
 20
250.143356
 10
749.436096
 20
249.639633
  0
LWPOLYLINE
  5
CA
330
BE
100
AcDbEntity
  8
0
  6
Continuous
 62
     0
370
     0
100
AcDbPolyline
 90
       18
 70
     0
 43
0.0
 10
749.436096
 20
249.639633
 10
750.067871
 20
249.194473
 10
750.740845
 20
248.723114
 10
751.4328
 20
248.234543
 10
752.125671
 20
247.734558
 10
752.801697
 20
247.226273
 10
753.445801
 20
246.709686
 10
754.044373
 20
246.182266
 10
754.582886
 20
245.640579
 10
755.045105
 20
245.080841
 10
755.411804
 20
244.502548
 10
755.662476
 20
243.905258
 10
755.780151
 20
243.29715
 10
755.752808
 20
242.693298
 10
755.584106
 20
242.111298
 10
755.288025
 20
241.569504
 10
754.883423
 20
241.0802
 10
754.373291
 20
240.640701
  0
LWPOLYLINE
  5
CB
330
BE
100
AcDbEntity
  8
0
  6
Continuous
 62
     0
370
     0
100
AcDbPolyline
 90
       10
 70
     0
 43
0.0
 10
753.033264
 20
255.718292
 10
752.97937
 20
255.067795
 10
752.820068
 20
254.358643
 10
752.559448
 20
253.615204
 10
752.205994
 20
252.86058
 10
751.770569
 20
252.117218
 10
751.26593
 20
251.406952
 10
750.706909
 20
250.750992
 10
750.110352
 20
250.169861
 10
749.436096
 20
249.639633
  0
ARC
  5
CC
330
BE
100
AcDbEntity
  8
0
  6
Continuous
 62
     0
370
     0
100
AcDbCircle
 10
749.740056
 20
239.479725
 30
0.0
 40
3.293252103154007
100
AcDbArc
 50
359.97772
 51
2.944011
  0
ELLIPSE
  5
CD
330
BE
100
AcDbEntity
  8
0
  6
Continuous
 62
     0
370
    30
100
AcDbEllipse
 10
706.364862
 20
214.5979
 30
0.0
 11
-3.752841785103004
 21
5.307174628055639
 31
0.0
210
0.0
220
0.0
230
-0.9999999999999998
 40
0.500006
 41
0.9553223761184051
 42
4.096915029708196
  0
ELLIPSE
  5
CE
330
BE
100
AcDbEntity
  8
0
  6
Continuous
 62
     0
370
    30
100
AcDbEllipse
 10
706.364862
 20
214.5979
 30
0.0
 11
-3.752841785103004
 21
5.307174628055639
 31
0.0
210
0.0
220
0.0
230
-0.9999999999999998
 40
0.500006
 41
4.096915029708196
 42
7.238507683297989
  0
ELLIPSE
  5
CF
330
BE
100
AcDbEntity
  8
0
  6
Continuous
 62
     0
370
    30
100
AcDbEllipse
 10
768.589509
 20
210.366024
 30
0.0
 11
21.99999999997778
 21
3.127880231945659E-5
 31
0.0
210
0.0
220
0.0
230
-0.9999999999999999
 40
0.707107
 41
6.283185283721175
 42
8.639387306607787
  0
ELLIPSE
  5
D0
330
BE
100
AcDbEntity
  8
0
  6
Continuous
 62
     0
370
    30
100
AcDbEllipse
 10
768.589509
 20
210.366024
 30
0.0
 11
21.99999999997778
 21
3.127880231945659E-5
 31
0.0
210
0.0
220
0.0
230
-0.9999999999999999
 40
0.707107
 41
2.356201999428202
 42
3.141592630131382
  0
ELLIPSE
  5
D1
330
BE
100
AcDbEntity
  8
0
  6
Continuous
 62
     0
370
    30
100
AcDbEllipse
 10
768.589458
 20
246.428497
 30
0.0
 11
-21.99999999997778
 21
-3.127880231945659E-5
 31
0.0
210
0.0
220
0.0
230
0.9999999999999999
 40
0.707107
 41
0.5929018616418773
 42
0.7853906541615912
  0
ELLIPSE
  5
D2
330
BE
100
AcDbEntity
  8
0
  6
Continuous
 62
     0
370
    30
100
AcDbEllipse
 10
768.589458
 20
246.428497
 30
0.0
 11
-21.99999999997778
 21
-3.127880231945659E-5
 31
0.0
210
0.0
220
0.0
230
0.9999999999999999
 40
0.707107
 41
0.7853906541615929
 42
3.283206306687224
  0
ELLIPSE
  5
D3
330
BE
100
AcDbEntity
  8
0
  6
Continuous
 62
     0
370
    30
100
AcDbEllipse
 10
768.589509
 20
210.366024
 30
0.0
 11
29.99999615610175
 21
4.265290678540169E-5
 31
0.0
210
0.0
220
0.0
230
-0.9999999999999999
 40
0.707107
 41
2.356201999428396
 42
3.889176841595546
  0
ELLIPSE
  5
D4
330
BE
100
AcDbEntity
  8
0
  6
Continuous
 62
     0
370
    30
100
AcDbEllipse
 10
768.589509
 20
210.366024
 30
0.0
 11
29.99999615610175
 21
4.265290678540169E-5
 31
0.0
210
0.0
220
0.0
230
-0.9999999999999999
 40
0.707107
 41
5.535601072257013
 42
8.639387306607983
  0
ELLIPSE
  5
D5
330
BE
100
AcDbEntity
  8
0
  6
Continuous
 62
     0
370
    30
100
AcDbEllipse
 10
768.589513
 20
207.537597
 30
0.0
 11
29.99999615610175
 21
4.265290678540169E-5
 31
0.0
210
0.0
220
0.0
230
-0.9999999999999999
 40
0.707107
 41
2.356201999428396
 42
3.141592630131382
  0
ELLIPSE
  5
D6
330
BE
100
AcDbEntity
  8
0
  6
Continuous
 62
     0
370
    30
100
AcDbEllipse
 10
768.589513
 20
207.537597
 30
0.0
 11
29.99999615610175
 21
4.265290678540169E-5
 31
0.0
210
0.0
220
0.0
230
-0.9999999999999999
 40
0.707107
 41
6.283185283721173
 42
8.639387306607983
  0
LINE
  5
D7
330
BE
100
AcDbEntity
  8
0
  6
Continuous
 62
     0
370
    30
100
AcDbLine
 10
738.589517
 20
207.537554
 30
0.0
 11
738.589513
 21
210.365981
 31
0.0
  0
LINE
  5
D8
330
BE
100
AcDbEntity
  8
0
  6
Continuous
 62
     0
370
    30
100
AcDbLine
 10
798.589509
 20
207.537641
 30
0.0
 11
798.589505
 21
210.366067
 31
0.0
  0
LINE
  5
D9
330
BE
100
AcDbEntity
  8
0
  6
Continuous
 62
     0
370
    30
100
AcDbLine
 10
790.589509
 20
210.366056
 30
0.0
 11
790.589458
 21
246.428529
 31
0.0
  0
LINE
  5
DA
330
BE
100
AcDbEntity
  8
0
  6
Continuous
 62
     0
370
    30
100
AcDbLine
 10
746.589509
 20
210.365992
 30
0.0
 11
746.589474
 21
235.080864
 31
0.0
  0
LINE
  5
DB
330
BE
100
AcDbEntity
  8
0
  6
Continuous
 62
     0
370
    30
100
AcDbLine
 10
745.037869
 20
249.9055
 30
0.0
 11
702.61202
 21
219.905074
 31
0.0
  0
LINE
  5
DC
330
BE
100
AcDbEntity
  8
0
  6
Continuous
 62
     0
370
    30
100
AcDbLine
 10
752.543553
 20
239.291151
 30
0.0
 11
710.117704
 21
209.290725
 31
0.0
  0
LWPOLYLINE
  5
DD
330
BE
100
AcDbEntity
  8
0
  6
Continuous
 62
     0
370
    30
100
AcDbPolyline
 90
        8
 70
     0
 43
0.0
 10
748.257141
 20
252.914886
 10
748.242126
 20
252.85878
 10
748.183899
 20
252.694153
 10
748.066711
 20
252.443069
 10
747.883545
 20
252.139694
 10
747.633484
 20
251.81604
 10
747.321472
 20
251.498337
 10
746.900391
 20
251.16745
  0
LINE
  5
DE
330
BE
100
AcDbEntity
  8
0
  6
Continuous
 62
     0
370
    30
100
AcDbLine
 10
754.388187
 20
240.651702
 30
0.0
 11
752.570108
 21
239.310326
 31
0.0
  0
LINE
  5
DF
330
BE
100
AcDbEntity
  8
0
  6
Continuous
 62
     0
370
    30
100
AcDbLine
 10
746.900345
 20
251.16739
 30
0.0
 11
745.064799
 21
249.924146
 31
0.0
  0
LINE
  5
E0
330
BE
100
AcDbEntity
  8
0
  6
Continuous
 62
     0
370
    30
100
AcDbLine
 10
790.589451
 20
251.424691
 30
0.0
 11
790.589425
 21
269.191749
 31
0.0
  0
LINE
  5
E1
330
BE
100
AcDbEntity
  8
0
  6
Continuous
 62
     0
370
    30
100
AcDbLine
 10
746.589451
 20
250.956816
 30
0.0
 11
746.589425
 21
269.205094
 31
0.0
  0
LWPOLYLINE
  5
E2
330
BE
100
AcDbEntity
  8
0
  6
Continuous
 62
     0
370
    30
100
AcDbPolyline
 90
        8
 70
     0
 43
0.0
 10
614.541138
 20
253.208649
 10
614.4729
 20
252.384277
 10
614.271118
 20
251.576599
 10
613.943665
 20
250.801193
 10
613.503113
 20
250.071594
 10
612.965271
 20
249.39856
 10
612.347961
 20
248.789749
 10
611.612183
 20
248.208649
  0
LWPOLYLINE
  5
E3
330
BE
100
AcDbEntity
  8
0
  6
Continuous
 62
     0
370
    30
100
AcDbPolyline
 90
       20
 70
     0
 43
0.0
 10
611.612183
 20
248.208649
 10
610.712769
 20
247.644897
 10
609.698303
 20
247.150467
 10
608.585632
 20
246.741745
 10
607.397644
 20
246.432205
 10
606.161621
 20
246.231033
 10
604.90741
 20
246.142319
 10
603.6651
 20
246.164764
 10
602.462341
 20
246.292053
 10
601.311829
 20
246.516434
 10
600.183533
 20
246.844238
 10
599.098572
 20
247.276596
 10
598.085327
 20
247.808502
 10
597.17041
 20
248.429916
 10
596.376099
 20
249.126205
 10
595.718811
 20
249.87944
 10
595.207947
 20
250.669724
 10
594.845459
 20
251.477325
 10
594.621277
 20
252.315201
 10
594.541138
 20
253.208649
  0
ELLIPSE
  5
E4
330
BE
100
AcDbEntity
  8
0
  6
Continuous
 62
     0
370
     0
100
AcDbEllipse
 10
604.541108
 20
267.350781
 30
0.0
 11
10.0
 21
0.0
 31
0.0
210
0.0
220
0.0
230
-1.0
 40
0.707107
 41
6.283185283721284
 42
7.068583473239251
  0
ELLIPSE
  5
E5
330
BE
100
AcDbEntity
  8
0
  6
Continuous
 62
     0
370
     0
100
AcDbEllipse
 10
604.541108
 20
267.350781
 30
0.0
 11
10.0
 21
0.0
 31
0.0
210
0.0
220
0.0
230
-1.0
 40
0.707107
 41
0.785398166059665
 42
3.141596934291525
  0
LWPOLYLINE
  5
E6
330
BE
100
AcDbEntity
  8
0
  6
Continuous
 62
     0
370
     0
100
AcDbPolyline
 90
       21
 70
     0
 43
0.0
 10
702.021362
 20
343.350861
 10
702.098083
 20
342.476501
 10
702.324768
 20
341.62204
 10
702.691406
 20
340.805908
 10
703.182373
 20
340.043762
 10
703.778076
 20
339.347717
 10
704.45697
 20
338.725861
 10
705.200439
 20
338.179932
 10
706.041748
 20
337.683136
 10
706.990601
 20
337.239655
 10
708.037537
 20
336.865051
 10
709.167419
 20
336.573792
 10
710.359741
 20
336.378021
 10
711.5896
 20
336.286316
 10
712.829346
 20
336.302826
 10
714.050659
 20
336.426849
 10
715.22644
 20
336.65274
 10
716.333069
 20
336.970764
 10
717.351501
 20
337.36792
 10
718.268433
 20
337.829285
 10
719.092407
 20
338.350769
  0
LWPOLYLINE
  5
E7
330
BE
100
AcDbEntity
  8
0
  6
Continuous
 62
     0
370
     0
100
AcDbPolyline
 90
        8
 70
     0
 43
0.0
 10
719.092407
 20
338.350769
 10
719.774841
 20
338.885193
 10
720.397827
 20
339.488525
 10
720.942871
 20
340.156555
 10
721.392029
 20
340.881897
 10
721.729187
 20
341.654022
 10
721.941589
 20
342.459656
 10
722.021362
 20
343.350769
  0
ELLIPSE
  5
E8
330
BE
100
AcDbEntity
  8
0
  6
Continuous
 62
     0
370
    30
100
AcDbEllipse
 10
712.021339
 20
249.659138
 30
0.0
 11
-30.0
 21
0.0
 31
0.0
210
0.0
220
0.0
230
1.0
 40
0.707107
 41
5.052220836342375
 42
5.497787143782138
  0
ELLIPSE
  5
E9
330
BE
100
AcDbEntity
  8
0
  6
Continuous
 62
     0
370
    30
100
AcDbEllipse
 10
712.021339
 20
249.659138
 30
0.0
 11
-30.0
 21
0.0
 31
0.0
210
0.0
220
0.0
230
1.0
 40
0.707107
 41
3.048154061622128
 42
4.372557171350474
  0
ELLIPSE
  5
EA
330
BE
100
AcDbEntity
  8
0
  6
Continuous
 62
     0
370
    30
100
AcDbEllipse
 10
712.021339
 20
249.659138
 30
0.0
 11
-30.0
 21
0.0
 31
0.0
210
0.0
220
0.0
230
1.0
 40
0.707107
 41
5.497787143782138
 42
7.947447536448509
  0
ELLIPSE
  5
EB
330
BE
100
AcDbEntity
  8
0
  6
Continuous
 62
     0
370
    30
100
AcDbEllipse
 10
712.021339
 20
246.830711
 30
0.0
 11
30.0
 21
0.0
 31
0.0
210
0.0
220
0.0
230
-1.0
 40
0.707107
 41
1.614231291975317
 42
3.141592630131495
  0
LWPOLYLINE
  5
EC
330
BE
100
AcDbEntity
  8
0
  6
Continuous
 62
     0
370
    30
100
AcDbPolyline
 90
       21
 70
     0
 43
0.0
 10
702.021484
 20
249.694
 10
702.092468
 20
248.817429
 10
702.31427
 20
247.960114
 10
702.677124
 20
247.140671
 10
703.165344
 20
246.374969
 10
703.75946
 20
245.675323
 10
704.437683
 20
245.049988
 10
705.180908
 20
244.501205
 10
706.021362
 20
244.002274
 10
706.96991
 20
243.556549
 10
708.017273
 20
243.179657
 10
709.148254
 20
242.8862
 10
710.342285
 20
242.688461
 10
711.574402
 20
242.595139
 10
712.816772
 20
242.610474
 10
714.040955
 20
242.73378
 10
715.219604
 20
242.959473
 10
716.328918
 20
243.277725
 10
717.349792
 20
243.675507
 10
718.268677
 20
244.137787
 10
719.092407
 20
244.659134
  0
LWPOLYLINE
  5
ED
330
BE
100
AcDbEntity
  8
0
  6
Continuous
 62
     0
370
    30
100
AcDbPolyline
 90
        8
 70
     0
 43
0.0
 10
719.092407
 20
244.659134
 10
719.77948
 20
245.19754
 10
720.406128
 20
245.805847
 10
720.95343
 20
246.479675
 10
721.403076
 20
247.211426
 10
721.738831
 20
247.99028
 10
721.947693
 20
248.802551
 10
722.02124
 20
249.694
  0
LINE
  5
EE
330
BE
100
AcDbEntity
  8
0
  6
Continuous
 62
     0
370
    30
100
AcDbLine
 10
702.021461
 20
249.659241
 30
0.0
 11
702.021565
 21
343.350856
 31
0.0
  0
LINE
  5
EF
330
BE
100
AcDbEntity
  8
0
  6
Continuous
 62
     0
370
    30
100
AcDbLine
 10
722.021114
 20
343.303337
 30
0.0
 11
722.021218
 21
249.659056
 31
0.0
  0
LINE
  5
F0
330
BE
100
AcDbEntity
  8
0
  6
Continuous
 62
     0
370
    30
100
AcDbLine
 10
742.021339
 20
249.659139
 30
0.0
 11
742.021339
 21
247.772428
 31
0.0
  0
LINE
  5
F1
330
BE
100
AcDbEntity
  8
0
  6
Continuous
 62
     0
370
    30
100
AcDbLine
 10
682.021339
 20
249.659138
 30
0.0
 11
682.021339
 21
246.830711
 31
0.0
  0
LWPOLYLINE
  5
F2
330
BE
100
AcDbEntity
  8
0
  6
Continuous
 62
     0
370
    30
100
AcDbPolyline
 90
       68
 70
     0
 43
0.0
 10
614.541138
 20
267.350769
 10
614.590332
 20
269.467316
 10
614.739868
 20
271.68634
 10
614.992249
 20
273.999237
 10
615.348389
 20
276.397522
 10
615.808899
 20
278.872711
 10
616.374146
 20
281.416382
 10
617.043518
 20
284.020355
 10
617.815857
 20
286.676666
 10
618.689697
 20
289.377563
 10
619.663391
 20
292.115234
 10
620.734863
 20
294.882172
 10
621.901733
 20
297.67099
 10
623.161316
 20
300.474396
 10
624.510803
 20
303.285156
 10
625.947144
 20
306.096283
 10
627.466675
 20
308.900879
 10
629.06604
 20
311.692169
 10
630.741699
 20
314.463287
 10
632.489746
 20
317.207581
 10
634.305908
 20
319.918671
 10
636.186035
 20
322.59021
 10
638.125732
 20
325.21579
 10
640.120544
 20
327.789185
 10
642.165527
 20
330.304535
 10
644.255737
 20
332.755981
 10
646.386169
 20
335.137695
 10
648.551758
 20
337.443878
 10
650.747009
 20
339.669189
 10
652.966187
 20
341.808411
 10
655.203674
 20
343.856323
 10
657.453674
 20
345.8078
 10
659.709839
 20
347.658234
 10
661.965698
 20
349.40329
 10
664.2146
 20
351.038635
 10
666.449951
 20
352.560059
 10
668.664551
 20
353.963867
 10
670.850891
 20
355.246796
 10
673.00116
 20
356.406067
 10
675.107239
 20
357.43927
 10
677.160645
 20
358.344696
 10
679.152588
 20
359.121338
 10
681.073975
 20
359.769257
 10
682.915466
 20
360.289673
 10
684.667969
 20
360.684845
 10
686.322693
 20
360.958984
 10
687.87146
 20
361.117676
 10
689.3078
 20
361.168701
 10
690.627258
 20
361.121033
 10
691.829407
 20
360.985229
 10
692.916077
 20
360.77179
 10
693.895081
 20
360.490509
 10
694.777466
 20
360.148834
 10
695.578674
 20
359.748932
 10
696.314697
 20
359.290192
 10
697.000793
 20
358.76416
 10
697.651001
 20
358.159851
 10
698.272583
 20
357.462646
 10
698.869507
 20
356.65686
 10
699.439087
 20
355.729736
 10
699.975342
 20
354.670166
 10
700.469971
 20
353.470764
 10
700.912476
 20
352.128387
 10
701.292969
 20
350.644073
 10
701.601685
 20
349.020569
 10
701.830444
 20
347.263
 10
701.972351
 20
345.378265
 10
702.021362
 20
343.350769
  0
LWPOLYLINE
  5
F3
330
BE
100
AcDbEntity
  8
0
  6
Continuous
 62
     0
370
    30
100
AcDbPolyline
 90
       82
 70
     0
 43
0.0
 10
722.021362
 20
343.350769
 10
721.973206
 20
345.798553
 10
721.827637
 20
348.201569
 10
721.582825
 20
350.557251
 10
721.236633
 20
352.863068
 10
720.786804
 20
355.116516
 10
720.231018
 20
357.31488
 10
719.567017
 20
359.45462
 10
718.792358
 20
361.531464
 10
717.904907
 20
363.540771
 10
716.903198
 20
365.476593
 10
715.786438
 20
367.332306
 10
714.554321
 20
369.100861
 10
713.208496
 20
370.774139
 10
711.751343
 20
372.343872
 10
710.187805
 20
373.802032
 10
708.523743
 20
375.140778
 10
706.765869
 20
376.352966
 10
704.922974
 20
377.433716
 10
703.003967
 20
378.378571
 10
701.018127
 20
379.184845
 10
698.97467
 20
379.851776
 10
696.881897
 20
380.380005
 10
694.747375
 20
380.771393
 10
692.578003
 20
381.028259
 10
690.379089
 20
381.153961
 10
688.155334
 20
381.151947
 10
685.910217
 20
381.025848
 10
683.64679
 20
380.779205
 10
681.36731
 20
380.415283
 10
679.073608
 20
379.937256
 10
676.767395
 20
379.348022
 10
674.450134
 20
378.650177
 10
672.12323
 20
377.846191
 10
669.788147
 20
376.938354
 10
667.446472
 20
375.928802
 10
665.099792
 20
374.819611
 10
662.749817
 20
373.612854
 10
660.398499
 20
372.310486
 10
658.047913
 20
370.914612
 10
655.700256
 20
369.427368
 10
653.357788
 20
367.85083
 10
651.022949
 20
366.187317
 10
648.698364
 20
364.439178
 10
646.386597
 20
362.608856
 10
644.090515
 20
360.698944
 10
641.812744
 20
358.712097
 10
639.556274
 20
356.651123
 10
637.323975
 20
354.518982
 10
635.118774
 20
352.318634
 10
632.943604
 20
350.053284
 10
630.801392
 20
347.726166
 10
628.69519
 20
345.340607
 10
626.627808
 20
342.900085
 10
624.602234
 20
340.408112
 10
622.621399
 20
337.868286
 10
620.687988
 20
335.284302
 10
618.804871
 20
332.659943
 10
616.974792
 20
329.998962
 10
615.200378
 20
327.305237
 10
613.484192
 20
324.582611
 10
611.828735
 20
321.835022
 10
610.23645
 20
319.066376
 10
608.709717
 20
316.280609
 10
607.250671
 20
313.481598
 10
605.861511
 20
310.673279
 10
604.544312
 20
307.859467
 10
603.301025
 20
305.044006
 10
602.133423
 20
302.230621
 10
601.043274
 20
299.423004
 10
600.032349
 20
296.624817
 10
599.102112
 20
293.839508
 10
598.25415
 20
291.070526
 10
597.489746
 20
288.321045
 10
596.810303
 20
285.594269
 10
596.217163
 20
282.893219
 10
595.711548
 20
280.220856
 10
595.294739
 20
277.579834
 10
594.967957
 20
274.972687
 10
594.732483
 20
272.401703
 10
594.589722
 20
269.869293
 10
594.541138
 20
267.350769
  0
LINE
  5
F4
330
BE
100
AcDbEntity
  8
0
  6
Continuous
 62
     0
370
    30
100
AcDbLine
 10
614.541108
 20
267.350782
 30
0.0
 11
614.541108
 21
253.208646
 31
0.0
  0
LINE
  5
F5
330
BE
100
AcDbEntity
  8
0
  6
Continuous
 62
     0
370
    30
100
AcDbLine
 10
594.541108
 20
267.350781
 30
0.0
 11
594.541108
 21
253.208646
 31
0.0
  0
ENDBLK
  5
F7
330
BE
100
AcDbEntity
  8
0
100
AcDbBlockEnd
  0
BLOCK
  5
122
330
F9
100
AcDbEntity
  8
0
100
AcDbBlockBegin
  2
e
 70
     0
 10
361.197845
 20
0.0
 30
0.0
  3
e
  1

  0
LINE
  5
FA
330
F9
100
AcDbEntity
  8
0
  6
Continuous
 62
     0
370
    30
100
AcDbLine
 10
261.675079
 20
567.397809
 30
0.0
 11
283.146053
 21
567.39784
 31
0.0
  0
LINE
  5
FB
330
F9
100
AcDbEntity
  8
0
  6
Continuous
 62
     0
370
    30
100
AcDbLine
 10
261.675057
 20
598.397809
 30
0.0
 11
305.675057
 21
598.397841
 31
0.0
  0
LINE
  5
FC
330
F9
100
AcDbEntity
  8
0
  6
Continuous
 62
     0
370
    30
100
AcDbLine
 10
283.146053
 20
567.39784
 30
0.0
 11
305.675074
 21
575.597946
 31
0.0
  0
LINE
  5
FD
330
F9
100
AcDbEntity
  8
0
  6
Continuous
 62
     0
370
    30
100
AcDbLine
 10
261.675079
 20
567.397809
 30
0.0
 11
261.675076
 21
571.914503
 31
0.0
  0
LINE
  5
FE
330
F9
100
AcDbEntity
  8
0
  6
Continuous
 62
     0
370
    30
100
AcDbLine
 10
261.67506
 20
594.881116
 30
0.0
 11
261.675057
 21
598.397809
 31
0.0
  0
LWPOLYLINE
  5
FF
330
F9
100
AcDbEntity
  8
0
  6
Continuous
 62
     0
370
     0
100
AcDbPolyline
 90
       32
 70
     0
 43
0.0
 10
261.675049
 20
594.881104
 10
261.700714
 20
594.804993
 10
261.775604
 20
594.5849
 10
261.894226
 20
594.22876
 10
262.048615
 20
593.748352
 10
262.229492
 20
593.160828
 10
262.427368
 20
592.480591
 10
262.633331
 20
591.721191
 10
262.839264
 20
590.893555
 10
263.03772
 20
590.007935
 10
263.221619
 20
589.074158
 10
263.38504
 20
588.100159
 10
263.522766
 20
587.093201
 10
263.63031
 20
586.060669
 10
263.704224
 20
585.009705
 10
263.742126
 20
583.947693
 10
263.742706
 20
582.881897
 10
263.706024
 20
581.81958
 10
263.633209
 20
580.768188
 10
263.526672
 20
579.734985
 10
263.389862
 20
578.727112
 10
263.227142
 20
577.751892
 10
263.043823
 20
576.816772
 10
262.845856
 20
575.929749
 10
262.639954
 20
575.099609
 10
262.43338
 20
574.336365
 10
262.234802
 20
573.652771
 10
262.053284
 20
573.062134
 10
261.898071
 20
572.578796
 10
261.778381
 20
572.218018
 10
261.702148
 20
571.993591
 10
261.675079
 20
571.91449
  0
LINE
  5
100
330
F9
100
AcDbEntity
  8
0
  6
Continuous
 62
     0
370
    30
100
AcDbLine
 10
256.587801
 20
589.881874
 30
0.0
 11
255.675063
 21
589.897805
 31
0.0
  0
LINE
  5
101
330
F9
100
AcDbEntity
  8
0
  6
Continuous
 62
     0
370
     0
100
AcDbLine
 10
255.675073
 20
576.897805
 30
0.0
 11
255.675063
 21
589.897805
 31
0.0
  0
LWPOLYLINE
  5
102
330
F9
100
AcDbEntity
  8
0
  6
Continuous
 62
     0
370
     0
100
AcDbPolyline
 90
       25
 70
     0
 43
0.0
 10
256.587799
 20
589.881897
 10
256.631805
 20
589.822021
 10
256.76059
 20
589.646301
 10
256.960999
 20
589.363342
 10
257.21759
 20
588.983887
 10
257.512543
 20
588.518616
 10
257.828308
 20
587.975952
 10
258.14743
 20
587.361755
 10
258.451935
 20
586.680054
 10
258.722565
 20
585.934937
 10
258.938812
 20
585.134094
 10
259.079651
 20
584.285706
 10
259.130432
 20
583.411072
 10
259.082581
 20
582.53595
 10
258.944244
 20
581.686462
 10
258.72998
 20
580.884033
 10
258.460602
 20
580.137146
 10
258.15683
 20
579.45343
 10
257.837891
 20
578.837158
 10
257.52179
 20
578.292236
 10
257.225922
 20
577.824585
 10
256.967834
 20
577.442322
 10
256.765442
 20
577.156311
 10
256.63443
 20
576.977234
 10
256.587799
 20
576.913757
  0
ARC
  5
103
330
F9
100
AcDbEntity
  8
0
  6
Continuous
 62
     0
370
    30
100
AcDbCircle
 10
256.67506
 20
594.881112
 30
0.0
 40
4.999999999719871
100
AcDbArc
 50
269.000041
 51
0.000041
  0
ARC
  5
104
330
F9
100
AcDbEntity
  8
0
  6
Continuous
 62
     0
370
    30
100
AcDbCircle
 10
256.675076
 20
571.914499
 30
0.0
 40
4.999999999831553
100
AcDbArc
 50
0.000041
 51
91.000041
  0
LINE
  5
105
330
F9
100
AcDbEntity
  8
0
  6
Continuous
 62
     0
370
    30
100
AcDbLine
 10
195.675063
 20
589.897756
 30
0.0
 11
195.675073
 21
576.897768
 31
0.0
  0
LINE
  5
106
330
F9
100
AcDbEntity
  8
0
  6
Continuous
 62
     0
370
    30
100
AcDbLine
 10
195.675063
 20
589.897756
 30
0.0
 11
255.675063
 21
589.897799
 31
0.0
  0
LINE
  5
107
330
F9
100
AcDbEntity
  8
0
  6
Continuous
 62
     0
370
    30
100
AcDbLine
 10
261.67508
 20
566.186792
 30
0.0
 11
261.675117
 21
515.186751
 31
0.0
  0
LINE
  5
108
330
F9
100
AcDbEntity
  8
0
  6
Continuous
 62
     0
370
    30
100
AcDbLine
 10
261.67508
 20
566.186792
 30
0.0
 11
305.67508
 21
566.186823
 31
0.0
  0
LINE
  5
109
330
F9
100
AcDbEntity
  8
0
  6
Continuous
 62
     0
370
    30
100
AcDbLine
 10
313.675113
 20
515.186788
 30
0.0
 11
253.67512
 21
515.186745
 31
0.0
  0
LINE
  5
10A
330
F9
100
AcDbEntity
  8
0
  6
Continuous
 62
     0
370
    30
100
AcDbLine
 10
313.675113
 20
515.186788
 30
0.0
 11
313.675116
 21
511.186789
 31
0.0
  0
LINE
  5
10B
330
F9
100
AcDbEntity
  8
0
  6
Continuous
 62
     0
370
    30
100
AcDbLine
 10
313.675116
 20
511.186789
 30
0.0
 11
253.675123
 21
511.186746
 31
0.0
  0
LINE
  5
10C
330
F9
100
AcDbEntity
  8
0
  6
Continuous
 62
     0
370
    30
100
AcDbLine
 10
253.675123
 20
511.186746
 30
0.0
 11
253.67512
 21
515.186745
 31
0.0
  0
LINE
  5
10D
330
F9
100
AcDbEntity
  8
0
  6
Continuous
 62
     0
370
    30
100
AcDbLine
 10
305.675117
 20
515.186782
 30
0.0
 11
305.67508
 21
566.186823
 31
0.0
  0
ARC
  5
10E
330
F9
100
AcDbEntity
  8
0
  6
Continuous
 62
     0
370
    30
100
AcDbCircle
 10
283.675021
 20
564.686769
 30
0.0
 40
20.50519694044252
100
AcDbArc
 50
4.195207
 51
27.645454
  0
ARC
  5
10F
330
F9
100
AcDbEntity
  8
0
  6
Continuous
 62
     0
370
    30
100
AcDbCircle
 10
283.675379
 20
564.686757
 30
0.0
 40
20.50543443735701
100
AcDbArc
 50
172.402598
 51
175.804889
  0
LINE
  5
110
330
F9
100
AcDbEntity
  8
0
  6
Continuous
 62
     0
370
    30
100
AcDbLine
 10
255.675073
 20
576.897811
 30
0.0
 11
195.675073
 21
576.897768
 31
0.0
  0
LINE
  5
111
330
F9
100
AcDbEntity
  8
0
  6
Continuous
 62
     0
370
    30
100
AcDbLine
 10
305.675074
 20
575.598042
 30
0.0
 11
305.675057
 21
598.397841
 31
0.0
  0
LINE
  5
112
330
F9
100
AcDbEntity
  8
0
  6
Continuous
 62
     0
370
    30
100
AcDbLine
 10
141.675644
 20
626.68671
 30
0.0
 11
131.675643
 21
626.68671
 31
0.0
  0
LINE
  5
113
330
F9
100
AcDbEntity
  8
0
  6
Continuous
 62
     0
370
    30
100
AcDbLine
 10
131.675643
 20
626.68671
 30
0.0
 11
121.675644
 21
626.68671
 31
0.0
  0
LINE
  5
114
330
F9
100
AcDbEntity
  8
0
  6
Continuous
 62
     0
370
     0
100
AcDbLine
 10
141.675644
 20
646.68671
 30
0.0
 11
131.675643
 21
646.68671
 31
0.0
  0
LINE
  5
115
330
F9
100
AcDbEntity
  8
0
  6
Continuous
 62
     0
370
     0
100
AcDbLine
 10
131.675643
 20
646.68671
 30
0.0
 11
121.675644
 21
646.68671
 31
0.0
  0
LWPOLYLINE
  5
116
330
F9
100
AcDbEntity
  8
0
  6
Continuous
 62
     0
370
     0
100
AcDbPolyline
 90
       14
 70
     0
 43
0.0
 10
273.675659
 20
646.686707
 10
273.737061
 20
646.686707
 10
273.93045
 20
646.686707
 10
274.266693
 20
646.686707
 10
274.751404
 20
646.686707
 10
275.383636
 20
646.686707
 10
276.155365
 20
646.686707
 10
277.05127
 20
646.686707
 10
278.049927
 20
646.686707
 10
279.125336
 20
646.686707
 10
280.249115
 20
646.686707
 10
281.392853
 20
646.686707
 10
282.53009
 20
646.686707
 10
283.675629
 20
646.686707
  0
LINE
  5
117
330
F9
100
AcDbEntity
  8
0
  6
Continuous
 62
     0
370
     0
100
AcDbLine
 10
283.675643
 20
646.68671
 30
0.0
 11
293.675644
 21
646.68671
 31
0.0
  0
LINE
  5
118
330
F9
100
AcDbEntity
  8
0
  6
Continuous
 62
     0
370
    30
100
AcDbLine
 10
283.675643
 20
510.18671
 30
0.0
 11
253.675644
 21
510.18671
 31
0.0
  0
LINE
  5
119
330
F9
100
AcDbEntity
  8
0
  6
Continuous
 62
     0
370
    30
100
AcDbLine
 10
313.675644
 20
510.18671
 30
0.0
 11
283.675643
 21
510.18671
 31
0.0
  0
LINE
  5
11A
330
F9
100
AcDbEntity
  8
0
  6
Continuous
 62
     0
370
    30
100
AcDbLine
 10
273.675728
 20
598.397832
 30
0.0
 11
273.675644
 21
646.68671
 31
0.0
  0
LINE
  5
11B
330
F9
100
AcDbEntity
  8
0
  6
Continuous
 62
     0
370
    30
100
AcDbLine
 10
293.675644
 20
646.68671
 30
0.0
 11
293.67556
 21
598.397846
 31
0.0
  0
LINE
  5
11C
330
F9
100
AcDbEntity
  8
0
  6
Continuous
 62
     0
370
    30
100
AcDbLine
 10
313.675644
 20
511.186789
 30
0.0
 11
313.675644
 21
510.18671
 31
0.0
  0
LINE
  5
11D
330
F9
100
AcDbEntity
  8
0
  6
Continuous
 62
     0
370
    30
100
AcDbLine
 10
253.675644
 20
511.186746
 30
0.0
 11
253.675644
 21
510.18671
 31
0.0
  0
ARC
  5
11E
330
F9
100
AcDbEntity
  8
0
  6
Continuous
 62
     0
370
    30
100
AcDbCircle
 10
207.675644
 20
646.686471
 30
0.0
 40
66.0000000004325
100
AcDbArc
 50
0.000207
 51
179.999793
  0
ARC
  5
11F
330
F9
100
AcDbEntity
  8
0
  6
Continuous
 62
     0
370
    30
100
AcDbCircle
 10
207.675644
 20
646.686651
 30
0.0
 40
86.00000000002044
100
AcDbArc
 50
0.00004
 51
179.99996
  0
LINE
  5
120
330
F9
100
AcDbEntity
  8
0
  6
Continuous
 62
     0
370
    30
100
AcDbLine
 10
141.675644
 20
646.68671
 30
0.0
 11
141.675644
 21
626.68671
 31
0.0
  0
LINE
  5
121
330
F9
100
AcDbEntity
  8
0
  6
Continuous
 62
     0
370
    30
100
AcDbLine
 10
121.675644
 20
646.68671
 30
0.0
 11
121.675644
 21
626.68671
 31
0.0
  0
ENDBLK
  5
123
330
F9
100
AcDbEntity
  8
0
100
AcDbBlockEnd
  0
ENDSEC
  0
SECTION
  2
ENTITIES
  0
INSERT
  5
72
330
1F
100
AcDbEntity
  8
0
  6
Continuous
 62
   250
370
     0
100
AcDbBlockReference
  2
a
 10
360.537476
 20
163.280991
 30
0.0
  0
INSERT
  5
8E
330
1F
100
AcDbEntity
  8
0
  6
Continuous
 62
   250
370
     0
100
AcDbBlockReference
  2
b
 10
360.537476
 20
163.280991
 30
0.0
  0
INSERT
  5
BD
330
1F
100
AcDbEntity
  8
0
  6
Continuous
 62
   250
370
     0
100
AcDbBlockReference
  2
c
 10
360.537476
 20
163.280991
 30
0.0
  0
INSERT
  5
F8
330
1F
100
AcDbEntity
  8
0
  6
Continuous
 62
   250
370
     0
100
AcDbBlockReference
  2
d
 10
360.537476
 20
163.280991
 30
0.0
  0
INSERT
  5
124
330
1F
100
AcDbEntity
  8
0
  6
Continuous
 62
   250
370
     0
100
AcDbBlockReference
  2
e
 10
361.197845
 20
0.0
 30
0.0
  0
ENDSEC
  0
SECTION
  2
OBJECTS
  0
DICTIONARY
  5
C
330
0
100
AcDbDictionary
281
     1
  3
ACAD_GROUP
350
D
  3
ACAD_LAYOUT
350
1A
  3
ACAD_MLEADERSTYLE
350
127
  3
ACAD_MLINESTYLE
350
17
  3
ACAD_PLOTSETTINGS
350
19
  3
ACAD_PLOTSTYLENAME
350
E
  3
ACAD_VISUALSTYLE
350
2A
  3
AcDbVariableDictionary
350
125
  0
DICTIONARY
  5
D
102
{ACAD_REACTORS
330
C
102
}
330
C
100
AcDbDictionary
281
     1
  0
DICTIONARY
  5
1A
102
{ACAD_REACTORS
330
C
102
}
330
C
100
AcDbDictionary
281
     1
  3
Layout1
350
1E
  3
Layout2
350
26
  3
Model
350
22
  0
DICTIONARY
  5
127
102
{ACAD_REACTORS
330
C
102
}
330
C
100
AcDbDictionary
281
     1
  0
DICTIONARY
  5
17
102
{ACAD_REACTORS
330
C
102
}
330
C
100
AcDbDictionary
281
     1
  3
Standard
350
18
  0
DICTIONARY
  5
19
102
{ACAD_REACTORS
330
C
102
}
330
C
100
AcDbDictionary
281
     1
  0
ACDBDICTIONARYWDFLT
  5
E
102
{ACAD_REACTORS
330
C
102
}
330
C
100
AcDbDictionary
281
     1
  3
Normal
350
F
100
AcDbDictionaryWithDefault
340
F
  0
DICTIONARY
  5
2A
102
{ACAD_REACTORS
330
C
102
}
330
C
100
AcDbDictionary
281
     1
  3
2dWireframe
350
2F
  3
3D Hidden
350
31
  3
3dWireframe
350
30
  3
Basic
350
32
  3
Brighten
350
36
  3
ColorChange
350
3A
  3
Conceptual
350
34
  3
Dim
350
35
  3
Facepattern
350
39
  3
Flat
350
2B
  3
FlatWithEdges
350
2C
  3
Gouraud
350
2D
  3
GouraudWithEdges
350
2E
  3
Linepattern
350
38
  3
Realistic
350
33
  3
Thicken
350
37
  0
DICTIONARY
  5
125
102
{ACAD_REACTORS
330
C
102
}
330
C
100
AcDbDictionary
281
     1
  3
PSOLHEIGHT
350
129
  3
PSOLWIDTH
350
128
  0
LAYOUT
  5
1E
102
{ACAD_REACTORS
330
1A
102
}
330
1A
100
AcDbPlotSettings
  1

  2
none_device
  4

  6

 40
0.0
 41
0.0
 42
0.0
 43
0.0
 44
0.0
 45
0.0
 46
0.0
 47
0.0
 48
0.0
 49
0.0
140
0.0
141
0.0
142
1.0
143
1.0
 70
   688
 72
     0
 73
     0
 74
     5
  7

 75
    16
147
1.0
148
0.0
149
0.0
100
AcDbLayout
  1
Layout1
 70
     1
 71
     1
 10
0.0
 20
0.0
 11
420.0
 21
297.0
 12
0.0
 22
0.0
 32
0.0
 14
1.000000E+20
 24
1.000000E+20
 34
1.000000E+20
 15
-1.000000E+20
 25
-1.000000E+20
 35
-1.000000E+20
146
0.0
 13
0.0
 23
0.0
 33
0.0
 16
1.0
 26
0.0
 36
0.0
 17
0.0
 27
1.0
 37
0.0
 76
     0
330
1B
  0
LAYOUT
  5
26
102
{ACAD_REACTORS
330
1A
102
}
330
1A
100
AcDbPlotSettings
  1

  2
none_device
  4

  6

 40
0.0
 41
0.0
 42
0.0
 43
0.0
 44
0.0
 45
0.0
 46
0.0
 47
0.0
 48
0.0
 49
0.0
140
0.0
141
0.0
142
1.0
143
1.0
 70
   688
 72
     0
 73
     0
 74
     5
  7

 75
    16
147
1.0
148
0.0
149
0.0
100
AcDbLayout
  1
Layout2
 70
     1
 71
     2
 10
0.0
 20
0.0
 11
0.0
 21
0.0
 12
0.0
 22
0.0
 32
0.0
 14
0.0
 24
0.0
 34
0.0
 15
0.0
 25
0.0
 35
0.0
146
0.0
 13
0.0
 23
0.0
 33
0.0
 16
1.0
 26
0.0
 36
0.0
 17
0.0
 27
1.0
 37
0.0
 76
     0
330
23
  0
LAYOUT
  5
22
102
{ACAD_REACTORS
330
1A
102
}
330
1A
100
AcDbPlotSettings
  1

  2
none_device
  4

  6

 40
0.0
 41
0.0
 42
0.0
 43
0.0
 44
0.0
 45
0.0
 46
0.0
 47
0.0
 48
0.0
 49
0.0
140
0.0
141
0.0
142
1.0
143
1.0
 70
  1712
 72
     0
 73
     0
 74
     0
  7

 75
     0
147
1.0
148
0.0
149
0.0
100
AcDbLayout
  1
Model
 70
     1
 71
     0
 10
121.675644
 20
147.963333
 11
798.589539
 21
732.666931
 12
0.0
 22
0.0
 32
0.0
 14
121.675644
 24
147.963333
 34
0.0
 15
798.589539
 25
732.666931
 35
0.0
146
0.0
 13
0.0
 23
0.0
 33
0.0
 16
1.0
 26
0.0
 36
0.0
 17
0.0
 27
1.0
 37
0.0
 76
     0
330
1F
331
29
  0
MLINESTYLE
  5
18
102
{ACAD_REACTORS
330
17
102
}
330
17
100
AcDbMlineStyle
  2
Standard
 70
     0
  3

 62
   256
 51
90.0
 52
90.0
 71
     2
 49
0.5
 62
   256
  6
BYLAYER
 49
-0.5
 62
   256
  6
BYLAYER
  0
ACDBPLACEHOLDER
  5
F
102
{ACAD_REACTORS
330
E
102
}
330
E
  0
VISUALSTYLE
  5
2F
102
{ACAD_REACTORS
330
2A
102
}
330
2A
100
AcDbVisualStyle
  2
2dWireframe
 70
     4
 71
     0
 72
     2
 73
     0
 90
        0
 40
-0.6
 41
-30.0
 62
     5
 63
     7
 74
     1
 91
        4
 64
     7
 65
   257
 75
     1
175
     1
 42
1.0
 92
        0
 66
   257
 43
1.0
 76
     1
 77
     6
 78
     2
 67
     7
 79
     5
170
     0
171
     0
290
     0
174
     0
 93
        1
 44
0.0
173
     0
291
     0
 45
0.0
1001
ACAD
1000
AcDbSavedByObjectVersion
1070
     0
  0
VISUALSTYLE
  5
31
102
{ACAD_REACTORS
330
2A
102
}
330
2A
100
AcDbVisualStyle
  2
3D Hidden
 70
     6
 71
     1
 72
     2
 73
     2
 90
        0
 40
-0.6
 41
-30.0
 62
     5
 63
     7
 74
     2
 91
        2
 64
     7
 65
   257
 75
     2
175
     1
 42
40.0
 92
        0
 66
   257
 43
1.0
 76
     1
 77
     6
 78
     2
 67
     7
 79
     3
170
     0
171
     0
290
     0
174
     0
 93
        1
 44
0.0
173
     0
291
     0
 45
0.0
1001
ACAD
1000
AcDbSavedByObjectVersion
1070
     0
  0
VISUALSTYLE
  5
30
102
{ACAD_REACTORS
330
2A
102
}
330
2A
100
AcDbVisualStyle
  2
3dWireframe
 70
     5
 71
     0
 72
     2
 73
     0
 90
        0
 40
-0.6
 41
-30.0
 62
     5
 63
     7
 74
     1
 91
        4
 64
     7
 65
   257
 75
     1
175
     1
 42
1.0
 92
        0
 66
   257
 43
1.0
 76
     1
 77
     6
 78
     2
 67
     7
 79
     5
170
     0
171
     0
290
     0
174
     0
 93
        1
 44
0.0
173
     0
291
     0
 45
0.0
1001
ACAD
1000
AcDbSavedByObjectVersion
1070
     0
  0
VISUALSTYLE
  5
32
102
{ACAD_REACTORS
330
2A
102
}
330
2A
100
AcDbVisualStyle
  2
Basic
 70
     7
 71
     1
 72
     0
 73
     1
 90
        0
 40
-0.6
 41
-30.0
 62
     5
 63
     7
 74
     0
 91
        4
 64
     7
 65
   257
 75
     1
175
     1
 42
1.0
 92
        8
 66
     7
 43
1.0
 76
     1
 77
     6
 78
     2
 67
     7
 79
     5
170
     0
171
     0
290
     0
174
     0
 93
        1
 44
0.0
173
     0
291
     1
 45
0.0
1001
ACAD
1000
AcDbSavedByObjectVersion
1070
     0
  0
VISUALSTYLE
  5
36
102
{ACAD_REACTORS
330
2A
102
}
330
2A
100
AcDbVisualStyle
  2
Brighten
 70
    12
 71
     2
 72
     2
 73
     0
 90
        0
 40
-0.6
 41
-30.0
 62
     5
 63
     7
 74
     1
 91
        4
 64
     7
 65
   257
 75
     1
175
     1
 42
1.0
 92
        8
 66
     7
 43
1.0
 76
     1
 77
     6
 78
     2
 67
     7
 79
     5
170
     0
171
     0
290
     0
174
     0
 93
        1
 44
50.0
173
     0
291
     1
 45
0.0
1001
ACAD
1000
AcDbSavedByObjectVersion
1070
     0
  0
VISUALSTYLE
  5
3A
102
{ACAD_REACTORS
330
2A
102
}
330
2A
100
AcDbVisualStyle
  2
ColorChange
 70
    16
 71
     2
 72
     2
 73
     3
 90
        0
 40
-0.6
 41
-30.0
 62
     5
 63
     8
 74
     1
 91
        4
 64
     7
 65
   257
 75
     1
175
     1
 42
1.0
 92
        8
 66
     8
 43
1.0
 76
     1
 77
     6
 78
     2
 67
     7
 79
     5
170
     0
171
     0
290
     0
174
     0
 93
        1
 44
0.0
173
     0
291
     1
 45
0.0
1001
ACAD
1000
AcDbSavedByObjectVersion
1070
     0
  0
VISUALSTYLE
  5
34
102
{ACAD_REACTORS
330
2A
102
}
330
2A
100
AcDbVisualStyle
  2
Conceptual
 70
     9
 71
     3
 72
     2
 73
     0
 90
        0
 40
-0.6
 41
-30.0
 62
     5
 63
     7
 74
     2
 91
        2
 64
     7
 65
   257
 75
     1
175
     1
 42
40.0
 92
        8
 66
     7
 43
1.0
 76
     1
 77
     6
 78
     2
 67
     7
 79
     3
170
     0
171
     0
290
     0
174
     0
 93
        1
 44
0.0
173
     0
291
     0
 45
0.0
1001
ACAD
1000
AcDbSavedByObjectVersion
1070
     0
  0
VISUALSTYLE
  5
35
102
{ACAD_REACTORS
330
2A
102
}
330
2A
100
AcDbVisualStyle
  2
Dim
 70
    11
 71
     2
 72
     2
 73
     0
 90
        0
 40
-0.6
 41
-30.0
 62
     5
 63
     7
 74
     1
 91
        4
 64
     7
 65
   257
 75
     1
175
     1
 42
1.0
 92
        8
 66
     7
 43
1.0
 76
     1
 77
     6
 78
     2
 67
     7
 79
     5
170
     0
171
     0
290
     0
174
     0
 93
        1
 44
-50.0
173
     0
291
     1
 45
0.0
1001
ACAD
1000
AcDbSavedByObjectVersion
1070
     0
  0
VISUALSTYLE
  5
39
102
{ACAD_REACTORS
330
2A
102
}
330
2A
100
AcDbVisualStyle
  2
Facepattern
 70
    15
 71
     2
 72
     2
 73
     0
 90
        0
 40
-0.6
 41
-30.0
 62
     5
 63
     7
 74
     1
 91
        4
 64
     7
 65
   257
 75
     1
175
     1
 42
1.0
 92
        8
 66
     7
 43
1.0
 76
     1
 77
     6
 78
     2
 67
     7
 79
     5
170
     0
171
     0
290
     0
174
     0
 93
        1
 44
0.0
173
     0
291
     1
 45
0.0
1001
ACAD
1000
AcDbSavedByObjectVersion
1070
     0
  0
VISUALSTYLE
  5
2B
102
{ACAD_REACTORS
330
2A
102
}
330
2A
100
AcDbVisualStyle
  2
Flat
 70
     0
 71
     2
 72
     1
 73
     1
 90
        2
 40
-0.6
 41
30.0
 62
     5
 63
     7
 74
     0
 91
        4
 64
     7
 65
   257
 75
     1
175
     1
 42
1.0
 92
        8
 66
     7
 43
1.0
 76
     1
 77
     6
 78
     2
 67
     7
 79
     5
170
     0
171
     0
290
     0
174
     0
 93
       13
 44
0.0
173
     0
291
     1
 45
0.0
1001
ACAD
1000
AcDbSavedByObjectVersion
1070
     0
  0
VISUALSTYLE
  5
2C
102
{ACAD_REACTORS
330
2A
102
}
330
2A
100
AcDbVisualStyle
  2
FlatWithEdges
 70
     1
 71
     2
 72
     1
 73
     1
 90
        2
 40
-0.6
 41
30.0
 62
     5
 63
     7
 74
     1
 91
        4
 64
     7
 65
   257
 75
     1
175
     1
 42
1.0
 92
        0
 66
   257
 43
1.0
 76
     1
 77
     6
 78
     2
 67
     7
 79
     5
170
     0
171
     0
290
     0
174
     0
 93
       13
 44
0.0
173
     0
291
     1
 45
0.0
1001
ACAD
1000
AcDbSavedByObjectVersion
1070
     0
  0
VISUALSTYLE
  5
2D
102
{ACAD_REACTORS
330
2A
102
}
330
2A
100
AcDbVisualStyle
  2
Gouraud
 70
     2
 71
     2
 72
     2
 73
     1
 90
        2
 40
-0.6
 41
30.0
 62
     5
 63
     7
 74
     0
 91
        4
 64
     7
 65
   257
 75
     1
175
     1
 42
1.0
 92
        0
 66
     7
 43
1.0
 76
     1
 77
     6
 78
     2
 67
     7
 79
     5
170
     0
171
     0
290
     0
174
     0
 93
       13
 44
0.0
173
     0
291
     1
 45
0.0
1001
ACAD
1000
AcDbSavedByObjectVersion
1070
     0
  0
VISUALSTYLE
  5
2E
102
{ACAD_REACTORS
330
2A
102
}
330
2A
100
AcDbVisualStyle
  2
GouraudWithEdges
 70
     3
 71
     2
 72
     2
 73
     1
 90
        2
 40
-0.6
 41
30.0
 62
     5
 63
     7
 74
     1
 91
        4
 64
     7
 65
   257
 75
     1
175
     1
 42
1.0
 92
        0
 66
   257
 43
1.0
 76
     1
 77
     6
 78
     2
 67
     7
 79
     5
170
     0
171
     0
290
     0
174
     0
 93
       13
 44
0.0
173
     0
291
     1
 45
0.0
1001
ACAD
1000
AcDbSavedByObjectVersion
1070
     0
  0
VISUALSTYLE
  5
38
102
{ACAD_REACTORS
330
2A
102
}
330
2A
100
AcDbVisualStyle
  2
Linepattern
 70
    14
 71
     2
 72
     2
 73
     0
 90
        0
 40
-0.6
 41
-30.0
 62
     5
 63
     7
 74
     1
 91
        4
 64
     7
 65
   257
 75
     7
175
     7
 42
1.0
 92
        8
 66
     7
 43
1.0
 76
     1
 77
     6
 78
     2
 67
     7
 79
     5
170
     0
171
     0
290
     0
174
     0
 93
        1
 44
0.0
173
     0
291
     1
 45
0.0
1001
ACAD
1000
AcDbSavedByObjectVersion
1070
     0
  0
VISUALSTYLE
  5
33
102
{ACAD_REACTORS
330
2A
102
}
330
2A
100
AcDbVisualStyle
  2
Realistic
 70
     8
 71
     2
 72
     2
 73
     0
 90
        0
 40
-0.6
 41
-30.0
 62
     5
 63
     7
 74
     1
 91
        0
 64
     7
 65
   257
 75
     1
175
     1
 42
1.0
 92
        8
 66
     8
 43
1.0
 76
     1
 77
     6
 78
     2
 67
     7
 79
     5
170
     0
171
     0
290
     0
174
     0
 93
       13
 44
0.0
173
     0
291
     0
 45
0.0
1001
ACAD
1000
AcDbSavedByObjectVersion
1070
     0
  0
VISUALSTYLE
  5
37
102
{ACAD_REACTORS
330
2A
102
}
330
2A
100
AcDbVisualStyle
  2
Thicken
 70
    13
 71
     2
 72
     2
 73
     0
 90
        0
 40
-0.6
 41
-30.0
 62
     5
 63
     7
 74
     1
 91
        4
 64
     7
 65
   257
 75
     1
175
     1
 42
1.0
 92
       12
 66
     7
 43
1.0
 76
     1
 77
     6
 78
     2
 67
     7
 79
     5
170
     0
171
     0
290
     0
174
     0
 93
        1
 44
0.0
173
     0
291
     1
 45
0.0
1001
ACAD
1000
AcDbSavedByObjectVersion
1070
     0
  0
DICTIONARYVAR
  5
129
102
{ACAD_REACTORS
330
125
102
}
330
125
100
DictionaryVariables
280
     0
  1
80.000000
  0
DICTIONARYVAR
  5
128
102
{ACAD_REACTORS
330
125
102
}
330
125
100
DictionaryVariables
280
     0
  1
5.000000
  0
ENDSEC
  0
EOF
