  0
SECTION
  2
HEADER
  9
$ACADVER
  1
AC1015
  9
$ACADMAINTVER
 70
     6
  9
$DWGCODEPAGE
  3
ANSI_1252
  9
$INSBASE
 10
0.0
 20
0.0
 30
0.0
  9
$EXTMIN
 10
52.841568
 20
74.674667
 30
0.0
  9
$EXTMAX
 10
812.898315
 20
805.395569
 30
0.0
  9
$LIMMIN
 10
52.841568
 20
74.674667
  9
$LIMMAX
 10
812.898315
 20
805.395569
  9
$ORTHOMODE
 70
     0
  9
$REGENMODE
 70
     1
  9
$FILLMODE
 70
     1
  9
$QTEXTMODE
 70
     0
  9
$MIRRTEXT
 70
     1
  9
$LTSCALE
 40
1.0
  9
$ATTMODE
 70
     1
  9
$TEXTSIZE
 40
2.5
  9
$TRACEWID
 40
1.0
  9
$TEXTSTYLE
  7
Standard
  9
$CLAYER
  8
0
  9
$CELTYPE
  6
ByLayer
  9
$CECOLOR
 62
   256
  9
$CELTSCALE
 40
1.0
  9
$DISPSILH
 70
     0
  9
$DIMSCALE
 40
1.0
  9
$DIMASZ
 40
2.5
  9
$DIMEXO
 40
0.625
  9
$DIMDLI
 40
3.75
  9
$DIMRND
 40
0.0
  9
$DIMDLE
 40
0.0
  9
$DIMEXE
 40
1.25
  9
$DIMTP
 40
0.0
  9
$DIMTM
 40
0.0
  9
$DIMTXT
 40
2.5
  9
$DIMCEN
 40
2.5
  9
$DIMTSZ
 40
0.0
  9
$DIMTOL
 70
     0
  9
$DIMLIM
 70
     0
  9
$DIMTIH
 70
     0
  9
$DIMTOH
 70
     0
  9
$DIMSE1
 70
     0
  9
$DIMSE2
 70
     0
  9
$DIMTAD
 70
     1
  9
$DIMZIN
 70
     8
  9
$DIMBLK
  1

  9
$DIMASO
 70
     1
  9
$DIMSHO
 70
     1
  9
$DIMPOST
  1

  9
$DIMAPOST
  1

  9
$DIMALT
 70
     0
  9
$DIMALTD
 70
     3
  9
$DIMALTF
 40
0.03937
  9
$DIMLFAC
 40
1.0
  9
$DIMTOFL
 70
     1
  9
$DIMTVP
 40
0.0
  9
$DIMTIX
 70
     0
  9
$DIMSOXD
 70
     0
  9
$DIMSAH
 70
     0
  9
$DIMBLK1
  1

  9
$DIMBLK2
  1

  9
$DIMSTYLE
  2
ISO-25
  9
$DIMCLRD
 70
     0
  9
$DIMCLRE
 70
     0
  9
$DIMCLRT
 70
     0
  9
$DIMTFAC
 40
1.0
  9
$DIMGAP
 40
0.625
  9
$DIMJUST
 70
     0
  9
$DIMSD1
 70
     0
  9
$DIMSD2
 70
     0
  9
$DIMTOLJ
 70
     0
  9
$DIMTZIN
 70
     8
  9
$DIMALTZ
 70
     0
  9
$DIMALTTZ
 70
     0
  9
$DIMUPT
 70
     0
  9
$DIMDEC
 70
     2
  9
$DIMTDEC
 70
     2
  9
$DIMALTU
 70
     2
  9
$DIMALTTD
 70
     3
  9
$DIMTXSTY
  7
Standard
  9
$DIMAUNIT
 70
     0
  9
$DIMADEC
 70
     0
  9
$DIMALTRND
 40
0.0
  9
$DIMAZIN
 70
     0
  9
$DIMDSEP
 70
    44
  9
$DIMATFIT
 70
     3
  9
$DIMFRAC
 70
     0
  9
$DIMLDRBLK
  1

  9
$DIMLUNIT
 70
     2
  9
$DIMLWD
 70
    -2
  9
$DIMLWE
 70
    -2
  9
$DIMTMOVE
 70
     0
  9
$LUNITS
 70
     2
  9
$LUPREC
 70
     4
  9
$SKETCHINC
 40
1.0
  9
$FILLETRAD
 40
10.0
  9
$AUNITS
 70
     0
  9
$AUPREC
 70
     0
  9
$MENU
  1
.
  9
$ELEVATION
 40
0.0
  9
$PELEVATION
 40
0.0
  9
$THICKNESS
 40
0.0
  9
$LIMCHECK
 70
     0
  9
$CHAMFERA
 40
10.0
  9
$CHAMFERB
 40
10.0
  9
$CHAMFERC
 40
20.0
  9
$CHAMFERD
 40
0.0
  9
$SKPOLY
 70
     0
  9
$TDCREATE
 40
2455572.502726667
  9
$TDUCREATE
 40
2455572.46106
  9
$TDUPDATE
 40
2455572.502726678
  9
$TDUUPDATE
 40
2455572.461060012
  9
$TDINDWG
 40
0.0000000116
  9
$TDUSRTIMER
 40
0.0000000116
  9
$USRTIMER
 70
     1
  9
$ANGBASE
 50
0.0
  9
$ANGDIR
 70
     0
  9
$PDMODE
 70
     0
  9
$PDSIZE
 40
0.0
  9
$PLINEWID
 40
0.0
  9
$SPLFRAME
 70
     0
  9
$SPLINETYPE
 70
     6
  9
$SPLINESEGS
 70
     8
  9
$HANDSEED
  5
122
  9
$SURFTAB1
 70
     6
  9
$SURFTAB2
 70
     6
  9
$SURFTYPE
 70
     6
  9
$SURFU
 70
     6
  9
$SURFV
 70
     6
  9
$UCSBASE
  2

  9
$UCSNAME
  2

  9
$UCSORG
 10
0.0
 20
0.0
 30
0.0
  9
$UCSXDIR
 10
1.0
 20
0.0
 30
0.0
  9
$UCSYDIR
 10
0.0
 20
1.0
 30
0.0
  9
$UCSORTHOREF
  2

  9
$UCSORTHOVIEW
 70
     0
  9
$UCSORGTOP
 10
0.0
 20
0.0
 30
0.0
  9
$UCSORGBOTTOM
 10
0.0
 20
0.0
 30
0.0
  9
$UCSORGLEFT
 10
0.0
 20
0.0
 30
0.0
  9
$UCSORGRIGHT
 10
0.0
 20
0.0
 30
0.0
  9
$UCSORGFRONT
 10
0.0
 20
0.0
 30
0.0
  9
$UCSORGBACK
 10
0.0
 20
0.0
 30
0.0
  9
$PUCSBASE
  2

  9
$PUCSNAME
  2

  9
$PUCSORG
 10
0.0
 20
0.0
 30
0.0
  9
$PUCSXDIR
 10
1.0
 20
0.0
 30
0.0
  9
$PUCSYDIR
 10
0.0
 20
1.0
 30
0.0
  9
$PUCSORTHOREF
  2

  9
$PUCSORTHOVIEW
 70
     0
  9
$PUCSORGTOP
 10
0.0
 20
0.0
 30
0.0
  9
$PUCSORGBOTTOM
 10
0.0
 20
0.0
 30
0.0
  9
$PUCSORGLEFT
 10
0.0
 20
0.0
 30
0.0
  9
$PUCSORGRIGHT
 10
0.0
 20
0.0
 30
0.0
  9
$PUCSORGFRONT
 10
0.0
 20
0.0
 30
0.0
  9
$PUCSORGBACK
 10
0.0
 20
0.0
 30
0.0
  9
$USERI1
 70
     0
  9
$USERI2
 70
     0
  9
$USERI3
 70
     0
  9
$USERI4
 70
     0
  9
$USERI5
 70
     0
  9
$USERR1
 40
0.0
  9
$USERR2
 40
0.0
  9
$USERR3
 40
0.0
  9
$USERR4
 40
0.0
  9
$USERR5
 40
0.0
  9
$WORLDVIEW
 70
     1
  9
$SHADEDGE
 70
     3
  9
$SHADEDIF
 70
    70
  9
$TILEMODE
 70
     1
  9
$MAXACTVP
 70
    64
  9
$PINSBASE
 10
0.0
 20
0.0
 30
0.0
  9
$PLIMCHECK
 70
     0
  9
$PEXTMIN
 10
1.000000E+20
 20
1.000000E+20
 30
1.000000E+20
  9
$PEXTMAX
 10
-1.000000E+20
 20
-1.000000E+20
 30
-1.000000E+20
  9
$PLIMMIN
 10
0.0
 20
0.0
  9
$PLIMMAX
 10
420.0
 20
297.0
  9
$UNITMODE
 70
     0
  9
$VISRETAIN
 70
     1
  9
$PLINEGEN
 70
     0
  9
$PSLTSCALE
 70
     1
  9
$TREEDEPTH
 70
  3020
  9
$CMLSTYLE
  2
Standard
  9
$CMLJUST
 70
     0
  9
$CMLSCALE
 40
20.0
  9
$PROXYGRAPHICS
 70
     1
  9
$MEASUREMENT
 70
     1
  9
$CELWEIGHT
370
    -1
  9
$ENDCAPS
280
     0
  9
$JOINSTYLE
280
     0
  9
$LWDISPLAY
290
     0
  9
$INSUNITS
 70
     4
  9
$HYPERLINKBASE
  1

  9
$STYLESHEET
  1

  9
$XEDIT
290
     1
  9
$CEPSNTYPE
380
     0
  9
$PSTYLEMODE
290
     1
  9
$FINGERPRINTGUID
  2
{6654166C-BA76-4A27-AD18-3F08055039EB}
  9
$VERSIONGUID
  2
{FAEB1C32-E019-11D5-929B-00C0DF256EC4}
  9
$EXTNAMES
290
     1
  9
$PSVPSCALE
 40
0.0
  9
$OLESTARTUP
290
     0
  0
ENDSEC
  0
SECTION
  2
CLASSES
  0
CLASS
  1
ACDBDICTIONARYWDFLT
  2
AcDbDictionaryWithDefault
  3
ObjectDBX Classes
 90
        0
280
     0
281
     0
  0
CLASS
  1
VISUALSTYLE
  2
AcDbVisualStyle
  3
ObjectDBX Classes
 90
     4095
280
     0
281
     0
  0
CLASS
  1
DICTIONARYVAR
  2
AcDbDictionaryVar
  3
ObjectDBX Classes
 90
        0
280
     0
281
     0
  0
CLASS
  1
ACDBPLACEHOLDER
  2
AcDbPlaceHolder
  3
ObjectDBX Classes
 90
        0
280
     0
281
     0
  0
CLASS
  1
LAYOUT
  2
AcDbLayout
  3
ObjectDBX Classes
 90
        0
280
     0
281
     0
  0
ENDSEC
  0
SECTION
  2
TABLES
  0
TABLE
  2
VPORT
  5
8
330
0
100
AcDbSymbolTable
 70
     1
  0
VPORT
  5
29
330
8
100
AcDbSymbolTableRecord
100
AcDbViewportTableRecord
  2
*Active
 70
     0
 10
0.0
 20
0.0
 11
1.0
 21
1.0
 12
344.186916
 22
148.5
 13
0.0
 23
0.0
 14
10.0
 24
10.0
 15
10.0
 25
10.0
 16
0.0
 26
0.0
 36
1.0
 17
0.0
 27
0.0
 37
0.0
 40
297.0
 41
1.972973
 42
50.0
 43
0.0
 44
0.0
 50
0.0
 51
0.0
 71
     0
 72
   100
 73
     1
 74
     3
 75
     0
 76
     0
 77
     0
 78
     0
281
     0
 65
     1
110
0.0
120
0.0
130
0.0
111
1.0
121
0.0
131
0.0
112
0.0
122
1.0
132
0.0
 79
     0
146
0.0
  0
ENDTAB
  0
TABLE
  2
LTYPE
  5
5
330
0
100
AcDbSymbolTable
 70
     1
  0
LTYPE
  5
14
330
5
100
AcDbSymbolTableRecord
100
AcDbLinetypeTableRecord
  2
ByBlock
 70
     0
  3

 72
    65
 73
     0
 40
0.0
  0
LTYPE
  5
15
330
5
100
AcDbSymbolTableRecord
100
AcDbLinetypeTableRecord
  2
ByLayer
 70
     0
  3

 72
    65
 73
     0
 40
0.0
  0
LTYPE
  5
16
330
5
100
AcDbSymbolTableRecord
100
AcDbLinetypeTableRecord
  2
Continuous
 70
     0
  3
Solid line
 72
    65
 73
     0
 40
0.0
  0
ENDTAB
  0
TABLE
  2
LAYER
  5
2
330
0
100
AcDbSymbolTable
 70
     1
  0
LAYER
  5
10
330
2
100
AcDbSymbolTableRecord
100
AcDbLayerTableRecord
  2
0
 70
     0
 62
   106
  6
Continuous
370
     0
390
F
  0
ENDTAB
  0
TABLE
  2
STYLE
  5
3
330
0
100
AcDbSymbolTable
 70
     4
  0
STYLE
  5
11
330
3
100
AcDbSymbolTableRecord
100
AcDbTextStyleTableRecord
  2
Standard
 70
     0
 40
0.0
 41
1.0
 50
0.0
 71
     0
 42
2.5
  3
txt
  4

  0
STYLE
  5
3B
330
3
100
AcDbSymbolTableRecord
100
AcDbTextStyleTableRecord
  2
Default
 70
     0
 40
0.0
 41
1.0
 50
0.0
 71
     0
 42
0.2
  3

  4

1001
ACAD
1000
txt
1071
        0
  0
STYLE
  5
3C
330
3
100
AcDbSymbolTableRecord
100
AcDbTextStyleTableRecord
  2
ISO
 70
     0
 40
0.0
 41
1.0
 50
0.0
 71
     0
 42
0.2
  3

  4

1001
ACAD
1000
txt
1071
        0
  0
STYLE
  5
3D
330
3
100
AcDbSymbolTableRecord
100
AcDbTextStyleTableRecord
  2
GIANLU
 70
     0
 40
0.0
 41
1.0
 50
0.0
 71
     0
 42
0.2
  3

  4

1001
ACAD
1000
Arial
1071
        0
  0
ENDTAB
  0
TABLE
  2
VIEW
  5
6
330
0
100
AcDbSymbolTable
 70
     0
  0
ENDTAB
  0
TABLE
  2
UCS
  5
7
330
0
100
AcDbSymbolTable
 70
     0
  0
ENDTAB
  0
TABLE
  2
APPID
  5
9
330
0
100
AcDbSymbolTable
 70
     1
  0
APPID
  5
12
330
9
100
AcDbSymbolTableRecord
100
AcDbRegAppTableRecord
  2
ACAD
 70
     0
  0
ENDTAB
  0
TABLE
  2
DIMSTYLE
  5
A
330
0
100
AcDbSymbolTable
 70
     4
100
AcDbDimStyleTable
  0
DIMSTYLE
105
27
330
A
100
AcDbSymbolTableRecord
100
AcDbDimStyleTableRecord
  2
ISO-25
 70
     0
 41
2.5
 42
0.625
 43
3.75
 44
1.25
 73
     0
 74
     0
 77
     1
 78
     8
140
2.5
141
2.5
143
0.03937
147
0.625
171
     3
172
     1
271
     2
272
     2
274
     3
278
    44
283
     0
284
     8
340
11
  0
DIMSTYLE
105
3E
330
A
100
AcDbSymbolTableRecord
100
AcDbDimStyleTableRecord
  2
Default
 70
     0
  3
<>
 41
4.375
 42
1.05
 44
2.1
 73
     0
 74
     0
 77
     1
 78
     8
140
3.5
146
0.4
147
1.75
178
     3
271
     2
272
     3
284
     8
340
3B
341
3F
342
3F
  0
DIMSTYLE
105
46
330
A
100
AcDbSymbolTableRecord
100
AcDbDimStyleTableRecord
  2
ISO
 70
     0
  3
<>
 41
4.375
 42
1.05
 44
2.1
 73
     0
 74
     0
 77
     1
 78
     8
140
3.5
146
0.4
147
1.75
178
     3
271
     2
272
     3
284
     8
340
3C
341
3F
342
3F
  0
DIMSTYLE
105
47
330
A
100
AcDbSymbolTableRecord
100
AcDbDimStyleTableRecord
  2
zucchetti_unico
 70
     0
  3
<>
 41
3.0
 42
0.9
 44
1.8
 73
     0
 74
     0
 77
     1
 78
     8
140
3.0
146
0.6
147
1.5
176
   104
177
     3
178
     3
271
     2
272
     2
284
     8
340
3D
  0
ENDTAB
  0
TABLE
  2
BLOCK_RECORD
  5
1
330
0
100
AcDbSymbolTable
 70
     7
  0
BLOCK_RECORD
  5
1F
330
1
100
AcDbSymbolTableRecord
100
AcDbBlockTableRecord
  2
*Model_Space
340
22
  0
BLOCK_RECORD
  5
1B
330
1
100
AcDbSymbolTableRecord
100
AcDbBlockTableRecord
  2
*Paper_Space
340
1E
  0
BLOCK_RECORD
  5
23
330
1
100
AcDbSymbolTableRecord
100
AcDbBlockTableRecord
  2
*Paper_Space0
340
26
  0
BLOCK_RECORD
  5
3F
330
1
100
AcDbSymbolTableRecord
100
AcDbBlockTableRecord
  2
_CLOSED
340
0
  0
BLOCK_RECORD
  5
48
330
1
100
AcDbSymbolTableRecord
100
AcDbBlockTableRecord
  2
a
340
0
102
{BLKREFS
331
72
102
}
  0
BLOCK_RECORD
  5
73
330
1
100
AcDbSymbolTableRecord
100
AcDbBlockTableRecord
  2
b
340
0
102
{BLKREFS
331
8E
102
}
  0
BLOCK_RECORD
  5
8F
330
1
100
AcDbSymbolTableRecord
100
AcDbBlockTableRecord
  2
c
340
0
102
{BLKREFS
331
B9
102
}
  0
BLOCK_RECORD
  5
BA
330
1
100
AcDbSymbolTableRecord
100
AcDbBlockTableRecord
  2
d
340
0
102
{BLKREFS
331
F4
102
}
  0
BLOCK_RECORD
  5
F5
330
1
100
AcDbSymbolTableRecord
100
AcDbBlockTableRecord
  2
e
340
0
102
{BLKREFS
331
11C
102
}
  0
ENDTAB
  0
ENDSEC
  0
SECTION
  2
BLOCKS
  0
BLOCK
  5
20
330
1F
100
AcDbEntity
  8
0
100
AcDbBlockBegin
  2
*Model_Space
 70
     0
 10
0.0
 20
0.0
 30
0.0
  3
*Model_Space
  1

  0
ENDBLK
  5
21
330
1F
100
AcDbEntity
  8
0
100
AcDbBlockEnd
  0
BLOCK
  5
1C
330
1B
100
AcDbEntity
 67
     1
  8
0
100
AcDbBlockBegin
  2
*Paper_Space
 70
     0
 10
0.0
 20
0.0
 30
0.0
  3
*Paper_Space
  1

  0
ENDBLK
  5
1D
330
1B
100
AcDbEntity
 67
     1
  8
0
100
AcDbBlockEnd
  0
BLOCK
  5
24
330
23
100
AcDbEntity
  8
0
100
AcDbBlockBegin
  2
*Paper_Space0
 70
     0
 10
0.0
 20
0.0
 30
0.0
  3
*Paper_Space0
  1

  0
ENDBLK
  5
25
330
23
100
AcDbEntity
  8
0
100
AcDbBlockEnd
  0
BLOCK
  5
40
330
3F
100
AcDbEntity
  8
0
100
AcDbBlockBegin
  2
_CLOSED
 70
     0
 10
0.0
 20
0.0
 30
0.0
  3
_CLOSED
  1

  0
LINE
  5
42
330
3F
100
AcDbEntity
  8
0
  6
ByBlock
 62
     0
370
    -2
100
AcDbLine
 10
-1.0
 20
0.166667
 30
0.0
 11
0.0
 21
0.0
 31
0.0
  0
LINE
  5
43
330
3F
100
AcDbEntity
  8
0
  6
ByBlock
 62
     0
370
    -2
100
AcDbLine
 10
0.0
 20
0.0
 30
0.0
 11
-1.0
 21
-0.166667
 31
0.0
  0
LINE
  5
44
330
3F
100
AcDbEntity
  8
0
  6
ByBlock
 62
     0
370
    -2
100
AcDbLine
 10
-1.0
 20
0.166667
 30
0.0
 11
-1.0
 21
-0.166667
 31
0.0
  0
LINE
  5
45
330
3F
100
AcDbEntity
  8
0
  6
ByBlock
 62
     0
370
    -2
100
AcDbLine
 10
0.0
 20
0.0
 30
0.0
 11
-1.0
 21
0.0
 31
0.0
  0
ENDBLK
  5
41
330
3F
100
AcDbEntity
  8
0
100
AcDbBlockEnd
  0
BLOCK
  5
70
330
48
100
AcDbEntity
  8
0
100
AcDbBlockBegin
  2
a
 70
     0
 10
346.228699
 20
94.203629
 30
0.0
  3
a
  1

  0
LINE
  5
49
330
48
100
AcDbEntity
  8
0
  6
Continuous
 62
     0
370
    30
100
AcDbLine
 10
463.108065
 20
574.126413
 30
0.0
 11
485.101979
 21
574.126414
 31
0.0
  0
LINE
  5
4A
330
48
100
AcDbEntity
  8
0
  6
Continuous
 62
     0
370
    30
100
AcDbLine
 10
485.101979
 20
574.126414
 30
0.0
 11
507.095328
 21
574.126444
 31
0.0
  0
LINE
  5
4B
330
48
100
AcDbEntity
  8
0
  6
Continuous
 62
     0
370
    30
100
AcDbLine
 10
485.101957
 20
605.126414
 30
0.0
 11
507.101668
 21
605.126445
 31
0.0
  0
LINE
  5
4C
330
48
100
AcDbEntity
  8
0
  6
Continuous
 62
     0
370
    30
100
AcDbLine
 10
463.101668
 20
605.126414
 30
0.0
 11
485.101957
 21
605.126414
 31
0.0
  0
LWPOLYLINE
  5
4D
330
48
100
AcDbEntity
  8
0
  6
Continuous
 62
     0
370
    30
100
AcDbPolyline
 90
        2
 70
     0
 43
0.0
 10
463.101685
 20
574.318787
 10
463.108063
 20
574.126404
  0
LWPOLYLINE
  5
4E
330
48
100
AcDbEntity
  8
0
  6
Continuous
 62
     0
370
    30
100
AcDbPolyline
 90
        2
 70
     0
 43
0.0
 10
507.095337
 20
574.126465
 10
507.101685
 20
574.318604
  0
LWPOLYLINE
  5
4F
330
48
100
AcDbEntity
  8
0
  6
Continuous
 62
     0
370
     0
100
AcDbPolyline
 90
       31
 70
     0
 43
0.0
 10
485.10199
 20
578.643127
 10
484.004822
 20
578.724487
 10
482.932556
 20
578.959106
 10
481.906677
 20
579.338806
 10
480.943726
 20
579.849304
 10
480.054565
 20
580.472107
 10
479.246429
 20
581.191467
 10
478.521637
 20
581.992859
 10
477.881073
 20
582.864563
 10
477.325439
 20
583.795349
 10
476.855072
 20
584.77478
 10
476.469696
 20
585.794617
 10
476.169434
 20
586.84668
 10
475.954529
 20
587.923035
 10
475.825134
 20
589.015564
 10
475.781403
 20
590.116272
 10
475.823547
 20
591.217102
 10
475.951355
 20
592.309875
 10
476.164734
 20
593.386536
 10
476.463409
 20
594.439148
 10
476.84729
 20
595.459656
 10
477.316162
 20
596.439941
 10
477.869843
 20
597.371399
 10
478.508911
 20
598.244507
 10
479.233795
 20
599.048767
 10
480.042175
 20
599.77063
 10
480.930573
 20
600.395386
 10
481.892365
 20
600.90741
 10
482.917267
 20
601.289917
 10
483.989014
 20
601.527405
 10
485.101959
 20
601.609741
  0
LWPOLYLINE
  5
50
330
48
100
AcDbEntity
  8
0
  6
Continuous
 62
     0
370
     0
100
AcDbPolyline
 90
       31
 70
     0
 43
0.0
 10
485.101959
 20
601.609741
 10
486.199127
 20
601.528381
 10
487.271362
 20
601.293701
 10
488.297272
 20
600.914001
 10
489.260193
 20
600.403564
 10
490.149353
 20
599.780701
 10
490.957489
 20
599.061401
 10
491.682281
 20
598.259949
 10
492.322815
 20
597.388245
 10
492.878448
 20
596.45752
 10
493.348846
 20
595.478027
 10
493.734192
 20
594.458252
 10
494.034454
 20
593.406128
 10
494.249359
 20
592.329834
 10
494.378754
 20
591.237244
 10
494.422455
 20
590.136536
 10
494.380341
 20
589.035706
 10
494.252502
 20
587.942932
 10
494.039154
 20
586.866272
 10
493.740479
 20
585.81366
 10
493.356598
 20
584.793152
 10
492.887756
 20
583.812866
 10
492.334045
 20
582.881409
 10
491.694977
 20
582.008301
 10
490.970123
 20
581.204041
 10
490.161743
 20
580.482178
 10
489.273346
 20
579.857422
 10
488.311554
 20
579.345459
 10
487.286652
 20
578.962891
 10
486.214905
 20
578.725464
 10
485.10199
 20
578.643127
  0
LINE
  5
51
330
48
100
AcDbEntity
  8
0
  6
Continuous
 62
     0
370
     0
100
AcDbLine
 10
485.101959
 20
601.60972
 30
0.0
 11
485.102023
 21
596.626409
 31
0.0
  0
LINE
  5
52
330
48
100
AcDbEntity
  8
0
  6
Continuous
 62
     0
370
     0
100
AcDbLine
 10
485.102033
 20
583.626373
 30
0.0
 11
485.101976
 21
578.643107
 31
0.0
  0
ARC
  5
53
330
48
100
AcDbEntity
  8
0
  6
Continuous
 62
     0
370
    30
100
AcDbCircle
 10
485.102836
 20
590.126367
 30
0.0
 40
6.499994153589111
100
AcDbArc
 50
270.000041
 51
90.000041
  0
ARC
  5
54
330
48
100
AcDbEntity
  8
0
  6
Continuous
 62
     0
370
    30
100
AcDbCircle
 10
485.102836
 20
590.126367
 30
0.0
 40
6.499994153589111
100
AcDbArc
 50
90.000041
 51
270.000041
  0
LINE
  5
55
330
48
100
AcDbEntity
  8
0
  6
Continuous
 62
     0
370
    30
100
AcDbLine
 10
463.101691
 20
572.915396
 30
0.0
 11
485.101547
 21
572.915412
 31
0.0
  0
LINE
  5
56
330
48
100
AcDbEntity
  8
0
  6
Continuous
 62
     0
370
    30
100
AcDbLine
 10
485.101547
 20
572.915412
 30
0.0
 11
507.101691
 21
572.915428
 31
0.0
  0
LINE
  5
57
330
48
100
AcDbEntity
  8
0
  6
Continuous
 62
     0
370
    30
100
AcDbLine
 10
485.101532
 20
521.915371
 30
0.0
 11
455.101731
 21
521.91535
 31
0.0
  0
LINE
  5
58
330
48
100
AcDbEntity
  8
0
  6
Continuous
 62
     0
370
    30
100
AcDbLine
 10
515.101723
 20
521.915392
 30
0.0
 11
485.101532
 21
521.915371
 31
0.0
  0
LINE
  5
59
330
48
100
AcDbEntity
  8
0
  6
Continuous
 62
     0
370
    30
100
AcDbLine
 10
485.101535
 20
517.915372
 30
0.0
 11
455.101733
 21
517.915351
 31
0.0
  0
LINE
  5
5A
330
48
100
AcDbEntity
  8
0
  6
Continuous
 62
     0
370
    30
100
AcDbLine
 10
515.101726
 20
517.915393
 30
0.0
 11
485.101535
 21
517.915372
 31
0.0
  0
LINE
  5
5B
330
48
100
AcDbEntity
  8
0
  6
Continuous
 62
     0
370
    30
100
AcDbLine
 10
455.101733
 20
517.915351
 30
0.0
 11
455.101731
 21
521.91535
 31
0.0
  0
LINE
  5
5C
330
48
100
AcDbEntity
  8
0
  6
Continuous
 62
     0
370
    30
100
AcDbLine
 10
515.101726
 20
517.915393
 30
0.0
 11
515.101723
 21
521.915392
 31
0.0
  0
LINE
  5
5D
330
48
100
AcDbEntity
  8
0
  6
Continuous
 62
     0
370
    30
100
AcDbLine
 10
507.101727
 20
521.915387
 30
0.0
 11
507.101691
 21
572.915428
 31
0.0
  0
LINE
  5
5E
330
48
100
AcDbEntity
  8
0
  6
Continuous
 62
     0
370
    30
100
AcDbLine
 10
463.101727
 20
521.915355
 30
0.0
 11
463.101691
 21
572.915396
 31
0.0
  0
ARC
  5
5F
330
48
100
AcDbEntity
  8
0
  6
Continuous
 62
     0
370
    30
100
AcDbCircle
 10
485.101546
 20
571.415405
 30
0.0
 40
20.50498903753876
100
AcDbArc
 50
172.402572
 51
175.804921
  0
ARC
  5
60
330
48
100
AcDbEntity
  8
0
  6
Continuous
 62
     0
370
    30
100
AcDbCircle
 10
485.101837
 20
571.415405
 30
0.0
 40
20.50498926504251
100
AcDbArc
 50
4.195161
 51
7.597509
  0
LINE
  5
61
330
48
100
AcDbEntity
  8
0
  6
Continuous
 62
     0
370
    30
100
AcDbLine
 10
507.10169
 20
574.318996
 30
0.0
 11
507.101668
 21
605.126445
 31
0.0
  0
LINE
  5
62
330
48
100
AcDbEntity
  8
0
  6
Continuous
 62
     0
370
    30
100
AcDbLine
 10
463.10169
 20
574.319176
 30
0.0
 11
463.101668
 21
605.126414
 31
0.0
  0
LINE
  5
63
330
48
100
AcDbEntity
  8
0
  6
Continuous
 62
     0
370
    30
100
AcDbLine
 10
415.10173
 20
685.415314
 30
0.0
 11
395.10173
 21
685.415314
 31
0.0
  0
LINE
  5
64
330
48
100
AcDbEntity
  8
0
  6
Continuous
 62
     0
370
    30
100
AcDbLine
 10
395.10173
 20
685.415314
 30
0.0
 11
395.10173
 21
705.415314
 31
0.0
  0
LINE
  5
65
330
48
100
AcDbEntity
  8
0
  6
Continuous
 62
     0
370
     0
100
AcDbLine
 10
415.10173
 20
705.415314
 30
0.0
 11
395.10173
 21
705.415314
 31
0.0
  0
LINE
  5
66
330
48
100
AcDbEntity
  8
0
  6
Continuous
 62
     0
370
    30
100
AcDbLine
 10
395.10173
 20
705.415314
 30
0.0
 11
395.10173
 21
795.415314
 31
0.0
  0
LINE
  5
67
330
48
100
AcDbEntity
  8
0
  6
Continuous
 62
     0
370
    30
100
AcDbLine
 10
415.10173
 20
685.415314
 30
0.0
 11
415.10173
 21
521.915314
 31
0.0
  0
LINE
  5
68
330
48
100
AcDbEntity
  8
0
  6
Continuous
 62
     0
370
    30
100
AcDbLine
 10
395.10173
 20
521.915314
 30
0.0
 11
395.10173
 21
685.415314
 31
0.0
  0
LINE
  5
69
330
48
100
AcDbEntity
  8
0
  6
Continuous
 62
     0
370
    30
100
AcDbLine
 10
375.10173
 20
517.915314
 30
0.0
 11
375.10173
 21
521.915314
 31
0.0
  0
LINE
  5
6A
330
48
100
AcDbEntity
  8
0
  6
Continuous
 62
     0
370
    30
100
AcDbLine
 10
375.10173
 20
521.915314
 30
0.0
 11
435.10173
 21
521.915314
 31
0.0
  0
LINE
  5
6B
330
48
100
AcDbEntity
  8
0
  6
Continuous
 62
     0
370
    30
100
AcDbLine
 10
435.10173
 20
517.915314
 30
0.0
 11
375.10173
 21
517.915314
 31
0.0
  0
LINE
  5
6C
330
48
100
AcDbEntity
  8
0
  6
Continuous
 62
     0
370
    30
100
AcDbLine
 10
435.10173
 20
521.915314
 30
0.0
 11
435.10173
 21
517.915314
 31
0.0
  0
LINE
  5
6D
330
48
100
AcDbEntity
  8
0
  6
Continuous
 62
     0
370
    30
100
AcDbLine
 10
415.10173
 20
705.415314
 30
0.0
 11
415.10173
 21
795.415252
 31
0.0
  0
ARC
  5
6E
330
48
100
AcDbEntity
  8
0
  6
Continuous
 62
     0
370
    30
100
AcDbCircle
 10
405.101725
 20
795.415269
 30
0.0
 40
9.999995379958264
100
AcDbArc
 50
359.999965
 51
179.999744
  0
LINE
  5
6F
330
48
100
AcDbEntity
  8
0
  6
Continuous
 62
     0
370
    30
100
AcDbLine
 10
415.10173
 20
705.415314
 30
0.0
 11
415.10173
 21
685.415314
 31
0.0
  0
ENDBLK
  5
71
330
48
100
AcDbEntity
  8
0
100
AcDbBlockEnd
  0
BLOCK
  5
8C
330
73
100
AcDbEntity
  8
0
100
AcDbBlockBegin
  2
b
 70
     0
 10
346.228699
 20
94.203629
 30
0.0
  3
b
  1

  0
ARC
  5
74
330
73
100
AcDbEntity
  8
0
  6
Continuous
 62
     0
370
    30
100
AcDbCircle
 10
485.101671
 20
277.584105
 30
0.0
 40
21.99999999999373
100
AcDbArc
 50
270.000754
 51
90.000754
  0
ARC
  5
75
330
73
100
AcDbEntity
  8
0
  6
Continuous
 62
     0
370
    30
100
AcDbCircle
 10
485.101671
 20
277.584105
 30
0.0
 40
21.99999999999373
100
AcDbArc
 50
90.000754
 51
270.000754
  0
LINE
  5
76
330
73
100
AcDbEntity
  8
0
  6
Continuous
 62
     0
370
     0
100
AcDbLine
 10
491.60205
 20
249.584202
 30
0.0
 11
485.102046
 21
249.584112
 31
0.0
  0
LINE
  5
77
330
73
100
AcDbEntity
  8
0
  6
Continuous
 62
     0
370
     0
100
AcDbLine
 10
485.102046
 20
249.584112
 30
0.0
 11
478.60205
 21
249.584031
 31
0.0
  0
LWPOLYLINE
  5
78
330
73
100
AcDbEntity
  8
0
  6
Continuous
 62
     0
370
     0
100
AcDbPolyline
 90
       13
 70
     0
 43
0.0
 10
478.662323
 20
253.039322
 10
478.721497
 20
252.990082
 10
478.893646
 20
252.850601
 10
479.170074
 20
252.635544
 10
479.54071
 20
252.365738
 10
479.996338
 20
252.061798
 10
480.530548
 20
251.742981
 10
481.138824
 20
251.4272
 10
481.81778
 20
251.131805
 10
482.562622
 20
250.87439
 10
483.364655
 20
250.67276
 10
484.211426
 20
250.542587
 10
485.10202
 20
250.496857
  0
LWPOLYLINE
  5
79
330
73
100
AcDbEntity
  8
0
  6
Continuous
 62
     0
370
     0
100
AcDbPolyline
 90
       13
 70
     0
 43
0.0
 10
485.10202
 20
250.496857
 10
485.974213
 20
250.540817
 10
486.821777
 20
250.669464
 10
487.624908
 20
250.869675
 10
488.371094
 20
251.126053
 10
489.051483
 20
251.420792
 10
489.661316
 20
251.736359
 10
490.197113
 20
252.055328
 10
490.654449
 20
252.359756
 10
491.027008
 20
252.630463
 10
491.305542
 20
252.846893
 10
491.47998
 20
252.988159
 10
491.541687
 20
253.03949
  0
LWPOLYLINE
  5
7A
330
73
100
AcDbEntity
  8
0
  6
Continuous
 62
     0
370
     0
100
AcDbPolyline
 90
       10
 70
     0
 43
0.0
 10
485.101959
 20
255.584106
 10
485.101959
 20
255.506393
 10
485.101959
 20
255.276794
 10
485.101959
 20
254.901337
 10
485.10199
 20
254.392487
 10
485.10199
 20
253.766113
 10
485.10199
 20
253.040985
 10
485.10202
 20
252.238724
 10
485.10202
 20
251.384277
 10
485.10202
 20
250.496857
  0
LINE
  5
7B
330
73
100
AcDbEntity
  8
0
  6
Continuous
 62
     0
370
    30
100
AcDbLine
 10
485.102835
 20
189.584116
 30
0.0
 11
491.602834
 21
189.584202
 31
0.0
  0
LINE
  5
7C
330
73
100
AcDbEntity
  8
0
  6
Continuous
 62
     0
370
    30
100
AcDbLine
 10
478.602845
 20
189.584031
 30
0.0
 11
485.102835
 21
189.584116
 31
0.0
  0
ARC
  5
7D
330
73
100
AcDbEntity
  8
0
  6
Continuous
 62
     0
370
    30
100
AcDbCircle
 10
485.101731
 20
277.584168
 30
0.0
 40
29.99999615613207
100
AcDbArc
 50
89.999627
 51
257.487343
  0
ARC
  5
7E
330
73
100
AcDbEntity
  8
0
  6
Continuous
 62
     0
370
    30
100
AcDbCircle
 10
485.101731
 20
277.584168
 30
0.0
 40
29.99999615613207
100
AcDbArc
 50
282.513974
 51
89.999627
  0
LINE
  5
7F
330
73
100
AcDbEntity
  8
0
  6
Continuous
 62
     0
370
    30
100
AcDbLine
 10
478.602056
 20
249.584031
 30
0.0
 11
478.602845
 21
189.584031
 31
0.0
  0
LINE
  5
80
330
73
100
AcDbEntity
  8
0
  6
Continuous
 62
     0
370
    30
100
AcDbLine
 10
491.602045
 20
249.584202
 30
0.0
 11
491.602834
 21
189.584202
 31
0.0
  0
LWPOLYLINE
  5
81
330
73
100
AcDbEntity
  8
0
  6
Continuous
 62
     0
370
    30
100
AcDbPolyline
 90
       21
 70
     0
 43
0.0
 10
494.407867
 20
257.649261
 10
494.384155
 20
257.638
 10
494.120911
 20
257.502319
 10
493.862671
 20
257.349091
 10
493.614044
 20
257.180695
 10
493.375916
 20
256.997772
 10
493.149231
 20
256.800873
 10
492.934814
 20
256.590637
 10
492.733429
 20
256.367889
 10
492.545746
 20
256.133484
 10
492.372467
 20
255.88826
 10
492.214233
 20
255.633057
 10
492.071625
 20
255.368805
 10
491.945099
 20
255.096466
 10
491.835205
 20
254.817047
 10
491.74234
 20
254.531525
 10
491.666779
 20
254.240936
 10
491.608704
 20
253.94632
 10
491.568329
 20
253.648697
 10
491.545898
 20
253.349182
 10
491.541656
 20
253.039719
  0
LWPOLYLINE
  5
82
330
73
100
AcDbEntity
  8
0
  6
Continuous
 62
     0
370
    30
100
AcDbPolyline
 90
       23
 70
     0
 43
0.0
 10
475.795837
 20
257.649109
 10
475.809204
 20
257.642761
 10
476.037445
 20
257.526978
 10
476.273804
 20
257.3909
 10
476.50235
 20
257.242218
 10
476.722504
 20
257.08139
 10
476.933594
 20
256.908813
 10
477.134918
 20
256.724945
 10
477.325867
 20
256.530304
 10
477.50592
 20
256.325592
 10
477.674591
 20
256.111359
 10
477.83136
 20
255.88826
 10
477.975677
 20
255.656937
 10
478.107178
 20
255.418076
 10
478.225464
 20
255.172424
 10
478.3302
 20
254.920685
 10
478.420959
 20
254.66362
 10
478.497559
 20
254.401978
 10
478.559845
 20
254.136551
 10
478.607635
 20
253.868088
 10
478.640778
 20
253.597366
 10
478.659119
 20
253.325287
 10
478.662354
 20
253.039551
  0
LINE
  5
83
330
73
100
AcDbEntity
  8
0
  6
Continuous
 62
     0
370
    30
100
AcDbLine
 10
491.541697
 20
253.039257
 30
0.0
 11
491.60205
 21
249.584202
 31
0.0
  0
LINE
  5
84
330
73
100
AcDbEntity
  8
0
  6
Continuous
 62
     0
370
    30
100
AcDbLine
 10
478.662313
 20
253.039087
 30
0.0
 11
478.60205
 21
249.584031
 31
0.0
  0
ARC
  5
85
330
73
100
AcDbEntity
  8
0
  6
Continuous
 62
     0
370
    30
100
AcDbCircle
 10
405.101734
 20
97.584684
 30
0.0
 40
10.0
100
AcDbArc
 50
180.0
 51
360.0
  0
LWPOLYLINE
  5
86
330
73
100
AcDbEntity
  8
0
  6
Continuous
 62
     0
370
    30
100
AcDbPolyline
 90
       77
 70
     0
 43
0.0
 10
395.101746
 20
97.584686
 10
395.101746
 20
97.647949
 10
395.101746
 20
97.841454
 10
395.101746
 20
98.170494
 10
395.101746
 20
98.639984
 10
395.101746
 20
99.254379
 10
395.101746
 20
100.017609
 10
395.101746
 20
100.932991
 10
395.101746
 20
102.003181
 10
395.101746
 20
103.230125
 10
395.101746
 20
104.614975
 10
395.101746
 20
106.158035
 10
395.101746
 20
107.858765
 10
395.101746
 20
109.715714
 10
395.101746
 20
111.726501
 10
395.101746
 20
113.88784
 10
395.101746
 20
116.195518
 10
395.101746
 20
118.644424
 10
395.101746
 20
121.228592
 10
395.101746
 20
123.941216
 10
395.101746
 20
126.774765
 10
395.101746
 20
129.721008
 10
395.101746
 20
132.771072
 10
395.101746
 20
135.915634
 10
395.101746
 20
139.144867
 10
395.101746
 20
142.448654
 10
395.101746
 20
145.816666
 10
395.101746
 20
149.238434
 10
395.101746
 20
152.703415
 10
395.101746
 20
156.201233
 10
395.101746
 20
159.721573
 10
395.101746
 20
163.254425
 10
395.101746
 20
166.790085
 10
395.101746
 20
170.319229
 10
395.101746
 20
173.833008
 10
395.101746
 20
177.323059
 10
395.101746
 20
180.78154
 10
395.101746
 20
184.201202
 10
395.101746
 20
187.575378
 10
395.101746
 20
190.94928
 10
395.101746
 20
194.368713
 10
395.101746
 20
197.826996
 10
395.101746
 20
201.316879
 10
395.101746
 20
204.830566
 10
395.101746
 20
208.35965
 10
395.101746
 20
211.895294
 10
395.101746
 20
215.428192
 10
395.101746
 20
218.948639
 10
395.101746
 20
222.446594
 10
395.101746
 20
225.911789
 10
395.101746
 20
229.333817
 10
395.101746
 20
232.702164
 10
395.101746
 20
236.006348
 10
395.101746
 20
239.236023
 10
395.101746
 20
242.381073
 10
395.101746
 20
245.431702
 10
395.101746
 20
248.37854
 10
395.101746
 20
251.212738
 10
395.101746
 20
253.926056
 10
395.101746
 20
256.510956
 10
395.101746
 20
258.960632
 10
395.101746
 20
261.269104
 10
395.101746
 20
263.431274
 10
395.101746
 20
265.442902
 10
395.101746
 20
267.30072
 10
395.101746
 20
269.002319
 10
395.101746
 20
270.546265
 10
395.101746
 20
271.931976
 10
395.101746
 20
273.15979
 10
395.101746
 20
274.230865
 10
395.101746
 20
275.147095
 10
395.101746
 20
275.911163
 10
395.101746
 20
276.526367
 10
395.101746
 20
276.996643
 10
395.101746
 20
277.326477
 10
395.101746
 20
277.520721
 10
395.101746
 20
277.584686
  0
ARC
  5
87
330
73
100
AcDbEntity
  8
0
  6
Continuous
 62
     0
370
    30
100
AcDbCircle
 10
405.101734
 20
277.584684
 30
0.0
 40
9.999999999999966
100
AcDbArc
 50
360.0
 51
180.0
  0
ARC
  5
88
330
73
100
AcDbEntity
  8
0
  6
Continuous
 62
     0
370
    30
100
AcDbCircle
 10
405.101734
 20
277.584692
 30
0.0
 40
30.0
100
AcDbArc
 50
360.0
 51
180.0
  0
ARC
  5
89
330
73
100
AcDbEntity
  8
0
  6
Continuous
 62
     0
370
    30
100
AcDbCircle
 10
405.101734
 20
277.584692
 30
0.0
 40
30.0
100
AcDbArc
 50
289.47122
 51
360.0
  0
ARC
  5
8A
330
73
100
AcDbEntity
  8
0
  6
Continuous
 62
     0
370
    30
100
AcDbCircle
 10
405.101734
 20
277.584692
 30
0.0
 40
30.0
100
AcDbArc
 50
180.0
 51
250.528779
  0
LINE
  5
8B
330
73
100
AcDbEntity
  8
0
  6
Continuous
 62
     0
370
    30
100
AcDbLine
 10
415.101734
 20
97.584687
 30
0.0
 11
415.101734
 21
277.584684
 31
0.0
  0
ENDBLK
  5
8D
330
73
100
AcDbEntity
  8
0
100
AcDbBlockEnd
  0
BLOCK
  5
B7
330
8F
100
AcDbEntity
  8
0
100
AcDbBlockBegin
  2
c
 70
     0
 10
346.228699
 20
94.203629
 30
0.0
  3
c
  1

  0
LINE
  5
90
330
8F
100
AcDbEntity
  8
0
  6
Continuous
 62
     0
370
    30
100
AcDbLine
 10
623.349126
 20
574.126408
 30
0.0
 11
635.349686
 21
574.126414
 31
0.0
  0
LINE
  5
91
330
8F
100
AcDbEntity
  8
0
  6
Continuous
 62
     0
370
    30
100
AcDbLine
 10
623.349126
 20
605.126408
 30
0.0
 11
635.349708
 21
605.126414
 31
0.0
  0
LINE
  5
92
330
8F
100
AcDbEntity
  8
0
  6
Continuous
 62
     0
370
    30
100
AcDbLine
 10
591.349708
 20
605.126445
 30
0.0
 11
603.349126
 21
605.126422
 31
0.0
  0
LINE
  5
93
330
8F
100
AcDbEntity
  8
0
  6
Continuous
 62
     0
370
    30
100
AcDbLine
 10
591.349692
 20
582.32655
 30
0.0
 11
603.349126
 21
577.959079
 31
0.0
  0
LINE
  5
94
330
8F
100
AcDbEntity
  8
0
  6
Continuous
 62
     0
370
    30
100
AcDbLine
 10
635.349686
 20
574.126414
 30
0.0
 11
635.349689
 21
578.643107
 31
0.0
  0
LWPOLYLINE
  5
95
330
8F
100
AcDbEntity
  8
0
  6
Continuous
 62
     0
370
     0
100
AcDbPolyline
 90
       32
 70
     0
 43
0.0
 10
635.34967
 20
578.643127
 10
635.324097
 20
578.719238
 10
635.249207
 20
578.939331
 10
635.130615
 20
579.295471
 10
634.976257
 20
579.775879
 10
634.79541
 20
580.363403
 10
634.597534
 20
581.043579
 10
634.391602
 20
581.80304
 10
634.185669
 20
582.630676
 10
633.987244
 20
583.516296
 10
633.803345
 20
584.450073
 10
633.639954
 20
585.424072
 10
633.502258
 20
586.43103
 10
633.394714
 20
587.463562
 10
633.320801
 20
588.514526
 10
633.282898
 20
589.576538
 10
633.282288
 20
590.642334
 10
633.31897
 20
591.704651
 10
633.391785
 20
592.755981
 10
633.498352
 20
593.789246
 10
633.635132
 20
594.797119
 10
633.797852
 20
595.772339
 10
633.98114
 20
596.707458
 10
634.179077
 20
597.594482
 10
634.38501
 20
598.424561
 10
634.591553
 20
599.187866
 10
634.7901
 20
599.87146
 10
634.971619
 20
600.462097
 10
635.12677
 20
600.945435
 10
635.24646
 20
601.306213
 10
635.322632
 20
601.53064
 10
635.349731
 20
601.609741
  0
LINE
  5
96
330
8F
100
AcDbEntity
  8
0
  6
Continuous
 62
     0
370
    30
100
AcDbLine
 10
635.349706
 20
601.60972
 30
0.0
 11
635.349708
 21
605.126414
 31
0.0
  0
LINE
  5
97
330
8F
100
AcDbEntity
  8
0
  6
Continuous
 62
     0
370
     0
100
AcDbLine
 10
641.349702
 20
596.626409
 30
0.0
 11
641.349693
 21
583.626409
 31
0.0
  0
LWPOLYLINE
  5
98
330
8F
100
AcDbEntity
  8
0
  6
Continuous
 62
     0
370
     0
100
AcDbPolyline
 90
       25
 70
     0
 43
0.0
 10
640.436951
 20
583.642334
 10
640.392944
 20
583.702148
 10
640.264221
 20
583.87793
 10
640.063843
 20
584.160889
 10
639.807251
 20
584.540344
 10
639.512329
 20
585.005615
 10
639.196594
 20
585.548279
 10
638.877441
 20
586.162476
 10
638.572998
 20
586.844177
 10
638.302368
 20
587.589294
 10
638.086121
 20
588.390137
 10
637.945251
 20
589.238525
 10
637.894531
 20
590.113159
 10
637.942322
 20
590.98822
 10
638.080688
 20
591.837769
 10
638.294983
 20
592.640198
 10
638.564331
 20
593.387085
 10
638.868103
 20
594.07074
 10
639.187012
 20
594.687073
 10
639.503052
 20
595.231995
 10
639.79895
 20
595.699646
 10
640.057007
 20
596.081848
 10
640.259399
 20
596.367859
 10
640.390381
 20
596.546997
 10
640.436951
 20
596.610474
  0
ARC
  5
99
330
8F
100
AcDbEntity
  8
0
  6
Continuous
 62
     0
370
    30
100
AcDbCircle
 10
640.349706
 20
601.609717
 30
0.0
 40
4.999999999716745
100
AcDbArc
 50
179.999959
 51
270.999959
  0
ARC
  5
9A
330
8F
100
AcDbEntity
  8
0
  6
Continuous
 62
     0
370
    30
100
AcDbCircle
 10
640.349689
 20
578.643103
 30
0.0
 40
4.999999999828892
100
AcDbArc
 50
88.999959
 51
179.999959
  0
LINE
  5
9B
330
8F
100
AcDbEntity
  8
0
  6
Continuous
 62
     0
370
    30
100
AcDbLine
 10
701.349693
 20
583.626372
 30
0.0
 11
701.349702
 21
596.626361
 31
0.0
  0
LINE
  5
9C
330
8F
100
AcDbEntity
  8
0
  6
Continuous
 62
     0
370
    30
100
AcDbLine
 10
701.349702
 20
596.626361
 30
0.0
 11
641.349702
 21
596.626403
 31
0.0
  0
LINE
  5
9D
330
8F
100
AcDbEntity
  8
0
  6
Continuous
 62
     0
370
    30
100
AcDbLine
 10
635.349685
 20
572.915396
 30
0.0
 11
635.349649
 21
521.915355
 31
0.0
  0
LINE
  5
9E
330
8F
100
AcDbEntity
  8
0
  6
Continuous
 62
     0
370
    30
100
AcDbLine
 10
623.349126
 20
572.915405
 30
0.0
 11
635.349685
 21
572.915396
 31
0.0
  0
LINE
  5
9F
330
8F
100
AcDbEntity
  8
0
  6
Continuous
 62
     0
370
    30
100
AcDbLine
 10
591.349685
 20
572.915428
 30
0.0
 11
603.349126
 21
572.915419
 31
0.0
  0
LINE
  5
A0
330
8F
100
AcDbEntity
  8
0
  6
Continuous
 62
     0
370
    30
100
AcDbLine
 10
591.349649
 20
521.915387
 30
0.0
 11
591.349685
 21
572.915428
 31
0.0
  0
ARC
  5
A1
330
8F
100
AcDbEntity
  8
0
  6
Continuous
 62
     0
370
    30
100
AcDbCircle
 10
613.349745
 20
571.415374
 30
0.0
 40
20.50519694044354
100
AcDbArc
 50
152.354546
 51
175.804793
  0
ARC
  5
A2
330
8F
100
AcDbEntity
  8
0
  6
Continuous
 62
     0
370
    30
100
AcDbCircle
 10
613.349387
 20
571.415361
 30
0.0
 40
20.50543443735297
100
AcDbArc
 50
4.195111
 51
7.597402
  0
LINE
  5
A3
330
8F
100
AcDbEntity
  8
0
  6
Continuous
 62
     0
370
    30
100
AcDbLine
 10
641.349693
 20
583.626415
 30
0.0
 11
701.349693
 21
583.626372
 31
0.0
  0
LINE
  5
A4
330
8F
100
AcDbEntity
  8
0
  6
Continuous
 62
     0
370
    30
100
AcDbLine
 10
591.349692
 20
582.326646
 30
0.0
 11
591.349708
 21
605.126445
 31
0.0
  0
LINE
  5
A5
330
8F
100
AcDbEntity
  8
0
  6
Continuous
 62
     0
370
    30
100
AcDbLine
 10
793.349129
 20
685.415314
 30
0.0
 11
783.349129
 21
685.415314
 31
0.0
  0
LWPOLYLINE
  5
A6
330
8F
100
AcDbEntity
  8
0
  6
Continuous
 62
     0
370
    30
100
AcDbPolyline
 90
       14
 70
     0
 43
0.0
 10
803.349121
 20
685.415344
 10
803.273254
 20
685.415344
 10
803.049072
 20
685.415344
 10
802.686462
 20
685.415344
 10
802.200623
 20
685.415344
 10
801.602112
 20
685.415344
 10
800.874695
 20
685.415344
 10
800.023438
 20
685.415344
 10
799.061707
 20
685.415344
 10
798.008362
 20
685.415344
 10
796.886963
 20
685.415344
 10
795.723877
 20
685.415344
 10
794.546265
 20
685.415344
 10
793.349121
 20
685.415344
  0
LINE
  5
A7
330
8F
100
AcDbEntity
  8
0
  6
Continuous
 62
     0
370
     0
100
AcDbLine
 10
793.349129
 20
705.415314
 30
0.0
 11
783.349129
 21
705.415314
 31
0.0
  0
LINE
  5
A8
330
8F
100
AcDbEntity
  8
0
  6
Continuous
 62
     0
370
     0
100
AcDbLine
 10
803.349129
 20
705.415314
 30
0.0
 11
793.349129
 21
705.415314
 31
0.0
  0
LINE
  5
A9
330
8F
100
AcDbEntity
  8
0
  6
Continuous
 62
     0
370
     0
100
AcDbLine
 10
613.349129
 20
705.415314
 30
0.0
 11
623.349129
 21
705.415314
 31
0.0
  0
LINE
  5
AA
330
8F
100
AcDbEntity
  8
0
  6
Continuous
 62
     0
370
     0
100
AcDbLine
 10
603.349129
 20
705.415314
 30
0.0
 11
613.349129
 21
705.415314
 31
0.0
  0
LINE
  5
AB
330
8F
100
AcDbEntity
  8
0
  6
Continuous
 62
     0
370
    30
100
AcDbLine
 10
583.349129
 20
521.915314
 30
0.0
 11
613.34913
 21
521.915314
 31
0.0
  0
LINE
  5
AC
330
8F
100
AcDbEntity
  8
0
  6
Continuous
 62
     0
370
    30
100
AcDbLine
 10
613.34913
 20
521.915314
 30
0.0
 11
643.349129
 21
521.915314
 31
0.0
  0
LINE
  5
AD
330
8F
100
AcDbEntity
  8
0
  6
Continuous
 62
     0
370
    30
100
AcDbLine
 10
643.349129
 20
517.915314
 30
0.0
 11
613.34913
 21
517.915314
 31
0.0
  0
LINE
  5
AE
330
8F
100
AcDbEntity
  8
0
  6
Continuous
 62
     0
370
    30
100
AcDbLine
 10
613.34913
 20
517.915314
 30
0.0
 11
583.349129
 21
517.915314
 31
0.0
  0
LINE
  5
AF
330
8F
100
AcDbEntity
  8
0
  6
Continuous
 62
     0
370
    30
100
AcDbLine
 10
583.349129
 20
521.915314
 30
0.0
 11
583.349129
 21
517.915314
 31
0.0
  0
LINE
  5
B0
330
8F
100
AcDbEntity
  8
0
  6
Continuous
 62
     0
370
    30
100
AcDbLine
 10
643.349129
 20
521.915314
 30
0.0
 11
643.349129
 21
517.915314
 31
0.0
  0
LINE
  5
B1
330
8F
100
AcDbEntity
  8
0
  6
Continuous
 62
     0
370
    30
100
AcDbLine
 10
623.349129
 20
521.915314
 30
0.0
 11
623.349129
 21
705.415314
 31
0.0
  0
LINE
  5
B2
330
8F
100
AcDbEntity
  8
0
  6
Continuous
 62
     0
370
    30
100
AcDbLine
 10
603.349129
 20
521.915314
 30
0.0
 11
603.349129
 21
705.415314
 31
0.0
  0
ARC
  5
B3
330
8F
100
AcDbEntity
  8
0
  6
Continuous
 62
     0
370
    30
100
AcDbCircle
 10
703.349129
 20
705.414859
 30
0.0
 40
80.00000000129282
100
AcDbArc
 50
0.000326
 51
179.999674
  0
ARC
  5
B4
330
8F
100
AcDbEntity
  8
0
  6
Continuous
 62
     0
370
    30
100
AcDbCircle
 10
703.349129
 20
705.415316
 30
0.0
 40
100.0000000000003
100
AcDbArc
 50
359.999999
 51
180.000001
  0
LINE
  5
B5
330
8F
100
AcDbEntity
  8
0
  6
Continuous
 62
     0
370
    30
100
AcDbLine
 10
783.349129
 20
705.415314
 30
0.0
 11
783.349129
 21
685.415314
 31
0.0
  0
LINE
  5
B6
330
8F
100
AcDbEntity
  8
0
  6
Continuous
 62
     0
370
    30
100
AcDbLine
 10
803.349129
 20
705.415314
 30
0.0
 11
803.349129
 21
685.415314
 31
0.0
  0
ENDBLK
  5
B8
330
8F
100
AcDbEntity
  8
0
100
AcDbBlockEnd
  0
BLOCK
  5
F2
330
BA
100
AcDbEntity
  8
0
100
AcDbBlockBegin
  2
d
 70
     0
 10
346.228699
 20
94.203629
 30
0.0
  3
d
  1

  0
ARC
  5
BB
330
BA
100
AcDbEntity
  8
0
  6
Continuous
 62
     0
370
    30
100
AcDbCircle
 10
778.103819
 20
183.423432
 30
0.0
 40
18.69162669073743
100
AcDbArc
 50
226.142587
 51
234.847816
  0
LWPOLYLINE
  5
BC
330
BA
100
AcDbEntity
  8
0
  6
Continuous
 62
     0
370
    30
100
AcDbPolyline
 90
       18
 70
     0
 43
0.0
 10
767.342102
 20
168.140686
 10
768.69397
 20
167.261475
 10
770.191101
 20
166.441833
 10
771.827454
 20
165.697662
 10
773.592407
 20
165.044708
 10
775.470947
 20
164.497818
 10
777.443787
 20
164.070175
 10
779.487793
 20
163.772537
 10
781.576782
 20
163.612579
 10
783.682678
 20
163.594376
 10
785.776611
 20
163.718201
 10
787.830383
 20
163.980453
 10
789.817505
 20
164.373917
 10
791.714539
 20
164.888245
 10
793.501648
 20
165.51059
 10
795.163391
 20
166.226364
 10
796.688538
 20
167.02005
 10
798.07605
 20
167.879517
  0
LWPOLYLINE
  5
BD
330
BA
100
AcDbEntity
  8
0
  6
Continuous
 62
     0
370
    30
100
AcDbPolyline
 90
       40
 70
     0
 43
0.0
 10
767.342102
 20
190.060989
 10
768.527954
 20
189.282013
 10
769.828186
 20
188.547668
 10
771.239197
 20
187.868958
 10
772.754822
 20
187.256943
 10
774.366089
 20
186.722336
 10
776.061218
 20
186.27507
 10
777.825989
 20
185.923889
 10
779.64386
 20
185.675934
 10
781.496338
 20
185.536407
 10
783.363953
 20
185.508286
 10
785.226562
 20
185.592163
 10
787.064148
 20
185.786255
 10
788.857788
 20
186.086441
 10
790.589783
 20
186.486511
 10
792.244751
 20
186.9785
 10
793.809631
 20
187.552994
 10
795.274109
 20
188.199615
 10
796.630493
 20
188.907471
 10
797.874023
 20
189.665436
 10
799.010437
 20
190.468781
 10
800.082581
 20
191.347794
 10
801.083862
 20
192.306656
 10
801.998657
 20
193.341919
 10
802.811462
 20
194.448212
 10
803.50769
 20
195.618256
 10
804.073914
 20
196.842804
 10
804.498962
 20
198.110931
 10
804.773987
 20
199.410233
 10
804.893127
 20
200.727234
 10
804.853943
 20
202.047852
 10
804.657166
 20
203.357834
 10
804.307007
 20
204.643356
 10
803.810852
 20
205.891388
 10
803.178772
 20
207.09024
 10
802.423096
 20
208.229797
 10
801.557922
 20
209.301758
 10
800.598389
 20
210.299774
 10
799.56012
 20
211.219467
 10
798.454346
 20
212.061295
  0
LWPOLYLINE
  5
BE
330
BA
100
AcDbEntity
  8
0
  6
Continuous
 62
     0
370
    30
100
AcDbPolyline
 90
       40
 70
     0
 43
0.0
 10
798.454346
 20
212.061295
 10
797.268494
 20
212.840271
 10
795.968262
 20
213.574615
 10
794.557251
 20
214.253326
 10
793.041626
 20
214.865341
 10
791.430359
 20
215.399948
 10
789.735229
 20
215.847214
 10
787.970459
 20
216.198395
 10
786.152588
 20
216.44635
 10
784.30011
 20
216.585876
 10
782.432495
 20
216.614014
 10
780.569885
 20
216.530121
 10
778.7323
 20
216.336044
 10
776.93866
 20
216.035858
 10
775.206665
 20
215.635773
 10
773.551697
 20
215.143799
 10
771.986816
 20
214.569305
 10
770.522339
 20
213.922668
 10
769.165955
 20
213.214828
 10
767.922424
 20
212.456863
 10
766.786011
 20
211.653503
 10
765.713867
 20
210.77449
 10
764.712585
 20
209.815628
 10
763.797791
 20
208.78038
 10
762.984985
 20
207.674072
 10
762.288757
 20
206.504044
 10
761.722534
 20
205.279495
 10
761.297485
 20
204.011368
 10
761.022461
 20
202.712067
 10
760.90332
 20
201.39505
 10
760.942505
 20
200.074432
 10
761.139282
 20
198.76445
 10
761.489441
 20
197.478943
 10
761.985596
 20
196.230896
 10
762.617676
 20
195.032043
 10
763.373352
 20
193.892487
 10
764.238525
 20
192.820526
 10
765.198059
 20
191.82251
 10
766.236389
 20
190.902832
 10
767.342102
 20
190.060989
  0
LWPOLYLINE
  5
BF
330
BA
100
AcDbEntity
  8
0
  6
Continuous
 62
     0
370
    30
100
AcDbPolyline
 90
       11
 70
     0
 43
0.0
 10
798.07605
 20
167.879517
 10
799.295654
 20
169.220825
 10
800.41449
 20
170.631088
 10
801.424866
 20
172.100967
 10
802.317078
 20
173.617767
 10
803.083618
 20
175.170914
 10
803.721191
 20
176.75441
 10
804.226318
 20
178.361435
 10
804.59375
 20
179.982224
 10
804.818787
 20
181.606339
 10
804.898193
 20
183.282547
  0
LWPOLYLINE
  5
C0
330
BA
100
AcDbEntity
  8
0
  6
Continuous
 62
     0
370
     0
100
AcDbPolyline
 90
       16
 70
     0
 43
0.0
 10
762.244446
 20
184.074524
 10
762.217285
 20
184.97081
 10
762.228333
 20
185.79454
 10
762.277893
 20
186.538757
 10
762.367554
 20
187.197525
 10
762.500183
 20
187.765808
 10
762.679749
 20
188.239456
 10
762.911133
 20
188.614746
 10
763.200378
 20
188.887939
 10
763.554688
 20
189.05452
 10
763.98114
 20
189.109665
 10
764.485779
 20
189.048523
 10
765.073181
 20
188.86705
 10
765.744507
 20
188.562851
 10
766.494751
 20
188.13649
 10
767.342102
 20
187.57431
  0
LINE
  5
C1
330
BA
100
AcDbEntity
  8
0
  6
Continuous
 62
     0
370
     0
100
AcDbLine
 10
767.342107
 20
171.334463
 30
0.0
 11
767.223977
 21
171.420936
 31
0.0
  0
LWPOLYLINE
  5
C2
330
BA
100
AcDbEntity
  8
0
  6
Continuous
 62
     0
370
     0
100
AcDbPolyline
 90
       31
 70
     0
 43
0.0
 10
767.342102
 20
187.57431
 10
768.136719
 20
186.982315
 10
768.950867
 20
186.320679
 10
769.764893
 20
185.602859
 10
770.560791
 20
184.842667
 10
771.323669
 20
184.053406
 10
772.041016
 20
183.244659
 10
772.704346
 20
182.422974
 10
773.306885
 20
181.592682
 10
773.842285
 20
180.758041
 10
774.305115
 20
179.922791
 10
774.691101
 20
179.089569
 10
774.996277
 20
178.261368
 10
775.217285
 20
177.441727
 10
775.351685
 20
176.634705
 10
775.397827
 20
175.845047
 10
775.355103
 20
175.078125
 10
775.22406
 20
174.339996
 10
775.006287
 20
173.637253
 10
774.704224
 20
172.977081
 10
774.321228
 20
172.367294
 10
773.861206
 20
171.816269
 10
773.328796
 20
171.333221
 10
772.728699
 20
170.928635
 10
772.066162
 20
170.614014
 10
771.349182
 20
170.402451
 10
770.587402
 20
170.307541
 10
769.79248
 20
170.342133
 10
768.978943
 20
170.51799
 10
768.16449
 20
170.842636
 10
767.342102
 20
171.334457
  0
LWPOLYLINE
  5
C3
330
BA
100
AcDbEntity
  8
0
  6
Continuous
 62
     0
370
     0
100
AcDbPolyline
 90
       16
 70
     0
 43
0.0
 10
766.848816
 20
171.144653
 10
767.207458
 20
171.488068
 10
767.466675
 20
171.933334
 10
767.626343
 20
172.457504
 10
767.692566
 20
173.035645
 10
767.674438
 20
173.661697
 10
767.568298
 20
174.369324
 10
767.365479
 20
175.148819
 10
767.062256
 20
175.98082
 10
766.661804
 20
176.839828
 10
766.174316
 20
177.696396
 10
765.616516
 20
178.520355
 10
765.009644
 20
179.284225
 10
764.376892
 20
179.966217
 10
763.741028
 20
180.551941
 10
763.099487
 20
181.050537
  0
LWPOLYLINE
  5
C4
330
BA
100
AcDbEntity
  8
0
  6
Continuous
 62
     0
370
     0
100
AcDbPolyline
 90
        8
 70
     0
 43
0.0
 10
763.099487
 20
181.050537
 10
762.537354
 20
181.413528
 10
761.959595
 20
181.712967
 10
761.380676
 20
181.932419
 10
760.817261
 20
182.057648
 10
760.286987
 20
182.078278
 10
759.806885
 20
181.98938
 10
759.34668
 20
181.76152
  0
LWPOLYLINE
  5
C5
330
BA
100
AcDbEntity
  8
0
  6
Continuous
 62
     0
370
     0
100
AcDbPolyline
 90
        7
 70
     0
 43
0.0
 10
761.205872
 20
183.021194
 10
761.380615
 20
183.051712
 10
761.635071
 20
182.953979
 10
761.986938
 20
182.739319
 10
762.451233
 20
182.417313
 10
763.036499
 20
181.999374
 10
763.744873
 20
181.495651
  0
LWPOLYLINE
  5
C6
330
BA
100
AcDbEntity
  8
0
  6
Continuous
 62
     0
370
     0
100
AcDbPolyline
 90
       18
 70
     0
 43
0.0
 10
763.744873
 20
181.495651
 10
764.376648
 20
181.050491
 10
765.049622
 20
180.579132
 10
765.741577
 20
180.090561
 10
766.434509
 20
179.590576
 10
767.110474
 20
179.082306
 10
767.754578
 20
178.565704
 10
768.353149
 20
178.038284
 10
768.891663
 20
177.496597
 10
769.353882
 20
176.936859
 10
769.720642
 20
176.358566
 10
769.971252
 20
175.761276
 10
770.088989
 20
175.153168
 10
770.061646
 20
174.549316
 10
769.892944
 20
173.967316
 10
769.596802
 20
173.425522
 10
769.1922
 20
172.936218
 10
768.682068
 20
172.496719
  0
LWPOLYLINE
  5
C7
330
BA
100
AcDbEntity
  8
0
  6
Continuous
 62
     0
370
     0
100
AcDbPolyline
 90
       10
 70
     0
 43
0.0
 10
767.342102
 20
187.57431
 10
767.288147
 20
186.923813
 10
767.128845
 20
186.214661
 10
766.868225
 20
185.471222
 10
766.514771
 20
184.716614
 10
766.079346
 20
183.973236
 10
765.574707
 20
183.26297
 10
765.015686
 20
182.60701
 10
764.419189
 20
182.025879
 10
763.744873
 20
181.495651
  0
ARC
  5
C8
330
BA
100
AcDbEntity
  8
0
  6
Continuous
 62
     0
370
     0
100
AcDbCircle
 10
764.048855
 20
171.335744
 30
0.0
 40
3.293252103136436
100
AcDbArc
 50
359.97772
 51
2.944011
  0
ELLIPSE
  5
C9
330
BA
100
AcDbEntity
  8
0
  6
Continuous
 62
     0
370
    30
100
AcDbEllipse
 10
720.673662
 20
146.453918
 30
0.0
 11
-3.752841785103004
 21
5.307174628055639
 31
0.0
210
0.0
220
0.0
230
-0.9999999999999998
 40
0.500006
 41
0.9553223761184051
 42
4.096915029708196
  0
ELLIPSE
  5
CA
330
BA
100
AcDbEntity
  8
0
  6
Continuous
 62
     0
370
    30
100
AcDbEllipse
 10
720.673662
 20
146.453918
 30
0.0
 11
-3.752841785103004
 21
5.307174628055639
 31
0.0
210
0.0
220
0.0
230
-0.9999999999999998
 40
0.500006
 41
4.096915029708196
 42
7.238507683297989
  0
ELLIPSE
  5
CB
330
BA
100
AcDbEntity
  8
0
  6
Continuous
 62
     0
370
    30
100
AcDbEllipse
 10
782.898309
 20
142.222043
 30
0.0
 11
21.99999999997778
 21
3.127880231945659E-5
 31
0.0
210
0.0
220
0.0
230
-0.9999999999999999
 40
0.707107
 41
6.283185283721175
 42
8.639387306607787
  0
ELLIPSE
  5
CC
330
BA
100
AcDbEntity
  8
0
  6
Continuous
 62
     0
370
    30
100
AcDbEllipse
 10
782.898309
 20
142.222043
 30
0.0
 11
21.99999999997778
 21
3.127880231945659E-5
 31
0.0
210
0.0
220
0.0
230
-0.9999999999999999
 40
0.707107
 41
2.356201999428203
 42
3.141592630131383
  0
ELLIPSE
  5
CD
330
BA
100
AcDbEntity
  8
0
  6
Continuous
 62
     0
370
    30
100
AcDbEllipse
 10
782.898257
 20
178.284516
 30
0.0
 11
-21.99999999997778
 21
-3.127880231945659E-5
 31
0.0
210
0.0
220
0.0
230
0.9999999999999999
 40
0.707107
 41
0.5929018616418755
 42
0.7853906541615912
  0
ELLIPSE
  5
CE
330
BA
100
AcDbEntity
  8
0
  6
Continuous
 62
     0
370
    30
100
AcDbEllipse
 10
782.898257
 20
178.284516
 30
0.0
 11
-21.99999999997778
 21
-3.127880231945659E-5
 31
0.0
210
0.0
220
0.0
230
0.9999999999999999
 40
0.707107
 41
0.7853906541615912
 42
3.283206306687227
  0
ELLIPSE
  5
CF
330
BA
100
AcDbEntity
  8
0
  6
Continuous
 62
     0
370
    30
100
AcDbEllipse
 10
782.898309
 20
142.222043
 30
0.0
 11
29.99999615610175
 21
4.265290678540169E-5
 31
0.0
210
0.0
220
0.0
230
-0.9999999999999999
 40
0.707107
 41
2.356201999428396
 42
3.889176841595546
  0
ELLIPSE
  5
D0
330
BA
100
AcDbEntity
  8
0
  6
Continuous
 62
     0
370
    30
100
AcDbEllipse
 10
782.898309
 20
142.222043
 30
0.0
 11
29.99999615610175
 21
4.265290678540169E-5
 31
0.0
210
0.0
220
0.0
230
-0.9999999999999999
 40
0.707107
 41
5.535601072257013
 42
8.639387306607983
  0
ELLIPSE
  5
D1
330
BA
100
AcDbEntity
  8
0
  6
Continuous
 62
     0
370
    30
100
AcDbEllipse
 10
782.898313
 20
139.393616
 30
0.0
 11
29.99999615610175
 21
4.265290678540169E-5
 31
0.0
210
0.0
220
0.0
230
-0.9999999999999999
 40
0.707107
 41
2.356201999428397
 42
3.141592630131382
  0
ELLIPSE
  5
D2
330
BA
100
AcDbEntity
  8
0
  6
Continuous
 62
     0
370
    30
100
AcDbEllipse
 10
782.898313
 20
139.393616
 30
0.0
 11
29.99999615610175
 21
4.265290678540169E-5
 31
0.0
210
0.0
220
0.0
230
-0.9999999999999999
 40
0.707107
 41
6.283185283721173
 42
8.639387306607983
  0
LINE
  5
D3
330
BA
100
AcDbEntity
  8
0
  6
Continuous
 62
     0
370
    30
100
AcDbLine
 10
752.898317
 20
139.393573
 30
0.0
 11
752.898313
 21
142.222
 31
0.0
  0
LINE
  5
D4
330
BA
100
AcDbEntity
  8
0
  6
Continuous
 62
     0
370
    30
100
AcDbLine
 10
812.898309
 20
139.393659
 30
0.0
 11
812.898305
 21
142.222086
 31
0.0
  0
LINE
  5
D5
330
BA
100
AcDbEntity
  8
0
  6
Continuous
 62
     0
370
    30
100
AcDbLine
 10
804.898309
 20
142.222074
 30
0.0
 11
804.898257
 21
178.284548
 31
0.0
  0
LINE
  5
D6
330
BA
100
AcDbEntity
  8
0
  6
Continuous
 62
     0
370
    30
100
AcDbLine
 10
760.898309
 20
142.222011
 30
0.0
 11
760.898274
 21
166.936883
 31
0.0
  0
LINE
  5
D7
330
BA
100
AcDbEntity
  8
0
  6
Continuous
 62
     0
370
    30
100
AcDbLine
 10
759.346669
 20
181.761519
 30
0.0
 11
716.92082
 21
151.761093
 31
0.0
  0
LINE
  5
D8
330
BA
100
AcDbEntity
  8
0
  6
Continuous
 62
     0
370
    30
100
AcDbLine
 10
766.852353
 20
171.14717
 30
0.0
 11
724.426504
 21
141.146744
 31
0.0
  0
LWPOLYLINE
  5
D9
330
BA
100
AcDbEntity
  8
0
  6
Continuous
 62
     0
370
    30
100
AcDbPolyline
 90
        8
 70
     0
 43
0.0
 10
762.565979
 20
184.770905
 10
762.550964
 20
184.714798
 10
762.492737
 20
184.550171
 10
762.375488
 20
184.299088
 10
762.192322
 20
183.995712
 10
761.942261
 20
183.672058
 10
761.630249
 20
183.35437
 10
761.209229
 20
183.023468
  0
LINE
  5
DA
330
BA
100
AcDbEntity
  8
0
  6
Continuous
 62
     0
370
    30
100
AcDbLine
 10
768.696987
 20
172.507721
 30
0.0
 11
766.878908
 21
171.166345
 31
0.0
  0
LINE
  5
DB
330
BA
100
AcDbEntity
  8
0
  6
Continuous
 62
     0
370
    30
100
AcDbLine
 10
761.209145
 20
183.023409
 30
0.0
 11
759.373599
 21
181.780165
 31
0.0
  0
LINE
  5
DC
330
BA
100
AcDbEntity
  8
0
  6
Continuous
 62
     0
370
    30
100
AcDbLine
 10
804.89825
 20
183.28071
 30
0.0
 11
804.898225
 21
201.047768
 31
0.0
  0
LINE
  5
DD
330
BA
100
AcDbEntity
  8
0
  6
Continuous
 62
     0
370
    30
100
AcDbLine
 10
760.898251
 20
182.812835
 30
0.0
 11
760.898225
 21
201.061113
 31
0.0
  0
LWPOLYLINE
  5
DE
330
BA
100
AcDbEntity
  8
0
  6
Continuous
 62
     0
370
    30
100
AcDbPolyline
 90
        8
 70
     0
 43
0.0
 10
609.050903
 20
207.846405
 10
608.984375
 20
207.019897
 10
608.783508
 20
206.209961
 10
608.456299
 20
205.432312
 10
608.01532
 20
204.700607
 10
607.476501
 20
204.025681
 10
606.857727
 20
203.415283
 10
606.122009
 20
202.834213
  0
LWPOLYLINE
  5
DF
330
BA
100
AcDbEntity
  8
0
  6
Continuous
 62
     0
370
    30
100
AcDbPolyline
 90
       20
 70
     0
 43
0.0
 10
606.122009
 20
202.834213
 10
605.222595
 20
202.270477
 10
604.20813
 20
201.776031
 10
603.095459
 20
201.36731
 10
601.90741
 20
201.05777
 10
600.671387
 20
200.856613
 10
599.417236
 20
200.767899
 10
598.174866
 20
200.790329
 10
596.972168
 20
200.917618
 10
595.821594
 20
201.141998
 10
594.693359
 20
201.469803
 10
593.608337
 20
201.902161
 10
592.595154
 20
202.434082
 10
591.680237
 20
203.055481
 10
590.885925
 20
203.751785
 10
590.228638
 20
204.505005
 10
589.717773
 20
205.295303
 10
589.355286
 20
206.10289
 10
589.131042
 20
206.940781
 10
589.050903
 20
207.834213
  0
ELLIPSE
  5
E0
330
BA
100
AcDbEntity
  8
0
  6
Continuous
 62
     0
370
     0
100
AcDbEllipse
 10
599.050918
 20
221.976351
 30
0.0
 11
10.0
 21
0.0
 31
0.0
210
0.0
220
0.0
230
-1.0
 40
0.707107
 41
6.283185283721247
 42
7.068583474007142
  0
ELLIPSE
  5
E1
330
BA
100
AcDbEntity
  8
0
  6
Continuous
 62
     0
370
     0
100
AcDbEllipse
 10
599.050918
 20
221.976351
 30
0.0
 11
10.0
 21
0.0
 31
0.0
210
0.0
220
0.0
230
-1.0
 40
0.707107
 41
0.7853981668275564
 42
3.141599418566656
  0
LWPOLYLINE
  5
E2
330
BA
100
AcDbEntity
  8
0
  6
Continuous
 62
     0
370
     0
100
AcDbPolyline
 90
       21
 70
     0
 43
0.0
 10
716.330139
 20
311.976349
 10
716.40686
 20
311.10202
 10
716.633606
 20
310.247559
 10
717.000244
 20
309.431427
 10
717.491211
 20
308.669312
 10
718.086914
 20
307.973267
 10
718.765808
 20
307.351379
 10
719.509277
 20
306.805481
 10
720.350586
 20
306.308685
 10
721.299438
 20
305.865204
 10
722.346375
 20
305.490601
 10
723.476257
 20
305.199341
 10
724.668579
 20
305.003571
 10
725.898438
 20
304.911865
 10
727.138184
 20
304.928406
 10
728.359497
 20
305.052429
 10
729.535278
 20
305.27832
 10
730.641846
 20
305.596344
 10
731.660278
 20
305.9935
 10
732.577209
 20
306.454834
 10
733.401184
 20
306.976349
  0
LWPOLYLINE
  5
E3
330
BA
100
AcDbEntity
  8
0
  6
Continuous
 62
     0
370
     0
100
AcDbPolyline
 90
        8
 70
     0
 43
0.0
 10
733.401184
 20
306.976349
 10
734.083618
 20
307.510742
 10
734.706665
 20
308.114105
 10
735.251648
 20
308.782135
 10
735.700806
 20
309.507477
 10
736.037964
 20
310.279602
 10
736.250427
 20
311.085205
 10
736.330139
 20
311.976349
  0
LWPOLYLINE
  5
E4
330
BA
100
AcDbEntity
  8
0
  6
Continuous
 62
     0
370
    30
100
AcDbPolyline
 90
        8
 70
     0
 43
0.0
 10
733.401184
 20
177.22226
 10
734.083618
 20
177.756668
 10
734.706665
 20
178.360001
 10
735.251648
 20
179.02803
 10
735.700806
 20
179.753387
 10
736.037964
 20
180.525513
 10
736.250427
 20
181.331116
 10
736.330139
 20
182.22226
  0
LWPOLYLINE
  5
E5
330
BA
100
AcDbEntity
  8
0
  6
Continuous
 62
     0
370
    30
100
AcDbPolyline
 90
       21
 70
     0
 43
0.0
 10
716.330139
 20
182.22226
 10
716.40686
 20
181.347916
 10
716.633606
 20
180.493469
 10
717.000244
 20
179.677338
 10
717.491211
 20
178.915207
 10
718.086914
 20
178.219162
 10
718.765808
 20
177.597305
 10
719.509277
 20
177.051392
 10
720.350586
 20
176.554596
 10
721.299438
 20
176.111115
 10
722.346375
 20
175.736511
 10
723.476257
 20
175.445267
 10
724.668579
 20
175.249481
 10
725.898438
 20
175.157791
 10
727.138184
 20
175.174316
 10
728.359497
 20
175.298325
 10
729.535278
 20
175.524231
 10
730.641846
 20
175.842255
 10
731.660278
 20
176.239395
 10
732.577209
 20
176.700745
 10
733.401184
 20
177.22226
  0
ELLIPSE
  5
E6
330
BA
100
AcDbEntity
  8
0
  6
Continuous
 62
     0
370
    30
100
AcDbEllipse
 10
726.330139
 20
182.222264
 30
0.0
 11
-30.0
 21
0.0
 31
0.0
210
0.0
220
0.0
230
1.0
 40
0.707107
 41
5.05222591329711
 42
5.497787143782138
  0
ELLIPSE
  5
E7
330
BA
100
AcDbEntity
  8
0
  6
Continuous
 62
     0
370
    30
100
AcDbEllipse
 10
726.330139
 20
182.222264
 30
0.0
 11
-30.0
 21
0.0
 31
0.0
210
0.0
220
0.0
230
1.0
 40
0.707107
 41
3.010341084531047
 42
4.372552094388869
  0
ELLIPSE
  5
E8
330
BA
100
AcDbEntity
  8
0
  6
Continuous
 62
     0
370
    30
100
AcDbEllipse
 10
726.330139
 20
182.222264
 30
0.0
 11
-30.0
 21
0.0
 31
0.0
210
0.0
220
0.0
230
1.0
 40
0.707107
 41
5.497787143782138
 42
7.98526051353959
  0
ELLIPSE
  5
E9
330
BA
100
AcDbEntity
  8
0
  6
Continuous
 62
     0
370
    30
100
AcDbEllipse
 10
726.330139
 20
179.393837
 30
0.0
 11
30.0
 21
0.0
 31
0.0
210
0.0
220
0.0
230
-1.0
 40
0.707107
 41
1.581768371631775
 42
3.141592630131495
  0
LINE
  5
EA
330
BA
100
AcDbEntity
  8
0
  6
Continuous
 62
     0
370
    30
100
AcDbLine
 10
756.330139
 20
182.222265
 30
0.0
 11
756.330139
 21
179.628447
 31
0.0
  0
LINE
  5
EB
330
BA
100
AcDbEntity
  8
0
  6
Continuous
 62
     0
370
    30
100
AcDbLine
 10
696.330139
 20
182.222264
 30
0.0
 11
696.330139
 21
179.393836
 31
0.0
  0
LINE
  5
EC
330
BA
100
AcDbEntity
  8
0
  6
Continuous
 62
     0
370
    30
100
AcDbLine
 10
716.330139
 20
182.222264
 30
0.0
 11
716.330139
 21
311.976354
 31
0.0
  0
LINE
  5
ED
330
BA
100
AcDbEntity
  8
0
  6
Continuous
 62
     0
370
    30
100
AcDbLine
 10
736.330139
 20
182.222264
 30
0.0
 11
736.330139
 21
311.976354
 31
0.0
  0
LWPOLYLINE
  5
EE
330
BA
100
AcDbEntity
  8
0
  6
Continuous
 62
     0
370
    30
100
AcDbPolyline
 90
       73
 70
     0
 43
0.0
 10
609.050903
 20
221.976349
 10
609.102905
 20
224.380142
 10
609.260315
 20
226.885269
 10
609.525024
 20
229.483917
 10
609.898132
 20
232.168396
 10
610.380005
 20
234.93103
 10
610.970642
 20
237.76416
 10
611.669678
 20
240.660263
 10
612.476074
 20
243.611954
 10
613.388794
 20
246.611832
 10
614.40625
 20
249.652725
 10
615.526367
 20
252.7276
 10
616.747009
 20
255.829453
 10
618.06604
 20
258.951294
 10
619.481079
 20
262.086182
 10
620.989075
 20
265.227478
 10
622.586975
 20
268.368561
 10
624.271667
 20
271.502838
 10
626.040039
 20
274.623688
 10
627.888428
 20
277.724792
 10
629.813049
 20
280.799835
 10
631.81012
 20
283.842651
 10
633.875732
 20
286.846924
 10
636.005798
 20
289.806641
 10
638.195862
 20
292.715973
 10
640.441528
 20
295.569122
 10
642.73822
 20
298.360291
 10
645.08136
 20
301.083771
 10
647.466125
 20
303.734131
 10
649.887329
 20
306.306183
 10
652.339905
 20
308.794678
 10
654.818787
 20
311.194366
 10
657.31842
 20
313.500397
 10
659.833191
 20
315.708191
 10
662.357483
 20
317.81311
 10
664.885498
 20
319.810608
 10
667.411194
 20
321.696533
 10
669.928101
 20
323.467316
 10
672.429749
 20
325.119263
 10
674.909668
 20
326.648804
 10
677.361145
 20
328.052704
 10
679.776855
 20
329.328522
 10
682.149475
 20
330.473969
 10
684.471375
 20
331.487457
 10
686.734741
 20
332.367828
 10
688.931458
 20
333.114838
 10
691.053467
 20
333.728821
 10
693.092651
 20
334.21167
 10
695.041016
 20
334.565979
 10
696.891357
 20
334.795563
 10
698.637207
 20
334.906067
 10
700.273438
 20
334.903931
 10
701.79718
 20
334.79715
 10
703.207886
 20
334.594025
 10
704.50885
 20
334.303009
 10
705.705383
 20
333.931671
 10
706.807312
 20
333.484619
 10
707.825684
 20
332.964905
 10
708.773132
 20
332.369873
 10
709.662231
 20
331.69455
 10
710.502075
 20
330.929962
 10
711.2995
 20
330.064819
 10
712.057922
 20
329.087891
 10
712.775635
 20
327.988129
 10
713.448792
 20
326.756592
 10
714.070312
 20
325.388306
 10
714.632507
 20
323.879059
 10
715.127136
 20
322.228455
 10
715.545898
 20
320.438934
 10
715.881653
 20
318.514557
 10
716.127686
 20
316.460205
 10
716.278687
 20
314.282318
 10
716.330139
 20
311.976349
  0
LWPOLYLINE
  5
EF
330
BA
100
AcDbEntity
  8
0
  6
Continuous
 62
     0
370
    30
100
AcDbPolyline
 90
       87
 70
     0
 43
0.0
 10
736.330139
 20
311.976349
 10
736.280884
 20
314.639893
 10
736.132019
 20
317.254059
 10
735.88208
 20
319.816498
 10
735.529358
 20
322.324951
 10
735.072021
 20
324.776917
 10
734.507996
 20
327.169495
 10
733.835205
 20
329.499908
 10
733.05188
 20
331.764435
 10
732.156311
 20
333.958405
 10
731.146912
 20
336.077118
 10
730.022339
 20
338.11554
 10
728.782349
 20
340.06723
 10
727.42749
 20
341.925323
 10
725.959351
 20
343.682465
 10
724.380676
 20
345.331268
 10
722.69635
 20
346.864655
 10
720.911621
 20
348.275543
 10
719.032898
 20
349.557892
 10
717.067932
 20
350.706757
 10
715.024902
 20
351.718506
 10
712.912292
 20
352.590759
 10
710.738098
 20
353.322754
 10
708.510193
 20
353.914581
 10
706.235535
 20
354.367676
 10
703.920288
 20
354.684143
 10
701.569885
 20
354.866547
 10
699.188721
 20
354.917969
 10
696.780579
 20
354.841492
 10
694.348267
 20
354.640198
 10
691.894592
 20
354.317169
 10
689.421448
 20
353.875183
 10
686.930786
 20
353.316895
 10
684.424255
 20
352.644836
 10
681.903503
 20
351.861298
 10
679.370056
 20
350.968445
 10
676.8255
 20
349.968292
 10
674.271667
 20
348.862885
 10
671.710266
 20
347.654114
 10
669.14325
 20
346.343964
 10
666.572632
 20
344.934296
 10
664.000549
 20
343.427094
 10
661.42926
 20
341.824432
 10
658.861206
 20
340.128326
 10
656.298767
 20
338.341003
 10
653.744629
 20
336.464722
 10
651.201416
 20
334.501801
 10
648.671753
 20
332.454773
 10
646.158569
 20
330.326233
 10
643.664612
 20
328.118774
 10
641.192749
 20
325.835205
 10
638.745911
 20
323.478424
 10
636.326965
 20
321.051361
 10
633.938904
 20
318.557251
 10
631.584595
 20
315.999329
 10
629.267029
 20
313.380829
 10
626.989014
 20
310.704987
 10
624.753418
 20
307.975311
 10
622.56311
 20
305.195374
 10
620.420898
 20
302.368744
 10
618.329468
 20
299.499084
 10
616.291565
 20
296.590088
 10
614.309814
 20
293.645508
 10
612.38678
 20
290.669128
 10
610.524963
 20
287.664795
 10
608.726746
 20
284.636353
 10
606.994507
 20
281.587616
 10
605.330444
 20
278.522461
 10
603.736816
 20
275.444733
 10
602.215698
 20
272.358276
 10
600.768982
 20
269.266846
 10
599.398743
 20
266.174286
 10
598.106628
 20
263.08429
 10
596.894409
 20
260.000488
 10
595.763733
 20
256.926544
 10
594.716187
 20
253.865936
 10
593.753113
 20
250.822159
 10
592.876038
 20
247.798553
 10
592.086121
 20
244.798294
 10
591.384705
 20
241.824509
 10
590.77301
 20
238.880264
 10
590.252136
 20
235.968445
 10
589.823242
 20
233.091843
 10
589.487549
 20
230.252991
 10
589.246094
 20
227.454285
 10
589.100159
 20
224.698166
 10
589.050903
 20
221.976303
  0
LINE
  5
F0
330
BA
100
AcDbEntity
  8
0
  6
Continuous
 62
     0
370
    30
100
AcDbLine
 10
609.050918
 20
221.976351
 30
0.0
 11
609.050918
 21
207.834216
 31
0.0
  0
LINE
  5
F1
330
BA
100
AcDbEntity
  8
0
  6
Continuous
 62
     0
370
    30
100
AcDbLine
 10
589.050918
 20
221.976351
 30
0.0
 11
589.050918
 21
207.834216
 31
0.0
  0
ENDBLK
  5
F3
330
BA
100
AcDbEntity
  8
0
100
AcDbBlockEnd
  0
BLOCK
  5
11A
330
F5
100
AcDbEntity
  8
0
100
AcDbBlockBegin
  2
e
 70
     0
 10
320.923767
 20
0.0
 30
0.0
  3
e
  1

  0
LINE
  5
F6
330
F5
100
AcDbEntity
  8
0
  6
Continuous
 62
     0
370
    30
100
AcDbLine
 10
220.841004
 20
574.126368
 30
0.0
 11
242.311977
 21
574.126399
 31
0.0
  0
LINE
  5
F7
330
F5
100
AcDbEntity
  8
0
  6
Continuous
 62
     0
370
    30
100
AcDbLine
 10
220.840981
 20
605.126368
 30
0.0
 11
264.840981
 21
605.126399
 31
0.0
  0
LINE
  5
F8
330
F5
100
AcDbEntity
  8
0
  6
Continuous
 62
     0
370
    30
100
AcDbLine
 10
242.311977
 20
574.126399
 30
0.0
 11
264.840998
 21
582.326504
 31
0.0
  0
LINE
  5
F9
330
F5
100
AcDbEntity
  8
0
  6
Continuous
 62
     0
370
    30
100
AcDbLine
 10
220.841004
 20
574.126368
 30
0.0
 11
220.841
 21
578.643061
 31
0.0
  0
LINE
  5
FA
330
F5
100
AcDbEntity
  8
0
  6
Continuous
 62
     0
370
    30
100
AcDbLine
 10
220.840984
 20
601.609674
 30
0.0
 11
220.840981
 21
605.126368
 31
0.0
  0
LWPOLYLINE
  5
FB
330
F5
100
AcDbEntity
  8
0
  6
Continuous
 62
     0
370
     0
100
AcDbPolyline
 90
       32
 70
     0
 43
0.0
 10
220.840988
 20
601.60968
 10
220.866623
 20
601.533569
 10
220.941528
 20
601.313477
 10
221.06015
 20
600.957336
 10
221.214523
 20
600.476929
 10
221.395416
 20
599.889404
 10
221.593292
 20
599.209167
 10
221.799271
 20
598.449768
 10
222.005203
 20
597.622131
 10
222.203629
 20
596.736511
 10
222.387527
 20
595.802734
 10
222.550964
 20
594.828674
 10
222.68869
 20
593.821777
 10
222.796219
 20
592.789185
 10
222.870163
 20
591.738281
 10
222.908035
 20
590.67627
 10
222.908646
 20
589.610413
 10
222.871933
 20
588.548157
 10
222.799118
 20
587.496765
 10
222.692612
 20
586.463562
 10
222.555786
 20
585.455688
 10
222.393051
 20
584.480408
 10
222.209732
 20
583.545349
 10
222.011795
 20
582.658325
 10
221.805878
 20
581.828186
 10
221.599289
 20
581.064941
 10
221.400742
 20
580.381287
 10
221.219208
 20
579.79071
 10
221.064011
 20
579.307373
 10
220.94429
 20
578.946594
 10
220.868088
 20
578.722168
 10
220.841003
 20
578.643066
  0
LINE
  5
FC
330
F5
100
AcDbEntity
  8
0
  6
Continuous
 62
     0
370
    30
100
AcDbLine
 10
215.753726
 20
596.610432
 30
0.0
 11
214.840988
 21
596.626364
 31
0.0
  0
LINE
  5
FD
330
F5
100
AcDbEntity
  8
0
  6
Continuous
 62
     0
370
     0
100
AcDbLine
 10
214.840997
 20
583.626364
 30
0.0
 11
214.840988
 21
596.626364
 31
0.0
  0
LWPOLYLINE
  5
FE
330
F5
100
AcDbEntity
  8
0
  6
Continuous
 62
     0
370
     0
100
AcDbPolyline
 90
       25
 70
     0
 43
0.0
 10
215.753723
 20
596.610413
 10
215.797745
 20
596.550598
 10
215.926514
 20
596.374878
 10
216.126907
 20
596.091919
 10
216.383499
 20
595.712402
 10
216.678467
 20
595.247192
 10
216.994232
 20
594.704529
 10
217.313354
 20
594.090332
 10
217.617844
 20
593.40863
 10
217.888504
 20
592.663513
 10
218.104721
 20
591.862671
 10
218.24559
 20
591.014282
 10
218.296356
 20
590.139587
 10
218.24852
 20
589.264526
 10
218.110168
 20
588.414978
 10
217.895889
 20
587.612549
 10
217.626541
 20
586.865662
 10
217.322754
 20
586.182007
 10
217.00383
 20
585.565735
 10
216.687714
 20
585.020813
 10
216.391846
 20
584.553101
 10
216.133759
 20
584.170898
 10
215.931366
 20
583.884888
 10
215.800354
 20
583.70575
 10
215.753738
 20
583.642273
  0
ARC
  5
FF
330
F5
100
AcDbEntity
  8
0
  6
Continuous
 62
     0
370
    30
100
AcDbCircle
 10
215.840984
 20
601.609671
 30
0.0
 40
4.999999999720037
100
AcDbArc
 50
269.000041
 51
0.000041
  0
ARC
  5
100
330
F5
100
AcDbEntity
  8
0
  6
Continuous
 62
     0
370
    30
100
AcDbCircle
 10
215.841
 20
578.643058
 30
0.0
 40
4.999999999831644
100
AcDbArc
 50
0.000041
 51
91.000041
  0
LINE
  5
101
330
F5
100
AcDbEntity
  8
0
  6
Continuous
 62
     0
370
    30
100
AcDbLine
 10
154.840988
 20
596.626315
 30
0.0
 11
154.840997
 21
583.626327
 31
0.0
  0
LINE
  5
102
330
F5
100
AcDbEntity
  8
0
  6
Continuous
 62
     0
370
    30
100
AcDbLine
 10
154.840988
 20
596.626315
 30
0.0
 11
214.840988
 21
596.626358
 31
0.0
  0
LINE
  5
103
330
F5
100
AcDbEntity
  8
0
  6
Continuous
 62
     0
370
    30
100
AcDbLine
 10
220.841004
 20
572.915351
 30
0.0
 11
220.841041
 21
521.91531
 31
0.0
  0
LINE
  5
104
330
F5
100
AcDbEntity
  8
0
  6
Continuous
 62
     0
370
    30
100
AcDbLine
 10
220.841004
 20
572.915351
 30
0.0
 11
264.841004
 21
572.915382
 31
0.0
  0
LINE
  5
105
330
F5
100
AcDbEntity
  8
0
  6
Continuous
 62
     0
370
    30
100
AcDbLine
 10
272.841037
 20
521.915347
 30
0.0
 11
212.841044
 21
521.915304
 31
0.0
  0
LINE
  5
106
330
F5
100
AcDbEntity
  8
0
  6
Continuous
 62
     0
370
    30
100
AcDbLine
 10
272.841037
 20
521.915347
 30
0.0
 11
272.84104
 21
517.915347
 31
0.0
  0
LINE
  5
107
330
F5
100
AcDbEntity
  8
0
  6
Continuous
 62
     0
370
    30
100
AcDbLine
 10
272.84104
 20
517.915347
 30
0.0
 11
212.841047
 21
517.915305
 31
0.0
  0
LINE
  5
108
330
F5
100
AcDbEntity
  8
0
  6
Continuous
 62
     0
370
    30
100
AcDbLine
 10
212.841047
 20
517.915305
 30
0.0
 11
212.841044
 21
521.915304
 31
0.0
  0
LINE
  5
109
330
F5
100
AcDbEntity
  8
0
  6
Continuous
 62
     0
370
    30
100
AcDbLine
 10
264.841041
 20
521.915341
 30
0.0
 11
264.841004
 21
572.915382
 31
0.0
  0
ARC
  5
10A
330
F5
100
AcDbEntity
  8
0
  6
Continuous
 62
     0
370
    30
100
AcDbCircle
 10
242.840945
 20
571.415328
 30
0.0
 40
20.50519694044399
100
AcDbArc
 50
4.195207
 51
27.645454
  0
ARC
  5
10B
330
F5
100
AcDbEntity
  8
0
  6
Continuous
 62
     0
370
    30
100
AcDbCircle
 10
242.841303
 20
571.415316
 30
0.0
 40
20.50543443734626
100
AcDbArc
 50
172.402598
 51
175.804889
  0
LINE
  5
10C
330
F5
100
AcDbEntity
  8
0
  6
Continuous
 62
     0
370
    30
100
AcDbLine
 10
214.840997
 20
583.626369
 30
0.0
 11
154.840997
 21
583.626327
 31
0.0
  0
LINE
  5
10D
330
F5
100
AcDbEntity
  8
0
  6
Continuous
 62
     0
370
    30
100
AcDbLine
 10
264.840998
 20
582.3266
 30
0.0
 11
264.840981
 21
605.126399
 31
0.0
  0
LINE
  5
10E
330
F5
100
AcDbEntity
  8
0
  6
Continuous
 62
     0
370
    30
100
AcDbLine
 10
72.841568
 20
685.415268
 30
0.0
 11
62.841568
 21
685.415268
 31
0.0
  0
LINE
  5
10F
330
F5
100
AcDbEntity
  8
0
  6
Continuous
 62
     0
370
    30
100
AcDbLine
 10
62.841568
 20
685.415268
 30
0.0
 11
52.841568
 21
685.415268
 31
0.0
  0
LINE
  5
110
330
F5
100
AcDbEntity
  8
0
  6
Continuous
 62
     0
370
     0
100
AcDbLine
 10
72.841568
 20
705.415268
 30
0.0
 11
62.841568
 21
705.415268
 31
0.0
  0
LINE
  5
111
330
F5
100
AcDbEntity
  8
0
  6
Continuous
 62
     0
370
     0
100
AcDbLine
 10
62.841568
 20
705.415268
 30
0.0
 11
52.841568
 21
705.415268
 31
0.0
  0
LWPOLYLINE
  5
112
330
F5
100
AcDbEntity
  8
0
  6
Continuous
 62
     0
370
     0
100
AcDbPolyline
 90
       14
 70
     0
 43
0.0
 10
232.841568
 20
705.415283
 10
232.902969
 20
705.415283
 10
233.09639
 20
705.415283
 10
233.432632
 20
705.415283
 10
233.917313
 20
705.415283
 10
234.549561
 20
705.415283
 10
235.321274
 20
705.415283
 10
236.217194
 20
705.415283
 10
237.215866
 20
705.415283
 10
238.29126
 20
705.415283
 10
239.415039
 20
705.415283
 10
240.558777
 20
705.415283
 10
241.69603
 20
705.415283
 10
242.841568
 20
705.415283
  0
LINE
  5
113
330
F5
100
AcDbEntity
  8
0
  6
Continuous
 62
     0
370
     0
100
AcDbLine
 10
242.841568
 20
705.415268
 30
0.0
 11
252.841568
 21
705.415268
 31
0.0
  0
LINE
  5
114
330
F5
100
AcDbEntity
  8
0
  6
Continuous
 62
     0
370
    30
100
AcDbLine
 10
232.841568
 20
605.12639
 30
0.0
 11
232.841568
 21
705.415268
 31
0.0
  0
LINE
  5
115
330
F5
100
AcDbEntity
  8
0
  6
Continuous
 62
     0
370
    30
100
AcDbLine
 10
252.841568
 20
605.126404
 30
0.0
 11
252.841568
 21
705.415268
 31
0.0
  0
ARC
  5
116
330
F5
100
AcDbEntity
  8
0
  6
Continuous
 62
     0
370
    30
100
AcDbCircle
 10
152.841568
 20
705.414814
 30
0.0
 40
80.00000000129279
100
AcDbArc
 50
0.000326
 51
179.999674
  0
ARC
  5
117
330
F5
100
AcDbEntity
  8
0
  6
Continuous
 62
     0
370
    30
100
AcDbCircle
 10
152.841568
 20
705.41527
 30
0.0
 40
100.0000000000002
100
AcDbArc
 50
359.999999
 51
180.000001
  0
LINE
  5
118
330
F5
100
AcDbEntity
  8
0
  6
Continuous
 62
     0
370
    30
100
AcDbLine
 10
72.841568
 20
705.415268
 30
0.0
 11
72.841568
 21
685.415268
 31
0.0
  0
LINE
  5
119
330
F5
100
AcDbEntity
  8
0
  6
Continuous
 62
     0
370
    30
100
AcDbLine
 10
52.841568
 20
705.415268
 30
0.0
 11
52.841568
 21
685.415268
 31
0.0
  0
ENDBLK
  5
11B
330
F5
100
AcDbEntity
  8
0
100
AcDbBlockEnd
  0
ENDSEC
  0
SECTION
  2
ENTITIES
  0
INSERT
  5
72
330
1F
100
AcDbEntity
  8
0
  6
Continuous
 62
   250
370
     0
100
AcDbBlockReference
  2
a
 10
346.228699
 20
94.203629
 30
0.0
  0
INSERT
  5
8E
330
1F
100
AcDbEntity
  8
0
  6
Continuous
 62
   250
370
     0
100
AcDbBlockReference
  2
b
 10
346.228699
 20
94.203629
 30
0.0
  0
INSERT
  5
B9
330
1F
100
AcDbEntity
  8
0
  6
Continuous
 62
   250
370
     0
100
AcDbBlockReference
  2
c
 10
346.228699
 20
94.203629
 30
0.0
  0
INSERT
  5
F4
330
1F
100
AcDbEntity
  8
0
  6
Continuous
 62
   250
370
     0
100
AcDbBlockReference
  2
d
 10
346.228699
 20
94.203629
 30
0.0
  0
INSERT
  5
11C
330
1F
100
AcDbEntity
  8
0
  6
Continuous
 62
   250
370
     0
100
AcDbBlockReference
  2
e
 10
320.923767
 20
0.0
 30
0.0
  0
ENDSEC
  0
SECTION
  2
OBJECTS
  0
DICTIONARY
  5
C
330
0
100
AcDbDictionary
281
     1
  3
ACAD_GROUP
350
D
  3
ACAD_LAYOUT
350
1A
  3
ACAD_MLEADERSTYLE
350
11F
  3
ACAD_MLINESTYLE
350
17
  3
ACAD_PLOTSETTINGS
350
19
  3
ACAD_PLOTSTYLENAME
350
E
  3
ACAD_VISUALSTYLE
350
2A
  3
AcDbVariableDictionary
350
11D
  0
DICTIONARY
  5
D
102
{ACAD_REACTORS
330
C
102
}
330
C
100
AcDbDictionary
281
     1
  0
DICTIONARY
  5
1A
102
{ACAD_REACTORS
330
C
102
}
330
C
100
AcDbDictionary
281
     1
  3
Layout1
350
1E
  3
Layout2
350
26
  3
Model
350
22
  0
DICTIONARY
  5
11F
102
{ACAD_REACTORS
330
C
102
}
330
C
100
AcDbDictionary
281
     1
  0
DICTIONARY
  5
17
102
{ACAD_REACTORS
330
C
102
}
330
C
100
AcDbDictionary
281
     1
  3
Standard
350
18
  0
DICTIONARY
  5
19
102
{ACAD_REACTORS
330
C
102
}
330
C
100
AcDbDictionary
281
     1
  0
ACDBDICTIONARYWDFLT
  5
E
102
{ACAD_REACTORS
330
C
102
}
330
C
100
AcDbDictionary
281
     1
  3
Normal
350
F
100
AcDbDictionaryWithDefault
340
F
  0
DICTIONARY
  5
2A
102
{ACAD_REACTORS
330
C
102
}
330
C
100
AcDbDictionary
281
     1
  3
2dWireframe
350
2F
  3
3D Hidden
350
31
  3
3dWireframe
350
30
  3
Basic
350
32
  3
Brighten
350
36
  3
ColorChange
350
3A
  3
Conceptual
350
34
  3
Dim
350
35
  3
Facepattern
350
39
  3
Flat
350
2B
  3
FlatWithEdges
350
2C
  3
Gouraud
350
2D
  3
GouraudWithEdges
350
2E
  3
Linepattern
350
38
  3
Realistic
350
33
  3
Thicken
350
37
  0
DICTIONARY
  5
11D
102
{ACAD_REACTORS
330
C
102
}
330
C
100
AcDbDictionary
281
     1
  3
PSOLHEIGHT
350
121
  3
PSOLWIDTH
350
120
  0
LAYOUT
  5
1E
102
{ACAD_REACTORS
330
1A
102
}
330
1A
100
AcDbPlotSettings
  1

  2
none_device
  4

  6

 40
0.0
 41
0.0
 42
0.0
 43
0.0
 44
0.0
 45
0.0
 46
0.0
 47
0.0
 48
0.0
 49
0.0
140
0.0
141
0.0
142
1.0
143
1.0
 70
   688
 72
     0
 73
     0
 74
     5
  7

 75
    16
147
1.0
148
0.0
149
0.0
100
AcDbLayout
  1
Layout1
 70
     1
 71
     1
 10
0.0
 20
0.0
 11
420.0
 21
297.0
 12
0.0
 22
0.0
 32
0.0
 14
1.000000E+20
 24
1.000000E+20
 34
1.000000E+20
 15
-1.000000E+20
 25
-1.000000E+20
 35
-1.000000E+20
146
0.0
 13
0.0
 23
0.0
 33
0.0
 16
1.0
 26
0.0
 36
0.0
 17
0.0
 27
1.0
 37
0.0
 76
     0
330
1B
  0
LAYOUT
  5
26
102
{ACAD_REACTORS
330
1A
102
}
330
1A
100
AcDbPlotSettings
  1

  2
none_device
  4

  6

 40
0.0
 41
0.0
 42
0.0
 43
0.0
 44
0.0
 45
0.0
 46
0.0
 47
0.0
 48
0.0
 49
0.0
140
0.0
141
0.0
142
1.0
143
1.0
 70
   688
 72
     0
 73
     0
 74
     5
  7

 75
    16
147
1.0
148
0.0
149
0.0
100
AcDbLayout
  1
Layout2
 70
     1
 71
     2
 10
0.0
 20
0.0
 11
0.0
 21
0.0
 12
0.0
 22
0.0
 32
0.0
 14
0.0
 24
0.0
 34
0.0
 15
0.0
 25
0.0
 35
0.0
146
0.0
 13
0.0
 23
0.0
 33
0.0
 16
1.0
 26
0.0
 36
0.0
 17
0.0
 27
1.0
 37
0.0
 76
     0
330
23
  0
LAYOUT
  5
22
102
{ACAD_REACTORS
330
1A
102
}
330
1A
100
AcDbPlotSettings
  1

  2
none_device
  4

  6

 40
0.0
 41
0.0
 42
0.0
 43
0.0
 44
0.0
 45
0.0
 46
0.0
 47
0.0
 48
0.0
 49
0.0
140
0.0
141
0.0
142
1.0
143
1.0
 70
  1712
 72
     0
 73
     0
 74
     0
  7

 75
     0
147
1.0
148
0.0
149
0.0
100
AcDbLayout
  1
Model
 70
     1
 71
     0
 10
52.841568
 20
74.674667
 11
812.898315
 21
805.395569
 12
0.0
 22
0.0
 32
0.0
 14
52.841568
 24
74.674667
 34
0.0
 15
812.898315
 25
805.395569
 35
0.0
146
0.0
 13
0.0
 23
0.0
 33
0.0
 16
1.0
 26
0.0
 36
0.0
 17
0.0
 27
1.0
 37
0.0
 76
     0
330
1F
331
29
  0
MLINESTYLE
  5
18
102
{ACAD_REACTORS
330
17
102
}
330
17
100
AcDbMlineStyle
  2
Standard
 70
     0
  3

 62
   256
 51
90.0
 52
90.0
 71
     2
 49
0.5
 62
   256
  6
BYLAYER
 49
-0.5
 62
   256
  6
BYLAYER
  0
ACDBPLACEHOLDER
  5
F
102
{ACAD_REACTORS
330
E
102
}
330
E
  0
VISUALSTYLE
  5
2F
102
{ACAD_REACTORS
330
2A
102
}
330
2A
100
AcDbVisualStyle
  2
2dWireframe
 70
     4
 71
     0
 72
     2
 73
     0
 90
        0
 40
-0.6
 41
-30.0
 62
     5
 63
     7
 74
     1
 91
        4
 64
     7
 65
   257
 75
     1
175
     1
 42
1.0
 92
        0
 66
   257
 43
1.0
 76
     1
 77
     6
 78
     2
 67
     7
 79
     5
170
     0
171
     0
290
     0
174
     0
 93
        1
 44
0.0
173
     0
291
     0
 45
0.0
1001
ACAD
1000
AcDbSavedByObjectVersion
1070
     0
  0
VISUALSTYLE
  5
31
102
{ACAD_REACTORS
330
2A
102
}
330
2A
100
AcDbVisualStyle
  2
3D Hidden
 70
     6
 71
     1
 72
     2
 73
     2
 90
        0
 40
-0.6
 41
-30.0
 62
     5
 63
     7
 74
     2
 91
        2
 64
     7
 65
   257
 75
     2
175
     1
 42
40.0
 92
        0
 66
   257
 43
1.0
 76
     1
 77
     6
 78
     2
 67
     7
 79
     3
170
     0
171
     0
290
     0
174
     0
 93
        1
 44
0.0
173
     0
291
     0
 45
0.0
1001
ACAD
1000
AcDbSavedByObjectVersion
1070
     0
  0
VISUALSTYLE
  5
30
102
{ACAD_REACTORS
330
2A
102
}
330
2A
100
AcDbVisualStyle
  2
3dWireframe
 70
     5
 71
     0
 72
     2
 73
     0
 90
        0
 40
-0.6
 41
-30.0
 62
     5
 63
     7
 74
     1
 91
        4
 64
     7
 65
   257
 75
     1
175
     1
 42
1.0
 92
        0
 66
   257
 43
1.0
 76
     1
 77
     6
 78
     2
 67
     7
 79
     5
170
     0
171
     0
290
     0
174
     0
 93
        1
 44
0.0
173
     0
291
     0
 45
0.0
1001
ACAD
1000
AcDbSavedByObjectVersion
1070
     0
  0
VISUALSTYLE
  5
32
102
{ACAD_REACTORS
330
2A
102
}
330
2A
100
AcDbVisualStyle
  2
Basic
 70
     7
 71
     1
 72
     0
 73
     1
 90
        0
 40
-0.6
 41
-30.0
 62
     5
 63
     7
 74
     0
 91
        4
 64
     7
 65
   257
 75
     1
175
     1
 42
1.0
 92
        8
 66
     7
 43
1.0
 76
     1
 77
     6
 78
     2
 67
     7
 79
     5
170
     0
171
     0
290
     0
174
     0
 93
        1
 44
0.0
173
     0
291
     1
 45
0.0
1001
ACAD
1000
AcDbSavedByObjectVersion
1070
     0
  0
VISUALSTYLE
  5
36
102
{ACAD_REACTORS
330
2A
102
}
330
2A
100
AcDbVisualStyle
  2
Brighten
 70
    12
 71
     2
 72
     2
 73
     0
 90
        0
 40
-0.6
 41
-30.0
 62
     5
 63
     7
 74
     1
 91
        4
 64
     7
 65
   257
 75
     1
175
     1
 42
1.0
 92
        8
 66
     7
 43
1.0
 76
     1
 77
     6
 78
     2
 67
     7
 79
     5
170
     0
171
     0
290
     0
174
     0
 93
        1
 44
50.0
173
     0
291
     1
 45
0.0
1001
ACAD
1000
AcDbSavedByObjectVersion
1070
     0
  0
VISUALSTYLE
  5
3A
102
{ACAD_REACTORS
330
2A
102
}
330
2A
100
AcDbVisualStyle
  2
ColorChange
 70
    16
 71
     2
 72
     2
 73
     3
 90
        0
 40
-0.6
 41
-30.0
 62
     5
 63
     8
 74
     1
 91
        4
 64
     7
 65
   257
 75
     1
175
     1
 42
1.0
 92
        8
 66
     8
 43
1.0
 76
     1
 77
     6
 78
     2
 67
     7
 79
     5
170
     0
171
     0
290
     0
174
     0
 93
        1
 44
0.0
173
     0
291
     1
 45
0.0
1001
ACAD
1000
AcDbSavedByObjectVersion
1070
     0
  0
VISUALSTYLE
  5
34
102
{ACAD_REACTORS
330
2A
102
}
330
2A
100
AcDbVisualStyle
  2
Conceptual
 70
     9
 71
     3
 72
     2
 73
     0
 90
        0
 40
-0.6
 41
-30.0
 62
     5
 63
     7
 74
     2
 91
        2
 64
     7
 65
   257
 75
     1
175
     1
 42
40.0
 92
        8
 66
     7
 43
1.0
 76
     1
 77
     6
 78
     2
 67
     7
 79
     3
170
     0
171
     0
290
     0
174
     0
 93
        1
 44
0.0
173
     0
291
     0
 45
0.0
1001
ACAD
1000
AcDbSavedByObjectVersion
1070
     0
  0
VISUALSTYLE
  5
35
102
{ACAD_REACTORS
330
2A
102
}
330
2A
100
AcDbVisualStyle
  2
Dim
 70
    11
 71
     2
 72
     2
 73
     0
 90
        0
 40
-0.6
 41
-30.0
 62
     5
 63
     7
 74
     1
 91
        4
 64
     7
 65
   257
 75
     1
175
     1
 42
1.0
 92
        8
 66
     7
 43
1.0
 76
     1
 77
     6
 78
     2
 67
     7
 79
     5
170
     0
171
     0
290
     0
174
     0
 93
        1
 44
-50.0
173
     0
291
     1
 45
0.0
1001
ACAD
1000
AcDbSavedByObjectVersion
1070
     0
  0
VISUALSTYLE
  5
39
102
{ACAD_REACTORS
330
2A
102
}
330
2A
100
AcDbVisualStyle
  2
Facepattern
 70
    15
 71
     2
 72
     2
 73
     0
 90
        0
 40
-0.6
 41
-30.0
 62
     5
 63
     7
 74
     1
 91
        4
 64
     7
 65
   257
 75
     1
175
     1
 42
1.0
 92
        8
 66
     7
 43
1.0
 76
     1
 77
     6
 78
     2
 67
     7
 79
     5
170
     0
171
     0
290
     0
174
     0
 93
        1
 44
0.0
173
     0
291
     1
 45
0.0
1001
ACAD
1000
AcDbSavedByObjectVersion
1070
     0
  0
VISUALSTYLE
  5
2B
102
{ACAD_REACTORS
330
2A
102
}
330
2A
100
AcDbVisualStyle
  2
Flat
 70
     0
 71
     2
 72
     1
 73
     1
 90
        2
 40
-0.6
 41
30.0
 62
     5
 63
     7
 74
     0
 91
        4
 64
     7
 65
   257
 75
     1
175
     1
 42
1.0
 92
        8
 66
     7
 43
1.0
 76
     1
 77
     6
 78
     2
 67
     7
 79
     5
170
     0
171
     0
290
     0
174
     0
 93
       13
 44
0.0
173
     0
291
     1
 45
0.0
1001
ACAD
1000
AcDbSavedByObjectVersion
1070
     0
  0
VISUALSTYLE
  5
2C
102
{ACAD_REACTORS
330
2A
102
}
330
2A
100
AcDbVisualStyle
  2
FlatWithEdges
 70
     1
 71
     2
 72
     1
 73
     1
 90
        2
 40
-0.6
 41
30.0
 62
     5
 63
     7
 74
     1
 91
        4
 64
     7
 65
   257
 75
     1
175
     1
 42
1.0
 92
        0
 66
   257
 43
1.0
 76
     1
 77
     6
 78
     2
 67
     7
 79
     5
170
     0
171
     0
290
     0
174
     0
 93
       13
 44
0.0
173
     0
291
     1
 45
0.0
1001
ACAD
1000
AcDbSavedByObjectVersion
1070
     0
  0
VISUALSTYLE
  5
2D
102
{ACAD_REACTORS
330
2A
102
}
330
2A
100
AcDbVisualStyle
  2
Gouraud
 70
     2
 71
     2
 72
     2
 73
     1
 90
        2
 40
-0.6
 41
30.0
 62
     5
 63
     7
 74
     0
 91
        4
 64
     7
 65
   257
 75
     1
175
     1
 42
1.0
 92
        0
 66
     7
 43
1.0
 76
     1
 77
     6
 78
     2
 67
     7
 79
     5
170
     0
171
     0
290
     0
174
     0
 93
       13
 44
0.0
173
     0
291
     1
 45
0.0
1001
ACAD
1000
AcDbSavedByObjectVersion
1070
     0
  0
VISUALSTYLE
  5
2E
102
{ACAD_REACTORS
330
2A
102
}
330
2A
100
AcDbVisualStyle
  2
GouraudWithEdges
 70
     3
 71
     2
 72
     2
 73
     1
 90
        2
 40
-0.6
 41
30.0
 62
     5
 63
     7
 74
     1
 91
        4
 64
     7
 65
   257
 75
     1
175
     1
 42
1.0
 92
        0
 66
   257
 43
1.0
 76
     1
 77
     6
 78
     2
 67
     7
 79
     5
170
     0
171
     0
290
     0
174
     0
 93
       13
 44
0.0
173
     0
291
     1
 45
0.0
1001
ACAD
1000
AcDbSavedByObjectVersion
1070
     0
  0
VISUALSTYLE
  5
38
102
{ACAD_REACTORS
330
2A
102
}
330
2A
100
AcDbVisualStyle
  2
Linepattern
 70
    14
 71
     2
 72
     2
 73
     0
 90
        0
 40
-0.6
 41
-30.0
 62
     5
 63
     7
 74
     1
 91
        4
 64
     7
 65
   257
 75
     7
175
     7
 42
1.0
 92
        8
 66
     7
 43
1.0
 76
     1
 77
     6
 78
     2
 67
     7
 79
     5
170
     0
171
     0
290
     0
174
     0
 93
        1
 44
0.0
173
     0
291
     1
 45
0.0
1001
ACAD
1000
AcDbSavedByObjectVersion
1070
     0
  0
VISUALSTYLE
  5
33
102
{ACAD_REACTORS
330
2A
102
}
330
2A
100
AcDbVisualStyle
  2
Realistic
 70
     8
 71
     2
 72
     2
 73
     0
 90
        0
 40
-0.6
 41
-30.0
 62
     5
 63
     7
 74
     1
 91
        0
 64
     7
 65
   257
 75
     1
175
     1
 42
1.0
 92
        8
 66
     8
 43
1.0
 76
     1
 77
     6
 78
     2
 67
     7
 79
     5
170
     0
171
     0
290
     0
174
     0
 93
       13
 44
0.0
173
     0
291
     0
 45
0.0
1001
ACAD
1000
AcDbSavedByObjectVersion
1070
     0
  0
VISUALSTYLE
  5
37
102
{ACAD_REACTORS
330
2A
102
}
330
2A
100
AcDbVisualStyle
  2
Thicken
 70
    13
 71
     2
 72
     2
 73
     0
 90
        0
 40
-0.6
 41
-30.0
 62
     5
 63
     7
 74
     1
 91
        4
 64
     7
 65
   257
 75
     1
175
     1
 42
1.0
 92
       12
 66
     7
 43
1.0
 76
     1
 77
     6
 78
     2
 67
     7
 79
     5
170
     0
171
     0
290
     0
174
     0
 93
        1
 44
0.0
173
     0
291
     1
 45
0.0
1001
ACAD
1000
AcDbSavedByObjectVersion
1070
     0
  0
DICTIONARYVAR
  5
121
102
{ACAD_REACTORS
330
11D
102
}
330
11D
100
DictionaryVariables
280
     0
  1
80.000000
  0
DICTIONARYVAR
  5
120
102
{ACAD_REACTORS
330
11D
102
}
330
11D
100
DictionaryVariables
280
     0
  1
5.000000
  0
ENDSEC
  0
EOF
