  0
SECTION
  2
HEADER
  9
$ACADVER
  1
AC1015
  9
$ACADMAINTVER
 70
     6
  9
$DWGCODEPAGE
  3
ANSI_1252
  9
$INSBASE
 10
0.0
 20
0.0
 30
0.0
  9
$EXTMIN
 10
-306.220551
 20
88.876457
 30
0.0
  9
$EXTMAX
 10
493.469269
 20
847.189392
 30
0.0
  9
$LIMMIN
 10
-306.220551
 20
88.876457
  9
$LIMMAX
 10
493.469269
 20
847.189392
  9
$ORTHOMODE
 70
     0
  9
$REGENMODE
 70
     1
  9
$FILLMODE
 70
     1
  9
$QTEXTMODE
 70
     0
  9
$MIRRTEXT
 70
     1
  9
$LTSCALE
 40
1.0
  9
$ATTMODE
 70
     1
  9
$TEXTSIZE
 40
2.5
  9
$TRACEWID
 40
1.0
  9
$TEXTSTYLE
  7
Standard
  9
$CLAYER
  8
0
  9
$CELTYPE
  6
ByLayer
  9
$CECOLOR
 62
   256
  9
$CELTSCALE
 40
1.0
  9
$DISPSILH
 70
     0
  9
$DIMSCALE
 40
1.0
  9
$DIMASZ
 40
2.5
  9
$DIMEXO
 40
0.625
  9
$DIMDLI
 40
3.75
  9
$DIMRND
 40
0.0
  9
$DIMDLE
 40
0.0
  9
$DIMEXE
 40
1.25
  9
$DIMTP
 40
0.0
  9
$DIMTM
 40
0.0
  9
$DIMTXT
 40
2.5
  9
$DIMCEN
 40
2.5
  9
$DIMTSZ
 40
0.0
  9
$DIMTOL
 70
     0
  9
$DIMLIM
 70
     0
  9
$DIMTIH
 70
     0
  9
$DIMTOH
 70
     0
  9
$DIMSE1
 70
     0
  9
$DIMSE2
 70
     0
  9
$DIMTAD
 70
     1
  9
$DIMZIN
 70
     8
  9
$DIMBLK
  1

  9
$DIMASO
 70
     1
  9
$DIMSHO
 70
     1
  9
$DIMPOST
  1

  9
$DIMAPOST
  1

  9
$DIMALT
 70
     0
  9
$DIMALTD
 70
     3
  9
$DIMALTF
 40
0.03937
  9
$DIMLFAC
 40
1.0
  9
$DIMTOFL
 70
     1
  9
$DIMTVP
 40
0.0
  9
$DIMTIX
 70
     0
  9
$DIMSOXD
 70
     0
  9
$DIMSAH
 70
     0
  9
$DIMBLK1
  1

  9
$DIMBLK2
  1

  9
$DIMSTYLE
  2
ISO-25
  9
$DIMCLRD
 70
     0
  9
$DIMCLRE
 70
     0
  9
$DIMCLRT
 70
     0
  9
$DIMTFAC
 40
1.0
  9
$DIMGAP
 40
0.625
  9
$DIMJUST
 70
     0
  9
$DIMSD1
 70
     0
  9
$DIMSD2
 70
     0
  9
$DIMTOLJ
 70
     0
  9
$DIMTZIN
 70
     8
  9
$DIMALTZ
 70
     0
  9
$DIMALTTZ
 70
     0
  9
$DIMUPT
 70
     0
  9
$DIMDEC
 70
     2
  9
$DIMTDEC
 70
     2
  9
$DIMALTU
 70
     2
  9
$DIMALTTD
 70
     3
  9
$DIMTXSTY
  7
Standard
  9
$DIMAUNIT
 70
     0
  9
$DIMADEC
 70
     0
  9
$DIMALTRND
 40
0.0
  9
$DIMAZIN
 70
     0
  9
$DIMDSEP
 70
    44
  9
$DIMATFIT
 70
     3
  9
$DIMFRAC
 70
     0
  9
$DIMLDRBLK
  1

  9
$DIMLUNIT
 70
     2
  9
$DIMLWD
 70
    -2
  9
$DIMLWE
 70
    -2
  9
$DIMTMOVE
 70
     0
  9
$LUNITS
 70
     2
  9
$LUPREC
 70
     4
  9
$SKETCHINC
 40
1.0
  9
$FILLETRAD
 40
10.0
  9
$AUNITS
 70
     0
  9
$AUPREC
 70
     0
  9
$MENU
  1
.
  9
$ELEVATION
 40
0.0
  9
$PELEVATION
 40
0.0
  9
$THICKNESS
 40
0.0
  9
$LIMCHECK
 70
     0
  9
$CHAMFERA
 40
10.0
  9
$CHAMFERB
 40
10.0
  9
$CHAMFERC
 40
20.0
  9
$CHAMFERD
 40
0.0
  9
$SKPOLY
 70
     0
  9
$TDCREATE
 40
2455580.492555787
  9
$TDUCREATE
 40
2455580.45088912
  9
$TDUPDATE
 40
2455580.492555798
  9
$TDUUPDATE
 40
2455580.450889132
  9
$TDINDWG
 40
0.0000000116
  9
$TDUSRTIMER
 40
0.0000000116
  9
$USRTIMER
 70
     1
  9
$ANGBASE
 50
0.0
  9
$ANGDIR
 70
     0
  9
$PDMODE
 70
     0
  9
$PDSIZE
 40
0.0
  9
$PLINEWID
 40
0.0
  9
$SPLFRAME
 70
     0
  9
$SPLINETYPE
 70
     6
  9
$SPLINESEGS
 70
     8
  9
$HANDSEED
  5
17B
  9
$SURFTAB1
 70
     6
  9
$SURFTAB2
 70
     6
  9
$SURFTYPE
 70
     6
  9
$SURFU
 70
     6
  9
$SURFV
 70
     6
  9
$UCSBASE
  2

  9
$UCSNAME
  2

  9
$UCSORG
 10
0.0
 20
0.0
 30
0.0
  9
$UCSXDIR
 10
1.0
 20
0.0
 30
0.0
  9
$UCSYDIR
 10
0.0
 20
1.0
 30
0.0
  9
$UCSORTHOREF
  2

  9
$UCSORTHOVIEW
 70
     0
  9
$UCSORGTOP
 10
0.0
 20
0.0
 30
0.0
  9
$UCSORGBOTTOM
 10
0.0
 20
0.0
 30
0.0
  9
$UCSORGLEFT
 10
0.0
 20
0.0
 30
0.0
  9
$UCSORGRIGHT
 10
0.0
 20
0.0
 30
0.0
  9
$UCSORGFRONT
 10
0.0
 20
0.0
 30
0.0
  9
$UCSORGBACK
 10
0.0
 20
0.0
 30
0.0
  9
$PUCSBASE
  2

  9
$PUCSNAME
  2

  9
$PUCSORG
 10
0.0
 20
0.0
 30
0.0
  9
$PUCSXDIR
 10
1.0
 20
0.0
 30
0.0
  9
$PUCSYDIR
 10
0.0
 20
1.0
 30
0.0
  9
$PUCSORTHOREF
  2

  9
$PUCSORTHOVIEW
 70
     0
  9
$PUCSORGTOP
 10
0.0
 20
0.0
 30
0.0
  9
$PUCSORGBOTTOM
 10
0.0
 20
0.0
 30
0.0
  9
$PUCSORGLEFT
 10
0.0
 20
0.0
 30
0.0
  9
$PUCSORGRIGHT
 10
0.0
 20
0.0
 30
0.0
  9
$PUCSORGFRONT
 10
0.0
 20
0.0
 30
0.0
  9
$PUCSORGBACK
 10
0.0
 20
0.0
 30
0.0
  9
$USERI1
 70
     0
  9
$USERI2
 70
     0
  9
$USERI3
 70
     0
  9
$USERI4
 70
     0
  9
$USERI5
 70
     0
  9
$USERR1
 40
0.0
  9
$USERR2
 40
0.0
  9
$USERR3
 40
0.0
  9
$USERR4
 40
0.0
  9
$USERR5
 40
0.0
  9
$WORLDVIEW
 70
     1
  9
$SHADEDGE
 70
     3
  9
$SHADEDIF
 70
    70
  9
$TILEMODE
 70
     1
  9
$MAXACTVP
 70
    64
  9
$PINSBASE
 10
0.0
 20
0.0
 30
0.0
  9
$PLIMCHECK
 70
     0
  9
$PEXTMIN
 10
1.000000E+20
 20
1.000000E+20
 30
1.000000E+20
  9
$PEXTMAX
 10
-1.000000E+20
 20
-1.000000E+20
 30
-1.000000E+20
  9
$PLIMMIN
 10
0.0
 20
0.0
  9
$PLIMMAX
 10
420.0
 20
297.0
  9
$UNITMODE
 70
     0
  9
$VISRETAIN
 70
     1
  9
$PLINEGEN
 70
     0
  9
$PSLTSCALE
 70
     1
  9
$TREEDEPTH
 70
  3020
  9
$CMLSTYLE
  2
Standard
  9
$CMLJUST
 70
     0
  9
$CMLSCALE
 40
20.0
  9
$PROXYGRAPHICS
 70
     1
  9
$MEASUREMENT
 70
     1
  9
$CELWEIGHT
370
    -1
  9
$ENDCAPS
280
     0
  9
$JOINSTYLE
280
     0
  9
$LWDISPLAY
290
     0
  9
$INSUNITS
 70
     4
  9
$HYPERLINKBASE
  1

  9
$STYLESHEET
  1

  9
$XEDIT
290
     1
  9
$CEPSNTYPE
380
     0
  9
$PSTYLEMODE
290
     1
  9
$FINGERPRINTGUID
  2
{83846CDF-1CF4-4AA7-8E2B-9001E146B962}
  9
$VERSIONGUID
  2
{FAEB1C32-E019-11D5-929B-00C0DF256EC4}
  9
$EXTNAMES
290
     1
  9
$PSVPSCALE
 40
0.0
  9
$OLESTARTUP
290
     0
  0
ENDSEC
  0
SECTION
  2
CLASSES
  0
CLASS
  1
ACDBDICTIONARYWDFLT
  2
AcDbDictionaryWithDefault
  3
ObjectDBX Classes
 90
        0
280
     0
281
     0
  0
CLASS
  1
VISUALSTYLE
  2
AcDbVisualStyle
  3
ObjectDBX Classes
 90
     4095
280
     0
281
     0
  0
CLASS
  1
DICTIONARYVAR
  2
AcDbDictionaryVar
  3
ObjectDBX Classes
 90
        0
280
     0
281
     0
  0
CLASS
  1
ACDBPLACEHOLDER
  2
AcDbPlaceHolder
  3
ObjectDBX Classes
 90
        0
280
     0
281
     0
  0
CLASS
  1
LAYOUT
  2
AcDbLayout
  3
ObjectDBX Classes
 90
        0
280
     0
281
     0
  0
ENDSEC
  0
SECTION
  2
TABLES
  0
TABLE
  2
VPORT
  5
8
330
0
100
AcDbSymbolTable
 70
     1
  0
VPORT
  5
29
330
8
100
AcDbSymbolTableRecord
100
AcDbViewportTableRecord
  2
*Active
 70
     0
 10
0.0
 20
0.0
 11
1.0
 21
1.0
 12
344.186916
 22
148.5
 13
0.0
 23
0.0
 14
10.0
 24
10.0
 15
10.0
 25
10.0
 16
0.0
 26
0.0
 36
1.0
 17
0.0
 27
0.0
 37
0.0
 40
297.0
 41
1.972973
 42
50.0
 43
0.0
 44
0.0
 50
0.0
 51
0.0
 71
     0
 72
   100
 73
     1
 74
     3
 75
     0
 76
     0
 77
     0
 78
     0
281
     0
 65
     1
110
0.0
120
0.0
130
0.0
111
1.0
121
0.0
131
0.0
112
0.0
122
1.0
132
0.0
 79
     0
146
0.0
  0
ENDTAB
  0
TABLE
  2
LTYPE
  5
5
330
0
100
AcDbSymbolTable
 70
     1
  0
LTYPE
  5
14
330
5
100
AcDbSymbolTableRecord
100
AcDbLinetypeTableRecord
  2
ByBlock
 70
     0
  3

 72
    65
 73
     0
 40
0.0
  0
LTYPE
  5
15
330
5
100
AcDbSymbolTableRecord
100
AcDbLinetypeTableRecord
  2
ByLayer
 70
     0
  3

 72
    65
 73
     0
 40
0.0
  0
LTYPE
  5
16
330
5
100
AcDbSymbolTableRecord
100
AcDbLinetypeTableRecord
  2
Continuous
 70
     0
  3
Solid line
 72
    65
 73
     0
 40
0.0
  0
ENDTAB
  0
TABLE
  2
LAYER
  5
2
330
0
100
AcDbSymbolTable
 70
     1
  0
LAYER
  5
10
330
2
100
AcDbSymbolTableRecord
100
AcDbLayerTableRecord
  2
0
 70
     0
 62
   106
  6
Continuous
370
     0
390
F
  0
ENDTAB
  0
TABLE
  2
STYLE
  5
3
330
0
100
AcDbSymbolTable
 70
     4
  0
STYLE
  5
11
330
3
100
AcDbSymbolTableRecord
100
AcDbTextStyleTableRecord
  2
Standard
 70
     0
 40
0.0
 41
1.0
 50
0.0
 71
     0
 42
2.5
  3
txt
  4

  0
STYLE
  5
3B
330
3
100
AcDbSymbolTableRecord
100
AcDbTextStyleTableRecord
  2
Default
 70
     0
 40
0.0
 41
1.0
 50
0.0
 71
     0
 42
0.2
  3

  4

1001
ACAD
1000
txt
1071
        0
  0
STYLE
  5
3C
330
3
100
AcDbSymbolTableRecord
100
AcDbTextStyleTableRecord
  2
ISO
 70
     0
 40
0.0
 41
1.0
 50
0.0
 71
     0
 42
0.2
  3

  4

1001
ACAD
1000
txt
1071
        0
  0
STYLE
  5
3D
330
3
100
AcDbSymbolTableRecord
100
AcDbTextStyleTableRecord
  2
GIANLU
 70
     0
 40
0.0
 41
1.0
 50
0.0
 71
     0
 42
0.2
  3

  4

1001
ACAD
1000
Arial
1071
        0
  0
ENDTAB
  0
TABLE
  2
VIEW
  5
6
330
0
100
AcDbSymbolTable
 70
     0
  0
ENDTAB
  0
TABLE
  2
UCS
  5
7
330
0
100
AcDbSymbolTable
 70
     0
  0
ENDTAB
  0
TABLE
  2
APPID
  5
9
330
0
100
AcDbSymbolTable
 70
     1
  0
APPID
  5
12
330
9
100
AcDbSymbolTableRecord
100
AcDbRegAppTableRecord
  2
ACAD
 70
     0
  0
ENDTAB
  0
TABLE
  2
DIMSTYLE
  5
A
330
0
100
AcDbSymbolTable
 70
     4
100
AcDbDimStyleTable
  0
DIMSTYLE
105
27
330
A
100
AcDbSymbolTableRecord
100
AcDbDimStyleTableRecord
  2
ISO-25
 70
     0
 41
2.5
 42
0.625
 43
3.75
 44
1.25
 73
     0
 74
     0
 77
     1
 78
     8
140
2.5
141
2.5
143
0.03937
147
0.625
171
     3
172
     1
271
     2
272
     2
274
     3
278
    44
283
     0
284
     8
340
11
  0
DIMSTYLE
105
3E
330
A
100
AcDbSymbolTableRecord
100
AcDbDimStyleTableRecord
  2
Default
 70
     0
  3
<>
 41
4.375
 42
1.05
 44
2.1
 73
     0
 74
     0
 77
     1
 78
     8
140
3.5
146
0.4
147
1.75
178
     3
271
     2
272
     3
284
     8
340
3B
341
3F
342
3F
  0
DIMSTYLE
105
46
330
A
100
AcDbSymbolTableRecord
100
AcDbDimStyleTableRecord
  2
ISO
 70
     0
  3
<>
 41
4.375
 42
1.05
 44
2.1
 73
     0
 74
     0
 77
     1
 78
     8
140
3.5
146
0.4
147
1.75
178
     3
271
     2
272
     3
284
     8
340
3C
341
3F
342
3F
  0
DIMSTYLE
105
47
330
A
100
AcDbSymbolTableRecord
100
AcDbDimStyleTableRecord
  2
zucchetti_unico
 70
     0
  3
<>
 41
3.0
 42
0.9
 44
1.8
 73
     0
 74
     0
 77
     1
 78
     8
140
3.0
146
0.6
147
1.5
176
   104
177
     3
178
     3
271
     2
272
     2
284
     8
340
3D
  0
ENDTAB
  0
TABLE
  2
BLOCK_RECORD
  5
1
330
0
100
AcDbSymbolTable
 70
     7
  0
BLOCK_RECORD
  5
1F
330
1
100
AcDbSymbolTableRecord
100
AcDbBlockTableRecord
  2
*Model_Space
340
22
  0
BLOCK_RECORD
  5
1B
330
1
100
AcDbSymbolTableRecord
100
AcDbBlockTableRecord
  2
*Paper_Space
340
1E
  0
BLOCK_RECORD
  5
23
330
1
100
AcDbSymbolTableRecord
100
AcDbBlockTableRecord
  2
*Paper_Space0
340
26
  0
BLOCK_RECORD
  5
3F
330
1
100
AcDbSymbolTableRecord
100
AcDbBlockTableRecord
  2
_CLOSED
340
0
  0
BLOCK_RECORD
  5
48
330
1
100
AcDbSymbolTableRecord
100
AcDbBlockTableRecord
  2
a
340
0
102
{BLKREFS
331
77
102
}
  0
BLOCK_RECORD
  5
78
330
1
100
AcDbSymbolTableRecord
100
AcDbBlockTableRecord
  2
b
340
0
102
{BLKREFS
331
A8
102
}
  0
BLOCK_RECORD
  5
A9
330
1
100
AcDbSymbolTableRecord
100
AcDbBlockTableRecord
  2
c
340
0
102
{BLKREFS
331
E7
102
}
  0
BLOCK_RECORD
  5
E8
330
1
100
AcDbSymbolTableRecord
100
AcDbBlockTableRecord
  2
d
340
0
102
{BLKREFS
331
135
102
}
  0
BLOCK_RECORD
  5
136
330
1
100
AcDbSymbolTableRecord
100
AcDbBlockTableRecord
  2
e
340
0
102
{BLKREFS
331
175
102
}
  0
ENDTAB
  0
ENDSEC
  0
SECTION
  2
BLOCKS
  0
BLOCK
  5
20
330
1F
100
AcDbEntity
  8
0
100
AcDbBlockBegin
  2
*Model_Space
 70
     0
 10
0.0
 20
0.0
 30
0.0
  3
*Model_Space
  1

  0
ENDBLK
  5
21
330
1F
100
AcDbEntity
  8
0
100
AcDbBlockEnd
  0
BLOCK
  5
1C
330
1B
100
AcDbEntity
 67
     1
  8
0
100
AcDbBlockBegin
  2
*Paper_Space
 70
     0
 10
0.0
 20
0.0
 30
0.0
  3
*Paper_Space
  1

  0
ENDBLK
  5
1D
330
1B
100
AcDbEntity
 67
     1
  8
0
100
AcDbBlockEnd
  0
BLOCK
  5
24
330
23
100
AcDbEntity
  8
0
100
AcDbBlockBegin
  2
*Paper_Space0
 70
     0
 10
0.0
 20
0.0
 30
0.0
  3
*Paper_Space0
  1

  0
ENDBLK
  5
25
330
23
100
AcDbEntity
  8
0
100
AcDbBlockEnd
  0
BLOCK
  5
40
330
3F
100
AcDbEntity
  8
0
100
AcDbBlockBegin
  2
_CLOSED
 70
     0
 10
0.0
 20
0.0
 30
0.0
  3
_CLOSED
  1

  0
LINE
  5
42
330
3F
100
AcDbEntity
  8
0
  6
ByBlock
 62
     0
370
    -2
100
AcDbLine
 10
-1.0
 20
0.166667
 30
0.0
 11
0.0
 21
0.0
 31
0.0
  0
LINE
  5
43
330
3F
100
AcDbEntity
  8
0
  6
ByBlock
 62
     0
370
    -2
100
AcDbLine
 10
0.0
 20
0.0
 30
0.0
 11
-1.0
 21
-0.166667
 31
0.0
  0
LINE
  5
44
330
3F
100
AcDbEntity
  8
0
  6
ByBlock
 62
     0
370
    -2
100
AcDbLine
 10
-1.0
 20
0.166667
 30
0.0
 11
-1.0
 21
-0.166667
 31
0.0
  0
LINE
  5
45
330
3F
100
AcDbEntity
  8
0
  6
ByBlock
 62
     0
370
    -2
100
AcDbLine
 10
0.0
 20
0.0
 30
0.0
 11
-1.0
 21
0.0
 31
0.0
  0
ENDBLK
  5
41
330
3F
100
AcDbEntity
  8
0
100
AcDbBlockEnd
  0
BLOCK
  5
75
330
48
100
AcDbEntity
  8
0
100
AcDbBlockBegin
  2
a
 70
     0
 10
12.594555
 20
93.035088
 30
0.0
  3
a
  1

  0
LINE
  5
49
330
48
100
AcDbEntity
  8
0
  6
Continuous
 62
     0
370
    30
100
AcDbLine
 10
68.423423
 20
816.189368
 30
0.0
 11
90.417054
 21
816.189368
 31
0.0
  0
LINE
  5
4A
330
48
100
AcDbEntity
  8
0
  6
Continuous
 62
     0
370
    30
100
AcDbLine
 10
90.417054
 20
816.189368
 30
0.0
 11
112.410686
 21
816.189368
 31
0.0
  0
LINE
  5
4B
330
48
100
AcDbEntity
  8
0
  6
Continuous
 62
     0
370
    30
100
AcDbLine
 10
90.417054
 20
847.189368
 30
0.0
 11
112.417054
 21
847.189368
 31
0.0
  0
LINE
  5
4C
330
48
100
AcDbEntity
  8
0
  6
Continuous
 62
     0
370
    30
100
AcDbLine
 10
68.417054
 20
847.189368
 30
0.0
 11
90.417054
 21
847.189368
 31
0.0
  0
LWPOLYLINE
  5
4D
330
48
100
AcDbEntity
  8
0
  6
Continuous
 62
     0
370
    30
100
AcDbPolyline
 90
        2
 70
     0
 43
0.0
 10
68.417061
 20
816.381653
 10
68.423424
 20
816.189392
  0
LWPOLYLINE
  5
4E
330
48
100
AcDbEntity
  8
0
  6
Continuous
 62
     0
370
    30
100
AcDbPolyline
 90
        2
 70
     0
 43
0.0
 10
112.410683
 20
816.189392
 10
112.417046
 20
816.381653
  0
LWPOLYLINE
  5
4F
330
48
100
AcDbEntity
  8
0
  6
Continuous
 62
     0
370
     0
100
AcDbPolyline
 90
       32
 70
     0
 43
0.0
 10
90.417053
 20
820.706055
 10
89.353752
 20
820.78125
 10
88.312645
 20
821.002808
 10
87.316315
 20
821.360107
 10
86.377174
 20
821.840698
 10
85.506218
 20
822.428833
 10
84.710335
 20
823.109436
 10
83.992218
 20
823.869263
 10
83.352821
 20
824.697266
 10
82.79274
 20
825.583252
 10
82.312431
 20
826.517334
 10
81.911804
 20
827.491638
 10
81.590744
 20
828.498901
 10
81.349472
 20
829.531677
 10
81.188171
 20
830.582825
 10
81.107018
 20
831.64502
 10
81.106155
 20
832.710999
 10
81.185585
 20
833.773315
 10
81.345177
 20
834.824768
 10
81.584747
 20
835.858032
 10
81.904121
 20
836.865845
 10
82.303162
 20
837.841003
 10
82.781685
 20
838.776001
 10
83.339676
 20
839.662781
 10
83.977783
 20
840.492615
 10
84.695984
 20
841.255493
 10
85.491783
 20
841.93866
 10
86.361794
 20
842.528687
 10
87.2995
 20
843.011292
 10
88.295181
 20
843.371216
 10
89.333664
 20
843.594666
 10
90.417053
 20
843.672668
  0
LWPOLYLINE
  5
50
330
48
100
AcDbEntity
  8
0
  6
Continuous
 62
     0
370
     0
100
AcDbPolyline
 90
       32
 70
     0
 43
0.0
 10
90.417053
 20
843.672668
 10
91.480362
 20
843.597473
 10
92.521461
 20
843.375977
 10
93.517799
 20
843.018616
 10
94.456932
 20
842.538025
 10
95.327888
 20
841.94989
 10
96.123772
 20
841.269287
 10
96.841888
 20
840.50946
 10
97.481293
 20
839.681458
 10
98.041374
 20
838.795532
 10
98.521675
 20
837.861389
 10
98.922302
 20
836.887085
 10
99.243362
 20
835.879883
 10
99.484642
 20
834.847046
 10
99.645935
 20
833.795959
 10
99.727089
 20
832.733704
 10
99.727951
 20
831.667786
 10
99.648521
 20
830.605408
 10
99.48893
 20
829.553955
 10
99.249359
 20
828.520691
 10
98.929985
 20
827.512878
 10
98.530952
 20
826.53772
 10
98.052422
 20
825.602722
 10
97.494431
 20
824.715942
 10
96.856323
 20
823.886108
 10
96.138123
 20
823.12323
 10
95.342323
 20
822.440063
 10
94.472321
 20
821.850037
 10
93.534607
 20
821.367432
 10
92.538925
 20
821.007507
 10
91.500443
 20
820.784058
 10
90.417053
 20
820.706055
  0
LINE
  5
51
330
48
100
AcDbEntity
  8
0
  6
Continuous
 62
     0
370
     0
100
AcDbLine
 10
90.417054
 20
843.672675
 30
0.0
 11
90.417054
 21
838.689362
 31
0.0
  0
LINE
  5
52
330
48
100
AcDbEntity
  8
0
  6
Continuous
 62
     0
370
     0
100
AcDbLine
 10
90.417054
 20
825.689374
 30
0.0
 11
90.417054
 21
820.706062
 31
0.0
  0
ARC
  5
53
330
48
100
AcDbEntity
  8
0
  6
Continuous
 62
     0
370
    30
100
AcDbCircle
 10
90.417054
 20
832.189368
 30
0.0
 40
6.499994153589111
100
AcDbArc
 50
270.0
 51
90.0
  0
ARC
  5
54
330
48
100
AcDbEntity
  8
0
  6
Continuous
 62
     0
370
    30
100
AcDbCircle
 10
90.417054
 20
832.189368
 30
0.0
 40
6.499994153589111
100
AcDbArc
 50
90.0
 51
270.0
  0
LWPOLYLINE
  5
55
330
48
100
AcDbEntity
  8
0
  6
Continuous
 62
     0
370
    30
100
AcDbPolyline
 90
       27
 70
     0
 43
0.0
 10
80.482079
 20
755.63446
 10
80.551552
 20
755.051575
 10
80.763268
 20
754.462891
 10
81.121605
 20
753.88147
 10
81.624519
 20
753.320923
 10
82.263321
 20
752.794373
 10
83.023056
 20
752.31366
 10
83.883675
 20
751.888245
 10
84.821724
 20
751.524902
 10
85.815422
 20
751.226257
 10
86.887932
 20
750.984253
 10
88.035965
 20
750.803894
 10
89.237717
 20
750.692749
 10
90.467567
 20
750.655884
 10
91.69783
 20
750.694946
 10
92.900772
 20
750.808289
 10
94.05069
 20
750.990845
 10
95.125603
 20
751.235107
 10
96.120522
 20
751.535583
 10
97.059647
 20
751.90033
 10
97.922081
 20
752.327026
 10
98.684296
 20
752.808899
 10
99.326111
 20
753.336548
 10
99.83239
 20
753.898193
 10
100.194221
 20
754.480591
 10
100.409355
 20
755.070129
 10
100.482033
 20
755.677368
  0
LWPOLYLINE
  5
56
330
48
100
AcDbEntity
  8
0
  6
Continuous
 62
     0
370
    30
100
AcDbPolyline
 90
       27
 70
     0
 43
0.0
 10
100.482033
 20
755.677368
 10
100.419258
 20
756.231323
 10
100.224037
 20
756.800049
 10
99.885536
 20
757.37207
 10
99.398163
 20
757.934265
 10
98.762878
 20
758.47229
 10
97.987892
 20
758.971863
 10
97.0886
 20
759.419983
 10
96.086655
 20
759.805847
 10
95.008217
 20
760.121704
 10
93.881798
 20
760.363586
 10
92.735939
 20
760.530884
 10
91.597137
 20
760.626526
 10
90.488304
 20
760.655945
 10
89.380844
 20
760.623779
 10
88.243065
 20
760.525391
 10
87.097763
 20
760.355469
 10
85.971352
 20
760.111145
 10
84.892334
 20
759.792847
 10
83.889236
 20
759.404785
 10
82.988312
 20
758.95459
 10
82.211319
 20
758.453064
 10
81.573814
 20
757.91333
 10
81.084183
 20
757.349609
 10
80.743546
 20
756.776184
 10
80.546432
 20
756.206299
 10
80.482079
 20
755.63446
  0
LWPOLYLINE
  5
57
330
48
100
AcDbEntity
  8
0
  6
Continuous
 62
     0
370
    30
100
AcDbPolyline
 90
       23
 70
     0
 43
0.0
 10
82.982071
 20
755.639832
 10
83.046112
 20
756.132996
 10
83.251358
 20
756.640137
 10
83.609634
 20
757.146484
 10
84.124329
 20
757.63501
 10
84.788605
 20
758.087769
 10
85.584976
 20
758.488342
 10
86.48671
 20
758.82312
 10
87.460732
 20
759.083313
 10
88.471474
 20
759.265442
 10
89.484741
 20
759.371033
 10
90.47081
 20
759.405884
 10
91.456749
 20
759.375671
 10
92.470367
 20
759.274963
 10
93.482002
 20
759.097717
 10
94.457497
 20
758.842163
 10
95.361252
 20
758.511719
 10
96.160133
 20
758.115051
 10
96.827286
 20
757.665405
 10
97.3451
 20
757.17926
 10
97.706581
 20
756.6745
 10
97.914986
 20
756.168213
 10
97.98204
 20
755.671997
  0
LWPOLYLINE
  5
58
330
48
100
AcDbEntity
  8
0
  6
Continuous
 62
     0
370
    30
100
AcDbPolyline
 90
       23
 70
     0
 43
0.0
 10
97.98204
 20
755.671997
 10
97.911255
 20
755.15387
 10
97.690125
 20
754.63147
 10
97.315308
 20
754.121216
 10
96.79303
 20
753.639893
 10
96.139061
 20
753.202881
 10
95.377144
 20
752.822632
 10
94.536247
 20
752.507568
 10
93.632568
 20
752.257874
 10
92.642982
 20
752.06842
 10
91.588226
 20
751.94873
 10
90.498917
 20
751.905945
 10
89.409149
 20
751.942749
 10
88.353088
 20
752.056763
 10
87.361435
 20
752.240906
 10
86.455437
 20
752.485718
 10
85.612183
 20
752.796143
 10
84.84713
 20
753.172119
 10
84.189354
 20
753.605469
 10
83.662758
 20
754.083923
 10
83.283302
 20
754.592224
 10
83.057465
 20
755.113586
 10
82.982071
 20
755.639832
  0
LINE
  5
59
330
48
100
AcDbEntity
  8
0
  6
Continuous
 62
     0
370
    30
100
AcDbLine
 10
80.48208
 20
755.634483
 30
0.0
 11
80.444943
 21
772.956942
 31
0.0
  0
ELLIPSE
  5
5A
330
48
100
AcDbEntity
  8
0
  6
Continuous
 62
     0
370
     0
100
AcDbEllipse
 10
90.44492
 20
772.978381
 30
0.0
 11
9.99997701925629
 21
0.02143861810097843
 31
0.0
210
0.0
220
0.0
230
0.9999999999999999
 40
0.5
 41
0.000000000000016
 42
3.141592653589786
  0
LINE
  5
5B
330
48
100
AcDbEntity
  8
0
  6
Continuous
 62
     0
370
    30
100
AcDbLine
 10
80.444943
 20
772.956942
 30
0.0
 11
80.417073
 21
785.956912
 31
0.0
  0
ARC
  5
5C
330
48
100
AcDbEntity
  8
0
  6
Continuous
 62
     0
370
    30
100
AcDbCircle
 10
90.41705
 20
785.978351
 30
0.0
 40
10.0
100
AcDbArc
 50
0.122834
 51
180.122834
  0
LWPOLYLINE
  5
5D
330
48
100
AcDbEntity
  8
0
  6
Continuous
 62
     0
370
     0
100
AcDbPolyline
 90
       32
 70
     0
 43
0.0
 10
90.417053
 20
803.978333
 10
91.626228
 20
803.903076
 10
92.813095
 20
803.679382
 10
93.958839
 20
803.318298
 10
95.050041
 20
802.832947
 10
96.077034
 20
802.239441
 10
97.035172
 20
801.552551
 10
97.923203
 20
800.784912
 10
98.741257
 20
799.947998
 10
99.490379
 20
799.05188
 10
100.172913
 20
798.103699
 10
100.790604
 20
797.109558
 10
101.344864
 20
796.075256
 10
101.836998
 20
795.00592
 10
102.268105
 20
793.905334
 10
102.639175
 20
792.7771
 10
102.950638
 20
791.625
 10
103.202698
 20
790.452637
 10
103.395309
 20
789.263977
 10
103.528229
 20
788.063171
 10
103.601326
 20
786.854431
 10
103.614616
 20
785.642395
 10
103.568108
 20
784.431641
 10
103.461838
 20
783.226746
 10
103.29586
 20
782.032104
 10
103.070343
 20
780.85199
 10
102.785393
 20
779.690369
 10
102.440895
 20
778.551025
 10
102.036613
 20
777.437744
 10
101.571785
 20
776.354004
 10
101.045364
 20
775.303589
 10
100.442177
 20
774.268494
  0
LINE
  5
5E
330
48
100
AcDbEntity
  8
0
  6
Continuous
 62
     0
370
     0
100
AcDbLine
 10
90.41705
 20
699.978351
 30
0.0
 11
112.41705
 21
699.978351
 31
0.0
  0
LINE
  5
5F
330
48
100
AcDbEntity
  8
0
  6
Continuous
 62
     0
370
     0
100
AcDbLine
 10
68.41705
 20
699.978351
 30
0.0
 11
90.41705
 21
699.978351
 31
0.0
  0
LWPOLYLINE
  5
60
330
48
100
AcDbEntity
  8
0
  6
Continuous
 62
     0
370
     0
100
AcDbPolyline
 90
       32
 70
     0
 43
0.0
 10
80.442299
 20
774.188721
 10
79.845032
 20
775.200073
 10
79.311028
 20
776.249817
 10
78.83905
 20
777.333374
 10
78.428032
 20
778.447083
 10
78.077171
 20
779.587219
 10
77.786186
 20
780.750122
 10
77.554955
 20
781.932007
 10
77.383575
 20
783.128723
 10
77.272209
 20
784.336182
 10
77.220924
 20
785.549927
 10
77.229752
 20
786.765259
 10
77.298714
 20
787.9776
 10
77.427818
 20
789.182373
 10
77.616943
 20
790.375122
 10
77.86586
 20
791.551819
 10
78.174484
 20
792.708374
 10
78.543022
 20
793.841125
 10
78.971878
 20
794.946289
 10
79.462029
 20
796.020264
 10
80.014572
 20
797.059265
 10
80.630821
 20
798.058167
 10
81.312195
 20
799.011047
 10
82.060425
 20
799.911926
 10
82.877861
 20
800.753662
 10
83.76564
 20
801.526184
 10
84.723907
 20
802.217957
 10
85.75148
 20
802.816223
 10
86.843834
 20
803.306274
 10
87.991356
 20
803.671875
 10
89.18055
 20
803.899597
 10
90.417053
 20
803.978333
  0
LINE
  5
61
330
48
100
AcDbEntity
  8
0
  6
Continuous
 62
     0
370
    30
100
AcDbLine
 10
90.41705
 20
814.978351
 30
0.0
 11
68.41705
 21
814.978351
 31
0.0
  0
LINE
  5
62
330
48
100
AcDbEntity
  8
0
  6
Continuous
 62
     0
370
    30
100
AcDbLine
 10
112.41705
 20
814.978351
 30
0.0
 11
90.41705
 21
814.978351
 31
0.0
  0
LINE
  5
63
330
48
100
AcDbEntity
  8
0
  6
Continuous
 62
     0
370
     0
100
AcDbLine
 10
90.41705
 20
795.978351
 30
0.0
 11
90.41705
 21
803.978351
 31
0.0
  0
LINE
  5
64
330
48
100
AcDbEntity
  8
0
  6
Continuous
 62
     0
370
    30
100
AcDbLine
 10
88.652445
 20
515.978351
 30
0.0
 11
117.417042
 21
515.978351
 31
0.0
  0
LINE
  5
65
330
48
100
AcDbEntity
  8
0
  6
Continuous
 62
     0
370
    30
100
AcDbLine
 10
63.417042
 20
515.978351
 30
0.0
 11
88.652445
 21
515.978351
 31
0.0
  0
LINE
  5
66
330
48
100
AcDbEntity
  8
0
  6
Continuous
 62
     0
370
    30
100
AcDbLine
 10
88.652445
 20
519.978351
 30
0.0
 11
63.417042
 21
519.978351
 31
0.0
  0
LINE
  5
67
330
48
100
AcDbEntity
  8
0
  6
Continuous
 62
     0
370
    30
100
AcDbLine
 10
117.417042
 20
519.978351
 30
0.0
 11
88.652445
 21
519.978351
 31
0.0
  0
LINE
  5
68
330
48
100
AcDbEntity
  8
0
  6
Continuous
 62
     0
370
     0
100
AcDbLine
 10
90.417042
 20
519.978351
 30
0.0
 11
90.417042
 21
699.978351
 31
0.0
  0
LINE
  5
69
330
48
100
AcDbEntity
  8
0
  6
Continuous
 62
     0
370
    30
100
AcDbLine
 10
112.416537
 20
519.978351
 30
0.0
 11
112.417042
 21
699.978351
 31
0.0
  0
LINE
  5
6A
330
48
100
AcDbEntity
  8
0
  6
Continuous
 62
     0
370
    30
100
AcDbLine
 10
68.417546
 20
519.978351
 30
0.0
 11
68.417042
 21
699.978351
 31
0.0
  0
LINE
  5
6B
330
48
100
AcDbEntity
  8
0
  6
Continuous
 62
     0
370
    30
100
AcDbLine
 10
117.417042
 20
515.978351
 30
0.0
 11
117.417042
 21
519.978351
 31
0.0
  0
LINE
  5
6C
330
48
100
AcDbEntity
  8
0
  6
Continuous
 62
     0
370
    30
100
AcDbLine
 10
63.417042
 20
515.978351
 30
0.0
 11
63.417042
 21
519.978351
 31
0.0
  0
LINE
  5
6D
330
48
100
AcDbEntity
  8
0
  6
Continuous
 62
     0
370
    30
100
AcDbLine
 10
112.41705
 20
699.978351
 30
0.0
 11
112.41705
 21
814.978351
 31
0.0
  0
LINE
  5
6E
330
48
100
AcDbEntity
  8
0
  6
Continuous
 62
     0
370
    30
100
AcDbLine
 10
68.41705
 20
699.978351
 30
0.0
 11
68.41705
 21
814.978351
 31
0.0
  0
LINE
  5
6F
330
48
100
AcDbEntity
  8
0
  6
Continuous
 62
     0
370
    30
100
AcDbLine
 10
100.417027
 20
785.99979
 30
0.0
 11
100.444897
 21
772.99982
 31
0.0
  0
LINE
  5
70
330
48
100
AcDbEntity
  8
0
  6
Continuous
 62
     0
370
    30
100
AcDbLine
 10
100.444897
 20
772.99982
 30
0.0
 11
100.482034
 21
755.67736
 31
0.0
  0
ARC
  5
71
330
48
100
AcDbEntity
  8
0
  6
Continuous
 62
     0
370
    30
100
AcDbCircle
 10
90.416909
 20
813.478344
 30
0.0
 40
20.50498912297454
100
AcDbArc
 50
172.402515
 51
175.80488
  0
ARC
  5
72
330
48
100
AcDbEntity
  8
0
  6
Continuous
 62
     0
370
    30
100
AcDbCircle
 10
90.4172
 20
813.478344
 30
0.0
 40
20.50498919441755
100
AcDbArc
 50
4.19512
 51
7.597485
  0
LINE
  5
73
330
48
100
AcDbEntity
  8
0
  6
Continuous
 62
     0
370
    30
100
AcDbLine
 10
112.417054
 20
816.382027
 30
0.0
 11
112.417054
 21
847.189368
 31
0.0
  0
LINE
  5
74
330
48
100
AcDbEntity
  8
0
  6
Continuous
 62
     0
370
    30
100
AcDbLine
 10
68.417054
 20
816.382027
 30
0.0
 11
68.417054
 21
847.189368
 31
0.0
  0
ENDBLK
  5
76
330
48
100
AcDbEntity
  8
0
100
AcDbBlockEnd
  0
BLOCK
  5
A6
330
78
100
AcDbEntity
  8
0
100
AcDbBlockBegin
  2
b
 70
     0
 10
12.594557
 20
143.130638
 30
0.0
  3
b
  1

  0
ARC
  5
79
330
78
100
AcDbEntity
  8
0
  6
Continuous
 62
     0
370
    30
100
AcDbCircle
 10
90.417048
 20
336.491894
 30
0.0
 40
22.00000000000006
100
AcDbArc
 50
270.0
 51
90.0
  0
ARC
  5
7A
330
78
100
AcDbEntity
  8
0
  6
Continuous
 62
     0
370
    30
100
AcDbCircle
 10
90.417048
 20
336.491894
 30
0.0
 40
22.00000000000006
100
AcDbArc
 50
90.0
 51
270.0
  0
LINE
  5
7B
330
78
100
AcDbEntity
  8
0
  6
Continuous
 62
     0
370
     0
100
AcDbLine
 10
96.917048
 20
308.491894
 30
0.0
 11
90.417048
 21
308.491894
 31
0.0
  0
LINE
  5
7C
330
78
100
AcDbEntity
  8
0
  6
Continuous
 62
     0
370
     0
100
AcDbLine
 10
90.417048
 20
308.491894
 30
0.0
 11
83.917048
 21
308.491894
 31
0.0
  0
LWPOLYLINE
  5
7D
330
78
100
AcDbEntity
  8
0
  6
Continuous
 62
     0
370
     0
100
AcDbPolyline
 90
       13
 70
     0
 43
0.0
 10
83.977356
 20
311.946716
 10
84.036545
 20
311.897705
 10
84.208672
 20
311.758484
 10
84.485054
 20
311.543427
 10
84.855659
 20
311.273651
 10
85.311218
 20
310.969757
 10
85.845337
 20
310.65094
 10
86.453545
 20
310.335175
 10
87.132401
 20
310.039795
 10
87.877151
 20
309.782349
 10
88.679077
 20
309.580719
 10
89.525764
 20
309.45105
 10
90.417046
 20
309.404633
  0
LWPOLYLINE
  5
7E
330
78
100
AcDbEntity
  8
0
  6
Continuous
 62
     0
370
     0
100
AcDbPolyline
 90
       13
 70
     0
 43
0.0
 10
90.417046
 20
309.404633
 10
91.289154
 20
309.449219
 10
92.136673
 20
309.577209
 10
92.939743
 20
309.777374
 10
93.685883
 20
310.033691
 10
94.366272
 20
310.3284
 10
94.976074
 20
310.643921
 10
95.511864
 20
310.96286
 10
95.969231
 20
311.267273
 10
96.34182
 20
311.537994
 10
96.620399
 20
311.754456
 10
96.794937
 20
311.895508
 10
96.856743
 20
311.946716
  0
LWPOLYLINE
  5
7F
330
78
100
AcDbEntity
  8
0
  6
Continuous
 62
     0
370
     0
100
AcDbPolyline
 90
       10
 70
     0
 43
0.0
 10
90.417046
 20
314.491882
 10
90.417046
 20
314.414185
 10
90.417046
 20
314.18457
 10
90.417046
 20
313.809113
 10
90.417046
 20
313.300262
 10
90.417046
 20
312.673889
 10
90.417046
 20
311.948761
 10
90.417046
 20
311.146515
 10
90.417046
 20
310.292053
 10
90.417046
 20
309.404633
  0
LINE
  5
80
330
78
100
AcDbEntity
  8
0
  6
Continuous
 62
     0
370
    30
100
AcDbLine
 10
90.417048
 20
248.491894
 30
0.0
 11
96.917043
 21
248.491894
 31
0.0
  0
LINE
  5
81
330
78
100
AcDbEntity
  8
0
  6
Continuous
 62
     0
370
    30
100
AcDbLine
 10
83.917054
 20
248.491894
 30
0.0
 11
90.417048
 21
248.491894
 31
0.0
  0
LINE
  5
82
330
78
100
AcDbEntity
  8
0
  6
Continuous
 62
     0
370
    30
100
AcDbLine
 10
100.481982
 20
142.011231
 30
0.0
 11
100.482028
 21
141.974099
 31
0.0
  0
LWPOLYLINE
  5
83
330
78
100
AcDbEntity
  8
0
  6
Continuous
 62
     0
370
    30
100
AcDbPolyline
 90
       27
 70
     0
 43
0.0
 10
100.482025
 20
141.974106
 10
100.419373
 20
141.01532
 10
100.224525
 20
140.030472
 10
99.886681
 20
139.039276
 10
99.400246
 20
138.064575
 10
98.766151
 20
137.131012
 10
97.992561
 20
136.263199
 10
97.094795
 20
135.48381
 10
96.094406
 20
134.8116
 10
95.017464
 20
134.259995
 10
93.892387
 20
133.836197
 10
92.74765
 20
133.541138
 10
91.609695
 20
133.370132
 10
90.501434
 20
133.313889
 10
89.395477
 20
133.36412
 10
88.259018
 20
133.528488
 10
87.1147
 20
133.816483
 10
85.988831
 20
134.233124
 10
84.909813
 20
134.777786
 10
83.906113
 20
135.443604
 10
83.003967
 20
136.217499
 10
82.225166
 20
137.080978
 10
81.585365
 20
138.011536
 10
81.093071
 20
138.984604
 10
80.749535
 20
139.97551
 10
80.549446
 20
140.961258
 10
80.482117
 20
141.936966
  0
ELLIPSE
  5
84
330
78
100
AcDbEntity
  8
0
  6
Continuous
 62
     0
370
     0
100
AcDbEllipse
 10
90.444914
 20
151.975248
 30
0.0
 11
9.999931058550594
 21
0.03713252260753006
 31
0.0
210
0.0
220
0.0
230
-0.9999999999999999
 40
0.866023
 41
0.0000000003246157
 42
0.004287707522469
  0
ELLIPSE
  5
85
330
78
100
AcDbEntity
  8
0
  6
Continuous
 62
     0
370
     0
100
AcDbEllipse
 10
90.444914
 20
151.975248
 30
0.0
 11
9.999931058550594
 21
0.03713252260753006
 31
0.0
210
0.0
220
0.0
230
-0.9999999999999999
 40
0.866023
 41
0.0042877075224723
 42
3.141597976199518
  0
LINE
  5
86
330
78
100
AcDbEntity
  8
0
  6
Continuous
 62
     0
370
     0
100
AcDbLine
 10
100.417021
 20
174.491908
 30
0.0
 11
80.417067
 21
174.491908
 31
0.0
  0
LWPOLYLINE
  5
87
330
78
100
AcDbEntity
  8
0
  6
Continuous
 62
     0
370
     0
100
AcDbPolyline
 90
       10
 70
     0
 43
0.0
 10
100.416985
 20
312.49173
 10
100.371117
 20
312.429779
 10
100.234917
 20
312.249481
 10
100.010696
 20
311.960266
 10
99.701523
 20
311.57782
 10
99.310394
 20
311.11969
 10
98.838264
 20
310.603149
 10
98.284912
 20
310.045166
 10
97.647972
 20
309.462555
 10
96.910583
 20
308.862305
  0
ARC
  5
88
330
78
100
AcDbEntity
  8
0
  6
Continuous
 62
     0
370
    30
100
AcDbCircle
 10
90.417036
 20
336.491913
 30
0.0
 40
27.00000000000004
100
AcDbArc
 50
95.312636
 51
248.261557
  0
ARC
  5
89
330
78
100
AcDbEntity
  8
0
  6
Continuous
 62
     0
370
    30
100
AcDbCircle
 10
90.417036
 20
336.491913
 30
0.0
 40
27.00000000000004
100
AcDbArc
 50
291.738479
 51
84.687331
  0
LWPOLYLINE
  5
8A
330
78
100
AcDbEntity
  8
0
  6
Continuous
 62
     0
370
     0
100
AcDbPolyline
 90
       10
 70
     0
 43
0.0
 10
80.417122
 20
312.491699
 10
80.461205
 20
312.432159
 10
80.596176
 20
312.253387
 10
80.81971
 20
311.964935
 10
81.128746
 20
311.582428
 10
81.520226
 20
311.123627
 10
81.993172
 20
310.605957
 10
82.547821
 20
310.046478
 10
83.186508
 20
309.462219
 10
83.923515
 20
308.862305
  0
LINE
  5
8B
330
78
100
AcDbEntity
  8
0
  6
Continuous
 62
     0
370
     0
100
AcDbLine
 10
92.916987
 20
371.839697
 30
0.0
 11
90.417044
 21
371.839696
 31
0.0
  0
LINE
  5
8C
330
78
100
AcDbEntity
  8
0
  6
Continuous
 62
     0
370
     0
100
AcDbLine
 10
90.417044
 20
371.839696
 30
0.0
 11
87.917101
 21
371.839697
 31
0.0
  0
LINE
  5
8D
330
78
100
AcDbEntity
  8
0
  6
Continuous
 62
     0
370
    30
100
AcDbLine
 10
87.917101
 20
383.334783
 30
0.0
 11
90.417044
 21
383.334783
 31
0.0
  0
LINE
  5
8E
330
78
100
AcDbEntity
  8
0
  6
Continuous
 62
     0
370
    30
100
AcDbLine
 10
90.417044
 20
383.334783
 30
0.0
 11
92.916987
 21
383.334783
 31
0.0
  0
LWPOLYLINE
  5
8F
330
78
100
AcDbEntity
  8
0
  6
Continuous
 62
     0
370
     0
100
AcDbPolyline
 90
        8
 70
     0
 43
0.0
 10
92.916985
 20
366.855011
 10
92.856941
 20
366.361359
 10
92.679672
 20
365.891449
 10
92.393707
 20
365.467804
 10
92.012772
 20
365.11084
 10
91.555161
 20
364.837646
 10
91.04287
 20
364.661377
 10
90.417046
 20
364.589233
  0
LWPOLYLINE
  5
90
330
78
100
AcDbEntity
  8
0
  6
Continuous
 62
     0
370
     0
100
AcDbPolyline
 90
        8
 70
     0
 43
0.0
 10
90.417046
 20
364.589233
 10
89.872375
 20
364.643677
 10
89.353874
 20
364.804321
 10
88.886459
 20
365.063507
 10
88.492584
 20
365.408783
 10
88.19117
 20
365.823517
 10
87.996696
 20
366.287811
 10
87.917099
 20
366.855011
  0
LINE
  5
91
330
78
100
AcDbEntity
  8
0
  6
Continuous
 62
     0
370
    30
100
AcDbLine
 10
100.417044
 20
312.491705
 30
0.0
 11
100.417044
 21
174.491908
 31
0.0
  0
LINE
  5
92
330
78
100
AcDbEntity
  8
0
  6
Continuous
 62
     0
370
    30
100
AcDbLine
 10
80.417044
 20
312.491705
 30
0.0
 11
80.417044
 21
174.491908
 31
0.0
  0
ARC
  5
93
330
78
100
AcDbEntity
  8
0
  6
Continuous
 62
     0
370
    30
100
AcDbCircle
 10
72.417078
 20
312.491775
 30
0.0
 40
8.000024015758258
100
AcDbArc
 50
359.999635
 51
53.129714
  0
LWPOLYLINE
  5
94
330
78
100
AcDbEntity
  8
0
  6
Continuous
 62
     0
370
    30
100
AcDbPolyline
 90
       64
 70
     0
 43
0.0
 10
77.244812
 20
318.870911
 10
77.245567
 20
318.870331
 10
77.246529
 20
318.869598
 10
77.248878
 20
318.867828
 10
77.257355
 20
318.861389
 10
77.317642
 20
318.815125
 10
77.415611
 20
318.737976
 10
77.513168
 20
318.65863
 10
77.609406
 20
318.57782
 10
77.704399
 20
318.495483
 10
77.79808
 20
318.411652
 10
77.890434
 20
318.326385
 10
77.981445
 20
318.239685
 10
78.071083
 20
318.15155
 10
78.159325
 20
318.062012
 10
78.24614
 20
317.9711
 10
78.331512
 20
317.878845
 10
78.415428
 20
317.785248
 10
78.497849
 20
317.690338
 10
78.578766
 20
317.594116
 10
78.65815
 20
317.496674
 10
78.736
 20
317.397949
 10
78.812286
 20
317.298065
 10
78.886993
 20
317.19696
 10
78.960114
 20
317.094696
 10
79.031624
 20
316.991333
 10
79.101509
 20
316.886841
 10
79.169746
 20
316.781281
 10
79.236328
 20
316.674652
 10
79.301231
 20
316.566986
 10
79.364441
 20
316.458344
 10
79.425934
 20
316.348694
 10
79.485687
 20
316.238098
 10
79.543686
 20
316.126587
 10
79.599915
 20
316.01416
 10
79.654366
 20
315.900848
 10
79.707016
 20
315.786713
 10
79.757866
 20
315.671753
 10
79.806908
 20
315.556
 10
79.854126
 20
315.439514
 10
79.899513
 20
315.322266
 10
79.943047
 20
315.204346
 10
79.984734
 20
315.085754
 10
80.024544
 20
314.966522
 10
80.062485
 20
314.84671
 10
80.098541
 20
314.726288
 10
80.132706
 20
314.605316
 10
80.16497
 20
314.483856
 10
80.195328
 20
314.361877
 10
80.22377
 20
314.239441
 10
80.25029
 20
314.116547
 10
80.274872
 20
313.993286
 10
80.297523
 20
313.869629
 10
80.318222
 20
313.745636
 10
80.336967
 20
313.621307
 10
80.353752
 20
313.496704
 10
80.368568
 20
313.371857
 10
80.381409
 20
313.246765
 10
80.392288
 20
313.121521
 10
80.401192
 20
312.996094
 10
80.408127
 20
312.870575
 10
80.413094
 20
312.744995
 10
80.416084
 20
312.619385
 10
80.417099
 20
312.49173
  0
LWPOLYLINE
  5
95
330
78
100
AcDbEntity
  8
0
  6
Continuous
 62
     0
370
    30
100
AcDbPolyline
 90
       64
 70
     0
 43
0.0
 10
103.589272
 20
318.870911
 10
103.588524
 20
318.870331
 10
103.587563
 20
318.869598
 10
103.585205
 20
318.867828
 10
103.576729
 20
318.861389
 10
103.516441
 20
318.815125
 10
103.418472
 20
318.737976
 10
103.320923
 20
318.65863
 10
103.224678
 20
318.57782
 10
103.129692
 20
318.495483
 10
103.036003
 20
318.411652
 10
102.943649
 20
318.326385
 10
102.852638
 20
318.239685
 10
102.763
 20
318.15155
 10
102.674767
 20
318.062012
 10
102.587944
 20
317.9711
 10
102.502571
 20
317.878845
 10
102.418663
 20
317.785248
 10
102.336243
 20
317.690338
 10
102.255325
 20
317.594116
 10
102.175934
 20
317.496674
 10
102.098091
 20
317.397949
 10
102.021805
 20
317.298065
 10
101.94709
 20
317.19696
 10
101.873978
 20
317.094696
 10
101.802467
 20
316.991333
 10
101.732582
 20
316.886841
 10
101.664337
 20
316.781281
 10
101.597755
 20
316.674652
 10
101.532852
 20
316.566986
 10
101.469643
 20
316.458344
 10
101.408157
 20
316.348694
 10
101.348396
 20
316.238098
 10
101.290398
 20
316.126587
 10
101.234169
 20
316.01416
 10
101.179726
 20
315.900848
 10
101.127068
 20
315.786713
 10
101.076218
 20
315.671753
 10
101.027176
 20
315.556
 10
100.979958
 20
315.439514
 10
100.934578
 20
315.322266
 10
100.891037
 20
315.204346
 10
100.849358
 20
315.085754
 10
100.80954
 20
314.966522
 10
100.771599
 20
314.84671
 10
100.73555
 20
314.726288
 10
100.701385
 20
314.605316
 10
100.669121
 20
314.483856
 10
100.638763
 20
314.361877
 10
100.610321
 20
314.239441
 10
100.583801
 20
314.116547
 10
100.559212
 20
313.993286
 10
100.536568
 20
313.869629
 10
100.515869
 20
313.745636
 10
100.497124
 20
313.621307
 10
100.480339
 20
313.496704
 10
100.465523
 20
313.371857
 10
100.452675
 20
313.246765
 10
100.441803
 20
313.121521
 10
100.432892
 20
312.996094
 10
100.425957
 20
312.870575
 10
100.420998
 20
312.744995
 10
100.418007
 20
312.619385
 10
100.416985
 20
312.49173
  0
LWPOLYLINE
  5
96
330
78
100
AcDbEntity
  8
0
  6
Continuous
 62
     0
370
    30
100
AcDbPolyline
 90
       14
 70
     0
 43
0.0
 10
100.444847
 20
152.012375
 10
100.441086
 20
153.121231
 10
100.437523
 20
154.368973
 10
100.434181
 20
155.746948
 10
100.431091
 20
157.246231
 10
100.428261
 20
158.856918
 10
100.42572
 20
160.568512
 10
100.423477
 20
162.369888
 10
100.421555
 20
164.249451
 10
100.41996
 20
166.195023
 10
100.418709
 20
168.194061
 10
100.417801
 20
170.233612
 10
100.417244
 20
172.300659
 10
100.417046
 20
174.491913
  0
LWPOLYLINE
  5
97
330
78
100
AcDbEntity
  8
0
  6
Continuous
 62
     0
370
    30
100
AcDbPolyline
 90
       14
 70
     0
 43
0.0
 10
80.417046
 20
174.491913
 10
80.417221
 20
172.408218
 10
80.417763
 20
170.33786
 10
80.418648
 20
168.29422
 10
80.419884
 20
166.290253
 10
80.421463
 20
164.338837
 10
80.42337
 20
162.452499
 10
80.425598
 20
160.64328
 10
80.428131
 20
158.922745
 10
80.430946
 20
157.301819
 10
80.434036
 20
155.790817
 10
80.437378
 20
154.399261
 10
80.440941
 20
153.135742
 10
80.444984
 20
151.938156
  0
LINE
  5
98
330
78
100
AcDbEntity
  8
0
  6
Continuous
 62
     0
370
    30
100
AcDbLine
 10
100.444983
 20
151.975248
 30
0.0
 11
100.481982
 21
142.011231
 31
0.0
  0
LINE
  5
99
330
78
100
AcDbEntity
  8
0
  6
Continuous
 62
     0
370
    30
100
AcDbLine
 10
80.444983
 20
151.938115
 30
0.0
 11
80.48212
 21
141.936966
 31
0.0
  0
LINE
  5
9A
330
78
100
AcDbEntity
  8
0
  6
Continuous
 62
     0
370
    30
100
AcDbLine
 10
83.917054
 20
308.491894
 30
0.0
 11
83.917054
 21
248.491894
 31
0.0
  0
LINE
  5
9B
330
78
100
AcDbEntity
  8
0
  6
Continuous
 62
     0
370
    30
100
AcDbLine
 10
96.917043
 20
308.491894
 30
0.0
 11
96.917043
 21
248.491894
 31
0.0
  0
LWPOLYLINE
  5
9C
330
78
100
AcDbEntity
  8
0
  6
Continuous
 62
     0
370
    30
100
AcDbPolyline
 90
       20
 70
     0
 43
0.0
 10
99.723022
 20
316.556946
 10
99.686668
 20
316.539612
 10
99.407066
 20
316.393829
 10
99.136337
 20
316.230164
 10
98.876419
 20
316.049805
 10
98.628387
 20
315.853424
 10
98.393311
 20
315.641693
 10
98.172165
 20
315.415466
 10
97.965752
 20
315.17572
 10
97.774872
 20
314.923431
 10
97.600342
 20
314.659576
 10
97.442879
 20
314.385193
 10
97.303047
 20
314.101379
 10
97.181465
 20
313.809326
 10
97.078697
 20
313.510162
 10
96.995056
 20
313.205078
 10
96.930801
 20
312.895325
 10
96.886169
 20
312.582062
 10
96.861389
 20
312.266602
 10
96.856697
 20
311.947418
  0
LWPOLYLINE
  5
9D
330
78
100
AcDbEntity
  8
0
  6
Continuous
 62
     0
370
    30
100
AcDbPolyline
 90
       20
 70
     0
 43
0.0
 10
81.111076
 20
316.556946
 10
81.147423
 20
316.539612
 10
81.427032
 20
316.393829
 10
81.697762
 20
316.230164
 10
81.957672
 20
316.049805
 10
82.205711
 20
315.853424
 10
82.440781
 20
315.641693
 10
82.661934
 20
315.415466
 10
82.868347
 20
315.17572
 10
83.059227
 20
314.923431
 10
83.233749
 20
314.659576
 10
83.39122
 20
314.385193
 10
83.531044
 20
314.101379
 10
83.652634
 20
313.809326
 10
83.755402
 20
313.510162
 10
83.839035
 20
313.205078
 10
83.903297
 20
312.895325
 10
83.947929
 20
312.582062
 10
83.97271
 20
312.266602
 10
83.977402
 20
311.947418
  0
LINE
  5
9E
330
78
100
AcDbEntity
  8
0
  6
Continuous
 62
     0
370
    30
100
AcDbLine
 10
96.856748
 20
311.946488
 30
0.0
 11
96.917048
 21
308.491894
 31
0.0
  0
LINE
  5
9F
330
78
100
AcDbEntity
  8
0
  6
Continuous
 62
     0
370
    30
100
AcDbLine
 10
83.977349
 20
311.946488
 30
0.0
 11
83.917048
 21
308.491894
 31
0.0
  0
LINE
  5
A0
330
78
100
AcDbEntity
  8
0
  6
Continuous
 62
     0
370
    30
100
AcDbLine
 10
92.916987
 20
366.847598
 30
0.0
 11
92.916987
 21
358.349327
 31
0.0
  0
LINE
  5
A1
330
78
100
AcDbEntity
  8
0
  6
Continuous
 62
     0
370
    30
100
AcDbLine
 10
87.917101
 20
366.847598
 30
0.0
 11
87.917101
 21
358.349427
 31
0.0
  0
LINE
  5
A2
330
78
100
AcDbEntity
  8
0
  6
Continuous
 62
     0
370
    30
100
AcDbLine
 10
92.916987
 20
371.839697
 30
0.0
 11
92.916987
 21
366.855004
 31
0.0
  0
LINE
  5
A3
330
78
100
AcDbEntity
  8
0
  6
Continuous
 62
     0
370
    30
100
AcDbLine
 10
87.917101
 20
371.839697
 30
0.0
 11
87.917101
 21
366.855004
 31
0.0
  0
LINE
  5
A4
330
78
100
AcDbEntity
  8
0
  6
Continuous
 62
     0
370
    30
100
AcDbLine
 10
87.917101
 20
371.839697
 30
0.0
 11
87.917101
 21
383.334783
 31
0.0
  0
LINE
  5
A5
330
78
100
AcDbEntity
  8
0
  6
Continuous
 62
     0
370
    30
100
AcDbLine
 10
92.916987
 20
371.839697
 30
0.0
 11
92.916987
 21
383.334783
 31
0.0
  0
ENDBLK
  5
A7
330
78
100
AcDbEntity
  8
0
100
AcDbBlockEnd
  0
BLOCK
  5
E5
330
A9
100
AcDbEntity
  8
0
100
AcDbBlockBegin
  2
c
 70
     0
 10
-108.274982
 20
93.035088
 30
0.0
  3
c
  1

  0
LINE
  5
AA
330
A9
100
AcDbEntity
  8
0
  6
Continuous
 62
     0
370
    30
100
AcDbLine
 10
290.82055
 20
816.189368
 30
0.0
 11
312.291234
 21
816.189368
 31
0.0
  0
LINE
  5
AB
330
A9
100
AcDbEntity
  8
0
  6
Continuous
 62
     0
370
    30
100
AcDbLine
 10
268.291234
 20
847.189368
 30
0.0
 11
312.291234
 21
847.189368
 31
0.0
  0
LINE
  5
AC
330
A9
100
AcDbEntity
  8
0
  6
Continuous
 62
     0
370
    30
100
AcDbLine
 10
268.291234
 20
824.389667
 30
0.0
 11
290.82055
 21
816.189368
 31
0.0
  0
LINE
  5
AD
330
A9
100
AcDbEntity
  8
0
  6
Continuous
 62
     0
370
    30
100
AcDbLine
 10
312.291234
 20
816.189368
 30
0.0
 11
312.291234
 21
820.706062
 31
0.0
  0
LWPOLYLINE
  5
AE
330
A9
100
AcDbEntity
  8
0
  6
Continuous
 62
     0
370
     0
100
AcDbPolyline
 90
       33
 70
     0
 43
0.0
 10
312.291229
 20
820.706055
 10
312.267059
 20
820.776611
 10
312.196472
 20
820.98468
 10
312.084534
 20
821.32074
 10
311.938293
 20
821.773743
 10
311.766083
 20
822.329407
 10
311.576599
 20
822.973999
 10
311.377991
 20
823.695007
 10
311.177856
 20
824.482178
 10
310.983063
 20
825.32605
 10
310.80014
 20
826.21759
 10
310.634735
 20
827.148987
 10
310.491913
 20
828.113647
 10
310.375854
 20
829.104919
 10
310.290192
 20
830.11615
 10
310.237488
 20
831.140808
 10
310.219299
 20
832.172241
 10
310.236298
 20
833.203735
 10
310.287903
 20
834.228699
 10
310.372528
 20
835.240479
 10
310.48761
 20
836.232483
 10
310.629639
 20
837.198181
 10
310.794373
 20
838.130859
 10
310.976746
 20
839.023682
 10
311.171143
 20
839.86908
 10
311.371429
 20
840.659058
 10
311.570679
 20
841.38385
 10
311.760803
 20
842.031677
 10
311.933655
 20
842.59021
 10
312.08075
 20
843.046448
 10
312.193787
 20
843.386414
 10
312.265594
 20
843.597839
 10
312.291229
 20
843.672668
  0
LINE
  5
AF
330
A9
100
AcDbEntity
  8
0
  6
Continuous
 62
     0
370
    30
100
AcDbLine
 10
312.291234
 20
843.672675
 30
0.0
 11
312.291234
 21
847.189368
 31
0.0
  0
LINE
  5
B0
330
A9
100
AcDbEntity
  8
0
  6
Continuous
 62
     0
370
    30
100
AcDbLine
 10
317.378496
 20
838.673436
 30
0.0
 11
318.291234
 21
838.689368
 31
0.0
  0
LINE
  5
B1
330
A9
100
AcDbEntity
  8
0
  6
Continuous
 62
     0
370
     0
100
AcDbLine
 10
318.291234
 20
838.689368
 30
0.0
 11
318.291234
 21
825.689368
 31
0.0
  0
LWPOLYLINE
  5
B2
330
A9
100
AcDbEntity
  8
0
  6
Continuous
 62
     0
370
     0
100
AcDbPolyline
 90
       25
 70
     0
 43
0.0
 10
317.37851
 20
825.705322
 10
317.333893
 20
825.765076
 10
317.205811
 20
825.940735
 10
317.005585
 20
826.223511
 10
316.749146
 20
826.602722
 10
316.454315
 20
827.067749
 10
316.138672
 20
827.610107
 10
315.819672
 20
828.223938
 10
315.515228
 20
828.905212
 10
315.244537
 20
829.649963
 10
315.028168
 20
830.450378
 10
314.887329
 20
831.29834
 10
314.836426
 20
832.172729
 10
314.883667
 20
833.047607
 10
315.021332
 20
833.897034
 10
315.235229
 20
834.699463
 10
315.504272
 20
835.446411
 10
315.807831
 20
836.130188
 10
316.126617
 20
836.746643
 10
316.442657
 20
837.291809
 10
316.738617
 20
837.759888
 10
316.996918
 20
838.142578
 10
317.199677
 20
838.429138
 10
317.330627
 20
838.609009
 10
317.37851
 20
838.673462
  0
ARC
  5
B3
330
A9
100
AcDbEntity
  8
0
  6
Continuous
 62
     0
370
    30
100
AcDbCircle
 10
317.291234
 20
843.672675
 30
0.0
 40
4.999999999994477
100
AcDbArc
 50
180.0
 51
271.0
  0
ARC
  5
B4
330
A9
100
AcDbEntity
  8
0
  6
Continuous
 62
     0
370
    30
100
AcDbCircle
 10
317.291234
 20
820.706062
 30
0.0
 40
4.99999999999712
100
AcDbArc
 50
89.0
 51
180.0
  0
LINE
  5
B5
330
A9
100
AcDbEntity
  8
0
  6
Continuous
 62
     0
370
    30
100
AcDbLine
 10
378.291234
 20
825.689374
 30
0.0
 11
378.291234
 21
838.689362
 31
0.0
  0
LINE
  5
B6
330
A9
100
AcDbEntity
  8
0
  6
Continuous
 62
     0
370
    30
100
AcDbLine
 10
378.291234
 20
838.689362
 30
0.0
 11
318.291234
 21
838.689362
 31
0.0
  0
LWPOLYLINE
  5
B7
330
A9
100
AcDbEntity
  8
0
  6
Continuous
 62
     0
370
    30
100
AcDbPolyline
 90
       14
 70
     0
 43
0.0
 10
484.809021
 20
755.63446
 10
483.800385
 20
755.052307
 10
482.78125
 20
754.464355
 10
481.774017
 20
753.883606
 10
480.802185
 20
753.323547
 10
479.88855
 20
752.797424
 10
479.053528
 20
752.316956
 10
478.31366
 20
751.891663
 10
477.680573
 20
751.528137
 10
477.159119
 20
751.229187
 10
476.735352
 20
750.986816
 10
476.417603
 20
750.805847
 10
476.219208
 20
750.693848
 10
476.148773
 20
750.655884
  0
LWPOLYLINE
  5
B8
330
A9
100
AcDbEntity
  8
0
  6
Continuous
 62
     0
370
    30
100
AcDbPolyline
 90
       14
 70
     0
 43
0.0
 10
493.469269
 20
760.655945
 10
493.417084
 20
760.623413
 10
493.250488
 20
760.52478
 10
492.960052
 20
760.354675
 10
492.540863
 20
760.110229
 10
491.993652
 20
759.791992
 10
491.325409
 20
759.404053
 10
490.549347
 20
758.954041
 10
489.684082
 20
758.45282
 10
488.752167
 20
757.913391
 10
487.778198
 20
757.350037
 10
486.786926
 20
756.776978
 10
485.801208
 20
756.207458
 10
484.809021
 20
755.63446
  0
ELLIPSE
  5
B9
330
A9
100
AcDbEntity
  8
0
  6
Continuous
 62
     0
370
     0
100
AcDbEllipse
 10
474.807883
 20
772.978381
 30
0.0
 11
8.660249062705883
 21
5.000008617182762
 31
0.0
210
0.0
220
0.0
230
-1.0
 40
0.001857
 41
1.571868221897545
 42
3.141600989636242
  0
ELLIPSE
  5
BA
330
A9
100
AcDbEntity
  8
0
  6
Continuous
 62
     0
370
     0
100
AcDbEllipse
 10
474.807883
 20
772.978381
 30
0.0
 11
8.660249062705883
 21
5.000008617182762
 31
0.0
210
0.0
220
0.0
230
-1.0
 40
0.001857
 41
6.28317895178525
 42
7.855053529077124
  0
LINE
  5
BB
330
A9
100
AcDbEntity
  8
0
  6
Continuous
 62
     0
370
     0
100
AcDbLine
 10
452.291223
 20
785.956912
 30
0.0
 11
452.291223
 21
775.978374
 31
0.0
  0
LINE
  5
BC
330
A9
100
AcDbEntity
  8
0
  6
Continuous
 62
     0
370
     0
100
AcDbLine
 10
452.291223
 20
795.978328
 30
0.0
 11
452.291223
 21
785.956912
 31
0.0
  0
LINE
  5
BD
330
A9
100
AcDbEntity
  8
0
  6
Continuous
 62
     0
370
    30
100
AcDbLine
 10
312.291223
 20
767.978351
 30
0.0
 11
312.291223
 21
699.978351
 31
0.0
  0
LINE
  5
BE
330
A9
100
AcDbEntity
  8
0
  6
Continuous
 62
     0
370
     0
100
AcDbLine
 10
268.291223
 20
699.978351
 30
0.0
 11
312.291223
 21
699.978351
 31
0.0
  0
LWPOLYLINE
  5
BF
330
A9
100
AcDbEntity
  8
0
  6
Continuous
 62
     0
370
     0
100
AcDbPolyline
 90
       42
 70
     0
 43
0.0
 10
312.291229
 20
767.978333
 10
312.257233
 20
768.055603
 10
312.157593
 20
768.283997
 10
311.998352
 20
768.652161
 10
311.788025
 20
769.146973
 10
311.536469
 20
769.751709
 10
311.253418
 20
770.451172
 10
310.947876
 20
771.232361
 10
310.628143
 20
772.083313
 10
310.301788
 20
772.994019
 10
309.975464
 20
773.957336
 10
309.655212
 20
774.967041
 10
309.346985
 20
776.017029
 10
309.056305
 20
777.102234
 10
308.788239
 20
778.218872
 10
308.547607
 20
779.363098
 10
308.338867
 20
780.53125
 10
308.16629
 20
781.71936
 10
308.033295
 20
782.923401
 10
307.942963
 20
784.139038
 10
307.897156
 20
785.361755
 10
307.896973
 20
786.586853
 10
307.942413
 20
787.809631
 10
308.032471
 20
789.02533
 10
308.165253
 20
790.229431
 10
308.337646
 20
791.417664
 10
308.546143
 20
792.585938
 10
308.78656
 20
793.730347
 10
309.054443
 20
794.847168
 10
309.344971
 20
795.932617
 10
309.653107
 20
796.982849
 10
309.973328
 20
797.992798
 10
310.299652
 20
798.956421
 10
310.625977
 20
799.867554
 10
310.94577
 20
800.718994
 10
311.251465
 20
801.50061
 10
311.534698
 20
802.200562
 10
311.786499
 20
802.805969
 10
311.997101
 20
803.301636
 10
312.156738
 20
803.671021
 10
312.256775
 20
803.900391
 10
312.291229
 20
803.978333
  0
LINE
  5
C0
330
A9
100
AcDbEntity
  8
0
  6
Continuous
 62
     0
370
    30
100
AcDbLine
 10
312.291223
 20
803.978351
 30
0.0
 11
312.291223
 21
814.978351
 31
0.0
  0
LINE
  5
C1
330
A9
100
AcDbEntity
  8
0
  6
Continuous
 62
     0
370
    30
100
AcDbLine
 10
312.291223
 20
814.978351
 30
0.0
 11
268.291223
 21
814.978351
 31
0.0
  0
ARC
  5
C2
330
A9
100
AcDbEntity
  8
0
  6
Continuous
 62
     0
370
    30
100
AcDbCircle
 10
320.291223
 20
767.978351
 30
0.0
 40
8.000000000002586
100
AcDbArc
 50
90.0
 51
180.0
  0
ARC
  5
C3
330
A9
100
AcDbEntity
  8
0
  6
Continuous
 62
     0
370
    30
100
AcDbCircle
 10
320.291223
 20
803.978351
 30
0.0
 40
8.00000000000199
100
AcDbArc
 50
180.0
 51
270.0
  0
LINE
  5
C4
330
A9
100
AcDbEntity
  8
0
  6
Continuous
 62
     0
370
    30
100
AcDbLine
 10
317.233505
 20
515.978351
 30
0.0
 11
317.291229
 21
515.978351
 31
0.0
  0
LINE
  5
C5
330
A9
100
AcDbEntity
  8
0
  6
Continuous
 62
     0
370
    30
100
AcDbLine
 10
263.291229
 20
515.978351
 30
0.0
 11
317.233505
 21
515.978351
 31
0.0
  0
LINE
  5
C6
330
A9
100
AcDbEntity
  8
0
  6
Continuous
 62
     0
370
    30
100
AcDbLine
 10
317.233505
 20
519.978351
 30
0.0
 11
263.291229
 21
519.978351
 31
0.0
  0
LINE
  5
C7
330
A9
100
AcDbEntity
  8
0
  6
Continuous
 62
     0
370
    30
100
AcDbLine
 10
317.291229
 20
519.978351
 30
0.0
 11
317.233505
 21
519.978351
 31
0.0
  0
LINE
  5
C8
330
A9
100
AcDbEntity
  8
0
  6
Continuous
 62
     0
370
    30
100
AcDbLine
 10
312.291229
 20
519.978351
 30
0.0
 11
312.291229
 21
699.978351
 31
0.0
  0
LINE
  5
C9
330
A9
100
AcDbEntity
  8
0
  6
Continuous
 62
     0
370
    30
100
AcDbLine
 10
268.291229
 20
699.978351
 30
0.0
 11
268.291229
 21
519.978351
 31
0.0
  0
LWPOLYLINE
  5
CA
330
A9
100
AcDbEntity
  8
0
  6
Continuous
 62
     0
370
     0
100
AcDbPolyline
 90
       20
 70
     0
 43
0.0
 10
320.291229
 20
775.978333
 10
320.236115
 20
776.029297
 10
320.077118
 20
776.177795
 10
319.826508
 20
776.414795
 10
319.501343
 20
776.728149
 10
319.119354
 20
777.105713
 10
318.696259
 20
777.537415
 10
318.246704
 20
778.014038
 10
317.782623
 20
778.529297
 10
317.314026
 20
779.078735
 10
316.850372
 20
779.658813
 10
316.400085
 20
780.267334
 10
315.971527
 20
780.902283
 10
315.573273
 20
781.562256
 10
315.213898
 20
782.24585
 10
314.902039
 20
782.951294
 10
314.646423
 20
783.675964
 10
314.455688
 20
784.416809
 10
314.335968
 20
785.169434
 10
314.291443
 20
785.956909
  0
LWPOLYLINE
  5
CB
330
A9
100
AcDbEntity
  8
0
  6
Continuous
 62
     0
370
     0
100
AcDbPolyline
 90
       20
 70
     0
 43
0.0
 10
314.291443
 20
785.956909
 10
314.328644
 20
786.718262
 10
314.442108
 20
787.473999
 10
314.627502
 20
788.218323
 10
314.878876
 20
788.946594
 10
315.187561
 20
789.655823
 10
315.544647
 20
790.343262
 10
315.941376
 20
791.00708
 10
316.369232
 20
791.645874
 10
316.819641
 20
792.258118
 10
317.284149
 20
792.841797
 10
317.754242
 20
793.394958
 10
318.220337
 20
793.91394
 10
318.672272
 20
794.394348
 10
319.098236
 20
794.829834
 10
319.483704
 20
795.211487
 10
319.81311
 20
795.529114
 10
320.06842
 20
795.77063
 10
320.232086
 20
795.923523
 10
320.291229
 20
795.978333
  0
LINE
  5
CC
330
A9
100
AcDbEntity
  8
0
  6
Continuous
 62
     0
370
    30
100
AcDbLine
 10
243.448349
 20
746.376825
 30
0.0
 11
254.943436
 21
746.376825
 31
0.0
  0
LINE
  5
CD
330
A9
100
AcDbEntity
  8
0
  6
Continuous
 62
     0
370
     0
100
AcDbLine
 10
254.943436
 20
746.376825
 30
0.0
 11
254.943436
 21
741.376825
 31
0.0
  0
LINE
  5
CE
330
A9
100
AcDbEntity
  8
0
  6
Continuous
 62
     0
370
    30
100
AcDbLine
 10
243.448349
 20
741.376825
 30
0.0
 11
243.448349
 21
746.376825
 31
0.0
  0
ARC
  5
CF
330
A9
100
AcDbEntity
  8
0
  6
Continuous
 62
     0
370
    30
100
AcDbCircle
 10
254.942187
 20
738.374865
 30
0.0
 40
8.001959641140497
100
AcDbArc
 50
25.008939
 51
89.991061
  0
LWPOLYLINE
  5
D0
330
A9
100
AcDbEntity
  8
0
  6
Continuous
 62
     0
370
     0
100
AcDbPolyline
 90
       14
 70
     0
 43
0.0
 10
262.193909
 20
741.757751
 10
262.128601
 20
741.727295
 10
261.936462
 20
741.637695
 10
261.62854
 20
741.494141
 10
261.222626
 20
741.304871
 10
260.742096
 20
741.080811
 10
260.214661
 20
740.834839
 10
259.670685
 20
740.581177
 10
259.141541
 20
740.334412
 10
258.657776
 20
740.108826
 10
258.247192
 20
739.917419
 10
257.933533
 20
739.771118
 10
257.734833
 20
739.678467
 10
257.662354
 20
739.644653
  0
LINE
  5
D1
330
A9
100
AcDbEntity
  8
0
  6
Continuous
 62
     0
370
    30
100
AcDbLine
 10
262.193898
 20
741.757771
 30
0.0
 11
268.291223
 21
728.682016
 31
0.0
  0
LWPOLYLINE
  5
D2
330
A9
100
AcDbEntity
  8
0
  6
Continuous
 62
     0
370
    30
100
AcDbPolyline
 90
       31
 70
     0
 43
0.0
 10
268.291229
 20
716.851196
 10
268.295807
 20
716.937134
 10
268.307465
 20
717.164612
 10
268.322723
 20
717.480225
 10
268.339172
 20
717.847595
 10
268.355377
 20
718.246033
 10
268.370636
 20
718.664124
 10
268.384552
 20
719.095459
 10
268.396881
 20
719.535828
 10
268.407501
 20
719.982666
 10
268.416321
 20
720.43396
 10
268.42334
 20
720.888428
 10
268.428528
 20
721.345032
 10
268.431915
 20
721.803162
 10
268.433563
 20
722.262146
 10
268.433441
 20
722.721313
 10
268.431641
 20
723.180176
 10
268.428162
 20
723.638306
 10
268.423126
 20
724.095154
 10
268.416504
 20
724.550232
 10
268.408447
 20
725.002808
 10
268.398987
 20
725.452332
 10
268.388214
 20
725.897644
 10
268.376251
 20
726.337402
 10
268.36322
 20
726.769775
 10
268.349304
 20
727.19165
 10
268.334869
 20
727.5979
 10
268.320312
 20
727.979858
 10
268.30661
 20
728.319275
 10
268.295746
 20
728.577698
 10
268.291229
 20
728.682007
  0
LINE
  5
D3
330
A9
100
AcDbEntity
  8
0
  6
Continuous
 62
     0
370
    30
100
AcDbLine
 10
320.291223
 20
775.978351
 30
0.0
 11
452.291223
 21
775.978351
 31
0.0
  0
LINE
  5
D4
330
A9
100
AcDbEntity
  8
0
  6
Continuous
 62
     0
370
    30
100
AcDbLine
 10
320.291223
 20
795.978351
 30
0.0
 11
452.291223
 21
795.978351
 31
0.0
  0
LINE
  5
D5
330
A9
100
AcDbEntity
  8
0
  6
Continuous
 62
     0
370
    30
100
AcDbLine
 10
317.291229
 20
515.978351
 30
0.0
 11
317.291229
 21
519.978351
 31
0.0
  0
LINE
  5
D6
330
A9
100
AcDbEntity
  8
0
  6
Continuous
 62
     0
370
    30
100
AcDbLine
 10
263.291229
 20
515.978351
 30
0.0
 11
263.291229
 21
519.978351
 31
0.0
  0
LINE
  5
D7
330
A9
100
AcDbEntity
  8
0
  6
Continuous
 62
     0
370
    30
100
AcDbLine
 10
268.291223
 20
699.978351
 30
0.0
 11
268.291223
 21
716.851205
 31
0.0
  0
LINE
  5
D8
330
A9
100
AcDbEntity
  8
0
  6
Continuous
 62
     0
370
    30
100
AcDbLine
 10
268.291223
 20
728.682016
 30
0.0
 11
268.291223
 21
814.978351
 31
0.0
  0
ARC
  5
D9
330
A9
100
AcDbEntity
  8
0
  6
Continuous
 62
     0
370
    30
100
AcDbCircle
 10
452.291233
 20
759.978338
 30
0.0
 40
16.00001271049849
100
AcDbArc
 50
30.000114
 51
90.000035
  0
ARC
  5
DA
330
A9
100
AcDbEntity
  8
0
  6
Continuous
 62
     0
370
    30
100
AcDbCircle
 10
452.291231
 20
759.978336
 30
0.0
 40
36.00001493417237
100
AcDbArc
 50
30.000084
 51
90.000014
  0
LINE
  5
DB
330
A9
100
AcDbEntity
  8
0
  6
Continuous
 62
     0
370
    30
100
AcDbLine
 10
466.147634
 20
767.978372
 30
0.0
 11
476.148784
 21
750.655913
 31
0.0
  0
LINE
  5
DC
330
A9
100
AcDbEntity
  8
0
  6
Continuous
 62
     0
370
    30
100
AcDbLine
 10
483.468132
 20
777.97839
 30
0.0
 11
493.469282
 21
760.65593
 31
0.0
  0
ARC
  5
DD
330
A9
100
AcDbEntity
  8
0
  6
Continuous
 62
     0
370
    30
100
AcDbCircle
 10
290.291294
 20
813.478313
 30
0.0
 40
20.50519694036653
100
AcDbArc
 50
152.354586
 51
175.804833
  0
ARC
  5
DE
330
A9
100
AcDbEntity
  8
0
  6
Continuous
 62
     0
370
    30
100
AcDbCircle
 10
290.290936
 20
813.4783
 30
0.0
 40
20.50543443610967
100
AcDbArc
 50
4.195152
 51
7.597443
  0
LINE
  5
DF
330
A9
100
AcDbEntity
  8
0
  6
Continuous
 62
     0
370
    30
100
AcDbLine
 10
318.291234
 20
825.689374
 30
0.0
 11
378.291234
 21
825.689374
 31
0.0
  0
LINE
  5
E0
330
A9
100
AcDbEntity
  8
0
  6
Continuous
 62
     0
370
    30
100
AcDbLine
 10
317.378496
 20
825.7053
 30
0.0
 11
318.291234
 21
825.689368
 31
0.0
  0
LINE
  5
E1
330
A9
100
AcDbEntity
  8
0
  6
Continuous
 62
     0
370
    30
100
AcDbLine
 10
268.291234
 20
824.389766
 30
0.0
 11
268.291234
 21
847.189368
 31
0.0
  0
LINE
  5
E2
330
A9
100
AcDbEntity
  8
0
  6
Continuous
 62
     0
370
    30
100
AcDbLine
 10
257.662359
 20
739.64468
 30
0.0
 11
268.291149
 21
716.851165
 31
0.0
  0
ARC
  5
E3
330
A9
100
AcDbEntity
  8
0
  6
Continuous
 62
     0
370
    30
100
AcDbCircle
 10
254.942927
 20
738.376027
 30
0.0
 40
3.000798322124721
100
AcDbArc
 50
25.00971
 51
89.99029
  0
LINE
  5
E4
330
A9
100
AcDbEntity
  8
0
  6
Continuous
 62
     0
370
    30
100
AcDbLine
 10
254.943436
 20
741.376825
 30
0.0
 11
243.448349
 21
741.376825
 31
0.0
  0
ENDBLK
  5
E6
330
A9
100
AcDbEntity
  8
0
100
AcDbBlockEnd
  0
BLOCK
  5
133
330
E8
100
AcDbEntity
  8
0
100
AcDbBlockBegin
  2
d
 70
     0
 10
13.883556
 20
88.216785
 30
0.0
  3
d
  1

  0
LWPOLYLINE
  5
E9
330
E8
100
AcDbEntity
  8
0
  6
Continuous
 62
     0
370
    30
100
AcDbPolyline
 90
        5
 70
     0
 43
0.0
 10
385.425751
 20
364.873199
 10
386.268219
 20
364.003723
 10
387.204712
 20
363.192047
 10
388.220398
 20
362.441986
 10
389.475952
 20
361.653198
  0
LWPOLYLINE
  5
EA
330
E8
100
AcDbEntity
  8
0
  6
Continuous
 62
     0
370
    30
100
AcDbPolyline
 90
       18
 70
     0
 43
0.0
 10
389.475952
 20
361.653198
 10
390.826324
 20
360.936035
 10
392.321716
 20
360.267395
 10
393.955994
 20
359.660217
 10
395.718658
 20
359.127319
 10
397.594788
 20
358.680817
 10
399.565125
 20
358.331421
 10
401.606598
 20
358.087891
 10
403.693207
 20
357.956512
 10
405.796906
 20
357.940643
 10
407.888947
 20
358.040497
 10
409.941162
 20
358.253174
 10
411.927185
 20
358.572876
 10
413.823547
 20
358.99115
 10
415.610504
 20
359.49762
 10
417.272461
 20
360.080383
 10
418.79834
 20
360.726807
 10
420.209869
 20
361.439697
  0
LWPOLYLINE
  5
EB
330
E8
100
AcDbEntity
  8
0
  6
Continuous
 62
     0
370
    30
100
AcDbPolyline
 90
       40
 70
     0
 43
0.0
 10
389.475952
 20
386.9646
 10
390.661804
 20
386.328552
 10
391.962036
 20
385.728943
 10
393.373047
 20
385.174774
 10
394.888641
 20
384.675049
 10
396.499878
 20
384.238556
 10
398.195038
 20
383.873352
 10
399.959808
 20
383.586578
 10
401.777649
 20
383.384125
 10
403.630157
 20
383.270172
 10
405.497772
 20
383.247192
 10
407.360352
 20
383.315674
 10
409.197968
 20
383.474121
 10
410.991577
 20
383.719208
 10
412.723602
 20
384.045868
 10
414.378571
 20
384.44754
 10
415.943481
 20
384.916595
 10
417.407928
 20
385.44458
 10
418.764374
 20
386.022522
 10
420.007904
 20
386.641388
 10
421.144318
 20
387.297302
 10
422.216461
 20
388.015015
 10
423.217773
 20
388.797913
 10
424.132599
 20
389.643188
 10
424.945435
 20
390.546478
 10
425.641663
 20
391.50177
 10
426.207947
 20
392.501617
 10
426.632996
 20
393.537048
 10
426.908051
 20
394.5979
 10
427.027222
 20
395.673248
 10
426.988037
 20
396.751526
 10
426.79126
 20
397.821136
 10
426.441162
 20
398.870758
 10
425.945007
 20
399.889771
 10
425.312958
 20
400.868622
 10
424.557343
 20
401.799072
 10
423.692169
 20
402.674347
 10
422.732635
 20
403.489227
 10
421.694366
 20
404.240143
 10
420.588654
 20
404.927521
  0
LWPOLYLINE
  5
EC
330
E8
100
AcDbEntity
  8
0
  6
Continuous
 62
     0
370
    30
100
AcDbPolyline
 90
       39
 70
     0
 43
0.0
 10
420.588654
 20
404.927521
 10
419.300415
 20
405.614258
 10
417.895477
 20
406.250397
 10
416.382751
 20
406.826752
 10
414.773865
 20
407.334686
 10
413.08313
 20
407.766724
 10
411.327087
 20
408.11673
 10
409.523987
 20
408.380219
 10
407.693176
 20
408.554535
 10
405.85434
 20
408.638885
 10
404.027008
 20
408.634491
 10
402.229614
 20
408.544281
 10
400.479187
 20
408.372772
 10
398.786896
 20
408.125214
 10
397.116455
 20
407.797058
 10
395.469482
 20
407.385071
 10
393.864471
 20
406.889557
 10
392.320099
 20
406.312683
 10
390.854553
 20
405.658447
 10
389.484802
 20
404.932617
 10
388.226074
 20
404.142609
 10
387.091187
 20
403.29715
 10
386.090149
 20
402.406067
 10
385.22995
 20
401.479797
 10
384.514404
 20
400.529175
 10
383.944092
 20
399.56488
 10
383.513519
 20
398.588165
 10
383.21463
 20
397.577972
 10
383.056427
 20
396.540558
 10
383.046753
 20
395.485718
 10
383.190826
 20
394.424072
 10
383.490631
 20
393.366913
 10
383.944946
 20
392.325592
 10
384.549194
 20
391.31131
 10
385.295685
 20
390.334595
 10
386.173767
 20
389.405029
 10
387.170502
 20
388.530853
 10
388.271088
 20
387.718842
 10
389.475952
 20
386.9646
  0
LWPOLYLINE
  5
ED
330
E8
100
AcDbEntity
  8
0
  6
Continuous
 62
     0
370
    30
100
AcDbPolyline
 90
       11
 70
     0
 43
0.0
 10
420.209869
 20
361.439697
 10
421.42981
 20
362.687805
 10
422.54895
 20
363.992035
 10
423.55954
 20
365.343811
 10
424.451935
 20
366.731354
 10
425.218567
 20
368.144958
 10
425.85614
 20
369.579132
 10
426.361145
 20
371.027649
 10
426.728424
 20
372.481628
 10
426.953186
 20
373.931549
 10
427.032257
 20
375.416626
  0
LWPOLYLINE
  5
EE
330
E8
100
AcDbEntity
  8
0
  6
Continuous
 62
     0
370
     0
100
AcDbPolyline
 90
       15
 70
     0
 43
0.0
 10
384.350433
 20
379.386017
 10
384.369659
 20
380.316833
 10
384.426544
 20
381.181061
 10
384.522888
 20
381.971863
 10
384.661591
 20
382.683105
 10
384.846619
 20
383.309296
 10
385.082886
 20
383.845093
 10
385.376282
 20
384.284912
 10
385.733856
 20
384.622223
 10
386.162262
 20
384.849762
 10
386.667236
 20
384.959473
 10
387.252838
 20
384.943817
 10
387.919861
 20
384.796173
 10
388.663147
 20
384.512634
 10
389.475952
 20
384.093231
  0
LWPOLYLINE
  5
EF
330
E8
100
AcDbEntity
  8
0
  6
Continuous
 62
     0
370
     0
100
AcDbPolyline
 90
        3
 70
     0
 43
0.0
 10
389.475952
 20
365.341064
 10
388.808014
 20
365.794739
 10
388.114441
 20
366.425537
  0
LWPOLYLINE
  5
F0
330
E8
100
AcDbEntity
  8
0
  6
Continuous
 62
     0
370
     0
100
AcDbPolyline
 90
       32
 70
     0
 43
0.0
 10
389.475952
 20
384.093231
 10
390.245728
 20
383.60849
 10
391.034637
 20
383.033539
 10
391.822815
 20
382.38385
 10
392.595825
 20
381.671509
 10
393.339417
 20
380.910034
 10
394.041962
 20
380.110626
 10
394.695282
 20
379.281616
 10
395.292969
 20
378.428986
 10
395.829285
 20
377.55838
 10
396.298981
 20
376.675079
 10
396.697937
 20
375.783081
 10
397.022491
 20
374.8862
 10
397.269348
 20
373.988647
 10
397.435974
 20
373.095001
 10
397.520477
 20
372.210297
 10
397.521912
 20
371.339996
 10
397.440277
 20
370.490143
 10
397.276489
 20
369.667114
 10
397.032349
 20
368.877747
 10
396.710419
 20
368.129272
 10
396.313873
 20
367.429291
 10
395.846649
 20
366.786072
 10
395.312897
 20
366.208496
 10
394.716888
 20
365.706787
 10
394.063812
 20
365.291962
 10
393.361542
 20
364.97699
 10
392.618774
 20
364.775085
 10
391.846741
 20
364.699066
 10
391.058655
 20
364.761139
 10
390.270905
 20
364.969727
 10
389.475952
 20
365.341064
  0
LWPOLYLINE
  5
F1
330
E8
100
AcDbEntity
  8
0
  6
Continuous
 62
     0
370
     0
100
AcDbPolyline
 90
       17
 70
     0
 43
0.0
 10
388.483307
 20
366.638489
 10
388.94577
 20
366.995331
 10
389.31546
 20
367.471954
 10
389.584534
 20
368.045898
 10
389.75235
 20
368.690216
 10
389.824829
 20
369.376953
 10
389.811218
 20
370.097565
 10
389.708862
 20
370.891754
 10
389.508606
 20
371.747589
 10
389.206573
 20
372.641602
 10
388.805634
 20
373.544586
 10
388.31604
 20
374.424316
 10
387.754791
 20
375.249207
 10
387.143524
 20
375.991943
 10
386.506104
 20
376.632507
 10
385.86557
 20
377.159393
 10
385.233307
 20
377.57489
  0
LWPOLYLINE
  5
F2
330
E8
100
AcDbEntity
  8
0
  6
Continuous
 62
     0
370
     0
100
AcDbPolyline
 90
        7
 70
     0
 43
0.0
 10
385.233307
 20
377.57489
 10
384.694397
 20
377.849426
 10
384.140656
 20
378.053589
 10
383.584625
 20
378.173553
 10
383.040924
 20
378.197968
 10
382.525116
 20
378.119293
 10
381.978973
 20
377.894287
  0
LWPOLYLINE
  5
F3
330
E8
100
AcDbEntity
  8
0
  6
Continuous
 62
     0
370
     0
100
AcDbPolyline
 90
        6
 70
     0
 43
0.0
 10
383.545685
 20
378.755432
 10
383.804321
 20
378.815094
 10
384.156921
 20
378.75882
 10
384.616943
 20
378.590149
 10
385.191589
 20
378.313477
 10
385.878723
 20
377.934509
  0
LWPOLYLINE
  5
F4
330
E8
100
AcDbEntity
  8
0
  6
Continuous
 62
     0
370
     0
100
AcDbPolyline
 90
       19
 70
     0
 43
0.0
 10
385.878723
 20
377.934509
 10
386.52359
 20
377.549896
 10
387.209808
 20
377.115295
 10
387.915588
 20
376.641205
 10
388.621124
 20
376.134735
 10
389.307861
 20
375.601013
 10
389.960083
 20
375.041718
 10
390.563324
 20
374.455994
 10
391.102051
 20
373.841705
 10
391.558594
 20
373.196808
 10
391.912323
 20
372.522858
 10
392.141357
 20
371.821716
 10
392.229279
 20
371.107391
 10
392.165741
 20
370.399567
 10
391.958771
 20
369.719971
 10
391.623932
 20
369.088654
 10
391.182678
 20
368.517273
 10
390.656067
 20
368.01651
 10
390.047546
 20
367.586182
  0
LWPOLYLINE
  5
F5
330
E8
100
AcDbEntity
  8
0
  6
Continuous
 62
     0
370
     0
100
AcDbPolyline
 90
       10
 70
     0
 43
0.0
 10
389.475952
 20
384.093231
 10
389.422424
 20
383.357666
 10
389.264191
 20
382.579803
 10
389.005341
 20
381.786469
 10
388.654175
 20
381.002136
 10
388.221466
 20
380.249878
 10
387.719788
 20
379.551605
 10
387.163788
 20
378.92807
 10
386.570038
 20
378.398834
 10
385.878723
 20
377.934509
  0
LWPOLYLINE
  5
F6
330
E8
100
AcDbEntity
  8
0
  6
Continuous
 62
     0
370
     0
100
AcDbPolyline
 90
        4
 70
     0
 43
0.0
 10
389.075623
 20
366.996979
 10
389.284241
 20
366.555695
 10
389.417908
 20
366.041138
 10
389.475952
 20
365.341064
  0
ELLIPSE
  5
F7
330
E8
100
AcDbEntity
  8
0
  6
Continuous
 62
     0
370
    30
100
AcDbEllipse
 10
342.806912
 20
347.772761
 30
0.0
 11
-3.249997076794557
 21
5.629160061458501
 31
0.0
210
0.0
220
0.0
230
-0.9999999999999997
 40
0.57735
 41
0.7853981633974483
 42
3.926990816987237
  0
ELLIPSE
  5
F8
330
E8
100
AcDbEntity
  8
0
  6
Continuous
 62
     0
370
    30
100
AcDbEllipse
 10
342.806912
 20
347.772761
 30
0.0
 11
-3.249997076794557
 21
5.629160061458501
 31
0.0
210
0.0
220
0.0
230
-0.9999999999999997
 40
0.57735
 41
3.926990816987237
 42
7.068583470577035
  0
LWPOLYLINE
  5
F9
330
E8
100
AcDbEntity
  8
0
  6
Continuous
 62
     0
370
    30
100
AcDbPolyline
 90
       10
 70
     0
 43
0.0
 10
414.057831
 20
359.051056
 10
412.32019
 20
358.614136
 10
410.458252
 20
358.262115
 10
408.489502
 20
358.008881
 10
406.437012
 20
357.866821
 10
404.328918
 20
357.845947
 10
402.197662
 20
357.952911
 10
400.078247
 20
358.190643
 10
398.006683
 20
358.557587
 10
396.006775
 20
359.051056
  0
LWPOLYLINE
  5
FA
330
E8
100
AcDbEntity
  8
0
  6
Continuous
 62
     0
370
    30
100
AcDbPolyline
 90
        8
 70
     0
 43
0.0
 10
425.384064
 20
368.4888
 10
425.159576
 20
367.555939
 10
424.804779
 20
366.631439
 10
424.321564
 20
365.724335
 10
423.714417
 20
364.843445
 10
422.990112
 20
363.99704
 10
422.157593
 20
363.192566
 10
421.123779
 20
362.359467
  0
LWPOLYLINE
  5
FB
330
E8
100
AcDbEntity
  8
0
  6
Continuous
 62
     0
370
    30
100
AcDbPolyline
 90
        7
 70
     0
 43
0.0
 10
276.861816
 20
238.168274
 10
276.733246
 20
237.984589
 10
276.505737
 20
237.841553
 10
276.183594
 20
237.741165
 10
275.774109
 20
237.684067
 10
275.286896
 20
237.669495
 10
274.604462
 20
237.706253
  0
LWPOLYLINE
  5
FC
330
E8
100
AcDbEntity
  8
0
  6
Continuous
 62
     0
370
    30
100
AcDbPolyline
 90
       22
 70
     0
 43
0.0
 10
274.604462
 20
237.706253
 10
273.892181
 20
237.790833
 10
273.07077
 20
237.929337
 10
272.14621
 20
238.124832
 10
271.130035
 20
238.378189
 10
270.039429
 20
238.687683
 10
268.896423
 20
239.048798
 10
267.726685
 20
239.454315
 10
266.557587
 20
239.894852
 10
265.416138
 20
240.359467
 10
264.326935
 20
240.836624
 10
263.310638
 20
241.315063
 10
262.382721
 20
241.7845
 10
261.553284
 20
242.236298
 10
260.807129
 20
242.675964
 10
260.116028
 20
243.121506
 10
259.500427
 20
243.564499
 10
258.981873
 20
243.994537
 10
258.579987
 20
244.400589
 10
258.310547
 20
244.771759
 10
258.18396
 20
245.098206
 10
258.205017
 20
245.374161
  0
ELLIPSE
  5
FD
330
E8
100
AcDbEntity
  8
0
  6
Continuous
 62
     0
370
     0
100
AcDbEllipse
 10
274.579038
 20
260.013059
 30
0.0
 11
9.328387630137701
 21
-3.6029410516818
 31
0.0
210
0.0
220
0.0
230
-0.9999999999999997
 40
0.210252
 41
0.0000000161712463
 42
0.6333091239226833
  0
ELLIPSE
  5
FE
330
E8
100
AcDbEntity
  8
0
  6
Continuous
 62
     0
370
     0
100
AcDbEllipse
 10
274.579038
 20
260.013059
 30
0.0
 11
9.328387630137701
 21
-3.6029410516818
 31
0.0
210
0.0
220
0.0
230
-0.9999999999999997
 40
0.210252
 41
0.6333091239226756
 42
3.141592879090005
  0
LWPOLYLINE
  5
FF
330
E8
100
AcDbEntity
  8
0
  6
Continuous
 62
     0
370
     0
100
AcDbPolyline
 90
        8
 70
     0
 43
0.0
 10
295.481018
 20
271.17099
 10
296.031433
 20
271.568024
 10
296.502777
 20
272.074646
 10
296.887939
 20
272.67746
 10
297.183563
 20
273.360016
 10
297.389984
 20
274.104034
 10
297.510712
 20
274.890778
 10
297.552063
 20
275.766296
  0
LWPOLYLINE
  5
100
330
E8
100
AcDbEntity
  8
0
  6
Continuous
 62
     0
370
     0
100
AcDbPolyline
 90
       21
 70
     0
 43
0.0
 10
297.552063
 20
275.766296
 10
297.509155
 20
276.672028
 10
297.377533
 20
277.652527
 10
297.150055
 20
278.694794
 10
296.822815
 20
279.78125
 10
296.396027
 20
280.890259
 10
295.874512
 20
281.997467
 10
295.267761
 20
283.077271
 10
294.589325
 20
284.104797
 10
293.855804
 20
285.057831
 10
293.085724
 20
285.918274
 10
292.297821
 20
286.673187
 10
291.509918
 20
287.315277
 10
290.737793
 20
287.84259
 10
289.981049
 20
288.264435
 10
289.203522
 20
288.599426
 10
288.414734
 20
288.832794
 10
287.631195
 20
288.949097
 10
286.871063
 20
288.936218
 10
286.153198
 20
288.786957
 10
285.481018
 20
288.491516
  0
LWPOLYLINE
  5
101
330
E8
100
AcDbEntity
  8
0
  6
Continuous
 62
     0
370
     0
100
AcDbPolyline
 90
       42
 70
     0
 43
0.0
 10
389.475952
 20
351.682953
 10
390.364166
 20
351.135101
 10
391.282471
 20
350.499756
 10
392.213043
 20
349.791626
 10
393.140045
 20
349.024078
 10
394.049591
 20
348.210541
 10
394.93161
 20
347.361359
 10
395.778839
 20
346.483856
 10
396.585602
 20
345.58429
 10
397.347351
 20
344.667267
 10
398.061157
 20
343.735016
 10
398.723907
 20
342.789459
 10
399.332489
 20
341.832397
 10
399.88382
 20
340.865265
 10
400.375214
 20
339.888641
 10
400.803894
 20
338.903229
 10
401.167023
 20
337.910187
 10
401.4617
 20
336.910828
 10
401.685394
 20
335.907196
 10
401.835754
 20
334.90152
 10
401.911346
 20
333.896759
 10
401.911469
 20
332.896393
 10
401.836182
 20
331.904266
 10
401.686157
 20
330.924652
 10
401.462891
 20
329.961975
 10
401.16861
 20
329.020905
 10
400.805817
 20
328.10614
 10
400.377411
 20
327.222687
 10
399.886261
 20
326.37558
 10
399.335175
 20
325.570251
 10
398.726898
 20
324.812286
 10
398.064392
 20
324.108704
 10
397.350861
 20
323.467438
 10
396.589294
 20
322.896759
 10
395.782715
 20
322.406219
 10
394.935669
 20
322.007568
 10
394.053894
 20
321.713898
 10
393.14444
 20
321.539246
 10
392.217468
 20
321.497986
 10
391.286804
 20
321.603912
 10
390.368408
 20
321.865509
 10
389.475952
 20
322.289093
  0
ELLIPSE
  5
102
330
E8
100
AcDbEntity
  8
0
  6
Continuous
 62
     0
370
     0
100
AcDbEllipse
 10
405.032313
 20
275.748773
 30
0.0
 11
-22.0
 21
0.0
 31
0.0
210
0.0
220
0.0
230
1.0
 40
0.57735
 41
0.7853981633974483
 42
3.141592644950107
  0
ELLIPSE
  5
103
330
E8
100
AcDbEntity
  8
0
  6
Continuous
 62
     0
370
     0
100
AcDbEllipse
 10
405.032313
 20
275.748773
 30
0.0
 11
-22.0
 21
0.0
 31
0.0
210
0.0
220
0.0
230
1.0
 40
0.57735
 41
6.2831852985399
 42
7.068583470577035
  0
LWPOLYLINE
  5
104
330
E8
100
AcDbEntity
  8
0
  6
Continuous
 62
     0
370
     0
100
AcDbPolyline
 90
       18
 70
     0
 43
0.0
 10
383.277924
 20
346.174835
 10
383.311188
 20
347.118042
 10
383.361145
 20
347.998962
 10
383.430664
 20
348.815155
 10
383.523529
 20
349.564667
 10
383.644012
 20
350.245636
 10
383.797211
 20
350.856232
 10
383.988617
 20
351.394409
 10
384.224518
 20
351.856964
 10
384.511536
 20
352.240021
 10
384.856964
 20
352.539093
 10
385.26889
 20
352.748322
 10
385.755005
 20
352.859955
 10
386.322662
 20
352.865967
 10
386.977753
 20
352.758057
 10
387.72171
 20
352.528717
 10
388.550812
 20
352.174103
 10
389.475952
 20
351.682953
  0
LWPOLYLINE
  5
105
330
E8
100
AcDbEntity
  8
0
  6
Continuous
 62
     0
370
     0
100
AcDbPolyline
 90
        4
 70
     0
 43
0.0
 10
389.475952
 20
322.289093
 10
388.724091
 20
322.795319
 10
388.020721
 20
323.415771
 10
387.324585
 20
324.19693
  0
ELLIPSE
  5
106
330
E8
100
AcDbEntity
  8
0
  6
Continuous
 62
     0
370
    30
100
AcDbEllipse
 10
405.032313
 20
369.64588
 30
0.0
 11
22.0
 21
0.0
 31
0.0
210
0.0
220
0.0
230
-1.0
 40
0.57735
 41
2.356194490192345
 42
2.729272330026803
  0
ELLIPSE
  5
107
330
E8
100
AcDbEntity
  8
0
  6
Continuous
 62
     0
370
    30
100
AcDbEllipse
 10
405.032313
 20
369.64588
 30
0.0
 11
22.0
 21
0.0
 31
0.0
210
0.0
220
0.0
230
-1.0
 40
0.57735
 41
6.09268383531159
 42
8.639379797371932
  0
LWPOLYLINE
  5
108
330
E8
100
AcDbEntity
  8
0
  6
Continuous
 62
     0
370
     0
100
AcDbPolyline
 90
       24
 70
     0
 43
0.0
 10
390.822388
 20
326.216309
 10
391.714294
 20
326.787994
 10
392.529449
 20
327.4245
 10
393.257568
 20
328.114227
 10
393.88623
 20
328.847168
 10
394.40213
 20
329.613525
 10
394.790344
 20
330.402618
 10
395.036652
 20
331.203247
 10
395.131744
 20
332.003235
 10
395.069611
 20
332.790741
 10
394.854553
 20
333.557434
 10
394.495087
 20
334.296906
 10
394.004669
 20
335.008301
 10
393.398682
 20
335.693207
 10
392.690613
 20
336.355469
 10
391.892883
 20
337.000061
 10
391.016266
 20
337.63208
 10
390.070648
 20
338.256683
 10
389.065765
 20
338.878265
 10
388.01297
 20
339.499847
 10
386.931366
 20
340.11972
 10
385.845825
 20
340.733002
 10
384.79361
 20
341.327637
 10
383.819122
 20
341.88501
  0
LWPOLYLINE
  5
109
330
E8
100
AcDbEntity
  8
0
  6
Continuous
 62
     0
370
     0
100
AcDbPolyline
 90
        5
 70
     0
 43
0.0
 10
389.475952
 20
322.289093
 10
389.435394
 20
323.045807
 10
389.314545
 20
323.745483
 10
389.114899
 20
324.377136
 10
388.7742
 20
325.033844
  0
LWPOLYLINE
  5
10A
330
E8
100
AcDbEntity
  8
0
  6
Continuous
 62
     0
370
     0
100
AcDbPolyline
 90
       11
 70
     0
 43
0.0
 10
383.819122
 20
341.88501
 10
384.701752
 20
342.47464
 10
385.562836
 20
343.209656
 10
386.381836
 20
344.073792
 10
387.139893
 20
345.046967
 10
387.817047
 20
346.104004
 10
388.394562
 20
347.218628
 10
388.859131
 20
348.361633
 10
389.198853
 20
349.503113
 10
389.405731
 20
350.616608
 10
389.475952
 20
351.682953
  0
ELLIPSE
  5
10B
330
E8
100
AcDbEntity
  8
0
  6
Continuous
 62
     0
370
    30
100
AcDbEllipse
 10
405.032303
 20
125.513403
 30
0.0
 11
-27.00000000000004
 21
1.498801083243963E-15
 31
0.0
210
0.0
220
0.0
230
1.0
 40
0.57735
 41
0.7199961065643627
 42
3.141592644950107
  0
ELLIPSE
  5
10C
330
E8
100
AcDbEntity
  8
0
  6
Continuous
 62
     0
370
    30
100
AcDbEllipse
 10
405.032303
 20
125.513403
 30
0.0
 11
-27.00000000000004
 21
1.498801083243963E-15
 31
0.0
210
0.0
220
0.0
230
1.0
 40
0.57735
 41
6.2831852985399
 42
7.003181413743947
  0
ELLIPSE
  5
10D
330
E8
100
AcDbEntity
  8
0
  6
Continuous
 62
     0
370
    30
100
AcDbEllipse
 10
405.032303
 20
128.779389
 30
0.0
 11
27.00000000000004
 21
-1.498801083243963E-15
 31
0.0
210
0.0
220
0.0
230
-1.0
 40
0.57735
 41
2.421596547025432
 42
3.75999601970086
  0
ELLIPSE
  5
10E
330
E8
100
AcDbEntity
  8
0
  6
Continuous
 62
     0
370
    30
100
AcDbEllipse
 10
405.032303
 20
128.779389
 30
0.0
 11
27.00000000000004
 21
-1.498801083243963E-15
 31
0.0
210
0.0
220
0.0
230
-1.0
 40
0.57735
 41
5.664781958336082
 42
8.704781854205017
  0
LWPOLYLINE
  5
10F
330
E8
100
AcDbEntity
  8
0
  6
Continuous
 62
     0
370
    30
100
AcDbPolyline
 90
       11
 70
     0
 43
0.0
 10
383.032318
 20
128.779221
 10
383.107178
 20
127.732262
 10
383.330292
 20
126.695946
 10
383.697083
 20
125.680542
 10
384.200378
 20
124.695633
 10
384.830566
 20
123.749832
 10
385.576019
 20
122.850571
 10
386.423737
 20
122.003899
 10
387.359802
 20
121.214493
 10
388.369843
 20
120.485565
 10
389.475952
 20
119.797928
  0
LWPOLYLINE
  5
110
330
E8
100
AcDbEntity
  8
0
  6
Continuous
 62
     0
370
    30
100
AcDbPolyline
 90
       31
 70
     0
 43
0.0
 10
389.475952
 20
119.797928
 10
390.631989
 20
119.176765
 10
391.897034
 20
118.590096
 10
393.267883
 20
118.046295
 10
394.738861
 20
117.553749
 10
396.30188
 20
117.120636
 10
397.946289
 20
116.75457
 10
399.65918
 20
116.462334
 10
401.425354
 20
116.249557
 10
403.228058
 20
116.120468
 10
405.049255
 20
116.07769
 10
406.87027
 20
116.122086
 10
408.672485
 20
116.252762
 10
410.437836
 20
116.467064
 10
412.149536
 20
116.760727
 10
413.792572
 20
117.128105
 10
415.353973
 20
117.562393
 10
416.823151
 20
118.055962
 10
418.192047
 20
118.600639
 10
419.455109
 20
119.188026
 10
420.609131
 20
119.809761
 10
421.684021
 20
120.478378
 10
422.698914
 20
121.209915
 10
423.639282
 20
122.002464
 10
424.490601
 20
122.852776
 10
425.238739
 20
123.756111
 10
425.870514
 20
124.706337
 10
426.374207
 20
125.695915
 10
426.740112
 20
126.71611
 10
426.960938
 20
127.757202
 10
427.032043
 20
128.84198
  0
LINE
  5
111
330
E8
100
AcDbEntity
  8
0
  6
Continuous
 62
     0
370
     0
100
AcDbLine
 10
389.475954
 20
119.797927
 30
0.0
 11
389.475954
 21
266.767311
 31
0.0
  0
LWPOLYLINE
  5
112
330
E8
100
AcDbEntity
  8
0
  6
Continuous
 62
     0
370
     0
100
AcDbPolyline
 90
        9
 70
     0
 43
0.0
 10
380.821381
 20
343.536285
 10
380.90979
 20
343.547424
 10
381.053131
 20
343.500732
 10
381.263519
 20
343.394958
 10
381.553833
 20
343.22821
 10
381.937256
 20
342.998322
 10
382.426056
 20
342.704041
 10
383.027069
 20
342.346863
 10
383.819122
 20
341.88501
  0
LWPOLYLINE
  5
113
330
E8
100
AcDbEntity
  8
0
  6
Continuous
 62
     0
370
     0
100
AcDbPolyline
 90
       11
 70
     0
 43
0.0
 10
431.276947
 20
323.85733
 10
431.53241
 20
324.083282
 10
431.706024
 20
324.414612
 10
431.788391
 20
324.833344
 10
431.775055
 20
325.316681
 10
431.666687
 20
325.838379
 10
431.469208
 20
326.370087
 10
431.193329
 20
326.882904
 10
430.854034
 20
327.348938
 10
430.469818
 20
327.742889
 10
430.026978
 20
328.063629
  0
LWPOLYLINE
  5
114
330
E8
100
AcDbEntity
  8
0
  6
Continuous
 62
     0
370
     0
100
AcDbPolyline
 90
        5
 70
     0
 43
0.0
 10
430.026978
 20
328.063629
 10
429.714905
 20
328.211761
 10
429.412659
 20
328.291107
 10
429.129669
 20
328.299194
 10
428.777008
 20
328.187469
  0
LWPOLYLINE
  5
115
330
E8
100
AcDbEntity
  8
0
  6
Continuous
 62
     0
370
    30
100
AcDbPolyline
 90
        5
 70
     0
 43
0.0
 10
436.903229
 20
332.87915
 10
437.143982
 20
332.973358
 10
437.416687
 20
332.996216
 10
437.712738
 20
332.946991
 10
438.155212
 20
332.7565
  0
LWPOLYLINE
  5
116
330
E8
100
AcDbEntity
  8
0
  6
Continuous
 62
     0
370
    30
100
AcDbPolyline
 90
       11
 70
     0
 43
0.0
 10
438.155212
 20
332.7565
 10
438.564545
 20
332.464691
 10
438.95163
 20
332.07782
 10
439.29541
 20
331.616882
 10
439.577209
 20
331.106934
 10
439.781708
 20
330.575714
 10
439.897827
 20
330.052063
 10
439.91922
 20
329.564484
 10
439.844757
 20
329.139404
 10
439.678467
 20
328.800018
 10
439.405182
 20
328.550171
  0
LWPOLYLINE
  5
117
330
E8
100
AcDbEntity
  8
0
  6
Continuous
 62
     0
370
     0
100
AcDbPolyline
 90
        6
 70
     0
 43
0.0
 10
428.878113
 20
320.616516
 10
428.75
 20
320.476288
 10
428.481415
 20
320.393433
 10
428.089203
 20
320.373108
 10
427.597839
 20
320.416626
 10
427.032318
 20
320.522552
  0
LINE
  5
118
330
E8
100
AcDbEntity
  8
0
  6
Continuous
 62
     0
370
    30
100
AcDbLine
 10
390.823004
 20
326.216726
 30
0.0
 11
295.481015
 21
271.171002
 31
0.0
  0
LINE
  5
119
330
E8
100
AcDbEntity
  8
0
  6
Continuous
 62
     0
370
    30
100
AcDbLine
 10
380.822994
 20
343.537228
 30
0.0
 11
285.481014
 21
288.49151
 31
0.0
  0
LWPOLYLINE
  5
11A
330
E8
100
AcDbEntity
  8
0
  6
Continuous
 62
     0
370
    30
100
AcDbPolyline
 90
       10
 70
     0
 43
0.0
 10
380.82309
 20
343.537323
 10
381.38147
 20
343.900543
 10
381.894958
 20
344.317169
 10
382.34848
 20
344.771942
 10
382.731689
 20
345.245331
 10
383.036804
 20
345.711121
 10
383.259094
 20
346.133911
 10
383.399628
 20
346.471649
 10
383.471069
 20
346.691772
 10
383.490753
 20
346.76825
  0
LINE
  5
11B
330
E8
100
AcDbEntity
  8
0
  6
Continuous
 62
     0
370
    30
100
AcDbLine
 10
427.032036
 20
128.779551
 30
0.0
 11
427.032126
 21
275.748672
 31
0.0
  0
LINE
  5
11C
330
E8
100
AcDbEntity
  8
0
  6
Continuous
 62
     0
370
    30
100
AcDbLine
 10
383.03257
 20
128.779219
 30
0.0
 11
383.03248
 21
275.748866
 31
0.0
  0
LINE
  5
11D
330
E8
100
AcDbEntity
  8
0
  6
Continuous
 62
     0
370
    30
100
AcDbLine
 10
432.032303
 20
125.513403
 30
0.0
 11
432.032303
 21
128.779389
 31
0.0
  0
LINE
  5
11E
330
E8
100
AcDbEntity
  8
0
  6
Continuous
 62
     0
370
    30
100
AcDbLine
 10
378.032303
 20
125.513403
 30
0.0
 11
378.032303
 21
128.779389
 31
0.0
  0
LINE
  5
11F
330
E8
100
AcDbEntity
  8
0
  6
Continuous
 62
     0
370
    30
100
AcDbLine
 10
427.032313
 20
275.748773
 30
0.0
 11
427.032313
 21
369.64588
 31
0.0
  0
LINE
  5
120
330
E8
100
AcDbEntity
  8
0
  6
Continuous
 62
     0
370
    30
100
AcDbLine
 10
383.032313
 20
345.70345
 30
0.0
 11
383.032313
 21
363.491359
 31
0.0
  0
LINE
  5
121
330
E8
100
AcDbEntity
  8
0
  6
Continuous
 62
     0
370
    30
100
AcDbLine
 10
383.032313
 20
275.748773
 30
0.0
 11
383.032313
 21
321.718767
 31
0.0
  0
LWPOLYLINE
  5
122
330
E8
100
AcDbEntity
  8
0
  6
Continuous
 62
     0
370
    30
100
AcDbPolyline
 90
       14
 70
     0
 43
0.0
 10
283.90744
 20
256.410126
 10
284.504639
 20
257.852386
 10
285.179932
 20
259.288147
 10
285.927612
 20
260.703705
 10
286.741089
 20
262.086121
 10
287.613068
 20
263.422882
 10
288.535004
 20
264.701965
 10
289.497528
 20
265.911804
 10
290.490234
 20
267.041168
 10
291.501038
 20
268.079529
 10
292.516541
 20
269.016754
 10
293.521179
 20
269.843719
 10
294.497345
 20
270.552887
 10
295.481018
 20
271.17099
  0
LWPOLYLINE
  5
123
330
E8
100
AcDbEntity
  8
0
  6
Continuous
 62
     0
370
    30
100
AcDbPolyline
 90
       14
 70
     0
 43
0.0
 10
285.481018
 20
288.491516
 10
283.498016
 20
287.25769
 10
281.564056
 20
285.87793
 10
279.684082
 20
284.360229
 10
277.863525
 20
282.712708
 10
276.108612
 20
280.943939
 10
274.425873
 20
279.062988
 10
272.822327
 20
277.079529
 10
271.305054
 20
275.003784
 10
269.881226
 20
272.846619
 10
268.557892
 20
270.619232
 10
267.341888
 20
268.333282
 10
266.239532
 20
266.000336
 10
265.250641
 20
263.615997
  0
LINE
  5
124
330
E8
100
AcDbEntity
  8
0
  6
Continuous
 62
     0
370
    30
100
AcDbLine
 10
283.907426
 20
256.410118
 30
0.0
 11
276.861805
 21
238.168275
 31
0.0
  0
LINE
  5
125
330
E8
100
AcDbEntity
  8
0
  6
Continuous
 62
     0
370
    30
100
AcDbLine
 10
265.250651
 20
263.616
 30
0.0
 11
258.20503
 21
245.374157
 31
0.0
  0
LINE
  5
126
330
E8
100
AcDbEntity
  8
0
  6
Continuous
 62
     0
370
    30
100
AcDbLine
 10
381.983321
 20
377.896818
 30
0.0
 11
339.556914
 21
353.401921
 31
0.0
  0
LINE
  5
127
330
E8
100
AcDbEntity
  8
0
  6
Continuous
 62
     0
370
    30
100
AcDbLine
 10
388.483316
 20
366.638498
 30
0.0
 11
346.056909
 21
342.143601
 31
0.0
  0
LINE
  5
128
330
E8
100
AcDbEntity
  8
0
  6
Continuous
 62
     0
370
    30
100
AcDbLine
 10
390.047556
 20
367.586183
 30
0.0
 11
390.052128
 21
367.588945
 31
0.0
  0
LWPOLYLINE
  5
129
330
E8
100
AcDbEntity
  8
0
  6
Continuous
 62
     0
370
    30
100
AcDbPolyline
 90
        7
 70
     0
 43
0.0
 10
384.794037
 20
380.069092
 10
384.767731
 20
380.002808
 10
384.674622
 20
379.822418
 10
384.503571
 20
379.568573
 10
384.253021
 20
379.284332
 10
383.932617
 20
379.006256
 10
383.545685
 20
378.755432
  0
LINE
  5
12A
330
E8
100
AcDbEntity
  8
0
  6
Continuous
 62
     0
370
    30
100
AcDbLine
 10
390.051852
 20
367.588779
 30
0.0
 11
388.527482
 21
366.664687
 31
0.0
  0
LINE
  5
12B
330
E8
100
AcDbEntity
  8
0
  6
Continuous
 62
     0
370
    30
100
AcDbLine
 10
383.545687
 20
378.755428
 30
0.0
 11
382.028084
 21
377.921973
 31
0.0
  0
LINE
  5
12C
330
E8
100
AcDbEntity
  8
0
  6
Continuous
 62
     0
370
    30
100
AcDbLine
 10
427.032308
 20
375.415
 30
0.0
 11
427.032308
 21
395.946059
 31
0.0
  0
LINE
  5
12D
330
E8
100
AcDbEntity
  8
0
  6
Continuous
 62
     0
370
    30
100
AcDbLine
 10
383.032308
 20
378.473484
 30
0.0
 11
383.032308
 21
395.946059
 31
0.0
  0
LINE
  5
12E
330
E8
100
AcDbEntity
  8
0
  6
Continuous
 62
     0
370
    30
100
AcDbLine
 10
428.878098
 20
320.616523
 30
0.0
 11
427.032313
 21
314.98021
 31
0.0
  0
LWPOLYLINE
  5
12F
330
E8
100
AcDbEntity
  8
0
  6
Continuous
 62
     0
370
    30
100
AcDbPolyline
 90
        8
 70
     0
 43
0.0
 10
431.276947
 20
323.85733
 10
430.920715
 20
323.617371
 10
430.529785
 20
323.279572
 10
430.134705
 20
322.857391
 10
429.758972
 20
322.368073
 10
429.420197
 20
321.830811
 10
429.131897
 20
321.266388
 10
428.878113
 20
320.616516
  0
LWPOLYLINE
  5
130
330
E8
100
AcDbEntity
  8
0
  6
Continuous
 62
     0
370
    30
100
AcDbPolyline
 90
        3
 70
     0
 43
0.0
 10
428.777008
 20
328.187469
 10
427.901764
 20
327.603088
 10
427.032318
 20
326.852844
  0
LINE
  5
131
330
E8
100
AcDbEntity
  8
0
  6
Continuous
 62
     0
370
    30
100
AcDbLine
 10
428.777004
 20
328.18747
 30
0.0
 11
436.905257
 21
332.88032
 31
0.0
  0
LINE
  5
132
330
E8
100
AcDbEntity
  8
0
  6
Continuous
 62
     0
370
    30
100
AcDbLine
 10
431.276942
 20
323.857331
 30
0.0
 11
439.405196
 21
328.550181
 31
0.0
  0
ENDBLK
  5
134
330
E8
100
AcDbEntity
  8
0
100
AcDbBlockEnd
  0
BLOCK
  5
173
330
136
100
AcDbEntity
  8
0
100
AcDbBlockBegin
  2
e
 70
     0
 10
-19.461182
 20
0.0
 30
0.0
  3
e
  1

  0
LWPOLYLINE
  5
137
330
136
100
AcDbEntity
  8
0
  6
Continuous
 62
     0
370
    30
100
AcDbPolyline
 90
       20
 70
     0
 43
0.0
 10
-125.042503
 20
816.189392
 10
-124.981514
 20
816.189392
 10
-124.792076
 20
816.189392
 10
-124.465622
 20
816.189392
 10
-123.995537
 20
816.189392
 10
-123.377655
 20
816.189392
 10
-122.610649
 20
816.189392
 10
-121.696335
 20
816.189392
 10
-120.639854
 20
816.189392
 10
-119.449654
 20
816.189392
 10
-118.137306
 20
816.189392
 10
-116.717148
 20
816.189392
 10
-115.205742
 20
816.189392
 10
-113.621277
 20
816.189392
 10
-111.982841
 20
816.189392
 10
-110.309723
 20
816.189392
 10
-108.620758
 20
816.189392
 10
-106.933708
 20
816.189392
 10
-105.264809
 20
816.189392
 10
-103.571815
 20
816.189392
  0
LWPOLYLINE
  5
138
330
136
100
AcDbEntity
  8
0
  6
Continuous
 62
     0
370
    30
100
AcDbPolyline
 90
       39
 70
     0
 43
0.0
 10
-125.042503
 20
847.189392
 10
-124.979782
 20
847.189392
 10
-124.784737
 20
847.189392
 10
-124.448257
 20
847.189392
 10
-123.96328
 20
847.189392
 10
-123.325356
 20
847.189392
 10
-122.533051
 20
847.189392
 10
-121.588341
 20
847.189392
 10
-120.496742
 20
847.189392
 10
-119.267334
 20
847.189392
 10
-117.912544
 20
847.189392
 10
-116.447746
 20
847.189392
 10
-114.890671
 20
847.189392
 10
-113.260704
 20
847.189392
 10
-111.57814
 20
847.189392
 10
-109.863373
 20
847.189392
 10
-108.136192
 20
847.189392
 10
-106.415146
 20
847.189392
 10
-104.717056
 20
847.189392
 10
-103.056664
 20
847.189392
 10
-101.397034
 20
847.189392
 10
-99.699486
 20
847.189392
 10
-97.978699
 20
847.189392
 10
-96.251472
 20
847.189392
 10
-94.536324
 20
847.189392
 10
-92.853027
 20
847.189392
 10
-91.221977
 20
847.189392
 10
-89.663467
 20
847.189392
 10
-88.196915
 20
847.189392
 10
-86.840088
 20
847.189392
 10
-85.608398
 20
847.189392
 10
-84.514328
 20
847.189392
 10
-83.567017
 20
847.189392
 10
-82.772049
 20
847.189392
 10
-82.131454
 20
847.189392
 10
-81.64386
 20
847.189392
 10
-81.304855
 20
847.189392
 10
-81.107437
 20
847.189392
 10
-81.042503
 20
847.189392
  0
LINE
  5
139
330
136
100
AcDbEntity
  8
0
  6
Continuous
 62
     0
370
    30
100
AcDbLine
 10
-103.571816
 20
816.189368
 30
0.0
 11
-81.0425
 21
824.389667
 31
0.0
  0
LINE
  5
13A
330
136
100
AcDbEntity
  8
0
  6
Continuous
 62
     0
370
    30
100
AcDbLine
 10
-125.0425
 20
816.189368
 30
0.0
 11
-125.0425
 21
820.706062
 31
0.0
  0
LINE
  5
13B
330
136
100
AcDbEntity
  8
0
  6
Continuous
 62
     0
370
    30
100
AcDbLine
 10
-125.0425
 20
843.672675
 30
0.0
 11
-125.0425
 21
847.189368
 31
0.0
  0
LWPOLYLINE
  5
13C
330
136
100
AcDbEntity
  8
0
  6
Continuous
 62
     0
370
     0
100
AcDbPolyline
 90
       33
 70
     0
 43
0.0
 10
-125.042503
 20
843.672668
 10
-125.018326
 20
843.602112
 10
-124.947739
 20
843.394043
 10
-124.8358
 20
843.058044
 10
-124.689568
 20
842.60498
 10
-124.517349
 20
842.049316
 10
-124.327858
 20
841.404724
 10
-124.129265
 20
840.683716
 10
-123.929123
 20
839.896606
 10
-123.734329
 20
839.052673
 10
-123.551399
 20
838.161194
 10
-123.386009
 20
837.229736
 10
-123.243172
 20
836.265076
 10
-123.127136
 20
835.273804
 10
-123.041466
 20
834.262573
 10
-122.988747
 20
833.237976
 10
-122.970573
 20
832.206543
 10
-122.987579
 20
831.174988
 10
-123.039169
 20
830.150024
 10
-123.123779
 20
829.138245
 10
-123.238861
 20
828.14624
 10
-123.38089
 20
827.180603
 10
-123.545631
 20
826.247864
 10
-123.728004
 20
825.355103
 10
-123.922424
 20
824.509644
 10
-124.122704
 20
823.719727
 10
-124.32193
 20
822.994873
 10
-124.512077
 20
822.347107
 10
-124.684929
 20
821.788513
 10
-124.832001
 20
821.332275
 10
-124.945045
 20
820.992371
 10
-125.016876
 20
820.780945
 10
-125.042503
 20
820.706055
  0
LINE
  5
13D
330
136
100
AcDbEntity
  8
0
  6
Continuous
 62
     0
370
    30
100
AcDbLine
 10
-130.129762
 20
838.673436
 30
0.0
 11
-131.0425
 21
838.689368
 31
0.0
  0
LINE
  5
13E
330
136
100
AcDbEntity
  8
0
  6
Continuous
 62
     0
370
     0
100
AcDbLine
 10
-131.0425
 20
825.689368
 30
0.0
 11
-131.0425
 21
838.689368
 31
0.0
  0
LWPOLYLINE
  5
13F
330
136
100
AcDbEntity
  8
0
  6
Continuous
 62
     0
370
     0
100
AcDbPolyline
 90
       25
 70
     0
 43
0.0
 10
-130.129761
 20
838.673462
 10
-130.085159
 20
838.613647
 10
-129.957092
 20
838.437988
 10
-129.756836
 20
838.155212
 10
-129.500397
 20
837.776001
 10
-129.205582
 20
837.311035
 10
-128.889954
 20
836.768616
 10
-128.570923
 20
836.154785
 10
-128.266479
 20
835.473511
 10
-127.995811
 20
834.728821
 10
-127.779434
 20
833.928345
 10
-127.63858
 20
833.080383
 10
-127.587692
 20
832.205994
 10
-127.634926
 20
831.331116
 10
-127.772591
 20
830.481689
 10
-127.986504
 20
829.67926
 10
-128.255554
 20
828.932373
 10
-128.559097
 20
828.248535
 10
-128.877884
 20
827.63208
 10
-129.193939
 20
827.086914
 10
-129.489899
 20
826.618896
 10
-129.748184
 20
826.236206
 10
-129.950928
 20
825.949585
 10
-130.081894
 20
825.769714
 10
-130.129761
 20
825.705322
  0
ARC
  5
140
330
136
100
AcDbEntity
  8
0
  6
Continuous
 62
     0
370
    30
100
AcDbCircle
 10
-130.0425
 20
843.672675
 30
0.0
 40
4.999999999992447
100
AcDbArc
 50
269.0
 51
0.0
  0
ARC
  5
141
330
136
100
AcDbEntity
  8
0
  6
Continuous
 62
     0
370
    30
100
AcDbCircle
 10
-130.0425
 20
820.706062
 30
0.0
 40
4.999999999996589
100
AcDbArc
 50
0.0
 51
91.0
  0
LINE
  5
142
330
136
100
AcDbEntity
  8
0
  6
Continuous
 62
     0
370
    30
100
AcDbLine
 10
-191.0425
 20
838.689362
 30
0.0
 11
-191.0425
 21
825.689374
 31
0.0
  0
LINE
  5
143
330
136
100
AcDbEntity
  8
0
  6
Continuous
 62
     0
370
    30
100
AcDbLine
 10
-191.0425
 20
838.689362
 30
0.0
 11
-131.0425
 21
838.689362
 31
0.0
  0
LWPOLYLINE
  5
144
330
136
100
AcDbEntity
  8
0
  6
Continuous
 62
     0
370
    30
100
AcDbPolyline
 90
       27
 70
     0
 43
0.0
 10
-297.560303
 20
755.63446
 10
-296.549744
 20
755.051208
 10
-295.528717
 20
754.462158
 10
-294.519714
 20
753.880371
 10
-293.546356
 20
753.319458
 10
-292.631592
 20
752.792725
 10
-291.795898
 20
752.311829
 10
-291.055908
 20
751.886475
 10
-290.423187
 20
751.523193
 10
-289.902435
 20
751.22467
 10
-289.479645
 20
750.982849
 10
-289.163544
 20
750.802795
 10
-288.967468
 20
750.6922
 10
-288.900055
 20
750.655884
 10
-288.964355
 20
750.695679
 10
-289.15744
 20
750.809753
 10
-289.470825
 20
750.993103
 10
-289.891266
 20
751.238159
 10
-290.409515
 20
751.53949
 10
-291.039581
 20
751.905273
 10
-291.777161
 20
752.333008
 10
-292.610748
 20
752.815918
 10
-293.523865
 20
753.344482
 10
-294.496094
 20
753.90686
 10
-295.504517
 20
754.489807
 10
-296.525543
 20
755.079773
 10
-297.560303
 20
755.677368
  0
LWPOLYLINE
  5
145
330
136
100
AcDbEntity
  8
0
  6
Continuous
 62
     0
370
    30
100
AcDbPolyline
 90
       27
 70
     0
 43
0.0
 10
-297.560303
 20
755.677368
 10
-298.519897
 20
756.231262
 10
-299.505615
 20
756.799927
 10
-300.49765
 20
757.371948
 10
-301.473083
 20
757.934082
 10
-302.407257
 20
758.472046
 10
-303.275421
 20
758.97168
 10
-304.054932
 20
759.4198
 10
-304.72699
 20
759.805664
 10
-305.278168
 20
760.121521
 10
-305.701263
 20
760.363403
 10
-305.995422
 20
760.530762
 10
-306.165405
 20
760.626465
 10
-306.220551
 20
760.655945
 10
-306.169006
 20
760.62384
 10
-306.003021
 20
760.525513
 10
-305.713074
 20
760.355713
 10
-305.29425
 20
760.11145
 10
-304.747253
 20
759.793335
 10
-304.079041
 20
759.405396
 10
-303.302826
 20
758.955322
 10
-302.437225
 20
758.453918
 10
-301.504883
 20
757.914246
 10
-300.530396
 20
757.350586
 10
-299.538544
 20
756.777161
 10
-298.552277
 20
756.207336
 10
-297.560303
 20
755.63446
  0
LWPOLYLINE
  5
146
330
136
100
AcDbEntity
  8
0
  6
Continuous
 62
     0
370
    30
100
AcDbPolyline
 90
       23
 70
     0
 43
0.0
 10
-297.560303
 20
755.639832
 10
-298.414124
 20
756.132935
 10
-299.291718
 20
756.640076
 10
-300.167358
 20
757.146362
 10
-301.011475
 20
757.634827
 10
-301.793243
 20
758.087585
 10
-302.484009
 20
758.488098
 10
-303.060547
 20
758.822937
 10
-303.50769
 20
759.083191
 10
-303.819427
 20
759.26532
 10
-303.998627
 20
759.370972
 10
-304.055481
 20
759.405884
 10
-303.999603
 20
759.375732
 10
-303.821503
 20
759.275085
 10
-303.510925
 20
759.097961
 10
-303.064941
 20
758.842529
 10
-302.489441
 20
758.512207
 10
-301.799591
 20
758.115662
 10
-301.018494
 20
757.666138
 10
-300.174774
 20
757.180115
 10
-299.299255
 20
756.675415
 10
-298.42157
 20
756.169128
 10
-297.560303
 20
755.671997
  0
LWPOLYLINE
  5
147
330
136
100
AcDbEntity
  8
0
  6
Continuous
 62
     0
370
    30
100
AcDbPolyline
 90
       24
 70
     0
 43
0.0
 10
-297.560303
 20
755.671997
 10
-296.703583
 20
755.177246
 10
-295.839539
 20
754.677979
 10
-294.992828
 20
754.188354
 10
-294.188843
 20
753.723145
 10
-293.451355
 20
753.296082
 10
-292.80011
 20
752.918579
 10
-292.249298
 20
752.598877
 10
-291.805176
 20
752.340637
 10
-291.455536
 20
752.136841
 10
-291.210175
 20
751.993042
 10
-291.082397
 20
751.917114
 10
-291.079437
 20
751.913147
 10
-291.201477
 20
751.981384
 10
-291.441559
 20
752.117859
 10
-291.786682
 20
752.315186
 10
-292.226074
 20
752.567017
 10
-292.771942
 20
752.880493
 10
-293.418732
 20
753.25238
 10
-294.152588
 20
753.674805
 10
-294.953979
 20
754.136414
 10
-295.799225
 20
754.623718
 10
-296.663025
 20
755.121948
 10
-297.560303
 20
755.639832
  0
ELLIPSE
  5
148
330
136
100
AcDbEntity
  8
0
  6
Continuous
 62
     0
370
     0
100
AcDbEllipse
 10
-287.55915
 20
772.978381
 30
0.0
 11
8.66024906200305
 21
-5.000008618400109
 31
0.0
210
0.0
220
0.0
230
1.0
 40
0.001857
 41
0.000000037854397
 42
1.571868297607986
  0
ELLIPSE
  5
149
330
136
100
AcDbEntity
  8
0
  6
Continuous
 62
     0
370
     0
100
AcDbEllipse
 10
-287.55915
 20
772.978381
 30
0.0
 11
8.66024906200305
 21
-5.000008618400109
 31
0.0
210
0.0
220
0.0
230
1.0
 40
0.001857
 41
1.571868297607992
 42
3.141592691446247
  0
LINE
  5
14A
330
136
100
AcDbEntity
  8
0
  6
Continuous
 62
     0
370
     0
100
AcDbLine
 10
-265.042489
 20
775.978374
 30
0.0
 11
-265.04249
 21
785.99979
 31
0.0
  0
LINE
  5
14B
330
136
100
AcDbEntity
  8
0
  6
Continuous
 62
     0
370
     0
100
AcDbLine
 10
-265.04249
 20
785.99979
 30
0.0
 11
-265.042489
 21
795.978328
 31
0.0
  0
LWPOLYLINE
  5
14C
330
136
100
AcDbEntity
  8
0
  6
Continuous
 62
     0
370
     0
100
AcDbPolyline
 90
       42
 70
     0
 43
0.0
 10
-125.042488
 20
803.978333
 10
-125.008492
 20
803.901428
 10
-124.908867
 20
803.673035
 10
-124.749626
 20
803.304565
 10
-124.539299
 20
802.809631
 10
-124.28775
 20
802.204956
 10
-124.004692
 20
801.505554
 10
-123.699142
 20
800.724426
 10
-123.379417
 20
799.873474
 10
-123.053101
 20
798.962708
 10
-122.726753
 20
797.99939
 10
-122.406487
 20
796.989746
 10
-122.098228
 20
795.939758
 10
-121.807579
 20
794.854492
 10
-121.539528
 20
793.737915
 10
-121.29892
 20
792.593628
 10
-121.090179
 20
791.425476
 10
-120.917534
 20
790.237366
 10
-120.7845
 20
789.033386
 10
-120.694145
 20
787.817749
 10
-120.648399
 20
786.595032
 10
-120.648277
 20
785.369873
 10
-120.693764
 20
784.147156
 10
-120.783813
 20
782.931458
 10
-120.916527
 20
781.727356
 10
-121.088875
 20
780.539124
 10
-121.297386
 20
779.37085
 10
-121.537811
 20
778.226379
 10
-121.805717
 20
777.109558
 10
-122.096245
 20
776.02417
 10
-122.404388
 20
774.973877
 10
-122.724579
 20
773.963928
 10
-123.050888
 20
773.000305
 10
-123.377243
 20
772.089172
 10
-123.697044
 20
771.237793
 10
-124.002716
 20
770.456116
 10
-124.285927
 20
769.756042
 10
-124.537727
 20
769.150635
 10
-124.748367
 20
768.655029
 10
-124.907997
 20
768.28595
 10
-125.008041
 20
768.056641
 10
-125.042488
 20
767.978333
  0
LINE
  5
14D
330
136
100
AcDbEntity
  8
0
  6
Continuous
 62
     0
370
    30
100
AcDbLine
 10
-125.042489
 20
767.978351
 30
0.0
 11
-125.042489
 21
699.978351
 31
0.0
  0
LINE
  5
14E
330
136
100
AcDbEntity
  8
0
  6
Continuous
 62
     0
370
     0
100
AcDbLine
 10
-125.042489
 20
699.978351
 30
0.0
 11
-81.042489
 21
699.978351
 31
0.0
  0
LINE
  5
14F
330
136
100
AcDbEntity
  8
0
  6
Continuous
 62
     0
370
    30
100
AcDbLine
 10
-125.042489
 20
803.978351
 30
0.0
 11
-125.042489
 21
814.978351
 31
0.0
  0
LINE
  5
150
330
136
100
AcDbEntity
  8
0
  6
Continuous
 62
     0
370
    30
100
AcDbLine
 10
-81.042489
 20
814.978351
 30
0.0
 11
-125.042489
 21
814.978351
 31
0.0
  0
LWPOLYLINE
  5
151
330
136
100
AcDbEntity
  8
0
  6
Continuous
 62
     0
370
     0
100
AcDbPolyline
 90
       37
 70
     0
 43
0.0
 10
-133.042496
 20
775.978333
 10
-132.980759
 20
776.0354
 10
-132.803238
 20
776.201416
 10
-132.52504
 20
776.465149
 10
-132.166824
 20
776.812012
 10
-131.749237
 20
777.228027
 10
-131.290451
 20
777.70166
 10
-130.807205
 20
778.222717
 10
-130.312317
 20
778.785034
 10
-129.817535
 20
779.383545
 10
-129.333389
 20
780.015076
 10
-128.869781
 20
780.677185
 10
-128.436752
 20
781.367798
 10
-128.04454
 20
782.085388
 10
-127.703384
 20
782.828064
 10
-127.42363
 20
783.592712
 10
-127.215553
 20
784.376038
 10
-127.086853
 20
785.172913
 10
-127.042671
 20
785.976624
 10
-127.086388
 20
786.780273
 10
-127.214706
 20
787.577209
 10
-127.422523
 20
788.360596
 10
-127.702118
 20
789.125366
 10
-128.043121
 20
789.868103
 10
-128.435059
 20
790.585815
 10
-128.867798
 20
791.276611
 10
-129.331238
 20
791.938843
 10
-129.815338
 20
792.570435
 10
-130.310181
 20
793.169128
 10
-130.805176
 20
793.731628
 10
-131.288483
 20
794.252869
 10
-131.747208
 20
794.726685
 10
-132.164886
 20
795.142944
 10
-132.52356
 20
795.490173
 10
-132.802414
 20
795.754456
 10
-132.980606
 20
795.920959
 10
-133.042496
 20
795.978333
  0
ARC
  5
152
330
136
100
AcDbEntity
  8
0
  6
Continuous
 62
     0
370
    30
100
AcDbCircle
 10
-133.042489
 20
767.978351
 30
0.0
 40
7.999999999995694
100
AcDbArc
 50
360.0
 51
90.0
  0
ARC
  5
153
330
136
100
AcDbEntity
  8
0
  6
Continuous
 62
     0
370
    30
100
AcDbCircle
 10
-133.042489
 20
803.978351
 30
0.0
 40
8.000000000000625
100
AcDbArc
 50
270.0
 51
360.0
  0
LINE
  5
154
330
136
100
AcDbEntity
  8
0
  6
Continuous
 62
     0
370
    30
100
AcDbLine
 10
-130.042496
 20
515.978351
 30
0.0
 11
-76.100221
 21
515.978351
 31
0.0
  0
LINE
  5
155
330
136
100
AcDbEntity
  8
0
  6
Continuous
 62
     0
370
    30
100
AcDbLine
 10
-76.100221
 20
515.978351
 30
0.0
 11
-76.042496
 21
515.978351
 31
0.0
  0
LINE
  5
156
330
136
100
AcDbEntity
  8
0
  6
Continuous
 62
     0
370
    30
100
AcDbLine
 10
-76.042496
 20
519.978351
 30
0.0
 11
-76.100221
 21
519.978351
 31
0.0
  0
LINE
  5
157
330
136
100
AcDbEntity
  8
0
  6
Continuous
 62
     0
370
    30
100
AcDbLine
 10
-76.100221
 20
519.978351
 30
0.0
 11
-130.042496
 21
519.978351
 31
0.0
  0
LINE
  5
158
330
136
100
AcDbEntity
  8
0
  6
Continuous
 62
     0
370
    30
100
AcDbLine
 10
-125.042496
 20
519.978351
 30
0.0
 11
-125.042496
 21
699.978351
 31
0.0
  0
LINE
  5
159
330
136
100
AcDbEntity
  8
0
  6
Continuous
 62
     0
370
    30
100
AcDbLine
 10
-81.042496
 20
699.978351
 30
0.0
 11
-81.042496
 21
519.978351
 31
0.0
  0
LINE
  5
15A
330
136
100
AcDbEntity
  8
0
  6
Continuous
 62
     0
370
    30
100
AcDbLine
 10
-56.199616
 20
746.376825
 30
0.0
 11
-67.694702
 21
746.376825
 31
0.0
  0
LINE
  5
15B
330
136
100
AcDbEntity
  8
0
  6
Continuous
 62
     0
370
     0
100
AcDbLine
 10
-67.694702
 20
741.376825
 30
0.0
 11
-67.694702
 21
746.376825
 31
0.0
  0
LINE
  5
15C
330
136
100
AcDbEntity
  8
0
  6
Continuous
 62
     0
370
    30
100
AcDbLine
 10
-56.199616
 20
746.376825
 30
0.0
 11
-56.199616
 21
741.376825
 31
0.0
  0
ARC
  5
15D
330
136
100
AcDbEntity
  8
0
  6
Continuous
 62
     0
370
    30
100
AcDbCircle
 10
-67.693454
 20
738.374865
 30
0.0
 40
8.001959641143031
100
AcDbArc
 50
90.008939
 51
154.991061
  0
LINE
  5
15E
330
136
100
AcDbEntity
  8
0
  6
Continuous
 62
     0
370
     0
100
AcDbLine
 10
-70.413625
 20
739.64468
 30
0.0
 11
-74.945164
 21
741.757771
 31
0.0
  0
LINE
  5
15F
330
136
100
AcDbEntity
  8
0
  6
Continuous
 62
     0
370
    30
100
AcDbLine
 10
-74.945164
 20
741.757771
 30
0.0
 11
-81.042489
 21
728.682016
 31
0.0
  0
LWPOLYLINE
  5
160
330
136
100
AcDbEntity
  8
0
  6
Continuous
 62
     0
370
    30
100
AcDbPolyline
 90
       32
 70
     0
 43
0.0
 10
-81.042488
 20
728.682007
 10
-81.046684
 20
728.584961
 10
-81.056992
 20
728.341003
 10
-81.070084
 20
728.017578
 10
-81.084114
 20
727.6521
 10
-81.098152
 20
727.262024
 10
-81.111717
 20
726.856567
 10
-81.124519
 20
726.440491
 10
-81.136368
 20
726.016846
 10
-81.147125
 20
725.587708
 10
-81.156693
 20
725.154297
 10
-81.164978
 20
724.717651
 10
-81.171906
 20
724.278564
 10
-81.177422
 20
723.837585
 10
-81.181473
 20
723.395203
 10
-81.184013
 20
722.951782
 10
-81.184982
 20
722.507874
 10
-81.184334
 20
722.063843
 10
-81.182045
 20
721.620239
 10
-81.178093
 20
721.177795
 10
-81.172462
 20
720.737
 10
-81.165138
 20
720.298523
 10
-81.156113
 20
719.86322
 10
-81.145432
 20
719.432678
 10
-81.133171
 20
719.008545
 10
-81.119453
 20
718.593323
 10
-81.10453
 20
718.191589
 10
-81.088783
 20
717.809204
 10
-81.072922
 20
717.457214
 10
-81.058258
 20
717.155029
 10
-81.04705
 20
716.937012
 10
-81.042503
 20
716.851196
  0
LINE
  5
161
330
136
100
AcDbEntity
  8
0
  6
Continuous
 62
     0
370
    30
100
AcDbLine
 10
-133.042489
 20
775.978351
 30
0.0
 11
-265.042489
 21
775.978351
 31
0.0
  0
LINE
  5
162
330
136
100
AcDbEntity
  8
0
  6
Continuous
 62
     0
370
    30
100
AcDbLine
 10
-133.042489
 20
795.978351
 30
0.0
 11
-265.042489
 21
795.978351
 31
0.0
  0
LINE
  5
163
330
136
100
AcDbEntity
  8
0
  6
Continuous
 62
     0
370
    30
100
AcDbLine
 10
-130.042496
 20
515.978351
 30
0.0
 11
-130.042496
 21
519.978351
 31
0.0
  0
LINE
  5
164
330
136
100
AcDbEntity
  8
0
  6
Continuous
 62
     0
370
    30
100
AcDbLine
 10
-76.042496
 20
515.978351
 30
0.0
 11
-76.042496
 21
519.978351
 31
0.0
  0
LINE
  5
165
330
136
100
AcDbEntity
  8
0
  6
Continuous
 62
     0
370
    30
100
AcDbLine
 10
-81.042489
 20
699.978351
 30
0.0
 11
-81.042489
 21
716.851205
 31
0.0
  0
LINE
  5
166
330
136
100
AcDbEntity
  8
0
  6
Continuous
 62
     0
370
    30
100
AcDbLine
 10
-81.042489
 20
728.682016
 30
0.0
 11
-81.042489
 21
814.978351
 31
0.0
  0
ARC
  5
167
330
136
100
AcDbEntity
  8
0
  6
Continuous
 62
     0
370
    30
100
AcDbCircle
 10
-265.042499
 20
759.978338
 30
0.0
 40
16.00001271625726
100
AcDbArc
 50
89.999965
 51
149.999886
  0
ARC
  5
168
330
136
100
AcDbEntity
  8
0
  6
Continuous
 62
     0
370
    30
100
AcDbCircle
 10
-265.042498
 20
759.978336
 30
0.0
 40
36.00001493994263
100
AcDbArc
 50
89.999986
 51
149.999916
  0
LINE
  5
169
330
136
100
AcDbEntity
  8
0
  6
Continuous
 62
     0
370
    30
100
AcDbLine
 10
-278.898901
 20
767.978372
 30
0.0
 11
-288.90005
 21
750.655913
 31
0.0
  0
LINE
  5
16A
330
136
100
AcDbEntity
  8
0
  6
Continuous
 62
     0
370
    30
100
AcDbLine
 10
-296.219399
 20
777.97839
 30
0.0
 11
-306.220549
 21
760.65593
 31
0.0
  0
ARC
  5
16B
330
136
100
AcDbEntity
  8
0
  6
Continuous
 62
     0
370
    30
100
AcDbCircle
 10
-103.042561
 20
813.478313
 30
0.0
 40
20.50519694040495
100
AcDbArc
 50
4.195167
 51
27.645414
  0
ARC
  5
16C
330
136
100
AcDbEntity
  8
0
  6
Continuous
 62
     0
370
    30
100
AcDbCircle
 10
-103.042203
 20
813.4783
 30
0.0
 40
20.50543443772082
100
AcDbArc
 50
172.402557
 51
175.804848
  0
LINE
  5
16D
330
136
100
AcDbEntity
  8
0
  6
Continuous
 62
     0
370
    30
100
AcDbLine
 10
-131.0425
 20
825.689374
 30
0.0
 11
-191.0425
 21
825.689374
 31
0.0
  0
LINE
  5
16E
330
136
100
AcDbEntity
  8
0
  6
Continuous
 62
     0
370
    30
100
AcDbLine
 10
-130.129762
 20
825.7053
 30
0.0
 11
-131.0425
 21
825.689368
 31
0.0
  0
LINE
  5
16F
330
136
100
AcDbEntity
  8
0
  6
Continuous
 62
     0
370
    30
100
AcDbLine
 10
-81.0425
 20
824.389766
 30
0.0
 11
-81.0425
 21
847.189368
 31
0.0
  0
LINE
  5
170
330
136
100
AcDbEntity
  8
0
  6
Continuous
 62
     0
370
    30
100
AcDbLine
 10
-70.413625
 20
739.64468
 30
0.0
 11
-81.042416
 21
716.851165
 31
0.0
  0
ARC
  5
171
330
136
100
AcDbEntity
  8
0
  6
Continuous
 62
     0
370
    30
100
AcDbCircle
 10
-67.694193
 20
738.376027
 30
0.0
 40
3.000798322139627
100
AcDbArc
 50
90.00971
 51
154.99029
  0
LINE
  5
172
330
136
100
AcDbEntity
  8
0
  6
Continuous
 62
     0
370
    30
100
AcDbLine
 10
-67.694702
 20
741.376825
 30
0.0
 11
-56.199616
 21
741.376825
 31
0.0
  0
ENDBLK
  5
174
330
136
100
AcDbEntity
  8
0
100
AcDbBlockEnd
  0
ENDSEC
  0
SECTION
  2
ENTITIES
  0
INSERT
  5
77
330
1F
100
AcDbEntity
  8
0
  6
Continuous
 62
   250
370
     0
100
AcDbBlockReference
  2
a
 10
12.594555
 20
93.035088
 30
0.0
  0
INSERT
  5
A8
330
1F
100
AcDbEntity
  8
0
  6
Continuous
 62
   250
370
     0
100
AcDbBlockReference
  2
b
 10
12.594557
 20
143.130638
 30
0.0
  0
INSERT
  5
E7
330
1F
100
AcDbEntity
  8
0
  6
Continuous
 62
   250
370
     0
100
AcDbBlockReference
  2
c
 10
-108.274982
 20
93.035088
 30
0.0
  0
INSERT
  5
135
330
1F
100
AcDbEntity
  8
0
  6
Continuous
 62
   250
370
     0
100
AcDbBlockReference
  2
d
 10
13.883556
 20
88.216785
 30
0.0
  0
INSERT
  5
175
330
1F
100
AcDbEntity
  8
0
  6
Continuous
 62
   250
370
     0
100
AcDbBlockReference
  2
e
 10
-19.461182
 20
0.0
 30
0.0
  0
ENDSEC
  0
SECTION
  2
OBJECTS
  0
DICTIONARY
  5
C
330
0
100
AcDbDictionary
281
     1
  3
ACAD_GROUP
350
D
  3
ACAD_LAYOUT
350
1A
  3
ACAD_MLEADERSTYLE
350
178
  3
ACAD_MLINESTYLE
350
17
  3
ACAD_PLOTSETTINGS
350
19
  3
ACAD_PLOTSTYLENAME
350
E
  3
ACAD_VISUALSTYLE
350
2A
  3
AcDbVariableDictionary
350
176
  0
DICTIONARY
  5
D
102
{ACAD_REACTORS
330
C
102
}
330
C
100
AcDbDictionary
281
     1
  0
DICTIONARY
  5
1A
102
{ACAD_REACTORS
330
C
102
}
330
C
100
AcDbDictionary
281
     1
  3
Layout1
350
1E
  3
Layout2
350
26
  3
Model
350
22
  0
DICTIONARY
  5
178
102
{ACAD_REACTORS
330
C
102
}
330
C
100
AcDbDictionary
281
     1
  0
DICTIONARY
  5
17
102
{ACAD_REACTORS
330
C
102
}
330
C
100
AcDbDictionary
281
     1
  3
Standard
350
18
  0
DICTIONARY
  5
19
102
{ACAD_REACTORS
330
C
102
}
330
C
100
AcDbDictionary
281
     1
  0
ACDBDICTIONARYWDFLT
  5
E
102
{ACAD_REACTORS
330
C
102
}
330
C
100
AcDbDictionary
281
     1
  3
Normal
350
F
100
AcDbDictionaryWithDefault
340
F
  0
DICTIONARY
  5
2A
102
{ACAD_REACTORS
330
C
102
}
330
C
100
AcDbDictionary
281
     1
  3
2dWireframe
350
2F
  3
3D Hidden
350
31
  3
3dWireframe
350
30
  3
Basic
350
32
  3
Brighten
350
36
  3
ColorChange
350
3A
  3
Conceptual
350
34
  3
Dim
350
35
  3
Facepattern
350
39
  3
Flat
350
2B
  3
FlatWithEdges
350
2C
  3
Gouraud
350
2D
  3
GouraudWithEdges
350
2E
  3
Linepattern
350
38
  3
Realistic
350
33
  3
Thicken
350
37
  0
DICTIONARY
  5
176
102
{ACAD_REACTORS
330
C
102
}
330
C
100
AcDbDictionary
281
     1
  3
PSOLHEIGHT
350
17A
  3
PSOLWIDTH
350
179
  0
LAYOUT
  5
1E
102
{ACAD_REACTORS
330
1A
102
}
330
1A
100
AcDbPlotSettings
  1

  2
none_device
  4

  6

 40
0.0
 41
0.0
 42
0.0
 43
0.0
 44
0.0
 45
0.0
 46
0.0
 47
0.0
 48
0.0
 49
0.0
140
0.0
141
0.0
142
1.0
143
1.0
 70
   688
 72
     0
 73
     0
 74
     5
  7

 75
    16
147
1.0
148
0.0
149
0.0
100
AcDbLayout
  1
Layout1
 70
     1
 71
     1
 10
0.0
 20
0.0
 11
420.0
 21
297.0
 12
0.0
 22
0.0
 32
0.0
 14
1.000000E+20
 24
1.000000E+20
 34
1.000000E+20
 15
-1.000000E+20
 25
-1.000000E+20
 35
-1.000000E+20
146
0.0
 13
0.0
 23
0.0
 33
0.0
 16
1.0
 26
0.0
 36
0.0
 17
0.0
 27
1.0
 37
0.0
 76
     0
330
1B
  0
LAYOUT
  5
26
102
{ACAD_REACTORS
330
1A
102
}
330
1A
100
AcDbPlotSettings
  1

  2
none_device
  4

  6

 40
0.0
 41
0.0
 42
0.0
 43
0.0
 44
0.0
 45
0.0
 46
0.0
 47
0.0
 48
0.0
 49
0.0
140
0.0
141
0.0
142
1.0
143
1.0
 70
   688
 72
     0
 73
     0
 74
     5
  7

 75
    16
147
1.0
148
0.0
149
0.0
100
AcDbLayout
  1
Layout2
 70
     1
 71
     2
 10
0.0
 20
0.0
 11
0.0
 21
0.0
 12
0.0
 22
0.0
 32
0.0
 14
0.0
 24
0.0
 34
0.0
 15
0.0
 25
0.0
 35
0.0
146
0.0
 13
0.0
 23
0.0
 33
0.0
 16
1.0
 26
0.0
 36
0.0
 17
0.0
 27
1.0
 37
0.0
 76
     0
330
23
  0
LAYOUT
  5
22
102
{ACAD_REACTORS
330
1A
102
}
330
1A
100
AcDbPlotSettings
  1

  2
none_device
  4

  6

 40
0.0
 41
0.0
 42
0.0
 43
0.0
 44
0.0
 45
0.0
 46
0.0
 47
0.0
 48
0.0
 49
0.0
140
0.0
141
0.0
142
1.0
143
1.0
 70
  1712
 72
     0
 73
     0
 74
     0
  7

 75
     0
147
1.0
148
0.0
149
0.0
100
AcDbLayout
  1
Model
 70
     1
 71
     0
 10
-306.220551
 20
88.876457
 11
493.469269
 21
847.189392
 12
0.0
 22
0.0
 32
0.0
 14
-306.220551
 24
88.876457
 34
0.0
 15
493.469269
 25
847.189392
 35
0.0
146
0.0
 13
0.0
 23
0.0
 33
0.0
 16
1.0
 26
0.0
 36
0.0
 17
0.0
 27
1.0
 37
0.0
 76
     0
330
1F
331
29
  0
MLINESTYLE
  5
18
102
{ACAD_REACTORS
330
17
102
}
330
17
100
AcDbMlineStyle
  2
Standard
 70
     0
  3

 62
   256
 51
90.0
 52
90.0
 71
     2
 49
0.5
 62
   256
  6
BYLAYER
 49
-0.5
 62
   256
  6
BYLAYER
  0
ACDBPLACEHOLDER
  5
F
102
{ACAD_REACTORS
330
E
102
}
330
E
  0
VISUALSTYLE
  5
2F
102
{ACAD_REACTORS
330
2A
102
}
330
2A
100
AcDbVisualStyle
  2
2dWireframe
 70
     4
 71
     0
 72
     2
 73
     0
 90
        0
 40
-0.6
 41
-30.0
 62
     5
 63
     7
 74
     1
 91
        4
 64
     7
 65
   257
 75
     1
175
     1
 42
1.0
 92
        0
 66
   257
 43
1.0
 76
     1
 77
     6
 78
     2
 67
     7
 79
     5
170
     0
171
     0
290
     0
174
     0
 93
        1
 44
0.0
173
     0
291
     0
 45
0.0
1001
ACAD
1000
AcDbSavedByObjectVersion
1070
     0
  0
VISUALSTYLE
  5
31
102
{ACAD_REACTORS
330
2A
102
}
330
2A
100
AcDbVisualStyle
  2
3D Hidden
 70
     6
 71
     1
 72
     2
 73
     2
 90
        0
 40
-0.6
 41
-30.0
 62
     5
 63
     7
 74
     2
 91
        2
 64
     7
 65
   257
 75
     2
175
     1
 42
40.0
 92
        0
 66
   257
 43
1.0
 76
     1
 77
     6
 78
     2
 67
     7
 79
     3
170
     0
171
     0
290
     0
174
     0
 93
        1
 44
0.0
173
     0
291
     0
 45
0.0
1001
ACAD
1000
AcDbSavedByObjectVersion
1070
     0
  0
VISUALSTYLE
  5
30
102
{ACAD_REACTORS
330
2A
102
}
330
2A
100
AcDbVisualStyle
  2
3dWireframe
 70
     5
 71
     0
 72
     2
 73
     0
 90
        0
 40
-0.6
 41
-30.0
 62
     5
 63
     7
 74
     1
 91
        4
 64
     7
 65
   257
 75
     1
175
     1
 42
1.0
 92
        0
 66
   257
 43
1.0
 76
     1
 77
     6
 78
     2
 67
     7
 79
     5
170
     0
171
     0
290
     0
174
     0
 93
        1
 44
0.0
173
     0
291
     0
 45
0.0
1001
ACAD
1000
AcDbSavedByObjectVersion
1070
     0
  0
VISUALSTYLE
  5
32
102
{ACAD_REACTORS
330
2A
102
}
330
2A
100
AcDbVisualStyle
  2
Basic
 70
     7
 71
     1
 72
     0
 73
     1
 90
        0
 40
-0.6
 41
-30.0
 62
     5
 63
     7
 74
     0
 91
        4
 64
     7
 65
   257
 75
     1
175
     1
 42
1.0
 92
        8
 66
     7
 43
1.0
 76
     1
 77
     6
 78
     2
 67
     7
 79
     5
170
     0
171
     0
290
     0
174
     0
 93
        1
 44
0.0
173
     0
291
     1
 45
0.0
1001
ACAD
1000
AcDbSavedByObjectVersion
1070
     0
  0
VISUALSTYLE
  5
36
102
{ACAD_REACTORS
330
2A
102
}
330
2A
100
AcDbVisualStyle
  2
Brighten
 70
    12
 71
     2
 72
     2
 73
     0
 90
        0
 40
-0.6
 41
-30.0
 62
     5
 63
     7
 74
     1
 91
        4
 64
     7
 65
   257
 75
     1
175
     1
 42
1.0
 92
        8
 66
     7
 43
1.0
 76
     1
 77
     6
 78
     2
 67
     7
 79
     5
170
     0
171
     0
290
     0
174
     0
 93
        1
 44
50.0
173
     0
291
     1
 45
0.0
1001
ACAD
1000
AcDbSavedByObjectVersion
1070
     0
  0
VISUALSTYLE
  5
3A
102
{ACAD_REACTORS
330
2A
102
}
330
2A
100
AcDbVisualStyle
  2
ColorChange
 70
    16
 71
     2
 72
     2
 73
     3
 90
        0
 40
-0.6
 41
-30.0
 62
     5
 63
     8
 74
     1
 91
        4
 64
     7
 65
   257
 75
     1
175
     1
 42
1.0
 92
        8
 66
     8
 43
1.0
 76
     1
 77
     6
 78
     2
 67
     7
 79
     5
170
     0
171
     0
290
     0
174
     0
 93
        1
 44
0.0
173
     0
291
     1
 45
0.0
1001
ACAD
1000
AcDbSavedByObjectVersion
1070
     0
  0
VISUALSTYLE
  5
34
102
{ACAD_REACTORS
330
2A
102
}
330
2A
100
AcDbVisualStyle
  2
Conceptual
 70
     9
 71
     3
 72
     2
 73
     0
 90
        0
 40
-0.6
 41
-30.0
 62
     5
 63
     7
 74
     2
 91
        2
 64
     7
 65
   257
 75
     1
175
     1
 42
40.0
 92
        8
 66
     7
 43
1.0
 76
     1
 77
     6
 78
     2
 67
     7
 79
     3
170
     0
171
     0
290
     0
174
     0
 93
        1
 44
0.0
173
     0
291
     0
 45
0.0
1001
ACAD
1000
AcDbSavedByObjectVersion
1070
     0
  0
VISUALSTYLE
  5
35
102
{ACAD_REACTORS
330
2A
102
}
330
2A
100
AcDbVisualStyle
  2
Dim
 70
    11
 71
     2
 72
     2
 73
     0
 90
        0
 40
-0.6
 41
-30.0
 62
     5
 63
     7
 74
     1
 91
        4
 64
     7
 65
   257
 75
     1
175
     1
 42
1.0
 92
        8
 66
     7
 43
1.0
 76
     1
 77
     6
 78
     2
 67
     7
 79
     5
170
     0
171
     0
290
     0
174
     0
 93
        1
 44
-50.0
173
     0
291
     1
 45
0.0
1001
ACAD
1000
AcDbSavedByObjectVersion
1070
     0
  0
VISUALSTYLE
  5
39
102
{ACAD_REACTORS
330
2A
102
}
330
2A
100
AcDbVisualStyle
  2
Facepattern
 70
    15
 71
     2
 72
     2
 73
     0
 90
        0
 40
-0.6
 41
-30.0
 62
     5
 63
     7
 74
     1
 91
        4
 64
     7
 65
   257
 75
     1
175
     1
 42
1.0
 92
        8
 66
     7
 43
1.0
 76
     1
 77
     6
 78
     2
 67
     7
 79
     5
170
     0
171
     0
290
     0
174
     0
 93
        1
 44
0.0
173
     0
291
     1
 45
0.0
1001
ACAD
1000
AcDbSavedByObjectVersion
1070
     0
  0
VISUALSTYLE
  5
2B
102
{ACAD_REACTORS
330
2A
102
}
330
2A
100
AcDbVisualStyle
  2
Flat
 70
     0
 71
     2
 72
     1
 73
     1
 90
        2
 40
-0.6
 41
30.0
 62
     5
 63
     7
 74
     0
 91
        4
 64
     7
 65
   257
 75
     1
175
     1
 42
1.0
 92
        8
 66
     7
 43
1.0
 76
     1
 77
     6
 78
     2
 67
     7
 79
     5
170
     0
171
     0
290
     0
174
     0
 93
       13
 44
0.0
173
     0
291
     1
 45
0.0
1001
ACAD
1000
AcDbSavedByObjectVersion
1070
     0
  0
VISUALSTYLE
  5
2C
102
{ACAD_REACTORS
330
2A
102
}
330
2A
100
AcDbVisualStyle
  2
FlatWithEdges
 70
     1
 71
     2
 72
     1
 73
     1
 90
        2
 40
-0.6
 41
30.0
 62
     5
 63
     7
 74
     1
 91
        4
 64
     7
 65
   257
 75
     1
175
     1
 42
1.0
 92
        0
 66
   257
 43
1.0
 76
     1
 77
     6
 78
     2
 67
     7
 79
     5
170
     0
171
     0
290
     0
174
     0
 93
       13
 44
0.0
173
     0
291
     1
 45
0.0
1001
ACAD
1000
AcDbSavedByObjectVersion
1070
     0
  0
VISUALSTYLE
  5
2D
102
{ACAD_REACTORS
330
2A
102
}
330
2A
100
AcDbVisualStyle
  2
Gouraud
 70
     2
 71
     2
 72
     2
 73
     1
 90
        2
 40
-0.6
 41
30.0
 62
     5
 63
     7
 74
     0
 91
        4
 64
     7
 65
   257
 75
     1
175
     1
 42
1.0
 92
        0
 66
     7
 43
1.0
 76
     1
 77
     6
 78
     2
 67
     7
 79
     5
170
     0
171
     0
290
     0
174
     0
 93
       13
 44
0.0
173
     0
291
     1
 45
0.0
1001
ACAD
1000
AcDbSavedByObjectVersion
1070
     0
  0
VISUALSTYLE
  5
2E
102
{ACAD_REACTORS
330
2A
102
}
330
2A
100
AcDbVisualStyle
  2
GouraudWithEdges
 70
     3
 71
     2
 72
     2
 73
     1
 90
        2
 40
-0.6
 41
30.0
 62
     5
 63
     7
 74
     1
 91
        4
 64
     7
 65
   257
 75
     1
175
     1
 42
1.0
 92
        0
 66
   257
 43
1.0
 76
     1
 77
     6
 78
     2
 67
     7
 79
     5
170
     0
171
     0
290
     0
174
     0
 93
       13
 44
0.0
173
     0
291
     1
 45
0.0
1001
ACAD
1000
AcDbSavedByObjectVersion
1070
     0
  0
VISUALSTYLE
  5
38
102
{ACAD_REACTORS
330
2A
102
}
330
2A
100
AcDbVisualStyle
  2
Linepattern
 70
    14
 71
     2
 72
     2
 73
     0
 90
        0
 40
-0.6
 41
-30.0
 62
     5
 63
     7
 74
     1
 91
        4
 64
     7
 65
   257
 75
     7
175
     7
 42
1.0
 92
        8
 66
     7
 43
1.0
 76
     1
 77
     6
 78
     2
 67
     7
 79
     5
170
     0
171
     0
290
     0
174
     0
 93
        1
 44
0.0
173
     0
291
     1
 45
0.0
1001
ACAD
1000
AcDbSavedByObjectVersion
1070
     0
  0
VISUALSTYLE
  5
33
102
{ACAD_REACTORS
330
2A
102
}
330
2A
100
AcDbVisualStyle
  2
Realistic
 70
     8
 71
     2
 72
     2
 73
     0
 90
        0
 40
-0.6
 41
-30.0
 62
     5
 63
     7
 74
     1
 91
        0
 64
     7
 65
   257
 75
     1
175
     1
 42
1.0
 92
        8
 66
     8
 43
1.0
 76
     1
 77
     6
 78
     2
 67
     7
 79
     5
170
     0
171
     0
290
     0
174
     0
 93
       13
 44
0.0
173
     0
291
     0
 45
0.0
1001
ACAD
1000
AcDbSavedByObjectVersion
1070
     0
  0
VISUALSTYLE
  5
37
102
{ACAD_REACTORS
330
2A
102
}
330
2A
100
AcDbVisualStyle
  2
Thicken
 70
    13
 71
     2
 72
     2
 73
     0
 90
        0
 40
-0.6
 41
-30.0
 62
     5
 63
     7
 74
     1
 91
        4
 64
     7
 65
   257
 75
     1
175
     1
 42
1.0
 92
       12
 66
     7
 43
1.0
 76
     1
 77
     6
 78
     2
 67
     7
 79
     5
170
     0
171
     0
290
     0
174
     0
 93
        1
 44
0.0
173
     0
291
     1
 45
0.0
1001
ACAD
1000
AcDbSavedByObjectVersion
1070
     0
  0
DICTIONARYVAR
  5
17A
102
{ACAD_REACTORS
330
176
102
}
330
176
100
DictionaryVariables
280
     0
  1
80.000000
  0
DICTIONARYVAR
  5
179
102
{ACAD_REACTORS
330
176
102
}
330
176
100
DictionaryVariables
280
     0
  1
5.000000
  0
ENDSEC
  0
EOF
