  0
SECTION
  2
HEADER
  9
$ACADVER
  1
AC1015
  9
$ACADMAINTVER
 70
     6
  9
$DWGCODEPAGE
  3
ANSI_1252
  9
$INSBASE
 10
0.0
 20
0.0
 30
0.0
  9
$EXTMIN
 10
-48.081577
 20
104.839485
 30
0.0
  9
$EXTMAX
 10
587.510071
 20
513.812256
 30
0.0
  9
$LIMMIN
 10
-48.081577
 20
104.839485
  9
$LIMMAX
 10
587.510071
 20
513.812256
  9
$ORTHOMODE
 70
     0
  9
$REGENMODE
 70
     1
  9
$FILLMODE
 70
     1
  9
$QTEXTMODE
 70
     0
  9
$MIRRTEXT
 70
     1
  9
$LTSCALE
 40
1.0
  9
$ATTMODE
 70
     1
  9
$TEXTSIZE
 40
2.5
  9
$TRACEWID
 40
1.0
  9
$TEXTSTYLE
  7
Standard
  9
$CLAYER
  8
0
  9
$CELTYPE
  6
ByLayer
  9
$CECOLOR
 62
   256
  9
$CELTSCALE
 40
1.0
  9
$DISPSILH
 70
     0
  9
$DIMSCALE
 40
1.0
  9
$DIMASZ
 40
2.5
  9
$DIMEXO
 40
0.625
  9
$DIMDLI
 40
3.75
  9
$DIMRND
 40
0.0
  9
$DIMDLE
 40
0.0
  9
$DIMEXE
 40
1.25
  9
$DIMTP
 40
0.0
  9
$DIMTM
 40
0.0
  9
$DIMTXT
 40
2.5
  9
$DIMCEN
 40
2.5
  9
$DIMTSZ
 40
0.0
  9
$DIMTOL
 70
     0
  9
$DIMLIM
 70
     0
  9
$DIMTIH
 70
     0
  9
$DIMTOH
 70
     0
  9
$DIMSE1
 70
     0
  9
$DIMSE2
 70
     0
  9
$DIMTAD
 70
     1
  9
$DIMZIN
 70
     8
  9
$DIMBLK
  1

  9
$DIMASO
 70
     1
  9
$DIMSHO
 70
     1
  9
$DIMPOST
  1

  9
$DIMAPOST
  1

  9
$DIMALT
 70
     0
  9
$DIMALTD
 70
     3
  9
$DIMALTF
 40
0.03937
  9
$DIMLFAC
 40
1.0
  9
$DIMTOFL
 70
     1
  9
$DIMTVP
 40
0.0
  9
$DIMTIX
 70
     0
  9
$DIMSOXD
 70
     0
  9
$DIMSAH
 70
     0
  9
$DIMBLK1
  1

  9
$DIMBLK2
  1

  9
$DIMSTYLE
  2
ISO-25
  9
$DIMCLRD
 70
     0
  9
$DIMCLRE
 70
     0
  9
$DIMCLRT
 70
     0
  9
$DIMTFAC
 40
1.0
  9
$DIMGAP
 40
0.625
  9
$DIMJUST
 70
     0
  9
$DIMSD1
 70
     0
  9
$DIMSD2
 70
     0
  9
$DIMTOLJ
 70
     0
  9
$DIMTZIN
 70
     8
  9
$DIMALTZ
 70
     0
  9
$DIMALTTZ
 70
     0
  9
$DIMUPT
 70
     0
  9
$DIMDEC
 70
     2
  9
$DIMTDEC
 70
     2
  9
$DIMALTU
 70
     2
  9
$DIMALTTD
 70
     3
  9
$DIMTXSTY
  7
Standard
  9
$DIMAUNIT
 70
     0
  9
$DIMADEC
 70
     0
  9
$DIMALTRND
 40
0.0
  9
$DIMAZIN
 70
     0
  9
$DIMDSEP
 70
    44
  9
$DIMATFIT
 70
     3
  9
$DIMFRAC
 70
     0
  9
$DIMLDRBLK
  1

  9
$DIMLUNIT
 70
     2
  9
$DIMLWD
 70
    -2
  9
$DIMLWE
 70
    -2
  9
$DIMTMOVE
 70
     0
  9
$LUNITS
 70
     2
  9
$LUPREC
 70
     4
  9
$SKETCHINC
 40
1.0
  9
$FILLETRAD
 40
10.0
  9
$AUNITS
 70
     0
  9
$AUPREC
 70
     0
  9
$MENU
  1
.
  9
$ELEVATION
 40
0.0
  9
$PELEVATION
 40
0.0
  9
$THICKNESS
 40
0.0
  9
$LIMCHECK
 70
     0
  9
$CHAMFERA
 40
10.0
  9
$CHAMFERB
 40
10.0
  9
$CHAMFERC
 40
20.0
  9
$CHAMFERD
 40
0.0
  9
$SKPOLY
 70
     0
  9
$TDCREATE
 40
2455580.431398125
  9
$TDUCREATE
 40
2455580.389731458
  9
$TDUPDATE
 40
2455580.431398137
  9
$TDUUPDATE
 40
2455580.38973147
  9
$TDINDWG
 40
0.0000000116
  9
$TDUSRTIMER
 40
0.0000000116
  9
$USRTIMER
 70
     1
  9
$ANGBASE
 50
0.0
  9
$ANGDIR
 70
     0
  9
$PDMODE
 70
     0
  9
$PDSIZE
 40
0.0
  9
$PLINEWID
 40
0.0
  9
$SPLFRAME
 70
     0
  9
$SPLINETYPE
 70
     6
  9
$SPLINESEGS
 70
     8
  9
$HANDSEED
  5
16C
  9
$SURFTAB1
 70
     6
  9
$SURFTAB2
 70
     6
  9
$SURFTYPE
 70
     6
  9
$SURFU
 70
     6
  9
$SURFV
 70
     6
  9
$UCSBASE
  2

  9
$UCSNAME
  2

  9
$UCSORG
 10
0.0
 20
0.0
 30
0.0
  9
$UCSXDIR
 10
1.0
 20
0.0
 30
0.0
  9
$UCSYDIR
 10
0.0
 20
1.0
 30
0.0
  9
$UCSORTHOREF
  2

  9
$UCSORTHOVIEW
 70
     0
  9
$UCSORGTOP
 10
0.0
 20
0.0
 30
0.0
  9
$UCSORGBOTTOM
 10
0.0
 20
0.0
 30
0.0
  9
$UCSORGLEFT
 10
0.0
 20
0.0
 30
0.0
  9
$UCSORGRIGHT
 10
0.0
 20
0.0
 30
0.0
  9
$UCSORGFRONT
 10
0.0
 20
0.0
 30
0.0
  9
$UCSORGBACK
 10
0.0
 20
0.0
 30
0.0
  9
$PUCSBASE
  2

  9
$PUCSNAME
  2

  9
$PUCSORG
 10
0.0
 20
0.0
 30
0.0
  9
$PUCSXDIR
 10
1.0
 20
0.0
 30
0.0
  9
$PUCSYDIR
 10
0.0
 20
1.0
 30
0.0
  9
$PUCSORTHOREF
  2

  9
$PUCSORTHOVIEW
 70
     0
  9
$PUCSORGTOP
 10
0.0
 20
0.0
 30
0.0
  9
$PUCSORGBOTTOM
 10
0.0
 20
0.0
 30
0.0
  9
$PUCSORGLEFT
 10
0.0
 20
0.0
 30
0.0
  9
$PUCSORGRIGHT
 10
0.0
 20
0.0
 30
0.0
  9
$PUCSORGFRONT
 10
0.0
 20
0.0
 30
0.0
  9
$PUCSORGBACK
 10
0.0
 20
0.0
 30
0.0
  9
$USERI1
 70
     0
  9
$USERI2
 70
     0
  9
$USERI3
 70
     0
  9
$USERI4
 70
     0
  9
$USERI5
 70
     0
  9
$USERR1
 40
0.0
  9
$USERR2
 40
0.0
  9
$USERR3
 40
0.0
  9
$USERR4
 40
0.0
  9
$USERR5
 40
0.0
  9
$WORLDVIEW
 70
     1
  9
$SHADEDGE
 70
     3
  9
$SHADEDIF
 70
    70
  9
$TILEMODE
 70
     1
  9
$MAXACTVP
 70
    64
  9
$PINSBASE
 10
0.0
 20
0.0
 30
0.0
  9
$PLIMCHECK
 70
     0
  9
$PEXTMIN
 10
1.000000E+20
 20
1.000000E+20
 30
1.000000E+20
  9
$PEXTMAX
 10
-1.000000E+20
 20
-1.000000E+20
 30
-1.000000E+20
  9
$PLIMMIN
 10
0.0
 20
0.0
  9
$PLIMMAX
 10
420.0
 20
297.0
  9
$UNITMODE
 70
     0
  9
$VISRETAIN
 70
     1
  9
$PLINEGEN
 70
     0
  9
$PSLTSCALE
 70
     1
  9
$TREEDEPTH
 70
  3020
  9
$CMLSTYLE
  2
Standard
  9
$CMLJUST
 70
     0
  9
$CMLSCALE
 40
20.0
  9
$PROXYGRAPHICS
 70
     1
  9
$MEASUREMENT
 70
     1
  9
$CELWEIGHT
370
    -1
  9
$ENDCAPS
280
     0
  9
$JOINSTYLE
280
     0
  9
$LWDISPLAY
290
     0
  9
$INSUNITS
 70
     4
  9
$HYPERLINKBASE
  1

  9
$STYLESHEET
  1

  9
$XEDIT
290
     1
  9
$CEPSNTYPE
380
     0
  9
$PSTYLEMODE
290
     1
  9
$FINGERPRINTGUID
  2
{AEC67160-6C58-48C9-B42A-C8326BD901FE}
  9
$VERSIONGUID
  2
{FAEB1C32-E019-11D5-929B-00C0DF256EC4}
  9
$EXTNAMES
290
     1
  9
$PSVPSCALE
 40
0.0
  9
$OLESTARTUP
290
     0
  0
ENDSEC
  0
SECTION
  2
CLASSES
  0
CLASS
  1
ACDBDICTIONARYWDFLT
  2
AcDbDictionaryWithDefault
  3
ObjectDBX Classes
 90
        0
280
     0
281
     0
  0
CLASS
  1
VISUALSTYLE
  2
AcDbVisualStyle
  3
ObjectDBX Classes
 90
     4095
280
     0
281
     0
  0
CLASS
  1
DICTIONARYVAR
  2
AcDbDictionaryVar
  3
ObjectDBX Classes
 90
        0
280
     0
281
     0
  0
CLASS
  1
ACDBPLACEHOLDER
  2
AcDbPlaceHolder
  3
ObjectDBX Classes
 90
        0
280
     0
281
     0
  0
CLASS
  1
LAYOUT
  2
AcDbLayout
  3
ObjectDBX Classes
 90
        0
280
     0
281
     0
  0
ENDSEC
  0
SECTION
  2
TABLES
  0
TABLE
  2
VPORT
  5
8
330
0
100
AcDbSymbolTable
 70
     1
  0
VPORT
  5
29
330
8
100
AcDbSymbolTableRecord
100
AcDbViewportTableRecord
  2
*Active
 70
     0
 10
0.0
 20
0.0
 11
1.0
 21
1.0
 12
344.186916
 22
148.5
 13
0.0
 23
0.0
 14
10.0
 24
10.0
 15
10.0
 25
10.0
 16
0.0
 26
0.0
 36
1.0
 17
0.0
 27
0.0
 37
0.0
 40
297.0
 41
1.972973
 42
50.0
 43
0.0
 44
0.0
 50
0.0
 51
0.0
 71
     0
 72
   100
 73
     1
 74
     3
 75
     0
 76
     0
 77
     0
 78
     0
281
     0
 65
     1
110
0.0
120
0.0
130
0.0
111
1.0
121
0.0
131
0.0
112
0.0
122
1.0
132
0.0
 79
     0
146
0.0
  0
ENDTAB
  0
TABLE
  2
LTYPE
  5
5
330
0
100
AcDbSymbolTable
 70
     1
  0
LTYPE
  5
14
330
5
100
AcDbSymbolTableRecord
100
AcDbLinetypeTableRecord
  2
ByBlock
 70
     0
  3

 72
    65
 73
     0
 40
0.0
  0
LTYPE
  5
15
330
5
100
AcDbSymbolTableRecord
100
AcDbLinetypeTableRecord
  2
ByLayer
 70
     0
  3

 72
    65
 73
     0
 40
0.0
  0
LTYPE
  5
16
330
5
100
AcDbSymbolTableRecord
100
AcDbLinetypeTableRecord
  2
Continuous
 70
     0
  3
Solid line
 72
    65
 73
     0
 40
0.0
  0
ENDTAB
  0
TABLE
  2
LAYER
  5
2
330
0
100
AcDbSymbolTable
 70
     1
  0
LAYER
  5
10
330
2
100
AcDbSymbolTableRecord
100
AcDbLayerTableRecord
  2
0
 70
     0
 62
   106
  6
Continuous
370
     0
390
F
  0
ENDTAB
  0
TABLE
  2
STYLE
  5
3
330
0
100
AcDbSymbolTable
 70
     4
  0
STYLE
  5
11
330
3
100
AcDbSymbolTableRecord
100
AcDbTextStyleTableRecord
  2
Standard
 70
     0
 40
0.0
 41
1.0
 50
0.0
 71
     0
 42
2.5
  3
txt
  4

  0
STYLE
  5
3B
330
3
100
AcDbSymbolTableRecord
100
AcDbTextStyleTableRecord
  2
Default
 70
     0
 40
0.0
 41
1.0
 50
0.0
 71
     0
 42
0.2
  3

  4

1001
ACAD
1000
txt
1071
        0
  0
STYLE
  5
3C
330
3
100
AcDbSymbolTableRecord
100
AcDbTextStyleTableRecord
  2
ISO
 70
     0
 40
0.0
 41
1.0
 50
0.0
 71
     0
 42
0.2
  3

  4

1001
ACAD
1000
txt
1071
        0
  0
STYLE
  5
3D
330
3
100
AcDbSymbolTableRecord
100
AcDbTextStyleTableRecord
  2
GIANLU
 70
     0
 40
0.0
 41
1.0
 50
0.0
 71
     0
 42
0.2
  3

  4

1001
ACAD
1000
Arial
1071
        0
  0
ENDTAB
  0
TABLE
  2
VIEW
  5
6
330
0
100
AcDbSymbolTable
 70
     0
  0
ENDTAB
  0
TABLE
  2
UCS
  5
7
330
0
100
AcDbSymbolTable
 70
     0
  0
ENDTAB
  0
TABLE
  2
APPID
  5
9
330
0
100
AcDbSymbolTable
 70
     1
  0
APPID
  5
12
330
9
100
AcDbSymbolTableRecord
100
AcDbRegAppTableRecord
  2
ACAD
 70
     0
  0
ENDTAB
  0
TABLE
  2
DIMSTYLE
  5
A
330
0
100
AcDbSymbolTable
 70
     4
100
AcDbDimStyleTable
  0
DIMSTYLE
105
27
330
A
100
AcDbSymbolTableRecord
100
AcDbDimStyleTableRecord
  2
ISO-25
 70
     0
 41
2.5
 42
0.625
 43
3.75
 44
1.25
 73
     0
 74
     0
 77
     1
 78
     8
140
2.5
141
2.5
143
0.03937
147
0.625
171
     3
172
     1
271
     2
272
     2
274
     3
278
    44
283
     0
284
     8
340
11
  0
DIMSTYLE
105
3E
330
A
100
AcDbSymbolTableRecord
100
AcDbDimStyleTableRecord
  2
Default
 70
     0
  3
<>
 41
4.375
 42
1.05
 44
2.1
 73
     0
 74
     0
 77
     1
 78
     8
140
3.5
146
0.4
147
1.75
178
     3
271
     2
272
     3
284
     8
340
3B
341
3F
342
3F
  0
DIMSTYLE
105
46
330
A
100
AcDbSymbolTableRecord
100
AcDbDimStyleTableRecord
  2
ISO
 70
     0
  3
<>
 41
4.375
 42
1.05
 44
2.1
 73
     0
 74
     0
 77
     1
 78
     8
140
3.5
146
0.4
147
1.75
178
     3
271
     2
272
     3
284
     8
340
3C
341
3F
342
3F
  0
DIMSTYLE
105
47
330
A
100
AcDbSymbolTableRecord
100
AcDbDimStyleTableRecord
  2
zucchetti_unico
 70
     0
  3
<>
 41
3.0
 42
0.9
 44
1.8
 73
     0
 74
     0
 77
     1
 78
     8
140
3.0
146
0.6
147
1.5
176
   104
177
     3
178
     3
271
     2
272
     2
284
     8
340
3D
  0
ENDTAB
  0
TABLE
  2
BLOCK_RECORD
  5
1
330
0
100
AcDbSymbolTable
 70
     7
  0
BLOCK_RECORD
  5
1F
330
1
100
AcDbSymbolTableRecord
100
AcDbBlockTableRecord
  2
*Model_Space
340
22
  0
BLOCK_RECORD
  5
1B
330
1
100
AcDbSymbolTableRecord
100
AcDbBlockTableRecord
  2
*Paper_Space
340
1E
  0
BLOCK_RECORD
  5
23
330
1
100
AcDbSymbolTableRecord
100
AcDbBlockTableRecord
  2
*Paper_Space0
340
26
  0
BLOCK_RECORD
  5
3F
330
1
100
AcDbSymbolTableRecord
100
AcDbBlockTableRecord
  2
_CLOSED
340
0
  0
BLOCK_RECORD
  5
48
330
1
100
AcDbSymbolTableRecord
100
AcDbBlockTableRecord
  2
a
340
0
102
{BLKREFS
331
72
102
}
  0
BLOCK_RECORD
  5
73
330
1
100
AcDbSymbolTableRecord
100
AcDbBlockTableRecord
  2
b
340
0
102
{BLKREFS
331
A4
102
}
  0
BLOCK_RECORD
  5
A5
330
1
100
AcDbSymbolTableRecord
100
AcDbBlockTableRecord
  2
c
340
0
102
{BLKREFS
331
E0
102
}
  0
BLOCK_RECORD
  5
E1
330
1
100
AcDbSymbolTableRecord
100
AcDbBlockTableRecord
  2
d
340
0
102
{BLKREFS
331
129
102
}
  0
BLOCK_RECORD
  5
12A
330
1
100
AcDbSymbolTableRecord
100
AcDbBlockTableRecord
  2
e
340
0
102
{BLKREFS
331
166
102
}
  0
ENDTAB
  0
ENDSEC
  0
SECTION
  2
BLOCKS
  0
BLOCK
  5
20
330
1F
100
AcDbEntity
  8
0
100
AcDbBlockBegin
  2
*Model_Space
 70
     0
 10
0.0
 20
0.0
 30
0.0
  3
*Model_Space
  1

  0
ENDBLK
  5
21
330
1F
100
AcDbEntity
  8
0
100
AcDbBlockEnd
  0
BLOCK
  5
1C
330
1B
100
AcDbEntity
 67
     1
  8
0
100
AcDbBlockBegin
  2
*Paper_Space
 70
     0
 10
0.0
 20
0.0
 30
0.0
  3
*Paper_Space
  1

  0
ENDBLK
  5
1D
330
1B
100
AcDbEntity
 67
     1
  8
0
100
AcDbBlockEnd
  0
BLOCK
  5
24
330
23
100
AcDbEntity
  8
0
100
AcDbBlockBegin
  2
*Paper_Space0
 70
     0
 10
0.0
 20
0.0
 30
0.0
  3
*Paper_Space0
  1

  0
ENDBLK
  5
25
330
23
100
AcDbEntity
  8
0
100
AcDbBlockEnd
  0
BLOCK
  5
40
330
3F
100
AcDbEntity
  8
0
100
AcDbBlockBegin
  2
_CLOSED
 70
     0
 10
0.0
 20
0.0
 30
0.0
  3
_CLOSED
  1

  0
LINE
  5
42
330
3F
100
AcDbEntity
  8
0
  6
ByBlock
 62
     0
370
    -2
100
AcDbLine
 10
-1.0
 20
0.166667
 30
0.0
 11
0.0
 21
0.0
 31
0.0
  0
LINE
  5
43
330
3F
100
AcDbEntity
  8
0
  6
ByBlock
 62
     0
370
    -2
100
AcDbLine
 10
0.0
 20
0.0
 30
0.0
 11
-1.0
 21
-0.166667
 31
0.0
  0
LINE
  5
44
330
3F
100
AcDbEntity
  8
0
  6
ByBlock
 62
     0
370
    -2
100
AcDbLine
 10
-1.0
 20
0.166667
 30
0.0
 11
-1.0
 21
-0.166667
 31
0.0
  0
LINE
  5
45
330
3F
100
AcDbEntity
  8
0
  6
ByBlock
 62
     0
370
    -2
100
AcDbLine
 10
0.0
 20
0.0
 30
0.0
 11
-1.0
 21
0.0
 31
0.0
  0
ENDBLK
  5
41
330
3F
100
AcDbEntity
  8
0
100
AcDbBlockEnd
  0
BLOCK
  5
70
330
48
100
AcDbEntity
  8
0
100
AcDbBlockBegin
  2
a
 70
     0
 10
198.950562
 20
130.68721
 30
0.0
  3
a
  1

  0
LINE
  5
49
330
48
100
AcDbEntity
  8
0
  6
Continuous
 62
     0
370
    30
100
AcDbLine
 10
232.792284
 20
482.812253
 30
0.0
 11
254.785915
 21
482.812253
 31
0.0
  0
LINE
  5
4A
330
48
100
AcDbEntity
  8
0
  6
Continuous
 62
     0
370
    30
100
AcDbLine
 10
254.785915
 20
482.812253
 30
0.0
 11
276.779547
 21
482.812253
 31
0.0
  0
LINE
  5
4B
330
48
100
AcDbEntity
  8
0
  6
Continuous
 62
     0
370
    30
100
AcDbLine
 10
254.785915
 20
513.812253
 30
0.0
 11
276.785915
 21
513.812253
 31
0.0
  0
LINE
  5
4C
330
48
100
AcDbEntity
  8
0
  6
Continuous
 62
     0
370
    30
100
AcDbLine
 10
232.785915
 20
513.812253
 30
0.0
 11
254.785915
 21
513.812253
 31
0.0
  0
LWPOLYLINE
  5
4D
330
48
100
AcDbEntity
  8
0
  6
Continuous
 62
     0
370
    30
100
AcDbPolyline
 90
        2
 70
     0
 43
0.0
 10
232.785919
 20
483.004547
 10
232.792282
 20
482.812256
  0
LWPOLYLINE
  5
4E
330
48
100
AcDbEntity
  8
0
  6
Continuous
 62
     0
370
    30
100
AcDbPolyline
 90
        2
 70
     0
 43
0.0
 10
276.779541
 20
482.812256
 10
276.785919
 20
483.004547
  0
LWPOLYLINE
  5
4F
330
48
100
AcDbEntity
  8
0
  6
Continuous
 62
     0
370
     0
100
AcDbPolyline
 90
       31
 70
     0
 43
0.0
 10
254.785919
 20
487.328949
 10
253.688751
 20
487.410309
 10
252.616501
 20
487.644989
 10
251.590607
 20
488.024658
 10
250.62767
 20
488.535126
 10
249.738525
 20
489.157959
 10
248.930389
 20
489.877289
 10
248.205582
 20
490.678711
 10
247.565033
 20
491.550446
 10
247.009415
 20
492.481171
 10
246.539017
 20
493.460632
 10
246.153671
 20
494.480438
 10
245.853409
 20
495.532532
 10
245.638504
 20
496.608856
 10
245.509094
 20
497.701416
 10
245.465393
 20
498.802155
 10
245.507507
 20
499.902954
 10
245.635345
 20
500.995728
 10
245.848694
 20
502.072418
 10
246.147385
 20
503.125
 10
246.531265
 20
504.145538
 10
247.000122
 20
505.125793
 10
247.553818
 20
506.057251
 10
248.192886
 20
506.930328
 10
248.917755
 20
507.734619
 10
249.726151
 20
508.456512
 10
250.614532
 20
509.081238
 10
251.576324
 20
509.593231
 10
252.601227
 20
509.975769
 10
253.672989
 20
510.213226
 10
254.785919
 20
510.295563
  0
LWPOLYLINE
  5
50
330
48
100
AcDbEntity
  8
0
  6
Continuous
 62
     0
370
     0
100
AcDbPolyline
 90
       31
 70
     0
 43
0.0
 10
254.785919
 20
510.295563
 10
255.883072
 20
510.214203
 10
256.955322
 20
509.979523
 10
257.981232
 20
509.599854
 10
258.944153
 20
509.089386
 10
259.833313
 20
508.466553
 10
260.641449
 20
507.747223
 10
261.366241
 20
506.945801
 10
262.006805
 20
506.074066
 10
262.562408
 20
505.143341
 10
263.032806
 20
504.163879
 10
263.418152
 20
503.144043
 10
263.718414
 20
502.091949
 10
263.933319
 20
501.015656
 10
264.062744
 20
499.923096
 10
264.106445
 20
498.822357
 10
264.064331
 20
497.721558
 10
263.936493
 20
496.628784
 10
263.723145
 20
495.552094
 10
263.424438
 20
494.499512
 10
263.040558
 20
493.478973
 10
262.571716
 20
492.498688
 10
262.018005
 20
491.567261
 10
261.378937
 20
490.694153
 10
260.654083
 20
489.889893
 10
259.845673
 20
489.167999
 10
258.957306
 20
488.543274
 10
257.995514
 20
488.031281
 10
256.970612
 20
487.648743
 10
255.898849
 20
487.411285
 10
254.785919
 20
487.328949
  0
LINE
  5
51
330
48
100
AcDbEntity
  8
0
  6
Continuous
 62
     0
370
     0
100
AcDbLine
 10
254.785915
 20
510.29556
 30
0.0
 11
254.785915
 21
505.312247
 31
0.0
  0
LINE
  5
52
330
48
100
AcDbEntity
  8
0
  6
Continuous
 62
     0
370
     0
100
AcDbLine
 10
254.785915
 20
492.312259
 30
0.0
 11
254.785915
 21
487.328947
 31
0.0
  0
ARC
  5
53
330
48
100
AcDbEntity
  8
0
  6
Continuous
 62
     0
370
    30
100
AcDbCircle
 10
254.785915
 20
498.812253
 30
0.0
 40
6.499994153589111
100
AcDbArc
 50
270.0
 51
90.0
  0
ARC
  5
54
330
48
100
AcDbEntity
  8
0
  6
Continuous
 62
     0
370
    30
100
AcDbCircle
 10
254.785915
 20
498.812253
 30
0.0
 40
6.499994153589111
100
AcDbArc
 50
90.0
 51
270.0
  0
LWPOLYLINE
  5
55
330
48
100
AcDbEntity
  8
0
  6
Continuous
 62
     0
370
    30
100
AcDbPolyline
 90
       27
 70
     0
 43
0.0
 10
244.808899
 20
422.271179
 10
244.870895
 20
421.717133
 10
245.065338
 20
421.148132
 10
245.403046
 20
420.575592
 10
245.889633
 20
420.012756
 10
246.52417
 20
419.473877
 10
247.298462
 20
418.973206
 10
248.197128
 20
418.523834
 10
249.198547
 20
418.136597
 10
250.27655
 20
417.819214
 10
251.402618
 20
417.575806
 10
252.548248
 20
417.406891
 10
253.68692
 20
417.309662
 10
254.795715
 20
417.278748
 10
255.903214
 20
417.309387
 10
257.041138
 20
417.406189
 10
258.186676
 20
417.574524
 10
259.313416
 20
417.817291
 10
260.392883
 20
418.134064
 10
261.396515
 20
418.520721
 10
262.298065
 20
418.969666
 10
263.075745
 20
419.470123
 10
263.713989
 20
420.009003
 10
264.204407
 20
420.572052
 10
264.545837
 20
421.14502
 10
264.743744
 20
421.7146
 10
264.808899
 20
422.286316
  0
LWPOLYLINE
  5
56
330
48
100
AcDbEntity
  8
0
  6
Continuous
 62
     0
370
    30
100
AcDbPolyline
 90
       27
 70
     0
 43
0.0
 10
264.808899
 20
422.286316
 10
264.740234
 20
422.869324
 10
264.529327
 20
423.458282
 10
264.171783
 20
424.040192
 10
263.669647
 20
424.601471
 10
263.031586
 20
425.128906
 10
262.272522
 20
425.610687
 10
261.412476
 20
426.037231
 10
260.474945
 20
426.401917
 10
259.481659
 20
426.701965
 10
258.409485
 20
426.945435
 10
257.261719
 20
427.127411
 10
256.06012
 20
427.240173
 10
254.830307
 20
427.278748
 10
253.599991
 20
427.241394
 10
252.396896
 20
427.129761
 10
251.246735
 20
426.94873
 10
250.171478
 20
426.705963
 10
249.176147
 20
426.406891
 10
248.236511
 20
426.043427
 10
247.373489
 20
425.617981
 10
246.610611
 20
425.137115
 10
245.968063
 20
424.610382
 10
245.460999
 20
424.049438
 10
245.098373
 20
423.46756
 10
244.882416
 20
422.878296
 10
244.808899
 20
422.271179
  0
LWPOLYLINE
  5
57
330
48
100
AcDbEntity
  8
0
  6
Continuous
 62
     0
370
    30
100
AcDbPolyline
 90
       23
 70
     0
 43
0.0
 10
247.308899
 20
422.273071
 10
247.380402
 20
422.791107
 10
247.602249
 20
423.313202
 10
247.977768
 20
423.822906
 10
248.500717
 20
424.303528
 10
249.155289
 20
424.739624
 10
249.91774
 20
425.118805
 10
250.759064
 20
425.432739
 10
251.663086
 20
425.681152
 10
252.652939
 20
425.869232
 10
253.707855
 20
425.987488
 10
254.797226
 20
426.028748
 10
255.886948
 20
425.990417
 10
256.942841
 20
425.874969
 10
257.934235
 20
425.689423
 10
258.839905
 20
425.443359
 10
259.682709
 20
425.131775
 10
260.447266
 20
424.75473
 10
261.104431
 20
424.320465
 10
261.630371
 20
423.841278
 10
262.009125
 20
423.332458
 10
262.234222
 20
422.810791
 10
262.308899
 20
422.284424
  0
LWPOLYLINE
  5
58
330
48
100
AcDbEntity
  8
0
  6
Continuous
 62
     0
370
    30
100
AcDbPolyline
 90
       23
 70
     0
 43
0.0
 10
262.308899
 20
422.284424
 10
262.244171
 20
421.791382
 10
262.038208
 20
421.284485
 10
261.67923
 20
420.778625
 10
261.163879
 20
420.290863
 10
260.498962
 20
419.838989
 10
259.702057
 20
419.439575
 10
258.799835
 20
419.106018
 10
257.82547
 20
418.847168
 10
256.814453
 20
418.666443
 10
255.801056
 20
418.562256
 10
254.814941
 20
418.528748
 10
253.829041
 20
418.560333
 10
252.815567
 20
418.662476
 10
251.804184
 20
418.841125
 10
250.829041
 20
419.098022
 10
249.925735
 20
419.429718
 10
249.127411
 20
419.827515
 10
248.460892
 20
420.278076
 10
247.943741
 20
420.764893
 10
247.582962
 20
421.270172
 10
247.375259
 20
421.776764
 10
247.308899
 20
422.273071
  0
LINE
  5
59
330
48
100
AcDbEntity
  8
0
  6
Continuous
 62
     0
370
    30
100
AcDbLine
 10
244.808893
 20
422.271168
 30
0.0
 11
244.796223
 21
438.993663
 31
0.0
  0
ELLIPSE
  5
5A
330
48
100
AcDbEntity
  8
0
  6
Continuous
 62
     0
370
     0
100
AcDbEllipse
 10
254.79622
 20
439.00124
 30
0.0
 11
9.999997129619397
 21
0.007576780571304398
 31
0.0
210
0.0
220
0.0
230
1.0
 40
0.5
 41
0.0000000000000071
 42
3.141592653589794
  0
LINE
  5
5B
330
48
100
AcDbEntity
  8
0
  6
Continuous
 62
     0
370
    30
100
AcDbLine
 10
244.796223
 20
438.993663
 30
0.0
 11
244.785918
 21
452.593659
 31
0.0
  0
ARC
  5
5C
330
48
100
AcDbEntity
  8
0
  6
Continuous
 62
     0
370
    30
100
AcDbCircle
 10
254.785915
 20
452.601236
 30
0.0
 40
9.999999999999998
100
AcDbArc
 50
0.043412
 51
180.043412
  0
LWPOLYLINE
  5
5D
330
48
100
AcDbEntity
  8
0
  6
Continuous
 62
     0
370
     0
100
AcDbPolyline
 90
       32
 70
     0
 43
0.0
 10
254.785919
 20
470.601227
 10
255.99614
 20
470.525818
 10
257.18399
 20
470.301727
 10
258.330597
 20
469.940063
 10
259.422577
 20
469.453979
 10
260.450195
 20
468.859558
 10
261.408844
 20
468.171661
 10
262.297241
 20
467.402893
 10
263.11554
 20
466.56485
 10
263.864807
 20
465.667572
 10
264.547394
 20
464.71817
 10
265.165039
 20
463.722778
 10
265.719147
 20
462.687195
 10
266.21106
 20
461.616577
 10
266.641815
 20
460.514709
 10
267.012451
 20
459.385193
 10
267.323395
 20
458.23175
 10
267.574829
 20
457.058136
 10
267.766693
 20
455.868256
 10
267.898773
 20
454.666199
 10
267.970917
 20
453.456329
 10
267.983154
 20
452.243225
 10
267.935516
 20
451.031494
 10
267.827972
 20
449.825714
 10
267.660645
 20
448.630341
 10
267.433685
 20
447.449524
 10
267.147156
 20
446.287354
 10
266.800995
 20
445.147583
 10
266.394928
 20
444.033966
 10
265.928192
 20
442.950104
 10
265.399719
 20
441.899628
 10
264.7948
 20
440.86557
  0
LWPOLYLINE
  5
5E
330
48
100
AcDbEntity
  8
0
  6
Continuous
 62
     0
370
     0
100
AcDbPolyline
 90
       32
 70
     0
 43
0.0
 10
244.79483
 20
440.837372
 10
244.199707
 20
441.848907
 10
243.667709
 20
442.898651
 10
243.197601
 20
443.981995
 10
242.78833
 20
445.095367
 10
242.439087
 20
446.235077
 10
242.149628
 20
447.39743
 10
241.919815
 20
448.578613
 10
241.749756
 20
449.774567
 10
241.639603
 20
450.981171
 10
241.589432
 20
452.193878
 10
241.599274
 20
453.408173
 10
241.669128
 20
454.619415
 10
241.799042
 20
455.822968
 10
241.988861
 20
457.014496
 10
242.238358
 20
458.189911
 10
242.54747
 20
459.345215
 10
242.916397
 20
460.476685
 10
243.345551
 20
461.580566
 10
243.835892
 20
462.65329
 10
244.388535
 20
463.69104
 10
245.004776
 20
464.68869
 10
245.68605
 20
465.640442
 10
246.434082
 20
466.540192
 10
247.251221
 20
467.380768
 10
248.138565
 20
468.152283
 10
249.096283
 20
468.843109
 10
250.123169
 20
469.440582
 10
251.214722
 20
469.929932
 10
252.361313
 20
470.295013
 10
253.5495
 20
470.522491
 10
254.785919
 20
470.601227
  0
LINE
  5
5F
330
48
100
AcDbEntity
  8
0
  6
Continuous
 62
     0
370
    30
100
AcDbLine
 10
254.785915
 20
481.601236
 30
0.0
 11
232.785915
 21
481.601236
 31
0.0
  0
LINE
  5
60
330
48
100
AcDbEntity
  8
0
  6
Continuous
 62
     0
370
    30
100
AcDbLine
 10
276.785915
 20
481.601236
 30
0.0
 11
254.785915
 21
481.601236
 31
0.0
  0
LINE
  5
61
330
48
100
AcDbEntity
  8
0
  6
Continuous
 62
     0
370
     0
100
AcDbLine
 10
254.785915
 20
462.601236
 30
0.0
 11
254.785915
 21
470.601236
 31
0.0
  0
LINE
  5
62
330
48
100
AcDbEntity
  8
0
  6
Continuous
 62
     0
370
    30
100
AcDbLine
 10
253.021318
 20
362.601236
 30
0.0
 11
281.785915
 21
362.601236
 31
0.0
  0
LINE
  5
63
330
48
100
AcDbEntity
  8
0
  6
Continuous
 62
     0
370
    30
100
AcDbLine
 10
227.785915
 20
362.601236
 30
0.0
 11
253.021318
 21
362.601236
 31
0.0
  0
LINE
  5
64
330
48
100
AcDbEntity
  8
0
  6
Continuous
 62
     0
370
    30
100
AcDbLine
 10
253.021318
 20
366.601236
 30
0.0
 11
227.785915
 21
366.601236
 31
0.0
  0
LINE
  5
65
330
48
100
AcDbEntity
  8
0
  6
Continuous
 62
     0
370
    30
100
AcDbLine
 10
281.785915
 20
366.601236
 30
0.0
 11
253.021318
 21
366.601236
 31
0.0
  0
LINE
  5
66
330
48
100
AcDbEntity
  8
0
  6
Continuous
 62
     0
370
    30
100
AcDbLine
 10
281.785915
 20
362.601236
 30
0.0
 11
281.785915
 21
366.601236
 31
0.0
  0
LINE
  5
67
330
48
100
AcDbEntity
  8
0
  6
Continuous
 62
     0
370
    30
100
AcDbLine
 10
227.785915
 20
362.601236
 30
0.0
 11
227.785915
 21
366.601236
 31
0.0
  0
LINE
  5
68
330
48
100
AcDbEntity
  8
0
  6
Continuous
 62
     0
370
    30
100
AcDbLine
 10
276.785915
 20
366.601236
 30
0.0
 11
276.785915
 21
481.601236
 31
0.0
  0
LINE
  5
69
330
48
100
AcDbEntity
  8
0
  6
Continuous
 62
     0
370
    30
100
AcDbLine
 10
232.785915
 20
366.601236
 30
0.0
 11
232.785915
 21
481.601236
 31
0.0
  0
LWPOLYLINE
  5
6A
330
48
100
AcDbEntity
  8
0
  6
Continuous
 62
     0
370
    30
100
AcDbPolyline
 90
       15
 70
     0
 43
0.0
 10
264.796204
 20
439.00882
 10
264.794922
 20
440.728119
 10
264.793671
 20
442.362091
 10
264.792511
 20
443.901459
 10
264.791412
 20
445.337799
 10
264.790405
 20
446.663269
 10
264.78949
 20
447.870239
 10
264.788696
 20
448.951996
 10
264.787964
 20
449.902344
 10
264.787354
 20
450.716431
 10
264.786835
 20
451.389648
 10
264.786438
 20
451.917938
 10
264.786133
 20
452.298462
 10
264.78598
 20
452.529175
 10
264.785919
 20
452.608826
  0
LINE
  5
6B
330
48
100
AcDbEntity
  8
0
  6
Continuous
 62
     0
370
    30
100
AcDbLine
 10
264.796217
 20
439.008817
 30
0.0
 11
264.808887
 21
422.286322
 31
0.0
  0
ARC
  5
6C
330
48
100
AcDbEntity
  8
0
  6
Continuous
 62
     0
370
    30
100
AcDbCircle
 10
254.786061
 20
480.101229
 30
0.0
 40
20.50498919508669
100
AcDbArc
 50
4.19512
 51
7.597485
  0
ARC
  5
6D
330
48
100
AcDbEntity
  8
0
  6
Continuous
 62
     0
370
    30
100
AcDbCircle
 10
254.837651
 20
480.095815
 30
0.0
 40
20.55712710167628
100
AcDbArc
 50
172.406674
 51
175.800409
  0
LINE
  5
6E
330
48
100
AcDbEntity
  8
0
  6
Continuous
 62
     0
370
    30
100
AcDbLine
 10
276.785915
 20
483.00491
 30
0.0
 11
276.785915
 21
513.812253
 31
0.0
  0
LINE
  5
6F
330
48
100
AcDbEntity
  8
0
  6
Continuous
 62
     0
370
    30
100
AcDbLine
 10
232.785915
 20
483.00491
 30
0.0
 11
232.785915
 21
513.812253
 31
0.0
  0
ENDBLK
  5
71
330
48
100
AcDbEntity
  8
0
100
AcDbBlockEnd
  0
BLOCK
  5
A2
330
73
100
AcDbEntity
  8
0
100
AcDbBlockBegin
  2
b
 70
     0
 10
139.698513
 20
130.68721
 30
0.0
  3
b
  1

  0
ARC
  5
74
330
73
100
AcDbEntity
  8
0
  6
Continuous
 62
     0
370
    30
100
AcDbCircle
 10
254.785919
 20
256.366101
 30
0.0
 40
21.99999999999998
100
AcDbArc
 50
270.0
 51
90.0
  0
ARC
  5
75
330
73
100
AcDbEntity
  8
0
  6
Continuous
 62
     0
370
    30
100
AcDbCircle
 10
254.785919
 20
256.366101
 30
0.0
 40
21.99999999999998
100
AcDbArc
 50
90.0
 51
270.0
  0
LINE
  5
76
330
73
100
AcDbEntity
  8
0
  6
Continuous
 62
     0
370
     0
100
AcDbLine
 10
261.285919
 20
228.366102
 30
0.0
 11
254.785919
 21
228.366102
 31
0.0
  0
LINE
  5
77
330
73
100
AcDbEntity
  8
0
  6
Continuous
 62
     0
370
     0
100
AcDbLine
 10
254.785919
 20
228.366102
 30
0.0
 11
248.285919
 21
228.366102
 31
0.0
  0
LWPOLYLINE
  5
78
330
73
100
AcDbEntity
  8
0
  6
Continuous
 62
     0
370
     0
100
AcDbPolyline
 90
       13
 70
     0
 43
0.0
 10
248.346237
 20
231.821396
 10
248.405426
 20
231.772141
 10
248.57756
 20
231.632675
 10
248.853973
 20
231.417603
 10
249.224625
 20
231.147797
 10
249.680252
 20
230.843857
 10
250.214432
 20
230.52504
 10
250.822723
 20
230.209229
 10
251.501678
 20
229.913849
 10
252.246521
 20
229.656403
 10
253.048538
 20
229.454773
 10
253.895309
 20
229.324585
 10
254.785919
 20
229.278839
  0
LWPOLYLINE
  5
79
330
73
100
AcDbEntity
  8
0
  6
Continuous
 62
     0
370
     0
100
AcDbPolyline
 90
       13
 70
     0
 43
0.0
 10
254.785919
 20
229.278839
 10
255.658112
 20
229.3228
 10
256.505676
 20
229.451431
 10
257.308777
 20
229.651627
 10
258.054962
 20
229.90799
 10
258.735382
 20
230.202728
 10
259.345215
 20
230.518295
 10
259.881012
 20
230.83725
 10
260.338348
 20
231.141678
 10
260.710907
 20
231.412369
 10
260.989441
 20
231.628799
 10
261.16391
 20
231.77005
 10
261.225616
 20
231.821396
  0
LWPOLYLINE
  5
7A
330
73
100
AcDbEntity
  8
0
  6
Continuous
 62
     0
370
     0
100
AcDbPolyline
 90
       10
 70
     0
 43
0.0
 10
254.785919
 20
234.366104
 10
254.785919
 20
234.288391
 10
254.785919
 20
234.058777
 10
254.785919
 20
233.683334
 10
254.785919
 20
233.174469
 10
254.785919
 20
232.548111
 10
254.785919
 20
231.822968
 10
254.785919
 20
231.020721
 10
254.785919
 20
230.16626
 10
254.785919
 20
229.278839
  0
LINE
  5
7B
330
73
100
AcDbEntity
  8
0
  6
Continuous
 62
     0
370
    30
100
AcDbLine
 10
254.785919
 20
168.366102
 30
0.0
 11
261.285913
 21
168.366102
 31
0.0
  0
LINE
  5
7C
330
73
100
AcDbEntity
  8
0
  6
Continuous
 62
     0
370
    30
100
AcDbLine
 10
248.285925
 20
168.366102
 30
0.0
 11
254.785919
 21
168.366102
 31
0.0
  0
LINE
  5
7D
330
73
100
AcDbEntity
  8
0
  6
Continuous
 62
     0
370
    30
100
AcDbLine
 10
264.808885
 20
141.86111
 30
0.0
 11
264.808891
 21
141.847986
 31
0.0
  0
LWPOLYLINE
  5
7E
330
73
100
AcDbEntity
  8
0
  6
Continuous
 62
     0
370
    30
100
AcDbPolyline
 90
       27
 70
     0
 43
0.0
 10
264.808899
 20
141.847992
 10
264.740204
 20
140.837845
 10
264.529175
 20
139.8172
 10
264.171478
 20
138.808578
 10
263.669067
 20
137.835556
 10
263.03067
 20
136.921021
 10
262.271271
 20
136.08548
 10
261.410858
 20
135.345505
 10
260.472961
 20
134.712708
 10
259.479279
 20
134.191803
 10
258.406616
 20
133.768799
 10
257.258362
 20
133.452362
 10
256.056335
 20
133.255783
 10
254.826172
 20
133.187744
 10
253.595596
 20
133.251312
 10
252.392334
 20
133.443619
 10
251.242126
 20
133.756165
 10
250.166962
 20
134.175781
 10
249.171646
 20
134.693085
 10
248.232086
 20
135.322098
 10
247.369278
 20
136.058578
 10
246.606781
 20
136.891098
 10
245.964798
 20
137.803253
 10
245.45842
 20
138.774658
 10
245.096588
 20
139.782455
 10
244.8815
 20
140.80307
 10
244.808899
 20
141.847992
  0
ELLIPSE
  5
7F
330
73
100
AcDbEntity
  8
0
  6
Continuous
 62
     0
370
     0
100
AcDbEllipse
 10
254.796224
 20
151.502725
 30
0.0
 11
9.999991388869246
 21
0.01312335860016929
 31
0.0
210
0.0
220
0.0
230
-1.0
 40
0.866025
 41
0.0000000001147241
 42
0.0015153555040556
  0
ELLIPSE
  5
80
330
73
100
AcDbEntity
  8
0
  6
Continuous
 62
     0
370
     0
100
AcDbEllipse
 10
254.796224
 20
151.502725
 30
0.0
 11
9.999991388869246
 21
0.01312335860016929
 31
0.0
210
0.0
220
0.0
230
-1.0
 40
0.866025
 41
0.0015153555040556
 42
3.14159453978955
  0
LINE
  5
81
330
73
100
AcDbEntity
  8
0
  6
Continuous
 62
     0
370
     0
100
AcDbLine
 10
248.285925
 20
175.058615
 30
0.0
 11
244.785922
 21
175.058616
 31
0.0
  0
LINE
  5
82
330
73
100
AcDbEntity
  8
0
  6
Continuous
 62
     0
370
     0
100
AcDbLine
 10
264.785916
 20
175.058616
 30
0.0
 11
261.285913
 21
175.058615
 31
0.0
  0
LWPOLYLINE
  5
83
330
73
100
AcDbEntity
  8
0
  6
Continuous
 62
     0
370
     0
100
AcDbPolyline
 90
       10
 70
     0
 43
0.0
 10
264.785858
 20
232.365921
 10
264.73999
 20
232.303986
 10
264.60379
 20
232.123672
 10
264.379578
 20
231.834473
 10
264.070404
 20
231.451996
 10
263.67926
 20
230.993896
 10
263.207153
 20
230.477356
 10
262.653778
 20
229.919373
 10
262.016846
 20
229.336761
 10
261.279449
 20
228.736496
  0
ARC
  5
84
330
73
100
AcDbEntity
  8
0
  6
Continuous
 62
     0
370
    30
100
AcDbCircle
 10
254.785919
 20
256.366108
 30
0.0
 40
27.00000000000004
100
AcDbArc
 50
95.312652
 51
248.261539
  0
ARC
  5
85
330
73
100
AcDbEntity
  8
0
  6
Continuous
 62
     0
370
    30
100
AcDbCircle
 10
254.785919
 20
256.366108
 30
0.0
 40
27.00000000000004
100
AcDbArc
 50
291.738461
 51
84.687348
  0
LWPOLYLINE
  5
86
330
73
100
AcDbEntity
  8
0
  6
Continuous
 62
     0
370
     0
100
AcDbPolyline
 90
       10
 70
     0
 43
0.0
 10
244.78598
 20
232.365921
 10
244.831223
 20
232.304825
 10
244.96698
 20
232.125061
 10
245.190964
 20
231.836121
 10
245.500092
 20
231.453644
 10
245.891342
 20
230.9953
 10
246.363754
 20
230.478348
 10
246.917572
 20
229.91983
 10
247.55513
 20
229.336639
 10
248.292389
 20
228.736496
  0
LINE
  5
87
330
73
100
AcDbEntity
  8
0
  6
Continuous
 62
     0
370
     0
100
AcDbLine
 10
257.285862
 20
291.713893
 30
0.0
 11
254.785919
 21
291.713893
 31
0.0
  0
LINE
  5
88
330
73
100
AcDbEntity
  8
0
  6
Continuous
 62
     0
370
     0
100
AcDbLine
 10
254.785919
 20
291.713893
 30
0.0
 11
252.285977
 21
291.713893
 31
0.0
  0
LINE
  5
89
330
73
100
AcDbEntity
  8
0
  6
Continuous
 62
     0
370
    30
100
AcDbLine
 10
252.285977
 20
303.208979
 30
0.0
 11
254.785919
 21
303.208979
 31
0.0
  0
LINE
  5
8A
330
73
100
AcDbEntity
  8
0
  6
Continuous
 62
     0
370
    30
100
AcDbLine
 10
254.785919
 20
303.208979
 30
0.0
 11
257.285862
 21
303.208979
 31
0.0
  0
LWPOLYLINE
  5
8B
330
73
100
AcDbEntity
  8
0
  6
Continuous
 62
     0
370
     0
100
AcDbPolyline
 90
        8
 70
     0
 43
0.0
 10
257.285858
 20
286.729187
 10
257.2258
 20
286.235565
 10
257.048553
 20
285.765656
 10
256.762573
 20
285.34201
 10
256.381653
 20
284.985016
 10
255.924042
 20
284.711853
 10
255.411743
 20
284.535583
 10
254.785919
 20
284.46344
  0
LWPOLYLINE
  5
8C
330
73
100
AcDbEntity
  8
0
  6
Continuous
 62
     0
370
     0
100
AcDbPolyline
 90
        8
 70
     0
 43
0.0
 10
254.785919
 20
284.46344
 10
254.241257
 20
284.517853
 10
253.722748
 20
284.678528
 10
253.255325
 20
284.937714
 10
252.86145
 20
285.28299
 10
252.560043
 20
285.697723
 10
252.36557
 20
286.162018
 10
252.28598
 20
286.729218
  0
LINE
  5
8D
330
73
100
AcDbEntity
  8
0
  6
Continuous
 62
     0
370
    30
100
AcDbLine
 10
264.785919
 20
232.365916
 30
0.0
 11
264.785919
 21
175.058616
 31
0.0
  0
LINE
  5
8E
330
73
100
AcDbEntity
  8
0
  6
Continuous
 62
     0
370
    30
100
AcDbLine
 10
244.785919
 20
232.365916
 30
0.0
 11
244.785919
 21
175.058616
 31
0.0
  0
ARC
  5
8F
330
73
100
AcDbEntity
  8
0
  6
Continuous
 62
     0
370
    30
100
AcDbCircle
 10
236.785953
 20
232.365972
 30
0.0
 40
8.000024015759173
100
AcDbArc
 50
359.999635
 51
53.129714
  0
LWPOLYLINE
  5
90
330
73
100
AcDbEntity
  8
0
  6
Continuous
 62
     0
370
    30
100
AcDbPolyline
 90
       64
 70
     0
 43
0.0
 10
241.613693
 20
238.745102
 10
241.614441
 20
238.744522
 10
241.615402
 20
238.743805
 10
241.617752
 20
238.74202
 10
241.626236
 20
238.735596
 10
241.686523
 20
238.689331
 10
241.784485
 20
238.612167
 10
241.882034
 20
238.532822
 10
241.978287
 20
238.451996
 10
242.073273
 20
238.369659
 10
242.166962
 20
238.285843
 10
242.259308
 20
238.200577
 10
242.350327
 20
238.113861
 10
242.439957
 20
238.025742
 10
242.528198
 20
237.936203
 10
242.615021
 20
237.845291
 10
242.700394
 20
237.753036
 10
242.784302
 20
237.659424
 10
242.86673
 20
237.564514
 10
242.947632
 20
237.468323
 10
243.027023
 20
237.370865
 10
243.104874
 20
237.272156
 10
243.181152
 20
237.172241
 10
243.255875
 20
237.071152
 10
243.328995
 20
236.968903
 10
243.400497
 20
236.865524
 10
243.470383
 20
236.761032
 10
243.53862
 20
236.655472
 10
243.605209
 20
236.548843
 10
243.670105
 20
236.441193
 10
243.733322
 20
236.332535
 10
243.794815
 20
236.2229
 10
243.854568
 20
236.112305
 10
243.912567
 20
236.000778
 10
243.968796
 20
235.888351
 10
244.023239
 20
235.775055
 10
244.075897
 20
235.660904
 10
244.12674
 20
235.545944
 10
244.175781
 20
235.430191
 10
244.223007
 20
235.31369
 10
244.268387
 20
235.196472
 10
244.31192
 20
235.078552
 10
244.353607
 20
234.959961
 10
244.393417
 20
234.840729
 10
244.431366
 20
234.720901
 10
244.467422
 20
234.600479
 10
244.501587
 20
234.479523
 10
244.533844
 20
234.358032
 10
244.564209
 20
234.236069
 10
244.592636
 20
234.113617
 10
244.619156
 20
233.990753
 10
244.643753
 20
233.867477
 10
244.666397
 20
233.74382
 10
244.687103
 20
233.619827
 10
244.705841
 20
233.495514
 10
244.722626
 20
233.370911
 10
244.737442
 20
233.246048
 10
244.75029
 20
233.120972
 10
244.761169
 20
232.995712
 10
244.770065
 20
232.8703
 10
244.777008
 20
232.744781
 10
244.781967
 20
232.619186
 10
244.784958
 20
232.493561
 10
244.78598
 20
232.365921
  0
LWPOLYLINE
  5
91
330
73
100
AcDbEntity
  8
0
  6
Continuous
 62
     0
370
    30
100
AcDbPolyline
 90
       64
 70
     0
 43
0.0
 10
267.95816
 20
238.745102
 10
267.957397
 20
238.744522
 10
267.956451
 20
238.743805
 10
267.954071
 20
238.74202
 10
267.945618
 20
238.735596
 10
267.885315
 20
238.689331
 10
267.787354
 20
238.612167
 10
267.689789
 20
238.532822
 10
267.593567
 20
238.451996
 10
267.498566
 20
238.369659
 10
267.404877
 20
238.285843
 10
267.312531
 20
238.200577
 10
267.221527
 20
238.113861
 10
267.131866
 20
238.025742
 10
267.04364
 20
237.936203
 10
266.956818
 20
237.845291
 10
266.87146
 20
237.753036
 10
266.787537
 20
237.659424
 10
266.705109
 20
237.564514
 10
266.624207
 20
237.468323
 10
266.5448
 20
237.370865
 10
266.46698
 20
237.272156
 10
266.390686
 20
237.172241
 10
266.315979
 20
237.071152
 10
266.242859
 20
236.968903
 10
266.171326
 20
236.865524
 10
266.101471
 20
236.761032
 10
266.033203
 20
236.655472
 10
265.966644
 20
236.548843
 10
265.901733
 20
236.441193
 10
265.838531
 20
236.332535
 10
265.777039
 20
236.2229
 10
265.717285
 20
236.112305
 10
265.659271
 20
236.000778
 10
265.603058
 20
235.888351
 10
265.548615
 20
235.775055
 10
265.495941
 20
235.660904
 10
265.445099
 20
235.545944
 10
265.396057
 20
235.430191
 10
265.348846
 20
235.31369
 10
265.303436
 20
235.196472
 10
265.259918
 20
235.078552
 10
265.218231
 20
234.959961
 10
265.178406
 20
234.840729
 10
265.140472
 20
234.720901
 10
265.104431
 20
234.600479
 10
265.070251
 20
234.479523
 10
265.037994
 20
234.358032
 10
265.007629
 20
234.236069
 10
264.979187
 20
234.113617
 10
264.952667
 20
233.990753
 10
264.928101
 20
233.867477
 10
264.905457
 20
233.74382
 10
264.884735
 20
233.619827
 10
264.865997
 20
233.495514
 10
264.849213
 20
233.370911
 10
264.834412
 20
233.246048
 10
264.821564
 20
233.120972
 10
264.810669
 20
232.995712
 10
264.801758
 20
232.8703
 10
264.79483
 20
232.744781
 10
264.789856
 20
232.619186
 10
264.786865
 20
232.493561
 10
264.785858
 20
232.365921
  0
LWPOLYLINE
  5
92
330
73
100
AcDbEntity
  8
0
  6
Continuous
 62
     0
370
    30
100
AcDbPolyline
 90
       14
 70
     0
 43
0.0
 10
264.796204
 20
151.515854
 10
264.79483
 20
152.681595
 10
264.793488
 20
153.992218
 10
264.792267
 20
155.439087
 10
264.791107
 20
157.012833
 10
264.79007
 20
158.703186
 10
264.789124
 20
160.499191
 10
264.7883
 20
162.389236
 10
264.787567
 20
164.361115
 10
264.786987
 20
166.402054
 10
264.78653
 20
168.498917
 10
264.786194
 20
170.638046
 10
264.78598
 20
172.805817
 10
264.785919
 20
175.058609
  0
LWPOLYLINE
  5
93
330
73
100
AcDbEntity
  8
0
  6
Continuous
 62
     0
370
    30
100
AcDbPolyline
 90
       14
 70
     0
 43
0.0
 10
244.785919
 20
175.058609
 10
244.78598
 20
172.875244
 10
244.786179
 20
170.705917
 10
244.786514
 20
168.564743
 10
244.786972
 20
166.465363
 10
244.787567
 20
164.421371
 10
244.788269
 20
162.445938
 10
244.789093
 20
160.551804
 10
244.790039
 20
158.751129
 10
244.791077
 20
157.055511
 10
244.792221
 20
155.475861
 10
244.793457
 20
154.022308
 10
244.794785
 20
152.704041
 10
244.796234
 20
151.489624
  0
LINE
  5
94
330
73
100
AcDbEntity
  8
0
  6
Continuous
 62
     0
370
    30
100
AcDbLine
 10
264.796232
 20
151.502725
 30
0.0
 11
264.808885
 21
141.86111
 31
0.0
  0
LINE
  5
95
330
73
100
AcDbEntity
  8
0
  6
Continuous
 62
     0
370
    30
100
AcDbLine
 10
244.796232
 20
151.489602
 30
0.0
 11
244.808902
 21
141.834863
 31
0.0
  0
LINE
  5
96
330
73
100
AcDbEntity
  8
0
  6
Continuous
 62
     0
370
    30
100
AcDbLine
 10
248.285925
 20
228.366102
 30
0.0
 11
248.285925
 21
168.366102
 31
0.0
  0
LINE
  5
97
330
73
100
AcDbEntity
  8
0
  6
Continuous
 62
     0
370
    30
100
AcDbLine
 10
261.285913
 20
228.366102
 30
0.0
 11
261.285913
 21
168.366102
 31
0.0
  0
LWPOLYLINE
  5
98
330
73
100
AcDbEntity
  8
0
  6
Continuous
 62
     0
370
    30
100
AcDbPolyline
 90
       20
 70
     0
 43
0.0
 10
264.091888
 20
236.431152
 10
264.055573
 20
236.413834
 10
263.77597
 20
236.268051
 10
263.505188
 20
236.10437
 10
263.24527
 20
235.923981
 10
262.997192
 20
235.727585
 10
262.762115
 20
235.515823
 10
262.540924
 20
235.289581
 10
262.334503
 20
235.049789
 10
262.143616
 20
234.79747
 10
261.969086
 20
234.533569
 10
261.811615
 20
234.25914
 10
261.671783
 20
233.975296
 10
261.550201
 20
233.683212
 10
261.447449
 20
233.384003
 10
261.363831
 20
233.078888
 10
261.299591
 20
232.769089
 10
261.254974
 20
232.455795
 10
261.230225
 20
232.140289
 10
261.225555
 20
231.821625
  0
LWPOLYLINE
  5
99
330
73
100
AcDbEntity
  8
0
  6
Continuous
 62
     0
370
    30
100
AcDbPolyline
 90
       20
 70
     0
 43
0.0
 10
245.47995
 20
236.431152
 10
245.516281
 20
236.413834
 10
245.795883
 20
236.268051
 10
246.066635
 20
236.10437
 10
246.326584
 20
235.923981
 10
246.574646
 20
235.727585
 10
246.809738
 20
235.515823
 10
247.030899
 20
235.289581
 10
247.237335
 20
235.049789
 10
247.428223
 20
234.79747
 10
247.602753
 20
234.533569
 10
247.760223
 20
234.25914
 10
247.900055
 20
233.975296
 10
248.021622
 20
233.683212
 10
248.124374
 20
233.384003
 10
248.208008
 20
233.078888
 10
248.272247
 20
232.769089
 10
248.316849
 20
232.455795
 10
248.341599
 20
232.140289
 10
248.346268
 20
231.821625
  0
LINE
  5
9A
330
73
100
AcDbEntity
  8
0
  6
Continuous
 62
     0
370
    30
100
AcDbLine
 10
261.225611
 20
231.821157
 30
0.0
 11
261.285919
 21
228.366102
 31
0.0
  0
LINE
  5
9B
330
73
100
AcDbEntity
  8
0
  6
Continuous
 62
     0
370
    30
100
AcDbLine
 10
248.346227
 20
231.821157
 30
0.0
 11
248.285919
 21
228.366102
 31
0.0
  0
LINE
  5
9C
330
73
100
AcDbEntity
  8
0
  6
Continuous
 62
     0
370
    30
100
AcDbLine
 10
257.285862
 20
286.7292
 30
0.0
 11
257.285862
 21
278.223523
 31
0.0
  0
LINE
  5
9D
330
73
100
AcDbEntity
  8
0
  6
Continuous
 62
     0
370
    30
100
AcDbLine
 10
252.285977
 20
286.7292
 30
0.0
 11
252.285977
 21
278.223623
 31
0.0
  0
LINE
  5
9E
330
73
100
AcDbEntity
  8
0
  6
Continuous
 62
     0
370
    30
100
AcDbLine
 10
257.285862
 20
291.713893
 30
0.0
 11
257.285862
 21
286.7292
 31
0.0
  0
LINE
  5
9F
330
73
100
AcDbEntity
  8
0
  6
Continuous
 62
     0
370
    30
100
AcDbLine
 10
252.285977
 20
291.713893
 30
0.0
 11
252.285977
 21
286.7292
 31
0.0
  0
LINE
  5
A0
330
73
100
AcDbEntity
  8
0
  6
Continuous
 62
     0
370
    30
100
AcDbLine
 10
252.285977
 20
291.713893
 30
0.0
 11
252.285977
 21
303.208979
 31
0.0
  0
LINE
  5
A1
330
73
100
AcDbEntity
  8
0
  6
Continuous
 62
     0
370
    30
100
AcDbLine
 10
257.285862
 20
291.713893
 30
0.0
 11
257.285862
 21
303.208979
 31
0.0
  0
ENDBLK
  5
A3
330
73
100
AcDbEntity
  8
0
100
AcDbBlockEnd
  0
BLOCK
  5
DE
330
A5
100
AcDbEntity
  8
0
100
AcDbBlockBegin
  2
c
 70
     0
 10
174.246521
 20
130.68721
 30
0.0
  3
c
  1

  0
LINE
  5
A6
330
A5
100
AcDbEntity
  8
0
  6
Continuous
 62
     0
370
    30
100
AcDbLine
 10
464.860985
 20
482.812268
 30
0.0
 11
486.331669
 21
482.812268
 31
0.0
  0
LINE
  5
A7
330
A5
100
AcDbEntity
  8
0
  6
Continuous
 62
     0
370
    30
100
AcDbLine
 10
442.331669
 20
513.812268
 30
0.0
 11
486.331669
 21
513.812268
 31
0.0
  0
LINE
  5
A8
330
A5
100
AcDbEntity
  8
0
  6
Continuous
 62
     0
370
    30
100
AcDbLine
 10
442.331669
 20
491.012374
 30
0.0
 11
464.860985
 21
482.812268
 31
0.0
  0
LINE
  5
A9
330
A5
100
AcDbEntity
  8
0
  6
Continuous
 62
     0
370
    30
100
AcDbLine
 10
486.331669
 20
482.812268
 30
0.0
 11
486.331669
 21
487.328962
 31
0.0
  0
LWPOLYLINE
  5
AA
330
A5
100
AcDbEntity
  8
0
  6
Continuous
 62
     0
370
     0
100
AcDbPolyline
 90
       32
 70
     0
 43
0.0
 10
486.331665
 20
487.328949
 10
486.30603
 20
487.40509
 10
486.23114
 20
487.625183
 10
486.112549
 20
487.981323
 10
485.958191
 20
488.461731
 10
485.777313
 20
489.049255
 10
485.579437
 20
489.729462
 10
485.373474
 20
490.488892
 10
485.167542
 20
491.316528
 10
484.969116
 20
492.202148
 10
484.785217
 20
493.135925
 10
484.621796
 20
494.109955
 10
484.4841
 20
495.116882
 10
484.376556
 20
496.149445
 10
484.302612
 20
497.200348
 10
484.26474
 20
498.26239
 10
484.26416
 20
499.328217
 10
484.300842
 20
500.390472
 10
484.373657
 20
501.441864
 10
484.480164
 20
502.475098
 10
484.617004
 20
503.482971
 10
484.779724
 20
504.458221
 10
484.963013
 20
505.393311
 10
485.16098
 20
506.280334
 10
485.366882
 20
507.110443
 10
485.573456
 20
507.873688
 10
485.772003
 20
508.557343
 10
485.953522
 20
509.147949
 10
486.108704
 20
509.631256
 10
486.228394
 20
509.992065
 10
486.304596
 20
510.216492
 10
486.331665
 20
510.295563
  0
LINE
  5
AB
330
A5
100
AcDbEntity
  8
0
  6
Continuous
 62
     0
370
    30
100
AcDbLine
 10
486.331669
 20
510.295575
 30
0.0
 11
486.331669
 21
513.812268
 31
0.0
  0
LINE
  5
AC
330
A5
100
AcDbEntity
  8
0
  6
Continuous
 62
     0
370
    30
100
AcDbLine
 10
491.418931
 20
505.296337
 30
0.0
 11
492.331669
 21
505.312268
 31
0.0
  0
LINE
  5
AD
330
A5
100
AcDbEntity
  8
0
  6
Continuous
 62
     0
370
     0
100
AcDbLine
 10
492.331669
 20
505.312268
 30
0.0
 11
492.331669
 21
492.312268
 31
0.0
  0
LWPOLYLINE
  5
AE
330
A5
100
AcDbEntity
  8
0
  6
Continuous
 62
     0
370
     0
100
AcDbPolyline
 90
       25
 70
     0
 43
0.0
 10
491.418945
 20
492.328186
 10
491.374939
 20
492.388031
 10
491.246155
 20
492.563782
 10
491.045776
 20
492.84671
 10
490.789185
 20
493.226196
 10
490.494232
 20
493.691467
 10
490.178497
 20
494.234131
 10
489.859375
 20
494.848328
 10
489.554871
 20
495.530029
 10
489.284241
 20
496.275146
 10
489.068024
 20
497.075989
 10
488.927155
 20
497.924347
 10
488.876404
 20
498.799042
 10
488.924225
 20
499.674103
 10
489.062561
 20
500.523621
 10
489.276855
 20
501.32608
 10
489.546204
 20
502.072968
 10
489.849976
 20
502.756622
 10
490.168915
 20
503.372925
 10
490.484985
 20
503.917847
 10
490.780853
 20
504.385498
 10
491.03894
 20
504.767731
 10
491.241333
 20
505.053741
 10
491.372314
 20
505.232849
 10
491.418945
 20
505.296326
  0
ARC
  5
AF
330
A5
100
AcDbEntity
  8
0
  6
Continuous
 62
     0
370
    30
100
AcDbCircle
 10
491.331669
 20
510.295575
 30
0.0
 40
4.999999999999379
100
AcDbArc
 50
180.0
 51
271.0
  0
ARC
  5
B0
330
A5
100
AcDbEntity
  8
0
  6
Continuous
 62
     0
370
    30
100
AcDbCircle
 10
491.331669
 20
487.328962
 30
0.0
 40
4.999999999999144
100
AcDbArc
 50
89.0
 51
180.0
  0
LINE
  5
B1
330
A5
100
AcDbEntity
  8
0
  6
Continuous
 62
     0
370
    30
100
AcDbLine
 10
552.331669
 20
492.312274
 30
0.0
 11
552.331669
 21
505.312263
 31
0.0
  0
LINE
  5
B2
330
A5
100
AcDbEntity
  8
0
  6
Continuous
 62
     0
370
    30
100
AcDbLine
 10
552.331669
 20
505.312263
 30
0.0
 11
492.331669
 21
505.312263
 31
0.0
  0
ARC
  5
B3
330
A5
100
AcDbEntity
  8
0
  6
Continuous
 62
     0
370
    30
100
AcDbCircle
 10
-1327.319087
 20
3718.854812
 30
0.0
 40
3808.010425031018
100
AcDbArc
 50
299.887194
 51
300.037598
  0
ARC
  5
B4
330
A5
100
AcDbEntity
  8
0
  6
Continuous
 62
     0
370
    30
100
AcDbCircle
 10
-1312.641072
 20
3703.463755
 30
0.0
 40
3787.342387887774
100
AcDbArc
 50
299.96192
 51
300.11326
  0
ELLIPSE
  5
B5
330
A5
100
AcDbEntity
  8
0
  6
Continuous
 62
     0
370
     0
100
AcDbEllipse
 10
569.195048
 20
439.001255
 30
0.0
 11
8.660253416512777
 21
5.00000107617776
 31
0.0
210
0.0
220
0.0
230
-1.0
 40
0.000656
 41
1.57117512805891
 42
3.141595573992296
  0
ELLIPSE
  5
B6
330
A5
100
AcDbEntity
  8
0
  6
Continuous
 62
     0
370
     0
100
AcDbEllipse
 10
569.195048
 20
439.001255
 30
0.0
 11
8.660253416512777
 21
5.00000107617776
 31
0.0
210
0.0
220
0.0
230
-1.0
 40
0.000656
 41
6.283182732921381
 42
7.854360435238488
  0
LINE
  5
B7
330
A5
100
AcDbEntity
  8
0
  6
Continuous
 62
     0
370
     0
100
AcDbLine
 10
545.639158
 20
452.593675
 30
0.0
 11
545.639157
 21
442.601254
 31
0.0
  0
LINE
  5
B8
330
A5
100
AcDbEntity
  8
0
  6
Continuous
 62
     0
370
     0
100
AcDbLine
 10
545.639157
 20
462.601248
 30
0.0
 11
545.639158
 21
452.593675
 31
0.0
  0
LINE
  5
B9
330
A5
100
AcDbEntity
  8
0
  6
Continuous
 62
     0
370
    30
100
AcDbLine
 10
486.331669
 20
434.601251
 30
0.0
 11
486.331669
 21
366.601251
 31
0.0
  0
LWPOLYLINE
  5
BA
330
A5
100
AcDbEntity
  8
0
  6
Continuous
 62
     0
370
     0
100
AcDbPolyline
 90
       42
 70
     0
 43
0.0
 10
486.331665
 20
434.601257
 10
486.297668
 20
434.678497
 10
486.198059
 20
434.906891
 10
486.038788
 20
435.275024
 10
485.828461
 20
435.769867
 10
485.576904
 20
436.374573
 10
485.293854
 20
437.074097
 10
484.988312
 20
437.855255
 10
484.668579
 20
438.706177
 10
484.342255
 20
439.616913
 10
484.01593
 20
440.580261
 10
483.695679
 20
441.589935
 10
483.387421
 20
442.639923
 10
483.096771
 20
443.725159
 10
482.828705
 20
444.841736
 10
482.588074
 20
445.986023
 10
482.379333
 20
447.154144
 10
482.206726
 20
448.342285
 10
482.07373
 20
449.546265
 10
481.983398
 20
450.761902
 10
481.937622
 20
451.98465
 10
481.937439
 20
453.209778
 10
481.98288
 20
454.432556
 10
482.072937
 20
455.648224
 10
482.205688
 20
456.852325
 10
482.378082
 20
458.040527
 10
482.586609
 20
459.208801
 10
482.827026
 20
460.353271
 10
483.09491
 20
461.470093
 10
483.385406
 20
462.555542
 10
483.693573
 20
463.605774
 10
484.013763
 20
464.615692
 10
484.340088
 20
465.579346
 10
484.666443
 20
466.490479
 10
484.986237
 20
467.341888
 10
485.291901
 20
468.123505
 10
485.575134
 20
468.823486
 10
485.826935
 20
469.428864
 10
486.037567
 20
469.924561
 10
486.197174
 20
470.293945
 10
486.297211
 20
470.523315
 10
486.331665
 20
470.601257
  0
LINE
  5
BB
330
A5
100
AcDbEntity
  8
0
  6
Continuous
 62
     0
370
    30
100
AcDbLine
 10
486.331669
 20
470.601251
 30
0.0
 11
486.331669
 21
481.601251
 31
0.0
  0
LINE
  5
BC
330
A5
100
AcDbEntity
  8
0
  6
Continuous
 62
     0
370
    30
100
AcDbLine
 10
486.331669
 20
481.601251
 30
0.0
 11
442.331669
 21
481.601251
 31
0.0
  0
ARC
  5
BD
330
A5
100
AcDbEntity
  8
0
  6
Continuous
 62
     0
370
    30
100
AcDbCircle
 10
494.331669
 20
434.601251
 30
0.0
 40
7.999999999999856
100
AcDbArc
 50
90.0
 51
180.0
  0
ARC
  5
BE
330
A5
100
AcDbEntity
  8
0
  6
Continuous
 62
     0
370
    30
100
AcDbCircle
 10
494.331669
 20
470.601251
 30
0.0
 40
7.999999999999929
100
AcDbArc
 50
180.0
 51
270.0
  0
LINE
  5
BF
330
A5
100
AcDbEntity
  8
0
  6
Continuous
 62
     0
370
    30
100
AcDbLine
 10
491.273944
 20
362.601251
 30
0.0
 11
491.331669
 21
362.601251
 31
0.0
  0
LINE
  5
C0
330
A5
100
AcDbEntity
  8
0
  6
Continuous
 62
     0
370
    30
100
AcDbLine
 10
437.331669
 20
362.601251
 30
0.0
 11
491.273944
 21
362.601251
 31
0.0
  0
LINE
  5
C1
330
A5
100
AcDbEntity
  8
0
  6
Continuous
 62
     0
370
    30
100
AcDbLine
 10
491.273944
 20
366.601251
 30
0.0
 11
437.331669
 21
366.601251
 31
0.0
  0
LINE
  5
C2
330
A5
100
AcDbEntity
  8
0
  6
Continuous
 62
     0
370
    30
100
AcDbLine
 10
491.331669
 20
366.601251
 30
0.0
 11
491.273944
 21
366.601251
 31
0.0
  0
LWPOLYLINE
  5
C3
330
A5
100
AcDbEntity
  8
0
  6
Continuous
 62
     0
370
     0
100
AcDbPolyline
 90
       20
 70
     0
 43
0.0
 10
494.331665
 20
442.601257
 10
494.276428
 20
442.652283
 10
494.117126
 20
442.801117
 10
493.866058
 20
443.038544
 10
493.540344
 20
443.352478
 10
493.157776
 20
443.730682
 10
492.734039
 20
444.163055
 10
492.283905
 20
444.640442
 10
491.819275
 20
445.156494
 10
491.35022
 20
445.706787
 10
490.886169
 20
446.28772
 10
490.435608
 20
446.897125
 10
490.006958
 20
447.533081
 10
489.608704
 20
448.194
 10
489.249573
 20
448.878601
 10
488.938171
 20
449.585083
 10
488.683258
 20
450.310699
 10
488.493439
 20
451.052582
 10
488.374908
 20
451.806152
 10
488.331848
 20
452.593689
  0
LWPOLYLINE
  5
C4
330
A5
100
AcDbEntity
  8
0
  6
Continuous
 62
     0
370
     0
100
AcDbPolyline
 90
       20
 70
     0
 43
0.0
 10
488.331848
 20
452.593689
 10
488.370422
 20
453.354187
 10
488.484985
 20
454.109009
 10
488.671295
 20
454.852386
 10
488.92334
 20
455.579651
 10
489.232422
 20
456.287903
 10
489.589661
 20
456.974365
 10
489.98645
 20
457.637238
 10
490.414154
 20
458.275116
 10
490.864288
 20
458.886444
 10
491.3284
 20
459.46933
 10
491.798004
 20
460.021637
 10
492.26358
 20
460.539886
 10
492.714935
 20
461.019562
 10
493.14032
 20
461.454437
 10
493.525238
 20
461.835449
 10
493.854156
 20
462.152618
 10
494.10907
 20
462.393738
 10
494.272552
 20
462.546448
 10
494.331665
 20
462.601257
  0
LINE
  5
C5
330
A5
100
AcDbEntity
  8
0
  6
Continuous
 62
     0
370
    30
100
AcDbLine
 10
417.488796
 20
412.999725
 30
0.0
 11
428.983882
 21
412.999725
 31
0.0
  0
LINE
  5
C6
330
A5
100
AcDbEntity
  8
0
  6
Continuous
 62
     0
370
     0
100
AcDbLine
 10
428.983882
 20
412.999725
 30
0.0
 11
428.983882
 21
407.999725
 31
0.0
  0
LINE
  5
C7
330
A5
100
AcDbEntity
  8
0
  6
Continuous
 62
     0
370
    30
100
AcDbLine
 10
417.488796
 20
407.999725
 30
0.0
 11
417.488796
 21
412.999725
 31
0.0
  0
ARC
  5
C8
330
A5
100
AcDbEntity
  8
0
  6
Continuous
 62
     0
370
    30
100
AcDbCircle
 10
428.982633
 20
404.997766
 30
0.0
 40
8.001959641146609
100
AcDbArc
 50
25.008939
 51
89.991061
  0
LWPOLYLINE
  5
C9
330
A5
100
AcDbEntity
  8
0
  6
Continuous
 62
     0
370
     0
100
AcDbPolyline
 90
       14
 70
     0
 43
0.0
 10
436.234344
 20
408.380676
 10
436.169037
 20
408.35022
 10
435.976898
 20
408.26062
 10
435.669006
 20
408.117035
 10
435.263092
 20
407.927765
 10
434.782562
 20
407.703674
 10
434.255096
 20
407.457733
 10
433.711121
 20
407.204071
 10
433.182007
 20
406.957336
 10
432.698212
 20
406.73175
 10
432.287659
 20
406.540283
 10
431.973969
 20
406.394012
 10
431.775269
 20
406.301361
 10
431.70282
 20
406.267578
  0
LINE
  5
CA
330
A5
100
AcDbEntity
  8
0
  6
Continuous
 62
     0
370
    30
100
AcDbLine
 10
436.234344
 20
408.380671
 30
0.0
 11
442.331669
 21
395.304916
 31
0.0
  0
LWPOLYLINE
  5
CB
330
A5
100
AcDbEntity
  8
0
  6
Continuous
 62
     0
370
    30
100
AcDbPolyline
 90
       31
 70
     0
 43
0.0
 10
442.331696
 20
383.474091
 10
442.336243
 20
383.560028
 10
442.3479
 20
383.787476
 10
442.36319
 20
384.103119
 10
442.379608
 20
384.47052
 10
442.395844
 20
384.868927
 10
442.411102
 20
385.287048
 10
442.425018
 20
385.718353
 10
442.437317
 20
386.158722
 10
442.447937
 20
386.60553
 10
442.456757
 20
387.056824
 10
442.463776
 20
387.511292
 10
442.468964
 20
387.967926
 10
442.472382
 20
388.426056
 10
442.473999
 20
388.88504
 10
442.473907
 20
389.344238
 10
442.472076
 20
389.803101
 10
442.468628
 20
390.2612
 10
442.463562
 20
390.718048
 10
442.45697
 20
391.173126
 10
442.448914
 20
391.625732
 10
442.439423
 20
392.075226
 10
442.42868
 20
392.520508
 10
442.416687
 20
392.960266
 10
442.403656
 20
393.39267
 10
442.389771
 20
393.814514
 10
442.375305
 20
394.220795
 10
442.360748
 20
394.602783
 10
442.347076
 20
394.942169
 10
442.336182
 20
395.200623
 10
442.331665
 20
395.304901
  0
LINE
  5
CC
330
A5
100
AcDbEntity
  8
0
  6
Continuous
 62
     0
370
    30
100
AcDbLine
 10
494.331669
 20
442.601251
 30
0.0
 11
545.639157
 21
442.601251
 31
0.0
  0
LINE
  5
CD
330
A5
100
AcDbEntity
  8
0
  6
Continuous
 62
     0
370
    30
100
AcDbLine
 10
494.331669
 20
462.601251
 30
0.0
 11
545.639157
 21
462.601251
 31
0.0
  0
LINE
  5
CE
330
A5
100
AcDbEntity
  8
0
  6
Continuous
 62
     0
370
    30
100
AcDbLine
 10
491.331669
 20
362.601251
 30
0.0
 11
491.331669
 21
366.601251
 31
0.0
  0
LINE
  5
CF
330
A5
100
AcDbEntity
  8
0
  6
Continuous
 62
     0
370
    30
100
AcDbLine
 10
437.331669
 20
362.601251
 30
0.0
 11
437.331669
 21
366.601251
 31
0.0
  0
LINE
  5
D0
330
A5
100
AcDbEntity
  8
0
  6
Continuous
 62
     0
370
    30
100
AcDbLine
 10
442.331669
 20
366.601251
 30
0.0
 11
442.331669
 21
383.474106
 31
0.0
  0
LINE
  5
D1
330
A5
100
AcDbEntity
  8
0
  6
Continuous
 62
     0
370
    30
100
AcDbLine
 10
442.331669
 20
395.304916
 30
0.0
 11
442.331669
 21
481.601251
 31
0.0
  0
ARC
  5
D2
330
A5
100
AcDbEntity
  8
0
  6
Continuous
 62
     0
370
    30
100
AcDbCircle
 10
545.639157
 20
425.401248
 30
0.0
 40
17.20000333969532
100
AcDbArc
 50
30.000017
 51
90.000001
  0
ARC
  5
D3
330
A5
100
AcDbEntity
  8
0
  6
Continuous
 62
     0
370
    30
100
AcDbCircle
 10
545.639156
 20
425.401246
 30
0.0
 40
37.20000555701422
100
AcDbArc
 50
30.000014
 51
89.999999
  0
LINE
  5
D4
330
A5
100
AcDbEntity
  8
0
  6
Continuous
 62
     0
370
    30
100
AcDbLine
 10
560.534795
 20
434.001254
 30
0.0
 11
570.189534
 21
417.278759
 31
0.0
  0
LINE
  5
D5
330
A5
100
AcDbEntity
  8
0
  6
Continuous
 62
     0
370
    30
100
AcDbLine
 10
577.855301
 20
444.001256
 30
0.0
 11
587.510041
 21
427.278762
 31
0.0
  0
ARC
  5
D6
330
A5
100
AcDbEntity
  8
0
  6
Continuous
 62
     0
370
    30
100
AcDbCircle
 10
464.331371
 20
480.101201
 30
0.0
 40
20.50543443732385
100
AcDbArc
 50
4.195152
 51
7.597443
  0
ARC
  5
D7
330
A5
100
AcDbEntity
  8
0
  6
Continuous
 62
     0
370
    30
100
AcDbCircle
 10
464.331505
 20
480.101277
 30
0.0
 40
20.504968858925
100
AcDbArc
 50
152.354454
 51
175.804966
  0
LINE
  5
D8
330
A5
100
AcDbEntity
  8
0
  6
Continuous
 62
     0
370
    30
100
AcDbLine
 10
492.331669
 20
492.312274
 30
0.0
 11
552.331669
 21
492.312274
 31
0.0
  0
LINE
  5
D9
330
A5
100
AcDbEntity
  8
0
  6
Continuous
 62
     0
370
    30
100
AcDbLine
 10
491.418931
 20
492.3282
 30
0.0
 11
492.331669
 21
492.312268
 31
0.0
  0
LINE
  5
DA
330
A5
100
AcDbEntity
  8
0
  6
Continuous
 62
     0
370
    30
100
AcDbLine
 10
442.331669
 20
491.01247
 30
0.0
 11
442.331669
 21
513.812268
 31
0.0
  0
LINE
  5
DB
330
A5
100
AcDbEntity
  8
0
  6
Continuous
 62
     0
370
    30
100
AcDbLine
 10
431.702805
 20
406.26758
 30
0.0
 11
442.331596
 21
383.474065
 31
0.0
  0
ARC
  5
DC
330
A5
100
AcDbEntity
  8
0
  6
Continuous
 62
     0
370
    30
100
AcDbCircle
 10
428.983373
 20
404.998927
 30
0.0
 40
3.000798322132576
100
AcDbArc
 50
25.00971
 51
89.99029
  0
LINE
  5
DD
330
A5
100
AcDbEntity
  8
0
  6
Continuous
 62
     0
370
    30
100
AcDbLine
 10
428.983882
 20
407.999725
 30
0.0
 11
417.488796
 21
407.999725
 31
0.0
  0
ENDBLK
  5
DF
330
A5
100
AcDbEntity
  8
0
100
AcDbBlockEnd
  0
BLOCK
  5
127
330
E1
100
AcDbEntity
  8
0
100
AcDbBlockBegin
  2
d
 70
     0
 10
183.026123
 20
104.616043
 30
0.0
  3
d
  1

  0
LWPOLYLINE
  5
E2
330
E1
100
AcDbEntity
  8
0
  6
Continuous
 62
     0
370
    30
100
AcDbPolyline
 90
        5
 70
     0
 43
0.0
 10
501.056091
 20
230.927475
 10
501.89856
 20
230.057968
 10
502.835052
 20
229.246323
 10
503.850739
 20
228.496246
 10
505.106293
 20
227.707458
  0
LWPOLYLINE
  5
E3
330
E1
100
AcDbEntity
  8
0
  6
Continuous
 62
     0
370
    30
100
AcDbPolyline
 90
       18
 70
     0
 43
0.0
 10
505.106293
 20
227.707458
 10
506.456665
 20
226.990295
 10
507.952057
 20
226.321655
 10
509.586334
 20
225.714478
 10
511.348999
 20
225.181595
 10
513.225098
 20
224.735077
 10
515.195435
 20
224.385681
 10
517.236938
 20
224.142151
 10
519.323547
 20
224.010773
 10
521.427246
 20
223.994888
 10
523.519287
 20
224.094742
 10
525.571472
 20
224.307434
 10
527.557495
 20
224.627121
 10
529.453918
 20
225.04541
 10
531.240845
 20
225.551865
 10
532.902832
 20
226.134644
 10
534.428711
 20
226.781082
 10
535.84021
 20
227.493973
  0
LWPOLYLINE
  5
E4
330
E1
100
AcDbEntity
  8
0
  6
Continuous
 62
     0
370
    30
100
AcDbPolyline
 90
       40
 70
     0
 43
0.0
 10
505.106293
 20
253.01886
 10
506.292145
 20
252.382828
 10
507.592346
 20
251.783218
 10
509.003387
 20
251.229034
 10
510.518982
 20
250.729324
 10
512.130249
 20
250.292801
 10
513.825378
 20
249.927597
 10
515.590149
 20
249.640839
 10
517.407959
 20
249.43837
 10
519.260498
 20
249.324432
 10
521.128113
 20
249.301453
 10
522.990662
 20
249.369934
 10
524.828308
 20
249.528381
 10
526.621887
 20
249.773468
 10
528.353943
 20
250.100113
 10
530.008911
 20
250.501801
 10
531.573792
 20
250.970871
 10
533.038269
 20
251.498825
 10
534.394714
 20
252.076767
 10
535.638245
 20
252.695633
 10
536.774658
 20
253.351562
 10
537.846802
 20
254.06926
 10
538.848145
 20
254.852158
 10
539.762939
 20
255.697433
 10
540.575806
 20
256.600708
 10
541.271973
 20
257.55603
 10
541.838257
 20
258.555878
 10
542.263306
 20
259.591309
 10
542.538391
 20
260.652161
 10
542.657593
 20
261.727509
 10
542.618347
 20
262.805786
 10
542.421631
 20
263.875397
 10
542.071472
 20
264.924988
 10
541.575378
 20
265.944031
 10
540.943298
 20
266.922882
 10
540.187683
 20
267.853333
 10
539.32251
 20
268.728607
 10
538.362976
 20
269.543488
 10
537.324707
 20
270.294403
 10
536.218994
 20
270.981781
  0
LWPOLYLINE
  5
E5
330
E1
100
AcDbEntity
  8
0
  6
Continuous
 62
     0
370
    30
100
AcDbPolyline
 90
       39
 70
     0
 43
0.0
 10
536.218994
 20
270.981781
 10
534.930725
 20
271.668518
 10
533.525818
 20
272.304657
 10
532.013062
 20
272.881012
 10
530.404175
 20
273.388947
 10
528.713501
 20
273.820984
 10
526.957458
 20
274.17099
 10
525.154358
 20
274.434479
 10
523.323486
 20
274.608765
 10
521.48468
 20
274.693146
 10
519.657349
 20
274.688751
 10
517.859985
 20
274.598541
 10
516.109497
 20
274.427032
 10
514.417236
 20
274.179474
 10
512.746765
 20
273.851318
 10
511.099823
 20
273.439331
 10
509.494812
 20
272.943787
 10
507.950439
 20
272.366943
 10
506.484894
 20
271.712708
 10
505.115143
 20
270.986877
 10
503.856415
 20
270.196869
 10
502.721527
 20
269.35141
 10
501.72049
 20
268.460327
 10
500.860291
 20
267.534058
 10
500.144714
 20
266.583435
 10
499.574432
 20
265.619141
 10
499.14386
 20
264.642426
 10
498.844971
 20
263.632233
 10
498.686768
 20
262.594818
 10
498.677094
 20
261.539978
 10
498.821136
 20
260.478333
 10
499.120972
 20
259.421173
 10
499.575287
 20
258.379852
 10
500.179535
 20
257.36557
 10
500.925995
 20
256.388855
 10
501.804108
 20
255.45929
 10
502.800842
 20
254.585114
 10
503.901428
 20
253.773102
 10
505.106293
 20
253.01886
  0
LWPOLYLINE
  5
E6
330
E1
100
AcDbEntity
  8
0
  6
Continuous
 62
     0
370
    30
100
AcDbPolyline
 90
       11
 70
     0
 43
0.0
 10
535.84021
 20
227.493973
 10
537.060181
 20
228.74205
 10
538.179321
 20
230.04631
 10
539.18988
 20
231.398071
 10
540.082275
 20
232.785614
 10
540.848877
 20
234.199219
 10
541.48645
 20
235.633392
 10
541.991455
 20
237.081924
 10
542.358765
 20
238.535889
 10
542.583496
 20
239.985809
 10
542.662598
 20
241.470886
  0
LWPOLYLINE
  5
E7
330
E1
100
AcDbEntity
  8
0
  6
Continuous
 62
     0
370
     0
100
AcDbPolyline
 90
       15
 70
     0
 43
0.0
 10
499.980774
 20
245.440277
 10
500.0
 20
246.371094
 10
500.056885
 20
247.235321
 10
500.153229
 20
248.026108
 10
500.291901
 20
248.73735
 10
500.476929
 20
249.36351
 10
500.713226
 20
249.899307
 10
501.006592
 20
250.339127
 10
501.364166
 20
250.676453
 10
501.792542
 20
250.904007
 10
502.297516
 20
251.013718
 10
502.883118
 20
250.998077
 10
503.55011
 20
250.850479
 10
504.293396
 20
250.566925
 10
505.106293
 20
250.147491
  0
LWPOLYLINE
  5
E8
330
E1
100
AcDbEntity
  8
0
  6
Continuous
 62
     0
370
     0
100
AcDbPolyline
 90
        4
 70
     0
 43
0.0
 10
505.106293
 20
231.395325
 10
504.726074
 20
231.635971
 10
504.357849
 20
231.914307
 10
503.745148
 20
232.479996
  0
LWPOLYLINE
  5
E9
330
E1
100
AcDbEntity
  8
0
  6
Continuous
 62
     0
370
     0
100
AcDbPolyline
 90
       31
 70
     0
 43
0.0
 10
505.106293
 20
250.147491
 10
505.901764
 20
249.644119
 10
506.716736
 20
249.047089
 10
507.531586
 20
248.3694
 10
508.328217
 20
247.625793
 10
509.091675
 20
246.831558
 10
509.809479
 20
245.998337
 10
510.473114
 20
245.134888
 10
511.075714
 20
244.24762
 10
511.611084
 20
243.342712
 10
512.073669
 20
242.425659
 10
512.459167
 20
241.500641
 10
512.763672
 20
240.572067
 10
512.983826
 20
239.64473
 10
513.117126
 20
238.723892
 10
513.161987
 20
237.815369
 10
513.117737
 20
236.925537
 10
512.985107
 20
236.061249
 10
512.765564
 20
235.229904
 10
512.461609
 20
234.439285
 10
512.076599
 20
233.697693
 10
511.614502
 20
233.013992
 10
511.080017
 20
232.397781
 10
510.477783
 20
231.859955
 10
509.81308
 20
231.412476
 10
509.094147
 20
231.069351
 10
508.330505
 20
230.845215
 10
507.534088
 20
230.754349
 10
506.719421
 20
230.810333
 10
505.904388
 20
231.022858
 10
505.106293
 20
231.395325
  0
LWPOLYLINE
  5
EA
330
E1
100
AcDbEntity
  8
0
  6
Continuous
 62
     0
370
     0
100
AcDbPolyline
 90
       17
 70
     0
 43
0.0
 10
504.113647
 20
232.692749
 10
504.576111
 20
233.049591
 10
504.945801
 20
233.526215
 10
505.214844
 20
234.100159
 10
505.38269
 20
234.744476
 10
505.455139
 20
235.431198
 10
505.441559
 20
236.151825
 10
505.339203
 20
236.946014
 10
505.138947
 20
237.801849
 10
504.836914
 20
238.695862
 10
504.435944
 20
239.598831
 10
503.946381
 20
240.478561
 10
503.385101
 20
241.303452
 10
502.773865
 20
242.046204
 10
502.136444
 20
242.686752
 10
501.495911
 20
243.213654
 10
500.863647
 20
243.62915
  0
LWPOLYLINE
  5
EB
330
E1
100
AcDbEntity
  8
0
  6
Continuous
 62
     0
370
     0
100
AcDbPolyline
 90
        7
 70
     0
 43
0.0
 10
500.863647
 20
243.62915
 10
500.324738
 20
243.903671
 10
499.770996
 20
244.107834
 10
499.214966
 20
244.227814
 10
498.671265
 20
244.252228
 10
498.155426
 20
244.173553
 10
497.609283
 20
243.948563
  0
LWPOLYLINE
  5
EC
330
E1
100
AcDbEntity
  8
0
  6
Continuous
 62
     0
370
     0
100
AcDbPolyline
 90
        6
 70
     0
 43
0.0
 10
499.175964
 20
244.809662
 10
499.434601
 20
244.869354
 10
499.78717
 20
244.81311
 10
500.247101
 20
244.644424
 10
500.821564
 20
244.367706
 10
501.509064
 20
243.988754
  0
LWPOLYLINE
  5
ED
330
E1
100
AcDbEntity
  8
0
  6
Continuous
 62
     0
370
     0
100
AcDbPolyline
 90
       19
 70
     0
 43
0.0
 10
501.509064
 20
243.988754
 10
502.153534
 20
243.603867
 10
502.84021
 20
243.169495
 10
503.546051
 20
242.695358
 10
504.251648
 20
242.188858
 10
504.938385
 20
241.655106
 10
505.590668
 20
241.095764
 10
506.193909
 20
240.509995
 10
506.732635
 20
239.895645
 10
507.189178
 20
239.250687
 10
507.542816
 20
238.576675
 10
507.771973
 20
237.87558
 10
507.859955
 20
237.161331
 10
507.796173
 20
236.45343
 10
507.588898
 20
235.773712
 10
507.253937
 20
235.142426
 10
506.812592
 20
234.571045
 10
506.285858
 20
234.070328
 10
505.677917
 20
233.640457
  0
LWPOLYLINE
  5
EE
330
E1
100
AcDbEntity
  8
0
  6
Continuous
 62
     0
370
     0
100
AcDbPolyline
 90
       10
 70
     0
 43
0.0
 10
505.106293
 20
250.147491
 10
505.052765
 20
249.411926
 10
504.894531
 20
248.634048
 10
504.635681
 20
247.840729
 10
504.284515
 20
247.056412
 10
503.851807
 20
246.304123
 10
503.350098
 20
245.605865
 10
502.794128
 20
244.982346
 10
502.200348
 20
244.453094
 10
501.509064
 20
243.988754
  0
LWPOLYLINE
  5
EF
330
E1
100
AcDbEntity
  8
0
  6
Continuous
 62
     0
370
     0
100
AcDbPolyline
 90
        4
 70
     0
 43
0.0
 10
504.705933
 20
233.051224
 10
504.914581
 20
232.60994
 10
505.048248
 20
232.095398
 10
505.106293
 20
231.395325
  0
ELLIPSE
  5
F0
330
E1
100
AcDbEntity
  8
0
  6
Continuous
 62
     0
370
    30
100
AcDbEllipse
 10
458.437247
 20
213.827019
 30
0.0
 11
-3.249997076794557
 21
5.629160061458501
 31
0.0
210
0.0
220
0.0
230
-0.9999999999999997
 40
0.57735
 41
0.7853981633974483
 42
3.926990816987256
  0
ELLIPSE
  5
F1
330
E1
100
AcDbEntity
  8
0
  6
Continuous
 62
     0
370
    30
100
AcDbEllipse
 10
458.437247
 20
213.827019
 30
0.0
 11
-3.249997076794557
 21
5.629160061458501
 31
0.0
210
0.0
220
0.0
230
-0.9999999999999997
 40
0.57735
 41
3.926990816987256
 42
7.068583470577035
  0
LWPOLYLINE
  5
F2
330
E1
100
AcDbEntity
  8
0
  6
Continuous
 62
     0
370
    30
100
AcDbPolyline
 90
       10
 70
     0
 43
0.0
 10
529.688171
 20
225.105316
 10
527.9505
 20
224.668396
 10
526.088623
 20
224.316376
 10
524.119873
 20
224.063141
 10
522.067322
 20
223.921097
 10
519.95929
 20
223.900192
 10
517.828003
 20
224.007187
 10
515.708618
 20
224.244888
 10
513.637024
 20
224.611832
 10
511.637115
 20
225.105316
  0
LWPOLYLINE
  5
F3
330
E1
100
AcDbEntity
  8
0
  6
Continuous
 62
     0
370
    30
100
AcDbPolyline
 90
        8
 70
     0
 43
0.0
 10
541.014404
 20
234.54306
 10
540.789917
 20
233.610214
 10
540.43512
 20
232.685699
 10
539.951904
 20
231.778595
 10
539.344727
 20
230.89772
 10
538.620422
 20
230.0513
 10
537.787964
 20
229.246841
 10
536.75415
 20
228.413742
  0
LWPOLYLINE
  5
F4
330
E1
100
AcDbEntity
  8
0
  6
Continuous
 62
     0
370
    30
100
AcDbPolyline
 90
        7
 70
     0
 43
0.0
 10
449.027161
 20
136.890137
 10
448.890137
 20
136.698669
 10
448.649597
 20
136.553513
 10
448.314728
 20
136.454865
 10
447.897125
 20
136.401367
 10
447.410034
 20
136.39032
 10
446.773407
 20
136.426025
  0
LWPOLYLINE
  5
F5
330
E1
100
AcDbEntity
  8
0
  6
Continuous
 62
     0
370
    30
100
AcDbPolyline
 90
       22
 70
     0
 43
0.0
 10
446.773407
 20
136.426025
 10
446.019775
 20
136.516464
 10
445.16037
 20
136.664246
 10
444.20755
 20
136.869781
 10
443.178589
 20
137.130905
 10
442.095032
 20
137.442871
 10
440.980988
 20
137.79866
 10
439.861481
 20
138.189438
 10
438.760681
 20
138.605316
 10
437.698578
 20
139.036697
 10
436.652008
 20
139.492386
 10
435.624115
 20
139.972595
 10
434.638885
 20
140.468094
 10
433.720001
 20
140.968384
 10
432.888885
 20
141.462341
 10
432.163269
 20
141.939133
 10
431.555847
 20
142.38887
 10
431.073669
 20
142.803391
 10
430.716217
 20
143.178711
 10
430.473785
 20
143.524765
 10
430.356232
 20
143.835602
 10
430.377533
 20
144.114487
  0
ELLIPSE
  5
F6
330
E1
100
AcDbEntity
  8
0
  6
Continuous
 62
     0
370
     0
100
AcDbEllipse
 10
446.520323
 20
158.102879
 30
0.0
 11
9.324815439085485
 21
-3.612176217599714
 31
0.0
210
0.0
220
0.0
230
-0.9999999999999998
 40
0.210946
 41
0.0000000161954069
 42
0.6324074969755156
  0
ELLIPSE
  5
F7
330
E1
100
AcDbEntity
  8
0
  6
Continuous
 62
     0
370
     0
100
AcDbEllipse
 10
446.520323
 20
158.102879
 30
0.0
 11
9.324815439085485
 21
-3.612176217599714
 31
0.0
210
0.0
220
0.0
230
-0.9999999999999998
 40
0.210946
 41
0.6324074969755156
 42
3.141593078050847
  0
LWPOLYLINE
  5
F8
330
E1
100
AcDbEntity
  8
0
  6
Continuous
 62
     0
370
     0
100
AcDbPolyline
 90
        8
 70
     0
 43
0.0
 10
468.169556
 20
170.167831
 10
468.718964
 20
170.563934
 10
469.189545
 20
171.069183
 10
469.574341
 20
171.670258
 10
469.869965
 20
172.350754
 10
470.076752
 20
173.092529
 10
470.198212
 20
173.876953
 10
470.240631
 20
174.751785
  0
LWPOLYLINE
  5
F9
330
E1
100
AcDbEntity
  8
0
  6
Continuous
 62
     0
370
     0
100
AcDbPolyline
 90
       21
 70
     0
 43
0.0
 10
470.240631
 20
174.751785
 10
470.19873
 20
175.657532
 10
470.068024
 20
176.63826
 10
469.84137
 20
177.680969
 10
469.514801
 20
178.768021
 10
469.088531
 20
179.877823
 10
468.567413
 20
180.985901
 10
467.960876
 20
182.06665
 10
467.282501
 20
183.095169
 10
466.54895
 20
184.049133
 10
465.778748
 20
184.910461
 10
464.990692
 20
185.666199
 10
464.202606
 20
186.309021
 10
463.430298
 20
186.836975
 10
462.673035
 20
187.259567
 10
461.894745
 20
187.595291
 10
461.105194
 20
187.829208
 10
460.320923
 20
187.945831
 10
459.56015
 20
187.933105
 10
458.841736
 20
187.783783
 10
458.169556
 20
187.488342
  0
LWPOLYLINE
  5
FA
330
E1
100
AcDbEntity
  8
0
  6
Continuous
 62
     0
370
     0
100
AcDbPolyline
 90
       42
 70
     0
 43
0.0
 10
505.106293
 20
217.737213
 10
505.994507
 20
217.189362
 10
506.912811
 20
216.554016
 10
507.843353
 20
215.845886
 10
508.770355
 20
215.078323
 10
509.679932
 20
214.264801
 10
510.56192
 20
213.415619
 10
511.40918
 20
212.538116
 10
512.215942
 20
211.638535
 10
512.977661
 20
210.721512
 10
513.691467
 20
209.789261
 10
514.354248
 20
208.843689
 10
514.96283
 20
207.886658
 10
515.51416
 20
206.91951
 10
516.005554
 20
205.942902
 10
516.434265
 20
204.957474
 10
516.797363
 20
203.964432
 10
517.092041
 20
202.965088
 10
517.315735
 20
201.961441
 10
517.466064
 20
200.955765
 10
517.541687
 20
199.951019
 10
517.541809
 20
198.950653
 10
517.466492
 20
197.958527
 10
517.316467
 20
196.978897
 10
517.093201
 20
196.016235
 10
516.79895
 20
195.07515
 10
516.436157
 20
194.160385
 10
516.007751
 20
193.276932
 10
515.516602
 20
192.42984
 10
514.965515
 20
191.624512
 10
514.357239
 20
190.866547
 10
513.694763
 20
190.162964
 10
512.981201
 20
189.521683
 10
512.219666
 20
188.951004
 10
511.413055
 20
188.46048
 10
510.56601
 20
188.061813
 10
509.684235
 20
187.768158
 10
508.77478
 20
187.593506
 10
507.847778
 20
187.552246
 10
506.917114
 20
187.658173
 10
505.998718
 20
187.919769
 10
505.106293
 20
188.343323
  0
ELLIPSE
  5
FB
330
E1
100
AcDbEntity
  8
0
  6
Continuous
 62
     0
370
    30
100
AcDbEllipse
 10
520.662643
 20
141.803025
 30
0.0
 11
-22.0
 21
0.0
 31
0.0
210
0.0
220
0.0
230
1.0
 40
0.57735
 41
0.7853981633974483
 42
3.141592644950107
  0
ELLIPSE
  5
FC
330
E1
100
AcDbEntity
  8
0
  6
Continuous
 62
     0
370
    30
100
AcDbEllipse
 10
520.662643
 20
141.803025
 30
0.0
 11
-22.0
 21
0.0
 31
0.0
210
0.0
220
0.0
230
1.0
 40
0.57735
 41
6.2831852985399
 42
7.068583470577035
  0
LWPOLYLINE
  5
FD
330
E1
100
AcDbEntity
  8
0
  6
Continuous
 62
     0
370
     0
100
AcDbPolyline
 90
       18
 70
     0
 43
0.0
 10
498.908264
 20
212.229095
 10
498.941498
 20
213.172287
 10
498.991486
 20
214.053207
 10
499.061005
 20
214.869415
 10
499.15387
 20
215.618927
 10
499.274323
 20
216.299896
 10
499.427521
 20
216.910477
 10
499.618958
 20
217.448654
 10
499.854858
 20
217.911194
 10
500.141876
 20
218.29425
 10
500.487305
 20
218.593338
 10
500.899231
 20
218.802582
 10
501.385315
 20
218.914215
 10
501.953003
 20
218.920227
 10
502.608063
 20
218.812302
 10
503.352051
 20
218.582962
 10
504.181122
 20
218.228363
 10
505.106293
 20
217.737213
  0
LWPOLYLINE
  5
FE
330
E1
100
AcDbEntity
  8
0
  6
Continuous
 62
     0
370
     0
100
AcDbPolyline
 90
        4
 70
     0
 43
0.0
 10
505.106293
 20
188.343323
 10
504.354401
 20
188.849564
 10
503.651062
 20
189.470032
 10
502.954926
 20
190.251175
  0
ELLIPSE
  5
FF
330
E1
100
AcDbEntity
  8
0
  6
Continuous
 62
     0
370
    30
100
AcDbEllipse
 10
520.662643
 20
235.700132
 30
0.0
 11
22.0
 21
0.0
 31
0.0
210
0.0
220
0.0
230
-1.0
 40
0.57735
 41
2.356194490192344
 42
2.729272550219501
  0
ELLIPSE
  5
100
330
E1
100
AcDbEntity
  8
0
  6
Continuous
 62
     0
370
    30
100
AcDbEllipse
 10
520.662643
 20
235.700132
 30
0.0
 11
22.0
 21
0.0
 31
0.0
210
0.0
220
0.0
230
-1.0
 40
0.57735
 41
6.09268425838839
 42
8.63937979737193
  0
LWPOLYLINE
  5
101
330
E1
100
AcDbEntity
  8
0
  6
Continuous
 62
     0
370
     0
100
AcDbPolyline
 90
       24
 70
     0
 43
0.0
 10
506.452728
 20
192.270554
 10
507.344604
 20
192.842255
 10
508.15979
 20
193.47876
 10
508.887909
 20
194.168472
 10
509.516541
 20
194.901413
 10
510.032471
 20
195.667786
 10
510.420685
 20
196.456863
 10
510.666992
 20
197.257492
 10
510.762085
 20
198.057465
 10
510.699951
 20
198.844986
 10
510.484894
 20
199.611679
 10
510.125397
 20
200.351166
 10
509.63501
 20
201.062546
 10
509.028992
 20
201.747452
 10
508.320923
 20
202.409729
 10
507.523224
 20
203.054306
 10
506.646606
 20
203.686325
 10
505.700989
 20
204.310928
 10
504.696075
 20
204.932526
 10
503.643311
 20
205.554108
 10
502.561707
 20
206.173981
 10
501.476166
 20
206.787247
 10
500.42395
 20
207.381897
 10
499.449432
 20
207.939255
  0
LWPOLYLINE
  5
102
330
E1
100
AcDbEntity
  8
0
  6
Continuous
 62
     0
370
     0
100
AcDbPolyline
 90
        5
 70
     0
 43
0.0
 10
505.106293
 20
188.343323
 10
505.065704
 20
189.100067
 10
504.944855
 20
189.799744
 10
504.745239
 20
190.431396
 10
504.404541
 20
191.088104
  0
LWPOLYLINE
  5
103
330
E1
100
AcDbEntity
  8
0
  6
Continuous
 62
     0
370
     0
100
AcDbPolyline
 90
       11
 70
     0
 43
0.0
 10
499.449432
 20
207.939255
 10
500.332062
 20
208.5289
 10
501.193146
 20
209.263916
 10
502.012177
 20
210.128052
 10
502.770233
 20
211.101227
 10
503.447388
 20
212.158249
 10
504.024902
 20
213.272888
 10
504.489471
 20
214.415894
 10
504.829163
 20
215.557358
 10
505.036041
 20
216.670853
 10
505.106293
 20
217.737213
  0
ELLIPSE
  5
104
330
E1
100
AcDbEntity
  8
0
  6
Continuous
 62
     0
370
    30
100
AcDbEllipse
 10
520.662643
 20
138.537039
 30
0.0
 11
-27.00000000000004
 21
1.498801083243963E-15
 31
0.0
210
0.0
220
0.0
230
1.0
 40
0.57735
 41
0.7199961065643627
 42
3.141592644950107
  0
ELLIPSE
  5
105
330
E1
100
AcDbEntity
  8
0
  6
Continuous
 62
     0
370
    30
100
AcDbEllipse
 10
520.662643
 20
138.537039
 30
0.0
 11
-27.00000000000004
 21
1.498801083243963E-15
 31
0.0
210
0.0
220
0.0
230
1.0
 40
0.57735
 41
6.2831852985399
 42
7.003181413743947
  0
ELLIPSE
  5
106
330
E1
100
AcDbEntity
  8
0
  6
Continuous
 62
     0
370
    30
100
AcDbEllipse
 10
520.662643
 20
141.803025
 30
0.0
 11
27.00000000000004
 21
-1.498801083243963E-15
 31
0.0
210
0.0
220
0.0
230
-1.0
 40
0.57735
 41
2.421596547025432
 42
3.759979304115484
  0
ELLIPSE
  5
107
330
E1
100
AcDbEntity
  8
0
  6
Continuous
 62
     0
370
    30
100
AcDbEllipse
 10
520.662643
 20
141.803025
 30
0.0
 11
27.00000000000004
 21
-1.498801083243963E-15
 31
0.0
210
0.0
220
0.0
230
-1.0
 40
0.57735
 41
5.664798673933268
 42
8.704781854205017
  0
LWPOLYLINE
  5
108
330
E1
100
AcDbEntity
  8
0
  6
Continuous
 62
     0
370
     0
100
AcDbPolyline
 90
        9
 70
     0
 43
0.0
 10
496.451721
 20
209.590546
 10
496.540131
 20
209.601669
 10
496.683472
 20
209.554993
 10
496.89386
 20
209.449219
 10
497.184174
 20
209.282455
 10
497.567566
 20
209.052582
 10
498.056396
 20
208.758301
 10
498.657379
 20
208.401123
 10
499.449432
 20
207.939255
  0
LWPOLYLINE
  5
109
330
E1
100
AcDbEntity
  8
0
  6
Continuous
 62
     0
370
     0
100
AcDbPolyline
 90
       11
 70
     0
 43
0.0
 10
546.907288
 20
189.911591
 10
547.16272
 20
190.137527
 10
547.336365
 20
190.468857
 10
547.418762
 20
190.887589
 10
547.405396
 20
191.370926
 10
547.296997
 20
191.892639
 10
547.099548
 20
192.424332
 10
546.823669
 20
192.937149
 10
546.484375
 20
193.403183
 10
546.100159
 20
193.797134
 10
545.657288
 20
194.117889
  0
LWPOLYLINE
  5
10A
330
E1
100
AcDbEntity
  8
0
  6
Continuous
 62
     0
370
     0
100
AcDbPolyline
 90
        5
 70
     0
 43
0.0
 10
545.657288
 20
194.117889
 10
545.345215
 20
194.266006
 10
545.042969
 20
194.345352
 10
544.76001
 20
194.353439
 10
544.407349
 20
194.241714
  0
LWPOLYLINE
  5
10B
330
E1
100
AcDbEntity
  8
0
  6
Continuous
 62
     0
370
    30
100
AcDbPolyline
 90
        5
 70
     0
 43
0.0
 10
552.533569
 20
198.93338
 10
552.774292
 20
199.027603
 10
553.046997
 20
199.050461
 10
553.343079
 20
199.001236
 10
553.785583
 20
198.810745
  0
LWPOLYLINE
  5
10C
330
E1
100
AcDbEntity
  8
0
  6
Continuous
 62
     0
370
    30
100
AcDbPolyline
 90
       11
 70
     0
 43
0.0
 10
553.785583
 20
198.810745
 10
554.194885
 20
198.518951
 10
554.58197
 20
198.132065
 10
554.92572
 20
197.671127
 10
555.20752
 20
197.161194
 10
555.412048
 20
196.629959
 10
555.528137
 20
196.106323
 10
555.549561
 20
195.618729
 10
555.475098
 20
195.193665
 10
555.308777
 20
194.854263
 10
555.035522
 20
194.604431
  0
LWPOLYLINE
  5
10D
330
E1
100
AcDbEntity
  8
0
  6
Continuous
 62
     0
370
     0
100
AcDbPolyline
 90
        6
 70
     0
 43
0.0
 10
544.508423
 20
186.670776
 10
544.38031
 20
186.530533
 10
544.111755
 20
186.447678
 10
543.719543
 20
186.427368
 10
543.228149
 20
186.470871
 10
542.662659
 20
186.576797
  0
LINE
  5
10E
330
E1
100
AcDbEntity
  8
0
  6
Continuous
 62
     0
370
    30
100
AcDbLine
 10
506.453335
 20
192.270977
 30
0.0
 11
468.169567
 21
170.167834
 31
0.0
  0
LINE
  5
10F
330
E1
100
AcDbEntity
  8
0
  6
Continuous
 62
     0
370
    30
100
AcDbLine
 10
496.453324
 20
209.591479
 30
0.0
 11
458.169567
 21
187.488342
 31
0.0
  0
LWPOLYLINE
  5
110
330
E1
100
AcDbEntity
  8
0
  6
Continuous
 62
     0
370
    30
100
AcDbPolyline
 90
       10
 70
     0
 43
0.0
 10
496.45343
 20
209.591568
 10
497.01181
 20
209.954788
 10
497.525299
 20
210.371414
 10
497.978821
 20
210.826187
 10
498.36203
 20
211.299591
 10
498.667145
 20
211.765366
 10
498.889435
 20
212.188156
 10
499.029938
 20
212.525894
 10
499.10141
 20
212.746017
 10
499.121094
 20
212.82251
  0
LINE
  5
111
330
E1
100
AcDbEntity
  8
0
  6
Continuous
 62
     0
370
    30
100
AcDbLine
 10
547.662643
 20
138.537039
 30
0.0
 11
547.662643
 21
141.803025
 31
0.0
  0
LINE
  5
112
330
E1
100
AcDbEntity
  8
0
  6
Continuous
 62
     0
370
    30
100
AcDbLine
 10
493.662643
 20
138.537039
 30
0.0
 11
493.662643
 21
141.803025
 31
0.0
  0
LINE
  5
113
330
E1
100
AcDbEntity
  8
0
  6
Continuous
 62
     0
370
    30
100
AcDbLine
 10
542.662643
 20
141.803025
 30
0.0
 11
542.662643
 21
235.700132
 31
0.0
  0
LINE
  5
114
330
E1
100
AcDbEntity
  8
0
  6
Continuous
 62
     0
370
    30
100
AcDbLine
 10
498.662643
 20
211.757702
 30
0.0
 11
498.662643
 21
229.545615
 31
0.0
  0
LINE
  5
115
330
E1
100
AcDbEntity
  8
0
  6
Continuous
 62
     0
370
    30
100
AcDbLine
 10
498.662643
 20
141.803025
 30
0.0
 11
498.662643
 21
187.773019
 31
0.0
  0
LWPOLYLINE
  5
116
330
E1
100
AcDbEntity
  8
0
  6
Continuous
 62
     0
370
    30
100
AcDbPolyline
 90
       14
 70
     0
 43
0.0
 10
455.845154
 20
154.490707
 10
456.481049
 20
156.022079
 10
457.199677
 20
157.545914
 10
457.995056
 20
159.047958
 10
458.86026
 20
160.514709
 10
459.787659
 20
161.933075
 10
460.768341
 20
163.290497
 10
461.792572
 20
164.574905
 10
462.849518
 20
165.774582
 10
463.926666
 20
166.878525
 10
465.010254
 20
167.87619
 10
466.08429
 20
168.758011
 10
467.130707
 20
169.516129
 10
468.169556
 20
170.167831
  0
LWPOLYLINE
  5
117
330
E1
100
AcDbEntity
  8
0
  6
Continuous
 62
     0
370
    30
100
AcDbPolyline
 90
       15
 70
     0
 43
0.0
 10
458.169556
 20
187.488342
 10
456.271576
 20
186.313843
 10
454.415588
 20
185.009109
 10
452.605804
 20
183.580734
 10
450.846649
 20
182.035324
 10
449.143219
 20
180.379852
 10
447.500854
 20
178.621552
 10
445.925293
 20
176.768311
 10
444.422455
 20
174.828247
 10
442.998199
 20
172.810104
 10
441.658539
 20
170.722916
 10
440.40918
 20
168.576065
 10
439.255737
 20
166.379166
 10
438.20343
 20
164.141785
 10
437.195496
 20
161.715057
  0
LINE
  5
118
330
E1
100
AcDbEntity
  8
0
  6
Continuous
 62
     0
370
    30
100
AcDbLine
 10
455.845139
 20
154.490702
 30
0.0
 11
449.027166
 21
136.890139
 31
0.0
  0
LINE
  5
119
330
E1
100
AcDbEntity
  8
0
  6
Continuous
 62
     0
370
    30
100
AcDbLine
 10
437.195508
 20
161.715055
 30
0.0
 11
430.377535
 21
144.114492
 31
0.0
  0
LINE
  5
11A
330
E1
100
AcDbEntity
  8
0
  6
Continuous
 62
     0
370
    30
100
AcDbLine
 10
497.613656
 20
243.951076
 30
0.0
 11
455.18725
 21
219.456179
 31
0.0
  0
LINE
  5
11B
330
E1
100
AcDbEntity
  8
0
  6
Continuous
 62
     0
370
    30
100
AcDbLine
 10
504.113651
 20
232.692756
 30
0.0
 11
461.687244
 21
208.197859
 31
0.0
  0
LINE
  5
11C
330
E1
100
AcDbEntity
  8
0
  6
Continuous
 62
     0
370
    30
100
AcDbLine
 10
505.677925
 20
233.640462
 30
0.0
 11
505.682486
 21
233.643217
 31
0.0
  0
LWPOLYLINE
  5
11D
330
E1
100
AcDbEntity
  8
0
  6
Continuous
 62
     0
370
    30
100
AcDbPolyline
 90
        7
 70
     0
 43
0.0
 10
500.424347
 20
246.123367
 10
500.398071
 20
246.057053
 10
500.304962
 20
245.876648
 10
500.133911
 20
245.622818
 10
499.883331
 20
245.338562
 10
499.562897
 20
245.060471
 10
499.175964
 20
244.809662
  0
LINE
  5
11E
330
E1
100
AcDbEntity
  8
0
  6
Continuous
 62
     0
370
    30
100
AcDbLine
 10
505.682187
 20
233.643038
 30
0.0
 11
504.15352
 21
232.71634
 31
0.0
  0
LINE
  5
11F
330
E1
100
AcDbEntity
  8
0
  6
Continuous
 62
     0
370
    30
100
AcDbLine
 10
499.176024
 20
244.809687
 30
0.0
 11
497.658419
 21
243.976231
 31
0.0
  0
LINE
  5
120
330
E1
100
AcDbEntity
  8
0
  6
Continuous
 62
     0
370
    30
100
AcDbLine
 10
542.662643
 20
241.469259
 30
0.0
 11
542.662643
 21
262.000317
 31
0.0
  0
LINE
  5
121
330
E1
100
AcDbEntity
  8
0
  6
Continuous
 62
     0
370
    30
100
AcDbLine
 10
498.662643
 20
244.527742
 30
0.0
 11
498.662643
 21
262.000317
 31
0.0
  0
LINE
  5
122
330
E1
100
AcDbEntity
  8
0
  6
Continuous
 62
     0
370
    30
100
AcDbLine
 10
544.508428
 20
186.670775
 30
0.0
 11
542.662644
 21
181.034462
 31
0.0
  0
LWPOLYLINE
  5
123
330
E1
100
AcDbEntity
  8
0
  6
Continuous
 62
     0
370
    30
100
AcDbPolyline
 90
        8
 70
     0
 43
0.0
 10
546.907288
 20
189.911591
 10
546.551025
 20
189.671631
 10
546.160095
 20
189.333832
 10
545.765015
 20
188.911652
 10
545.389282
 20
188.422318
 10
545.050537
 20
187.885056
 10
544.762207
 20
187.320648
 10
544.508423
 20
186.670776
  0
LWPOLYLINE
  5
124
330
E1
100
AcDbEntity
  8
0
  6
Continuous
 62
     0
370
    30
100
AcDbPolyline
 90
        3
 70
     0
 43
0.0
 10
544.407349
 20
194.24173
 10
543.532104
 20
193.657333
 10
542.662659
 20
192.907104
  0
LINE
  5
125
330
E1
100
AcDbEntity
  8
0
  6
Continuous
 62
     0
370
    30
100
AcDbLine
 10
544.407334
 20
194.241722
 30
0.0
 11
552.535588
 21
198.934571
 31
0.0
  0
LINE
  5
126
330
E1
100
AcDbEntity
  8
0
  6
Continuous
 62
     0
370
    30
100
AcDbLine
 10
546.909318
 20
189.912764
 30
0.0
 11
555.035526
 21
194.604432
 31
0.0
  0
ENDBLK
  5
128
330
E1
100
AcDbEntity
  8
0
100
AcDbBlockEnd
  0
BLOCK
  5
164
330
12A
100
AcDbEntity
  8
0
100
AcDbBlockBegin
  2
e
 70
     0
 10
156.23204
 20
0.0
 30
0.0
  3
e
  1

  0
LWPOLYLINE
  5
12B
330
12A
100
AcDbEntity
  8
0
  6
Continuous
 62
     0
370
    30
100
AcDbPolyline
 90
       20
 70
     0
 43
0.0
 10
53.096794
 20
482.812256
 10
53.157776
 20
482.812256
 10
53.347218
 20
482.812256
 10
53.673676
 20
482.812256
 10
54.143757
 20
482.812256
 10
54.761639
 20
482.812256
 10
55.528648
 20
482.812256
 10
56.442963
 20
482.812256
 10
57.499443
 20
482.812256
 10
58.68964
 20
482.812256
 10
60.001987
 20
482.812256
 10
61.422146
 20
482.812256
 10
62.933552
 20
482.812256
 10
64.518021
 20
482.812256
 10
66.156456
 20
482.812256
 10
67.829567
 20
482.812256
 10
69.518539
 20
482.812256
 10
71.205589
 20
482.812256
 10
72.874489
 20
482.812256
 10
74.567482
 20
482.812256
  0
LWPOLYLINE
  5
12C
330
12A
100
AcDbEntity
  8
0
  6
Continuous
 62
     0
370
    30
100
AcDbPolyline
 90
       39
 70
     0
 43
0.0
 10
53.096794
 20
513.812256
 10
53.159512
 20
513.812256
 10
53.354553
 20
513.812256
 10
53.69104
 20
513.812256
 10
54.176014
 20
513.812256
 10
54.813942
 20
513.812256
 10
55.606243
 20
513.812256
 10
56.550957
 20
513.812256
 10
57.642555
 20
513.812256
 10
58.87196
 20
513.812256
 10
60.226746
 20
513.812256
 10
61.691544
 20
513.812256
 10
63.248623
 20
513.812256
 10
64.878586
 20
513.812256
 10
66.56115
 20
513.812256
 10
68.275925
 20
513.812256
 10
70.003105
 20
513.812256
 10
71.724144
 20
513.812256
 10
73.422234
 20
513.812256
 10
75.082626
 20
513.812256
 10
76.742256
 20
513.812256
 10
78.439812
 20
513.812256
 10
80.160591
 20
513.812256
 10
81.887825
 20
513.812256
 10
83.602974
 20
513.812256
 10
85.28627
 20
513.812256
 10
86.91732
 20
513.812256
 10
88.47583
 20
513.812256
 10
89.942375
 20
513.812256
 10
91.29921
 20
513.812256
 10
92.530899
 20
513.812256
 10
93.624969
 20
513.812256
 10
94.572281
 20
513.812256
 10
95.367249
 20
513.812256
 10
96.007843
 20
513.812256
 10
96.495438
 20
513.812256
 10
96.834435
 20
513.812256
 10
97.031853
 20
513.812256
 10
97.096794
 20
513.812256
  0
LINE
  5
12D
330
12A
100
AcDbEntity
  8
0
  6
Continuous
 62
     0
370
    30
100
AcDbLine
 10
74.567478
 20
482.812268
 30
0.0
 11
97.096794
 21
491.012374
 31
0.0
  0
LINE
  5
12E
330
12A
100
AcDbEntity
  8
0
  6
Continuous
 62
     0
370
    30
100
AcDbLine
 10
53.096794
 20
482.812268
 30
0.0
 11
53.096794
 21
487.328962
 31
0.0
  0
LINE
  5
12F
330
12A
100
AcDbEntity
  8
0
  6
Continuous
 62
     0
370
    30
100
AcDbLine
 10
53.096794
 20
510.295575
 30
0.0
 11
53.096794
 21
513.812268
 31
0.0
  0
LWPOLYLINE
  5
130
330
12A
100
AcDbEntity
  8
0
  6
Continuous
 62
     0
370
     0
100
AcDbPolyline
 90
       32
 70
     0
 43
0.0
 10
53.096794
 20
510.295563
 10
53.122421
 20
510.219452
 10
53.197311
 20
509.999359
 10
53.315922
 20
509.643219
 10
53.47028
 20
509.162811
 10
53.651154
 20
508.575287
 10
53.849018
 20
507.895081
 10
54.054993
 20
507.135651
 10
54.260918
 20
506.308014
 10
54.459335
 20
505.422394
 10
54.64323
 20
504.488617
 10
54.806664
 20
503.514587
 10
54.94437
 20
502.50766
 10
55.05191
 20
501.475098
 10
55.125839
 20
500.424164
 10
55.163715
 20
499.362152
 10
55.164318
 20
498.296326
 10
55.127617
 20
497.23407
 10
55.054806
 20
496.182678
 10
54.948288
 20
495.149445
 10
54.81147
 20
494.141571
 10
54.648746
 20
493.166321
 10
54.465435
 20
492.231201
 10
54.26749
 20
491.344208
 10
54.061581
 20
490.514099
 10
53.855011
 20
489.750854
 10
53.656467
 20
489.0672
 10
53.474945
 20
488.476593
 10
53.319763
 20
487.993286
 10
53.200058
 20
487.632477
 10
53.123859
 20
487.408051
 10
53.096794
 20
487.328949
  0
LINE
  5
131
330
12A
100
AcDbEntity
  8
0
  6
Continuous
 62
     0
370
    30
100
AcDbLine
 10
48.009532
 20
505.296337
 30
0.0
 11
47.096794
 21
505.312268
 31
0.0
  0
LINE
  5
132
330
12A
100
AcDbEntity
  8
0
  6
Continuous
 62
     0
370
     0
100
AcDbLine
 10
47.096794
 20
492.312268
 30
0.0
 11
47.096794
 21
505.312268
 31
0.0
  0
LWPOLYLINE
  5
133
330
12A
100
AcDbEntity
  8
0
  6
Continuous
 62
     0
370
     0
100
AcDbPolyline
 90
       25
 70
     0
 43
0.0
 10
48.009533
 20
505.296326
 10
48.053535
 20
505.236511
 10
48.182293
 20
505.06076
 10
48.382679
 20
504.777802
 10
48.639267
 20
504.398315
 10
48.934219
 20
503.933075
 10
49.249981
 20
503.390411
 10
49.569088
 20
502.776215
 10
49.873577
 20
502.094513
 10
50.144226
 20
501.349396
 10
50.360443
 20
500.548553
 10
50.501308
 20
499.700165
 10
50.552071
 20
498.8255
 10
50.50423
 20
497.950439
 10
50.365894
 20
497.100891
 10
50.151619
 20
496.298462
 10
49.882263
 20
495.551575
 10
49.57848
 20
494.86792
 10
49.259563
 20
494.251617
 10
48.943466
 20
493.706696
 10
48.647598
 20
493.239014
 10
48.38953
 20
492.856812
 10
48.187134
 20
492.570801
 10
48.056145
 20
492.391663
 10
48.009533
 20
492.328186
  0
ARC
  5
134
330
12A
100
AcDbEntity
  8
0
  6
Continuous
 62
     0
370
    30
100
AcDbCircle
 10
48.096794
 20
510.295575
 30
0.0
 40
4.999999999999379
100
AcDbArc
 50
269.0
 51
0.0
  0
ARC
  5
135
330
12A
100
AcDbEntity
  8
0
  6
Continuous
 62
     0
370
    30
100
AcDbCircle
 10
48.096794
 20
487.328962
 30
0.0
 40
4.999999999999144
100
AcDbArc
 50
0.0
 51
91.0
  0
LINE
  5
136
330
12A
100
AcDbEntity
  8
0
  6
Continuous
 62
     0
370
    30
100
AcDbLine
 10
-12.903206
 20
505.312263
 30
0.0
 11
-12.903206
 21
492.312274
 31
0.0
  0
LINE
  5
137
330
12A
100
AcDbEntity
  8
0
  6
Continuous
 62
     0
370
    30
100
AcDbLine
 10
-12.903206
 20
505.312263
 30
0.0
 11
47.096794
 21
505.312263
 31
0.0
  0
LWPOLYLINE
  5
138
330
12A
100
AcDbEntity
  8
0
  6
Continuous
 62
     0
370
    30
100
AcDbPolyline
 90
       27
 70
     0
 43
0.0
 10
-39.421326
 20
422.271179
 10
-38.46172
 20
421.717194
 10
-37.476006
 20
421.148254
 10
-36.483974
 20
420.575745
 10
-35.508533
 20
420.012939
 10
-34.574379
 20
419.474091
 10
-33.706203
 20
418.97345
 10
-32.926693
 20
418.524078
 10
-32.25465
 20
418.136841
 10
-31.703476
 20
417.819427
 10
-31.280359
 20
417.575989
 10
-30.9862
 20
417.407013
 10
-30.816223
 20
417.309753
 10
-30.761086
 20
417.278748
 10
-30.812609
 20
417.309357
 10
-30.9786
 20
417.406036
 10
-31.268526
 20
417.57431
 10
-31.687338
 20
417.816956
 10
-32.234341
 20
418.133575
 10
-32.90255
 20
418.520142
 10
-33.678764
 20
418.968964
 10
-34.544342
 20
419.469299
 10
-35.476696
 20
420.008087
 10
-36.451164
 20
420.571045
 10
-37.443027
 20
421.143982
 10
-38.429291
 20
421.713531
 10
-39.421326
 20
422.286346
  0
LWPOLYLINE
  5
139
330
12A
100
AcDbEntity
  8
0
  6
Continuous
 62
     0
370
    30
100
AcDbPolyline
 90
       27
 70
     0
 43
0.0
 10
-39.421326
 20
422.286346
 10
-40.43187
 20
422.86972
 10
-41.452915
 20
423.459076
 10
-42.461918
 20
424.041351
 10
-43.435272
 20
424.602936
 10
-44.350044
 20
425.130585
 10
-45.185722
 20
425.612488
 10
-45.925728
 20
426.039093
 10
-46.558445
 20
426.403656
 10
-47.079197
 20
426.703583
 10
-47.501987
 20
426.946869
 10
-47.818085
 20
427.128479
 10
-48.01416
 20
427.240784
 10
-48.08157
 20
427.278778
 10
-48.017277
 20
427.240723
 10
-47.824177
 20
427.128326
 10
-47.510796
 20
426.946503
 10
-47.090355
 20
426.702942
 10
-46.572109
 20
426.402985
 10
-45.942039
 20
426.038513
 10
-45.204468
 20
425.61203
 10
-44.370888
 20
425.130188
 10
-43.457767
 20
424.602509
 10
-42.485546
 20
424.040802
 10
-41.477116
 20
423.458313
 10
-40.456089
 20
422.868652
 10
-39.421326
 20
422.271179
  0
ELLIPSE
  5
13A
330
12A
100
AcDbEntity
  8
0
  6
Continuous
 62
     0
370
     0
100
AcDbEllipse
 10
-29.766585
 20
439.001255
 30
0.0
 11
8.660253416264384
 21
-5.000001076607992
 31
0.0
210
0.0
220
0.0
230
1.0
 40
0.000656
 41
0.0000000378548846
 42
1.571175203769266
  0
ELLIPSE
  5
13B
330
12A
100
AcDbEntity
  8
0
  6
Continuous
 62
     0
370
     0
100
AcDbEllipse
 10
-29.766585
 20
439.001255
 30
0.0
 11
8.660253416264384
 21
-5.000001076607992
 31
0.0
210
0.0
220
0.0
230
1.0
 40
0.000656
 41
1.571175203769266
 42
3.141592691445761
  0
LINE
  5
13C
330
12A
100
AcDbEntity
  8
0
  6
Continuous
 62
     0
370
     0
100
AcDbLine
 10
-6.210694
 20
442.601254
 30
0.0
 11
-6.210695
 21
452.608828
 31
0.0
  0
LINE
  5
13D
330
12A
100
AcDbEntity
  8
0
  6
Continuous
 62
     0
370
     0
100
AcDbLine
 10
-6.210695
 20
452.608828
 30
0.0
 11
-6.210694
 21
462.601248
 31
0.0
  0
LWPOLYLINE
  5
13E
330
12A
100
AcDbEntity
  8
0
  6
Continuous
 62
     0
370
     0
100
AcDbPolyline
 90
       42
 70
     0
 43
0.0
 10
53.096794
 20
470.601257
 10
53.130791
 20
470.524353
 10
53.230415
 20
470.295929
 10
53.38966
 20
469.927429
 10
53.599983
 20
469.432556
 10
53.851532
 20
468.82785
 10
54.13459
 20
468.128448
 10
54.440144
 20
467.347321
 10
54.759869
 20
466.496338
 10
55.086185
 20
465.585571
 10
55.412529
 20
464.622284
 10
55.7328
 20
463.61264
 10
56.04105
 20
462.562653
 10
56.331699
 20
461.477417
 10
56.599754
 20
460.360809
 10
56.840363
 20
459.216522
 10
57.049103
 20
458.048401
 10
57.221748
 20
456.860291
 10
57.354786
 20
455.656281
 10
57.445141
 20
454.440674
 10
57.490883
 20
453.217926
 10
57.491009
 20
451.992798
 10
57.445522
 20
450.77002
 10
57.355469
 20
449.554352
 10
57.222759
 20
448.35025
 10
57.050407
 20
447.161987
 10
56.8419
 20
445.993713
 10
56.601471
 20
444.849274
 10
56.333565
 20
443.732483
 10
56.043037
 20
442.647064
 10
55.734898
 20
441.596802
 10
55.414703
 20
440.586823
 10
55.088394
 20
439.623169
 10
54.762043
 20
438.712067
 10
54.442234
 20
437.860718
 10
54.13657
 20
437.079041
 10
53.853355
 20
436.378937
 10
53.601555
 20
435.77356
 10
53.390915
 20
435.277924
 10
53.231285
 20
434.908875
 10
53.131237
 20
434.679535
 10
53.096794
 20
434.601257
  0
LINE
  5
13F
330
12A
100
AcDbEntity
  8
0
  6
Continuous
 62
     0
370
    30
100
AcDbLine
 10
53.096794
 20
434.601251
 30
0.0
 11
53.096794
 21
366.601251
 31
0.0
  0
LINE
  5
140
330
12A
100
AcDbEntity
  8
0
  6
Continuous
 62
     0
370
    30
100
AcDbLine
 10
53.096794
 20
470.601251
 30
0.0
 11
53.096794
 21
481.601251
 31
0.0
  0
LINE
  5
141
330
12A
100
AcDbEntity
  8
0
  6
Continuous
 62
     0
370
    30
100
AcDbLine
 10
97.096794
 20
481.601251
 30
0.0
 11
53.096794
 21
481.601251
 31
0.0
  0
LWPOLYLINE
  5
142
330
12A
100
AcDbEntity
  8
0
  6
Continuous
 62
     0
370
     0
100
AcDbPolyline
 90
       37
 70
     0
 43
0.0
 10
45.096794
 20
442.601257
 10
45.158527
 20
442.658325
 10
45.336044
 20
442.82431
 10
45.614235
 20
443.088043
 10
45.972462
 20
443.434937
 10
46.390049
 20
443.850952
 10
46.848835
 20
444.324585
 10
47.332085
 20
444.845642
 10
47.826965
 20
445.407928
 10
48.321743
 20
446.00647
 10
48.805897
 20
446.63797
 10
49.269508
 20
447.300079
 10
49.702526
 20
447.990692
 10
50.094742
 20
448.708282
 10
50.435902
 20
449.450928
 10
50.715652
 20
450.215637
 10
50.923733
 20
450.998962
 10
51.052433
 20
451.795807
 10
51.096611
 20
452.599487
 10
51.052895
 20
453.403198
 10
50.92458
 20
454.200104
 10
50.716763
 20
454.98349
 10
50.43716
 20
455.74823
 10
50.096169
 20
456.490997
 10
49.70422
 20
457.20871
 10
49.271484
 20
457.899506
 10
48.808052
 20
458.561737
 10
48.323944
 20
459.193359
 10
47.829105
 20
459.792023
 10
47.334103
 20
460.354523
 10
46.8508
 20
460.875793
 10
46.392071
 20
461.349579
 10
45.9744
 20
461.765839
 10
45.615723
 20
462.113068
 10
45.336864
 20
462.377319
 10
45.158669
 20
462.543884
 10
45.096794
 20
462.601257
  0
ARC
  5
143
330
12A
100
AcDbEntity
  8
0
  6
Continuous
 62
     0
370
    30
100
AcDbCircle
 10
45.096794
 20
434.601251
 30
0.0
 40
7.999999999999856
100
AcDbArc
 50
360.0
 51
90.0
  0
ARC
  5
144
330
12A
100
AcDbEntity
  8
0
  6
Continuous
 62
     0
370
    30
100
AcDbCircle
 10
45.096794
 20
470.601251
 30
0.0
 40
7.999999999999929
100
AcDbArc
 50
270.0
 51
360.0
  0
LINE
  5
145
330
12A
100
AcDbEntity
  8
0
  6
Continuous
 62
     0
370
    30
100
AcDbLine
 10
48.096794
 20
362.601251
 30
0.0
 11
102.039069
 21
362.601251
 31
0.0
  0
LINE
  5
146
330
12A
100
AcDbEntity
  8
0
  6
Continuous
 62
     0
370
    30
100
AcDbLine
 10
102.039069
 20
362.601251
 30
0.0
 11
102.096794
 21
362.601251
 31
0.0
  0
LINE
  5
147
330
12A
100
AcDbEntity
  8
0
  6
Continuous
 62
     0
370
    30
100
AcDbLine
 10
102.096794
 20
366.601251
 30
0.0
 11
102.039069
 21
366.601251
 31
0.0
  0
LINE
  5
148
330
12A
100
AcDbEntity
  8
0
  6
Continuous
 62
     0
370
    30
100
AcDbLine
 10
102.039069
 20
366.601251
 30
0.0
 11
48.096794
 21
366.601251
 31
0.0
  0
LINE
  5
149
330
12A
100
AcDbEntity
  8
0
  6
Continuous
 62
     0
370
    30
100
AcDbLine
 10
121.939667
 20
412.999725
 30
0.0
 11
110.444581
 21
412.999725
 31
0.0
  0
LINE
  5
14A
330
12A
100
AcDbEntity
  8
0
  6
Continuous
 62
     0
370
     0
100
AcDbLine
 10
110.444581
 20
407.999725
 30
0.0
 11
110.444581
 21
412.999725
 31
0.0
  0
LINE
  5
14B
330
12A
100
AcDbEntity
  8
0
  6
Continuous
 62
     0
370
    30
100
AcDbLine
 10
121.939667
 20
412.999725
 30
0.0
 11
121.939667
 21
407.999725
 31
0.0
  0
ARC
  5
14C
330
12A
100
AcDbEntity
  8
0
  6
Continuous
 62
     0
370
    30
100
AcDbCircle
 10
110.44583
 20
404.997766
 30
0.0
 40
8.001959641146609
100
AcDbArc
 50
90.008939
 51
154.991061
  0
LINE
  5
14D
330
12A
100
AcDbEntity
  8
0
  6
Continuous
 62
     0
370
     0
100
AcDbLine
 10
107.725658
 20
406.26758
 30
0.0
 11
103.194119
 21
408.380671
 31
0.0
  0
LINE
  5
14E
330
12A
100
AcDbEntity
  8
0
  6
Continuous
 62
     0
370
    30
100
AcDbLine
 10
103.194119
 20
408.380671
 30
0.0
 11
97.096794
 21
395.304916
 31
0.0
  0
LWPOLYLINE
  5
14F
330
12A
100
AcDbEntity
  8
0
  6
Continuous
 62
     0
370
    30
100
AcDbPolyline
 90
       32
 70
     0
 43
0.0
 10
97.096794
 20
395.304901
 10
97.092598
 20
395.207855
 10
97.082291
 20
394.963867
 10
97.069199
 20
394.640503
 10
97.055176
 20
394.274994
 10
97.04113
 20
393.884918
 10
97.027565
 20
393.479492
 10
97.014763
 20
393.063385
 10
97.002914
 20
392.63974
 10
96.992157
 20
392.210602
 10
96.98259
 20
391.777191
 10
96.974304
 20
391.340546
 10
96.967377
 20
390.901459
 10
96.961861
 20
390.46048
 10
96.957809
 20
390.018097
 10
96.955269
 20
389.574707
 10
96.9543
 20
389.130768
 10
96.954948
 20
388.686737
 10
96.957237
 20
388.243164
 10
96.961189
 20
387.800659
 10
96.96682
 20
387.359894
 10
96.974144
 20
386.921417
 10
96.98317
 20
386.486145
 10
96.993851
 20
386.055542
 10
97.006111
 20
385.631409
 10
97.019829
 20
385.216248
 10
97.034752
 20
384.814484
 10
97.050499
 20
384.432098
 10
97.06636
 20
384.080109
 10
97.081032
 20
383.777954
 10
97.092232
 20
383.559937
 10
97.096779
 20
383.474091
  0
LINE
  5
150
330
12A
100
AcDbEntity
  8
0
  6
Continuous
 62
     0
370
    30
100
AcDbLine
 10
45.096794
 20
442.601251
 30
0.0
 11
-6.210694
 21
442.601251
 31
0.0
  0
LINE
  5
151
330
12A
100
AcDbEntity
  8
0
  6
Continuous
 62
     0
370
    30
100
AcDbLine
 10
45.096794
 20
462.601251
 30
0.0
 11
-6.210694
 21
462.601251
 31
0.0
  0
LINE
  5
152
330
12A
100
AcDbEntity
  8
0
  6
Continuous
 62
     0
370
    30
100
AcDbLine
 10
48.096794
 20
362.601251
 30
0.0
 11
48.096794
 21
366.601251
 31
0.0
  0
LINE
  5
153
330
12A
100
AcDbEntity
  8
0
  6
Continuous
 62
     0
370
    30
100
AcDbLine
 10
102.096794
 20
362.601251
 30
0.0
 11
102.096794
 21
366.601251
 31
0.0
  0
LINE
  5
154
330
12A
100
AcDbEntity
  8
0
  6
Continuous
 62
     0
370
    30
100
AcDbLine
 10
97.096794
 20
366.601251
 30
0.0
 11
97.096794
 21
383.474106
 31
0.0
  0
LINE
  5
155
330
12A
100
AcDbEntity
  8
0
  6
Continuous
 62
     0
370
    30
100
AcDbLine
 10
97.096794
 20
395.304916
 30
0.0
 11
97.096794
 21
481.601251
 31
0.0
  0
ARC
  5
156
330
12A
100
AcDbEntity
  8
0
  6
Continuous
 62
     0
370
    30
100
AcDbCircle
 10
-6.210694
 20
425.401248
 30
0.0
 40
17.20000334182505
100
AcDbArc
 50
89.999999
 51
149.999983
  0
ARC
  5
157
330
12A
100
AcDbEntity
  8
0
  6
Continuous
 62
     0
370
    30
100
AcDbCircle
 10
-6.210693
 20
425.401246
 30
0.0
 40
37.2000055591546
100
AcDbArc
 50
90.000001
 51
149.999986
  0
LINE
  5
158
330
12A
100
AcDbEntity
  8
0
  6
Continuous
 62
     0
370
    30
100
AcDbLine
 10
-45.916515
 20
426.028761
 30
0.0
 11
-45.914345
 21
426.03252
 31
0.0
  0
LINE
  5
159
330
12A
100
AcDbEntity
  8
0
  6
Continuous
 62
     0
370
    30
100
AcDbLine
 10
-32.926135
 20
418.52876
 30
0.0
 11
-32.923965
 21
418.532518
 31
0.0
  0
LINE
  5
15A
330
12A
100
AcDbEntity
  8
0
  6
Continuous
 62
     0
370
    30
100
AcDbLine
 10
-21.106332
 20
434.001254
 30
0.0
 11
-30.761071
 21
417.278759
 31
0.0
  0
LINE
  5
15B
330
12A
100
AcDbEntity
  8
0
  6
Continuous
 62
     0
370
    30
100
AcDbLine
 10
-38.426839
 20
444.001256
 30
0.0
 11
-48.081578
 21
427.278762
 31
0.0
  0
ARC
  5
15C
330
12A
100
AcDbEntity
  8
0
  6
Continuous
 62
     0
370
    30
100
AcDbCircle
 10
75.097092
 20
480.101201
 30
0.0
 40
20.50543443732385
100
AcDbArc
 50
172.402557
 51
175.804848
  0
ARC
  5
15D
330
12A
100
AcDbEntity
  8
0
  6
Continuous
 62
     0
370
    30
100
AcDbCircle
 10
75.096958
 20
480.101277
 30
0.0
 40
20.504968858925
100
AcDbArc
 50
4.195034
 51
27.645546
  0
LINE
  5
15E
330
12A
100
AcDbEntity
  8
0
  6
Continuous
 62
     0
370
    30
100
AcDbLine
 10
47.096794
 20
492.312274
 30
0.0
 11
-12.903206
 21
492.312274
 31
0.0
  0
LINE
  5
15F
330
12A
100
AcDbEntity
  8
0
  6
Continuous
 62
     0
370
    30
100
AcDbLine
 10
48.009532
 20
492.3282
 30
0.0
 11
47.096794
 21
492.312268
 31
0.0
  0
LINE
  5
160
330
12A
100
AcDbEntity
  8
0
  6
Continuous
 62
     0
370
    30
100
AcDbLine
 10
97.096794
 20
491.01247
 30
0.0
 11
97.096794
 21
513.812268
 31
0.0
  0
LINE
  5
161
330
12A
100
AcDbEntity
  8
0
  6
Continuous
 62
     0
370
    30
100
AcDbLine
 10
107.725658
 20
406.26758
 30
0.0
 11
97.096867
 21
383.474065
 31
0.0
  0
ARC
  5
162
330
12A
100
AcDbEntity
  8
0
  6
Continuous
 62
     0
370
    30
100
AcDbCircle
 10
110.44509
 20
404.998927
 30
0.0
 40
3.000798322132576
100
AcDbArc
 50
90.00971
 51
154.99029
  0
LINE
  5
163
330
12A
100
AcDbEntity
  8
0
  6
Continuous
 62
     0
370
    30
100
AcDbLine
 10
110.444581
 20
407.999725
 30
0.0
 11
121.939667
 21
407.999725
 31
0.0
  0
ENDBLK
  5
165
330
12A
100
AcDbEntity
  8
0
100
AcDbBlockEnd
  0
ENDSEC
  0
SECTION
  2
ENTITIES
  0
INSERT
  5
72
330
1F
100
AcDbEntity
  8
0
  6
Continuous
 62
   250
370
     0
100
AcDbBlockReference
  2
a
 10
198.950562
 20
130.68721
 30
0.0
  0
INSERT
  5
A4
330
1F
100
AcDbEntity
  8
0
  6
Continuous
 62
   250
370
     0
100
AcDbBlockReference
  2
b
 10
139.698513
 20
130.68721
 30
0.0
  0
INSERT
  5
E0
330
1F
100
AcDbEntity
  8
0
  6
Continuous
 62
   250
370
     0
100
AcDbBlockReference
  2
c
 10
174.246521
 20
130.68721
 30
0.0
  0
INSERT
  5
129
330
1F
100
AcDbEntity
  8
0
  6
Continuous
 62
   250
370
     0
100
AcDbBlockReference
  2
d
 10
183.026123
 20
104.616043
 30
0.0
  0
INSERT
  5
166
330
1F
100
AcDbEntity
  8
0
  6
Continuous
 62
   250
370
     0
100
AcDbBlockReference
  2
e
 10
156.23204
 20
0.0
 30
0.0
  0
ENDSEC
  0
SECTION
  2
OBJECTS
  0
DICTIONARY
  5
C
330
0
100
AcDbDictionary
281
     1
  3
ACAD_GROUP
350
D
  3
ACAD_LAYOUT
350
1A
  3
ACAD_MLEADERSTYLE
350
169
  3
ACAD_MLINESTYLE
350
17
  3
ACAD_PLOTSETTINGS
350
19
  3
ACAD_PLOTSTYLENAME
350
E
  3
ACAD_VISUALSTYLE
350
2A
  3
AcDbVariableDictionary
350
167
  0
DICTIONARY
  5
D
102
{ACAD_REACTORS
330
C
102
}
330
C
100
AcDbDictionary
281
     1
  0
DICTIONARY
  5
1A
102
{ACAD_REACTORS
330
C
102
}
330
C
100
AcDbDictionary
281
     1
  3
Layout1
350
1E
  3
Layout2
350
26
  3
Model
350
22
  0
DICTIONARY
  5
169
102
{ACAD_REACTORS
330
C
102
}
330
C
100
AcDbDictionary
281
     1
  0
DICTIONARY
  5
17
102
{ACAD_REACTORS
330
C
102
}
330
C
100
AcDbDictionary
281
     1
  3
Standard
350
18
  0
DICTIONARY
  5
19
102
{ACAD_REACTORS
330
C
102
}
330
C
100
AcDbDictionary
281
     1
  0
ACDBDICTIONARYWDFLT
  5
E
102
{ACAD_REACTORS
330
C
102
}
330
C
100
AcDbDictionary
281
     1
  3
Normal
350
F
100
AcDbDictionaryWithDefault
340
F
  0
DICTIONARY
  5
2A
102
{ACAD_REACTORS
330
C
102
}
330
C
100
AcDbDictionary
281
     1
  3
2dWireframe
350
2F
  3
3D Hidden
350
31
  3
3dWireframe
350
30
  3
Basic
350
32
  3
Brighten
350
36
  3
ColorChange
350
3A
  3
Conceptual
350
34
  3
Dim
350
35
  3
Facepattern
350
39
  3
Flat
350
2B
  3
FlatWithEdges
350
2C
  3
Gouraud
350
2D
  3
GouraudWithEdges
350
2E
  3
Linepattern
350
38
  3
Realistic
350
33
  3
Thicken
350
37
  0
DICTIONARY
  5
167
102
{ACAD_REACTORS
330
C
102
}
330
C
100
AcDbDictionary
281
     1
  3
PSOLHEIGHT
350
16B
  3
PSOLWIDTH
350
16A
  0
LAYOUT
  5
1E
102
{ACAD_REACTORS
330
1A
102
}
330
1A
100
AcDbPlotSettings
  1

  2
none_device
  4

  6

 40
0.0
 41
0.0
 42
0.0
 43
0.0
 44
0.0
 45
0.0
 46
0.0
 47
0.0
 48
0.0
 49
0.0
140
0.0
141
0.0
142
1.0
143
1.0
 70
   688
 72
     0
 73
     0
 74
     5
  7

 75
    16
147
1.0
148
0.0
149
0.0
100
AcDbLayout
  1
Layout1
 70
     1
 71
     1
 10
0.0
 20
0.0
 11
420.0
 21
297.0
 12
0.0
 22
0.0
 32
0.0
 14
1.000000E+20
 24
1.000000E+20
 34
1.000000E+20
 15
-1.000000E+20
 25
-1.000000E+20
 35
-1.000000E+20
146
0.0
 13
0.0
 23
0.0
 33
0.0
 16
1.0
 26
0.0
 36
0.0
 17
0.0
 27
1.0
 37
0.0
 76
     0
330
1B
  0
LAYOUT
  5
26
102
{ACAD_REACTORS
330
1A
102
}
330
1A
100
AcDbPlotSettings
  1

  2
none_device
  4

  6

 40
0.0
 41
0.0
 42
0.0
 43
0.0
 44
0.0
 45
0.0
 46
0.0
 47
0.0
 48
0.0
 49
0.0
140
0.0
141
0.0
142
1.0
143
1.0
 70
   688
 72
     0
 73
     0
 74
     5
  7

 75
    16
147
1.0
148
0.0
149
0.0
100
AcDbLayout
  1
Layout2
 70
     1
 71
     2
 10
0.0
 20
0.0
 11
0.0
 21
0.0
 12
0.0
 22
0.0
 32
0.0
 14
0.0
 24
0.0
 34
0.0
 15
0.0
 25
0.0
 35
0.0
146
0.0
 13
0.0
 23
0.0
 33
0.0
 16
1.0
 26
0.0
 36
0.0
 17
0.0
 27
1.0
 37
0.0
 76
     0
330
23
  0
LAYOUT
  5
22
102
{ACAD_REACTORS
330
1A
102
}
330
1A
100
AcDbPlotSettings
  1

  2
none_device
  4

  6

 40
0.0
 41
0.0
 42
0.0
 43
0.0
 44
0.0
 45
0.0
 46
0.0
 47
0.0
 48
0.0
 49
0.0
140
0.0
141
0.0
142
1.0
143
1.0
 70
  1712
 72
     0
 73
     0
 74
     0
  7

 75
     0
147
1.0
148
0.0
149
0.0
100
AcDbLayout
  1
Model
 70
     1
 71
     0
 10
-48.081577
 20
104.839485
 11
587.510071
 21
513.812256
 12
0.0
 22
0.0
 32
0.0
 14
-48.081577
 24
104.839485
 34
0.0
 15
587.510071
 25
513.812256
 35
0.0
146
0.0
 13
0.0
 23
0.0
 33
0.0
 16
1.0
 26
0.0
 36
0.0
 17
0.0
 27
1.0
 37
0.0
 76
     0
330
1F
331
29
  0
MLINESTYLE
  5
18
102
{ACAD_REACTORS
330
17
102
}
330
17
100
AcDbMlineStyle
  2
Standard
 70
     0
  3

 62
   256
 51
90.0
 52
90.0
 71
     2
 49
0.5
 62
   256
  6
BYLAYER
 49
-0.5
 62
   256
  6
BYLAYER
  0
ACDBPLACEHOLDER
  5
F
102
{ACAD_REACTORS
330
E
102
}
330
E
  0
VISUALSTYLE
  5
2F
102
{ACAD_REACTORS
330
2A
102
}
330
2A
100
AcDbVisualStyle
  2
2dWireframe
 70
     4
 71
     0
 72
     2
 73
     0
 90
        0
 40
-0.6
 41
-30.0
 62
     5
 63
     7
 74
     1
 91
        4
 64
     7
 65
   257
 75
     1
175
     1
 42
1.0
 92
        0
 66
   257
 43
1.0
 76
     1
 77
     6
 78
     2
 67
     7
 79
     5
170
     0
171
     0
290
     0
174
     0
 93
        1
 44
0.0
173
     0
291
     0
 45
0.0
1001
ACAD
1000
AcDbSavedByObjectVersion
1070
     0
  0
VISUALSTYLE
  5
31
102
{ACAD_REACTORS
330
2A
102
}
330
2A
100
AcDbVisualStyle
  2
3D Hidden
 70
     6
 71
     1
 72
     2
 73
     2
 90
        0
 40
-0.6
 41
-30.0
 62
     5
 63
     7
 74
     2
 91
        2
 64
     7
 65
   257
 75
     2
175
     1
 42
40.0
 92
        0
 66
   257
 43
1.0
 76
     1
 77
     6
 78
     2
 67
     7
 79
     3
170
     0
171
     0
290
     0
174
     0
 93
        1
 44
0.0
173
     0
291
     0
 45
0.0
1001
ACAD
1000
AcDbSavedByObjectVersion
1070
     0
  0
VISUALSTYLE
  5
30
102
{ACAD_REACTORS
330
2A
102
}
330
2A
100
AcDbVisualStyle
  2
3dWireframe
 70
     5
 71
     0
 72
     2
 73
     0
 90
        0
 40
-0.6
 41
-30.0
 62
     5
 63
     7
 74
     1
 91
        4
 64
     7
 65
   257
 75
     1
175
     1
 42
1.0
 92
        0
 66
   257
 43
1.0
 76
     1
 77
     6
 78
     2
 67
     7
 79
     5
170
     0
171
     0
290
     0
174
     0
 93
        1
 44
0.0
173
     0
291
     0
 45
0.0
1001
ACAD
1000
AcDbSavedByObjectVersion
1070
     0
  0
VISUALSTYLE
  5
32
102
{ACAD_REACTORS
330
2A
102
}
330
2A
100
AcDbVisualStyle
  2
Basic
 70
     7
 71
     1
 72
     0
 73
     1
 90
        0
 40
-0.6
 41
-30.0
 62
     5
 63
     7
 74
     0
 91
        4
 64
     7
 65
   257
 75
     1
175
     1
 42
1.0
 92
        8
 66
     7
 43
1.0
 76
     1
 77
     6
 78
     2
 67
     7
 79
     5
170
     0
171
     0
290
     0
174
     0
 93
        1
 44
0.0
173
     0
291
     1
 45
0.0
1001
ACAD
1000
AcDbSavedByObjectVersion
1070
     0
  0
VISUALSTYLE
  5
36
102
{ACAD_REACTORS
330
2A
102
}
330
2A
100
AcDbVisualStyle
  2
Brighten
 70
    12
 71
     2
 72
     2
 73
     0
 90
        0
 40
-0.6
 41
-30.0
 62
     5
 63
     7
 74
     1
 91
        4
 64
     7
 65
   257
 75
     1
175
     1
 42
1.0
 92
        8
 66
     7
 43
1.0
 76
     1
 77
     6
 78
     2
 67
     7
 79
     5
170
     0
171
     0
290
     0
174
     0
 93
        1
 44
50.0
173
     0
291
     1
 45
0.0
1001
ACAD
1000
AcDbSavedByObjectVersion
1070
     0
  0
VISUALSTYLE
  5
3A
102
{ACAD_REACTORS
330
2A
102
}
330
2A
100
AcDbVisualStyle
  2
ColorChange
 70
    16
 71
     2
 72
     2
 73
     3
 90
        0
 40
-0.6
 41
-30.0
 62
     5
 63
     8
 74
     1
 91
        4
 64
     7
 65
   257
 75
     1
175
     1
 42
1.0
 92
        8
 66
     8
 43
1.0
 76
     1
 77
     6
 78
     2
 67
     7
 79
     5
170
     0
171
     0
290
     0
174
     0
 93
        1
 44
0.0
173
     0
291
     1
 45
0.0
1001
ACAD
1000
AcDbSavedByObjectVersion
1070
     0
  0
VISUALSTYLE
  5
34
102
{ACAD_REACTORS
330
2A
102
}
330
2A
100
AcDbVisualStyle
  2
Conceptual
 70
     9
 71
     3
 72
     2
 73
     0
 90
        0
 40
-0.6
 41
-30.0
 62
     5
 63
     7
 74
     2
 91
        2
 64
     7
 65
   257
 75
     1
175
     1
 42
40.0
 92
        8
 66
     7
 43
1.0
 76
     1
 77
     6
 78
     2
 67
     7
 79
     3
170
     0
171
     0
290
     0
174
     0
 93
        1
 44
0.0
173
     0
291
     0
 45
0.0
1001
ACAD
1000
AcDbSavedByObjectVersion
1070
     0
  0
VISUALSTYLE
  5
35
102
{ACAD_REACTORS
330
2A
102
}
330
2A
100
AcDbVisualStyle
  2
Dim
 70
    11
 71
     2
 72
     2
 73
     0
 90
        0
 40
-0.6
 41
-30.0
 62
     5
 63
     7
 74
     1
 91
        4
 64
     7
 65
   257
 75
     1
175
     1
 42
1.0
 92
        8
 66
     7
 43
1.0
 76
     1
 77
     6
 78
     2
 67
     7
 79
     5
170
     0
171
     0
290
     0
174
     0
 93
        1
 44
-50.0
173
     0
291
     1
 45
0.0
1001
ACAD
1000
AcDbSavedByObjectVersion
1070
     0
  0
VISUALSTYLE
  5
39
102
{ACAD_REACTORS
330
2A
102
}
330
2A
100
AcDbVisualStyle
  2
Facepattern
 70
    15
 71
     2
 72
     2
 73
     0
 90
        0
 40
-0.6
 41
-30.0
 62
     5
 63
     7
 74
     1
 91
        4
 64
     7
 65
   257
 75
     1
175
     1
 42
1.0
 92
        8
 66
     7
 43
1.0
 76
     1
 77
     6
 78
     2
 67
     7
 79
     5
170
     0
171
     0
290
     0
174
     0
 93
        1
 44
0.0
173
     0
291
     1
 45
0.0
1001
ACAD
1000
AcDbSavedByObjectVersion
1070
     0
  0
VISUALSTYLE
  5
2B
102
{ACAD_REACTORS
330
2A
102
}
330
2A
100
AcDbVisualStyle
  2
Flat
 70
     0
 71
     2
 72
     1
 73
     1
 90
        2
 40
-0.6
 41
30.0
 62
     5
 63
     7
 74
     0
 91
        4
 64
     7
 65
   257
 75
     1
175
     1
 42
1.0
 92
        8
 66
     7
 43
1.0
 76
     1
 77
     6
 78
     2
 67
     7
 79
     5
170
     0
171
     0
290
     0
174
     0
 93
       13
 44
0.0
173
     0
291
     1
 45
0.0
1001
ACAD
1000
AcDbSavedByObjectVersion
1070
     0
  0
VISUALSTYLE
  5
2C
102
{ACAD_REACTORS
330
2A
102
}
330
2A
100
AcDbVisualStyle
  2
FlatWithEdges
 70
     1
 71
     2
 72
     1
 73
     1
 90
        2
 40
-0.6
 41
30.0
 62
     5
 63
     7
 74
     1
 91
        4
 64
     7
 65
   257
 75
     1
175
     1
 42
1.0
 92
        0
 66
   257
 43
1.0
 76
     1
 77
     6
 78
     2
 67
     7
 79
     5
170
     0
171
     0
290
     0
174
     0
 93
       13
 44
0.0
173
     0
291
     1
 45
0.0
1001
ACAD
1000
AcDbSavedByObjectVersion
1070
     0
  0
VISUALSTYLE
  5
2D
102
{ACAD_REACTORS
330
2A
102
}
330
2A
100
AcDbVisualStyle
  2
Gouraud
 70
     2
 71
     2
 72
     2
 73
     1
 90
        2
 40
-0.6
 41
30.0
 62
     5
 63
     7
 74
     0
 91
        4
 64
     7
 65
   257
 75
     1
175
     1
 42
1.0
 92
        0
 66
     7
 43
1.0
 76
     1
 77
     6
 78
     2
 67
     7
 79
     5
170
     0
171
     0
290
     0
174
     0
 93
       13
 44
0.0
173
     0
291
     1
 45
0.0
1001
ACAD
1000
AcDbSavedByObjectVersion
1070
     0
  0
VISUALSTYLE
  5
2E
102
{ACAD_REACTORS
330
2A
102
}
330
2A
100
AcDbVisualStyle
  2
GouraudWithEdges
 70
     3
 71
     2
 72
     2
 73
     1
 90
        2
 40
-0.6
 41
30.0
 62
     5
 63
     7
 74
     1
 91
        4
 64
     7
 65
   257
 75
     1
175
     1
 42
1.0
 92
        0
 66
   257
 43
1.0
 76
     1
 77
     6
 78
     2
 67
     7
 79
     5
170
     0
171
     0
290
     0
174
     0
 93
       13
 44
0.0
173
     0
291
     1
 45
0.0
1001
ACAD
1000
AcDbSavedByObjectVersion
1070
     0
  0
VISUALSTYLE
  5
38
102
{ACAD_REACTORS
330
2A
102
}
330
2A
100
AcDbVisualStyle
  2
Linepattern
 70
    14
 71
     2
 72
     2
 73
     0
 90
        0
 40
-0.6
 41
-30.0
 62
     5
 63
     7
 74
     1
 91
        4
 64
     7
 65
   257
 75
     7
175
     7
 42
1.0
 92
        8
 66
     7
 43
1.0
 76
     1
 77
     6
 78
     2
 67
     7
 79
     5
170
     0
171
     0
290
     0
174
     0
 93
        1
 44
0.0
173
     0
291
     1
 45
0.0
1001
ACAD
1000
AcDbSavedByObjectVersion
1070
     0
  0
VISUALSTYLE
  5
33
102
{ACAD_REACTORS
330
2A
102
}
330
2A
100
AcDbVisualStyle
  2
Realistic
 70
     8
 71
     2
 72
     2
 73
     0
 90
        0
 40
-0.6
 41
-30.0
 62
     5
 63
     7
 74
     1
 91
        0
 64
     7
 65
   257
 75
     1
175
     1
 42
1.0
 92
        8
 66
     8
 43
1.0
 76
     1
 77
     6
 78
     2
 67
     7
 79
     5
170
     0
171
     0
290
     0
174
     0
 93
       13
 44
0.0
173
     0
291
     0
 45
0.0
1001
ACAD
1000
AcDbSavedByObjectVersion
1070
     0
  0
VISUALSTYLE
  5
37
102
{ACAD_REACTORS
330
2A
102
}
330
2A
100
AcDbVisualStyle
  2
Thicken
 70
    13
 71
     2
 72
     2
 73
     0
 90
        0
 40
-0.6
 41
-30.0
 62
     5
 63
     7
 74
     1
 91
        4
 64
     7
 65
   257
 75
     1
175
     1
 42
1.0
 92
       12
 66
     7
 43
1.0
 76
     1
 77
     6
 78
     2
 67
     7
 79
     5
170
     0
171
     0
290
     0
174
     0
 93
        1
 44
0.0
173
     0
291
     1
 45
0.0
1001
ACAD
1000
AcDbSavedByObjectVersion
1070
     0
  0
DICTIONARYVAR
  5
16B
102
{ACAD_REACTORS
330
167
102
}
330
167
100
DictionaryVariables
280
     0
  1
80.000000
  0
DICTIONARYVAR
  5
16A
102
{ACAD_REACTORS
330
167
102
}
330
167
100
DictionaryVariables
280
     0
  1
5.000000
  0
ENDSEC
  0
EOF
