  0
SECTION
  2
HEADER
  9
$ACADVER
  1
AC1015
  9
$ACADMAINTVER
 70
     6
  9
$DWGCODEPAGE
  3
ANSI_1252
  9
$INSBASE
 10
0.0
 20
0.0
 30
0.0
  9
$EXTMIN
 10
-311.59201
 20
100.329842
 30
0.0
  9
$EXTMAX
 10
1085.070435
 20
1283.874878
 30
0.0
  9
$LIMMIN
 10
-311.59201
 20
100.329842
  9
$LIMMAX
 10
1085.070435
 20
1283.874878
  9
$ORTHOMODE
 70
     0
  9
$REGENMODE
 70
     1
  9
$FILLMODE
 70
     1
  9
$QTEXTMODE
 70
     0
  9
$MIRRTEXT
 70
     1
  9
$LTSCALE
 40
1.0
  9
$ATTMODE
 70
     1
  9
$TEXTSIZE
 40
2.5
  9
$TRACEWID
 40
1.0
  9
$TEXTSTYLE
  7
Standard
  9
$CLAYER
  8
0
  9
$CELTYPE
  6
ByLayer
  9
$CECOLOR
 62
   256
  9
$CELTSCALE
 40
1.0
  9
$DISPSILH
 70
     0
  9
$DIMSCALE
 40
1.0
  9
$DIMASZ
 40
2.5
  9
$DIMEXO
 40
0.625
  9
$DIMDLI
 40
3.75
  9
$DIMRND
 40
0.0
  9
$DIMDLE
 40
0.0
  9
$DIMEXE
 40
1.25
  9
$DIMTP
 40
0.0
  9
$DIMTM
 40
0.0
  9
$DIMTXT
 40
2.5
  9
$DIMCEN
 40
2.5
  9
$DIMTSZ
 40
0.0
  9
$DIMTOL
 70
     0
  9
$DIMLIM
 70
     0
  9
$DIMTIH
 70
     0
  9
$DIMTOH
 70
     0
  9
$DIMSE1
 70
     0
  9
$DIMSE2
 70
     0
  9
$DIMTAD
 70
     1
  9
$DIMZIN
 70
     8
  9
$DIMBLK
  1

  9
$DIMASO
 70
     1
  9
$DIMSHO
 70
     1
  9
$DIMPOST
  1

  9
$DIMAPOST
  1

  9
$DIMALT
 70
     0
  9
$DIMALTD
 70
     3
  9
$DIMALTF
 40
0.03937
  9
$DIMLFAC
 40
1.0
  9
$DIMTOFL
 70
     1
  9
$DIMTVP
 40
0.0
  9
$DIMTIX
 70
     0
  9
$DIMSOXD
 70
     0
  9
$DIMSAH
 70
     0
  9
$DIMBLK1
  1

  9
$DIMBLK2
  1

  9
$DIMSTYLE
  2
ISO-25
  9
$DIMCLRD
 70
     0
  9
$DIMCLRE
 70
     0
  9
$DIMCLRT
 70
     0
  9
$DIMTFAC
 40
1.0
  9
$DIMGAP
 40
0.625
  9
$DIMJUST
 70
     0
  9
$DIMSD1
 70
     0
  9
$DIMSD2
 70
     0
  9
$DIMTOLJ
 70
     0
  9
$DIMTZIN
 70
     8
  9
$DIMALTZ
 70
     0
  9
$DIMALTTZ
 70
     0
  9
$DIMUPT
 70
     0
  9
$DIMDEC
 70
     2
  9
$DIMTDEC
 70
     2
  9
$DIMALTU
 70
     2
  9
$DIMALTTD
 70
     3
  9
$DIMTXSTY
  7
Standard
  9
$DIMAUNIT
 70
     0
  9
$DIMADEC
 70
     0
  9
$DIMALTRND
 40
0.0
  9
$DIMAZIN
 70
     0
  9
$DIMDSEP
 70
    44
  9
$DIMATFIT
 70
     3
  9
$DIMFRAC
 70
     0
  9
$DIMLDRBLK
  1

  9
$DIMLUNIT
 70
     2
  9
$DIMLWD
 70
    -2
  9
$DIMLWE
 70
    -2
  9
$DIMTMOVE
 70
     0
  9
$LUNITS
 70
     2
  9
$LUPREC
 70
     4
  9
$SKETCHINC
 40
1.0
  9
$FILLETRAD
 40
10.0
  9
$AUNITS
 70
     0
  9
$AUPREC
 70
     0
  9
$MENU
  1
.
  9
$ELEVATION
 40
0.0
  9
$PELEVATION
 40
0.0
  9
$THICKNESS
 40
0.0
  9
$LIMCHECK
 70
     0
  9
$CHAMFERA
 40
10.0
  9
$CHAMFERB
 40
10.0
  9
$CHAMFERC
 40
20.0
  9
$CHAMFERD
 40
0.0
  9
$SKPOLY
 70
     0
  9
$TDCREATE
 40
2455572.475160833
  9
$TDUCREATE
 40
2455572.433494166
  9
$TDUPDATE
 40
2455572.475160845
  9
$TDUUPDATE
 40
2455572.433494178
  9
$TDINDWG
 40
0.0000000116
  9
$TDUSRTIMER
 40
0.0000000116
  9
$USRTIMER
 70
     1
  9
$ANGBASE
 50
0.0
  9
$ANGDIR
 70
     0
  9
$PDMODE
 70
     0
  9
$PDSIZE
 40
0.0
  9
$PLINEWID
 40
0.0
  9
$SPLFRAME
 70
     0
  9
$SPLINETYPE
 70
     6
  9
$SPLINESEGS
 70
     8
  9
$HANDSEED
  5
29B
  9
$SURFTAB1
 70
     6
  9
$SURFTAB2
 70
     6
  9
$SURFTYPE
 70
     6
  9
$SURFU
 70
     6
  9
$SURFV
 70
     6
  9
$UCSBASE
  2

  9
$UCSNAME
  2

  9
$UCSORG
 10
0.0
 20
0.0
 30
0.0
  9
$UCSXDIR
 10
1.0
 20
0.0
 30
0.0
  9
$UCSYDIR
 10
0.0
 20
1.0
 30
0.0
  9
$UCSORTHOREF
  2

  9
$UCSORTHOVIEW
 70
     0
  9
$UCSORGTOP
 10
0.0
 20
0.0
 30
0.0
  9
$UCSORGBOTTOM
 10
0.0
 20
0.0
 30
0.0
  9
$UCSORGLEFT
 10
0.0
 20
0.0
 30
0.0
  9
$UCSORGRIGHT
 10
0.0
 20
0.0
 30
0.0
  9
$UCSORGFRONT
 10
0.0
 20
0.0
 30
0.0
  9
$UCSORGBACK
 10
0.0
 20
0.0
 30
0.0
  9
$PUCSBASE
  2

  9
$PUCSNAME
  2

  9
$PUCSORG
 10
0.0
 20
0.0
 30
0.0
  9
$PUCSXDIR
 10
1.0
 20
0.0
 30
0.0
  9
$PUCSYDIR
 10
0.0
 20
1.0
 30
0.0
  9
$PUCSORTHOREF
  2

  9
$PUCSORTHOVIEW
 70
     0
  9
$PUCSORGTOP
 10
0.0
 20
0.0
 30
0.0
  9
$PUCSORGBOTTOM
 10
0.0
 20
0.0
 30
0.0
  9
$PUCSORGLEFT
 10
0.0
 20
0.0
 30
0.0
  9
$PUCSORGRIGHT
 10
0.0
 20
0.0
 30
0.0
  9
$PUCSORGFRONT
 10
0.0
 20
0.0
 30
0.0
  9
$PUCSORGBACK
 10
0.0
 20
0.0
 30
0.0
  9
$USERI1
 70
     0
  9
$USERI2
 70
     0
  9
$USERI3
 70
     0
  9
$USERI4
 70
     0
  9
$USERI5
 70
     0
  9
$USERR1
 40
0.0
  9
$USERR2
 40
0.0
  9
$USERR3
 40
0.0
  9
$USERR4
 40
0.0
  9
$USERR5
 40
0.0
  9
$WORLDVIEW
 70
     1
  9
$SHADEDGE
 70
     3
  9
$SHADEDIF
 70
    70
  9
$TILEMODE
 70
     1
  9
$MAXACTVP
 70
    64
  9
$PINSBASE
 10
0.0
 20
0.0
 30
0.0
  9
$PLIMCHECK
 70
     0
  9
$PEXTMIN
 10
1.000000E+20
 20
1.000000E+20
 30
1.000000E+20
  9
$PEXTMAX
 10
-1.000000E+20
 20
-1.000000E+20
 30
-1.000000E+20
  9
$PLIMMIN
 10
0.0
 20
0.0
  9
$PLIMMAX
 10
420.0
 20
297.0
  9
$UNITMODE
 70
     0
  9
$VISRETAIN
 70
     1
  9
$PLINEGEN
 70
     0
  9
$PSLTSCALE
 70
     1
  9
$TREEDEPTH
 70
  3020
  9
$CMLSTYLE
  2
Standard
  9
$CMLJUST
 70
     0
  9
$CMLSCALE
 40
20.0
  9
$PROXYGRAPHICS
 70
     1
  9
$MEASUREMENT
 70
     1
  9
$CELWEIGHT
370
    -1
  9
$ENDCAPS
280
     0
  9
$JOINSTYLE
280
     0
  9
$LWDISPLAY
290
     0
  9
$INSUNITS
 70
     4
  9
$HYPERLINKBASE
  1

  9
$STYLESHEET
  1

  9
$XEDIT
290
     1
  9
$CEPSNTYPE
380
     0
  9
$PSTYLEMODE
290
     1
  9
$FINGERPRINTGUID
  2
{A777C5FC-9C23-4A5F-9DB9-DC15297929CB}
  9
$VERSIONGUID
  2
{FAEB1C32-E019-11D5-929B-00C0DF256EC4}
  9
$EXTNAMES
290
     1
  9
$PSVPSCALE
 40
0.0
  9
$OLESTARTUP
290
     0
  0
ENDSEC
  0
SECTION
  2
CLASSES
  0
CLASS
  1
ACDBDICTIONARYWDFLT
  2
AcDbDictionaryWithDefault
  3
ObjectDBX Classes
 90
        0
280
     0
281
     0
  0
CLASS
  1
VISUALSTYLE
  2
AcDbVisualStyle
  3
ObjectDBX Classes
 90
     4095
280
     0
281
     0
  0
CLASS
  1
DICTIONARYVAR
  2
AcDbDictionaryVar
  3
ObjectDBX Classes
 90
        0
280
     0
281
     0
  0
CLASS
  1
ACDBPLACEHOLDER
  2
AcDbPlaceHolder
  3
ObjectDBX Classes
 90
        0
280
     0
281
     0
  0
CLASS
  1
LAYOUT
  2
AcDbLayout
  3
ObjectDBX Classes
 90
        0
280
     0
281
     0
  0
ENDSEC
  0
SECTION
  2
TABLES
  0
TABLE
  2
VPORT
  5
8
330
0
100
AcDbSymbolTable
 70
     1
  0
VPORT
  5
29
330
8
100
AcDbSymbolTableRecord
100
AcDbViewportTableRecord
  2
*Active
 70
     0
 10
0.0
 20
0.0
 11
1.0
 21
1.0
 12
344.186916
 22
148.5
 13
0.0
 23
0.0
 14
10.0
 24
10.0
 15
10.0
 25
10.0
 16
0.0
 26
0.0
 36
1.0
 17
0.0
 27
0.0
 37
0.0
 40
297.0
 41
1.972973
 42
50.0
 43
0.0
 44
0.0
 50
0.0
 51
0.0
 71
     0
 72
   100
 73
     1
 74
     3
 75
     0
 76
     0
 77
     0
 78
     0
281
     0
 65
     1
110
0.0
120
0.0
130
0.0
111
1.0
121
0.0
131
0.0
112
0.0
122
1.0
132
0.0
 79
     0
146
0.0
  0
ENDTAB
  0
TABLE
  2
LTYPE
  5
5
330
0
100
AcDbSymbolTable
 70
     1
  0
LTYPE
  5
14
330
5
100
AcDbSymbolTableRecord
100
AcDbLinetypeTableRecord
  2
ByBlock
 70
     0
  3

 72
    65
 73
     0
 40
0.0
  0
LTYPE
  5
15
330
5
100
AcDbSymbolTableRecord
100
AcDbLinetypeTableRecord
  2
ByLayer
 70
     0
  3

 72
    65
 73
     0
 40
0.0
  0
LTYPE
  5
16
330
5
100
AcDbSymbolTableRecord
100
AcDbLinetypeTableRecord
  2
Continuous
 70
     0
  3
Solid line
 72
    65
 73
     0
 40
0.0
  0
ENDTAB
  0
TABLE
  2
LAYER
  5
2
330
0
100
AcDbSymbolTable
 70
     1
  0
LAYER
  5
10
330
2
100
AcDbSymbolTableRecord
100
AcDbLayerTableRecord
  2
0
 70
     0
 62
   106
  6
Continuous
370
     0
390
F
  0
ENDTAB
  0
TABLE
  2
STYLE
  5
3
330
0
100
AcDbSymbolTable
 70
     4
  0
STYLE
  5
11
330
3
100
AcDbSymbolTableRecord
100
AcDbTextStyleTableRecord
  2
Standard
 70
     0
 40
0.0
 41
1.0
 50
0.0
 71
     0
 42
2.5
  3
txt
  4

  0
STYLE
  5
3B
330
3
100
AcDbSymbolTableRecord
100
AcDbTextStyleTableRecord
  2
Default
 70
     0
 40
0.0
 41
1.0
 50
0.0
 71
     0
 42
0.2
  3

  4

1001
ACAD
1000
txt
1071
        0
  0
STYLE
  5
3C
330
3
100
AcDbSymbolTableRecord
100
AcDbTextStyleTableRecord
  2
ISO
 70
     0
 40
0.0
 41
1.0
 50
0.0
 71
     0
 42
0.2
  3

  4

1001
ACAD
1000
txt
1071
        0
  0
STYLE
  5
3D
330
3
100
AcDbSymbolTableRecord
100
AcDbTextStyleTableRecord
  2
GIANLU
 70
     0
 40
0.0
 41
1.0
 50
0.0
 71
     0
 42
0.2
  3

  4

1001
ACAD
1000
Arial
1071
        0
  0
ENDTAB
  0
TABLE
  2
VIEW
  5
6
330
0
100
AcDbSymbolTable
 70
     0
  0
ENDTAB
  0
TABLE
  2
UCS
  5
7
330
0
100
AcDbSymbolTable
 70
     0
  0
ENDTAB
  0
TABLE
  2
APPID
  5
9
330
0
100
AcDbSymbolTable
 70
     1
  0
APPID
  5
12
330
9
100
AcDbSymbolTableRecord
100
AcDbRegAppTableRecord
  2
ACAD
 70
     0
  0
ENDTAB
  0
TABLE
  2
DIMSTYLE
  5
A
330
0
100
AcDbSymbolTable
 70
     4
100
AcDbDimStyleTable
  0
DIMSTYLE
105
27
330
A
100
AcDbSymbolTableRecord
100
AcDbDimStyleTableRecord
  2
ISO-25
 70
     0
 41
2.5
 42
0.625
 43
3.75
 44
1.25
 73
     0
 74
     0
 77
     1
 78
     8
140
2.5
141
2.5
143
0.03937
147
0.625
171
     3
172
     1
271
     2
272
     2
274
     3
278
    44
283
     0
284
     8
340
11
  0
DIMSTYLE
105
3E
330
A
100
AcDbSymbolTableRecord
100
AcDbDimStyleTableRecord
  2
Default
 70
     0
  3
<>
 41
4.375
 42
1.05
 44
2.1
 73
     0
 74
     0
 77
     1
 78
     8
140
3.5
146
0.4
147
1.75
178
     3
271
     2
272
     3
284
     8
340
3B
341
3F
342
3F
  0
DIMSTYLE
105
46
330
A
100
AcDbSymbolTableRecord
100
AcDbDimStyleTableRecord
  2
ISO
 70
     0
  3
<>
 41
4.375
 42
1.05
 44
2.1
 73
     0
 74
     0
 77
     1
 78
     8
140
3.5
146
0.4
147
1.75
178
     3
271
     2
272
     3
284
     8
340
3C
341
3F
342
3F
  0
DIMSTYLE
105
47
330
A
100
AcDbSymbolTableRecord
100
AcDbDimStyleTableRecord
  2
zucchetti_unico
 70
     0
  3
<>
 41
3.0
 42
0.9
 44
1.8
 73
     0
 74
     0
 77
     1
 78
     8
140
3.0
146
0.6
147
1.5
176
   104
177
     3
178
     3
271
     2
272
     2
284
     8
340
3D
  0
ENDTAB
  0
TABLE
  2
BLOCK_RECORD
  5
1
330
0
100
AcDbSymbolTable
 70
     7
  0
BLOCK_RECORD
  5
1F
330
1
100
AcDbSymbolTableRecord
100
AcDbBlockTableRecord
  2
*Model_Space
340
22
  0
BLOCK_RECORD
  5
1B
330
1
100
AcDbSymbolTableRecord
100
AcDbBlockTableRecord
  2
*Paper_Space
340
1E
  0
BLOCK_RECORD
  5
23
330
1
100
AcDbSymbolTableRecord
100
AcDbBlockTableRecord
  2
*Paper_Space0
340
26
  0
BLOCK_RECORD
  5
3F
330
1
100
AcDbSymbolTableRecord
100
AcDbBlockTableRecord
  2
_CLOSED
340
0
  0
BLOCK_RECORD
  5
48
330
1
100
AcDbSymbolTableRecord
100
AcDbBlockTableRecord
  2
a
340
0
102
{BLKREFS
331
D1
102
}
  0
BLOCK_RECORD
  5
D2
330
1
100
AcDbSymbolTableRecord
100
AcDbBlockTableRecord
  2
b
340
0
102
{BLKREFS
331
12B
102
}
  0
BLOCK_RECORD
  5
12C
330
1
100
AcDbSymbolTableRecord
100
AcDbBlockTableRecord
  2
c
340
0
102
{BLKREFS
331
18C
102
}
  0
BLOCK_RECORD
  5
18D
330
1
100
AcDbSymbolTableRecord
100
AcDbBlockTableRecord
  2
d
340
0
102
{BLKREFS
331
22C
102
}
  0
BLOCK_RECORD
  5
22D
330
1
100
AcDbSymbolTableRecord
100
AcDbBlockTableRecord
  2
e
340
0
102
{BLKREFS
331
295
102
}
  0
ENDTAB
  0
ENDSEC
  0
SECTION
  2
BLOCKS
  0
BLOCK
  5
20
330
1F
100
AcDbEntity
  8
0
100
AcDbBlockBegin
  2
*Model_Space
 70
     0
 10
0.0
 20
0.0
 30
0.0
  3
*Model_Space
  1

  0
ENDBLK
  5
21
330
1F
100
AcDbEntity
  8
0
100
AcDbBlockEnd
  0
BLOCK
  5
1C
330
1B
100
AcDbEntity
 67
     1
  8
0
100
AcDbBlockBegin
  2
*Paper_Space
 70
     0
 10
0.0
 20
0.0
 30
0.0
  3
*Paper_Space
  1

  0
ENDBLK
  5
1D
330
1B
100
AcDbEntity
 67
     1
  8
0
100
AcDbBlockEnd
  0
BLOCK
  5
24
330
23
100
AcDbEntity
  8
0
100
AcDbBlockBegin
  2
*Paper_Space0
 70
     0
 10
0.0
 20
0.0
 30
0.0
  3
*Paper_Space0
  1

  0
ENDBLK
  5
25
330
23
100
AcDbEntity
  8
0
100
AcDbBlockEnd
  0
BLOCK
  5
40
330
3F
100
AcDbEntity
  8
0
100
AcDbBlockBegin
  2
_CLOSED
 70
     0
 10
0.0
 20
0.0
 30
0.0
  3
_CLOSED
  1

  0
LINE
  5
42
330
3F
100
AcDbEntity
  8
0
  6
ByBlock
 62
     0
370
    -2
100
AcDbLine
 10
-1.0
 20
0.166667
 30
0.0
 11
0.0
 21
0.0
 31
0.0
  0
LINE
  5
43
330
3F
100
AcDbEntity
  8
0
  6
ByBlock
 62
     0
370
    -2
100
AcDbLine
 10
0.0
 20
0.0
 30
0.0
 11
-1.0
 21
-0.166667
 31
0.0
  0
LINE
  5
44
330
3F
100
AcDbEntity
  8
0
  6
ByBlock
 62
     0
370
    -2
100
AcDbLine
 10
-1.0
 20
0.166667
 30
0.0
 11
-1.0
 21
-0.166667
 31
0.0
  0
LINE
  5
45
330
3F
100
AcDbEntity
  8
0
  6
ByBlock
 62
     0
370
    -2
100
AcDbLine
 10
0.0
 20
0.0
 30
0.0
 11
-1.0
 21
0.0
 31
0.0
  0
ENDBLK
  5
41
330
3F
100
AcDbEntity
  8
0
100
AcDbBlockEnd
  0
BLOCK
  5
CF
330
48
100
AcDbEntity
  8
0
100
AcDbBlockBegin
  2
a
 70
     0
 10
31.810692
 20
128.626831
 30
0.0
  3
a
  1

  0
LINE
  5
49
330
48
100
AcDbEntity
  8
0
  6
Continuous
 62
     0
370
    30
100
AcDbLine
 10
405.995125
 20
1042.874824
 30
0.0
 11
400.756248
 21
1042.874824
 31
0.0
  0
LINE
  5
4A
330
48
100
AcDbEntity
  8
0
  6
Continuous
 62
     0
370
    30
100
AcDbLine
 10
400.756248
 20
1042.874824
 30
0.0
 11
388.995138
 21
1042.874824
 31
0.0
  0
ARC
  5
4B
330
48
100
AcDbEntity
  8
0
  6
Continuous
 62
     0
370
    30
100
AcDbCircle
 10
397.494725
 20
1215.874416
 30
0.0
 40
13.49959137374994
100
AcDbArc
 50
179.998266
 51
270.001734
  0
ARC
  5
4C
330
48
100
AcDbEntity
  8
0
  6
Continuous
 62
     0
370
    30
100
AcDbCircle
 10
397.495542
 20
1215.874416
 30
0.0
 40
13.49959137375009
100
AcDbArc
 50
269.998266
 51
0.001734
  0
LINE
  5
4D
330
48
100
AcDbEntity
  8
0
  6
Continuous
 62
     0
370
    30
100
AcDbLine
 10
410.995133
 20
1215.874824
 30
0.0
 11
410.995133
 21
1265.374824
 31
0.0
  0
ARC
  5
4E
330
48
100
AcDbEntity
  8
0
  6
Continuous
 62
     0
370
    30
100
AcDbCircle
 10
397.495539
 20
1265.37523
 30
0.0
 40
13.49959411088994
100
AcDbArc
 50
359.998277
 51
90.001723
  0
ARC
  5
4F
330
48
100
AcDbEntity
  8
0
  6
Continuous
 62
     0
370
    30
100
AcDbCircle
 10
397.49473
 20
1265.375227
 30
0.0
 40
13.49959687909169
100
AcDbArc
 50
89.998289
 51
180.001711
  0
LINE
  5
50
330
48
100
AcDbEntity
  8
0
  6
Continuous
 62
     0
370
    30
100
AcDbLine
 10
383.995133
 20
1265.374824
 30
0.0
 11
383.995133
 21
1215.874824
 31
0.0
  0
LINE
  5
51
330
48
100
AcDbEntity
  8
0
  6
Continuous
 62
     0
370
    30
100
AcDbLine
 10
397.495133
 20
1072.874824
 30
0.0
 11
413.595133
 21
1072.874824
 31
0.0
  0
LINE
  5
52
330
48
100
AcDbEntity
  8
0
  6
Continuous
 62
     0
370
    30
100
AcDbLine
 10
381.395133
 20
1072.874824
 30
0.0
 11
397.495133
 21
1072.874824
 31
0.0
  0
LINE
  5
53
330
48
100
AcDbEntity
  8
0
  6
Continuous
 62
     0
370
     0
100
AcDbLine
 10
397.495133
 20
1282.876569
 30
0.0
 11
381.761656
 21
1282.876569
 31
0.0
  0
LINE
  5
54
330
48
100
AcDbEntity
  8
0
  6
Continuous
 62
     0
370
     0
100
AcDbLine
 10
413.228611
 20
1282.876569
 30
0.0
 11
397.495133
 21
1282.876569
 31
0.0
  0
LINE
  5
55
330
48
100
AcDbEntity
  8
0
  6
Continuous
 62
     0
370
    30
100
AcDbLine
 10
397.495133
 20
1283.874824
 30
0.0
 11
412.228612
 21
1283.874824
 31
0.0
  0
LINE
  5
56
330
48
100
AcDbEntity
  8
0
  6
Continuous
 62
     0
370
    30
100
AcDbLine
 10
382.761654
 20
1283.874824
 30
0.0
 11
397.495133
 21
1283.874824
 31
0.0
  0
LWPOLYLINE
  5
57
330
48
100
AcDbEntity
  8
0
  6
Continuous
 62
     0
370
     0
100
AcDbPolyline
 90
       17
 70
     0
 43
0.0
 10
397.495117
 20
1204.229126
 10
396.46225
 20
1204.306396
 10
395.457184
 20
1204.532837
 10
394.503082
 20
1204.895142
 10
393.613739
 20
1205.375
 10
392.798523
 20
1205.953979
 10
392.060028
 20
1206.615356
 10
391.397675
 20
1207.345703
 10
390.809723
 20
1208.133545
 10
390.29422
 20
1208.970825
 10
389.84903
 20
1209.850952
 10
389.472168
 20
1210.7677
 10
389.162445
 20
1211.715942
 10
388.91925
 20
1212.69104
 10
388.742462
 20
1213.687622
 10
388.632202
 20
1214.699463
 10
388.58847
 20
1215.739014
  0
ARC
  5
58
330
48
100
AcDbEntity
  8
0
  6
Continuous
 62
     0
370
     0
100
AcDbCircle
 10
388.791233
 20
1041.458294
 30
0.0
 40
174.2808531683639
100
AcDbArc
 50
90.066655
 51
90.428041
  0
LWPOLYLINE
  5
59
330
48
100
AcDbEntity
  8
0
  6
Continuous
 62
     0
370
     0
100
AcDbPolyline
 90
       17
 70
     0
 43
0.0
 10
387.489227
 20
1215.734253
 10
387.538788
 20
1214.644043
 10
387.666748
 20
1213.563965
 10
387.872192
 20
1212.502441
 10
388.153992
 20
1211.466553
 10
388.511505
 20
1210.462158
 10
388.944366
 20
1209.494507
 10
389.45282
 20
1208.56897
 10
390.038177
 20
1207.69104
 10
390.702271
 20
1206.867188
 10
391.447083
 20
1206.105835
 10
392.274261
 20
1205.417969
 10
393.184113
 20
1204.817139
 10
394.173737
 20
1204.319824
 10
395.233521
 20
1203.944702
 10
396.348206
 20
1203.710205
 10
397.495148
 20
1203.630127
  0
LINE
  5
5A
330
48
100
AcDbEntity
  8
0
  6
Continuous
 62
     0
370
     0
100
AcDbLine
 10
397.495133
 20
1203.630142
 30
0.0
 11
397.495108
 21
1204.229118
 31
0.0
  0
LINE
  5
5B
330
48
100
AcDbEntity
  8
0
  6
Continuous
 62
     0
370
     0
100
AcDbLine
 10
387.48924
 20
1265.375261
 30
0.0
 11
387.48924
 21
1215.734283
 31
0.0
  0
LINE
  5
5C
330
48
100
AcDbEntity
  8
0
  6
Continuous
 62
     0
370
     0
100
AcDbLine
 10
388.588512
 20
1215.739029
 30
0.0
 11
388.588512
 21
1265.375261
 31
0.0
  0
LINE
  5
5D
330
48
100
AcDbEntity
  8
0
  6
Continuous
 62
     0
370
     0
100
AcDbLine
 10
388.588512
 20
1265.375261
 30
0.0
 11
387.48924
 21
1265.375261
 31
0.0
  0
ARC
  5
5E
330
48
100
AcDbEntity
  8
0
  6
Continuous
 62
     0
370
     0
100
AcDbCircle
 10
406.199054
 20
1432.313848
 30
0.0
 40
166.7972308608634
100
AcDbArc
 50
270.06964
 51
270.447239
  0
LWPOLYLINE
  5
5F
330
48
100
AcDbEntity
  8
0
  6
Continuous
 62
     0
370
     0
100
AcDbPolyline
 90
       17
 70
     0
 43
0.0
 10
407.501038
 20
1265.521729
 10
407.45105
 20
1266.61145
 10
407.322754
 20
1267.69104
 10
407.117004
 20
1268.752075
 10
406.834991
 20
1269.787476
 10
406.477295
 20
1270.791382
 10
406.044312
 20
1271.758545
 10
405.535797
 20
1272.683472
 10
404.95047
 20
1273.561035
 10
404.286438
 20
1274.384399
 10
403.541718
 20
1275.145386
 10
402.714691
 20
1275.832764
 10
401.805084
 20
1276.43335
 10
400.815765
 20
1276.930298
 10
399.756348
 20
1277.305176
 10
398.642059
 20
1277.539551
 10
397.495148
 20
1277.619629
  0
LINE
  5
60
330
48
100
AcDbEntity
  8
0
  6
Continuous
 62
     0
370
     0
100
AcDbLine
 10
397.495133
 20
1277.619602
 30
0.0
 11
397.495161
 21
1277.020625
 31
0.0
  0
LWPOLYLINE
  5
61
330
48
100
AcDbEntity
  8
0
  6
Continuous
 62
     0
370
     0
100
AcDbPolyline
 90
       17
 70
     0
 43
0.0
 10
397.495148
 20
1277.02063
 10
398.527618
 20
1276.943481
 10
399.532349
 20
1276.717041
 10
400.486115
 20
1276.355103
 10
401.375183
 20
1275.87561
 10
402.190247
 20
1275.296997
 10
402.928619
 20
1274.635986
 10
403.590912
 20
1273.906128
 10
404.178833
 20
1273.118774
 10
404.694397
 20
1272.281982
 10
405.139648
 20
1271.402344
 10
405.516632
 20
1270.486084
 10
405.826569
 20
1269.53833
 10
406.069977
 20
1268.563721
 10
406.24704
 20
1267.567749
 10
406.357666
 20
1266.556274
 10
406.401794
 20
1265.516724
  0
LINE
  5
62
330
48
100
AcDbEntity
  8
0
  6
Continuous
 62
     0
370
     0
100
AcDbLine
 10
406.401755
 20
1265.51674
 30
0.0
 11
406.401755
 21
1215.874435
 31
0.0
  0
LINE
  5
63
330
48
100
AcDbEntity
  8
0
  6
Continuous
 62
     0
370
     0
100
AcDbLine
 10
406.401755
 20
1215.874435
 30
0.0
 11
407.501026
 21
1215.874435
 31
0.0
  0
LINE
  5
64
330
48
100
AcDbEntity
  8
0
  6
Continuous
 62
     0
370
     0
100
AcDbLine
 10
407.501026
 20
1215.874435
 30
0.0
 11
407.501026
 21
1265.521699
 31
0.0
  0
LWPOLYLINE
  5
65
330
48
100
AcDbEntity
  8
0
  6
Continuous
 62
     0
370
     0
100
AcDbPolyline
 90
       17
 70
     0
 43
0.0
 10
397.495148
 20
1277.02063
 10
396.456116
 20
1276.941895
 10
395.439453
 20
1276.710938
 10
394.477936
 20
1276.343262
 10
393.587189
 20
1275.857788
 10
392.772064
 20
1275.274048
 10
392.034576
 20
1274.608276
 10
391.373444
 20
1273.873779
 10
390.786926
 20
1273.081421
 10
390.272614
 20
1272.238525
 10
389.828094
 20
1271.35144
 10
389.451996
 20
1270.425293
 10
389.143341
 20
1269.464355
 10
388.902008
 20
1268.473633
 10
388.728546
 20
1267.457642
 10
388.623718
 20
1266.423828
 10
388.588501
 20
1265.375244
  0
LINE
  5
66
330
48
100
AcDbEntity
  8
0
  6
Continuous
 62
     0
370
     0
100
AcDbLine
 10
388.588512
 20
1265.375261
 30
0.0
 11
390.171436
 21
1265.375261
 31
0.0
  0
LWPOLYLINE
  5
67
330
48
100
AcDbEntity
  8
0
  6
Continuous
 62
     0
370
    30
100
AcDbPolyline
 90
       14
 70
     0
 43
0.0
 10
390.171448
 20
1265.375244
 10
390.311066
 20
1266.264771
 10
390.523193
 20
1267.14624
 10
390.808228
 20
1268.008423
 10
391.166138
 20
1268.841919
 10
391.596619
 20
1269.637329
 10
392.099213
 20
1270.385132
 10
392.673431
 20
1271.075317
 10
393.318573
 20
1271.69751
 10
394.03244
 20
1272.239624
 10
394.811218
 20
1272.687866
 10
395.647491
 20
1273.026978
 10
396.529907
 20
1273.242065
 10
397.495148
 20
1273.322021
  0
LWPOLYLINE
  5
68
330
48
100
AcDbEntity
  8
0
  6
Continuous
 62
     0
370
    30
100
AcDbPolyline
 90
       14
 70
     0
 43
0.0
 10
397.495148
 20
1273.322021
 10
398.389313
 20
1273.25354
 10
399.26416
 20
1273.052124
 10
400.095459
 20
1272.728394
 10
400.871613
 20
1272.296631
 10
401.585083
 20
1271.771484
 10
402.231781
 20
1271.166504
 10
402.809357
 20
1270.493652
 10
403.317139
 20
1269.763062
 10
403.754608
 20
1268.984375
 10
404.121246
 20
1268.166992
 10
404.416809
 20
1267.319824
 10
404.641205
 20
1266.451782
 10
404.803833
 20
1265.50354
  0
LINE
  5
69
330
48
100
AcDbEntity
  8
0
  6
Continuous
 62
     0
370
     0
100
AcDbLine
 10
404.803822
 20
1265.50354
 30
0.0
 11
406.401787
 21
1265.51674
 31
0.0
  0
LINE
  5
6A
330
48
100
AcDbEntity
  8
0
  6
Continuous
 62
     0
370
     0
100
AcDbLine
 10
388.588485
 20
1215.738789
 30
0.0
 11
390.127794
 21
1215.751116
 31
0.0
  0
ARC
  5
6B
330
48
100
AcDbEntity
  8
0
  6
Continuous
 62
     0
370
    30
100
AcDbCircle
 10
603.678456
 20
1240.375399
 30
0.0
 40
214.965672789167
100
AcDbArc
 50
173.321561
 51
186.577661
  0
LWPOLYLINE
  5
6C
330
48
100
AcDbEntity
  8
0
  6
Continuous
 62
     0
370
     0
100
AcDbPolyline
 90
       17
 70
     0
 43
0.0
 10
397.495117
 20
1204.229126
 10
398.534149
 20
1204.307861
 10
399.550812
 20
1204.538818
 10
400.512329
 20
1204.906372
 10
401.403076
 20
1205.391846
 10
402.218201
 20
1205.975708
 10
402.955688
 20
1206.641357
 10
403.616821
 20
1207.375977
 10
404.203339
 20
1208.168335
 10
404.717651
 20
1209.01123
 10
405.16217
 20
1209.898193
 10
405.538269
 20
1210.824463
 10
405.846924
 20
1211.785278
 10
406.088257
 20
1212.776123
 10
406.261719
 20
1213.791992
 10
406.366547
 20
1214.825928
 10
406.401764
 20
1215.87439
  0
LINE
  5
6D
330
48
100
AcDbEntity
  8
0
  6
Continuous
 62
     0
370
     0
100
AcDbLine
 10
406.401755
 20
1215.874435
 30
0.0
 11
404.876605
 21
1215.874435
 31
0.0
  0
LWPOLYLINE
  5
6E
330
48
100
AcDbEntity
  8
0
  6
Continuous
 62
     0
370
    30
100
AcDbPolyline
 90
       14
 70
     0
 43
0.0
 10
404.876617
 20
1215.87439
 10
404.737518
 20
1214.975464
 10
404.524872
 20
1214.084595
 10
404.238373
 20
1213.213379
 10
403.878113
 20
1212.371216
 10
403.444336
 20
1211.567627
 10
402.9375
 20
1210.812134
 10
402.358246
 20
1210.11499
 10
401.707184
 20
1209.486328
 10
400.986542
 20
1208.938721
 10
400.200104
 20
1208.486328
 10
399.355408
 20
1208.144043
 10
398.464081
 20
1207.927368
 10
397.495148
 20
1207.847412
  0
LWPOLYLINE
  5
6F
330
48
100
AcDbEntity
  8
0
  6
Continuous
 62
     0
370
    30
100
AcDbPolyline
 90
       14
 70
     0
 43
0.0
 10
397.495148
 20
1207.847412
 10
396.591553
 20
1207.916748
 10
395.707672
 20
1208.120728
 10
394.86795
 20
1208.448608
 10
394.084229
 20
1208.88562
 10
393.364136
 20
1209.417114
 10
392.711731
 20
1210.029297
 10
392.129395
 20
1210.709961
 10
391.617859
 20
1211.449097
 10
391.177582
 20
1212.236694
 10
390.809052
 20
1213.063477
 10
390.512604
 20
1213.920288
 10
390.288361
 20
1214.798218
 10
390.127808
 20
1215.751099
  0
ARC
  5
70
330
48
100
AcDbEntity
  8
0
  6
Continuous
 62
     0
370
    30
100
AcDbCircle
 10
190.766381
 20
1240.344626
 30
0.0
 40
215.5110194877391
100
AcDbArc
 50
359.974103
 51
6.704038
  0
ARC
  5
71
330
48
100
AcDbEntity
  8
0
  6
Continuous
 62
     0
370
    30
100
AcDbCircle
 10
190.833223
 20
1240.402767
 30
0.0
 40
215.4442122734967
100
AcDbArc
 50
353.462699
 51
359.958633
  0
LWPOLYLINE
  5
72
330
48
100
AcDbEntity
  8
0
  6
Continuous
 62
     0
370
     0
100
AcDbPolyline
 90
       18
 70
     0
 43
0.0
 10
397.495148
 20
1203.630127
 10
398.577972
 20
1203.70166
 10
399.635376
 20
1203.911621
 10
400.645508
 20
1204.249023
 10
401.594849
 20
1204.698486
 10
402.474274
 20
1205.244019
 10
403.279938
 20
1205.871216
 10
404.011688
 20
1206.567627
 10
404.670685
 20
1207.323486
 10
405.258484
 20
1208.130615
 10
405.776764
 20
1208.983032
 10
406.226929
 20
1209.875732
 10
406.609802
 20
1210.804199
 10
406.925171
 20
1211.763794
 10
407.172668
 20
1212.750122
 10
407.351776
 20
1213.758057
 10
407.461426
 20
1214.781372
 10
407.501038
 20
1215.87439
  0
LWPOLYLINE
  5
73
330
48
100
AcDbEntity
  8
0
  6
Continuous
 62
     0
370
     0
100
AcDbPolyline
 90
       18
 70
     0
 43
0.0
 10
397.495148
 20
1277.619629
 10
396.412292
 20
1277.548096
 10
395.354889
 20
1277.338135
 10
394.344757
 20
1277.000732
 10
393.395416
 20
1276.55127
 10
392.515961
 20
1276.005615
 10
391.710327
 20
1275.37854
 10
390.978577
 20
1274.682129
 10
390.31958
 20
1273.92627
 10
389.731781
 20
1273.119019
 10
389.213501
 20
1272.266602
 10
388.763336
 20
1271.374023
 10
388.380463
 20
1270.445557
 10
388.065094
 20
1269.48584
 10
387.817596
 20
1268.499512
 10
387.638489
 20
1267.491577
 10
387.528839
 20
1266.468384
 10
387.489227
 20
1265.375244
  0
LINE
  5
74
330
48
100
AcDbEntity
  8
0
  6
Continuous
 62
     0
370
     0
100
AcDbLine
 10
397.495133
 20
1207.847448
 30
0.0
 11
397.495133
 21
1273.322022
 31
0.0
  0
ARC
  5
75
330
48
100
AcDbEntity
  8
0
  6
Continuous
 62
     0
370
    30
100
AcDbCircle
 10
397.516877
 20
1054.278806
 30
0.0
 40
15.54916330677749
100
AcDbArc
 50
236.76646
 51
243.582606
  0
ARC
  5
76
330
48
100
AcDbEntity
  8
0
  6
Continuous
 62
     0
370
    30
100
AcDbCircle
 10
397.485354
 20
1054.257978
 30
0.0
 40
15.52514268062366
100
AcDbArc
 50
297.284934
 51
303.238764
  0
ARC
  5
77
330
48
100
AcDbEntity
  8
0
  6
Continuous
 62
     0
370
    30
100
AcDbCircle
 10
397.495133
 20
1054.234323
 30
0.0
 40
15.50000000000005
100
AcDbArc
 50
123.256431
 51
236.743569
  0
LWPOLYLINE
  5
78
330
48
100
AcDbEntity
  8
0
  6
Continuous
 62
     0
370
    30
100
AcDbPolyline
 90
       11
 70
     0
 43
0.0
 10
388.995148
 20
1041.272827
 10
388.961792
 20
1041.334351
 10
388.883331
 20
1041.481812
 10
388.784027
 20
1041.670166
 10
388.675995
 20
1041.87854
 10
388.563751
 20
1042.098267
 10
388.449951
 20
1042.325073
 10
388.336243
 20
1042.556641
 10
388.223297
 20
1042.79126
 10
388.111511
 20
1043.028076
 10
387.995148
 20
1043.279907
  0
ARC
  5
79
330
48
100
AcDbEntity
  8
0
  6
Continuous
 62
     0
370
     0
100
AcDbCircle
 10
397.495133
 20
1054.234323
 30
0.0
 40
14.50000000000005
100
AcDbArc
 50
130.932725
 51
229.067275
  0
LWPOLYLINE
  5
7A
330
48
100
AcDbEntity
  8
0
  6
Continuous
 62
     0
370
    30
100
AcDbPolyline
 90
       11
 70
     0
 43
0.0
 10
387.995148
 20
1065.188721
 10
388.105225
 20
1065.427124
 10
388.216949
 20
1065.664185
 10
388.329865
 20
1065.899048
 10
388.443665
 20
1066.130859
 10
388.557556
 20
1066.358032
 10
388.669952
 20
1066.578369
 10
388.77832
 20
1066.78772
 10
388.878143
 20
1066.976929
 10
388.958282
 20
1067.127319
 10
388.995148
 20
1067.195801
  0
LINE
  5
7B
330
48
100
AcDbEntity
  8
0
  6
Continuous
 62
     0
370
     0
100
AcDbLine
 10
387.995133
 20
1065.188774
 30
0.0
 11
387.995133
 21
1043.279872
 31
0.0
  0
LINE
  5
7C
330
48
100
AcDbEntity
  8
0
  6
Continuous
 62
     0
370
    30
100
AcDbLine
 10
388.995133
 20
1041.272841
 30
0.0
 11
388.995133
 21
1067.195804
 31
0.0
  0
ARC
  5
7D
330
48
100
AcDbEntity
  8
0
  6
Continuous
 62
     0
370
    30
100
AcDbCircle
 10
397.495133
 20
1054.234323
 30
0.0
 40
15.50000000000005
100
AcDbArc
 50
303.256431
 51
56.743569
  0
LWPOLYLINE
  5
7E
330
48
100
AcDbEntity
  8
0
  6
Continuous
 62
     0
370
    30
100
AcDbPolyline
 90
       11
 70
     0
 43
0.0
 10
405.995148
 20
1067.195801
 10
406.028473
 20
1067.134277
 10
406.106934
 20
1066.986816
 10
406.206238
 20
1066.798462
 10
406.31427
 20
1066.590088
 10
406.426514
 20
1066.370361
 10
406.540314
 20
1066.143555
 10
406.654022
 20
1065.912109
 10
406.766968
 20
1065.677368
 10
406.878754
 20
1065.440552
 10
406.995148
 20
1065.188721
  0
ARC
  5
7F
330
48
100
AcDbEntity
  8
0
  6
Continuous
 62
     0
370
     0
100
AcDbCircle
 10
397.495133
 20
1054.234323
 30
0.0
 40
14.50000000000005
100
AcDbArc
 50
310.932725
 51
49.067275
  0
LWPOLYLINE
  5
80
330
48
100
AcDbEntity
  8
0
  6
Continuous
 62
     0
370
    30
100
AcDbPolyline
 90
       11
 70
     0
 43
0.0
 10
406.995148
 20
1043.279907
 10
406.88504
 20
1043.041504
 10
406.773315
 20
1042.804443
 10
406.6604
 20
1042.56958
 10
406.5466
 20
1042.337769
 10
406.432739
 20
1042.110596
 10
406.320312
 20
1041.890259
 10
406.211945
 20
1041.680908
 10
406.112152
 20
1041.491699
 10
406.031982
 20
1041.341309
 10
405.995148
 20
1041.272827
  0
LINE
  5
81
330
48
100
AcDbEntity
  8
0
  6
Continuous
 62
     0
370
     0
100
AcDbLine
 10
406.995133
 20
1043.279872
 30
0.0
 11
406.995133
 21
1065.188774
 31
0.0
  0
LINE
  5
82
330
48
100
AcDbEntity
  8
0
  6
Continuous
 62
     0
370
    30
100
AcDbLine
 10
405.995133
 20
1067.195804
 30
0.0
 11
405.995133
 21
1041.272841
 31
0.0
  0
LINE
  5
83
330
48
100
AcDbEntity
  8
0
  6
Continuous
 62
     0
370
    30
100
AcDbLine
 10
268.352226
 20
1038.907036
 30
0.0
 11
268.352226
 21
1082.906503
 31
0.0
  0
LINE
  5
84
330
48
100
AcDbEntity
  8
0
  6
Continuous
 62
     0
370
    30
100
AcDbLine
 10
299.352226
 20
1039.407036
 30
0.0
 11
299.352226
 21
1082.406516
 31
0.0
  0
LINE
  5
85
330
48
100
AcDbEntity
  8
0
  6
Continuous
 62
     0
370
     0
100
AcDbLine
 10
298.852226
 20
1038.907036
 30
0.0
 11
298.852226
 21
1082.906503
 31
0.0
  0
ELLIPSE
  5
86
330
48
100
AcDbEntity
  8
0
  6
Continuous
 62
     0
370
    30
100
AcDbEllipse
 10
284.352227
 20
1148.904644
 30
0.0
 11
-6.5
 21
-1.785785198321050E-11
 31
0.0
210
0.0
220
0.0
230
1.0
 40
0.00743
 41
3.141592653588724
 42
6.283185307178517
  0
ELLIPSE
  5
87
330
48
100
AcDbEntity
  8
0
  6
Continuous
 62
     0
370
    30
100
AcDbEllipse
 10
284.352227
 20
1148.904644
 30
0.0
 11
-6.5
 21
-1.785785198321050E-11
 31
0.0
210
0.0
220
0.0
230
1.0
 40
0.00743
 41
6.283185307178517
 42
9.42477796076831
  0
LINE
  5
88
330
48
100
AcDbEntity
  8
0
  6
Continuous
 62
     0
370
    30
100
AcDbLine
 10
290.852227
 20
1148.904644
 30
0.0
 11
290.852227
 21
1087.906365
 31
0.0
  0
LWPOLYLINE
  5
89
330
48
100
AcDbEntity
  8
0
  6
Continuous
 62
     0
370
     0
100
AcDbPolyline
 90
       24
 70
     0
 43
0.0
 10
277.852234
 20
1087.906372
 10
277.914276
 20
1087.852905
 10
278.097656
 20
1087.711182
 10
278.397522
 20
1087.490356
 10
278.805847
 20
1087.206909
 10
279.313629
 20
1086.879639
 10
279.91156
 20
1086.531494
 10
280.59021
 20
1086.185913
 10
281.340027
 20
1085.866699
 10
282.149872
 20
1085.598267
 10
283.006317
 20
1085.403442
 10
283.892731
 20
1085.300415
 10
284.789734
 20
1085.299072
 10
285.676697
 20
1085.39978
 10
286.533966
 20
1085.592651
 10
287.345245
 20
1085.859375
 10
288.096649
 20
1086.177734
 10
288.777191
 20
1086.523315
 10
289.377228
 20
1086.871582
 10
289.887329
 20
1087.199219
 10
290.298157
 20
1087.484131
 10
290.6008
 20
1087.706665
 10
290.787231
 20
1087.850708
 10
290.852234
 20
1087.906372
  0
LWPOLYLINE
  5
8A
330
48
100
AcDbEntity
  8
0
  6
Continuous
 62
     0
370
     0
100
AcDbPolyline
 90
       29
 70
     0
 43
0.0
 10
272.852234
 20
1082.906494
 10
272.926605
 20
1082.872681
 10
273.14679
 20
1082.789551
 10
273.508453
 20
1082.661011
 10
274.005463
 20
1082.492554
 10
274.629059
 20
1082.292725
 10
275.370239
 20
1082.070557
 10
276.21991
 20
1081.835938
 10
277.168915
 20
1081.599609
 10
278.207916
 20
1081.372314
 10
279.326965
 20
1081.165405
 10
280.514679
 20
1080.989746
 10
281.757416
 20
1080.855469
 10
283.039001
 20
1080.770874
 10
284.340973
 20
1080.741577
 10
285.643097
 20
1080.769897
 10
286.925262
 20
1080.853516
 10
288.168762
 20
1080.987061
 10
289.357574
 20
1081.162109
 10
290.477875
 20
1081.36853
 10
291.518402
 20
1081.595581
 10
292.468994
 20
1081.831909
 10
293.320465
 20
1082.066528
 10
294.063599
 20
1082.289062
 10
294.68927
 20
1082.48938
 10
295.188477
 20
1082.658325
 10
295.552856
 20
1082.787964
 10
295.775482
 20
1082.871826
 10
295.852234
 20
1082.906494
  0
ARC
  5
8B
330
48
100
AcDbEntity
  8
0
  6
Continuous
 62
     0
370
    30
100
AcDbCircle
 10
295.852158
 20
1087.906434
 30
0.0
 40
4.999930986519839
100
AcDbArc
 50
180.000791
 51
270.000791
  0
ARC
  5
8C
330
48
100
AcDbEntity
  8
0
  6
Continuous
 62
     0
370
    30
100
AcDbCircle
 10
272.852296
 20
1087.906434
 30
0.0
 40
4.999930986520143
100
AcDbArc
 50
269.999209
 51
359.999209
  0
LINE
  5
8D
330
48
100
AcDbEntity
  8
0
  6
Continuous
 62
     0
370
    30
100
AcDbLine
 10
64.767448
 20
1039.715317
 30
0.0
 11
64.767448
 21
1030.905784
 31
0.0
  0
LINE
  5
8E
330
48
100
AcDbEntity
  8
0
  6
Continuous
 62
     0
370
    30
100
AcDbLine
 10
264.767448
 20
1039.715317
 30
0.0
 11
264.767448
 21
1030.905784
 31
0.0
  0
LINE
  5
8F
330
48
100
AcDbEntity
  8
0
  6
Continuous
 62
     0
370
     0
100
AcDbLine
 10
103.767448
 20
1039.715317
 30
0.0
 11
264.767448
 21
1039.715317
 31
0.0
  0
LINE
  5
90
330
48
100
AcDbEntity
  8
0
  6
Continuous
 62
     0
370
     0
100
AcDbLine
 10
64.767448
 20
1039.715317
 30
0.0
 11
83.767448
 21
1039.715317
 31
0.0
  0
LWPOLYLINE
  5
91
330
48
100
AcDbEntity
  8
0
  6
Continuous
 62
     0
370
    30
100
AcDbPolyline
 90
       10
 70
     0
 43
0.0
 10
175.267456
 20
1032.110962
 10
175.196243
 20
1032.236938
 10
174.983719
 20
1032.36731
 10
174.632812
 20
1032.5
 10
174.148315
 20
1032.63269
 10
173.536514
 20
1032.762695
 10
172.805344
 20
1032.887451
 10
171.96492
 20
1033.00415
 10
171.025925
 20
1033.110107
 10
169.937469
 20
1033.207764
  0
LWPOLYLINE
  5
92
330
48
100
AcDbEntity
  8
0
  6
Continuous
 62
     0
370
    30
100
AcDbPolyline
 90
       10
 70
     0
 43
0.0
 10
159.597427
 20
1033.207764
 10
158.567566
 20
1033.115967
 10
157.622986
 20
1033.010742
 10
156.776398
 20
1032.894653
 10
156.038589
 20
1032.770264
 10
155.419479
 20
1032.640503
 10
154.9272
 20
1032.507935
 10
154.568283
 20
1032.375244
 10
154.347366
 20
1032.244629
 10
154.267471
 20
1032.110962
  0
ARC
  5
93
330
48
100
AcDbEntity
  8
0
  6
Continuous
 62
     0
370
    30
100
AcDbCircle
 10
93.767448
 20
1060.907776
 30
0.0
 40
10.5
100
AcDbArc
 50
342.24721
 51
360.0
  0
ARC
  5
94
330
48
100
AcDbEntity
  8
0
  6
Continuous
 62
     0
370
    30
100
AcDbCircle
 10
93.767448
 20
1060.907776
 30
0.0
 40
10.5
100
AcDbArc
 50
180.0
 51
197.75279
  0
ARC
  5
95
330
48
100
AcDbEntity
  8
0
  6
Continuous
 62
     0
370
    30
100
AcDbCircle
 10
93.767448
 20
1060.907776
 30
0.0
 40
10.5
100
AcDbArc
 50
0.0
 51
180.0
  0
LINE
  5
96
330
48
100
AcDbEntity
  8
0
  6
Continuous
 62
     0
370
    30
100
AcDbLine
 10
64.767448
 20
1082.907776
 30
0.0
 11
64.767448
 21
1039.715317
 31
0.0
  0
LINE
  5
97
330
48
100
AcDbEntity
  8
0
  6
Continuous
 62
     0
370
    30
100
AcDbLine
 10
264.767448
 20
1082.907776
 30
0.0
 11
264.767448
 21
1039.715317
 31
0.0
  0
LWPOLYLINE
  5
98
330
48
100
AcDbEntity
  8
0
  6
Continuous
 62
     0
370
     0
100
AcDbPolyline
 90
       10
 70
     0
 43
0.0
 10
103.767448
 20
1051.258179
 10
104.836693
 20
1052.067017
 10
105.809601
 20
1052.956055
 10
106.67939
 20
1053.920776
 10
107.437859
 20
1054.9552
 10
108.076431
 20
1056.052856
 10
108.586449
 20
1057.205444
 10
108.959229
 20
1058.401978
 10
109.187614
 20
1059.629761
 10
109.267448
 20
1060.907837
  0
LWPOLYLINE
  5
99
330
48
100
AcDbEntity
  8
0
  6
Continuous
 62
     0
370
     0
100
AcDbPolyline
 90
       10
 70
     0
 43
0.0
 10
78.267555
 20
1060.907837
 10
78.342819
 20
1059.664062
 10
78.567184
 20
1058.436279
 10
78.935814
 20
1057.239014
 10
79.441811
 20
1056.085693
 10
80.076561
 20
1054.98645
 10
80.831169
 20
1053.950562
 10
81.697327
 20
1052.984253
 10
82.666924
 20
1052.09314
 10
83.767448
 20
1051.258179
  0
LWPOLYLINE
  5
9A
330
48
100
AcDbEntity
  8
0
  6
Continuous
 62
     0
370
     0
100
AcDbPolyline
 90
       33
 70
     0
 43
0.0
 10
109.267448
 20
1060.907837
 10
109.188942
 20
1062.174561
 10
108.95636
 20
1063.424805
 10
108.574265
 20
1064.642334
 10
108.049919
 20
1065.814087
 10
107.39267
 20
1066.928833
 10
106.611778
 20
1067.977173
 10
105.716171
 20
1068.952515
 10
104.714378
 20
1069.849121
 10
103.613472
 20
1070.661987
 10
102.420074
 20
1071.386475
 10
101.140533
 20
1072.016968
 10
99.781586
 20
1072.547974
 10
98.351982
 20
1072.97229
 10
96.863464
 20
1073.282837
 10
95.331932
 20
1073.472778
 10
93.777817
 20
1073.537354
 10
92.223297
 20
1073.474609
 10
90.691444
 20
1073.286133
 10
89.202271
 20
1072.977173
 10
87.771805
 20
1072.554321
 10
86.41185
 20
1072.024658
 10
85.131203
 20
1071.395386
 10
83.93663
 20
1070.672119
 10
82.834465
 20
1069.860352
 10
81.831306
 20
1068.964966
 10
80.934212
 20
1067.990479
 10
80.151733
 20
1066.943115
 10
79.492867
 20
1065.829346
 10
78.966728
 20
1064.658325
 10
78.582527
 20
1063.441162
 10
78.34774
 20
1062.191284
 10
78.267555
 20
1060.907837
  0
ARC
  5
9B
330
48
100
AcDbEntity
  8
0
  6
Continuous
 62
     0
370
    30
100
AcDbCircle
 10
93.767448
 20
1060.907776
 30
0.0
 40
10.49055535468639
100
AcDbArc
 50
342.409043
 51
90.0
  0
ARC
  5
9C
330
48
100
AcDbEntity
  8
0
  6
Continuous
 62
     0
370
    30
100
AcDbCircle
 10
93.767448
 20
1060.907776
 30
0.0
 40
10.49055535468639
100
AcDbArc
 50
90.0
 51
197.590957
  0
ARC
  5
9D
330
48
100
AcDbEntity
  8
0
  6
Continuous
 62
     0
370
    30
100
AcDbCircle
 10
93.767448
 20
1060.907776
 30
0.0
 40
10.15
100
AcDbArc
 50
350.137511
 51
90.0
  0
ARC
  5
9E
330
48
100
AcDbEntity
  8
0
  6
Continuous
 62
     0
370
    30
100
AcDbCircle
 10
93.767448
 20
1060.907776
 30
0.0
 40
10.15
100
AcDbArc
 50
90.0
 51
189.862489
  0
LINE
  5
9F
330
48
100
AcDbEntity
  8
0
  6
Continuous
 62
     0
370
    30
100
AcDbLine
 10
159.620497
 20
1100.327777
 30
0.0
 11
174.167449
 21
1100.327777
 31
0.0
  0
LINE
  5
A0
330
48
100
AcDbEntity
  8
0
  6
Continuous
 62
     0
370
    30
100
AcDbLine
 10
155.367449
 20
1100.327777
 30
0.0
 11
159.620497
 21
1100.327777
 31
0.0
  0
LINE
  5
A1
330
48
100
AcDbEntity
  8
0
  6
Continuous
 62
     0
370
     0
100
AcDbLine
 10
154.767449
 20
1099.727777
 30
0.0
 11
159.291968
 21
1099.727777
 31
0.0
  0
LINE
  5
A2
330
48
100
AcDbEntity
  8
0
  6
Continuous
 62
     0
370
     0
100
AcDbLine
 10
159.291968
 20
1099.727777
 30
0.0
 11
174.767449
 21
1099.727777
 31
0.0
  0
LINE
  5
A3
330
48
100
AcDbEntity
  8
0
  6
Continuous
 62
     0
370
    30
100
AcDbLine
 10
159.597421
 20
1033.207776
 30
0.0
 11
169.937476
 21
1033.207776
 31
0.0
  0
LINE
  5
A4
330
48
100
AcDbEntity
  8
0
  6
Continuous
 62
     0
370
    30
100
AcDbLine
 10
175.267448
 20
1032.111022
 30
0.0
 11
175.267448
 21
1028.575811
 31
0.0
  0
ARC
  5
A5
330
48
100
AcDbEntity
  8
0
  6
Continuous
 62
     0
370
    30
100
AcDbCircle
 10
93.767448
 20
1060.907777
 30
0.0
 40
10.0
100
AcDbArc
 50
0.0
 51
180.0
  0
LINE
  5
A6
330
48
100
AcDbEntity
  8
0
  6
Continuous
 62
     0
370
    30
100
AcDbLine
 10
83.767448
 20
1060.907777
 30
0.0
 11
83.767448
 21
1047.907777
 31
0.0
  0
ELLIPSE
  5
A7
330
48
100
AcDbEntity
  8
0
  6
Continuous
 62
     0
370
     0
100
AcDbEllipse
 10
93.767448
 20
1047.907777
 30
0.0
 11
-10.0
 21
0.0
 31
0.0
210
0.0
220
0.0
230
-1.0
 40
0.5
 41
0.0000000000000004
 42
3.141592653589794
  0
LINE
  5
A8
330
48
100
AcDbEntity
  8
0
  6
Continuous
 62
     0
370
    30
100
AcDbLine
 10
83.767448
 20
1047.907777
 30
0.0
 11
83.767448
 21
1030.587269
 31
0.0
  0
ELLIPSE
  5
A9
330
48
100
AcDbEntity
  8
0
  6
Continuous
 62
     0
370
    30
100
AcDbEllipse
 10
93.767448
 20
1030.587269
 30
0.0
 11
-10.0
 21
0.0
 31
0.0
210
0.0
220
0.0
230
-1.0
 40
0.5
 41
0.000000000000005
 42
3.141592653589793
  0
ELLIPSE
  5
AA
330
48
100
AcDbEntity
  8
0
  6
Continuous
 62
     0
370
    30
100
AcDbEllipse
 10
93.767448
 20
1030.587269
 30
0.0
 11
-10.0
 21
0.0
 31
0.0
210
0.0
220
0.0
230
-1.0
 40
0.5
 41
3.141592653589793
 42
6.283185307179586
  0
ELLIPSE
  5
AB
330
48
100
AcDbEntity
  8
0
  6
Continuous
 62
     0
370
    30
100
AcDbEllipse
 10
93.767448
 20
1030.587269
 30
0.0
 11
7.5
 21
0.0
 31
0.0
210
0.0
220
0.0
230
1.0
 40
0.5
 41
3.141592653589793
 42
6.283185307179585
  0
ELLIPSE
  5
AC
330
48
100
AcDbEntity
  8
0
  6
Continuous
 62
     0
370
    30
100
AcDbEllipse
 10
93.767448
 20
1030.587269
 30
0.0
 11
7.5
 21
0.0
 31
0.0
210
0.0
220
0.0
230
1.0
 40
0.5
 41
6.283185307179585
 42
9.42477796076938
  0
LINE
  5
AD
330
48
100
AcDbEntity
  8
0
  6
Continuous
 62
     0
370
    30
100
AcDbLine
 10
159.868642
 20
998.575811
 30
0.0
 11
174.667448
 21
998.575811
 31
0.0
  0
LINE
  5
AE
330
48
100
AcDbEntity
  8
0
  6
Continuous
 62
     0
370
    30
100
AcDbLine
 10
154.867448
 20
998.575811
 30
0.0
 11
159.868642
 21
998.575811
 31
0.0
  0
LINE
  5
AF
330
48
100
AcDbEntity
  8
0
  6
Continuous
 62
     0
370
    30
100
AcDbLine
 10
153.317448
 20
1028.575811
 30
0.0
 11
159.101657
 21
1028.575811
 31
0.0
  0
LINE
  5
B0
330
48
100
AcDbEntity
  8
0
  6
Continuous
 62
     0
370
    30
100
AcDbLine
 10
159.101657
 20
1028.575811
 30
0.0
 11
176.217448
 21
1028.575811
 31
0.0
  0
LINE
  5
B1
330
48
100
AcDbEntity
  8
0
  6
Continuous
 62
     0
370
    30
100
AcDbLine
 10
176.217448
 20
1028.575811
 30
0.0
 11
174.667448
 21
998.575811
 31
0.0
  0
LINE
  5
B2
330
48
100
AcDbEntity
  8
0
  6
Continuous
 62
     0
370
    30
100
AcDbLine
 10
153.317448
 20
1028.575811
 30
0.0
 11
154.867448
 21
998.575811
 31
0.0
  0
LINE
  5
B3
330
48
100
AcDbEntity
  8
0
  6
Continuous
 62
     0
370
    30
100
AcDbLine
 10
103.767448
 20
1030.587269
 30
0.0
 11
103.767448
 21
1047.907777
 31
0.0
  0
LINE
  5
B4
330
48
100
AcDbEntity
  8
0
  6
Continuous
 62
     0
370
    30
100
AcDbLine
 10
103.767448
 20
1047.907777
 30
0.0
 11
103.767448
 21
1060.907777
 31
0.0
  0
LINE
  5
B5
330
48
100
AcDbEntity
  8
0
  6
Continuous
 62
     0
370
    30
100
AcDbLine
 10
154.267448
 20
1028.575811
 30
0.0
 11
154.267448
 21
1032.111052
 31
0.0
  0
ARC
  5
B6
330
48
100
AcDbEntity
  8
0
  6
Continuous
 62
     0
370
    30
100
AcDbCircle
 10
155.36745
 20
1099.727777
 30
0.0
 40
0.5999999784099981
100
AcDbArc
 50
90.000002
 51
180.000004
  0
ARC
  5
B7
330
48
100
AcDbEntity
  8
0
  6
Continuous
 62
     0
370
    30
100
AcDbCircle
 10
174.167447
 20
1099.727777
 30
0.0
 40
0.5999999735372926
100
AcDbArc
 50
359.999995
 51
89.999997
  0
LINE
  5
B8
330
48
100
AcDbEntity
  8
0
  6
Continuous
 62
     0
370
    30
100
AcDbLine
 10
174.767449
 20
1082.907776
 30
0.0
 11
174.767449
 21
1099.727777
 31
0.0
  0
LINE
  5
B9
330
48
100
AcDbEntity
  8
0
  6
Continuous
 62
     0
370
    30
100
AcDbLine
 10
154.767449
 20
1082.907776
 30
0.0
 11
154.767449
 21
1099.727777
 31
0.0
  0
LINE
  5
BA
330
48
100
AcDbEntity
  8
0
  6
Continuous
 62
     0
370
    30
100
AcDbLine
 10
64.767448
 20
1082.907776
 30
0.0
 11
264.767448
 21
1082.907776
 31
0.0
  0
LINE
  5
BB
330
48
100
AcDbEntity
  8
0
  6
Continuous
 62
     0
370
    30
100
AcDbLine
 10
175.267448
 20
1030.905784
 30
0.0
 11
264.767448
 21
1030.905784
 31
0.0
  0
LINE
  5
BC
330
48
100
AcDbEntity
  8
0
  6
Continuous
 62
     0
370
    30
100
AcDbLine
 10
103.767448
 20
1030.905784
 30
0.0
 11
154.267448
 21
1030.905784
 31
0.0
  0
LINE
  5
BD
330
48
100
AcDbEntity
  8
0
  6
Continuous
 62
     0
370
    30
100
AcDbLine
 10
64.767448
 20
1030.905784
 30
0.0
 11
83.767448
 21
1030.905784
 31
0.0
  0
ARC
  5
BE
330
48
100
AcDbEntity
  8
0
  6
Continuous
 62
     0
370
    30
100
AcDbCircle
 10
263.242942
 20
1060.914125
 30
0.0
 40
20.5004149749397
100
AcDbArc
 50
75.567745
 51
85.735279
  0
ARC
  5
BF
330
48
100
AcDbEntity
  8
0
  6
Continuous
 62
     0
370
    30
100
AcDbCircle
 10
263.242929
 20
1060.901505
 30
0.0
 40
20.5004927739187
100
AcDbArc
 50
274.264741
 51
284.43223
  0
LINE
  5
C0
330
48
100
AcDbEntity
  8
0
  6
Continuous
 62
     0
370
    30
100
AcDbLine
 10
298.852226
 20
1082.90711
 30
0.0
 11
295.852227
 21
1082.90711
 31
0.0
  0
LINE
  5
C1
330
48
100
AcDbEntity
  8
0
  6
Continuous
 62
     0
370
    30
100
AcDbLine
 10
272.852227
 20
1082.90711
 30
0.0
 11
268.352226
 21
1082.90711
 31
0.0
  0
LINE
  5
C2
330
48
100
AcDbEntity
  8
0
  6
Continuous
 62
     0
370
    30
100
AcDbLine
 10
298.852226
 20
1038.907036
 30
0.0
 11
268.352226
 21
1038.907036
 31
0.0
  0
LINE
  5
C3
330
48
100
AcDbEntity
  8
0
  6
Continuous
 62
     0
370
    30
100
AcDbLine
 10
277.852227
 20
1087.906365
 30
0.0
 11
277.852227
 21
1148.904644
 31
0.0
  0
ARC
  5
C4
330
48
100
AcDbEntity
  8
0
  6
Continuous
 62
     0
370
    30
100
AcDbCircle
 10
298.852211
 20
1082.407095
 30
0.0
 40
0.5000150271632582
100
AcDbArc
 50
0.001722
 51
89.998278
  0
ARC
  5
C5
330
48
100
AcDbEntity
  8
0
  6
Continuous
 62
     0
370
    30
100
AcDbCircle
 10
298.852211
 20
1039.407051
 30
0.0
 40
0.5000150271645043
100
AcDbArc
 50
270.001722
 51
359.998278
  0
LWPOLYLINE
  5
C6
330
48
100
AcDbEntity
  8
0
  6
Continuous
 62
     0
370
    30
100
AcDbPolyline
 90
      121
 70
     0
 43
0.0
 10
171.737564
 20
998.575806
 10
171.63237
 20
994.94519
 10
171.524048
 20
991.314636
 10
171.412277
 20
987.684204
 10
171.296692
 20
984.053894
 10
171.176971
 20
980.423767
 10
171.05275
 20
976.793701
 10
170.923691
 20
973.163879
 10
170.789429
 20
969.53418
 10
170.649612
 20
965.904724
 10
170.50386
 20
962.275513
 10
170.351776
 20
958.646545
 10
170.19313
 20
955.017883
 10
170.027817
 20
951.389465
 10
169.855728
 20
947.761414
 10
169.676804
 20
944.133667
 10
169.491135
 20
940.506287
 10
169.299255
 20
936.879211
 10
169.101746
 20
933.252441
 10
168.899124
 20
929.625916
 10
168.692245
 20
925.999695
 10
168.482559
 20
922.373596
 10
168.271622
 20
918.747559
 10
168.060959
 20
915.121521
 10
167.85231
 20
911.495361
 10
167.647949
 20
907.869019
 10
167.450241
 20
904.242249
 10
167.26181
 20
900.61499
 10
167.085464
 20
896.987122
 10
166.92395
 20
893.358521
 10
166.780075
 20
889.729248
 10
166.656647
 20
886.099182
 10
166.556519
 20
882.468384
 10
166.482513
 20
878.837036
 10
166.437393
 20
875.2052
 10
166.423706
 20
871.57312
 10
166.443939
 20
867.94104
 10
166.50058
 20
864.309265
 10
166.595901
 20
860.678284
 10
166.731934
 20
857.048706
 10
166.91066
 20
853.421021
 10
167.134079
 20
849.795837
 10
167.404205
 20
846.173828
 10
167.722809
 20
842.555725
 10
168.091568
 20
838.942383
 10
168.512146
 20
835.334595
 10
168.986145
 20
831.733398
 10
169.515106
 20
828.139954
 10
170.100571
 20
824.555359
 10
170.744049
 20
820.980835
 10
171.447113
 20
817.41748
 10
172.211243
 20
813.866699
 10
173.037918
 20
810.329895
 10
173.928574
 20
806.808716
 10
174.884689
 20
803.304688
 10
175.9077
 20
799.81958
 10
176.999039
 20
796.355347
 10
178.160156
 20
792.913879
 10
179.392456
 20
789.497192
 10
180.69722
 20
786.107544
 10
182.075775
 20
782.747314
 10
183.529358
 20
779.418762
 10
185.059143
 20
776.124573
 10
186.666168
 20
772.867371
 10
188.351471
 20
769.649902
 10
190.115814
 20
766.475159
 10
191.959839
 20
763.346069
 10
193.884155
 20
760.265747
 10
195.889175
 20
757.237183
 10
197.974823
 20
754.263672
 10
200.140945
 20
751.348328
 10
202.387375
 20
748.494385
 10
204.713577
 20
745.704956
 10
207.118561
 20
742.983276
 10
209.601364
 20
740.332397
 10
212.160904
 20
737.755493
 10
214.795624
 20
735.255493
 10
217.503769
 20
732.835327
 10
220.28363
 20
730.497864
 10
223.133331
 20
728.246033
 10
226.050583
 20
726.082397
 10
229.03302
 20
724.009583
 10
232.078262
 20
722.030273
 10
235.183868
 20
720.146973
 10
238.347061
 20
718.362122
 10
241.565033
 20
716.67804
 10
244.834915
 20
715.097229
 10
248.153793
 20
713.621887
 10
251.518478
 20
712.254272
 10
254.925812
 20
710.996765
 10
258.372528
 20
709.851562
 10
261.855194
 20
708.820862
 10
265.370331
 20
707.907043
 10
268.914337
 20
707.112244
 10
272.483398
 20
706.438843
 10
276.073486
 20
705.88916
 10
279.680603
 20
705.465637
 10
283.300598
 20
705.170593
 10
286.928833
 20
705.006409
 10
290.560638
 20
704.975403
 10
294.191101
 20
705.080017
 10
297.814911
 20
705.322327
 10
301.426636
 20
705.704773
 10
305.02066
 20
706.229126
 10
308.590698
 20
706.896912
 10
312.130402
 20
707.709412
 10
315.633423
 20
708.667908
 10
319.093109
 20
709.77301
 10
322.502563
 20
711.024597
 10
325.854889
 20
712.421936
 10
329.143402
 20
713.96344
 10
332.36145
 20
715.646973
 10
335.502777
 20
717.469727
 10
338.561707
 20
719.427673
 10
341.532776
 20
721.516602
 10
344.411469
 20
723.731079
 10
347.193634
 20
726.06543
 10
349.876343
 20
728.513428
 10
352.457672
 20
731.068542
 10
354.93576
 20
733.72406
 10
357.323395
 20
736.489075
  0
LWPOLYLINE
  5
C7
330
48
100
AcDbEntity
  8
0
  6
Continuous
 62
     0
370
    30
100
AcDbPolyline
 90
      203
 70
     0
 43
0.0
 10
157.731842
 20
998.575806
 10
157.617462
 20
994.645386
 10
157.499329
 20
990.715088
 10
157.377029
 20
986.784912
 10
157.250092
 20
982.854919
 10
157.118088
 20
978.925049
 10
156.98056
 20
974.995361
 10
156.837067
 20
971.065918
 10
156.687134
 20
967.136719
 10
156.530273
 20
963.207764
 10
156.366028
 20
959.279114
 10
156.194031
 20
955.35083
 10
156.014145
 20
951.422852
 10
155.826248
 20
947.4953
 10
155.63028
 20
943.568115
 10
155.426544
 20
939.641296
 10
155.215759
 20
935.714905
 10
154.998703
 20
931.788818
 10
154.776169
 20
927.863037
 10
154.549789
 20
923.9375
 10
154.321518
 20
920.012024
 10
154.093384
 20
916.086609
 10
153.867523
 20
912.161011
 10
153.646744
 20
908.235168
 10
153.434067
 20
904.308838
 10
153.232742
 20
900.381897
 10
153.046158
 20
896.454285
 10
152.877716
 20
892.525757
 10
152.730774
 20
888.596436
 10
152.608704
 20
884.66626
 10
152.514862
 20
880.735352
 10
152.45256
 20
876.803772
 10
152.424789
 20
872.871826
 10
152.434448
 20
868.939819
 10
152.484406
 20
865.007996
 10
152.577286
 20
861.076965
 10
152.715363
 20
857.147278
 10
152.900894
 20
853.219666
 10
153.136124
 20
849.2948
 10
153.423294
 20
845.373291
 10
153.764343
 20
841.456055
 10
154.161057
 20
837.544067
 10
154.61528
 20
833.638245
 10
155.128693
 20
829.739868
 10
155.702942
 20
825.849976
 10
156.339691
 20
821.96991
 10
157.040573
 20
818.10083
 10
157.807175
 20
814.244141
 10
158.641037
 20
810.401489
 10
159.543655
 20
806.574524
 10
160.516525
 20
802.764832
 10
161.561172
 20
798.974243
 10
162.679031
 20
795.204468
 10
163.871536
 20
791.457642
 10
165.14006
 20
787.73584
 10
166.485977
 20
784.041321
 10
167.910568
 20
780.376404
 10
169.41507
 20
776.743713
 10
171.000702
 20
773.14563
 10
172.668564
 20
769.584839
 10
174.419556
 20
766.06427
 10
176.254562
 20
762.586792
 10
178.174393
 20
759.155334
 10
180.179443
 20
755.772949
 10
182.27002
 20
752.442871
 10
184.446411
 20
749.168152
 10
186.708542
 20
745.952087
 10
189.055969
 20
742.797729
 10
191.488235
 20
739.708374
 10
194.004776
 20
736.687256
 10
196.604553
 20
733.737427
 10
199.286346
 20
730.862
 10
202.04895
 20
728.064087
 10
204.890869
 20
725.346741
 10
207.810242
 20
722.712891
 10
210.805191
 20
720.165283
 10
213.873795
 20
717.706909
 10
217.013885
 20
715.340454
 10
220.222992
 20
713.068481
 10
223.498642
 20
710.893616
 10
226.838364
 20
708.818481
 10
230.23941
 20
706.845398
 10
233.698898
 20
704.976685
 10
237.213913
 20
703.214722
 10
240.781509
 20
701.561768
 10
244.39856
 20
700.02002
 10
248.061813
 20
698.591614
 10
251.768066
 20
697.278687
 10
255.513931
 20
696.083435
 10
259.295868
 20
695.007996
 10
263.110413
 20
694.054443
 10
266.953888
 20
693.225037
 10
270.822357
 20
692.521851
 10
274.711975
 20
691.947021
 10
278.618713
 20
691.502625
 10
282.538208
 20
691.190857
 10
286.466095
 20
691.013794
 10
290.397827
 20
690.973511
 10
294.32843
 20
691.071899
 10
298.252991
 20
691.310974
 10
302.166351
 20
691.692444
 10
306.062927
 20
692.217896
 10
309.937103
 20
692.888611
 10
313.783112
 20
693.705811
 10
317.594818
 20
694.670166
 10
321.366089
 20
695.782166
 10
325.090668
 20
697.041992
 10
328.762146
 20
698.448853
 10
332.374176
 20
700.002014
 10
335.920624
 20
701.699585
 10
339.395569
 20
703.539124
 10
342.793152
 20
705.517822
 10
346.107971
 20
707.632385
 10
349.335022
 20
709.878601
 10
352.469757
 20
712.251892
 10
355.508392
 20
714.74707
 10
358.447418
 20
717.358887
 10
361.284149
 20
720.081482
 10
364.016571
 20
722.908691
 10
366.64328
 20
725.834412
 10
369.163788
 20
728.852234
 10
371.57785
 20
731.955688
 10
373.8862
 20
735.138611
 10
376.089874
 20
738.39502
 10
378.190216
 20
741.718933
 10
380.18924
 20
745.104736
 10
382.089111
 20
748.547058
 10
383.892456
 20
752.040955
 10
385.602142
 20
755.581787
 10
387.220978
 20
759.164978
 10
388.752014
 20
762.786499
 10
390.198456
 20
766.442627
 10
391.563538
 20
770.129822
 10
392.850403
 20
773.845032
 10
394.062286
 20
777.585327
 10
395.202362
 20
781.348022
 10
396.273682
 20
785.130859
 10
397.279327
 20
788.931641
 10
398.222198
 20
792.748352
 10
399.105164
 20
796.579285
 10
399.931061
 20
800.422852
 10
400.702454
 20
804.277588
 10
401.421936
 20
808.142273
 10
402.09201
 20
812.015686
 10
402.715088
 20
815.89679
 10
403.293304
 20
819.784668
 10
403.828857
 20
823.678528
 10
404.323914
 20
827.577637
 10
404.780487
 20
831.481201
 10
405.200409
 20
835.388611
 10
405.585449
 20
839.2995
 10
405.937408
 20
843.213318
 10
406.257996
 20
847.129517
 10
406.548767
 20
851.047852
 10
406.811157
 20
854.967896
 10
407.046631
 20
858.889404
 10
407.256653
 20
862.812073
 10
407.442444
 20
866.735657
 10
407.605316
 20
870.659973
 10
407.746521
 20
874.584778
 10
407.867157
 20
878.509888
 10
407.968353
 20
882.435181
 10
408.051025
 20
886.360596
 10
408.116272
 20
890.286011
 10
408.165039
 20
894.211182
 10
408.198364
 20
898.136108
 10
408.217133
 20
902.06073
 10
408.222137
 20
905.984863
 10
408.214172
 20
909.90863
 10
408.194061
 20
913.831787
 10
408.162567
 20
917.754395
 10
408.120483
 20
921.676392
 10
408.068512
 20
925.597717
 10
408.007294
 20
929.518372
 10
407.937347
 20
933.438293
 10
407.859375
 20
937.357483
 10
407.773926
 20
941.27594
 10
407.68161
 20
945.193665
 10
407.583069
 20
949.110596
 10
407.478882
 20
953.026672
 10
407.369598
 20
956.941956
 10
407.255707
 20
960.856384
 10
407.137604
 20
964.77002
 10
407.015808
 20
968.682739
 10
406.890747
 20
972.594666
 10
406.762878
 20
976.505737
 10
406.63266
 20
980.415955
 10
406.500519
 20
984.325256
 10
406.366852
 20
988.233704
 10
406.231995
 20
992.141296
 10
406.096375
 20
996.047974
 10
405.960327
 20
999.953796
 10
405.824188
 20
1003.858643
 10
405.688324
 20
1007.762634
 10
405.55307
 20
1011.66571
 10
405.418732
 20
1015.567871
 10
405.285645
 20
1019.469116
 10
405.154083
 20
1023.369385
 10
405.024323
 20
1027.268677
 10
404.896667
 20
1031.167114
 10
404.771454
 20
1035.064453
 10
404.648865
 20
1038.960815
 10
404.528534
 20
1042.874878
  0
LWPOLYLINE
  5
C8
330
48
100
AcDbEntity
  8
0
  6
Continuous
 62
     0
370
    30
100
AcDbPolyline
 90
       77
 70
     0
 43
0.0
 10
357.323456
 20
736.489136
 10
359.900269
 20
739.724976
 10
362.343964
 20
743.062988
 10
364.656219
 20
746.493042
 10
366.840332
 20
750.006287
 10
368.89978
 20
753.593933
 10
370.838654
 20
757.248047
 10
372.661591
 20
760.961426
 10
374.373322
 20
764.727478
 10
375.978668
 20
768.539795
 10
377.482452
 20
772.393188
 10
378.889526
 20
776.283325
 10
380.204742
 20
780.205505
 10
381.432922
 20
784.155518
 10
382.57843
 20
788.130127
 10
383.64563
 20
792.126465
 10
384.638824
 20
796.141724
 10
385.561981
 20
800.173462
 10
386.418762
 20
804.219849
 10
387.212982
 20
808.27887
 10
387.94809
 20
812.348694
 10
388.627228
 20
816.428162
 10
389.253418
 20
820.51593
 10
389.829651
 20
824.610962
 10
390.358826
 20
828.711975
 10
390.843445
 20
832.818359
 10
391.285858
 20
836.92926
 10
391.688507
 20
841.044006
 10
392.053741
 20
845.161987
 10
392.383514
 20
849.282654
 10
392.679718
 20
853.405579
 10
392.944183
 20
857.530457
 10
393.178833
 20
861.656799
 10
393.385437
 20
865.784302
 10
393.565613
 20
869.912598
 10
393.720764
 20
874.041626
 10
393.852234
 20
878.171082
 10
393.961426
 20
882.300781
 10
394.049713
 20
886.430603
 10
394.1185
 20
890.560364
 10
394.168884
 20
894.68988
 10
394.201965
 20
898.819092
 10
394.218811
 20
902.947937
 10
394.22049
 20
907.076294
 10
394.207947
 20
911.204102
 10
394.182129
 20
915.33136
 10
394.143951
 20
919.457886
 10
394.094391
 20
923.58374
 10
394.03421
 20
927.708862
 10
393.964111
 20
931.83313
 10
393.884827
 20
935.956665
 10
393.797028
 20
940.079346
 10
393.701447
 20
944.201233
 10
393.598755
 20
948.322205
 10
393.489716
 20
952.442322
 10
393.374939
 20
956.561523
 10
393.255096
 20
960.67981
 10
393.130615
 20
964.79718
 10
393.002075
 20
968.913574
 10
392.869995
 20
973.029114
 10
392.734863
 20
977.143677
 10
392.597229
 20
981.257263
 10
392.457581
 20
985.369934
 10
392.316376
 20
989.481628
 10
392.174042
 20
993.592407
 10
392.031006
 20
997.702148
 10
391.887695
 20
1001.810974
 10
391.744537
 20
1005.918762
 10
391.601898
 20
1010.025574
 10
391.460175
 20
1014.131409
 10
391.319733
 20
1018.236206
 10
391.180939
 20
1022.340027
 10
391.044098
 20
1026.442749
 10
390.909546
 20
1030.544556
 10
390.777679
 20
1034.645142
 10
390.648773
 20
1038.744751
 10
390.522125
 20
1042.874878
  0
ARC
  5
C9
330
48
100
AcDbEntity
  8
0
  6
Continuous
 62
     0
370
    30
100
AcDbCircle
 10
382.76168
 20
1282.874799
 30
0.0
 40
1.000025300096272
100
AcDbArc
 50
90.007176
 51
179.898553
  0
ARC
  5
CA
330
48
100
AcDbEntity
  8
0
  6
Continuous
 62
     0
370
    30
100
AcDbCircle
 10
412.228587
 20
1282.874799
 30
0.0
 40
1.000025300090257
100
AcDbArc
 50
0.101447
 51
89.992824
  0
LINE
  5
CB
330
48
100
AcDbEntity
  8
0
  6
Continuous
 62
     0
370
    30
100
AcDbLine
 10
413.595133
 20
1072.874824
 30
0.0
 11
413.228611
 21
1282.876569
 31
0.0
  0
LINE
  5
CC
330
48
100
AcDbEntity
  8
0
  6
Continuous
 62
     0
370
    30
100
AcDbLine
 10
381.395133
 20
1072.874824
 30
0.0
 11
381.761656
 21
1282.876569
 31
0.0
  0
LINE
  5
CD
330
48
100
AcDbEntity
  8
0
  6
Continuous
 62
     0
370
    30
100
AcDbLine
 10
408.611741
 20
1065.035801
 30
0.0
 11
408.995133
 21
1072.874824
 31
0.0
  0
LINE
  5
CE
330
48
100
AcDbEntity
  8
0
  6
Continuous
 62
     0
370
    30
100
AcDbLine
 10
385.995133
 20
1072.874824
 30
0.0
 11
386.378506
 21
1065.036195
 31
0.0
  0
ENDBLK
  5
D0
330
48
100
AcDbEntity
  8
0
100
AcDbBlockEnd
  0
BLOCK
  5
129
330
D2
100
AcDbEntity
  8
0
100
AcDbBlockBegin
  2
b
 70
     0
 10
-169.746885
 20
392.311478
 30
0.0
  3
b
  1

  0
LWPOLYLINE
  5
D3
330
D2
100
AcDbEntity
  8
0
  6
Continuous
 62
     0
370
    30
100
AcDbPolyline
 90
       23
 70
     0
 43
0.0
 10
383.995148
 20
495.977783
 10
384.034454
 20
495.910645
 10
384.149933
 20
495.724701
 10
384.335602
 20
495.438782
 10
384.584717
 20
495.076385
 10
384.891724
 20
494.657837
 10
385.252472
 20
494.200562
 10
385.66449
 20
493.71817
 10
386.126556
 20
493.220734
 10
386.638
 20
492.7164
 10
387.198151
 20
492.213196
 10
387.806946
 20
491.717834
 10
388.464722
 20
491.235809
 10
389.171844
 20
490.772644
 10
389.928101
 20
490.333984
 10
390.732361
 20
489.925781
 10
391.583435
 20
489.554016
 10
392.479279
 20
489.22464
 10
393.416077
 20
488.943665
 10
394.389832
 20
488.71698
 10
395.39447
 20
488.550049
 10
396.417877
 20
488.446564
 10
397.495148
 20
488.409576
  0
LWPOLYLINE
  5
D4
330
D2
100
AcDbEntity
  8
0
  6
Continuous
 62
     0
370
    30
100
AcDbPolyline
 90
       23
 70
     0
 43
0.0
 10
397.495148
 20
488.409576
 10
398.525543
 20
488.44342
 10
399.549469
 20
488.543915
 10
400.555267
 20
488.708038
 10
401.530579
 20
488.932098
 10
402.469177
 20
489.210754
 10
403.366974
 20
489.538025
 10
404.220154
 20
489.90799
 10
405.02655
 20
490.314667
 10
405.785004
 20
490.752075
 10
406.494415
 20
491.214264
 10
407.154419
 20
491.695526
 10
407.765442
 20
492.190399
 10
408.327789
 20
492.69339
 10
408.841461
 20
493.197845
 10
409.305817
 20
493.69577
 10
409.720123
 20
494.179047
 10
410.083252
 20
494.637756
 10
410.392792
 20
495.05838
 10
410.644653
 20
495.423767
 10
410.833344
 20
495.713654
 10
410.952179
 20
495.904663
 10
410.995148
 20
495.977783
  0
LINE
  5
D5
330
D2
100
AcDbEntity
  8
0
  6
Continuous
 62
     0
370
    30
100
AcDbLine
 10
410.995135
 20
495.97778
 30
0.0
 11
410.995135
 21
496.14386
 31
0.0
  0
LWPOLYLINE
  5
D6
330
D2
100
AcDbEntity
  8
0
  6
Continuous
 62
     0
370
    30
100
AcDbPolyline
 90
       23
 70
     0
 43
0.0
 10
410.995148
 20
496.14386
 10
410.955688
 20
496.082092
 10
410.839844
 20
495.898376
 10
410.653656
 20
495.612213
 10
410.404083
 20
495.247894
 10
410.09671
 20
494.826538
 10
409.735748
 20
494.365997
 10
409.323639
 20
493.880219
 10
408.861572
 20
493.379425
 10
408.350189
 20
492.871826
 10
407.7901
 20
492.365479
 10
407.181335
 20
491.867126
 10
406.523499
 20
491.382324
 10
405.816193
 20
490.916534
 10
405.059662
 20
490.475464
 10
404.254974
 20
490.065094
 10
403.403259
 20
489.691406
 10
402.506622
 20
489.360413
 10
401.568848
 20
489.078125
 10
400.593933
 20
488.850555
 10
399.588013
 20
488.683136
 10
398.563324
 20
488.579651
 10
397.495148
 20
488.543091
  0
LWPOLYLINE
  5
D7
330
D2
100
AcDbEntity
  8
0
  6
Continuous
 62
     0
370
    30
100
AcDbPolyline
 90
       23
 70
     0
 43
0.0
 10
397.495148
 20
488.543091
 10
396.463562
 20
488.577179
 10
395.438477
 20
488.678314
 10
394.431702
 20
488.843506
 10
393.455566
 20
489.069031
 10
392.516418
 20
489.349487
 10
391.618286
 20
489.678833
 10
390.764954
 20
490.051086
 10
389.958557
 20
490.460205
 10
389.200287
 20
490.900238
 10
388.491211
 20
491.365234
 10
387.831665
 20
491.849426
 10
387.221161
 20
492.347382
 10
386.659332
 20
492.853577
 10
386.14624
 20
493.361328
 10
385.682404
 20
493.862488
 10
385.268463
 20
494.348846
 10
384.905609
 20
494.810394
 10
384.596283
 20
495.233459
 10
384.344543
 20
495.600311
 10
384.155975
 20
495.88974
 10
384.037476
 20
496.077484
 10
383.995148
 20
496.14386
  0
LINE
  5
D8
330
D2
100
AcDbEntity
  8
0
  6
Continuous
 62
     0
370
    30
100
AcDbLine
 10
383.995135
 20
496.14386
 30
0.0
 11
383.995135
 21
495.97778
 31
0.0
  0
ARC
  5
D9
330
D2
100
AcDbEntity
  8
0
  6
Continuous
 62
     0
370
    30
100
AcDbCircle
 10
397.495135
 20
504.283552
 30
0.0
 40
16.10000000000002
100
AcDbArc
 50
270.0
 51
90.0
  0
ARC
  5
DA
330
D2
100
AcDbEntity
  8
0
  6
Continuous
 62
     0
370
    30
100
AcDbCircle
 10
397.495135
 20
504.283552
 30
0.0
 40
16.10000000000002
100
AcDbArc
 50
90.0
 51
270.0
  0
ARC
  5
DB
330
D2
100
AcDbEntity
  8
0
  6
Continuous
 62
     0
370
     0
100
AcDbCircle
 10
397.495135
 20
504.283543
 30
0.0
 40
15.73347743874463
100
AcDbArc
 50
90.0
 51
270.0
  0
ARC
  5
DC
330
D2
100
AcDbEntity
  8
0
  6
Continuous
 62
     0
370
     0
100
AcDbCircle
 10
397.495135
 20
504.283543
 30
0.0
 40
15.73347743874463
100
AcDbArc
 50
270.0
 51
90.0
  0
ARC
  5
DD
330
D2
100
AcDbEntity
  8
0
  6
Continuous
 62
     0
370
     0
100
AcDbCircle
 10
397.495135
 20
504.283543
 30
0.0
 40
14.73347896183132
100
AcDbArc
 50
270.0
 51
90.0
  0
ARC
  5
DE
330
D2
100
AcDbEntity
  8
0
  6
Continuous
 62
     0
370
     0
100
AcDbCircle
 10
397.495135
 20
504.283543
 30
0.0
 40
14.73347896183132
100
AcDbArc
 50
90.0
 51
270.0
  0
LINE
  5
DF
330
D2
100
AcDbEntity
  8
0
  6
Continuous
 62
     0
370
    30
100
AcDbLine
 10
397.495135
 20
548.133553
 30
0.0
 11
412.995135
 21
548.133553
 31
0.0
  0
LINE
  5
E0
330
D2
100
AcDbEntity
  8
0
  6
Continuous
 62
     0
370
    30
100
AcDbLine
 10
381.995135
 20
548.133553
 30
0.0
 11
397.495135
 21
548.133553
 31
0.0
  0
LINE
  5
E1
330
D2
100
AcDbEntity
  8
0
  6
Continuous
 62
     0
370
     0
100
AcDbLine
 10
384.997635
 20
494.133553
 30
0.0
 11
381.995135
 21
494.133553
 31
0.0
  0
LINE
  5
E2
330
D2
100
AcDbEntity
  8
0
  6
Continuous
 62
     0
370
    30
100
AcDbLine
 10
382.995135
 20
493.133553
 30
0.0
 11
385.881027
 21
493.133553
 31
0.0
  0
LINE
  5
E3
330
D2
100
AcDbEntity
  8
0
  6
Continuous
 62
     0
370
     0
100
AcDbLine
 10
412.995135
 20
494.133553
 30
0.0
 11
409.992635
 21
494.133553
 31
0.0
  0
LINE
  5
E4
330
D2
100
AcDbEntity
  8
0
  6
Continuous
 62
     0
370
    30
100
AcDbLine
 10
409.109243
 20
493.133553
 30
0.0
 11
411.995135
 21
493.133553
 31
0.0
  0
LINE
  5
E5
330
D2
100
AcDbEntity
  8
0
  6
Continuous
 62
     0
370
    30
100
AcDbLine
 10
268.352228
 20
488.470913
 30
0.0
 11
268.352228
 21
510.634421
 31
0.0
  0
LINE
  5
E6
330
D2
100
AcDbEntity
  8
0
  6
Continuous
 62
     0
370
    30
100
AcDbLine
 10
268.352228
 20
466.634347
 30
0.0
 11
268.352228
 21
488.470913
 31
0.0
  0
LINE
  5
E7
330
D2
100
AcDbEntity
  8
0
  6
Continuous
 62
     0
370
    30
100
AcDbLine
 10
299.352228
 20
488.474629
 30
0.0
 11
299.352228
 21
510.134421
 31
0.0
  0
LINE
  5
E8
330
D2
100
AcDbEntity
  8
0
  6
Continuous
 62
     0
370
    30
100
AcDbLine
 10
299.352228
 20
467.134347
 30
0.0
 11
299.352228
 21
488.474629
 31
0.0
  0
LINE
  5
E9
330
D2
100
AcDbEntity
  8
0
  6
Continuous
 62
     0
370
     0
100
AcDbLine
 10
298.852228
 20
466.634347
 30
0.0
 11
298.852228
 21
488.470913
 31
0.0
  0
LINE
  5
EA
330
D2
100
AcDbEntity
  8
0
  6
Continuous
 62
     0
370
     0
100
AcDbLine
 10
298.852228
 20
488.470913
 30
0.0
 11
298.852228
 21
510.634421
 31
0.0
  0
ARC
  5
EB
330
D2
100
AcDbEntity
  8
0
  6
Continuous
 62
     0
370
    30
100
AcDbCircle
 10
284.352229
 20
487.980323
 30
0.0
 40
6.500000002476916
100
AcDbArc
 50
0.001582
 51
179.998418
  0
ARC
  5
EC
330
D2
100
AcDbEntity
  8
0
  6
Continuous
 62
     0
370
    30
100
AcDbCircle
 10
284.352229
 20
487.980682
 30
0.0
 40
6.500000002476916
100
AcDbArc
 50
180.001582
 51
359.998418
  0
LINE
  5
ED
330
D2
100
AcDbEntity
  8
0
  6
Continuous
 62
     0
370
    30
100
AcDbLine
 10
290.852229
 20
487.980503
 30
0.0
 11
290.852229
 21
488.433761
 31
0.0
  0
LWPOLYLINE
  5
EE
330
D2
100
AcDbEntity
  8
0
  6
Continuous
 62
     0
370
     0
100
AcDbPolyline
 90
       22
 70
     0
 43
0.0
 10
277.852234
 20
488.433746
 10
277.926514
 20
489.412628
 10
278.145721
 20
490.366516
 10
278.50293
 20
491.27179
 10
278.98703
 20
492.108887
 10
279.586151
 20
492.861664
 10
280.287964
 20
493.517517
 10
281.080078
 20
494.064056
 10
281.948883
 20
494.489319
 10
282.877716
 20
494.782166
 10
283.845551
 20
494.932739
 10
284.827301
 20
494.935181
 10
285.796021
 20
494.789307
 10
286.726379
 20
494.500885
 10
287.597443
 20
494.079681
 10
288.392273
 20
493.537079
 10
289.097229
 20
492.884735
 10
289.699829
 20
492.134491
 10
290.187836
 20
491.300018
 10
290.549255
 20
490.396606
 10
290.773224
 20
489.444
 10
290.852234
 20
488.433746
  0
LWPOLYLINE
  5
EF
330
D2
100
AcDbEntity
  8
0
  6
Continuous
 62
     0
370
     0
100
AcDbPolyline
 90
       28
 70
     0
 43
0.0
 10
272.852234
 20
488.470917
 10
272.932251
 20
489.571503
 10
273.169067
 20
490.654938
 10
273.557739
 20
491.704224
 10
274.091064
 20
492.704437
 10
274.759216
 20
493.643097
 10
275.552094
 20
494.509247
 10
276.459534
 20
495.293793
 10
277.471283
 20
495.988403
 10
278.576813
 20
496.585175
 10
279.764496
 20
497.076111
 10
281.021027
 20
497.4534
 10
282.329742
 20
497.710052
 10
283.671783
 20
497.840057
 10
285.025146
 20
497.840454
 10
286.36731
 20
497.711121
 10
287.67627
 20
497.4552
 10
288.933136
 20
497.078522
 10
290.121246
 20
496.588196
 10
291.227295
 20
495.992035
 10
292.239563
 20
495.297943
 10
293.147614
 20
494.513855
 10
293.941162
 20
493.64798
 10
294.610016
 20
492.7099
 10
295.144073
 20
491.709961
 10
295.533905
 20
490.66098
 10
295.771515
 20
489.577698
 10
295.852234
 20
488.470917
  0
LWPOLYLINE
  5
F0
330
D2
100
AcDbEntity
  8
0
  6
Continuous
 62
     0
370
     0
100
AcDbPolyline
 90
       28
 70
     0
 43
0.0
 10
272.852234
 20
488.470917
 10
272.932251
 20
487.370728
 10
273.169067
 20
486.288483
 10
273.557739
 20
485.241119
 10
274.091095
 20
484.243469
 10
274.759247
 20
483.307831
 10
275.552124
 20
482.445038
 10
276.459625
 20
481.664062
 10
277.471344
 20
480.972992
 10
278.576904
 20
480.379608
 10
279.764587
 20
479.891632
 10
281.021149
 20
479.516785
 10
282.329895
 20
479.261902
 10
283.671936
 20
479.132782
 10
285.02533
 20
479.132416
 10
286.367493
 20
479.260864
 10
287.676483
 20
479.515076
 10
288.93335
 20
479.889343
 10
290.121429
 20
480.376709
 10
291.227478
 20
480.969574
 10
292.239746
 20
481.660095
 10
293.147766
 20
482.440674
 10
293.941315
 20
483.303192
 10
294.610138
 20
484.238251
 10
295.144196
 20
485.235657
 10
295.533966
 20
486.282715
 10
295.771545
 20
487.364807
 10
295.852234
 20
488.470917
  0
ELLIPSE
  5
F1
330
D2
100
AcDbEntity
  8
0
  6
Continuous
 62
     0
370
     0
100
AcDbEllipse
 10
295.852229
 20
488.433761
 30
0.0
 11
5.000000000000004
 21
-4.666102313765816E-12
 31
0.0
210
0.0
220
0.0
230
-1.0
 40
0.00743
 41
3.141592653592529
 42
4.712388980387428
  0
ELLIPSE
  5
F2
330
D2
100
AcDbEntity
  8
0
  6
Continuous
 62
     0
370
     0
100
AcDbEllipse
 10
272.852229
 20
488.433761
 30
0.0
 11
5.0
 21
-4.665765304462235E-12
 31
0.0
210
0.0
220
0.0
230
-1.0
 40
0.00743
 41
4.712388980387431
 42
6.283185307182331
  0
LINE
  5
F3
330
D2
100
AcDbEntity
  8
0
  6
Continuous
 62
     0
370
    30
100
AcDbLine
 10
64.76745
 20
548.133552
 30
0.0
 11
64.76745
 21
514.996404
 31
0.0
  0
LINE
  5
F4
330
D2
100
AcDbEntity
  8
0
  6
Continuous
 62
     0
370
     0
100
AcDbLine
 10
170.580095
 20
514.996404
 30
0.0
 11
264.76745
 21
514.996404
 31
0.0
  0
LINE
  5
F5
330
D2
100
AcDbEntity
  8
0
  6
Continuous
 62
     0
370
     0
100
AcDbLine
 10
64.76745
 20
514.996404
 30
0.0
 11
158.954806
 21
514.996404
 31
0.0
  0
LINE
  5
F6
330
D2
100
AcDbEntity
  8
0
  6
Continuous
 62
     0
370
    30
100
AcDbLine
 10
264.76745
 20
548.133552
 30
0.0
 11
264.76745
 21
514.996404
 31
0.0
  0
LINE
  5
F7
330
D2
100
AcDbEntity
  8
0
  6
Continuous
 62
     0
370
    30
100
AcDbLine
 10
64.76745
 20
548.133552
 30
0.0
 11
264.76745
 21
548.133552
 31
0.0
  0
LINE
  5
F8
330
D2
100
AcDbEntity
  8
0
  6
Continuous
 62
     0
370
    30
100
AcDbLine
 10
64.76745
 20
514.996404
 30
0.0
 11
64.76745
 21
496.688867
 31
0.0
  0
LINE
  5
F9
330
D2
100
AcDbEntity
  8
0
  6
Continuous
 62
     0
370
     0
100
AcDbLine
 10
64.76745
 20
496.688867
 30
0.0
 11
264.76745
 21
496.688867
 31
0.0
  0
LINE
  5
FA
330
D2
100
AcDbEntity
  8
0
  6
Continuous
 62
     0
370
    30
100
AcDbLine
 10
264.76745
 20
514.996404
 30
0.0
 11
264.76745
 21
496.688867
 31
0.0
  0
LINE
  5
FB
330
D2
100
AcDbEntity
  8
0
  6
Continuous
 62
     0
370
    30
100
AcDbLine
 10
104.26745
 20
461.133552
 30
0.0
 11
104.26745
 21
461.633552
 31
0.0
  0
LINE
  5
FC
330
D2
100
AcDbEntity
  8
0
  6
Continuous
 62
     0
370
    30
100
AcDbLine
 10
104.26745
 20
461.133552
 30
0.0
 11
83.26745
 21
461.133552
 31
0.0
  0
LWPOLYLINE
  5
FD
330
D2
100
AcDbEntity
  8
0
  6
Continuous
 62
     0
370
     0
100
AcDbPolyline
 90
       31
 70
     0
 43
0.0
 10
104.267448
 20
461.633545
 10
104.206985
 20
461.684875
 10
104.027992
 20
461.834961
 10
103.734367
 20
462.077545
 10
103.33252
 20
462.40155
 10
102.830177
 20
462.793152
 10
102.234848
 20
463.237
 10
101.553818
 20
463.7164
 10
100.793587
 20
464.213776
 10
99.959702
 20
464.710663
 10
99.057487
 20
465.187225
 10
98.092232
 20
465.622467
 10
97.070572
 20
465.994537
 10
96.001503
 20
466.281189
 10
94.89743
 20
466.462708
 10
93.774872
 20
466.525879
 10
92.652016
 20
466.4646
 10
91.547691
 20
466.284302
 10
90.478065
 20
465.998871
 10
89.455742
 20
465.627838
 10
88.48967
 20
465.193237
 10
87.586594
 20
464.717102
 10
86.751801
 20
464.220337
 10
85.99057
 20
463.722839
 10
85.308434
 20
463.243134
 10
84.711914
 20
462.798676
 10
84.208344
 20
462.40625
 10
83.805168
 20
462.081329
 10
83.509987
 20
461.837494
 10
83.3293
 20
461.685883
 10
83.267525
 20
461.633667
  0
LINE
  5
FE
330
D2
100
AcDbEntity
  8
0
  6
Continuous
 62
     0
370
    30
100
AcDbLine
 10
64.76745
 20
496.688867
 30
0.0
 11
64.76745
 21
466.633552
 31
0.0
  0
LINE
  5
FF
330
D2
100
AcDbEntity
  8
0
  6
Continuous
 62
     0
370
    30
100
AcDbLine
 10
264.76745
 20
496.688867
 30
0.0
 11
264.76745
 21
466.633552
 31
0.0
  0
LWPOLYLINE
  5
100
330
D2
100
AcDbEntity
  8
0
  6
Continuous
 62
     0
370
     0
100
AcDbPolyline
 90
       35
 70
     0
 43
0.0
 10
109.267448
 20
466.633545
 10
109.197929
 20
466.666138
 10
108.991814
 20
466.76178
 10
108.652824
 20
466.917206
 10
108.186523
 20
467.127136
 10
107.600624
 20
467.384125
 10
106.902916
 20
467.680176
 10
106.100883
 20
468.006317
 10
105.201881
 20
468.353088
 10
104.212311
 20
468.710632
 10
103.137787
 20
469.068634
 10
101.983719
 20
469.416107
 10
100.755371
 20
469.741394
 10
99.458763
 20
470.032532
 10
98.101677
 20
470.277008
 10
96.694519
 20
470.462524
 10
95.251129
 20
470.579132
 10
93.788727
 20
470.619873
 10
92.325798
 20
470.581604
 10
90.881699
 20
470.46701
 10
89.47332
 20
470.283203
 10
88.114624
 20
470.040344
 10
86.816147
 20
469.750366
 10
85.585709
 20
469.425873
 10
84.42942
 20
469.078888
 10
83.352531
 20
468.721039
 10
82.360435
 20
468.363342
 10
81.458702
 20
468.016113
 10
80.653725
 20
467.68927
 10
79.952911
 20
467.392181
 10
79.363747
 20
467.133972
 10
78.893883
 20
466.922577
 10
78.550919
 20
466.76535
 10
78.340736
 20
466.667786
 10
78.267563
 20
466.633636
  0
ARC
  5
101
330
D2
100
AcDbEntity
  8
0
  6
Continuous
 62
     0
370
    30
100
AcDbCircle
 10
109.26745
 20
461.633552
 30
0.0
 40
5.0
100
AcDbArc
 50
90.0
 51
180.0
  0
LINE
  5
102
330
D2
100
AcDbEntity
  8
0
  6
Continuous
 62
     0
370
    30
100
AcDbLine
 10
103.91745
 20
453.333552
 30
0.0
 11
93.76745
 21
453.333552
 31
0.0
  0
LINE
  5
103
330
D2
100
AcDbEntity
  8
0
  6
Continuous
 62
     0
370
    30
100
AcDbLine
 10
93.76745
 20
453.333552
 30
0.0
 11
83.61745
 21
453.333552
 31
0.0
  0
ARC
  5
104
330
D2
100
AcDbEntity
  8
0
  6
Continuous
 62
     0
370
     0
100
AcDbCircle
 10
164.767451
 20
523.13355
 30
0.0
 40
9.399999976158142
100
AcDbArc
 50
236.801038
 51
56.801038
  0
ARC
  5
105
330
D2
100
AcDbEntity
  8
0
  6
Continuous
 62
     0
370
     0
100
AcDbCircle
 10
164.767451
 20
523.13355
 30
0.0
 40
9.399999976158142
100
AcDbArc
 50
56.801038
 51
236.801038
  0
ARC
  5
106
330
D2
100
AcDbEntity
  8
0
  6
Continuous
 62
     0
370
    30
100
AcDbCircle
 10
164.767451
 20
523.133551
 30
0.0
 40
10.0
100
AcDbArc
 50
56.801038
 51
236.801038
  0
ARC
  5
107
330
D2
100
AcDbEntity
  8
0
  6
Continuous
 62
     0
370
    30
100
AcDbCircle
 10
164.767451
 20
523.133551
 30
0.0
 40
10.0
100
AcDbArc
 50
236.801038
 51
56.801038
  0
LINE
  5
108
330
D2
100
AcDbEntity
  8
0
  6
Continuous
 62
     0
370
    30
100
AcDbLine
 10
83.76745
 20
453.133548
 30
0.0
 11
103.76745
 21
453.133548
 31
0.0
  0
LINE
  5
109
330
D2
100
AcDbEntity
  8
0
  6
Continuous
 62
     0
370
    30
100
AcDbLine
 10
83.76745
 20
453.133548
 30
0.0
 11
83.76745
 21
406.133548
 31
0.0
  0
LINE
  5
10A
330
D2
100
AcDbEntity
  8
0
  6
Continuous
 62
     0
370
     0
100
AcDbLine
 10
83.76745
 20
406.133548
 30
0.0
 11
103.76745
 21
406.133548
 31
0.0
  0
LINE
  5
10B
330
D2
100
AcDbEntity
  8
0
  6
Continuous
 62
     0
370
    30
100
AcDbLine
 10
83.76745
 20
406.133548
 30
0.0
 11
83.76745
 21
383.616888
 31
0.0
  0
ELLIPSE
  5
10C
330
D2
100
AcDbEntity
  8
0
  6
Continuous
 62
     0
370
     0
100
AcDbEllipse
 10
93.76745
 20
383.616888
 30
0.0
 11
-10.0
 21
0.0
 31
0.0
210
0.0
220
0.0
230
1.0
 40
0.866025
 41
6.283185307179586
 42
9.42477796076938
  0
LINE
  5
10D
330
D2
100
AcDbEntity
  8
0
  6
Continuous
 62
     0
370
    30
100
AcDbLine
 10
83.76745
 20
383.616888
 30
0.0
 11
83.76745
 21
373.616888
 31
0.0
  0
ELLIPSE
  5
10E
330
D2
100
AcDbEntity
  8
0
  6
Continuous
 62
     0
370
    30
100
AcDbEllipse
 10
93.76745
 20
373.616888
 30
0.0
 11
-10.0
 21
0.0
 31
0.0
210
0.0
220
0.0
230
1.0
 40
0.866025
 41
0.0000000000000062
 42
3.141592653589793
  0
LINE
  5
10F
330
D2
100
AcDbEntity
  8
0
  6
Continuous
 62
     0
370
    30
100
AcDbLine
 10
103.76745
 20
373.616888
 30
0.0
 11
103.76745
 21
383.616888
 31
0.0
  0
LINE
  5
110
330
D2
100
AcDbEntity
  8
0
  6
Continuous
 62
     0
370
    30
100
AcDbLine
 10
103.76745
 20
383.616888
 30
0.0
 11
103.76745
 21
406.133548
 31
0.0
  0
LINE
  5
111
330
D2
100
AcDbEntity
  8
0
  6
Continuous
 62
     0
370
    30
100
AcDbLine
 10
103.76745
 20
406.133548
 30
0.0
 11
103.76745
 21
453.133548
 31
0.0
  0
LINE
  5
112
330
D2
100
AcDbEntity
  8
0
  6
Continuous
 62
     0
370
    30
100
AcDbLine
 10
83.61745
 20
453.333552
 30
0.0
 11
83.81745
 21
453.133552
 31
0.0
  0
LINE
  5
113
330
D2
100
AcDbEntity
  8
0
  6
Continuous
 62
     0
370
    30
100
AcDbLine
 10
103.91745
 20
453.333552
 30
0.0
 11
103.71745
 21
453.133552
 31
0.0
  0
LINE
  5
114
330
D2
100
AcDbEntity
  8
0
  6
Continuous
 62
     0
370
    30
100
AcDbLine
 10
83.276895
 20
461.133552
 30
0.0
 11
83.61745
 21
453.333552
 31
0.0
  0
LINE
  5
115
330
D2
100
AcDbEntity
  8
0
  6
Continuous
 62
     0
370
    30
100
AcDbLine
 10
104.258006
 20
461.133552
 30
0.0
 11
103.91745
 21
453.333552
 31
0.0
  0
ARC
  5
116
330
D2
100
AcDbEntity
  8
0
  6
Continuous
 62
     0
370
    30
100
AcDbCircle
 10
78.267533
 20
461.633653
 30
0.0
 40
4.999991960827752
100
AcDbArc
 50
0.000148
 51
89.999685
  0
LINE
  5
117
330
D2
100
AcDbEntity
  8
0
  6
Continuous
 62
     0
370
    30
100
AcDbLine
 10
64.76745
 20
466.633552
 30
0.0
 11
78.267561
 21
466.633552
 31
0.0
  0
LINE
  5
118
330
D2
100
AcDbEntity
  8
0
  6
Continuous
 62
     0
370
    30
100
AcDbLine
 10
109.26745
 20
466.633552
 30
0.0
 11
264.76745
 21
466.633552
 31
0.0
  0
LINE
  5
119
330
D2
100
AcDbEntity
  8
0
  6
Continuous
 62
     0
370
    30
100
AcDbLine
 10
83.26745
 20
461.633666
 30
0.0
 11
83.26745
 21
461.133552
 31
0.0
  0
ARC
  5
11A
330
D2
100
AcDbEntity
  8
0
  6
Continuous
 62
     0
370
    30
100
AcDbCircle
 10
263.242943
 20
488.639899
 30
0.0
 40
20.50041719311469
100
AcDbArc
 50
75.567758
 51
85.735278
  0
ARC
  5
11B
330
D2
100
AcDbEntity
  8
0
  6
Continuous
 62
     0
370
    30
100
AcDbCircle
 10
263.242931
 20
488.627281
 30
0.0
 40
20.50049276338182
100
AcDbArc
 50
274.264741
 51
284.432243
  0
LINE
  5
11C
330
D2
100
AcDbEntity
  8
0
  6
Continuous
 62
     0
370
    30
100
AcDbLine
 10
298.852228
 20
510.634421
 30
0.0
 11
268.352228
 21
510.634421
 31
0.0
  0
LINE
  5
11D
330
D2
100
AcDbEntity
  8
0
  6
Continuous
 62
     0
370
    30
100
AcDbLine
 10
298.852228
 20
466.634347
 30
0.0
 11
268.352228
 21
466.634347
 31
0.0
  0
LINE
  5
11E
330
D2
100
AcDbEntity
  8
0
  6
Continuous
 62
     0
370
    30
100
AcDbLine
 10
277.852229
 20
488.433761
 30
0.0
 11
277.852229
 21
487.980503
 31
0.0
  0
ARC
  5
11F
330
D2
100
AcDbEntity
  8
0
  6
Continuous
 62
     0
370
    30
100
AcDbCircle
 10
298.852213
 20
510.134406
 30
0.0
 40
0.5000150271610218
100
AcDbArc
 50
0.001722
 51
89.998278
  0
ARC
  5
120
330
D2
100
AcDbEntity
  8
0
  6
Continuous
 62
     0
370
    30
100
AcDbCircle
 10
298.852213
 20
467.134362
 30
0.0
 40
0.5000150271583605
100
AcDbArc
 50
270.001722
 51
359.998278
  0
LWPOLYLINE
  5
121
330
D2
100
AcDbEntity
  8
0
  6
Continuous
 62
     0
370
    30
100
AcDbPolyline
 90
       33
 70
     0
 43
0.0
 10
264.767456
 20
530.133545
 10
269.235535
 20
530.133545
 10
273.73819
 20
530.133545
 10
278.26825
 20
530.133545
 10
282.818481
 20
530.133545
 10
287.380981
 20
530.133545
 10
291.94754
 20
530.133545
 10
296.509552
 20
530.133545
 10
301.057709
 20
530.133545
 10
305.58252
 20
530.133545
 10
310.073639
 20
530.133545
 10
314.520142
 20
530.133545
 10
318.911072
 20
530.133545
 10
323.235291
 20
530.133545
 10
327.481171
 20
530.133484
 10
331.637024
 20
530.133362
 10
335.691711
 20
530.133118
 10
339.635132
 20
530.132507
 10
343.457367
 20
530.131531
 10
347.149414
 20
530.129944
 10
350.70401
 20
530.127502
 10
354.115234
 20
530.124023
 10
357.378723
 20
530.11908
 10
360.491486
 20
530.112488
 10
363.452576
 20
530.103821
 10
366.262085
 20
530.092712
 10
368.921753
 20
530.078796
 10
371.434265
 20
530.061707
 10
373.803589
 20
530.041138
 10
376.034088
 20
530.016541
 10
378.131134
 20
529.987732
 10
380.100372
 20
529.954224
 10
381.995148
 20
529.914551
  0
LWPOLYLINE
  5
122
330
D2
100
AcDbEntity
  8
0
  6
Continuous
 62
     0
370
    30
100
AcDbPolyline
 90
       33
 70
     0
 43
0.0
 10
264.767456
 20
516.133545
 10
269.258911
 20
516.133545
 10
273.785278
 20
516.133545
 10
278.339294
 20
516.133545
 10
282.913544
 20
516.133545
 10
287.500031
 20
516.133545
 10
292.090363
 20
516.133545
 10
296.675842
 20
516.133545
 10
301.246979
 20
516.133545
 10
305.794159
 20
516.133545
 10
310.306702
 20
516.133545
 10
314.77359
 20
516.133545
 10
319.183716
 20
516.133545
 10
323.525696
 20
516.133545
 10
327.787659
 20
516.133484
 10
331.957794
 20
516.133362
 10
336.024872
 20
516.133057
 10
339.978394
 20
516.132446
 10
343.808044
 20
516.131409
 10
347.505127
 20
516.129761
 10
351.061798
 20
516.127197
 10
354.472198
 20
516.123535
 10
357.731201
 20
516.118408
 10
360.83609
 20
516.111572
 10
363.785034
 20
516.102539
 10
366.578064
 20
516.091064
 10
369.216278
 20
516.076721
 10
371.702087
 20
516.059204
 10
374.038513
 20
516.038086
 10
376.22937
 20
516.013
 10
378.279144
 20
515.983704
 10
380.192657
 20
515.949829
 10
381.995148
 20
515.910645
  0
LINE
  5
123
330
D2
100
AcDbEntity
  8
0
  6
Continuous
 62
     0
370
    30
100
AcDbLine
 10
381.995135
 20
499.929244
 30
0.0
 11
381.995135
 21
494.133553
 31
0.0
  0
LINE
  5
124
330
D2
100
AcDbEntity
  8
0
  6
Continuous
 62
     0
370
    30
100
AcDbLine
 10
381.995135
 20
548.133553
 30
0.0
 11
381.995135
 21
508.637861
 31
0.0
  0
LINE
  5
125
330
D2
100
AcDbEntity
  8
0
  6
Continuous
 62
     0
370
    30
100
AcDbLine
 10
412.995135
 20
499.929244
 30
0.0
 11
412.995135
 21
494.133553
 31
0.0
  0
LINE
  5
126
330
D2
100
AcDbEntity
  8
0
  6
Continuous
 62
     0
370
    30
100
AcDbLine
 10
412.995135
 20
548.133553
 30
0.0
 11
412.995135
 21
508.637861
 31
0.0
  0
ARC
  5
127
330
D2
100
AcDbEntity
  8
0
  6
Continuous
 62
     0
370
    30
100
AcDbCircle
 10
411.995109
 20
494.133579
 30
0.0
 40
1.000026037110041
100
AcDbArc
 50
270.006288
 51
359.998508
  0
ARC
  5
128
330
D2
100
AcDbEntity
  8
0
  6
Continuous
 62
     0
370
    30
100
AcDbCircle
 10
382.995161
 20
494.133579
 30
0.0
 40
1.000026037103187
100
AcDbArc
 50
180.001492
 51
269.993712
  0
ENDBLK
  5
12A
330
D2
100
AcDbEntity
  8
0
100
AcDbBlockEnd
  0
BLOCK
  5
18A
330
12C
100
AcDbEntity
  8
0
100
AcDbBlockBegin
  2
c
 70
     0
 10
31.810692
 20
409.611237
 30
0.0
  3
c
  1

  0
LWPOLYLINE
  5
12D
330
12C
100
AcDbEntity
  8
0
  6
Continuous
 62
     0
370
    30
100
AcDbPolyline
 90
       21
 70
     0
 43
0.0
 10
823.803833
 20
1215.874756
 10
823.884521
 20
1214.743042
 10
824.107178
 20
1213.637085
 10
824.445129
 20
1212.575928
 10
824.86792
 20
1211.564941
 10
825.349792
 20
1210.604004
 10
825.869873
 20
1209.690063
 10
826.412598
 20
1208.82019
 10
826.966553
 20
1207.993652
 10
827.520996
 20
1207.209717
 10
828.06665
 20
1206.469238
 10
828.596069
 20
1205.774536
 10
829.10199
 20
1205.128296
 10
829.576721
 20
1204.534668
 10
830.012329
 20
1203.999512
 10
830.400818
 20
1203.528809
 10
830.734314
 20
1203.12915
 10
831.004822
 20
1202.807617
 10
831.204712
 20
1202.571289
 10
831.328491
 20
1202.425537
 10
831.37207
 20
1202.374756
  0
LWPOLYLINE
  5
12E
330
12C
100
AcDbEntity
  8
0
  6
Continuous
 62
     0
370
    30
100
AcDbPolyline
 90
       21
 70
     0
 43
0.0
 10
831.238525
 20
1278.874756
 10
831.197205
 20
1278.826782
 10
831.075012
 20
1278.683594
 10
830.876099
 20
1278.449463
 10
830.605774
 20
1278.129761
 10
830.271912
 20
1277.731567
 10
829.882446
 20
1277.262207
 10
829.445374
 20
1276.728271
 10
828.96875
 20
1276.135742
 10
828.46051
 20
1275.490479
 10
827.928345
 20
1274.796875
 10
827.379578
 20
1274.057495
 10
826.821594
 20
1273.274902
 10
826.263794
 20
1272.449585
 10
825.71698
 20
1271.581055
 10
825.192688
 20
1270.668335
 10
824.706543
 20
1269.708374
 10
824.279541
 20
1268.697998
 10
823.938721
 20
1267.636597
 10
823.715637
 20
1266.529419
 10
823.637756
 20
1265.374756
  0
LINE
  5
12F
330
12C
100
AcDbEntity
  8
0
  6
Continuous
 62
     0
370
    30
100
AcDbLine
 10
823.637748
 20
1265.374763
 30
0.0
 11
823.80383
 21
1215.874763
 31
0.0
  0
LINE
  5
130
330
12C
100
AcDbEntity
  8
0
  6
Continuous
 62
     0
370
    30
100
AcDbLine
 10
831.465363
 20
1148.907078
 30
0.0
 11
831.372044
 21
1202.374763
 31
0.0
  0
LINE
  5
131
330
12C
100
AcDbEntity
  8
0
  6
Continuous
 62
     0
370
    30
100
AcDbLine
 10
831.238526
 20
1278.874763
 30
0.0
 11
831.231542
 21
1282.876508
 31
0.0
  0
LINE
  5
132
330
12C
100
AcDbEntity
  8
0
  6
Continuous
 62
     0
370
     0
100
AcDbLine
 10
831.231542
 20
1282.876508
 30
0.0
 11
799.764587
 21
1282.876508
 31
0.0
  0
LINE
  5
133
330
12C
100
AcDbEntity
  8
0
  6
Continuous
 62
     0
370
    30
100
AcDbLine
 10
800.764585
 20
1283.874763
 30
0.0
 11
830.231543
 21
1283.874763
 31
0.0
  0
ARC
  5
134
330
12C
100
AcDbEntity
  8
0
  6
Continuous
 62
     0
370
    30
100
AcDbCircle
 10
830.231543
 20
1282.874763
 30
0.0
 40
1.0
100
AcDbArc
 50
0.1
 51
90.0
  0
LINE
  5
135
330
12C
100
AcDbEntity
  8
0
  6
Continuous
 62
     0
370
     0
100
AcDbLine
 10
826.864378
 20
1215.737246
 30
0.0
 11
826.673131
 21
1215.734222
 31
0.0
  0
LWPOLYLINE
  5
136
330
12C
100
AcDbEntity
  8
0
  6
Continuous
 62
     0
370
     0
100
AcDbPolyline
 90
       19
 70
     0
 43
0.0
 10
826.673157
 20
1215.734253
 10
826.70874
 20
1214.767944
 10
826.798218
 20
1213.808838
 10
826.93811
 20
1212.862915
 10
827.123352
 20
1211.935303
 10
827.348022
 20
1211.030518
 10
827.605469
 20
1210.1521
 10
827.888611
 20
1209.303955
 10
828.190491
 20
1208.489746
 10
828.503845
 20
1207.713135
 10
828.821655
 20
1206.979004
 10
829.13623
 20
1206.292725
 10
829.439514
 20
1205.661865
 10
829.722778
 20
1205.094849
 10
829.976624
 20
1204.602661
 10
830.190735
 20
1204.197632
 10
830.354675
 20
1203.892822
 10
830.459351
 20
1203.700684
 10
830.498047
 20
1203.630127
  0
ARC
  5
137
330
12C
100
AcDbEntity
  8
0
  6
Continuous
 62
     0
370
    30
100
AcDbCircle
 10
829.748064
 20
1203.630081
 30
0.0
 40
0.7500000000000209
100
AcDbArc
 50
360.0
 51
27.632038
  0
LINE
  5
138
330
12C
100
AcDbEntity
  8
0
  6
Continuous
 62
     0
370
     0
100
AcDbLine
 10
826.673131
 20
1265.3752
 30
0.0
 11
826.673131
 21
1215.734222
 31
0.0
  0
LINE
  5
139
330
12C
100
AcDbEntity
  8
0
  6
Continuous
 62
     0
370
     0
100
AcDbLine
 10
826.864378
 20
1265.3752
 30
0.0
 11
826.673131
 21
1265.3752
 31
0.0
  0
ARC
  5
13A
330
12C
100
AcDbEntity
  8
0
  6
Continuous
 62
     0
370
    30
100
AcDbCircle
 10
829.748064
 20
1277.619541
 30
0.0
 40
0.7500000000000151
100
AcDbArc
 50
332.350169
 51
0.0
  0
LWPOLYLINE
  5
13B
330
12C
100
AcDbEntity
  8
0
  6
Continuous
 62
     0
370
     0
100
AcDbPolyline
 90
       19
 70
     0
 43
0.0
 10
830.498047
 20
1277.619507
 10
830.463074
 20
1277.555664
 10
830.360657
 20
1277.367676
 10
830.197449
 20
1277.064453
 10
829.983032
 20
1276.658936
 10
829.727966
 20
1276.164429
 10
829.442627
 20
1275.593628
 10
829.136963
 20
1274.957764
 10
828.819763
 20
1274.265625
 10
828.499329
 20
1273.524658
 10
828.183472
 20
1272.740845
 10
827.879578
 20
1271.918701
 10
827.594971
 20
1271.062256
 10
827.336853
 20
1270.175171
 10
827.112244
 20
1269.261353
 10
826.927917
 20
1268.324707
 10
826.790283
 20
1267.369751
 10
826.704346
 20
1266.401733
 10
826.673157
 20
1265.375244
  0
LWPOLYLINE
  5
13C
330
12C
100
AcDbEntity
  8
0
  6
Continuous
 62
     0
370
    30
100
AcDbPolyline
 90
       13
 70
     0
 43
0.0
 10
826.914734
 20
1214.556396
 10
827.702271
 20
1218.848633
 10
828.347046
 20
1223.140747
 10
828.848999
 20
1227.432983
 10
829.20813
 20
1231.72522
 10
829.4245
 20
1236.017456
 10
829.498047
 20
1240.30957
 10
829.428833
 20
1244.601807
 10
829.216797
 20
1248.894043
 10
828.862
 20
1253.186279
 10
828.36438
 20
1257.478394
 10
827.723938
 20
1261.77063
 10
826.890503
 20
1266.314087
  0
LINE
  5
13D
330
12C
100
AcDbEntity
  8
0
  6
Continuous
 62
     0
370
    30
100
AcDbLine
 10
825.301294
 20
1148.952881
 30
0.0
 11
831.801115
 21
1148.904583
 31
0.0
  0
LINE
  5
13E
330
12C
100
AcDbEntity
  8
0
  6
Continuous
 62
     0
370
    30
100
AcDbLine
 10
831.801115
 20
1148.904583
 30
0.0
 11
838.300935
 21
1148.856285
 31
0.0
  0
LWPOLYLINE
  5
13F
330
12C
100
AcDbEntity
  8
0
  6
Continuous
 62
     0
370
     0
100
AcDbPolyline
 90
       13
 70
     0
 43
0.0
 10
831.347839
 20
1087.90625
 10
830.492432
 20
1087.869873
 10
829.653564
 20
1087.752197
 10
828.847656
 20
1087.560791
 10
828.088196
 20
1087.309204
 10
827.38739
 20
1087.013428
 10
826.754456
 20
1086.692749
 10
826.197693
 20
1086.367554
 10
825.725281
 20
1086.058472
 10
825.345154
 20
1085.786499
 10
825.064758
 20
1085.572388
 10
824.891052
 20
1085.433838
 10
824.828918
 20
1085.383179
  0
LWPOLYLINE
  5
140
330
12C
100
AcDbEntity
  8
0
  6
Continuous
 62
     0
370
     0
100
AcDbPolyline
 90
       13
 70
     0
 43
0.0
 10
831.347839
 20
1087.90625
 10
832.202637
 20
1087.857178
 10
833.039673
 20
1087.727051
 10
833.842651
 20
1087.523682
 10
834.598267
 20
1087.260742
 10
835.294617
 20
1086.95459
 10
835.922729
 20
1086.624634
 10
836.474609
 20
1086.29126
 10
836.942383
 20
1085.97522
 10
837.31842
 20
1085.69751
 10
837.595581
 20
1085.47937
 10
837.767212
 20
1085.338135
 10
837.828552
 20
1085.286499
  0
LINE
  5
141
330
12C
100
AcDbEntity
  8
0
  6
Continuous
 62
     0
370
     0
100
AcDbLine
 10
831.310708
 20
1082.906442
 30
0.0
 11
831.34786
 21
1087.906304
 31
0.0
  0
LINE
  5
142
330
12C
100
AcDbEntity
  8
0
  6
Continuous
 62
     0
370
    30
100
AcDbLine
 10
771.648079
 20
1077.907715
 30
0.0
 11
804.785226
 21
1077.907715
 31
0.0
  0
ARC
  5
143
330
12C
100
AcDbEntity
  8
0
  6
Continuous
 62
     0
370
    30
100
AcDbCircle
 10
804.785226
 20
1127.907715
 30
0.0
 40
50.0
100
AcDbArc
 50
270.0
 51
291.478418
  0
ARC
  5
144
330
12C
100
AcDbEntity
  8
0
  6
Continuous
 62
     0
370
    30
100
AcDbCircle
 10
772.625974
 20
1270.905723
 30
0.0
 40
240.0
100
AcDbArc
 50
269.766544
 51
285.572055
  0
LINE
  5
145
330
12C
100
AcDbEntity
  8
0
  6
Continuous
 62
     0
370
    30
100
AcDbLine
 10
771.648079
 20
1077.907715
 30
0.0
 11
771.648079
 21
1030.907715
 31
0.0
  0
LINE
  5
146
330
12C
100
AcDbEntity
  8
0
  6
Continuous
 62
     0
370
    30
100
AcDbLine
 10
858.648077
 20
1060.907715
 30
0.0
 11
858.648077
 21
1050.407715
 31
0.0
  0
LINE
  5
147
330
12C
100
AcDbEntity
  8
0
  6
Continuous
 62
     0
370
    30
100
AcDbLine
 10
858.648077
 20
1071.407715
 30
0.0
 11
858.648077
 21
1060.907715
 31
0.0
  0
LWPOLYLINE
  5
148
330
12C
100
AcDbEntity
  8
0
  6
Continuous
 62
     0
370
     0
100
AcDbPolyline
 90
       17
 70
     0
 43
0.0
 10
853.255737
 20
1071.407715
 10
853.310181
 20
1071.35498
 10
853.469604
 20
1071.19812
 10
853.7229
 20
1070.941284
 10
854.054688
 20
1070.589966
 10
854.447144
 20
1070.150391
 10
854.881836
 20
1069.62793
 10
855.341431
 20
1069.02771
 10
855.809143
 20
1068.354126
 10
856.269409
 20
1067.611084
 10
856.707214
 20
1066.80249
 10
857.108765
 20
1065.933472
 10
857.460327
 20
1065.009399
 10
857.749756
 20
1064.037598
 10
857.966064
 20
1063.027588
 10
858.100708
 20
1061.990356
 10
858.147949
 20
1060.907715
  0
LWPOLYLINE
  5
149
330
12C
100
AcDbEntity
  8
0
  6
Continuous
 62
     0
370
     0
100
AcDbPolyline
 90
       17
 70
     0
 43
0.0
 10
858.147949
 20
1060.907715
 10
858.103394
 20
1059.856079
 10
857.971252
 20
1058.818237
 10
857.757324
 20
1057.807251
 10
857.46991
 20
1056.834351
 10
857.120056
 20
1055.908691
 10
856.719788
 20
1055.038086
 10
856.282837
 20
1054.227783
 10
855.823181
 20
1053.482544
 10
855.355469
 20
1052.806885
 10
854.895386
 20
1052.204468
 10
854.459656
 20
1051.679688
 10
854.065796
 20
1051.237549
 10
853.731873
 20
1050.883545
 10
853.475891
 20
1050.623657
 10
853.313904
 20
1050.463867
 10
853.255737
 20
1050.407715
  0
ARC
  5
14A
330
12C
100
AcDbEntity
  8
0
  6
Continuous
 62
     0
370
    30
100
AcDbCircle
 10
831.148079
 20
1060.907715
 30
0.0
 40
22.0
100
AcDbArc
 50
285.572055
 51
111.478418
  0
LINE
  5
14B
330
12C
100
AcDbEntity
  8
0
  6
Continuous
 62
     0
370
    30
100
AcDbLine
 10
858.648077
 20
1071.398271
 30
0.0
 11
866.448077
 21
1071.057715
 31
0.0
  0
LINE
  5
14C
330
12C
100
AcDbEntity
  8
0
  6
Continuous
 62
     0
370
    30
100
AcDbLine
 10
866.448077
 20
1071.057715
 30
0.0
 11
866.448077
 21
1050.757715
 31
0.0
  0
LINE
  5
14D
330
12C
100
AcDbEntity
  8
0
  6
Continuous
 62
     0
370
    30
100
AcDbLine
 10
866.448077
 20
1071.057715
 30
0.0
 11
866.648077
 21
1070.857715
 31
0.0
  0
LINE
  5
14E
330
12C
100
AcDbEntity
  8
0
  6
Continuous
 62
     0
370
    30
100
AcDbLine
 10
786.648074
 20
1080.327716
 30
0.0
 11
805.015817
 21
1080.327716
 31
0.0
  0
LINE
  5
14F
330
12C
100
AcDbEntity
  8
0
  6
Continuous
 62
     0
370
    30
100
AcDbLine
 10
805.015817
 20
1080.327716
 30
0.0
 11
806.648074
 21
1080.327716
 31
0.0
  0
LINE
  5
150
330
12C
100
AcDbEntity
  8
0
  6
Continuous
 62
     0
370
    30
100
AcDbLine
 10
804.513752
 20
1100.327716
 30
0.0
 11
806.048074
 21
1100.327716
 31
0.0
  0
LINE
  5
151
330
12C
100
AcDbEntity
  8
0
  6
Continuous
 62
     0
370
    30
100
AcDbLine
 10
787.248074
 20
1100.327716
 30
0.0
 11
804.513752
 21
1100.327716
 31
0.0
  0
LINE
  5
152
330
12C
100
AcDbEntity
  8
0
  6
Continuous
 62
     0
370
     0
100
AcDbLine
 10
786.648074
 20
1099.727716
 30
0.0
 11
805.015817
 21
1099.727716
 31
0.0
  0
LINE
  5
153
330
12C
100
AcDbEntity
  8
0
  6
Continuous
 62
     0
370
     0
100
AcDbLine
 10
805.015817
 20
1099.727716
 30
0.0
 11
806.648074
 21
1099.727716
 31
0.0
  0
LINE
  5
154
330
12C
100
AcDbEntity
  8
0
  6
Continuous
 62
     0
370
    30
100
AcDbLine
 10
805.787047
 20
1033.207715
 30
0.0
 11
807.148074
 21
1033.207715
 31
0.0
  0
LINE
  5
155
330
12C
100
AcDbEntity
  8
0
  6
Continuous
 62
     0
370
    30
100
AcDbLine
 10
866.648082
 20
1060.907716
 30
0.0
 11
866.648082
 21
1070.907716
 31
0.0
  0
LINE
  5
156
330
12C
100
AcDbEntity
  8
0
  6
Continuous
 62
     0
370
    30
100
AcDbLine
 10
866.648082
 20
1050.907716
 30
0.0
 11
866.648082
 21
1060.907716
 31
0.0
  0
LINE
  5
157
330
12C
100
AcDbEntity
  8
0
  6
Continuous
 62
     0
370
     0
100
AcDbLine
 10
913.648082
 20
1060.907716
 30
0.0
 11
913.648082
 21
1070.907716
 31
0.0
  0
LINE
  5
158
330
12C
100
AcDbEntity
  8
0
  6
Continuous
 62
     0
370
     0
100
AcDbLine
 10
913.648082
 20
1050.907716
 30
0.0
 11
913.648082
 21
1060.907716
 31
0.0
  0
LINE
  5
159
330
12C
100
AcDbEntity
  8
0
  6
Continuous
 62
     0
370
     0
100
AcDbLine
 10
936.164743
 20
1047.907716
 30
0.0
 11
944.824997
 21
1052.907716
 31
0.0
  0
LINE
  5
15A
330
12C
100
AcDbEntity
  8
0
  6
Continuous
 62
     0
370
     0
100
AcDbLine
 10
927.504489
 20
1042.907716
 30
0.0
 11
936.164743
 21
1047.907716
 31
0.0
  0
LINE
  5
15B
330
12C
100
AcDbEntity
  8
0
  6
Continuous
 62
     0
370
    30
100
AcDbLine
 10
946.164743
 20
1030.587208
 30
0.0
 11
954.824997
 21
1035.587208
 31
0.0
  0
LINE
  5
15C
330
12C
100
AcDbEntity
  8
0
  6
Continuous
 62
     0
370
    30
100
AcDbLine
 10
937.504489
 20
1025.587208
 30
0.0
 11
946.164743
 21
1030.587208
 31
0.0
  0
LINE
  5
15D
330
12C
100
AcDbEntity
  8
0
  6
Continuous
 62
     0
370
    30
100
AcDbLine
 10
805.251079
 20
998.57575
 30
0.0
 11
806.548074
 21
998.57575
 31
0.0
  0
LINE
  5
15E
330
12C
100
AcDbEntity
  8
0
  6
Continuous
 62
     0
370
    30
100
AcDbLine
 10
786.748074
 20
998.57575
 30
0.0
 11
805.251079
 21
998.57575
 31
0.0
  0
LINE
  5
15F
330
12C
100
AcDbEntity
  8
0
  6
Continuous
 62
     0
370
    30
100
AcDbLine
 10
785.198074
 20
1028.57575
 30
0.0
 11
806.598015
 21
1028.57575
 31
0.0
  0
LINE
  5
160
330
12C
100
AcDbEntity
  8
0
  6
Continuous
 62
     0
370
    30
100
AcDbLine
 10
806.598015
 20
1028.57575
 30
0.0
 11
808.098074
 21
1028.57575
 31
0.0
  0
LINE
  5
161
330
12C
100
AcDbEntity
  8
0
  6
Continuous
 62
     0
370
    30
100
AcDbLine
 10
808.098074
 20
1028.57575
 30
0.0
 11
806.548074
 21
998.57575
 31
0.0
  0
LINE
  5
162
330
12C
100
AcDbEntity
  8
0
  6
Continuous
 62
     0
370
    30
100
AcDbLine
 10
785.198074
 20
1028.57575
 30
0.0
 11
786.748074
 21
998.57575
 31
0.0
  0
LINE
  5
163
330
12C
100
AcDbEntity
  8
0
  6
Continuous
 62
     0
370
    30
100
AcDbLine
 10
954.824997
 20
1035.587208
 30
0.0
 11
944.824997
 21
1052.907716
 31
0.0
  0
LINE
  5
164
330
12C
100
AcDbEntity
  8
0
  6
Continuous
 62
     0
370
    30
100
AcDbLine
 10
937.504489
 20
1025.587208
 30
0.0
 11
927.504489
 21
1042.907716
 31
0.0
  0
ARC
  5
165
330
12C
100
AcDbEntity
  8
0
  6
Continuous
 62
     0
370
    30
100
AcDbCircle
 10
913.64808
 20
1034.907712
 30
0.0
 40
36.00000400241291
100
AcDbArc
 50
30.000004
 51
89.999996
  0
ARC
  5
166
330
12C
100
AcDbEntity
  8
0
  6
Continuous
 62
     0
370
    30
100
AcDbCircle
 10
913.648081
 20
1034.907714
 30
0.0
 40
16.00000177885068
100
AcDbArc
 50
30.000004
 51
89.999996
  0
LINE
  5
167
330
12C
100
AcDbEntity
  8
0
  6
Continuous
 62
     0
370
    30
100
AcDbLine
 10
913.648082
 20
1070.907716
 30
0.0
 11
866.648082
 21
1070.907716
 31
0.0
  0
LINE
  5
168
330
12C
100
AcDbEntity
  8
0
  6
Continuous
 62
     0
370
    30
100
AcDbLine
 10
913.648082
 20
1050.907716
 30
0.0
 11
866.648082
 21
1050.907716
 31
0.0
  0
LINE
  5
169
330
12C
100
AcDbEntity
  8
0
  6
Continuous
 62
     0
370
    30
100
AcDbLine
 10
786.148074
 20
1028.57575
 30
0.0
 11
786.148074
 21
1031.286799
 31
0.0
  0
LINE
  5
16A
330
12C
100
AcDbEntity
  8
0
  6
Continuous
 62
     0
370
    30
100
AcDbLine
 10
807.148074
 20
1028.57575
 30
0.0
 11
807.148074
 21
1033.207715
 31
0.0
  0
LINE
  5
16B
330
12C
100
AcDbEntity
  8
0
  6
Continuous
 62
     0
370
    30
100
AcDbLine
 10
798.448074
 20
1080.327716
 30
0.0
 11
798.448074
 21
1077.907715
 31
0.0
  0
LINE
  5
16C
330
12C
100
AcDbEntity
  8
0
  6
Continuous
 62
     0
370
    30
100
AcDbLine
 10
794.848074
 20
1080.327716
 30
0.0
 11
794.848074
 21
1077.907715
 31
0.0
  0
ARC
  5
16D
330
12C
100
AcDbEntity
  8
0
  6
Continuous
 62
     0
370
    30
100
AcDbCircle
 10
787.248076
 20
1099.727716
 30
0.0
 40
0.5999999735380547
100
AcDbArc
 50
90.000003
 51
180.000005
  0
ARC
  5
16E
330
12C
100
AcDbEntity
  8
0
  6
Continuous
 62
     0
370
    30
100
AcDbCircle
 10
806.048071
 20
1099.727716
 30
0.0
 40
0.5999999214079745
100
AcDbArc
 50
359.99999
 51
89.999992
  0
LINE
  5
16F
330
12C
100
AcDbEntity
  8
0
  6
Continuous
 62
     0
370
    30
100
AcDbLine
 10
806.648074
 20
1080.327716
 30
0.0
 11
806.648074
 21
1099.727716
 31
0.0
  0
LINE
  5
170
330
12C
100
AcDbEntity
  8
0
  6
Continuous
 62
     0
370
    30
100
AcDbLine
 10
786.648074
 20
1080.327716
 30
0.0
 11
786.648074
 21
1099.727716
 31
0.0
  0
LINE
  5
171
330
12C
100
AcDbEntity
  8
0
  6
Continuous
 62
     0
370
    30
100
AcDbLine
 10
866.448077
 20
1050.757715
 30
0.0
 11
866.648077
 21
1050.957715
 31
0.0
  0
LINE
  5
172
330
12C
100
AcDbEntity
  8
0
  6
Continuous
 62
     0
370
    30
100
AcDbLine
 10
858.648077
 20
1050.41716
 30
0.0
 11
866.448077
 21
1050.757715
 31
0.0
  0
ARC
  5
173
330
12C
100
AcDbEntity
  8
0
  6
Continuous
 62
     0
370
    30
100
AcDbCircle
 10
853.255767
 20
1076.407724
 30
0.0
 40
5.000008109300012
100
AcDbArc
 50
215.294085
 51
269.999929
  0
ARC
  5
174
330
12C
100
AcDbEntity
  8
0
  6
Continuous
 62
     0
370
    30
100
AcDbCircle
 10
853.255771
 20
1045.407706
 30
0.0
 40
5.00000845949198
100
AcDbArc
 50
90.000053
 51
144.964879
  0
LINE
  5
175
330
12C
100
AcDbEntity
  8
0
  6
Continuous
 62
     0
370
    30
100
AcDbLine
 10
853.256045
 20
1071.407715
 30
0.0
 11
858.648077
 21
1071.407715
 31
0.0
  0
LINE
  5
176
330
12C
100
AcDbEntity
  8
0
  6
Continuous
 62
     0
370
    30
100
AcDbLine
 10
853.256045
 20
1050.407715
 30
0.0
 11
858.648077
 21
1050.407715
 31
0.0
  0
ARC
  5
177
330
12C
100
AcDbEntity
  8
0
  6
Continuous
 62
     0
370
    30
100
AcDbCircle
 10
819.829345
 20
1085.420283
 30
0.0
 40
4.99972588264164
100
AcDbArc
 50
299.755315
 51
359.574443
  0
ARC
  5
178
330
12C
100
AcDbEntity
  8
0
  6
Continuous
 62
     0
370
    30
100
AcDbCircle
 10
842.828397
 20
1085.249387
 30
0.0
 40
4.999964694026934
100
AcDbArc
 50
179.574098
 51
243.360283
  0
LINE
  5
179
330
12C
100
AcDbEntity
  8
0
  6
Continuous
 62
     0
370
    30
100
AcDbLine
 10
824.82893
 20
1085.383055
 30
0.0
 11
825.301294
 21
1148.952881
 31
0.0
  0
LINE
  5
17A
330
12C
100
AcDbEntity
  8
0
  6
Continuous
 62
     0
370
    30
100
AcDbLine
 10
837.828572
 20
1085.28646
 30
0.0
 11
838.300935
 21
1148.856285
 31
0.0
  0
LINE
  5
17B
330
12C
100
AcDbEntity
  8
0
  6
Continuous
 62
     0
370
    30
100
AcDbLine
 10
807.023976
 20
1033.207715
 30
0.0
 11
807.047163
 21
1033.386922
 31
0.0
  0
LINE
  5
17C
330
12C
100
AcDbEntity
  8
0
  6
Continuous
 62
     0
370
    30
100
AcDbLine
 10
789.64807
 20
697.97358
 30
0.0
 11
789.648068
 21
699.167724
 31
0.0
  0
LINE
  5
17D
330
12C
100
AcDbEntity
  8
0
  6
Continuous
 62
     0
370
    30
100
AcDbLine
 10
789.648074
 20
998.57575
 30
0.0
 11
789.64807
 21
697.97358
 31
0.0
  0
LWPOLYLINE
  5
17E
330
12C
100
AcDbEntity
  8
0
  6
Continuous
 62
     0
370
    30
100
AcDbPolyline
 90
      102
 70
     0
 43
0.0
 10
803.648071
 20
697.966858
 10
803.648071
 20
698.046387
 10
803.648071
 20
698.271179
 10
803.648071
 20
698.646667
 10
803.648071
 20
699.175354
 10
803.648071
 20
699.858765
 10
803.648071
 20
700.698059
 10
803.648071
 20
701.694275
 10
803.648071
 20
702.848145
 10
803.648071
 20
704.159363
 10
803.648132
 20
705.62738
 10
803.648254
 20
707.250793
 10
803.648438
 20
709.027161
 10
803.648865
 20
710.953247
 10
803.649536
 20
713.025635
 10
803.650574
 20
715.239685
 10
803.652161
 20
717.590149
 10
803.654358
 20
720.071228
 10
803.657349
 20
722.676331
 10
803.661377
 20
725.398987
 10
803.666626
 20
728.231934
 10
803.673279
 20
731.167969
 10
803.68158
 20
734.199768
 10
803.691772
 20
737.319946
 10
803.704041
 20
740.521423
 10
803.718689
 20
743.797424
 10
803.735901
 20
747.141357
 10
803.755981
 20
750.54718
 10
803.778992
 20
754.00885
 10
803.805298
 20
757.521057
 10
803.835083
 20
761.078857
 10
803.868469
 20
764.677551
 10
803.905762
 20
768.312866
 10
803.947083
 20
771.98114
 10
803.992615
 20
775.678711
 10
804.042603
 20
779.402466
 10
804.097046
 20
783.149536
 10
804.15625
 20
786.917358
 10
804.220276
 20
790.703613
 10
804.289307
 20
794.506104
 10
804.363464
 20
798.323181
 10
804.44281
 20
802.153015
 10
804.527588
 20
805.994141
 10
804.617798
 20
809.845215
 10
804.713623
 20
813.705078
 10
804.815125
 20
817.572571
 10
804.922424
 20
821.446716
 10
805.035522
 20
825.326904
 10
805.154663
 20
829.212158
 10
805.279846
 20
833.101868
 10
805.411194
 20
836.9953
 10
805.548706
 20
840.89209
 10
805.692505
 20
844.791687
 10
805.842712
 20
848.693604
 10
805.999329
 20
852.597534
 10
806.162415
 20
856.503174
 10
806.332092
 20
860.410095
 10
806.508362
 20
864.318176
 10
806.691345
 20
868.227051
 10
806.881104
 20
872.136597
 10
807.077637
 20
876.04657
 10
807.281006
 20
879.956787
 10
807.491272
 20
883.867126
 10
807.708557
 20
887.777527
 10
807.9328
 20
891.687866
 10
808.164124
 20
895.597961
 10
808.402527
 20
899.507812
 10
808.648071
 20
903.417236
 10
808.900818
 20
907.326233
 10
809.160767
 20
911.234741
 10
809.42804
 20
915.1427
 10
809.702637
 20
919.050049
 10
809.984497
 20
922.956787
 10
810.273804
 20
926.862793
 10
810.570557
 20
930.768127
 10
810.874756
 20
934.672791
 10
811.186401
 20
938.57666
 10
811.505615
 20
942.479797
 10
811.832397
 20
946.382141
 10
812.166748
 20
950.283691
 10
812.508667
 20
954.184448
 10
812.858276
 20
958.084412
 10
813.215576
 20
961.983521
 10
813.580627
 20
965.881775
 10
813.953308
 20
969.779175
 10
814.333801
 20
973.675781
 10
814.722107
 20
977.571533
 10
815.118164
 20
981.46637
 10
815.522095
 20
985.360413
 10
815.933838
 20
989.25354
 10
816.353516
 20
993.145813
 10
816.781067
 20
997.03717
 10
817.216492
 20
1000.927673
 10
817.659851
 20
1004.817261
 10
818.111206
 20
1008.705994
 10
818.570435
 20
1012.593811
 10
819.03772
 20
1016.480713
 10
819.513
 20
1020.366699
 10
819.996277
 20
1024.251709
 10
820.48761
 20
1028.135864
 10
820.986938
 20
1032.018921
 10
821.498779
 20
1035.93457
  0
LINE
  5
17F
330
12C
100
AcDbEntity
  8
0
  6
Continuous
 62
     0
370
    30
100
AcDbLine
 10
803.648074
 20
998.575749
 30
0.0
 11
803.648068
 21
697.966833
 31
0.0
  0
ARC
  5
180
330
12C
100
AcDbEntity
  8
0
  6
Continuous
 62
     0
370
    30
100
AcDbCircle
 10
796.648073
 20
697.970477
 30
0.0
 40
6.999985955745458
100
AcDbArc
 50
179.963604
 51
88.379183
  0
LINE
  5
181
330
12C
100
AcDbEntity
  8
0
  6
Continuous
 62
     0
370
    30
100
AcDbLine
 10
830.498064
 20
1203.411856
 30
0.0
 11
830.498064
 21
1203.630081
 31
0.0
  0
LINE
  5
182
330
12C
100
AcDbEntity
  8
0
  6
Continuous
 62
     0
370
    30
100
AcDbLine
 10
830.498064
 20
1277.619541
 30
0.0
 11
830.498064
 21
1278.001711
 31
0.0
  0
LWPOLYLINE
  5
183
330
12C
100
AcDbEntity
  8
0
  6
Continuous
 62
     0
370
    30
100
AcDbPolyline
 90
       18
 70
     0
 43
0.0
 10
830.412415
 20
1277.271484
 10
830.367493
 20
1277.185181
 10
830.25592
 20
1276.969116
 10
830.085083
 20
1276.633911
 10
829.86554
 20
1276.194092
 10
829.607849
 20
1275.663452
 10
829.32251
 20
1275.055054
 10
829.019653
 20
1274.380249
 10
828.708374
 20
1273.648315
 10
828.397217
 20
1272.866211
 10
828.09436
 20
1272.039673
 10
827.8078
 20
1271.17334
 10
827.545532
 20
1270.271484
 10
827.315613
 20
1269.337891
 10
827.125732
 20
1268.377075
 10
826.983337
 20
1267.394287
 10
826.895142
 20
1266.395386
 10
826.86438
 20
1265.375244
  0
LINE
  5
184
330
12C
100
AcDbEntity
  8
0
  6
Continuous
 62
     0
370
    30
100
AcDbLine
 10
830.411097
 20
1277.268954
 30
0.0
 11
830.412423
 21
1277.271486
 31
0.0
  0
LINE
  5
185
330
12C
100
AcDbEntity
  8
0
  6
Continuous
 62
     0
370
    30
100
AcDbLine
 10
826.864378
 20
1215.737307
 30
0.0
 11
826.864378
 21
1265.3752
 31
0.0
  0
LWPOLYLINE
  5
186
330
12C
100
AcDbEntity
  8
0
  6
Continuous
 62
     0
370
    30
100
AcDbPolyline
 90
       18
 70
     0
 43
0.0
 10
826.86438
 20
1215.737305
 10
826.901672
 20
1214.738892
 10
826.995605
 20
1213.749146
 10
827.14209
 20
1212.775757
 10
827.334595
 20
1211.824707
 10
827.565979
 20
1210.900879
 10
827.828552
 20
1210.008667
 10
828.114441
 20
1209.151733
 10
828.415771
 20
1208.334106
 10
828.724792
 20
1207.560791
 10
829.033508
 20
1206.837036
 10
829.333557
 20
1206.170166
 10
829.615967
 20
1205.568726
 10
829.87085
 20
1205.044434
 10
830.087891
 20
1204.609863
 10
830.256836
 20
1204.278442
 10
830.36731
 20
1204.064697
 10
830.412537
 20
1203.977905
  0
ARC
  5
187
330
12C
100
AcDbEntity
  8
0
  6
Continuous
 62
     0
370
    30
100
AcDbCircle
 10
800.764611
 20
1282.874738
 30
0.0
 40
1.000025300097711
100
AcDbArc
 50
90.007176
 51
179.898553
  0
LINE
  5
188
330
12C
100
AcDbEntity
  8
0
  6
Continuous
 62
     0
370
    30
100
AcDbLine
 10
799.445979
 20
1100.327716
 30
0.0
 11
799.764587
 21
1282.876508
 31
0.0
  0
LINE
  5
189
330
12C
100
AcDbEntity
  8
0
  6
Continuous
 62
     0
370
    30
100
AcDbLine
 10
799.406848
 20
1077.907715
 30
0.0
 11
799.411072
 21
1080.327716
 31
0.0
  0
ENDBLK
  5
18B
330
12C
100
AcDbEntity
  8
0
100
AcDbBlockEnd
  0
BLOCK
  5
22A
330
18D
100
AcDbEntity
  8
0
100
AcDbBlockBegin
  2
d
 70
     0
 10
-82.429054
 20
138.659302
 30
0.0
  3
d
  1

  0
ELLIPSE
  5
18E
330
18D
100
AcDbEntity
  8
0
  6
Continuous
 62
     0
370
    30
100
AcDbEllipse
 10
1043.105655
 20
375.105418
 30
0.0
 11
10.03275521737465
 21
0.0
 31
0.0
210
0.0
220
0.0
230
-1.0
 40
0.707107
 41
1.716799904958292
 42
2.025133259007909
  0
LWPOLYLINE
  5
18F
330
18D
100
AcDbEntity
  8
0
  6
Continuous
 62
     0
370
    30
100
AcDbPolyline
 90
       11
 70
     0
 43
0.0
 10
1052.853027
 20
387.257782
 10
1052.254028
 20
386.422028
 10
1051.556519
 20
385.690216
 10
1050.769409
 20
385.083649
 10
1049.907227
 20
384.616058
 10
1048.987061
 20
384.289856
 10
1048.024414
 20
384.097473
 10
1047.03125
 20
384.025452
 10
1046.015869
 20
384.058746
 10
1044.983276
 20
384.183838
 10
1043.934937
 20
384.389313
  0
ELLIPSE
  5
190
330
18D
100
AcDbEntity
  8
0
  6
Continuous
 62
     0
370
    30
100
AcDbEllipse
 10
1043.105655
 20
375.105418
 30
0.0
 11
10.03275521737465
 21
0.0
 31
0.0
210
0.0
220
0.0
230
-1.0
 40
0.707107
 41
2.025133259007909
 42
3.092664966475474
  0
LWPOLYLINE
  5
191
330
18D
100
AcDbEntity
  8
0
  6
Continuous
 62
     0
370
    30
100
AcDbPolyline
 90
       19
 70
     0
 43
0.0
 10
1027.686646
 20
500.032013
 10
1027.658203
 20
499.06488
 10
1027.587402
 20
497.980713
 10
1027.493042
 20
496.820068
 10
1027.395508
 20
495.611969
 10
1027.312256
 20
494.375793
 10
1027.257812
 20
493.122894
 10
1027.243042
 20
491.86145
 10
1027.277588
 20
490.598969
 10
1027.370239
 20
489.342773
 10
1027.528931
 20
488.099915
 10
1027.761108
 20
486.877777
 10
1028.073486
 20
485.686707
 10
1028.472168
 20
484.538849
 10
1028.962646
 20
483.447296
 10
1029.547729
 20
482.427643
 10
1030.229614
 20
481.496033
 10
1031.002808
 20
480.670685
 10
1031.881104
 20
479.951965
  0
LWPOLYLINE
  5
192
330
18D
100
AcDbEntity
  8
0
  6
Continuous
 62
     0
370
    30
100
AcDbPolyline
 90
       22
 70
     0
 43
0.0
 10
1031.881104
 20
479.951965
 10
1032.671997
 20
479.460693
 10
1033.509399
 20
479.071075
 10
1034.380737
 20
478.785736
 10
1035.273682
 20
478.605896
 10
1036.178833
 20
478.527466
 10
1037.088257
 20
478.544891
 10
1037.994141
 20
478.652527
 10
1038.890259
 20
478.844147
 10
1039.77063
 20
479.113434
 10
1040.630005
 20
479.454224
 10
1041.463745
 20
479.861359
 10
1042.267822
 20
480.329956
 10
1043.037476
 20
480.855286
 10
1043.765991
 20
481.433167
 10
1044.446289
 20
482.059723
 10
1045.07019
 20
482.730957
 10
1045.625488
 20
483.442932
 10
1046.095703
 20
484.189819
 10
1046.460327
 20
484.962799
 10
1046.694824
 20
485.748779
 10
1046.778564
 20
486.532013
  0
LWPOLYLINE
  5
193
330
18D
100
AcDbEntity
  8
0
  6
Continuous
 62
     0
370
    30
100
AcDbPolyline
 90
       12
 70
     0
 43
0.0
 10
1043.254272
 20
481.018463
 10
1042.344849
 20
480.472107
 10
1041.401611
 20
479.999512
 10
1040.429321
 20
479.607605
 10
1039.43335
 20
479.303864
 10
1038.421021
 20
479.097321
 10
1037.399902
 20
478.997131
 10
1036.378906
 20
479.012177
 10
1035.369385
 20
479.150757
 10
1034.382812
 20
479.420654
 10
1033.436157
 20
479.823059
 10
1032.499146
 20
480.389069
  0
LWPOLYLINE
  5
194
330
18D
100
AcDbEntity
  8
0
  6
Continuous
 62
     0
370
    30
100
AcDbPolyline
 90
       12
 70
     0
 43
0.0
 10
1032.499146
 20
480.389069
 10
1031.694824
 20
481.041473
 10
1030.964111
 20
481.808044
 10
1030.31665
 20
482.672638
 10
1029.759033
 20
483.618439
 10
1029.289795
 20
484.631287
 10
1028.906128
 20
485.697479
 10
1028.604492
 20
486.804993
 10
1028.37915
 20
487.943878
 10
1028.224976
 20
489.104431
 10
1028.135864
 20
490.279144
 10
1028.105713
 20
491.554077
  0
LINE
  5
195
330
18D
100
AcDbEntity
  8
0
  6
Continuous
 62
     0
370
     0
100
AcDbLine
 10
1028.105655
 20
500.328291
 30
0.0
 11
1027.68665
 21
500.03201
 31
0.0
  0
LINE
  5
196
330
18D
100
AcDbEntity
  8
0
  6
Continuous
 62
     0
370
    30
100
AcDbLine
 10
1046.778533
 20
486.53201
 30
0.0
 11
1046.895971
 21
521.616837
 31
0.0
  0
LWPOLYLINE
  5
197
330
18D
100
AcDbEntity
  8
0
  6
Continuous
 62
     0
370
    30
100
AcDbPolyline
 90
       23
 70
     0
 43
0.0
 10
1046.895996
 20
521.616821
 10
1046.824463
 20
522.334229
 10
1046.612671
 20
523.015503
 10
1046.278687
 20
523.654968
 10
1045.844727
 20
524.257874
 10
1045.329468
 20
524.831299
 10
1044.748657
 20
525.38324
 10
1044.113892
 20
525.921509
 10
1043.433105
 20
526.451782
 10
1042.712769
 20
526.978149
 10
1041.95874
 20
527.504761
 10
1041.176025
 20
528.034302
 10
1040.368164
 20
528.56842
 10
1039.538818
 20
529.108826
 10
1038.692017
 20
529.656128
 10
1037.833008
 20
530.209656
 10
1036.966553
 20
530.768799
 10
1036.098633
 20
531.332153
 10
1035.235962
 20
531.897095
 10
1034.385742
 20
532.460693
 10
1033.556152
 20
533.019165
 10
1032.758423
 20
533.565369
 10
1031.975464
 20
534.112366
  0
LWPOLYLINE
  5
198
330
18D
100
AcDbEntity
  8
0
  6
Continuous
 62
     0
370
    30
100
AcDbPolyline
 90
       21
 70
     0
 43
0.0
 10
1031.975464
 20
534.112366
 10
1031.203003
 20
534.665955
 10
1030.494141
 20
535.18811
 10
1029.857178
 20
535.671753
 10
1029.298828
 20
536.110718
 10
1028.818237
 20
536.502747
 10
1028.413574
 20
536.846313
 10
1028.082031
 20
537.140137
 10
1027.819214
 20
537.383545
 10
1027.620605
 20
537.575989
 10
1027.481323
 20
537.71637
 10
1027.39563
 20
537.803162
 10
1027.358154
 20
537.834717
 10
1027.362305
 20
537.806763
 10
1027.401123
 20
537.713074
 10
1027.467285
 20
537.546875
 10
1027.55127
 20
537.29718
 10
1027.641602
 20
536.949036
 10
1027.724121
 20
536.485474
 10
1027.782837
 20
535.889832
 10
1027.804077
 20
535.116821
  0
LINE
  5
199
330
18D
100
AcDbEntity
  8
0
  6
Continuous
 62
     0
370
     0
100
AcDbLine
 10
1027.804088
 20
535.116837
 30
0.0
 11
1028.105655
 21
535.330077
 31
0.0
  0
LINE
  5
19A
330
18D
100
AcDbEntity
  8
0
  6
Continuous
 62
     0
370
    30
100
AcDbLine
 10
1027.804088
 20
535.116837
 30
0.0
 11
1027.68665
 21
500.03201
 31
0.0
  0
ELLIPSE
  5
19B
330
18D
100
AcDbEntity
  8
0
  6
Continuous
 62
     0
370
    30
100
AcDbEllipse
 10
1043.105655
 20
396.318622
 30
0.0
 11
-16.10000000000002
 21
0.0
 31
0.0
210
0.0
220
0.0
230
1.0
 40
0.707107
 41
0.7853981633974447
 42
3.143337994057211
  0
ELLIPSE
  5
19C
330
18D
100
AcDbEntity
  8
0
  6
Continuous
 62
     0
370
    30
100
AcDbEllipse
 10
1043.105655
 20
396.318622
 30
0.0
 11
-16.10000000000002
 21
0.0
 31
0.0
210
0.0
220
0.0
230
1.0
 40
0.707107
 41
6.281439983826425
 42
7.068583470577031
  0
ELLIPSE
  5
19D
330
18D
100
AcDbEntity
  8
0
  6
Continuous
 62
     0
370
     0
100
AcDbEllipse
 10
1043.105655
 20
544.812281
 30
0.0
 11
15.73347743874463
 21
0.0
 31
0.0
210
0.0
220
0.0
230
-1.0
 40
0.707107
 41
2.356194490192341
 42
3.144296171662698
  0
ELLIPSE
  5
19E
330
18D
100
AcDbEntity
  8
0
  6
Continuous
 62
     0
370
     0
100
AcDbEllipse
 10
1043.105655
 20
544.812281
 30
0.0
 11
15.73347743874463
 21
0.0
 31
0.0
210
0.0
220
0.0
230
-1.0
 40
0.707107
 41
6.280918584308157
 42
8.639379797371927
  0
ELLIPSE
  5
19F
330
18D
100
AcDbEntity
  8
0
  6
Continuous
 62
     0
370
     0
100
AcDbEllipse
 10
1043.105655
 20
545.518154
 30
0.0
 11
-14.73347896183132
 21
0.0
 31
0.0
210
0.0
220
0.0
230
1.0
 40
0.707107
 41
0.7853981633974483
 42
3.926990816987244
  0
ELLIPSE
  5
1A0
330
18D
100
AcDbEntity
  8
0
  6
Continuous
 62
     0
370
     0
100
AcDbEllipse
 10
1043.105655
 20
545.518154
 30
0.0
 11
-14.73347896183132
 21
0.0
 31
0.0
210
0.0
220
0.0
230
1.0
 40
0.707107
 41
3.926990816987244
 42
7.068583470577035
  0
LWPOLYLINE
  5
1A1
330
18D
100
AcDbEntity
  8
0
  6
Continuous
 62
     0
370
     0
100
AcDbPolyline
 90
       17
 70
     0
 43
0.0
 10
1032.710205
 20
481.849457
 10
1032.008667
 20
482.441772
 10
1031.382935
 20
483.165619
 10
1030.842651
 20
483.994873
 10
1030.388062
 20
484.903137
 10
1030.015991
 20
485.865631
 10
1029.71875
 20
486.862579
 10
1029.487305
 20
487.878448
 10
1029.312256
 20
488.900482
 10
1029.185059
 20
489.918671
 10
1029.09729
 20
490.924652
 10
1029.040527
 20
491.910095
 10
1029.00708
 20
492.867157
 10
1028.990234
 20
493.788147
 10
1028.983521
 20
494.664917
 10
1028.981689
 20
495.489502
 10
1028.981689
 20
496.258331
  0
LWPOLYLINE
  5
1A2
330
18D
100
AcDbEntity
  8
0
  6
Continuous
 62
     0
370
     0
100
AcDbPolyline
 90
        5
 70
     0
 43
0.0
 10
1028.981689
 20
496.258331
 10
1028.686523
 20
496.270294
 10
1028.419556
 20
496.362305
 10
1028.22522
 20
496.519989
 10
1028.128418
 20
496.750916
  0
LWPOLYLINE
  5
1A3
330
18D
100
AcDbEntity
  8
0
  6
Continuous
 62
     0
370
     0
100
AcDbPolyline
 90
       18
 70
     0
 43
0.0
 10
1028.128418
 20
496.750916
 10
1028.131836
 20
495.985382
 10
1028.141479
 20
495.161194
 10
1028.159912
 20
494.285736
 10
1028.190918
 20
493.366974
 10
1028.238892
 20
492.412262
 10
1028.309692
 20
491.428986
 10
1028.408936
 20
490.424561
 10
1028.543091
 20
489.405853
 10
1028.71936
 20
488.379852
 10
1028.944824
 20
487.35437
 10
1029.227295
 20
486.338959
 10
1029.574829
 20
485.344788
 10
1029.994751
 20
484.386017
 10
1030.493164
 20
483.480408
 10
1031.072632
 20
482.649597
 10
1031.731689
 20
481.916412
 10
1032.499023
 20
481.276581
  0
ELLIPSE
  5
1A4
330
18D
100
AcDbEntity
  8
0
  6
Continuous
 62
     0
370
     0
100
AcDbEllipse
 10
1033.029383
 20
481.651594
 30
0.0
 11
-0.4329954923133774
 21
-0.6123846043429957
 31
0.0
210
0.0
220
0.0
230
-1.0
 40
0.50003
 41
0.6154937665627216
 42
1.540518270119684
  0
LINE
  5
1A5
330
18D
100
AcDbEntity
  8
0
  6
Continuous
 62
     0
370
     0
100
AcDbLine
 10
1028.128455
 20
531.8524
 30
0.0
 11
1028.128455
 21
496.750928
 31
0.0
  0
LINE
  5
1A6
330
18D
100
AcDbEntity
  8
0
  6
Continuous
 62
     0
370
     0
100
AcDbLine
 10
1028.981694
 20
496.258344
 30
0.0
 11
1028.981694
 21
531.356461
 31
0.0
  0
ELLIPSE
  5
1A7
330
18D
100
AcDbEntity
  8
0
  6
Continuous
 62
     0
370
     0
100
AcDbEllipse
 10
1028.877315
 20
531.88163
 30
0.0
 11
0.749999999999981
 21
0.0
 31
0.0
210
0.0
220
0.0
230
-1.0
 40
0.707107
 41
1.431169986635324
 42
3.086449342573144
  0
LWPOLYLINE
  5
1A8
330
18D
100
AcDbEntity
  8
0
  6
Continuous
 62
     0
370
     0
100
AcDbPolyline
 90
        5
 70
     0
 43
0.0
 10
1041.577515
 20
522.549866
 10
1041.595337
 20
522.341553
 10
1041.726196
 20
522.153137
 10
1041.950806
 20
522.016663
 10
1042.278931
 20
521.950073
  0
LWPOLYLINE
  5
1A9
330
18D
100
AcDbEntity
  8
0
  6
Continuous
 62
     0
370
     0
100
AcDbPolyline
 90
       14
 70
     0
 43
0.0
 10
1042.278931
 20
521.950073
 10
1042.181885
 20
522.901672
 10
1041.929443
 20
523.848755
 10
1041.53125
 20
524.785706
 10
1040.999634
 20
525.711426
 10
1040.348145
 20
526.62738
 10
1039.5896
 20
527.536377
 10
1038.735474
 20
528.441772
 10
1037.797363
 20
529.34552
 10
1036.788086
 20
530.24646
 10
1035.724243
 20
531.13916
 10
1034.630493
 20
532.010559
 10
1033.541626
 20
532.838562
 10
1032.499023
 20
533.595032
  0
ELLIPSE
  5
1AA
330
18D
100
AcDbEntity
  8
0
  6
Continuous
 62
     0
370
     0
100
AcDbEllipse
 10
1033.029383
 20
533.970044
 30
0.0
 11
0.432993914235325
 21
0.6123857201431094
 31
0.0
210
0.0
220
0.0
230
1.0
 40
0.500033
 41
2.526097598478187
 42
3.141641579608422
  0
ELLIPSE
  5
1AB
330
18D
100
AcDbEntity
  8
0
  6
Continuous
 62
     0
370
     0
100
AcDbEllipse
 10
1042.320261
 20
487.373662
 30
0.0
 11
-0.7499999999999589
 21
0.0
 31
0.0
210
0.0
220
0.0
230
1.0
 40
0.707107
 41
0.0000000085571497
 42
1.515653015778387
  0
LINE
  5
1AC
330
18D
100
AcDbEntity
  8
0
  6
Continuous
 62
     0
370
     0
100
AcDbLine
 10
1042.278924
 20
486.844138
 30
0.0
 11
1042.278924
 21
521.950055
 31
0.0
  0
LWPOLYLINE
  5
1AD
330
18D
100
AcDbEntity
  8
0
  6
Continuous
 62
     0
370
     0
100
AcDbPolyline
 90
       10
 70
     0
 43
0.0
 10
1029.799316
 20
534.94458
 10
1029.519897
 20
534.943542
 10
1029.315308
 20
534.844421
 10
1029.172729
 20
534.649475
 10
1029.079712
 20
534.359802
 10
1029.024658
 20
533.974182
 10
1028.996216
 20
533.490601
 10
1028.984741
 20
532.906738
 10
1028.981689
 20
532.221436
 10
1028.981689
 20
531.356445
  0
LINE
  5
1AE
330
18D
100
AcDbEntity
  8
0
  6
Continuous
 62
     0
370
     0
100
AcDbLine
 10
1028.981694
 20
531.356461
 30
0.0
 11
1031.586348
 21
531.615304
 31
0.0
  0
LWPOLYLINE
  5
1AF
330
18D
100
AcDbEntity
  8
0
  6
Continuous
 62
     0
370
    30
100
AcDbPolyline
 90
        4
 70
     0
 43
0.0
 10
1031.586304
 20
531.615295
 10
1031.798828
 20
532.336426
 10
1032.031738
 20
532.960205
 10
1032.328857
 20
533.544922
  0
LINE
  5
1B0
330
18D
100
AcDbEntity
  8
0
  6
Continuous
 62
     0
370
     0
100
AcDbLine
 10
1028.98165
 20
496.25817
 30
0.0
 11
1031.470643
 21
496.514078
 31
0.0
  0
LWPOLYLINE
  5
1B1
330
18D
100
AcDbEntity
  8
0
  6
Continuous
 62
     0
370
    30
100
AcDbPolyline
 90
       10
 70
     0
 43
0.0
 10
1030.013428
 20
503.402802
 10
1029.592163
 20
506.467743
 10
1029.318848
 20
509.555817
 10
1029.194458
 20
512.663513
 10
1029.219604
 20
515.787292
 10
1029.394287
 20
518.923523
 10
1029.717529
 20
522.06842
 10
1030.187988
 20
525.218384
 10
1030.803345
 20
528.369812
 10
1031.586304
 20
531.615295
  0
LWPOLYLINE
  5
1B2
330
18D
100
AcDbEntity
  8
0
  6
Continuous
 62
     0
370
     0
100
AcDbPolyline
 90
       18
 70
     0
 43
0.0
 10
1032.710205
 20
481.849457
 10
1033.417603
 20
481.433533
 10
1034.162476
 20
481.15448
 10
1034.9198
 20
481.012817
 10
1035.671143
 20
481.000916
 10
1036.405396
 20
481.104004
 10
1037.112549
 20
481.307617
 10
1037.785889
 20
481.598877
 10
1038.419678
 20
481.965485
 10
1039.009155
 20
482.397186
 10
1039.550293
 20
482.885376
 10
1040.038696
 20
483.421875
 10
1040.469604
 20
483.999603
 10
1040.837769
 20
484.611572
 10
1041.137573
 20
485.251282
 10
1041.363647
 20
485.912445
 10
1041.510498
 20
486.588165
 10
1041.575806
 20
487.309174
  0
LWPOLYLINE
  5
1B3
330
18D
100
AcDbEntity
  8
0
  6
Continuous
 62
     0
370
    30
100
AcDbPolyline
 90
       11
 70
     0
 43
0.0
 10
1041.570312
 20
487.687439
 10
1041.28064
 20
487.263489
 10
1040.912964
 20
486.882202
 10
1040.473755
 20
486.554199
 10
1039.970215
 20
486.290833
 10
1039.410645
 20
486.104218
 10
1038.804565
 20
486.007355
 10
1038.163208
 20
486.014038
 10
1037.499878
 20
486.136627
 10
1036.830078
 20
486.385254
 10
1036.105469
 20
486.808838
  0
LWPOLYLINE
  5
1B4
330
18D
100
AcDbEntity
  8
0
  6
Continuous
 62
     0
370
    30
100
AcDbPolyline
 90
        8
 70
     0
 43
0.0
 10
1036.105469
 20
486.808838
 10
1035.428833
 20
487.374298
 10
1034.808228
 20
488.06546
 10
1034.25708
 20
488.852234
 10
1033.774658
 20
489.706482
 10
1033.355591
 20
490.603088
 10
1032.992188
 20
491.519714
 10
1032.665894
 20
492.465698
  0
LWPOLYLINE
  5
1B5
330
18D
100
AcDbEntity
  8
0
  6
Continuous
 62
     0
370
     0
100
AcDbPolyline
 90
       18
 70
     0
 43
0.0
 10
1032.499023
 20
481.276581
 10
1033.294434
 20
480.804321
 10
1034.125
 20
480.481079
 10
1034.969482
 20
480.305603
 10
1035.809937
 20
480.268005
 10
1036.630859
 20
480.355194
 10
1037.421143
 20
480.552612
 10
1038.172363
 20
480.845764
 10
1038.878418
 20
481.222137
 10
1039.533203
 20
481.670258
 10
1040.131836
 20
482.180511
 10
1040.669067
 20
482.744202
 10
1041.13916
 20
483.353485
 10
1041.536255
 20
484.001038
 10
1041.854126
 20
484.679596
 10
1042.087036
 20
485.382019
 10
1042.229736
 20
486.101166
 10
1042.278931
 20
486.844147
  0
LWPOLYLINE
  5
1B6
330
18D
100
AcDbEntity
  8
0
  6
Continuous
 62
     0
370
     0
100
AcDbPolyline
 90
       16
 70
     0
 43
0.0
 10
1032.499023
 20
533.595032
 10
1031.666626
 20
534.168945
 10
1030.927856
 20
534.647278
 10
1030.294312
 20
535.021179
 10
1029.765381
 20
535.289551
 10
1029.335571
 20
535.454224
 10
1028.993896
 20
535.51947
 10
1028.72876
 20
535.488953
 10
1028.528564
 20
535.365356
 10
1028.382202
 20
535.14978
 10
1028.279541
 20
534.841736
 10
1028.21106
 20
534.440063
 10
1028.168579
 20
533.943237
 10
1028.144287
 20
533.349915
 10
1028.13208
 20
532.660645
 10
1028.128418
 20
531.852417
  0
LWPOLYLINE
  5
1B7
330
18D
100
AcDbEntity
  8
0
  6
Continuous
 62
     0
370
     0
100
AcDbPolyline
 90
       14
 70
     0
 43
0.0
 10
1036.105469
 20
486.808838
 10
1035.30896
 20
489.658203
 10
1034.640137
 20
492.597839
 10
1034.098877
 20
495.627716
 10
1033.685303
 20
498.747864
 10
1033.399414
 20
501.958282
 10
1033.241089
 20
505.258972
 10
1033.210449
 20
508.649933
 10
1033.307495
 20
512.131165
 10
1033.532227
 20
515.702637
 10
1033.884521
 20
519.36438
 10
1034.364624
 20
523.116394
 10
1034.972168
 20
526.958679
 10
1035.716797
 20
530.937439
  0
ELLIPSE
  5
1B8
330
18D
100
AcDbEntity
  8
0
  6
Continuous
 62
     0
370
    30
100
AcDbEllipse
 10
1074.112287
 20
405.062797
 30
0.0
 11
-8.948929121387749
 21
12.65569704047862
 31
0.0
210
0.0
220
0.0
230
-0.9999999999999999
 40
0.5
 41
0.9553166100567827
 42
3.141592649555919
  0
ELLIPSE
  5
1B9
330
18D
100
AcDbEntity
  8
0
  6
Continuous
 62
     0
370
    30
100
AcDbEllipse
 10
1074.112287
 20
405.062797
 30
0.0
 11
-8.948929121387749
 21
12.65569704047862
 31
0.0
210
0.0
220
0.0
230
-0.9999999999999999
 40
0.5
 41
6.283185303145714
 42
7.23850191723635
  0
LINE
  5
1BA
330
18D
100
AcDbEntity
  8
0
  6
Continuous
 62
     0
370
    30
100
AcDbLine
 10
1033.037067
 20
375.353077
 30
0.0
 11
1033.041923
 21
375.379148
 31
0.0
  0
LINE
  5
1BB
330
18D
100
AcDbEntity
  8
0
  6
Continuous
 62
     0
370
    30
100
AcDbLine
 10
1032.941378
 20
376.831068
 30
0.0
 11
1033.037067
 21
375.353077
 31
0.0
  0
ELLIPSE
  5
1BC
330
18D
100
AcDbEntity
  8
0
  6
Continuous
 62
     0
370
     0
100
AcDbEllipse
 10
1035.928521
 20
378.062797
 30
0.0
 11
8.948929121387764
 21
-12.65569704047864
 31
0.0
210
0.0
220
0.0
230
0.9999999999999999
 40
0.5
 41
2.919802994461813
 42
3.143925423717318
  0
LWPOLYLINE
  5
1BD
330
18D
100
AcDbEntity
  8
0
  6
Continuous
 62
     0
370
    30
100
AcDbPolyline
 90
       11
 70
     0
 43
0.0
 10
1029.918091
 20
373.147644
 10
1029.715698
 20
373.080933
 10
1029.51416
 20
373.12027
 10
1029.335571
 20
373.225647
 10
1029.176025
 20
373.367279
 10
1029.033203
 20
373.53299
 10
1028.905029
 20
373.715668
 10
1028.789673
 20
373.910706
 10
1028.686157
 20
374.115509
 10
1028.593262
 20
374.328278
 10
1028.503906
 20
374.566833
  0
ELLIPSE
  5
1BE
330
18D
100
AcDbEntity
  8
0
  6
Continuous
 62
     0
370
     0
100
AcDbEllipse
 10
1035.221414
 20
377.562797
 30
0.0
 11
-8.37157885549178
 21
11.83920045722195
 31
0.0
210
0.0
220
0.0
230
-1.0
 40
0.5
 41
4.811320079277569
 42
6.524091101605348
  0
LWPOLYLINE
  5
1BF
330
18D
100
AcDbEntity
  8
0
  6
Continuous
 62
     0
370
    30
100
AcDbPolyline
 90
        3
 70
     0
 43
0.0
 10
1028.503906
 20
390.058777
 10
1028.701294
 20
390.325226
 10
1029.071289
 20
390.739777
  0
LINE
  5
1C0
330
18D
100
AcDbEntity
  8
0
  6
Continuous
 62
     0
370
     0
100
AcDbLine
 10
1028.5039
 20
390.058764
 30
0.0
 11
1028.5039
 21
374.56683
 31
0.0
  0
LINE
  5
1C1
330
18D
100
AcDbEntity
  8
0
  6
Continuous
 62
     0
370
     0
100
AcDbLine
 10
1029.918113
 20
373.147645
 30
0.0
 11
1029.918113
 21
389.787973
 31
0.0
  0
ELLIPSE
  5
1C2
330
18D
100
AcDbEntity
  8
0
  6
Continuous
 62
     0
370
     0
100
AcDbEllipse
 10
1035.928521
 20
378.062797
 30
0.0
 11
8.948929121387764
 21
-12.65569704047864
 31
0.0
210
0.0
220
0.0
230
0.9999999999999999
 40
0.5
 41
6.281041019254168
 42
7.889027127309204
  0
LWPOLYLINE
  5
1C3
330
18D
100
AcDbEntity
  8
0
  6
Continuous
 62
     0
370
    30
100
AcDbPolyline
 90
       11
 70
     0
 43
0.0
 10
1041.938965
 20
382.977936
 10
1041.783813
 20
382.792236
 10
1041.692749
 20
382.546906
 10
1041.653931
 20
382.288879
 10
1041.64624
 20
382.030029
 10
1041.661255
 20
381.774902
 10
1041.693237
 20
381.525116
 10
1041.737915
 20
381.281097
 10
1041.793213
 20
381.043091
 10
1041.857666
 20
380.811096
 10
1041.938965
 20
380.558777
  0
ELLIPSE
  5
1C4
330
18D
100
AcDbEntity
  8
0
  6
Continuous
 62
     0
370
     0
100
AcDbEllipse
 10
1035.221414
 20
377.562797
 30
0.0
 11
-8.37157885549178
 21
11.83920045722195
 31
0.0
210
0.0
220
0.0
230
-1.0
 40
0.5
 41
1.669727425687785
 42
3.382498448015539
  0
LWPOLYLINE
  5
1C5
330
18D
100
AcDbEntity
  8
0
  6
Continuous
 62
     0
370
    30
100
AcDbPolyline
 90
        6
 70
     0
 43
0.0
 10
1041.938965
 20
365.066833
 10
1041.833252
 20
364.906921
 10
1041.74585
 20
364.765656
 10
1041.681152
 20
364.647064
 10
1041.647583
 20
364.557648
 10
1041.674683
 20
364.507751
  0
LINE
  5
1C6
330
18D
100
AcDbEntity
  8
0
  6
Continuous
 62
     0
370
     0
100
AcDbLine
 10
1041.938928
 20
365.06683
 30
0.0
 11
1041.938928
 21
380.558764
 31
0.0
  0
LINE
  5
1C7
330
18D
100
AcDbEntity
  8
0
  6
Continuous
 62
     0
370
    30
100
AcDbLine
 10
1043.9349
 20
384.389313
 30
0.0
 11
1041.938928
 21
382.977948
 31
0.0
  0
LINE
  5
1C8
330
18D
100
AcDbEntity
  8
0
  6
Continuous
 62
     0
370
    30
100
AcDbLine
 10
1033.037068
 20
375.353079
 30
0.0
 11
1029.918113
 21
373.147645
 31
0.0
  0
ELLIPSE
  5
1C9
330
18D
100
AcDbEntity
  8
0
  6
Continuous
 62
     0
370
    30
100
AcDbEllipse
 10
940.722196
 20
444.603013
 30
0.0
 11
-12.70172714817688
 21
-17.96295495226106
 31
0.0
210
0.0
220
0.0
230
-1.0
 40
0.5
 41
2.178845553570927
 42
2.487701891426344
  0
ELLIPSE
  5
1CA
330
18D
100
AcDbEntity
  8
0
  6
Continuous
 62
     0
370
    30
100
AcDbEllipse
 10
940.722196
 20
444.603013
 30
0.0
 11
-12.70172714817688
 21
-17.96295495226106
 31
0.0
210
0.0
220
0.0
230
-1.0
 40
0.5
 41
0.0000000121016167
 42
2.178845553570924
  0
ELLIPSE
  5
1CB
330
18D
100
AcDbEntity
  8
0
  6
Continuous
 62
     0
370
     0
100
AcDbEllipse
 10
962.642506
 20
429.103013
 30
0.0
 11
-12.4130520152294
 21
-17.55470666063265
 31
0.0
210
0.0
220
0.0
230
-1.0
 40
0.5
 41
2.178845553570927
 42
5.32043820716072
  0
ELLIPSE
  5
1CC
330
18D
100
AcDbEntity
  8
0
  6
Continuous
 62
     0
370
     0
100
AcDbEllipse
 10
962.642506
 20
429.103013
 30
0.0
 11
-12.4130520152294
 21
-17.55470666063265
 31
0.0
210
0.0
220
0.0
230
-1.0
 40
0.5
 41
5.32043820716072
 42
8.46203086075051
  0
ELLIPSE
  5
1CD
330
18D
100
AcDbEntity
  8
0
  6
Continuous
 62
     0
370
     0
100
AcDbEllipse
 10
962.288953
 20
429.353013
 30
0.0
 11
-12.70172714817701
 21
-17.96295495226126
 31
0.0
210
0.0
220
0.0
230
-1.0
 40
0.5
 41
6.283182894671674
 42
8.46203086075051
  0
ELLIPSE
  5
1CE
330
18D
100
AcDbEntity
  8
0
  6
Continuous
 62
     0
370
     0
100
AcDbEllipse
 10
962.288953
 20
429.353013
 30
0.0
 11
-12.70172714817701
 21
-17.96295495226126
 31
0.0
210
0.0
220
0.0
230
-1.0
 40
0.5
 41
2.178845553570927
 42
3.141592665691411
  0
ELLIPSE
  5
1CF
330
18D
100
AcDbEntity
  8
0
  6
Continuous
 62
     0
370
    30
100
AcDbEllipse
 10
951.573544
 20
498.499753
 30
0.0
 11
-6.499818660722463
 21
-0.0485528343565724
 31
0.0
210
0.0
220
0.0
230
0.9999999999999998
 40
0.710802
 41
2.350898737533838
 42
5.492491391123638
  0
ELLIPSE
  5
1D0
330
18D
100
AcDbEntity
  8
0
  6
Continuous
 62
     0
370
    30
100
AcDbEllipse
 10
951.573544
 20
498.499753
 30
0.0
 11
-6.499818660722463
 21
-0.0485528343565724
 31
0.0
210
0.0
220
0.0
230
0.9999999999999998
 40
0.710802
 41
5.492491391123638
 42
8.634084044713425
  0
LWPOLYLINE
  5
1D1
330
18D
100
AcDbEntity
  8
0
  6
Continuous
 62
     0
370
     0
100
AcDbPolyline
 90
        7
 70
     0
 43
0.0
 10
958.400452
 20
454.757385
 10
958.35376
 20
454.402344
 10
958.205322
 20
454.038849
 10
957.955933
 20
453.662811
 10
957.607788
 20
453.271637
 10
957.165222
 20
452.865967
 10
956.490234
 20
452.344086
  0
LWPOLYLINE
  5
1D2
330
18D
100
AcDbEntity
  8
0
  6
Continuous
 62
     0
370
     0
100
AcDbPolyline
 90
       19
 70
     0
 43
0.0
 10
945.401123
 20
454.653809
 10
945.460999
 20
453.829559
 10
945.628052
 20
453.027069
 10
945.901245
 20
452.269623
 10
946.277893
 20
451.581055
 10
946.75293
 20
450.983673
 10
947.318542
 20
450.496307
 10
947.963318
 20
450.131927
 10
948.673401
 20
449.895233
 10
949.434204
 20
449.783112
 10
950.231628
 20
449.786499
 10
951.052673
 20
449.892853
 10
951.885681
 20
450.087799
 10
952.719482
 20
450.35675
 10
953.542419
 20
450.685486
 10
954.342224
 20
451.060059
 10
955.105591
 20
451.466797
 10
955.817993
 20
451.892761
 10
956.490234
 20
452.344086
  0
LWPOLYLINE
  5
1D3
330
18D
100
AcDbEntity
  8
0
  6
Continuous
 62
     0
370
     0
100
AcDbPolyline
 90
       14
 70
     0
 43
0.0
 10
958.395325
 20
455.450836
 10
959.364502
 20
454.732513
 10
960.217834
 20
453.999329
 10
960.941589
 20
453.261017
 10
961.526672
 20
452.523895
 10
961.96698
 20
451.79184
 10
962.25885
 20
451.066467
 10
962.399963
 20
450.348633
 10
962.388489
 20
449.639038
 10
962.22345
 20
448.939728
 10
961.904968
 20
448.253784
 10
961.435181
 20
447.586365
 10
960.819153
 20
446.944611
 10
960.052063
 20
446.327209
  0
LWPOLYLINE
  5
1D4
330
18D
100
AcDbEntity
  8
0
  6
Continuous
 62
     0
370
     0
100
AcDbPolyline
 90
        3
 70
     0
 43
0.0
 10
943.788574
 20
457.827209
 10
944.471619
 20
458.246582
 10
945.371155
 20
458.633881
  0
LWPOLYLINE
  5
1D5
330
18D
100
AcDbEntity
  8
0
  6
Continuous
 62
     0
370
     0
100
AcDbPolyline
 90
       29
 70
     0
 43
0.0
 10
943.788574
 20
457.827209
 10
943.09137
 20
457.235962
 10
942.508606
 20
456.545074
 10
942.047852
 20
455.766998
 10
941.714539
 20
454.915558
 10
941.510193
 20
454.006622
 10
941.435669
 20
453.056091
 10
941.490295
 20
452.079681
 10
941.672852
 20
451.09314
 10
941.981689
 20
450.112396
 10
942.414612
 20
449.153717
 10
942.968628
 20
448.234039
 10
943.638489
 20
447.370453
 10
944.417053
 20
446.579956
 10
945.293823
 20
445.877533
 10
946.255676
 20
445.275726
 10
947.287354
 20
444.782227
 10
948.372925
 20
444.400787
 10
949.497131
 20
444.130463
 10
950.645447
 20
443.967957
 10
951.805176
 20
443.907654
 10
952.964111
 20
443.943329
 10
954.110962
 20
444.068329
 10
955.233948
 20
444.276062
 10
956.320557
 20
444.559845
 10
957.35791
 20
444.912903
 10
958.331726
 20
445.328003
 10
959.227844
 20
445.797546
 10
960.052063
 20
446.327209
  0
ELLIPSE
  5
1D6
330
18D
100
AcDbEntity
  8
0
  6
Continuous
 62
     0
370
     0
100
AcDbEllipse
 10
960.025772
 20
449.844084
 30
0.0
 11
2.90686892359105
 21
-4.068183017154055
 31
0.0
210
0.0
220
0.0
230
1.0
 40
0.494732
 41
3.75461713645165
 42
5.325413463246552
  0
ELLIPSE
  5
1D7
330
18D
100
AcDbEntity
  8
0
  6
Continuous
 62
     0
370
     0
100
AcDbEllipse
 10
943.762316
 20
461.344084
 30
0.0
 11
2.906868923591047
 21
-4.068183017154051
 31
0.0
210
0.0
220
0.0
230
1.0
 40
0.494732
 41
5.325413463246552
 42
5.794092751106032
  0
ELLIPSE
  5
1D8
330
18D
100
AcDbEntity
  8
0
  6
Continuous
 62
     0
370
    30
100
AcDbEllipse
 10
938.186788
 20
446.395483
 30
0.0
 11
11.80681293757285
 21
16.69735512759917
 31
0.0
210
0.0
220
0.0
230
1.0
 40
0.5
 41
2.236018188821813
 42
3.034205528681938
  0
ELLIPSE
  5
1D9
330
18D
100
AcDbEntity
  8
0
  6
Continuous
 62
     0
370
    30
100
AcDbEllipse
 10
938.186788
 20
446.395483
 30
0.0
 11
11.80681293757285
 21
16.69735512759917
 31
0.0
210
0.0
220
0.0
230
1.0
 40
0.5
 41
0.4385739783767075
 42
2.236018188821813
  0
LINE
  5
1DA
330
18D
100
AcDbEntity
  8
0
  6
Continuous
 62
     0
370
    30
100
AcDbLine
 10
838.838285
 20
588.166297
 30
0.0
 11
815.406783
 21
571.597724
 31
0.0
  0
LINE
  5
1DB
330
18D
100
AcDbEntity
  8
0
  6
Continuous
 62
     0
370
     0
100
AcDbLine
 10
886.134261
 20
521.585845
 30
0.0
 11
945.212966
 21
479.810892
 31
0.0
  0
LINE
  5
1DC
330
18D
100
AcDbEntity
  8
0
  6
Continuous
 62
     0
370
     0
100
AcDbLine
 10
815.406783
 20
571.597724
 30
0.0
 11
883.680661
 21
523.320802
 31
0.0
  0
LINE
  5
1DD
330
18D
100
AcDbEntity
  8
0
  6
Continuous
 62
     0
370
    30
100
AcDbLine
 10
980.259641
 20
488.166298
 30
0.0
 11
958.26708
 21
472.615209
 31
0.0
  0
LINE
  5
1DE
330
18D
100
AcDbEntity
  8
0
  6
Continuous
 62
     0
370
    30
100
AcDbLine
 10
900.822893
 20
544.336561
 30
0.0
 11
980.259641
 21
488.166298
 31
0.0
  0
LINE
  5
1DF
330
18D
100
AcDbEntity
  8
0
  6
Continuous
 62
     0
370
    30
100
AcDbLine
 10
838.838285
 20
588.166297
 30
0.0
 11
896.12615
 21
547.65766
 31
0.0
  0
ELLIPSE
  5
1E0
330
18D
100
AcDbEntity
  8
0
  6
Continuous
 62
     0
370
    30
100
AcDbEllipse
 10
815.406783
 20
606.953063
 30
0.0
 11
-28.86751329479915
 21
-40.82482916283417
 31
0.0
210
0.0
220
0.0
230
-1.0
 40
0.5
 41
5.327868697122823
 42
5.702737806568778
  0
LINE
  5
1E1
330
18D
100
AcDbEntity
  8
0
  6
Continuous
 62
     0
370
     0
100
AcDbLine
 10
802.4614
 20
564.899187
 30
0.0
 11
943.882756
 21
464.899188
 31
0.0
  0
ELLIPSE
  5
1E2
330
18D
100
AcDbEntity
  8
0
  6
Continuous
 62
     0
370
    30
100
AcDbEllipse
 10
956.828139
 20
506.953064
 30
0.0
 11
-28.86751329479915
 21
-40.82482916283417
 31
0.0
210
0.0
220
0.0
230
-1.0
 40
0.5
 41
5.659386955959614
 42
5.70273780656878
  0
ELLIPSE
  5
1E3
330
18D
100
AcDbEntity
  8
0
  6
Continuous
 62
     0
370
    30
100
AcDbEllipse
 10
979.568165
 20
624.147552
 30
0.0
 11
138.5640638150359
 21
195.959179981604
 31
0.0
210
0.0
220
0.0
230
0.9999999999999999
 40
0.5
 41
4.053036756145087
 42
4.100983838484991
  0
LINE
  5
1E4
330
18D
100
AcDbEntity
  8
0
  6
Continuous
 62
     0
370
    30
100
AcDbLine
 10
980.259641
 20
488.166298
 30
0.0
 11
980.259641
 21
454.932279
 31
0.0
  0
ELLIPSE
  5
1E5
330
18D
100
AcDbEntity
  8
0
  6
Continuous
 62
     0
370
    30
100
AcDbEllipse
 10
797.826091
 20
518.145482
 30
0.0
 11
6.062177791907819
 21
-8.573214124195173
 31
0.0
210
0.0
220
0.0
230
1.0
 40
0.5
 41
6.21555741901955
 42
6.898665023917726
  0
ELLIPSE
  5
1E6
330
18D
100
AcDbEntity
  8
0
  6
Continuous
 62
     0
370
    30
100
AcDbEllipse
 10
797.826091
 20
518.145482
 30
0.0
 11
6.062177791907819
 21
-8.573214124195173
 31
0.0
210
0.0
220
0.0
230
1.0
 40
0.5
 41
0.6154797167381396
 42
3.209220549817577
  0
LWPOLYLINE
  5
1E7
330
18D
100
AcDbEntity
  8
0
  6
Continuous
 62
     0
370
     0
100
AcDbPolyline
 90
       27
 70
     0
 43
0.0
 10
805.604248
 20
513.145508
 10
805.598694
 20
513.931458
 10
805.581177
 20
514.80188
 10
805.550476
 20
515.743835
 10
805.504089
 20
516.743164
 10
805.438782
 20
517.785034
 10
805.350586
 20
518.855042
 10
805.234314
 20
519.93988
 10
805.084229
 20
521.02655
 10
804.893555
 20
522.102661
 10
804.654724
 20
523.155823
 10
804.359009
 20
524.172546
 10
803.997681
 20
525.139038
 10
803.562073
 20
526.039734
 10
803.044983
 20
526.85791
 10
802.442322
 20
527.576721
 10
801.75592
 20
528.181335
 10
800.99176
 20
528.660095
 10
800.16272
 20
529.007507
 10
799.285339
 20
529.224304
 10
798.377563
 20
529.315857
 10
797.457397
 20
529.290771
 10
796.541931
 20
529.159058
 10
795.646484
 20
528.930237
 10
794.785706
 20
528.613831
 10
793.973633
 20
528.21814
 10
793.196594
 20
527.73175
  0
LWPOLYLINE
  5
1E8
330
18D
100
AcDbEntity
  8
0
  6
Continuous
 62
     0
370
     0
100
AcDbPolyline
 90
        7
 70
     0
 43
0.0
 10
805.321045
 20
510.585419
 10
805.41803
 20
510.71524
 10
805.489807
 20
510.951141
 10
805.541199
 20
511.298157
 10
805.575745
 20
511.758362
 10
805.596191
 20
512.331726
 10
805.604248
 20
513.145508
  0
ELLIPSE
  5
1E9
330
18D
100
AcDbEntity
  8
0
  6
Continuous
 62
     0
370
    30
100
AcDbEllipse
 10
796.765431
 20
546.395482
 30
0.0
 11
12.70170584971162
 21
17.96292483164703
 31
0.0
210
0.0
220
0.0
230
1.0
 40
0.5
 41
0.5804475006108083
 42
3.141592641488177
  0
ELLIPSE
  5
1EA
330
18D
100
AcDbEntity
  8
0
  6
Continuous
 62
     0
370
    30
100
AcDbEllipse
 10
938.186787
 20
446.395483
 30
0.0
 11
12.70170584971162
 21
17.96292483164703
 31
0.0
210
0.0
220
0.0
230
1.0
 40
0.5
 41
0.5804475006108119
 42
3.283241432055713
  0
LWPOLYLINE
  5
1EB
330
18D
100
AcDbEntity
  8
0
  6
Continuous
 62
     0
370
     0
100
AcDbPolyline
 90
       13
 70
     0
 43
0.0
 10
808.488037
 20
511.21637
 10
809.188354
 20
510.780853
 10
809.812988
 20
510.43515
 10
810.366821
 20
510.18512
 10
810.854675
 20
510.036499
 10
811.280457
 20
509.9953
 10
811.647522
 20
510.067291
 10
811.95752
 20
510.257568
 10
812.211792
 20
510.571014
 10
812.41095
 20
511.010956
 10
812.55481
 20
511.578033
 10
812.643005
 20
512.270447
 10
812.675354
 20
513.145508
  0
LWPOLYLINE
  5
1EC
330
18D
100
AcDbEntity
  8
0
  6
Continuous
 62
     0
370
     0
100
AcDbPolyline
 90
        4
 70
     0
 43
0.0
 10
790.755188
 20
528.645508
 10
790.801636
 20
527.955017
 10
790.940186
 20
527.245911
 10
791.252441
 20
526.309143
  0
LWPOLYLINE
  5
1ED
330
18D
100
AcDbEntity
  8
0
  6
Continuous
 62
     0
370
     0
100
AcDbPolyline
 90
       34
 70
     0
 43
0.0
 10
812.675354
 20
513.145508
 10
812.647583
 20
514.068726
 10
812.564514
 20
515.08728
 10
812.426575
 20
516.18689
 10
812.233887
 20
517.3526
 10
811.986694
 20
518.568848
 10
811.684692
 20
519.820496
 10
811.326599
 20
521.094116
 10
810.910706
 20
522.376709
 10
810.43396
 20
523.656067
 10
809.892639
 20
524.920532
 10
809.282104
 20
526.157593
 10
808.597473
 20
527.354187
 10
807.834351
 20
528.49585
 10
806.989868
 20
529.566284
 10
806.063843
 20
530.547974
 10
805.062195
 20
531.424316
 10
803.994141
 20
532.17981
 10
802.874817
 20
532.804077
 10
801.722229
 20
533.292297
 10
800.555237
 20
533.644653
 10
799.391907
 20
533.865601
 10
798.248596
 20
533.961853
 10
797.140015
 20
533.940735
 10
796.079285
 20
533.809265
 10
795.079346
 20
533.574219
 10
794.152588
 20
533.24115
 10
793.311523
 20
532.815552
 10
792.569031
 20
532.30249
 10
791.93811
 20
531.707275
 10
791.430969
 20
531.036316
 10
791.059204
 20
530.296875
 10
790.831848
 20
529.497559
 10
790.755188
 20
528.645508
  0
ELLIPSE
  5
1EE
330
18D
100
AcDbEntity
  8
0
  6
Continuous
 62
     0
370
    30
100
AcDbEllipse
 10
797.826091
 20
518.145482
 30
0.0
 11
6.056724923424713
 21
-8.565502603566541
 31
0.0
210
0.0
220
0.0
230
0.9999999999999999
 40
0.5
 41
6.257974983996187
 42
8.469461350712615
  0
ELLIPSE
  5
1EF
330
18D
100
AcDbEntity
  8
0
  6
Continuous
 62
     0
370
    30
100
AcDbEllipse
 10
797.826091
 20
518.145482
 30
0.0
 11
6.056724923424713
 21
-8.565502603566541
 31
0.0
210
0.0
220
0.0
230
0.9999999999999999
 40
0.5
 41
2.186276043533029
 42
3.166802984840931
  0
ELLIPSE
  5
1F0
330
18D
100
AcDbEntity
  8
0
  6
Continuous
 62
     0
370
    30
100
AcDbEllipse
 10
792.310658
 20
514.245482
 30
0.0
 11
5.860105198844226
 21
-8.287440320055339
 31
0.0
210
0.0
220
0.0
230
1.0
 40
0.5
 41
6.111052196067666
 42
8.469461350712615
  0
ELLIPSE
  5
1F1
330
18D
100
AcDbEntity
  8
0
  6
Continuous
 62
     0
370
    30
100
AcDbEllipse
 10
792.310658
 20
514.245482
 30
0.0
 11
5.860105198844226
 21
-8.287440320055339
 31
0.0
210
0.0
220
0.0
230
1.0
 40
0.5
 41
2.186276043533029
 42
3.313725359209712
  0
ELLIPSE
  5
1F2
330
18D
100
AcDbEntity
  8
0
  6
Continuous
 62
     0
370
    30
100
AcDbEllipse
 10
891.871293
 20
527.377496
 30
0.0
 11
-10.0
 21
0.0
 31
0.0
210
0.0
220
0.0
230
1.0
 40
0.707107
 41
0.0000000085571399
 42
0.2059669735808392
  0
ELLIPSE
  5
1F3
330
18D
100
AcDbEntity
  8
0
  6
Continuous
 62
     0
370
    30
100
AcDbEllipse
 10
891.871293
 20
527.377496
 30
0.0
 11
-10.0
 21
0.0
 31
0.0
210
0.0
220
0.0
230
1.0
 40
0.707107
 41
0.2059669735808392
 42
3.141592662146925
  0
ELLIPSE
  5
1F4
330
18D
100
AcDbEntity
  8
0
  6
Continuous
 62
     0
370
     0
100
AcDbEllipse
 10
891.871293
 20
541.519632
 30
0.0
 11
-9.399999976158142
 21
0.0
 31
0.0
210
0.0
220
0.0
230
1.0
 40
0.707107
 41
0.2059669735808409
 42
3.347559627170626
  0
ELLIPSE
  5
1F5
330
18D
100
AcDbEntity
  8
0
  6
Continuous
 62
     0
370
     0
100
AcDbEllipse
 10
891.871293
 20
541.519632
 30
0.0
 11
-9.399999976158142
 21
0.0
 31
0.0
210
0.0
220
0.0
230
1.0
 40
0.707107
 41
3.347559627170625
 42
6.489152280760427
  0
ELLIPSE
  5
1F6
330
18D
100
AcDbEntity
  8
0
  6
Continuous
 62
     0
370
     0
100
AcDbEllipse
 10
891.871293
 20
541.095368
 30
0.0
 11
-10.0
 21
0.0
 31
0.0
210
0.0
220
0.0
230
1.0
 40
0.707107
 41
6.28313534026698
 42
6.489152280760427
  0
ELLIPSE
  5
1F7
330
18D
100
AcDbEntity
  8
0
  6
Continuous
 62
     0
370
     0
100
AcDbEllipse
 10
891.871293
 20
541.095368
 30
0.0
 11
-10.0
 21
0.0
 31
0.0
210
0.0
220
0.0
230
1.0
 40
0.707107
 41
0.2059669735808409
 42
3.143452148841796
  0
ELLIPSE
  5
1F8
330
18D
100
AcDbEntity
  8
0
  6
Continuous
 62
     0
370
    30
100
AcDbEllipse
 10
792.169234
 20
514.14548
 30
0.0
 11
-5.77350265895983
 21
8.164965832566834
 31
0.0
210
0.0
220
0.0
230
-0.9999999999999999
 40
0.5
 41
6.283185303145711
 42
8.809298244031257
  0
ELLIPSE
  5
1F9
330
18D
100
AcDbEntity
  8
0
  6
Continuous
 62
     0
370
    30
100
AcDbEllipse
 10
792.169234
 20
514.14548
 30
0.0
 11
-5.77350265895983
 21
8.164965832566834
 31
0.0
210
0.0
220
0.0
230
-0.9999999999999999
 40
0.5
 41
2.526112936851671
 42
3.141592649555918
  0
ELLIPSE
  5
1FA
330
18D
100
AcDbEntity
  8
0
  6
Continuous
 62
     0
370
     0
100
AcDbEllipse
 10
758.935215
 20
490.645481
 30
0.0
 11
-5.77350265895983
 21
8.164965832566834
 31
0.0
210
0.0
220
0.0
230
-0.9999999999999999
 40
0.5
 41
6.283185303145711
 42
8.809298244031247
  0
ELLIPSE
  5
1FB
330
18D
100
AcDbEntity
  8
0
  6
Continuous
 62
     0
370
     0
100
AcDbEllipse
 10
758.935215
 20
490.645481
 30
0.0
 11
-5.77350265895983
 21
8.164965832566834
 31
0.0
210
0.0
220
0.0
230
-0.9999999999999999
 40
0.5
 41
2.526112936851661
 42
3.141593224678434
  0
ELLIPSE
  5
1FC
330
18D
100
AcDbEntity
  8
0
  6
Continuous
 62
     0
370
     0
100
AcDbEllipse
 10
743.013532
 20
470.194762
 30
0.0
 11
-9.252591767927088
 21
3.79335545079655
 31
0.0
210
0.0
220
0.0
230
1.0
 40
0.362372
 41
6.283180923084382
 42
8.858539402660682
  0
ELLIPSE
  5
1FD
330
18D
100
AcDbEntity
  8
0
  6
Continuous
 62
     0
370
     0
100
AcDbEllipse
 10
743.013532
 20
470.194762
 30
0.0
 11
-9.252591767927088
 21
3.79335545079655
 31
0.0
210
0.0
220
0.0
230
1.0
 40
0.362372
 41
2.575354095481097
 42
3.141592656113876
  0
ELLIPSE
  5
1FE
330
18D
100
AcDbEntity
  8
0
  6
Continuous
 62
     0
370
    30
100
AcDbEllipse
 10
735.942464
 20
452.947313
 30
0.0
 11
-9.252591767927088
 21
3.79335545079655
 31
0.0
210
0.0
220
0.0
230
1.0
 40
0.362372
 41
0.0000000025241018
 42
2.575354095481097
  0
ELLIPSE
  5
1FF
330
18D
100
AcDbEntity
  8
0
  6
Continuous
 62
     0
370
    30
100
AcDbEllipse
 10
735.942464
 20
452.947313
 30
0.0
 11
-9.252591767927088
 21
3.79335545079655
 31
0.0
210
0.0
220
0.0
230
1.0
 40
0.362372
 41
2.575354095481097
 42
3.141592656113875
  0
LINE
  5
200
330
18D
100
AcDbEntity
  8
0
  6
Continuous
 62
     0
370
    30
100
AcDbLine
 10
726.689872
 20
456.740669
 30
0.0
 11
733.76094
 21
473.988118
 31
0.0
  0
LINE
  5
201
330
18D
100
AcDbEntity
  8
0
  6
Continuous
 62
     0
370
    30
100
AcDbLine
 10
745.195056
 20
449.153958
 30
0.0
 11
752.266124
 21
466.401407
 31
0.0
  0
LWPOLYLINE
  5
202
330
18D
100
AcDbEntity
  8
0
  6
Continuous
 62
     0
370
    30
100
AcDbPolyline
 90
       13
 70
     0
 43
0.0
 10
733.760925
 20
473.988129
 10
734.811646
 20
476.381866
 10
735.992493
 20
478.758148
 10
737.296021
 20
481.104584
 10
738.71405
 20
483.408203
 10
740.237976
 20
485.655701
 10
741.858643
 20
487.833801
 10
743.566528
 20
489.929382
 10
745.351929
 20
491.929962
 10
747.205383
 20
493.823608
 10
749.117737
 20
495.599365
 10
751.080505
 20
497.246948
 10
753.161682
 20
498.810455
  0
LWPOLYLINE
  5
203
330
18D
100
AcDbEntity
  8
0
  6
Continuous
 62
     0
370
    30
100
AcDbPolyline
 90
       13
 70
     0
 43
0.0
 10
752.266113
 20
466.401398
 10
752.930481
 20
467.913696
 10
753.694519
 20
469.450073
 10
754.550537
 20
470.99118
 10
755.490112
 20
472.51947
 10
756.503784
 20
474.018158
 10
757.580872
 20
475.471588
 10
758.710266
 20
476.864532
 10
759.878967
 20
478.182587
 10
761.073364
 20
479.411713
 10
762.277832
 20
480.538391
 10
763.474548
 20
481.549866
 10
764.70874
 20
482.48053
  0
LINE
  5
204
330
18D
100
AcDbEntity
  8
0
  6
Continuous
 62
     0
370
    30
100
AcDbLine
 10
753.161712
 20
498.810446
 30
0.0
 11
786.395731
 21
522.310446
 31
0.0
  0
LINE
  5
205
330
18D
100
AcDbEntity
  8
0
  6
Continuous
 62
     0
370
    30
100
AcDbLine
 10
764.708718
 20
482.480515
 30
0.0
 11
797.942736
 21
505.980515
 31
0.0
  0
LWPOLYLINE
  5
206
330
18D
100
AcDbEntity
  8
0
  6
Continuous
 62
     0
370
    30
100
AcDbPolyline
 90
       27
 70
     0
 43
0.0
 10
881.871277
 20
541.095703
 10
881.946716
 20
541.987244
 10
882.171143
 20
542.863708
 10
882.539307
 20
543.709412
 10
883.043579
 20
544.51123
 10
883.675049
 20
545.258484
 10
884.423584
 20
545.941772
 10
885.277527
 20
546.55249
 10
886.224487
 20
547.083252
 10
887.251099
 20
547.527283
 10
888.343018
 20
547.879028
 10
889.484741
 20
548.134094
 10
890.660217
 20
548.289185
 10
891.852905
 20
548.342163
 10
893.045837
 20
548.292297
 10
894.222107
 20
548.140381
 10
895.365112
 20
547.888306
 10
896.45874
 20
547.53949
 10
897.48761
 20
547.098206
 10
898.437256
 20
546.570068
 10
899.294189
 20
545.961609
 10
900.046204
 20
545.280579
 10
900.681458
 20
544.535034
 10
901.189697
 20
543.734436
 10
901.562256
 20
542.890198
 10
901.791138
 20
542.014587
 10
901.871277
 20
541.095581
  0
LINE
  5
207
330
18D
100
AcDbEntity
  8
0
  6
Continuous
 62
     0
370
    30
100
AcDbLine
 10
901.871293
 20
527.377496
 30
0.0
 11
901.871293
 21
541.095368
 31
0.0
  0
LINE
  5
208
330
18D
100
AcDbEntity
  8
0
  6
Continuous
 62
     0
370
    30
100
AcDbLine
 10
881.871293
 20
527.377496
 30
0.0
 11
881.871293
 21
541.095368
 31
0.0
  0
LINE
  5
209
330
18D
100
AcDbEntity
  8
0
  6
Continuous
 62
     0
370
    30
100
AcDbLine
 10
791.663333
 20
526.631925
 30
0.0
 11
786.347962
 21
522.456429
 31
0.0
  0
LINE
  5
20A
330
18D
100
AcDbEntity
  8
0
  6
Continuous
 62
     0
370
    30
100
AcDbLine
 10
803.772934
 20
509.506364
 30
0.0
 11
798.064448
 21
505.886816
 31
0.0
  0
LWPOLYLINE
  5
20B
330
18D
100
AcDbEntity
  8
0
  6
Continuous
 62
     0
370
    30
100
AcDbPolyline
 90
       10
 70
     0
 43
0.0
 10
808.691589
 20
511.148132
 10
808.637512
 20
511.16922
 10
808.465393
 20
511.222534
 10
808.17804
 20
511.283417
 10
807.792969
 20
511.322723
 10
807.336426
 20
511.31543
 10
806.839905
 20
511.245483
 10
806.332214
 20
511.10498
 10
805.835449
 20
510.893982
 10
805.320984
 20
510.585419
  0
LINE
  5
20C
330
18D
100
AcDbEntity
  8
0
  6
Continuous
 62
     0
370
    30
100
AcDbLine
 10
808.368471
 20
511.246507
 30
0.0
 11
925.485081
 21
428.432558
 31
0.0
  0
LINE
  5
20D
330
18D
100
AcDbEntity
  8
0
  6
Continuous
 62
     0
370
    30
100
AcDbLine
 10
784.063725
 20
528.432557
 30
0.0
 11
789.269548
 21
524.751485
 31
0.0
  0
LINE
  5
20E
330
18D
100
AcDbEntity
  8
0
  6
Continuous
 62
     0
370
    30
100
AcDbLine
 10
793.19669
 20
527.731823
 30
0.0
 11
791.763914
 21
526.718696
 31
0.0
  0
LINE
  5
20F
330
18D
100
AcDbEntity
  8
0
  6
Continuous
 62
     0
370
    30
100
AcDbLine
 10
805.321077
 20
510.585416
 30
0.0
 11
803.888269
 21
509.572268
 31
0.0
  0
LWPOLYLINE
  5
210
330
18D
100
AcDbEntity
  8
0
  6
Continuous
 62
     0
370
    30
100
AcDbPolyline
 90
        4
 70
     0
 43
0.0
 10
958.493286
 20
454.271454
 10
958.466797
 20
454.337402
 10
958.422302
 20
454.513
 10
958.400513
 20
454.751556
  0
LINE
  5
211
330
18D
100
AcDbEntity
  8
0
  6
Continuous
 62
     0
370
    30
100
AcDbLine
 10
974.99068
 20
447.315968
 30
0.0
 11
958.368262
 21
459.069792
 31
0.0
  0
LINE
  5
212
330
18D
100
AcDbEntity
  8
0
  6
Continuous
 62
     0
370
    30
100
AcDbLine
 10
949.587226
 20
411.390058
 30
0.0
 11
928.020469
 21
426.640058
 31
0.0
  0
LINE
  5
213
330
18D
100
AcDbEntity
  8
0
  6
Continuous
 62
     0
370
    30
100
AcDbLine
 10
958.400521
 20
454.751363
 30
0.0
 11
958.073363
 21
498.548306
 31
0.0
  0
LINE
  5
214
330
18D
100
AcDbEntity
  8
0
  6
Continuous
 62
     0
370
    30
100
AcDbLine
 10
945.400886
 20
454.653817
 30
0.0
 11
945.073725
 21
498.4512
 31
0.0
  0
LWPOLYLINE
  5
215
330
18D
100
AcDbEntity
  8
0
  6
Continuous
 62
     0
370
    30
100
AcDbPolyline
 90
       39
 70
     0
 43
0.0
 10
974.990662
 20
447.315979
 10
975.730286
 20
446.696289
 10
976.371338
 20
445.954987
 10
976.908081
 20
445.100769
 10
977.338257
 20
444.14209
 10
977.660217
 20
443.08725
 10
977.873779
 20
441.943726
 10
977.979309
 20
440.719055
 10
977.977356
 20
439.420837
 10
977.868774
 20
438.056976
 10
977.654846
 20
436.635986
 10
977.337341
 20
435.166809
 10
976.918823
 20
433.658875
 10
976.401978
 20
432.121918
 10
975.790588
 20
430.56604
 10
975.088745
 20
429.001556
 10
974.301208
 20
427.438873
 10
973.43335
 20
425.88855
 10
972.490967
 20
424.360992
 10
971.480652
 20
422.866455
 10
970.409058
 20
421.415192
 10
969.283569
 20
420.016876
 10
968.111694
 20
418.681091
 10
966.901306
 20
417.41684
 10
965.660583
 20
416.232574
 10
964.397705
 20
415.136475
 10
963.120972
 20
414.135712
 10
961.838867
 20
413.237213
 10
960.559448
 20
412.44693
 10
959.290833
 20
411.770142
 10
958.040955
 20
411.211731
 10
956.817261
 20
410.775696
 10
955.627014
 20
410.465485
 10
954.477173
 20
410.284149
 10
953.374756
 20
410.234497
 10
952.326843
 20
410.318878
 10
951.341797
 20
410.538605
 10
950.428284
 20
410.894318
 10
949.587219
 20
411.390045
  0
LWPOLYLINE
  5
216
330
18D
100
AcDbEntity
  8
0
  6
Continuous
 62
     0
370
    30
100
AcDbPolyline
 90
      113
 70
     0
 43
0.0
 10
898.113098
 20
447.787476
 10
898.008118
 20
445.212067
 10
897.898499
 20
442.63974
 10
897.783997
 20
440.070709
 10
897.664429
 20
437.505219
 10
897.539673
 20
434.943451
 10
897.409851
 20
432.38562
 10
897.274902
 20
429.831818
 10
897.135254
 20
427.282043
 10
896.991394
 20
424.736237
 10
896.84375
 20
422.194305
 10
896.692932
 20
419.656097
 10
896.540039
 20
417.121033
 10
896.386414
 20
414.588562
 10
896.233154
 20
412.058105
 10
896.081665
 20
409.528839
 10
895.933777
 20
406.999695
 10
895.791321
 20
404.469391
 10
895.656311
 20
401.936707
 10
895.530823
 20
399.399994
 10
895.416931
 20
396.857666
 10
895.316895
 20
394.308014
 10
895.232666
 20
391.74939
 10
895.166382
 20
389.180084
 10
895.120117
 20
386.598389
 10
895.095886
 20
384.002686
 10
895.09552
 20
381.391541
 10
895.120911
 20
378.76358
 10
895.173767
 20
376.117401
 10
895.255737
 20
373.451904
 10
895.368347
 20
370.766266
 10
895.513062
 20
368.059692
 10
895.691284
 20
365.33136
 10
895.904541
 20
362.580505
 10
896.154114
 20
359.80661
 10
896.441223
 20
357.009308
 10
896.76709
 20
354.188293
 10
897.132996
 20
351.343475
 10
897.539978
 20
348.474884
 10
897.989258
 20
345.582458
 10
898.482056
 20
342.666229
 10
899.019409
 20
339.726135
 10
899.602539
 20
336.762451
 10
900.232544
 20
333.775574
 10
900.910522
 20
330.765839
 10
901.637512
 20
327.733765
 10
902.414673
 20
324.679993
 10
903.243042
 20
321.605164
 10
904.123718
 20
318.509949
 10
905.057678
 20
315.395325
 10
906.045898
 20
312.262268
 10
907.089355
 20
309.111908
 10
908.188965
 20
305.945557
 10
909.345459
 20
302.764526
 10
910.559631
 20
299.570435
 10
911.83197
 20
296.365021
 10
913.163147
 20
293.150146
 10
914.553589
 20
289.927643
 10
916.003418
 20
286.699799
 10
917.512634
 20
283.468994
 10
919.08136
 20
280.237579
 10
920.709229
 20
277.008087
 10
922.395752
 20
273.783325
 10
924.140381
 20
270.566101
 10
925.942383
 20
267.359253
 10
927.80072
 20
264.165771
 10
929.714233
 20
260.988739
 10
931.681763
 20
257.831299
 10
933.702026
 20
254.696503
 10
935.773315
 20
251.587601
 10
937.893982
 20
248.507782
 10
940.062439
 20
245.460297
 10
942.276733
 20
242.448395
 10
944.534851
 20
239.475327
 10
946.834717
 20
236.544418
 10
949.174194
 20
233.65892
 10
951.551208
 20
230.822174
 10
953.963196
 20
228.037552
 10
956.407898
 20
225.308395
 10
958.882751
 20
222.638138
 10
961.385071
 20
220.030289
 10
963.912292
 20
217.488327
 10
966.461487
 20
215.015869
 10
969.029724
 20
212.616653
 10
971.613892
 20
210.294449
 10
974.210815
 20
208.053116
 10
976.816833
 20
205.896759
 10
979.428284
 20
203.829498
 10
982.041382
 20
201.85553
 10
984.651733
 20
199.979263
 10
987.254883
 20
198.2052
 10
989.846008
 20
196.537811
 10
992.419617
 20
194.981644
 10
994.970093
 20
193.541229
 10
997.491516
 20
192.220932
 10
999.977112
 20
191.024872
 10
1002.420044
 20
189.956924
 10
1004.812927
 20
189.020187
 10
1007.148376
 20
188.217331
 10
1009.418762
 20
187.54985
 10
1011.616638
 20
187.018204
 10
1013.735291
 20
186.621384
 10
1015.768494
 20
186.357224
 10
1017.71167
 20
186.221939
 10
1019.561829
 20
186.210663
 10
1021.317993
 20
186.317551
 10
1022.981873
 20
186.536469
 10
1024.557129
 20
186.861298
 10
1026.049805
 20
187.286896
 10
1027.466797
 20
187.809067
 10
1028.815918
 20
188.425613
 10
1030.104614
 20
189.134949
 10
1031.348145
 20
189.943207
  0
LWPOLYLINE
  5
217
330
18D
100
AcDbEntity
  8
0
  6
Continuous
 62
     0
370
    30
100
AcDbPolyline
 90
      198
 70
     0
 43
0.0
 10
884.460938
 20
457.44101
 10
884.367554
 20
454.782837
 10
884.270386
 20
452.128021
 10
884.168945
 20
449.476837
 10
884.063049
 20
446.829468
 10
883.952332
 20
444.186157
 10
883.836426
 20
441.547119
 10
883.715271
 20
438.912415
 10
883.588745
 20
436.281891
 10
883.456726
 20
433.655518
 10
883.319214
 20
431.033112
 10
883.176575
 20
428.414185
 10
883.029297
 20
425.798065
 10
882.877747
 20
423.184082
 10
882.722656
 20
420.571442
 10
882.565125
 20
417.958923
 10
882.406494
 20
415.345123
 10
882.248108
 20
412.72876
 10
882.091431
 20
410.108307
 10
881.938416
 20
407.482025
 10
881.791077
 20
404.848175
 10
881.651672
 20
402.205017
 10
881.522522
 20
399.550903
 10
881.406006
 20
396.884155
 10
881.304382
 20
394.203247
 10
881.219971
 20
391.506866
 10
881.155212
 20
388.793732
 10
881.112305
 20
386.062622
 10
881.093384
 20
383.312531
 10
881.100464
 20
380.542664
 10
881.135559
 20
377.752136
 10
881.200439
 20
374.940338
 10
881.296814
 20
372.106842
 10
881.426086
 20
369.251221
 10
881.589966
 20
366.373108
 10
881.789917
 20
363.472107
 10
882.027283
 20
360.548065
 10
882.303284
 20
357.600891
 10
882.619202
 20
354.630585
 10
882.976135
 20
351.637085
 10
883.375305
 20
348.620483
 10
883.81781
 20
345.580994
 10
884.304688
 20
342.518738
 10
884.837036
 20
339.433899
 10
885.416016
 20
336.326813
 10
886.042542
 20
333.197968
 10
886.717651
 20
330.047913
 10
887.442383
 20
326.877167
 10
888.217712
 20
323.686218
 10
889.044617
 20
320.475708
 10
889.924072
 20
317.246429
 10
890.856995
 20
313.999329
 10
891.844299
 20
310.735352
 10
892.886841
 20
307.455627
 10
893.985413
 20
304.161377
 10
895.140808
 20
300.853882
 10
896.353699
 20
297.534515
 10
897.624695
 20
294.204895
 10
898.954224
 20
290.86676
 10
900.342773
 20
287.521912
 10
901.790649
 20
284.172241
 10
903.297913
 20
280.819916
 10
904.864441
 20
277.467163
 10
906.490356
 20
274.11615
 10
908.175171
 20
270.769409
 10
909.918396
 20
267.429413
 10
911.719482
 20
264.098755
 10
913.57782
 20
260.78006
 10
915.492371
 20
257.476074
 10
917.462097
 20
254.189651
 10
919.485962
 20
250.923523
 10
921.562744
 20
247.680573
 10
923.69104
 20
244.463699
 10
925.869263
 20
241.275833
 10
928.095947
 20
238.119904
 10
930.369507
 20
234.99884
 10
932.68811
 20
231.915634
 10
935.049866
 20
228.87323
 10
937.453064
 20
225.874603
 10
939.895691
 20
222.922729
 10
942.375732
 20
220.020615
 10
944.891174
 20
217.171219
 10
947.43988
 20
214.377579
 10
950.019714
 20
211.642746
 10
952.628479
 20
208.969788
 10
955.263977
 20
206.361816
 10
957.92395
 20
203.821991
 10
960.606018
 20
201.353546
 10
963.307861
 20
198.959717
 10
966.027039
 20
196.643799
 10
968.761108
 20
194.409225
 10
971.507507
 20
192.25943
 10
974.263733
 20
190.197906
 10
977.0271
 20
188.228271
 10
979.795044
 20
186.354156
 10
982.564819
 20
184.579239
 10
985.33374
 20
182.907257
 10
988.098999
 20
181.341934
 10
990.857788
 20
179.887039
 10
993.607483
 20
178.546341
 10
996.345337
 20
177.323654
 10
999.068665
 20
176.222748
 10
1001.774658
 20
175.247284
 10
1004.460449
 20
174.400803
 10
1007.123169
 20
173.686813
 10
1009.76001
 20
173.10881
 10
1012.367798
 20
172.670059
 10
1014.943115
 20
172.37352
 10
1017.482178
 20
172.221802
 10
1019.98053
 20
172.217026
 10
1022.43335
 20
172.361069
 10
1024.835083
 20
172.65451
 10
1027.179688
 20
173.097214
 10
1029.460449
 20
173.687592
 10
1031.670776
 20
174.422821
 10
1033.804321
 20
175.297867
 10
1035.855225
 20
176.306778
 10
1037.818604
 20
177.442627
 10
1039.691162
 20
178.697189
 10
1041.470459
 20
180.062042
 10
1043.15625
 20
181.528549
 10
1044.748535
 20
183.088028
 10
1046.248535
 20
184.732422
 10
1047.658936
 20
186.454514
 10
1048.982666
 20
188.247192
 10
1050.223145
 20
190.104202
 10
1051.384033
 20
192.020157
 10
1052.469116
 20
193.990448
 10
1053.4823
 20
196.010544
 10
1054.427124
 20
198.076584
 10
1055.307129
 20
200.185181
 10
1056.125732
 20
202.333267
 10
1056.886108
 20
204.518097
 10
1057.591309
 20
206.737045
 10
1058.244141
 20
208.987869
 10
1058.84729
 20
211.268417
 10
1059.403076
 20
213.576645
 10
1059.914062
 20
215.910782
 10
1060.382324
 20
218.269058
 10
1060.809937
 20
220.649841
 10
1061.19873
 20
223.051712
 10
1061.550415
 20
225.473328
 10
1061.866821
 20
227.9133
 10
1062.149536
 20
230.37027
 10
1062.400269
 20
232.843079
 10
1062.620117
 20
235.330658
 10
1062.810425
 20
237.832031
 10
1062.972656
 20
240.346161
 10
1063.10791
 20
242.872055
 10
1063.217285
 20
245.408844
 10
1063.302002
 20
247.955658
 10
1063.363037
 20
250.51178
 10
1063.401245
 20
253.076477
 10
1063.41748
 20
255.649063
 10
1063.412598
 20
258.228821
 10
1063.387695
 20
260.815094
 10
1063.343506
 20
263.407166
 10
1063.28064
 20
266.004578
 10
1063.199951
 20
268.606812
 10
1063.101929
 20
271.213318
 10
1062.987427
 20
273.823578
 10
1062.856934
 20
276.437134
 10
1062.711182
 20
279.053436
 10
1062.550659
 20
281.672119
 10
1062.375977
 20
284.292755
 10
1062.187622
 20
286.915039
 10
1061.986084
 20
289.538513
 10
1061.771729
 20
292.162842
 10
1061.545288
 20
294.787598
 10
1061.307007
 20
297.412506
 10
1061.057495
 20
300.037201
 10
1060.796997
 20
302.661407
 10
1060.526001
 20
305.28479
 10
1060.244751
 20
307.907104
 10
1059.953857
 20
310.528046
 10
1059.653564
 20
313.147369
 10
1059.344116
 20
315.764801
 10
1059.026001
 20
318.380066
 10
1058.699463
 20
320.99295
 10
1058.364868
 20
323.60318
 10
1058.022461
 20
326.210571
 10
1057.672485
 20
328.814941
 10
1057.315308
 20
331.416016
 10
1056.95105
 20
334.013641
 10
1056.5802
 20
336.607544
 10
1056.202881
 20
339.19754
 10
1055.819458
 20
341.783508
 10
1055.429932
 20
344.365204
 10
1055.03479
 20
346.942505
 10
1054.634033
 20
349.515228
 10
1054.228027
 20
352.083191
 10
1053.817017
 20
354.64624
 10
1053.401123
 20
357.204193
 10
1052.980469
 20
359.756927
 10
1052.555298
 20
362.30423
 10
1052.125854
 20
364.846039
 10
1051.692383
 20
367.382263
 10
1051.254272
 20
369.916229
  0
LWPOLYLINE
  5
218
330
18D
100
AcDbEntity
  8
0
  6
Continuous
 62
     0
370
    30
100
AcDbPolyline
 90
       65
 70
     0
 43
0.0
 10
1031.348145
 20
189.943207
 10
1032.823853
 20
191.078293
 10
1034.228516
 20
192.358582
 10
1035.565674
 20
193.782639
 10
1036.836182
 20
195.347214
 10
1038.039795
 20
197.04718
 10
1039.175781
 20
198.875641
 10
1040.24353
 20
200.824905
 10
1041.243042
 20
202.886414
 10
1042.174561
 20
205.051605
 10
1043.03894
 20
207.311951
 10
1043.837769
 20
209.659378
 10
1044.57251
 20
212.086243
 10
1045.245361
 20
214.585388
 10
1045.858276
 20
217.150284
 10
1046.413818
 20
219.774933
 10
1046.914185
 20
222.453888
 10
1047.361694
 20
225.182068
 10
1047.758789
 20
227.955032
 10
1048.107666
 20
230.76857
 10
1048.410522
 20
233.619064
 10
1048.669556
 20
236.503036
 10
1048.886841
 20
239.417206
 10
1049.064331
 20
242.358978
 10
1049.203857
 20
245.325912
 10
1049.307007
 20
248.315567
 10
1049.375854
 20
251.325516
 10
1049.411987
 20
254.35376
 10
1049.416626
 20
257.398621
 10
1049.391479
 20
260.458466
 10
1049.337769
 20
263.531647
 10
1049.25708
 20
266.616516
 10
1049.150513
 20
269.711884
 10
1049.019165
 20
272.816559
 10
1048.864136
 20
275.929443
 10
1048.686523
 20
279.049377
 10
1048.487427
 20
282.175262
 10
1048.267944
 20
285.306091
 10
1048.028809
 20
288.44104
 10
1047.770874
 20
291.579315
 10
1047.494995
 20
294.720184
 10
1047.202026
 20
297.862823
 10
1046.8927
 20
301.00647
 10
1046.567871
 20
304.150482
 10
1046.228027
 20
307.294342
 10
1045.873779
 20
310.4375
 10
1045.505859
 20
313.579346
 10
1045.124878
 20
316.719391
 10
1044.731445
 20
319.857025
 10
1044.32605
 20
322.99176
 10
1043.909302
 20
326.123138
 10
1043.481689
 20
329.250763
 10
1043.043701
 20
332.374176
 10
1042.595825
 20
335.493042
 10
1042.138428
 20
338.606873
 10
1041.672119
 20
341.715332
 10
1041.197144
 20
344.818054
 10
1040.713989
 20
347.914734
 10
1040.223022
 20
351.005035
 10
1039.724487
 20
354.088684
 10
1039.218994
 20
357.165314
 10
1038.706909
 20
360.23465
 10
1038.188354
 20
363.296326
 10
1037.663818
 20
366.350098
 10
1037.131836
 20
369.405884
  0
LINE
  5
219
330
18D
100
AcDbEntity
  8
0
  6
Continuous
 62
     0
370
    30
100
AcDbLine
 10
1028.383226
 20
391.711013
 30
0.0
 11
1026.979592
 21
390.718494
 31
0.0
  0
LINE
  5
21A
330
18D
100
AcDbEntity
  8
0
  6
Continuous
 62
     0
370
    30
100
AcDbLine
 10
1065.163358
 20
417.718494
 30
0.0
 11
1059.16333
 21
413.475833
 31
0.0
  0
LINE
  5
21B
330
18D
100
AcDbEntity
  8
0
  6
Continuous
 62
     0
370
    30
100
AcDbLine
 10
1083.061216
 20
392.4071
 30
0.0
 11
1044.87745
 21
365.4071
 31
0.0
  0
LINE
  5
21C
330
18D
100
AcDbEntity
  8
0
  6
Continuous
 62
     0
370
    30
100
AcDbLine
 10
1041.646035
 20
364.539513
 30
0.0
 11
1041.646035
 21
382.085882
 31
0.0
  0
LWPOLYLINE
  5
21D
330
18D
100
AcDbEntity
  8
0
  6
Continuous
 62
     0
370
    30
100
AcDbPolyline
 90
        5
 70
     0
 43
0.0
 10
1044.877319
 20
365.407043
 10
1044.177856
 20
364.998993
 10
1043.409058
 20
364.712341
 10
1042.589844
 20
364.549561
 10
1041.674683
 20
364.507721
  0
LWPOLYLINE
  5
21E
330
18D
100
AcDbEntity
  8
0
  6
Continuous
 62
     0
370
    30
100
AcDbPolyline
 90
       18
 70
     0
 43
0.0
 10
1026.979736
 20
390.718567
 10
1026.357544
 20
390.190796
 10
1025.828369
 20
389.556183
 10
1025.400269
 20
388.831024
 10
1025.072998
 20
388.025818
 10
1024.844727
 20
387.1492
 10
1024.713379
 20
386.210083
 10
1024.676025
 20
385.214661
 10
1024.730225
 20
384.168732
 10
1024.874146
 20
383.078583
 10
1025.105469
 20
381.951141
 10
1025.421753
 20
380.794128
 10
1025.819824
 20
379.615784
 10
1026.296753
 20
378.424591
 10
1026.848511
 20
377.229523
 10
1027.470459
 20
376.039825
 10
1028.157959
 20
374.864807
 10
1028.949951
 20
373.647705
  0
LINE
  5
21F
330
18D
100
AcDbEntity
  8
0
  6
Continuous
 62
     0
370
    30
100
AcDbLine
 10
1028.105655
 20
491.529374
 30
0.0
 11
1028.105655
 21
537.118746
 31
0.0
  0
ARC
  5
220
330
18D
100
AcDbEntity
  8
0
  6
Continuous
 62
     0
370
    30
100
AcDbCircle
 10
1100.805889
 20
514.784784
 30
0.0
 40
71.70214539829615
100
AcDbArc
 50
188.524011
 51
198.247604
  0
LWPOLYLINE
  5
221
330
18D
100
AcDbEntity
  8
0
  6
Continuous
 62
     0
370
    30
100
AcDbPolyline
 90
        7
 70
     0
 43
0.0
 10
1029.799194
 20
534.944519
 10
1030.007568
 20
534.890259
 10
1030.334473
 20
534.757019
 10
1030.76416
 20
534.537415
 10
1031.285034
 20
534.231995
 10
1031.888428
 20
533.844299
 10
1032.596436
 20
533.357666
  0
ARC
  5
222
330
18D
100
AcDbEntity
  8
0
  6
Continuous
 62
     0
370
    30
100
AcDbCircle
 10
1036.344033
 20
487.377507
 30
0.0
 40
5.226321823421204
100
AcDbArc
 50
349.283469
 51
359.872256
  0
LINE
  5
223
330
18D
100
AcDbEntity
  8
0
  6
Continuous
 62
     0
370
    30
100
AcDbLine
 10
1041.570261
 20
487.373662
 30
0.0
 11
1041.570261
 21
522.476351
 31
0.0
  0
LWPOLYLINE
  5
224
330
18D
100
AcDbEntity
  8
0
  6
Continuous
 62
     0
370
    30
100
AcDbPolyline
 90
       14
 70
     0
 43
0.0
 10
1041.570435
 20
522.469971
 10
1041.485352
 20
523.323792
 10
1041.262573
 20
524.182434
 10
1040.907227
 20
525.043335
 10
1040.428589
 20
525.904297
 10
1039.837402
 20
526.764038
 10
1039.145874
 20
527.622437
 10
1038.36499
 20
528.480042
 10
1037.506592
 20
529.335754
 10
1036.582886
 20
530.187134
 10
1035.610229
 20
531.027161
 10
1034.610107
 20
531.84314
 10
1033.614746
 20
532.613342
 10
1032.596436
 20
533.357666
  0
LWPOLYLINE
  5
225
330
18D
100
AcDbEntity
  8
0
  6
Continuous
 62
     0
370
    30
100
AcDbPolyline
 90
       33
 70
     0
 43
0.0
 10
1058.839111
 20
544.831665
 10
1058.757812
 20
545.974792
 10
1058.521118
 20
547.105286
 10
1058.132324
 20
548.209106
 10
1057.597534
 20
549.273865
 10
1056.92395
 20
550.289551
 10
1056.119019
 20
551.247559
 10
1055.191406
 20
552.139648
 10
1054.150757
 20
552.95874
 10
1053.007446
 20
553.698242
 10
1051.771973
 20
554.35199
 10
1050.456055
 20
554.914795
 10
1049.071655
 20
555.381958
 10
1047.631836
 20
555.749695
 10
1046.14978
 20
556.014954
 10
1044.639282
 20
556.17511
 10
1043.114502
 20
556.229126
 10
1041.5896
 20
556.176392
 10
1040.078857
 20
556.017273
 10
1038.596436
 20
555.753418
 10
1037.156006
 20
555.38678
 10
1035.770996
 20
554.920776
 10
1034.454102
 20
554.35907
 10
1033.217651
 20
553.70636
 10
1032.07312
 20
552.967896
 10
1031.031372
 20
552.149475
 10
1030.102417
 20
551.258057
 10
1029.295898
 20
550.300964
 10
1028.620728
 20
549.28595
 10
1028.084473
 20
548.221619
 10
1027.69397
 20
547.118164
 10
1027.455322
 20
545.987854
 10
1027.372192
 20
544.831604
  0
LINE
  5
226
330
18D
100
AcDbEntity
  8
0
  6
Continuous
 62
     0
370
    30
100
AcDbLine
 10
1059.20563
 20
396.338491
 30
0.0
 11
1058.839108
 21
544.831699
 31
0.0
  0
LINE
  5
227
330
18D
100
AcDbEntity
  8
0
  6
Continuous
 62
     0
370
    30
100
AcDbLine
 10
1027.005679
 20
396.338491
 30
0.0
 11
1027.242192
 21
492.159713
 31
0.0
  0
LINE
  5
228
330
18D
100
AcDbEntity
  8
0
  6
Continuous
 62
     0
370
    30
100
AcDbLine
 10
1027.372201
 20
544.831698
 30
0.0
 11
1027.354922
 21
537.831265
 31
0.0
  0
LINE
  5
229
330
18D
100
AcDbEntity
  8
0
  6
Continuous
 62
     0
370
    30
100
AcDbLine
 10
1032.170497
 20
387.963015
 30
0.0
 11
1033.084906
 21
374.758452
 31
0.0
  0
ENDBLK
  5
22B
330
18D
100
AcDbEntity
  8
0
100
AcDbBlockEnd
  0
BLOCK
  5
293
330
22D
100
AcDbEntity
  8
0
100
AcDbBlockBegin
  2
e
 70
     0
 10
-71.190216
 20
0.0
 30
0.0
  3
e
  1

  0
LWPOLYLINE
  5
22E
330
22D
100
AcDbEntity
  8
0
  6
Continuous
 62
     0
370
    30
100
AcDbPolyline
 90
       24
 70
     0
 43
0.0
 10
-160.918701
 20
1069.734253
 10
-160.979752
 20
1069.691162
 10
-161.16098
 20
1069.563965
 10
-161.456543
 20
1069.358765
 10
-161.858551
 20
1069.084351
 10
-162.357834
 20
1068.751587
 10
-162.944992
 20
1068.37207
 10
-163.611832
 20
1067.95813
 10
-164.352295
 20
1067.521851
 10
-165.160706
 20
1067.076172
 10
-166.032913
 20
1066.634521
 10
-166.966583
 20
1066.211914
 10
-167.959534
 20
1065.825073
 10
-169.008057
 20
1065.493896
 10
-170.10611
 20
1065.23938
 10
-171.241852
 20
1065.081787
 10
-172.397308
 20
1065.036499
 10
-173.55014
 20
1065.108276
 10
-174.678665
 20
1065.289551
 10
-175.766174
 20
1065.563599
 10
-176.80249
 20
1065.909302
 10
-177.782043
 20
1066.305786
 10
-178.701965
 20
1066.734253
 10
-179.592377
 20
1067.195801
  0
LWPOLYLINE
  5
22F
330
22D
100
AcDbEntity
  8
0
  6
Continuous
 62
     0
370
    30
100
AcDbPolyline
 90
       21
 70
     0
 43
0.0
 10
-188.139084
 20
1202.374756
 10
-188.098083
 20
1202.422607
 10
-187.9767
 20
1202.56543
 10
-187.779099
 20
1202.799072
 10
-187.510666
 20
1203.118042
 10
-187.179016
 20
1203.515381
 10
-186.792068
 20
1203.984009
 10
-186.357803
 20
1204.517212
 10
-185.884155
 20
1205.109131
 10
-185.379089
 20
1205.753906
 10
-184.850266
 20
1206.447021
 10
-184.305008
 20
1207.186157
 10
-183.750717
 20
1207.96875
 10
-183.196579
 20
1208.794067
 10
-182.653397
 20
1209.662598
 10
-182.132385
 20
1210.575073
 10
-181.649094
 20
1211.534546
 10
-181.224075
 20
1212.544067
 10
-180.883057
 20
1213.603638
 10
-180.656418
 20
1214.708374
 10
-180.570862
 20
1215.874756
  0
LINE
  5
230
330
22D
100
AcDbEntity
  8
0
  6
Continuous
 62
     0
370
    30
100
AcDbLine
 10
-180.570865
 20
1215.874763
 30
0.0
 11
-180.404783
 21
1265.374763
 31
0.0
  0
LWPOLYLINE
  5
231
330
22D
100
AcDbEntity
  8
0
  6
Continuous
 62
     0
370
    30
100
AcDbPolyline
 90
       21
 70
     0
 43
0.0
 10
-180.404785
 20
1265.374756
 10
-180.479797
 20
1266.508423
 10
-180.700485
 20
1267.616455
 10
-181.039398
 20
1268.678711
 10
-181.464874
 20
1269.690186
 10
-181.950211
 20
1270.651123
 10
-182.474152
 20
1271.564575
 10
-183.02066
 20
1272.43396
 10
-183.578369
 20
1273.26001
 10
-184.136398
 20
1274.043579
 10
-184.68541
 20
1274.783813
 10
-185.217972
 20
1275.478271
 10
-185.726761
 20
1276.12439
 10
-186.204086
 20
1276.718018
 10
-186.641953
 20
1277.253052
 10
-187.032379
 20
1277.723755
 10
-187.36734
 20
1278.123291
 10
-187.638824
 20
1278.444458
 10
-187.839127
 20
1278.680176
 10
-187.962769
 20
1278.825073
 10
-188.005554
 20
1278.874756
  0
LINE
  5
232
330
22D
100
AcDbEntity
  8
0
  6
Continuous
 62
     0
370
    30
100
AcDbLine
 10
-188.365099
 20
1072.874763
 30
0.0
 11
-156.165099
 21
1072.874763
 31
0.0
  0
LINE
  5
233
330
22D
100
AcDbEntity
  8
0
  6
Continuous
 62
     0
370
    30
100
AcDbLine
 10
-188.365099
 20
1072.874763
 30
0.0
 11
-188.139078
 21
1202.374763
 31
0.0
  0
LINE
  5
234
330
22D
100
AcDbEntity
  8
0
  6
Continuous
 62
     0
370
    30
100
AcDbLine
 10
-188.005561
 20
1278.874763
 30
0.0
 11
-187.998576
 21
1282.876508
 31
0.0
  0
LINE
  5
235
330
22D
100
AcDbEntity
  8
0
  6
Continuous
 62
     0
370
     0
100
AcDbLine
 10
-156.531621
 20
1282.876508
 30
0.0
 11
-187.998576
 21
1282.876508
 31
0.0
  0
LINE
  5
236
330
22D
100
AcDbEntity
  8
0
  6
Continuous
 62
     0
370
    30
100
AcDbLine
 10
-186.998578
 20
1283.874763
 30
0.0
 11
-157.53162
 21
1283.874763
 31
0.0
  0
ARC
  5
237
330
22D
100
AcDbEntity
  8
0
  6
Continuous
 62
     0
370
    30
100
AcDbCircle
 10
-186.998578
 20
1282.874763
 30
0.0
 40
1.0
100
AcDbArc
 50
90.0
 51
179.9
  0
ARC
  5
238
330
22D
100
AcDbEntity
  8
0
  6
Continuous
 62
     0
370
    30
100
AcDbCircle
 10
-186.515099
 20
1203.630081
 30
0.0
 40
0.7500000000000209
100
AcDbArc
 50
152.297563
 51
180.0
  0
LINE
  5
239
330
22D
100
AcDbEntity
  8
0
  6
Continuous
 62
     0
370
     0
100
AcDbLine
 10
-183.631412
 20
1265.518478
 30
0.0
 11
-183.440166
 21
1265.521638
 31
0.0
  0
LWPOLYLINE
  5
23A
330
22D
100
AcDbEntity
  8
0
  6
Continuous
 62
     0
370
     0
100
AcDbPolyline
 90
       19
 70
     0
 43
0.0
 10
-183.44017
 20
1265.521606
 10
-183.476135
 20
1266.487549
 10
-183.565842
 20
1267.446167
 10
-183.705948
 20
1268.391724
 10
-183.891357
 20
1269.318848
 10
-184.116104
 20
1270.223267
 10
-184.373596
 20
1271.101196
 10
-184.656754
 20
1271.948853
 10
-184.958527
 20
1272.762573
 10
-185.271851
 20
1273.538696
 10
-185.589508
 20
1274.272583
 10
-185.903946
 20
1274.958496
 10
-186.207092
 20
1275.588867
 10
-186.490234
 20
1276.155518
 10
-186.743942
 20
1276.647461
 10
-186.957901
 20
1277.052368
 10
-187.12178
 20
1277.356934
 10
-187.22641
 20
1277.54895
 10
-187.265106
 20
1277.619507
  0
ARC
  5
23B
330
22D
100
AcDbEntity
  8
0
  6
Continuous
 62
     0
370
    30
100
AcDbCircle
 10
-186.515099
 20
1277.619541
 30
0.0
 40
0.7500000000000151
100
AcDbArc
 50
180.0
 51
207.633805
  0
LINE
  5
23C
330
22D
100
AcDbEntity
  8
0
  6
Continuous
 62
     0
370
     0
100
AcDbLine
 10
-183.631412
 20
1215.874374
 30
0.0
 11
-183.440166
 21
1215.874374
 31
0.0
  0
LINE
  5
23D
330
22D
100
AcDbEntity
  8
0
  6
Continuous
 62
     0
370
     0
100
AcDbLine
 10
-183.440166
 20
1215.874374
 30
0.0
 11
-183.440166
 21
1265.521638
 31
0.0
  0
LWPOLYLINE
  5
23E
330
22D
100
AcDbEntity
  8
0
  6
Continuous
 62
     0
370
     0
100
AcDbPolyline
 90
       19
 70
     0
 43
0.0
 10
-187.265106
 20
1203.630127
 10
-187.230103
 20
1203.69397
 10
-187.12767
 20
1203.881958
 10
-186.964462
 20
1204.185059
 10
-186.750061
 20
1204.590698
 10
-186.49501
 20
1205.085205
 10
-186.209686
 20
1205.656006
 10
-185.904007
 20
1206.291748
 10
-185.586792
 20
1206.984009
 10
-185.266388
 20
1207.724854
 10
-184.950531
 20
1208.508789
 10
-184.646606
 20
1209.330811
 10
-184.362015
 20
1210.187378
 10
-184.103912
 20
1211.074463
 10
-183.879272
 20
1211.988159
 10
-183.694962
 20
1212.924805
 10
-183.557343
 20
1213.879883
 10
-183.47139
 20
1214.847778
 10
-183.44017
 20
1215.87439
  0
LWPOLYLINE
  5
23F
330
22D
100
AcDbEntity
  8
0
  6
Continuous
 62
     0
370
    30
100
AcDbPolyline
 90
       13
 70
     0
 43
0.0
 10
-183.682175
 20
1214.55835
 10
-184.469666
 20
1218.850708
 10
-185.114349
 20
1223.142944
 10
-185.616241
 20
1227.435303
 10
-185.975327
 20
1231.727539
 10
-186.191605
 20
1236.019897
 10
-186.265091
 20
1240.312256
 10
-186.19577
 20
1244.604492
 10
-185.983643
 20
1248.896851
 10
-185.628723
 20
1253.189087
 10
-185.130997
 20
1257.481445
 10
-184.490479
 20
1261.773682
 10
-183.656906
 20
1266.317139
  0
LINE
  5
240
330
22D
100
AcDbEntity
  8
0
  6
Continuous
 62
     0
370
    30
100
AcDbLine
 10
-128.415099
 20
1069.734262
 30
0.0
 11
-128.415099
 21
1038.734262
 31
0.0
  0
LWPOLYLINE
  5
241
330
22D
100
AcDbEntity
  8
0
  6
Continuous
 62
     0
370
    30
100
AcDbPolyline
 90
       21
 70
     0
 43
0.0
 10
-162.097641
 20
1038.734253
 10
-162.160583
 20
1038.776611
 10
-162.348602
 20
1038.901733
 10
-162.654968
 20
1039.102661
 10
-163.071396
 20
1039.370117
 10
-163.588913
 20
1039.692383
 10
-164.198517
 20
1040.056885
 10
-164.892227
 20
1040.450317
 10
-165.66394
 20
1040.85791
 10
-166.507782
 20
1041.264526
 10
-167.420013
 20
1041.653931
 10
-168.398712
 20
1042.007935
 10
-169.439072
 20
1042.304932
 10
-170.531754
 20
1042.522217
 10
-171.661438
 20
1042.639038
 10
-172.805038
 20
1042.642212
 10
-173.935791
 20
1042.531738
 10
-175.031036
 20
1042.319458
 10
-176.078278
 20
1042.025024
 10
-177.065155
 20
1041.671753
 10
-178.004242
 20
1041.272827
  0
LINE
  5
242
330
22D
100
AcDbEntity
  8
0
  6
Continuous
 62
     0
370
     0
100
AcDbLine
 10
-182.415099
 20
1041.27278
 30
0.0
 11
-182.415099
 21
1067.195743
 31
0.0
  0
LWPOLYLINE
  5
243
330
22D
100
AcDbEntity
  8
0
  6
Continuous
 62
     0
370
    30
100
AcDbPolyline
 90
       10
 70
     0
 43
0.0
 10
-182.4151
 20
1067.195801
 10
-182.69632
 20
1067.120117
 10
-182.916153
 20
1066.945435
 10
-183.074829
 20
1066.727051
 10
-183.193207
 20
1066.488281
 10
-183.279999
 20
1066.238281
 10
-183.342163
 20
1065.981445
 10
-183.383789
 20
1065.720093
 10
-183.407471
 20
1065.455811
 10
-183.4151
 20
1065.188721
  0
LINE
  5
244
330
22D
100
AcDbEntity
  8
0
  6
Continuous
 62
     0
370
    30
100
AcDbLine
 10
-183.415099
 20
1065.188713
 30
0.0
 11
-183.415099
 21
1043.279811
 31
0.0
  0
LWPOLYLINE
  5
245
330
22D
100
AcDbEntity
  8
0
  6
Continuous
 62
     0
370
    30
100
AcDbPolyline
 90
       10
 70
     0
 43
0.0
 10
-183.4151
 20
1043.279785
 10
-183.407516
 20
1043.01355
 10
-183.383865
 20
1042.749268
 10
-183.3423
 20
1042.487671
 10
-183.280167
 20
1042.230713
 10
-183.193329
 20
1041.980713
 10
-183.075241
 20
1041.741577
 10
-182.915649
 20
1041.523804
 10
-182.698135
 20
1041.349121
 10
-182.4151
 20
1041.272827
  0
LINE
  5
246
330
22D
100
AcDbEntity
  8
0
  6
Continuous
 62
     0
370
    30
100
AcDbLine
 10
-128.415099
 20
1069.734262
 30
0.0
 11
-160.918695
 21
1069.734262
 31
0.0
  0
LINE
  5
247
330
22D
100
AcDbEntity
  8
0
  6
Continuous
 62
     0
370
    30
100
AcDbLine
 10
-179.592369
 20
1067.195743
 30
0.0
 11
-182.415099
 21
1067.195743
 31
0.0
  0
LINE
  5
248
330
22D
100
AcDbEntity
  8
0
  6
Continuous
 62
     0
370
    30
100
AcDbLine
 10
-182.415099
 20
1041.27278
 30
0.0
 11
-178.004238
 21
1041.27278
 31
0.0
  0
ARC
  5
249
330
22D
100
AcDbEntity
  8
0
  6
Continuous
 62
     0
370
     0
100
AcDbCircle
 10
-187.914263
 20
1060.907012
 30
0.0
 40
21.50003689005326
100
AcDbArc
 50
270.425736
 51
294.046014
  0
ARC
  5
24A
330
22D
100
AcDbEntity
  8
0
  6
Continuous
 62
     0
370
     0
100
AcDbCircle
 10
-187.914263
 20
1060.907012
 30
0.0
 40
21.50003689005326
100
AcDbArc
 50
91.157191
 51
270.425736
  0
ARC
  5
24B
330
22D
100
AcDbEntity
  8
0
  6
Continuous
 62
     0
370
    30
100
AcDbCircle
 10
-187.914263
 20
1060.907012
 30
0.0
 40
22.00003689005326
100
AcDbArc
 50
91.128614
 51
270.425736
  0
ARC
  5
24C
330
22D
100
AcDbEntity
  8
0
  6
Continuous
 62
     0
370
    30
100
AcDbCircle
 10
-187.914263
 20
1060.907012
 30
0.0
 40
22.00003689005326
100
AcDbArc
 50
270.425736
 51
294.138268
  0
LINE
  5
24D
330
22D
100
AcDbEntity
  8
0
  6
Continuous
 62
     0
370
    30
100
AcDbLine
 10
-188.56814
 20
1148.904583
 30
0.0
 11
-188.232393
 21
1148.907078
 31
0.0
  0
LINE
  5
24E
330
22D
100
AcDbEntity
  8
0
  6
Continuous
 62
     0
370
    30
100
AcDbLine
 10
-195.06796
 20
1148.856285
 30
0.0
 11
-188.56814
 21
1148.904583
 31
0.0
  0
LWPOLYLINE
  5
24F
330
22D
100
AcDbEntity
  8
0
  6
Continuous
 62
     0
370
     0
100
AcDbPolyline
 90
       13
 70
     0
 43
0.0
 10
-194.595596
 20
1085.286499
 10
-194.542023
 20
1085.331665
 10
-194.383026
 20
1085.462769
 10
-194.122833
 20
1085.668823
 10
-193.767593
 20
1085.933472
 10
-193.324051
 20
1086.238037
 10
-192.799225
 20
1086.5625
 10
-192.199921
 20
1086.886841
 10
-191.533813
 20
1087.192261
 10
-190.809418
 20
1087.46106
 10
-190.036484
 20
1087.676758
 10
-189.227417
 20
1087.82605
 10
-188.338867
 20
1087.901733
  0
LINE
  5
250
330
22D
100
AcDbEntity
  8
0
  6
Continuous
 62
     0
370
    30
100
AcDbLine
 10
-128.415093
 20
1077.907715
 30
0.0
 11
-156.173877
 21
1077.907715
 31
0.0
  0
ARC
  5
251
330
22D
100
AcDbEntity
  8
0
  6
Continuous
 62
     0
370
    30
100
AcDbCircle
 10
-129.392988
 20
1270.905723
 30
0.0
 40
240.0
100
AcDbArc
 50
261.754107
 51
270.233456
  0
ARC
  5
252
330
22D
100
AcDbEntity
  8
0
  6
Continuous
 62
     0
370
    30
100
AcDbCircle
 10
-129.392988
 20
1270.905723
 30
0.0
 40
240.0
100
AcDbArc
 50
254.428205
 51
258.250293
  0
LINE
  5
253
330
22D
100
AcDbEntity
  8
0
  6
Continuous
 62
     0
370
    30
100
AcDbLine
 10
-128.415093
 20
1038.734262
 30
0.0
 11
-128.415093
 21
1030.907715
 31
0.0
  0
LINE
  5
254
330
22D
100
AcDbEntity
  8
0
  6
Continuous
 62
     0
370
    30
100
AcDbLine
 10
-128.415093
 20
1077.907715
 30
0.0
 11
-128.415093
 21
1069.734262
 31
0.0
  0
LINE
  5
255
330
22D
100
AcDbEntity
  8
0
  6
Continuous
 62
     0
370
    30
100
AcDbLine
 10
-215.415086
 20
1050.407715
 30
0.0
 11
-215.415086
 21
1060.907715
 31
0.0
  0
LINE
  5
256
330
22D
100
AcDbEntity
  8
0
  6
Continuous
 62
     0
370
    30
100
AcDbLine
 10
-215.415086
 20
1060.907715
 30
0.0
 11
-215.415086
 21
1071.407715
 31
0.0
  0
LWPOLYLINE
  5
257
330
22D
100
AcDbEntity
  8
0
  6
Continuous
 62
     0
370
     0
100
AcDbPolyline
 90
       17
 70
     0
 43
0.0
 10
-214.915085
 20
1060.907715
 10
-214.870041
 20
1061.959717
 10
-214.738037
 20
1062.998047
 10
-214.524017
 20
1064.009277
 10
-214.236389
 20
1064.982422
 10
-213.886337
 20
1065.908447
 10
-213.485931
 20
1066.779419
 10
-213.048737
 20
1067.589844
 10
-212.588776
 20
1068.334961
 10
-212.120911
 20
1069.01062
 10
-211.660706
 20
1069.613159
 10
-211.225006
 20
1070.137695
 10
-210.831177
 20
1070.579712
 10
-210.497421
 20
1070.933472
 10
-210.241928
 20
1071.192749
 10
-210.080215
 20
1071.352173
 10
-210.022766
 20
1071.407715
  0
LWPOLYLINE
  5
258
330
22D
100
AcDbEntity
  8
0
  6
Continuous
 62
     0
370
     0
100
AcDbPolyline
 90
       17
 70
     0
 43
0.0
 10
-210.022781
 20
1050.407715
 10
-210.07724
 20
1050.460571
 10
-210.236618
 20
1050.617432
 10
-210.489929
 20
1050.874268
 10
-210.821762
 20
1051.225464
 10
-211.214203
 20
1051.665161
 10
-211.648911
 20
1052.187622
 10
-212.108551
 20
1052.787842
 10
-212.576294
 20
1053.461426
 10
-213.036545
 20
1054.20459
 10
-213.474335
 20
1055.013184
 10
-213.875824
 20
1055.882324
 10
-214.227524
 20
1056.806396
 10
-214.516891
 20
1057.778198
 10
-214.733139
 20
1058.78833
 10
-214.867508
 20
1059.825684
 10
-214.915085
 20
1060.907715
  0
LINE
  5
259
330
22D
100
AcDbEntity
  8
0
  6
Continuous
 62
     0
370
    30
100
AcDbLine
 10
-215.415086
 20
1071.398271
 30
0.0
 11
-223.215086
 21
1071.057715
 31
0.0
  0
LINE
  5
25A
330
22D
100
AcDbEntity
  8
0
  6
Continuous
 62
     0
370
    30
100
AcDbLine
 10
-223.215086
 20
1050.757715
 30
0.0
 11
-223.215086
 21
1071.057715
 31
0.0
  0
LINE
  5
25B
330
22D
100
AcDbEntity
  8
0
  6
Continuous
 62
     0
370
    30
100
AcDbLine
 10
-223.215086
 20
1071.057715
 30
0.0
 11
-223.415086
 21
1070.857715
 31
0.0
  0
LINE
  5
25C
330
22D
100
AcDbEntity
  8
0
  6
Continuous
 62
     0
370
    30
100
AcDbLine
 10
-145.047347
 20
1080.327716
 30
0.0
 11
-143.415089
 21
1080.327716
 31
0.0
  0
LINE
  5
25D
330
22D
100
AcDbEntity
  8
0
  6
Continuous
 62
     0
370
    30
100
AcDbLine
 10
-156.178097
 20
1080.327716
 30
0.0
 11
-145.047347
 21
1080.327716
 31
0.0
  0
LINE
  5
25E
330
22D
100
AcDbEntity
  8
0
  6
Continuous
 62
     0
370
    30
100
AcDbLine
 10
-156.213004
 20
1100.327716
 30
0.0
 11
-145.549411
 21
1100.327716
 31
0.0
  0
LINE
  5
25F
330
22D
100
AcDbEntity
  8
0
  6
Continuous
 62
     0
370
    30
100
AcDbLine
 10
-145.549411
 20
1100.327716
 30
0.0
 11
-144.015089
 21
1100.327716
 31
0.0
  0
LINE
  5
260
330
22D
100
AcDbEntity
  8
0
  6
Continuous
 62
     0
370
     0
100
AcDbLine
 10
-145.047347
 20
1099.727716
 30
0.0
 11
-143.415089
 21
1099.727716
 31
0.0
  0
LINE
  5
261
330
22D
100
AcDbEntity
  8
0
  6
Continuous
 62
     0
370
     0
100
AcDbLine
 10
-156.211956
 20
1099.727716
 30
0.0
 11
-145.047347
 21
1099.727716
 31
0.0
  0
LINE
  5
262
330
22D
100
AcDbEntity
  8
0
  6
Continuous
 62
     0
370
    30
100
AcDbLine
 10
-163.791
 20
1033.207715
 30
0.0
 11
-162.554061
 21
1033.207715
 31
0.0
  0
LINE
  5
263
330
22D
100
AcDbEntity
  8
0
  6
Continuous
 62
     0
370
    30
100
AcDbLine
 10
-223.41509
 20
1070.907716
 30
0.0
 11
-223.41509
 21
1060.907716
 31
0.0
  0
LINE
  5
264
330
22D
100
AcDbEntity
  8
0
  6
Continuous
 62
     0
370
    30
100
AcDbLine
 10
-223.41509
 20
1060.907716
 30
0.0
 11
-223.41509
 21
1050.907716
 31
0.0
  0
LINE
  5
265
330
22D
100
AcDbEntity
  8
0
  6
Continuous
 62
     0
370
     0
100
AcDbLine
 10
-270.41509
 20
1070.907716
 30
0.0
 11
-270.41509
 21
1060.907716
 31
0.0
  0
LINE
  5
266
330
22D
100
AcDbEntity
  8
0
  6
Continuous
 62
     0
370
     0
100
AcDbLine
 10
-270.41509
 20
1060.907716
 30
0.0
 11
-270.41509
 21
1050.907716
 31
0.0
  0
LINE
  5
267
330
22D
100
AcDbEntity
  8
0
  6
Continuous
 62
     0
370
     0
100
AcDbLine
 10
-301.592005
 20
1052.907716
 30
0.0
 11
-292.931751
 21
1047.907716
 31
0.0
  0
LINE
  5
268
330
22D
100
AcDbEntity
  8
0
  6
Continuous
 62
     0
370
     0
100
AcDbLine
 10
-292.931751
 20
1047.907716
 30
0.0
 11
-284.271497
 21
1042.907716
 31
0.0
  0
LINE
  5
269
330
22D
100
AcDbEntity
  8
0
  6
Continuous
 62
     0
370
    30
100
AcDbLine
 10
-311.592005
 20
1035.587208
 30
0.0
 11
-302.931751
 21
1030.587208
 31
0.0
  0
LINE
  5
26A
330
22D
100
AcDbEntity
  8
0
  6
Continuous
 62
     0
370
    30
100
AcDbLine
 10
-302.931751
 20
1030.587208
 30
0.0
 11
-294.271497
 21
1025.587208
 31
0.0
  0
LINE
  5
26B
330
22D
100
AcDbEntity
  8
0
  6
Continuous
 62
     0
370
    30
100
AcDbLine
 10
-159.632843
 20
998.57575
 30
0.0
 11
-144.812084
 21
998.57575
 31
0.0
  0
LINE
  5
26C
330
22D
100
AcDbEntity
  8
0
  6
Continuous
 62
     0
370
    30
100
AcDbLine
 10
-144.812084
 20
998.57575
 30
0.0
 11
-143.515089
 21
998.57575
 31
0.0
  0
LINE
  5
26D
330
22D
100
AcDbEntity
  8
0
  6
Continuous
 62
     0
370
    30
100
AcDbLine
 10
-143.465149
 20
1028.57575
 30
0.0
 11
-141.965089
 21
1028.57575
 31
0.0
  0
LINE
  5
26E
330
22D
100
AcDbEntity
  8
0
  6
Continuous
 62
     0
370
    30
100
AcDbLine
 10
-163.197865
 20
1028.57575
 30
0.0
 11
-143.465149
 21
1028.57575
 31
0.0
  0
LINE
  5
26F
330
22D
100
AcDbEntity
  8
0
  6
Continuous
 62
     0
370
    30
100
AcDbLine
 10
-141.965089
 20
1028.57575
 30
0.0
 11
-143.515089
 21
998.57575
 31
0.0
  0
LINE
  5
270
330
22D
100
AcDbEntity
  8
0
  6
Continuous
 62
     0
370
    30
100
AcDbLine
 10
-311.592005
 20
1035.587208
 30
0.0
 11
-301.592005
 21
1052.907716
 31
0.0
  0
LINE
  5
271
330
22D
100
AcDbEntity
  8
0
  6
Continuous
 62
     0
370
    30
100
AcDbLine
 10
-294.271497
 20
1025.587208
 30
0.0
 11
-284.271497
 21
1042.907716
 31
0.0
  0
ARC
  5
272
330
22D
100
AcDbEntity
  8
0
  6
Continuous
 62
     0
370
    30
100
AcDbCircle
 10
-270.415088
 20
1034.907712
 30
0.0
 40
36.00000400241295
100
AcDbArc
 50
90.000004
 51
149.999996
  0
ARC
  5
273
330
22D
100
AcDbEntity
  8
0
  6
Continuous
 62
     0
370
    30
100
AcDbCircle
 10
-270.415089
 20
1034.907714
 30
0.0
 40
16.00000177885043
100
AcDbArc
 50
90.000004
 51
149.999996
  0
LINE
  5
274
330
22D
100
AcDbEntity
  8
0
  6
Continuous
 62
     0
370
    30
100
AcDbLine
 10
-270.41509
 20
1070.907716
 30
0.0
 11
-223.41509
 21
1070.907716
 31
0.0
  0
LINE
  5
275
330
22D
100
AcDbEntity
  8
0
  6
Continuous
 62
     0
370
    30
100
AcDbLine
 10
-270.41509
 20
1050.907716
 30
0.0
 11
-223.41509
 21
1050.907716
 31
0.0
  0
LINE
  5
276
330
22D
100
AcDbEntity
  8
0
  6
Continuous
 62
     0
370
    30
100
AcDbLine
 10
-142.915089
 20
1028.57575
 30
0.0
 11
-142.915089
 21
1031.286799
 31
0.0
  0
LINE
  5
277
330
22D
100
AcDbEntity
  8
0
  6
Continuous
 62
     0
370
    30
100
AcDbLine
 10
-155.215089
 20
1080.327716
 30
0.0
 11
-155.215089
 21
1077.907715
 31
0.0
  0
LINE
  5
278
330
22D
100
AcDbEntity
  8
0
  6
Continuous
 62
     0
370
    30
100
AcDbLine
 10
-151.615089
 20
1080.327716
 30
0.0
 11
-151.615089
 21
1077.907715
 31
0.0
  0
ARC
  5
279
330
22D
100
AcDbEntity
  8
0
  6
Continuous
 62
     0
370
    30
100
AcDbCircle
 10
-144.01509
 20
1099.727716
 30
0.0
 40
0.5999999735382732
100
AcDbArc
 50
359.999995
 51
89.999997
  0
LINE
  5
27A
330
22D
100
AcDbEntity
  8
0
  6
Continuous
 62
     0
370
    30
100
AcDbLine
 10
-143.415089
 20
1080.327716
 30
0.0
 11
-143.415089
 21
1099.727716
 31
0.0
  0
LINE
  5
27B
330
22D
100
AcDbEntity
  8
0
  6
Continuous
 62
     0
370
    30
100
AcDbLine
 10
-223.215086
 20
1050.757715
 30
0.0
 11
-223.415086
 21
1050.957715
 31
0.0
  0
LINE
  5
27C
330
22D
100
AcDbEntity
  8
0
  6
Continuous
 62
     0
370
    30
100
AcDbLine
 10
-215.415086
 20
1050.41716
 30
0.0
 11
-223.215086
 21
1050.757715
 31
0.0
  0
ARC
  5
27D
330
22D
100
AcDbEntity
  8
0
  6
Continuous
 62
     0
370
    30
100
AcDbCircle
 10
-210.022775
 20
1076.407723
 30
0.0
 40
5.000007353127757
100
AcDbArc
 50
270.000069
 51
324.663893
  0
ARC
  5
27E
330
22D
100
AcDbEntity
  8
0
  6
Continuous
 62
     0
370
    30
100
AcDbCircle
 10
-210.022779
 20
1045.407706
 30
0.0
 40
5.000008467946342
100
AcDbArc
 50
35.035121
 51
89.999947
  0
LINE
  5
27F
330
22D
100
AcDbEntity
  8
0
  6
Continuous
 62
     0
370
    30
100
AcDbLine
 10
-210.023053
 20
1071.407715
 30
0.0
 11
-215.415086
 21
1071.407715
 31
0.0
  0
LINE
  5
280
330
22D
100
AcDbEntity
  8
0
  6
Continuous
 62
     0
370
    30
100
AcDbLine
 10
-210.023053
 20
1050.407715
 30
0.0
 11
-215.415086
 21
1050.407715
 31
0.0
  0
ARC
  5
281
330
22D
100
AcDbEntity
  8
0
  6
Continuous
 62
     0
370
    30
100
AcDbCircle
 10
-199.595437
 20
1085.249386
 30
0.0
 40
4.999979628142626
100
AcDbArc
 50
295.634847
 51
0.425911
  0
LINE
  5
282
330
22D
100
AcDbEntity
  8
0
  6
Continuous
 62
     0
370
    30
100
AcDbLine
 10
-194.595596
 20
1085.28646
 30
0.0
 11
-195.06796
 21
1148.856285
 31
0.0
  0
LWPOLYLINE
  5
283
330
22D
100
AcDbEntity
  8
0
  6
Continuous
 62
     0
370
    30
100
AcDbPolyline
 90
      103
 70
     0
 43
0.0
 10
-146.4151
 20
697.973572
 10
-146.4151
 20
698.040283
 10
-146.4151
 20
698.259277
 10
-146.4151
 20
698.629822
 10
-146.4151
 20
699.153625
 10
-146.4151
 20
699.832458
 10
-146.4151
 20
700.667725
 10
-146.4151
 20
701.660583
 10
-146.4151
 20
702.811584
 10
-146.415115
 20
704.120667
 10
-146.415176
 20
705.587219
 10
-146.415268
 20
707.209961
 10
-146.415482
 20
708.986511
 10
-146.415894
 20
710.913635
 10
-146.41655
 20
712.987732
 10
-146.417587
 20
715.204468
 10
-146.419128
 20
717.55835
 10
-146.421326
 20
720.043518
 10
-146.424347
 20
722.653503
 10
-146.42836
 20
725.381531
 10
-146.433594
 20
728.220459
 10
-146.440262
 20
731.162903
 10
-146.448563
 20
734.201355
 10
-146.45874
 20
737.328552
 10
-146.471054
 20
740.537292
 10
-146.485687
 20
743.82074
 10
-146.502914
 20
747.17218
 10
-146.522949
 20
750.58551
 10
-146.546021
 20
754.054749
 10
-146.572327
 20
757.574524
 10
-146.602097
 20
761.139893
 10
-146.635529
 20
764.746155
 10
-146.672821
 20
768.388916
 10
-146.714142
 20
772.064575
 10
-146.759689
 20
775.769409
 10
-146.809616
 20
779.500427
 10
-146.864075
 20
783.254639
 10
-146.923248
 20
787.02948
 10
-146.987259
 20
790.822754
 10
-147.056244
 20
794.632263
 10
-147.130341
 20
798.456238
 10
-147.209656
 20
802.292908
 10
-147.294342
 20
806.140869
 10
-147.384476
 20
809.998718
 10
-147.480179
 20
813.865295
 10
-147.581573
 20
817.739502
 10
-147.688721
 20
821.620361
 10
-147.801727
 20
825.507141
 10
-147.920685
 20
829.399109
 10
-148.045685
 20
833.29541
 10
-148.176804
 20
837.195557
 10
-148.314102
 20
841.098938
 10
-148.457672
 20
845.005127
 10
-148.60759
 20
848.913696
 10
-148.763916
 20
852.824219
 10
-148.926727
 20
856.73645
 10
-149.096069
 20
860.650085
 10
-149.272018
 20
864.564758
 10
-149.45462
 20
868.480286
 10
-149.643936
 20
872.396423
 10
-149.840042
 20
876.31311
 10
-150.042969
 20
880.22998
 10
-150.252777
 20
884.147034
 10
-150.469528
 20
888.064148
 10
-150.693237
 20
891.98114
 10
-150.923996
 20
895.89801
 10
-151.161819
 20
899.814514
 10
-151.406754
 20
903.730652
 10
-151.658859
 20
907.646362
 10
-151.918167
 20
911.561646
 10
-152.184708
 20
915.476318
 10
-152.458542
 20
919.390442
 10
-152.739685
 20
923.303955
 10
-153.028198
 20
927.216797
 10
-153.324097
 20
931.128967
 10
-153.627426
 20
935.040405
 10
-153.938217
 20
938.95105
 10
-154.2565
 20
942.861023
 10
-154.582306
 20
946.770203
 10
-154.915665
 20
950.678589
 10
-155.256607
 20
954.586182
 10
-155.605164
 20
958.492981
 10
-155.96138
 20
962.398926
 10
-156.325256
 20
966.304077
 10
-156.696838
 20
970.208374
 10
-157.076126
 20
974.111877
 10
-157.463181
 20
978.014465
 10
-157.858002
 20
981.916199
 10
-158.26062
 20
985.817139
 10
-158.671066
 20
989.717163
 10
-159.08934
 20
993.616333
 10
-159.515488
 20
997.514648
 10
-159.949493
 20
1001.412048
 10
-160.391388
 20
1005.308594
 10
-160.841202
 20
1009.204224
 10
-161.29895
 20
1013.098938
 10
-161.764648
 20
1016.992798
 10
-162.238342
 20
1020.885681
 10
-162.720032
 20
1024.77771
 10
-163.209671
 20
1028.668701
 10
-163.707199
 20
1032.558838
 10
-164.21315
 20
1036.447876
 10
-164.729828
 20
1040.360474
  0
LINE
  5
284
330
22D
100
AcDbEntity
  8
0
  6
Continuous
 62
     0
370
    30
100
AcDbLine
 10
-146.415095
 20
697.974923
 30
0.0
 11
-146.415095
 21
697.97358
 31
0.0
  0
LINE
  5
285
330
22D
100
AcDbEntity
  8
0
  6
Continuous
 62
     0
370
    30
100
AcDbLine
 10
-146.415089
 20
998.57575
 30
0.0
 11
-146.415093
 21
699.167724
 31
0.0
  0
LWPOLYLINE
  5
286
330
22D
100
AcDbEntity
  8
0
  6
Continuous
 62
     0
370
    30
100
AcDbPolyline
 90
      103
 70
     0
 43
0.0
 10
-160.4151
 20
697.966858
 10
-160.4151
 20
698.046936
 10
-160.4151
 20
698.273438
 10
-160.4151
 20
698.651733
 10
-160.4151
 20
699.184387
 10
-160.4151
 20
699.872925
 10
-160.4151
 20
700.718567
 10
-160.4151
 20
701.722351
 10
-160.4151
 20
702.884888
 10
-160.415131
 20
704.205994
 10
-160.415176
 20
705.684998
 10
-160.415283
 20
707.320557
 10
-160.415512
 20
709.109985
 10
-160.415924
 20
711.050171
 10
-160.416611
 20
713.137512
 10
-160.417679
 20
715.36731
 10
-160.419266
 20
717.734253
 10
-160.421524
 20
720.232361
 10
-160.424622
 20
722.855103
 10
-160.428741
 20
725.595703
 10
-160.434097
 20
728.44696
 10
-160.440903
 20
731.401489
 10
-160.449371
 20
734.451904
 10
-160.459778
 20
737.59082
 10
-160.472305
 20
740.810974
 10
-160.487228
 20
744.105713
 10
-160.504776
 20
747.468201
 10
-160.525162
 20
750.892456
 10
-160.54863
 20
754.372437
 10
-160.575394
 20
757.902771
 10
-160.605652
 20
761.478577
 10
-160.639633
 20
765.095032
 10
-160.677521
 20
768.747986
 10
-160.719498
 20
772.433655
 10
-160.765747
 20
776.148376
 10
-160.816437
 20
779.88916
 10
-160.871735
 20
783.653076
 10
-160.931793
 20
787.4375
 10
-160.996765
 20
791.240234
 10
-161.066772
 20
795.059082
 10
-161.141953
 20
798.892334
 10
-161.222443
 20
802.738281
 10
-161.30835
 20
806.595276
 10
-161.399796
 20
810.462158
 10
-161.496872
 20
814.337708
 10
-161.599701
 20
818.220703
 10
-161.708374
 20
822.110413
 10
-161.822983
 20
826.00592
 10
-161.943619
 20
829.906494
 10
-162.070374
 20
833.811401
 10
-162.203323
 20
837.719971
 10
-162.342545
 20
841.631836
 10
-162.488113
 20
845.546387
 10
-162.640106
 20
849.463257
 10
-162.798599
 20
853.38208
 10
-162.963638
 20
857.302551
 10
-163.135315
 20
861.224304
 10
-163.313675
 20
865.147034
 10
-163.498779
 20
869.070618
 10
-163.690689
 20
872.994812
 10
-163.889465
 20
876.919434
 10
-164.095169
 20
880.844238
 10
-164.307831
 20
884.769165
 10
-164.527512
 20
888.694092
 10
-164.754272
 20
892.618958
 10
-164.988144
 20
896.543579
 10
-165.229187
 20
900.467834
 10
-165.477432
 20
904.391724
 10
-165.732941
 20
908.315125
 10
-165.995743
 20
912.238037
 10
-166.265884
 20
916.1604
 10
-166.543396
 20
920.082092
 10
-166.828323
 20
924.003174
 10
-167.120712
 20
927.923584
 10
-167.420593
 20
931.843262
 10
-167.727997
 20
935.762207
 10
-168.042938
 20
939.680359
 10
-168.365494
 20
943.597839
 10
-168.695648
 20
947.514465
 10
-169.033478
 20
951.430298
 10
-169.378983
 20
955.345337
 10
-169.732208
 20
959.259521
 10
-170.09317
 20
963.172852
 10
-170.461914
 20
967.085388
 10
-170.83844
 20
970.99707
 10
-171.222809
 20
974.907898
 10
-171.615005
 20
978.81781
 10
-172.015091
 20
982.726929
 10
-172.42308
 20
986.635132
 10
-172.838974
 20
990.54248
 10
-173.262817
 20
994.448914
 10
-173.694626
 20
998.354492
 10
-174.134384
 20
1002.259155
 10
-174.582153
 20
1006.162903
 10
-175.037933
 20
1010.065796
 10
-175.50174
 20
1013.967712
 10
-175.973587
 20
1017.868774
 10
-176.453506
 20
1021.76886
 10
-176.941513
 20
1025.668091
 10
-177.437622
 20
1029.566284
 10
-177.941833
 20
1033.463501
 10
-178.454178
 20
1037.359741
 10
-178.977081
 20
1041.272827
  0
ARC
  5
287
330
22D
100
AcDbEntity
  8
0
  6
Continuous
 62
     0
370
    30
100
AcDbCircle
 10
-153.41505
 20
697.970492
 30
0.0
 40
6.999972296050333
100
AcDbArc
 50
180.029136
 51
91.621214
  0
LINE
  5
288
330
22D
100
AcDbEntity
  8
0
  6
Continuous
 62
     0
370
    30
100
AcDbLine
 10
-128.415099
 20
1038.734262
 30
0.0
 11
-162.097643
 21
1038.734262
 31
0.0
  0
LINE
  5
289
330
22D
100
AcDbEntity
  8
0
  6
Continuous
 62
     0
370
    30
100
AcDbLine
 10
-187.265099
 20
1203.411856
 30
0.0
 11
-187.265099
 21
1203.630081
 31
0.0
  0
LINE
  5
28A
330
22D
100
AcDbEntity
  8
0
  6
Continuous
 62
     0
370
    30
100
AcDbLine
 10
-187.265099
 20
1277.619541
 30
0.0
 11
-187.265099
 21
1278.001691
 31
0.0
  0
LWPOLYLINE
  5
28B
330
22D
100
AcDbEntity
  8
0
  6
Continuous
 62
     0
370
    30
100
AcDbPolyline
 90
       18
 70
     0
 43
0.0
 10
-183.631393
 20
1215.87439
 10
-183.661331
 20
1214.867065
 10
-183.748962
 20
1213.867432
 10
-183.8909
 20
1212.883789
 10
-184.080368
 20
1211.921997
 10
-184.310059
 20
1210.987549
 10
-184.572174
 20
1210.084717
 10
-184.858749
 20
1209.217651
 10
-185.161713
 20
1208.390015
 10
-185.473007
 20
1207.607178
 10
-185.784485
 20
1206.87439
 10
-186.087616
 20
1206.198853
 10
-186.373276
 20
1205.589478
 10
-186.631302
 20
1205.058105
 10
-186.851196
 20
1204.617554
 10
-187.022385
 20
1204.281616
 10
-187.134262
 20
1204.065063
 10
-187.179123
 20
1203.97876
  0
LINE
  5
28C
330
22D
100
AcDbEntity
  8
0
  6
Continuous
 62
     0
370
    30
100
AcDbLine
 10
-183.631412
 20
1215.874374
 30
0.0
 11
-183.631412
 21
1265.518414
 31
0.0
  0
LINE
  5
28D
330
22D
100
AcDbEntity
  8
0
  6
Continuous
 62
     0
370
    30
100
AcDbLine
 10
-187.179545
 20
1277.271677
 30
0.0
 11
-187.144708
 21
1277.212001
 31
0.0
  0
LWPOLYLINE
  5
28E
330
22D
100
AcDbEntity
  8
0
  6
Continuous
 62
     0
370
    30
100
AcDbPolyline
 90
       18
 70
     0
 43
0.0
 10
-183.631393
 20
1265.518433
 10
-183.669037
 20
1266.516479
 10
-183.763275
 20
1267.505737
 10
-183.909943
 20
1268.478638
 10
-184.102554
 20
1269.429199
 10
-184.33403
 20
1270.352539
 10
-184.596619
 20
1271.244385
 10
-184.882477
 20
1272.10083
 10
-185.183762
 20
1272.917969
 10
-185.492661
 20
1273.690918
 10
-185.801239
 20
1274.414185
 10
-186.101135
 20
1275.080811
 10
-186.383423
 20
1275.681763
 10
-186.638184
 20
1276.205811
 10
-186.855118
 20
1276.640137
 10
-187.023956
 20
1276.971313
 10
-187.134369
 20
1277.184937
 10
-187.17955
 20
1277.271729
  0
ARC
  5
28F
330
22D
100
AcDbEntity
  8
0
  6
Continuous
 62
     0
370
    30
100
AcDbCircle
 10
-157.531645
 20
1282.874738
 30
0.0
 40
1.00002530009391
100
AcDbArc
 50
0.101447
 51
89.992824
  0
LINE
  5
290
330
22D
100
AcDbEntity
  8
0
  6
Continuous
 62
     0
370
    30
100
AcDbLine
 10
-156.165099
 20
1072.874763
 30
0.0
 11
-156.531621
 21
1282.876508
 31
0.0
  0
LINE
  5
291
330
22D
100
AcDbEntity
  8
0
  6
Continuous
 62
     0
370
    30
100
AcDbLine
 10
-160.918695
 20
1069.734262
 30
0.0
 11
-160.765099
 21
1072.874763
 31
0.0
  0
LINE
  5
292
330
22D
100
AcDbEntity
  8
0
  6
Continuous
 62
     0
370
    30
100
AcDbLine
 10
-183.765099
 20
1072.874763
 30
0.0
 11
-183.404522
 21
1065.502241
 31
0.0
  0
ENDBLK
  5
294
330
22D
100
AcDbEntity
  8
0
100
AcDbBlockEnd
  0
ENDSEC
  0
SECTION
  2
ENTITIES
  0
INSERT
  5
D1
330
1F
100
AcDbEntity
  8
0
  6
Continuous
 62
   250
370
     0
100
AcDbBlockReference
  2
a
 10
31.810692
 20
128.626831
 30
0.0
  0
INSERT
  5
12B
330
1F
100
AcDbEntity
  8
0
  6
Continuous
 62
   250
370
     0
100
AcDbBlockReference
  2
b
 10
-169.746885
 20
392.311478
 30
0.0
  0
INSERT
  5
18C
330
1F
100
AcDbEntity
  8
0
  6
Continuous
 62
   250
370
     0
100
AcDbBlockReference
  2
c
 10
31.810692
 20
409.611237
 30
0.0
  0
INSERT
  5
22C
330
1F
100
AcDbEntity
  8
0
  6
Continuous
 62
   250
370
     0
100
AcDbBlockReference
  2
d
 10
-82.429054
 20
138.659302
 30
0.0
  0
INSERT
  5
295
330
1F
100
AcDbEntity
  8
0
  6
Continuous
 62
   250
370
     0
100
AcDbBlockReference
  2
e
 10
-71.190216
 20
0.0
 30
0.0
  0
ENDSEC
  0
SECTION
  2
OBJECTS
  0
DICTIONARY
  5
C
330
0
100
AcDbDictionary
281
     1
  3
ACAD_GROUP
350
D
  3
ACAD_LAYOUT
350
1A
  3
ACAD_MLEADERSTYLE
350
298
  3
ACAD_MLINESTYLE
350
17
  3
ACAD_PLOTSETTINGS
350
19
  3
ACAD_PLOTSTYLENAME
350
E
  3
ACAD_VISUALSTYLE
350
2A
  3
AcDbVariableDictionary
350
296
  0
DICTIONARY
  5
D
102
{ACAD_REACTORS
330
C
102
}
330
C
100
AcDbDictionary
281
     1
  0
DICTIONARY
  5
1A
102
{ACAD_REACTORS
330
C
102
}
330
C
100
AcDbDictionary
281
     1
  3
Layout1
350
1E
  3
Layout2
350
26
  3
Model
350
22
  0
DICTIONARY
  5
298
102
{ACAD_REACTORS
330
C
102
}
330
C
100
AcDbDictionary
281
     1
  0
DICTIONARY
  5
17
102
{ACAD_REACTORS
330
C
102
}
330
C
100
AcDbDictionary
281
     1
  3
Standard
350
18
  0
DICTIONARY
  5
19
102
{ACAD_REACTORS
330
C
102
}
330
C
100
AcDbDictionary
281
     1
  0
ACDBDICTIONARYWDFLT
  5
E
102
{ACAD_REACTORS
330
C
102
}
330
C
100
AcDbDictionary
281
     1
  3
Normal
350
F
100
AcDbDictionaryWithDefault
340
F
  0
DICTIONARY
  5
2A
102
{ACAD_REACTORS
330
C
102
}
330
C
100
AcDbDictionary
281
     1
  3
2dWireframe
350
2F
  3
3D Hidden
350
31
  3
3dWireframe
350
30
  3
Basic
350
32
  3
Brighten
350
36
  3
ColorChange
350
3A
  3
Conceptual
350
34
  3
Dim
350
35
  3
Facepattern
350
39
  3
Flat
350
2B
  3
FlatWithEdges
350
2C
  3
Gouraud
350
2D
  3
GouraudWithEdges
350
2E
  3
Linepattern
350
38
  3
Realistic
350
33
  3
Thicken
350
37
  0
DICTIONARY
  5
296
102
{ACAD_REACTORS
330
C
102
}
330
C
100
AcDbDictionary
281
     1
  3
PSOLHEIGHT
350
29A
  3
PSOLWIDTH
350
299
  0
LAYOUT
  5
1E
102
{ACAD_REACTORS
330
1A
102
}
330
1A
100
AcDbPlotSettings
  1

  2
none_device
  4

  6

 40
0.0
 41
0.0
 42
0.0
 43
0.0
 44
0.0
 45
0.0
 46
0.0
 47
0.0
 48
0.0
 49
0.0
140
0.0
141
0.0
142
1.0
143
1.0
 70
   688
 72
     0
 73
     0
 74
     5
  7

 75
    16
147
1.0
148
0.0
149
0.0
100
AcDbLayout
  1
Layout1
 70
     1
 71
     1
 10
0.0
 20
0.0
 11
420.0
 21
297.0
 12
0.0
 22
0.0
 32
0.0
 14
1.000000E+20
 24
1.000000E+20
 34
1.000000E+20
 15
-1.000000E+20
 25
-1.000000E+20
 35
-1.000000E+20
146
0.0
 13
0.0
 23
0.0
 33
0.0
 16
1.0
 26
0.0
 36
0.0
 17
0.0
 27
1.0
 37
0.0
 76
     0
330
1B
  0
LAYOUT
  5
26
102
{ACAD_REACTORS
330
1A
102
}
330
1A
100
AcDbPlotSettings
  1

  2
none_device
  4

  6

 40
0.0
 41
0.0
 42
0.0
 43
0.0
 44
0.0
 45
0.0
 46
0.0
 47
0.0
 48
0.0
 49
0.0
140
0.0
141
0.0
142
1.0
143
1.0
 70
   688
 72
     0
 73
     0
 74
     5
  7

 75
    16
147
1.0
148
0.0
149
0.0
100
AcDbLayout
  1
Layout2
 70
     1
 71
     2
 10
0.0
 20
0.0
 11
0.0
 21
0.0
 12
0.0
 22
0.0
 32
0.0
 14
0.0
 24
0.0
 34
0.0
 15
0.0
 25
0.0
 35
0.0
146
0.0
 13
0.0
 23
0.0
 33
0.0
 16
1.0
 26
0.0
 36
0.0
 17
0.0
 27
1.0
 37
0.0
 76
     0
330
23
  0
LAYOUT
  5
22
102
{ACAD_REACTORS
330
1A
102
}
330
1A
100
AcDbPlotSettings
  1

  2
none_device
  4

  6

 40
0.0
 41
0.0
 42
0.0
 43
0.0
 44
0.0
 45
0.0
 46
0.0
 47
0.0
 48
0.0
 49
0.0
140
0.0
141
0.0
142
1.0
143
1.0
 70
  1712
 72
     0
 73
     0
 74
     0
  7

 75
     0
147
1.0
148
0.0
149
0.0
100
AcDbLayout
  1
Model
 70
     1
 71
     0
 10
-311.59201
 20
100.329842
 11
1085.070435
 21
1283.874878
 12
0.0
 22
0.0
 32
0.0
 14
-311.59201
 24
100.329842
 34
0.0
 15
1085.070435
 25
1283.874878
 35
0.0
146
0.0
 13
0.0
 23
0.0
 33
0.0
 16
1.0
 26
0.0
 36
0.0
 17
0.0
 27
1.0
 37
0.0
 76
     0
330
1F
331
29
  0
MLINESTYLE
  5
18
102
{ACAD_REACTORS
330
17
102
}
330
17
100
AcDbMlineStyle
  2
Standard
 70
     0
  3

 62
   256
 51
90.0
 52
90.0
 71
     2
 49
0.5
 62
   256
  6
BYLAYER
 49
-0.5
 62
   256
  6
BYLAYER
  0
ACDBPLACEHOLDER
  5
F
102
{ACAD_REACTORS
330
E
102
}
330
E
  0
VISUALSTYLE
  5
2F
102
{ACAD_REACTORS
330
2A
102
}
330
2A
100
AcDbVisualStyle
  2
2dWireframe
 70
     4
 71
     0
 72
     2
 73
     0
 90
        0
 40
-0.6
 41
-30.0
 62
     5
 63
     7
 74
     1
 91
        4
 64
     7
 65
   257
 75
     1
175
     1
 42
1.0
 92
        0
 66
   257
 43
1.0
 76
     1
 77
     6
 78
     2
 67
     7
 79
     5
170
     0
171
     0
290
     0
174
     0
 93
        1
 44
0.0
173
     0
291
     0
 45
0.0
1001
ACAD
1000
AcDbSavedByObjectVersion
1070
     0
  0
VISUALSTYLE
  5
31
102
{ACAD_REACTORS
330
2A
102
}
330
2A
100
AcDbVisualStyle
  2
3D Hidden
 70
     6
 71
     1
 72
     2
 73
     2
 90
        0
 40
-0.6
 41
-30.0
 62
     5
 63
     7
 74
     2
 91
        2
 64
     7
 65
   257
 75
     2
175
     1
 42
40.0
 92
        0
 66
   257
 43
1.0
 76
     1
 77
     6
 78
     2
 67
     7
 79
     3
170
     0
171
     0
290
     0
174
     0
 93
        1
 44
0.0
173
     0
291
     0
 45
0.0
1001
ACAD
1000
AcDbSavedByObjectVersion
1070
     0
  0
VISUALSTYLE
  5
30
102
{ACAD_REACTORS
330
2A
102
}
330
2A
100
AcDbVisualStyle
  2
3dWireframe
 70
     5
 71
     0
 72
     2
 73
     0
 90
        0
 40
-0.6
 41
-30.0
 62
     5
 63
     7
 74
     1
 91
        4
 64
     7
 65
   257
 75
     1
175
     1
 42
1.0
 92
        0
 66
   257
 43
1.0
 76
     1
 77
     6
 78
     2
 67
     7
 79
     5
170
     0
171
     0
290
     0
174
     0
 93
        1
 44
0.0
173
     0
291
     0
 45
0.0
1001
ACAD
1000
AcDbSavedByObjectVersion
1070
     0
  0
VISUALSTYLE
  5
32
102
{ACAD_REACTORS
330
2A
102
}
330
2A
100
AcDbVisualStyle
  2
Basic
 70
     7
 71
     1
 72
     0
 73
     1
 90
        0
 40
-0.6
 41
-30.0
 62
     5
 63
     7
 74
     0
 91
        4
 64
     7
 65
   257
 75
     1
175
     1
 42
1.0
 92
        8
 66
     7
 43
1.0
 76
     1
 77
     6
 78
     2
 67
     7
 79
     5
170
     0
171
     0
290
     0
174
     0
 93
        1
 44
0.0
173
     0
291
     1
 45
0.0
1001
ACAD
1000
AcDbSavedByObjectVersion
1070
     0
  0
VISUALSTYLE
  5
36
102
{ACAD_REACTORS
330
2A
102
}
330
2A
100
AcDbVisualStyle
  2
Brighten
 70
    12
 71
     2
 72
     2
 73
     0
 90
        0
 40
-0.6
 41
-30.0
 62
     5
 63
     7
 74
     1
 91
        4
 64
     7
 65
   257
 75
     1
175
     1
 42
1.0
 92
        8
 66
     7
 43
1.0
 76
     1
 77
     6
 78
     2
 67
     7
 79
     5
170
     0
171
     0
290
     0
174
     0
 93
        1
 44
50.0
173
     0
291
     1
 45
0.0
1001
ACAD
1000
AcDbSavedByObjectVersion
1070
     0
  0
VISUALSTYLE
  5
3A
102
{ACAD_REACTORS
330
2A
102
}
330
2A
100
AcDbVisualStyle
  2
ColorChange
 70
    16
 71
     2
 72
     2
 73
     3
 90
        0
 40
-0.6
 41
-30.0
 62
     5
 63
     8
 74
     1
 91
        4
 64
     7
 65
   257
 75
     1
175
     1
 42
1.0
 92
        8
 66
     8
 43
1.0
 76
     1
 77
     6
 78
     2
 67
     7
 79
     5
170
     0
171
     0
290
     0
174
     0
 93
        1
 44
0.0
173
     0
291
     1
 45
0.0
1001
ACAD
1000
AcDbSavedByObjectVersion
1070
     0
  0
VISUALSTYLE
  5
34
102
{ACAD_REACTORS
330
2A
102
}
330
2A
100
AcDbVisualStyle
  2
Conceptual
 70
     9
 71
     3
 72
     2
 73
     0
 90
        0
 40
-0.6
 41
-30.0
 62
     5
 63
     7
 74
     2
 91
        2
 64
     7
 65
   257
 75
     1
175
     1
 42
40.0
 92
        8
 66
     7
 43
1.0
 76
     1
 77
     6
 78
     2
 67
     7
 79
     3
170
     0
171
     0
290
     0
174
     0
 93
        1
 44
0.0
173
     0
291
     0
 45
0.0
1001
ACAD
1000
AcDbSavedByObjectVersion
1070
     0
  0
VISUALSTYLE
  5
35
102
{ACAD_REACTORS
330
2A
102
}
330
2A
100
AcDbVisualStyle
  2
Dim
 70
    11
 71
     2
 72
     2
 73
     0
 90
        0
 40
-0.6
 41
-30.0
 62
     5
 63
     7
 74
     1
 91
        4
 64
     7
 65
   257
 75
     1
175
     1
 42
1.0
 92
        8
 66
     7
 43
1.0
 76
     1
 77
     6
 78
     2
 67
     7
 79
     5
170
     0
171
     0
290
     0
174
     0
 93
        1
 44
-50.0
173
     0
291
     1
 45
0.0
1001
ACAD
1000
AcDbSavedByObjectVersion
1070
     0
  0
VISUALSTYLE
  5
39
102
{ACAD_REACTORS
330
2A
102
}
330
2A
100
AcDbVisualStyle
  2
Facepattern
 70
    15
 71
     2
 72
     2
 73
     0
 90
        0
 40
-0.6
 41
-30.0
 62
     5
 63
     7
 74
     1
 91
        4
 64
     7
 65
   257
 75
     1
175
     1
 42
1.0
 92
        8
 66
     7
 43
1.0
 76
     1
 77
     6
 78
     2
 67
     7
 79
     5
170
     0
171
     0
290
     0
174
     0
 93
        1
 44
0.0
173
     0
291
     1
 45
0.0
1001
ACAD
1000
AcDbSavedByObjectVersion
1070
     0
  0
VISUALSTYLE
  5
2B
102
{ACAD_REACTORS
330
2A
102
}
330
2A
100
AcDbVisualStyle
  2
Flat
 70
     0
 71
     2
 72
     1
 73
     1
 90
        2
 40
-0.6
 41
30.0
 62
     5
 63
     7
 74
     0
 91
        4
 64
     7
 65
   257
 75
     1
175
     1
 42
1.0
 92
        8
 66
     7
 43
1.0
 76
     1
 77
     6
 78
     2
 67
     7
 79
     5
170
     0
171
     0
290
     0
174
     0
 93
       13
 44
0.0
173
     0
291
     1
 45
0.0
1001
ACAD
1000
AcDbSavedByObjectVersion
1070
     0
  0
VISUALSTYLE
  5
2C
102
{ACAD_REACTORS
330
2A
102
}
330
2A
100
AcDbVisualStyle
  2
FlatWithEdges
 70
     1
 71
     2
 72
     1
 73
     1
 90
        2
 40
-0.6
 41
30.0
 62
     5
 63
     7
 74
     1
 91
        4
 64
     7
 65
   257
 75
     1
175
     1
 42
1.0
 92
        0
 66
   257
 43
1.0
 76
     1
 77
     6
 78
     2
 67
     7
 79
     5
170
     0
171
     0
290
     0
174
     0
 93
       13
 44
0.0
173
     0
291
     1
 45
0.0
1001
ACAD
1000
AcDbSavedByObjectVersion
1070
     0
  0
VISUALSTYLE
  5
2D
102
{ACAD_REACTORS
330
2A
102
}
330
2A
100
AcDbVisualStyle
  2
Gouraud
 70
     2
 71
     2
 72
     2
 73
     1
 90
        2
 40
-0.6
 41
30.0
 62
     5
 63
     7
 74
     0
 91
        4
 64
     7
 65
   257
 75
     1
175
     1
 42
1.0
 92
        0
 66
     7
 43
1.0
 76
     1
 77
     6
 78
     2
 67
     7
 79
     5
170
     0
171
     0
290
     0
174
     0
 93
       13
 44
0.0
173
     0
291
     1
 45
0.0
1001
ACAD
1000
AcDbSavedByObjectVersion
1070
     0
  0
VISUALSTYLE
  5
2E
102
{ACAD_REACTORS
330
2A
102
}
330
2A
100
AcDbVisualStyle
  2
GouraudWithEdges
 70
     3
 71
     2
 72
     2
 73
     1
 90
        2
 40
-0.6
 41
30.0
 62
     5
 63
     7
 74
     1
 91
        4
 64
     7
 65
   257
 75
     1
175
     1
 42
1.0
 92
        0
 66
   257
 43
1.0
 76
     1
 77
     6
 78
     2
 67
     7
 79
     5
170
     0
171
     0
290
     0
174
     0
 93
       13
 44
0.0
173
     0
291
     1
 45
0.0
1001
ACAD
1000
AcDbSavedByObjectVersion
1070
     0
  0
VISUALSTYLE
  5
38
102
{ACAD_REACTORS
330
2A
102
}
330
2A
100
AcDbVisualStyle
  2
Linepattern
 70
    14
 71
     2
 72
     2
 73
     0
 90
        0
 40
-0.6
 41
-30.0
 62
     5
 63
     7
 74
     1
 91
        4
 64
     7
 65
   257
 75
     7
175
     7
 42
1.0
 92
        8
 66
     7
 43
1.0
 76
     1
 77
     6
 78
     2
 67
     7
 79
     5
170
     0
171
     0
290
     0
174
     0
 93
        1
 44
0.0
173
     0
291
     1
 45
0.0
1001
ACAD
1000
AcDbSavedByObjectVersion
1070
     0
  0
VISUALSTYLE
  5
33
102
{ACAD_REACTORS
330
2A
102
}
330
2A
100
AcDbVisualStyle
  2
Realistic
 70
     8
 71
     2
 72
     2
 73
     0
 90
        0
 40
-0.6
 41
-30.0
 62
     5
 63
     7
 74
     1
 91
        0
 64
     7
 65
   257
 75
     1
175
     1
 42
1.0
 92
        8
 66
     8
 43
1.0
 76
     1
 77
     6
 78
     2
 67
     7
 79
     5
170
     0
171
     0
290
     0
174
     0
 93
       13
 44
0.0
173
     0
291
     0
 45
0.0
1001
ACAD
1000
AcDbSavedByObjectVersion
1070
     0
  0
VISUALSTYLE
  5
37
102
{ACAD_REACTORS
330
2A
102
}
330
2A
100
AcDbVisualStyle
  2
Thicken
 70
    13
 71
     2
 72
     2
 73
     0
 90
        0
 40
-0.6
 41
-30.0
 62
     5
 63
     7
 74
     1
 91
        4
 64
     7
 65
   257
 75
     1
175
     1
 42
1.0
 92
       12
 66
     7
 43
1.0
 76
     1
 77
     6
 78
     2
 67
     7
 79
     5
170
     0
171
     0
290
     0
174
     0
 93
        1
 44
0.0
173
     0
291
     1
 45
0.0
1001
ACAD
1000
AcDbSavedByObjectVersion
1070
     0
  0
DICTIONARYVAR
  5
29A
102
{ACAD_REACTORS
330
296
102
}
330
296
100
DictionaryVariables
280
     0
  1
80.000000
  0
DICTIONARYVAR
  5
299
102
{ACAD_REACTORS
330
296
102
}
330
296
100
DictionaryVariables
280
     0
  1
5.000000
  0
ENDSEC
  0
EOF
