  0
SECTION
  2
HEADER
  9
$ACADVER
  1
AC1015
  9
$ACADMAINTVER
 70
     6
  9
$DWGCODEPAGE
  3
ANSI_1252
  9
$INSBASE
 10
0.0
 20
0.0
 30
0.0
  9
$EXTMIN
 10
140.686844
 20
98.414764
 30
0.0
  9
$EXTMAX
 10
555.785278
 20
527.689453
 30
0.0
  9
$LIMMIN
 10
140.686844
 20
98.414764
  9
$LIMMAX
 10
555.785278
 20
527.689453
  9
$ORTHOMODE
 70
     0
  9
$REGENMODE
 70
     1
  9
$FILLMODE
 70
     1
  9
$QTEXTMODE
 70
     0
  9
$MIRRTEXT
 70
     1
  9
$LTSCALE
 40
1.0
  9
$ATTMODE
 70
     1
  9
$TEXTSIZE
 40
2.5
  9
$TRACEWID
 40
1.0
  9
$TEXTSTYLE
  7
Standard
  9
$CLAYER
  8
0
  9
$CELTYPE
  6
ByLayer
  9
$CECOLOR
 62
   256
  9
$CELTSCALE
 40
1.0
  9
$DISPSILH
 70
     0
  9
$DIMSCALE
 40
1.0
  9
$DIMASZ
 40
2.5
  9
$DIMEXO
 40
0.625
  9
$DIMDLI
 40
3.75
  9
$DIMRND
 40
0.0
  9
$DIMDLE
 40
0.0
  9
$DIMEXE
 40
1.25
  9
$DIMTP
 40
0.0
  9
$DIMTM
 40
0.0
  9
$DIMTXT
 40
2.5
  9
$DIMCEN
 40
2.5
  9
$DIMTSZ
 40
0.0
  9
$DIMTOL
 70
     0
  9
$DIMLIM
 70
     0
  9
$DIMTIH
 70
     0
  9
$DIMTOH
 70
     0
  9
$DIMSE1
 70
     0
  9
$DIMSE2
 70
     0
  9
$DIMTAD
 70
     1
  9
$DIMZIN
 70
     8
  9
$DIMBLK
  1

  9
$DIMASO
 70
     1
  9
$DIMSHO
 70
     1
  9
$DIMPOST
  1

  9
$DIMAPOST
  1

  9
$DIMALT
 70
     0
  9
$DIMALTD
 70
     3
  9
$DIMALTF
 40
0.03937
  9
$DIMLFAC
 40
1.0
  9
$DIMTOFL
 70
     1
  9
$DIMTVP
 40
0.0
  9
$DIMTIX
 70
     0
  9
$DIMSOXD
 70
     0
  9
$DIMSAH
 70
     0
  9
$DIMBLK1
  1

  9
$DIMBLK2
  1

  9
$DIMSTYLE
  2
ISO-25
  9
$DIMCLRD
 70
     0
  9
$DIMCLRE
 70
     0
  9
$DIMCLRT
 70
     0
  9
$DIMTFAC
 40
1.0
  9
$DIMGAP
 40
0.625
  9
$DIMJUST
 70
     0
  9
$DIMSD1
 70
     0
  9
$DIMSD2
 70
     0
  9
$DIMTOLJ
 70
     0
  9
$DIMTZIN
 70
     8
  9
$DIMALTZ
 70
     0
  9
$DIMALTTZ
 70
     0
  9
$DIMUPT
 70
     0
  9
$DIMDEC
 70
     2
  9
$DIMTDEC
 70
     2
  9
$DIMALTU
 70
     2
  9
$DIMALTTD
 70
     3
  9
$DIMTXSTY
  7
Standard
  9
$DIMAUNIT
 70
     0
  9
$DIMADEC
 70
     0
  9
$DIMALTRND
 40
0.0
  9
$DIMAZIN
 70
     0
  9
$DIMDSEP
 70
    44
  9
$DIMATFIT
 70
     3
  9
$DIMFRAC
 70
     0
  9
$DIMLDRBLK
  1

  9
$DIMLUNIT
 70
     2
  9
$DIMLWD
 70
    -2
  9
$DIMLWE
 70
    -2
  9
$DIMTMOVE
 70
     0
  9
$LUNITS
 70
     2
  9
$LUPREC
 70
     4
  9
$SKETCHINC
 40
1.0
  9
$FILLETRAD
 40
10.0
  9
$AUNITS
 70
     0
  9
$AUPREC
 70
     0
  9
$MENU
  1
.
  9
$ELEVATION
 40
0.0
  9
$PELEVATION
 40
0.0
  9
$THICKNESS
 40
0.0
  9
$LIMCHECK
 70
     0
  9
$CHAMFERA
 40
10.0
  9
$CHAMFERB
 40
10.0
  9
$CHAMFERC
 40
20.0
  9
$CHAMFERD
 40
0.0
  9
$SKPOLY
 70
     0
  9
$TDCREATE
 40
2455572.473972106
  9
$TDUCREATE
 40
2455572.43230544
  9
$TDUPDATE
 40
2455572.473972118
  9
$TDUUPDATE
 40
2455572.432305451
  9
$TDINDWG
 40
0.0000000116
  9
$TDUSRTIMER
 40
0.0000000116
  9
$USRTIMER
 70
     1
  9
$ANGBASE
 50
0.0
  9
$ANGDIR
 70
     0
  9
$PDMODE
 70
     0
  9
$PDSIZE
 40
0.0
  9
$PLINEWID
 40
0.0
  9
$SPLFRAME
 70
     0
  9
$SPLINETYPE
 70
     6
  9
$SPLINESEGS
 70
     8
  9
$HANDSEED
  5
17C
  9
$SURFTAB1
 70
     6
  9
$SURFTAB2
 70
     6
  9
$SURFTYPE
 70
     6
  9
$SURFU
 70
     6
  9
$SURFV
 70
     6
  9
$UCSBASE
  2

  9
$UCSNAME
  2

  9
$UCSORG
 10
0.0
 20
0.0
 30
0.0
  9
$UCSXDIR
 10
1.0
 20
0.0
 30
0.0
  9
$UCSYDIR
 10
0.0
 20
1.0
 30
0.0
  9
$UCSORTHOREF
  2

  9
$UCSORTHOVIEW
 70
     0
  9
$UCSORGTOP
 10
0.0
 20
0.0
 30
0.0
  9
$UCSORGBOTTOM
 10
0.0
 20
0.0
 30
0.0
  9
$UCSORGLEFT
 10
0.0
 20
0.0
 30
0.0
  9
$UCSORGRIGHT
 10
0.0
 20
0.0
 30
0.0
  9
$UCSORGFRONT
 10
0.0
 20
0.0
 30
0.0
  9
$UCSORGBACK
 10
0.0
 20
0.0
 30
0.0
  9
$PUCSBASE
  2

  9
$PUCSNAME
  2

  9
$PUCSORG
 10
0.0
 20
0.0
 30
0.0
  9
$PUCSXDIR
 10
1.0
 20
0.0
 30
0.0
  9
$PUCSYDIR
 10
0.0
 20
1.0
 30
0.0
  9
$PUCSORTHOREF
  2

  9
$PUCSORTHOVIEW
 70
     0
  9
$PUCSORGTOP
 10
0.0
 20
0.0
 30
0.0
  9
$PUCSORGBOTTOM
 10
0.0
 20
0.0
 30
0.0
  9
$PUCSORGLEFT
 10
0.0
 20
0.0
 30
0.0
  9
$PUCSORGRIGHT
 10
0.0
 20
0.0
 30
0.0
  9
$PUCSORGFRONT
 10
0.0
 20
0.0
 30
0.0
  9
$PUCSORGBACK
 10
0.0
 20
0.0
 30
0.0
  9
$USERI1
 70
     0
  9
$USERI2
 70
     0
  9
$USERI3
 70
     0
  9
$USERI4
 70
     0
  9
$USERI5
 70
     0
  9
$USERR1
 40
0.0
  9
$USERR2
 40
0.0
  9
$USERR3
 40
0.0
  9
$USERR4
 40
0.0
  9
$USERR5
 40
0.0
  9
$WORLDVIEW
 70
     1
  9
$SHADEDGE
 70
     3
  9
$SHADEDIF
 70
    70
  9
$TILEMODE
 70
     1
  9
$MAXACTVP
 70
    64
  9
$PINSBASE
 10
0.0
 20
0.0
 30
0.0
  9
$PLIMCHECK
 70
     0
  9
$PEXTMIN
 10
1.000000E+20
 20
1.000000E+20
 30
1.000000E+20
  9
$PEXTMAX
 10
-1.000000E+20
 20
-1.000000E+20
 30
-1.000000E+20
  9
$PLIMMIN
 10
0.0
 20
0.0
  9
$PLIMMAX
 10
420.0
 20
297.0
  9
$UNITMODE
 70
     0
  9
$VISRETAIN
 70
     1
  9
$PLINEGEN
 70
     0
  9
$PSLTSCALE
 70
     1
  9
$TREEDEPTH
 70
  3020
  9
$CMLSTYLE
  2
Standard
  9
$CMLJUST
 70
     0
  9
$CMLSCALE
 40
20.0
  9
$PROXYGRAPHICS
 70
     1
  9
$MEASUREMENT
 70
     1
  9
$CELWEIGHT
370
    -1
  9
$ENDCAPS
280
     0
  9
$JOINSTYLE
280
     0
  9
$LWDISPLAY
290
     0
  9
$INSUNITS
 70
     4
  9
$HYPERLINKBASE
  1

  9
$STYLESHEET
  1

  9
$XEDIT
290
     1
  9
$CEPSNTYPE
380
     0
  9
$PSTYLEMODE
290
     1
  9
$FINGERPRINTGUID
  2
{C0A0721F-1EA2-40E9-8556-49DE0E5DAF68}
  9
$VERSIONGUID
  2
{FAEB1C32-E019-11D5-929B-00C0DF256EC4}
  9
$EXTNAMES
290
     1
  9
$PSVPSCALE
 40
0.0
  9
$OLESTARTUP
290
     0
  0
ENDSEC
  0
SECTION
  2
CLASSES
  0
CLASS
  1
ACDBDICTIONARYWDFLT
  2
AcDbDictionaryWithDefault
  3
ObjectDBX Classes
 90
        0
280
     0
281
     0
  0
CLASS
  1
VISUALSTYLE
  2
AcDbVisualStyle
  3
ObjectDBX Classes
 90
     4095
280
     0
281
     0
  0
CLASS
  1
DICTIONARYVAR
  2
AcDbDictionaryVar
  3
ObjectDBX Classes
 90
        0
280
     0
281
     0
  0
CLASS
  1
ACDBPLACEHOLDER
  2
AcDbPlaceHolder
  3
ObjectDBX Classes
 90
        0
280
     0
281
     0
  0
CLASS
  1
LAYOUT
  2
AcDbLayout
  3
ObjectDBX Classes
 90
        0
280
     0
281
     0
  0
ENDSEC
  0
SECTION
  2
TABLES
  0
TABLE
  2
VPORT
  5
8
330
0
100
AcDbSymbolTable
 70
     1
  0
VPORT
  5
29
330
8
100
AcDbSymbolTableRecord
100
AcDbViewportTableRecord
  2
*Active
 70
     0
 10
0.0
 20
0.0
 11
1.0
 21
1.0
 12
344.186916
 22
148.5
 13
0.0
 23
0.0
 14
10.0
 24
10.0
 15
10.0
 25
10.0
 16
0.0
 26
0.0
 36
1.0
 17
0.0
 27
0.0
 37
0.0
 40
297.0
 41
1.972973
 42
50.0
 43
0.0
 44
0.0
 50
0.0
 51
0.0
 71
     0
 72
   100
 73
     1
 74
     3
 75
     0
 76
     0
 77
     0
 78
     0
281
     0
 65
     1
110
0.0
120
0.0
130
0.0
111
1.0
121
0.0
131
0.0
112
0.0
122
1.0
132
0.0
 79
     0
146
0.0
  0
ENDTAB
  0
TABLE
  2
LTYPE
  5
5
330
0
100
AcDbSymbolTable
 70
     1
  0
LTYPE
  5
14
330
5
100
AcDbSymbolTableRecord
100
AcDbLinetypeTableRecord
  2
ByBlock
 70
     0
  3

 72
    65
 73
     0
 40
0.0
  0
LTYPE
  5
15
330
5
100
AcDbSymbolTableRecord
100
AcDbLinetypeTableRecord
  2
ByLayer
 70
     0
  3

 72
    65
 73
     0
 40
0.0
  0
LTYPE
  5
16
330
5
100
AcDbSymbolTableRecord
100
AcDbLinetypeTableRecord
  2
Continuous
 70
     0
  3
Solid line
 72
    65
 73
     0
 40
0.0
  0
ENDTAB
  0
TABLE
  2
LAYER
  5
2
330
0
100
AcDbSymbolTable
 70
     1
  0
LAYER
  5
10
330
2
100
AcDbSymbolTableRecord
100
AcDbLayerTableRecord
  2
0
 70
     0
 62
   106
  6
Continuous
370
     0
390
F
  0
ENDTAB
  0
TABLE
  2
STYLE
  5
3
330
0
100
AcDbSymbolTable
 70
     4
  0
STYLE
  5
11
330
3
100
AcDbSymbolTableRecord
100
AcDbTextStyleTableRecord
  2
Standard
 70
     0
 40
0.0
 41
1.0
 50
0.0
 71
     0
 42
2.5
  3
txt
  4

  0
STYLE
  5
3B
330
3
100
AcDbSymbolTableRecord
100
AcDbTextStyleTableRecord
  2
Default
 70
     0
 40
0.0
 41
1.0
 50
0.0
 71
     0
 42
0.2
  3

  4

1001
ACAD
1000
txt
1071
        0
  0
STYLE
  5
3C
330
3
100
AcDbSymbolTableRecord
100
AcDbTextStyleTableRecord
  2
ISO
 70
     0
 40
0.0
 41
1.0
 50
0.0
 71
     0
 42
0.2
  3

  4

1001
ACAD
1000
txt
1071
        0
  0
STYLE
  5
3D
330
3
100
AcDbSymbolTableRecord
100
AcDbTextStyleTableRecord
  2
GIANLU
 70
     0
 40
0.0
 41
1.0
 50
0.0
 71
     0
 42
0.2
  3

  4

1001
ACAD
1000
Arial
1071
        0
  0
ENDTAB
  0
TABLE
  2
VIEW
  5
6
330
0
100
AcDbSymbolTable
 70
     0
  0
ENDTAB
  0
TABLE
  2
UCS
  5
7
330
0
100
AcDbSymbolTable
 70
     0
  0
ENDTAB
  0
TABLE
  2
APPID
  5
9
330
0
100
AcDbSymbolTable
 70
     1
  0
APPID
  5
12
330
9
100
AcDbSymbolTableRecord
100
AcDbRegAppTableRecord
  2
ACAD
 70
     0
  0
ENDTAB
  0
TABLE
  2
DIMSTYLE
  5
A
330
0
100
AcDbSymbolTable
 70
     4
100
AcDbDimStyleTable
  0
DIMSTYLE
105
27
330
A
100
AcDbSymbolTableRecord
100
AcDbDimStyleTableRecord
  2
ISO-25
 70
     0
 41
2.5
 42
0.625
 43
3.75
 44
1.25
 73
     0
 74
     0
 77
     1
 78
     8
140
2.5
141
2.5
143
0.03937
147
0.625
171
     3
172
     1
271
     2
272
     2
274
     3
278
    44
283
     0
284
     8
340
11
  0
DIMSTYLE
105
3E
330
A
100
AcDbSymbolTableRecord
100
AcDbDimStyleTableRecord
  2
Default
 70
     0
  3
<>
 41
4.375
 42
1.05
 44
2.1
 73
     0
 74
     0
 77
     1
 78
     8
140
3.5
146
0.4
147
1.75
178
     3
271
     2
272
     3
284
     8
340
3B
341
3F
342
3F
  0
DIMSTYLE
105
46
330
A
100
AcDbSymbolTableRecord
100
AcDbDimStyleTableRecord
  2
ISO
 70
     0
  3
<>
 41
4.375
 42
1.05
 44
2.1
 73
     0
 74
     0
 77
     1
 78
     8
140
3.5
146
0.4
147
1.75
178
     3
271
     2
272
     3
284
     8
340
3C
341
3F
342
3F
  0
DIMSTYLE
105
47
330
A
100
AcDbSymbolTableRecord
100
AcDbDimStyleTableRecord
  2
zucchetti_unico
 70
     0
  3
<>
 41
3.0
 42
0.9
 44
1.8
 73
     0
 74
     0
 77
     1
 78
     8
140
3.0
146
0.6
147
1.5
176
   104
177
     3
178
     3
271
     2
272
     2
284
     8
340
3D
  0
ENDTAB
  0
TABLE
  2
BLOCK_RECORD
  5
1
330
0
100
AcDbSymbolTable
 70
     7
  0
BLOCK_RECORD
  5
1F
330
1
100
AcDbSymbolTableRecord
100
AcDbBlockTableRecord
  2
*Model_Space
340
22
  0
BLOCK_RECORD
  5
1B
330
1
100
AcDbSymbolTableRecord
100
AcDbBlockTableRecord
  2
*Paper_Space
340
1E
  0
BLOCK_RECORD
  5
23
330
1
100
AcDbSymbolTableRecord
100
AcDbBlockTableRecord
  2
*Paper_Space0
340
26
  0
BLOCK_RECORD
  5
3F
330
1
100
AcDbSymbolTableRecord
100
AcDbBlockTableRecord
  2
_CLOSED
340
0
  0
BLOCK_RECORD
  5
48
330
1
100
AcDbSymbolTableRecord
100
AcDbBlockTableRecord
  2
a
340
0
102
{BLKREFS
331
66
102
}
  0
BLOCK_RECORD
  5
67
330
1
100
AcDbSymbolTableRecord
100
AcDbBlockTableRecord
  2
b
340
0
102
{BLKREFS
331
AB
102
}
  0
BLOCK_RECORD
  5
AC
330
1
100
AcDbSymbolTableRecord
100
AcDbBlockTableRecord
  2
c
340
0
102
{BLKREFS
331
F0
102
}
  0
BLOCK_RECORD
  5
F1
330
1
100
AcDbSymbolTableRecord
100
AcDbBlockTableRecord
  2
d
340
0
102
{BLKREFS
331
131
102
}
  0
BLOCK_RECORD
  5
132
330
1
100
AcDbSymbolTableRecord
100
AcDbBlockTableRecord
  2
e
340
0
102
{BLKREFS
331
176
102
}
  0
ENDTAB
  0
ENDSEC
  0
SECTION
  2
BLOCKS
  0
BLOCK
  5
20
330
1F
100
AcDbEntity
  8
0
100
AcDbBlockBegin
  2
*Model_Space
 70
     0
 10
0.0
 20
0.0
 30
0.0
  3
*Model_Space
  1

  0
ENDBLK
  5
21
330
1F
100
AcDbEntity
  8
0
100
AcDbBlockEnd
  0
BLOCK
  5
1C
330
1B
100
AcDbEntity
 67
     1
  8
0
100
AcDbBlockBegin
  2
*Paper_Space
 70
     0
 10
0.0
 20
0.0
 30
0.0
  3
*Paper_Space
  1

  0
ENDBLK
  5
1D
330
1B
100
AcDbEntity
 67
     1
  8
0
100
AcDbBlockEnd
  0
BLOCK
  5
24
330
23
100
AcDbEntity
  8
0
100
AcDbBlockBegin
  2
*Paper_Space0
 70
     0
 10
0.0
 20
0.0
 30
0.0
  3
*Paper_Space0
  1

  0
ENDBLK
  5
25
330
23
100
AcDbEntity
  8
0
100
AcDbBlockEnd
  0
BLOCK
  5
40
330
3F
100
AcDbEntity
  8
0
100
AcDbBlockBegin
  2
_CLOSED
 70
     0
 10
0.0
 20
0.0
 30
0.0
  3
_CLOSED
  1

  0
LINE
  5
42
330
3F
100
AcDbEntity
  8
0
  6
ByBlock
 62
     0
370
    -2
100
AcDbLine
 10
-1.0
 20
0.166667
 30
0.0
 11
0.0
 21
0.0
 31
0.0
  0
LINE
  5
43
330
3F
100
AcDbEntity
  8
0
  6
ByBlock
 62
     0
370
    -2
100
AcDbLine
 10
0.0
 20
0.0
 30
0.0
 11
-1.0
 21
-0.166667
 31
0.0
  0
LINE
  5
44
330
3F
100
AcDbEntity
  8
0
  6
ByBlock
 62
     0
370
    -2
100
AcDbLine
 10
-1.0
 20
0.166667
 30
0.0
 11
-1.0
 21
-0.166667
 31
0.0
  0
LINE
  5
45
330
3F
100
AcDbEntity
  8
0
  6
ByBlock
 62
     0
370
    -2
100
AcDbLine
 10
0.0
 20
0.0
 30
0.0
 11
-1.0
 21
0.0
 31
0.0
  0
ENDBLK
  5
41
330
3F
100
AcDbEntity
  8
0
100
AcDbBlockEnd
  0
BLOCK
  5
64
330
48
100
AcDbEntity
  8
0
100
AcDbBlockBegin
  2
a
 70
     0
 10
225.183151
 20
120.123878
 30
0.0
  3
a
  1

  0
ARC
  5
49
330
48
100
AcDbEntity
  8
0
  6
Continuous
 62
     0
370
     0
100
AcDbCircle
 10
323.963255
 20
490.689651
 30
0.0
 40
10.64999998807906
100
AcDbArc
 50
202.44828
 51
22.44828
  0
ARC
  5
4A
330
48
100
AcDbEntity
  8
0
  6
Continuous
 62
     0
370
     0
100
AcDbCircle
 10
323.963255
 20
490.689651
 30
0.0
 40
10.64999998807906
100
AcDbArc
 50
22.44828
 51
202.44828
  0
ARC
  5
4B
330
48
100
AcDbEntity
  8
0
  6
Continuous
 62
     0
370
    30
100
AcDbCircle
 10
323.963255
 20
490.689651
 30
0.0
 40
10.94999999999999
100
AcDbArc
 50
202.44828
 51
22.44828
  0
ARC
  5
4C
330
48
100
AcDbEntity
  8
0
  6
Continuous
 62
     0
370
    30
100
AcDbCircle
 10
323.963255
 20
490.689651
 30
0.0
 40
10.94999999999999
100
AcDbArc
 50
22.44828
 51
202.44828
  0
ARC
  5
4D
330
48
100
AcDbEntity
  8
0
  6
Continuous
 62
     0
370
    30
100
AcDbCircle
 10
323.963255
 20
490.689652
 30
0.0
 40
10.99999999999998
100
AcDbArc
 50
90.0
 51
270.0
  0
ARC
  5
4E
330
48
100
AcDbEntity
  8
0
  6
Continuous
 62
     0
370
    30
100
AcDbCircle
 10
323.963255
 20
490.689652
 30
0.0
 40
10.99999999999999
100
AcDbArc
 50
270.0
 51
90.0
  0
ARC
  5
4F
330
48
100
AcDbEntity
  8
0
  6
Continuous
 62
     0
370
    30
100
AcDbCircle
 10
323.963255
 20
457.689552
 30
0.0
 40
69.49989970932006
100
AcDbArc
 50
275.366444
 51
90.0
  0
ARC
  5
50
330
48
100
AcDbEntity
  8
0
  6
Continuous
 62
     0
370
    30
100
AcDbCircle
 10
323.963255
 20
457.689552
 30
0.0
 40
69.49989970932009
100
AcDbArc
 50
90.0
 51
264.633556
  0
ARC
  5
51
330
48
100
AcDbEntity
  8
0
  6
Continuous
 62
     0
370
    30
100
AcDbCircle
 10
323.963255
 20
457.689552
 30
0.0
 40
69.99989970932006
100
AcDbArc
 50
275.328001
 51
90.0
  0
ARC
  5
52
330
48
100
AcDbEntity
  8
0
  6
Continuous
 62
     0
370
    30
100
AcDbCircle
 10
323.963255
 20
457.689552
 30
0.0
 40
69.99989970932006
100
AcDbArc
 50
90.0
 51
264.671999
  0
ARC
  5
53
330
48
100
AcDbEntity
  8
0
  6
Continuous
 62
     0
370
    30
100
AcDbCircle
 10
323.963255
 20
442.689652
 30
0.0
 40
22.2
100
AcDbArc
 50
291.789939
 51
90.0
  0
ARC
  5
54
330
48
100
AcDbEntity
  8
0
  6
Continuous
 62
     0
370
    30
100
AcDbCircle
 10
323.963255
 20
442.689652
 30
0.0
 40
22.2
100
AcDbArc
 50
90.0
 51
248.210068
  0
ARC
  5
55
330
48
100
AcDbEntity
  8
0
  6
Continuous
 62
     0
370
    30
100
AcDbCircle
 10
323.963256
 20
442.689651
 30
0.0
 40
21.99999999999999
100
AcDbArc
 50
269.999999
 51
89.999999
  0
ARC
  5
56
330
48
100
AcDbEntity
  8
0
  6
Continuous
 62
     0
370
    30
100
AcDbCircle
 10
323.963256
 20
442.689651
 30
0.0
 40
21.99999999999999
100
AcDbArc
 50
89.999999
 51
269.999999
  0
LINE
  5
57
330
48
100
AcDbEntity
  8
0
  6
Continuous
 62
     0
370
     0
100
AcDbLine
 10
330.463256
 20
414.689651
 30
0.0
 11
323.963256
 21
414.689651
 31
0.0
  0
LINE
  5
58
330
48
100
AcDbEntity
  8
0
  6
Continuous
 62
     0
370
     0
100
AcDbLine
 10
323.963256
 20
414.689651
 30
0.0
 11
317.463256
 21
414.689651
 31
0.0
  0
LWPOLYLINE
  5
59
330
48
100
AcDbEntity
  8
0
  6
Continuous
 62
     0
370
     0
100
AcDbPolyline
 90
       13
 70
     0
 43
0.0
 10
317.52356
 20
418.144714
 10
317.582764
 20
418.095581
 10
317.754883
 20
417.956238
 10
318.031281
 20
417.74118
 10
318.401917
 20
417.471375
 10
318.857513
 20
417.16745
 10
319.391663
 20
416.848633
 10
319.999908
 20
416.532867
 10
320.678802
 20
416.237457
 10
321.423615
 20
415.980042
 10
322.225586
 20
415.778381
 10
323.072327
 20
415.648407
 10
323.963257
 20
415.602386
  0
LWPOLYLINE
  5
5A
330
48
100
AcDbEntity
  8
0
  6
Continuous
 62
     0
370
     0
100
AcDbPolyline
 90
       13
 70
     0
 43
0.0
 10
323.963257
 20
415.602386
 10
324.835388
 20
415.646606
 10
325.682922
 20
415.774963
 10
326.486023
 20
415.975159
 10
327.232208
 20
416.231506
 10
327.912598
 20
416.526215
 10
328.5224
 20
416.841766
 10
329.058197
 20
417.160706
 10
329.515564
 20
417.465118
 10
329.888153
 20
417.73584
 10
330.166687
 20
417.952301
 10
330.341187
 20
418.093445
 10
330.402954
 20
418.144714
  0
LINE
  5
5B
330
48
100
AcDbEntity
  8
0
  6
Continuous
 62
     0
370
     0
100
AcDbLine
 10
323.963256
 20
420.689651
 30
0.0
 11
323.963256
 21
415.602389
 31
0.0
  0
LINE
  5
5C
330
48
100
AcDbEntity
  8
0
  6
Continuous
 62
     0
370
    30
100
AcDbLine
 10
323.963254
 20
354.689651
 30
0.0
 11
330.463249
 21
354.689651
 31
0.0
  0
LINE
  5
5D
330
48
100
AcDbEntity
  8
0
  6
Continuous
 62
     0
370
    30
100
AcDbLine
 10
317.46326
 20
354.689651
 30
0.0
 11
323.963254
 21
354.689651
 31
0.0
  0
LINE
  5
5E
330
48
100
AcDbEntity
  8
0
  6
Continuous
 62
     0
370
    30
100
AcDbLine
 10
317.463261
 20
414.689651
 30
0.0
 11
317.46326
 21
354.689651
 31
0.0
  0
LINE
  5
5F
330
48
100
AcDbEntity
  8
0
  6
Continuous
 62
     0
370
    30
100
AcDbLine
 10
330.46325
 20
414.689651
 30
0.0
 11
330.463249
 21
354.689651
 31
0.0
  0
LWPOLYLINE
  5
60
330
48
100
AcDbEntity
  8
0
  6
Continuous
 62
     0
370
    30
100
AcDbPolyline
 90
       20
 70
     0
 43
0.0
 10
333.269226
 20
422.7547
 10
333.23291
 20
422.737366
 10
332.953278
 20
422.591583
 10
332.682526
 20
422.427917
 10
332.422607
 20
422.247528
 10
332.17453
 20
422.051147
 10
331.939453
 20
421.839386
 10
331.718292
 20
421.613129
 10
331.511871
 20
421.373352
 10
331.320984
 20
421.121033
 10
331.146454
 20
420.857147
 10
330.988983
 20
420.582733
 10
330.849152
 20
420.298889
 10
330.72757
 20
420.006805
 10
330.624817
 20
419.707611
 10
330.541199
 20
419.402496
 10
330.476929
 20
419.092682
 10
330.432312
 20
418.779419
 10
330.407562
 20
418.463928
 10
330.402893
 20
418.145172
  0
LWPOLYLINE
  5
61
330
48
100
AcDbEntity
  8
0
  6
Continuous
 62
     0
370
    30
100
AcDbPolyline
 90
       20
 70
     0
 43
0.0
 10
314.657288
 20
422.7547
 10
314.693604
 20
422.737366
 10
314.973206
 20
422.591583
 10
315.243988
 20
422.427917
 10
315.503906
 20
422.247528
 10
315.751953
 20
422.051147
 10
315.987061
 20
421.839386
 10
316.208221
 20
421.613129
 10
316.414642
 20
421.373352
 10
316.60553
 20
421.121033
 10
316.78006
 20
420.857147
 10
316.937531
 20
420.582733
 10
317.077362
 20
420.298889
 10
317.198944
 20
420.006805
 10
317.301697
 20
419.707611
 10
317.385315
 20
419.402496
 10
317.449585
 20
419.092682
 10
317.494171
 20
418.779419
 10
317.518951
 20
418.463928
 10
317.523621
 20
418.145172
  0
LINE
  5
62
330
48
100
AcDbEntity
  8
0
  6
Continuous
 62
     0
370
    30
100
AcDbLine
 10
330.402951
 20
418.144475
 30
0.0
 11
330.463256
 21
414.689651
 31
0.0
  0
LINE
  5
63
330
48
100
AcDbEntity
  8
0
  6
Continuous
 62
     0
370
    30
100
AcDbLine
 10
317.52356
 20
418.144475
 30
0.0
 11
317.463256
 21
414.689651
 31
0.0
  0
ENDBLK
  5
65
330
48
100
AcDbEntity
  8
0
100
AcDbBlockEnd
  0
BLOCK
  5
A9
330
67
100
AcDbEntity
  8
0
100
AcDbBlockBegin
  2
b
 70
     0
 10
259.913326
 20
120.123878
 30
0.0
  3
b
  1

  0
LINE
  5
68
330
67
100
AcDbEntity
  8
0
  6
Continuous
 62
     0
370
    30
100
AcDbLine
 10
333.806251
 20
151.047615
 30
0.0
 11
334.613259
 21
151.047615
 31
0.0
  0
LWPOLYLINE
  5
69
330
67
100
AcDbEntity
  8
0
  6
Continuous
 62
     0
370
    30
100
AcDbPolyline
 90
       24
 70
     0
 43
0.0
 10
313.313293
 20
151.047607
 10
313.390015
 20
151.047607
 10
313.62442
 20
151.047607
 10
314.009918
 20
151.047607
 10
314.533447
 20
151.047607
 10
315.17691
 20
151.047607
 10
315.925293
 20
151.047607
 10
316.798401
 20
151.047607
 10
317.79129
 20
151.047607
 10
318.888062
 20
151.047607
 10
320.067322
 20
151.047607
 10
321.303345
 20
151.047607
 10
322.568085
 20
151.047607
 10
323.83316
 20
151.047607
 10
325.071869
 20
151.047607
 10
326.281769
 20
151.047607
 10
327.489105
 20
151.047607
 10
328.669128
 20
151.047607
 10
329.794128
 20
151.047607
 10
330.837494
 20
151.047607
 10
331.775726
 20
151.047607
 10
332.59024
 20
151.047607
 10
333.268524
 20
151.047607
 10
333.806244
 20
151.047607
  0
LINE
  5
6A
330
67
100
AcDbEntity
  8
0
  6
Continuous
 62
     0
370
     0
100
AcDbLine
 10
334.083518
 20
151.347615
 30
0.0
 11
334.913255
 21
151.347615
 31
0.0
  0
LINE
  5
6B
330
67
100
AcDbEntity
  8
0
  6
Continuous
 62
     0
370
     0
100
AcDbLine
 10
313.013263
 20
151.347615
 30
0.0
 11
334.083518
 21
151.347615
 31
0.0
  0
LINE
  5
6C
330
67
100
AcDbEntity
  8
0
  6
Continuous
 62
     0
370
     0
100
AcDbLine
 10
332.188858
 20
170.747615
 30
0.0
 11
315.063263
 21
170.747615
 31
0.0
  0
LWPOLYLINE
  5
6D
330
67
100
AcDbEntity
  8
0
  6
Continuous
 62
     0
370
     0
100
AcDbPolyline
 90
        4
 70
     0
 43
0.0
 10
332.863251
 20
170.74762
 10
332.789886
 20
170.74762
 10
332.569
 20
170.74762
 10
332.188843
 20
170.74762
  0
LINE
  5
6E
330
67
100
AcDbEntity
  8
0
  6
Continuous
 62
     0
370
     0
100
AcDbLine
 10
334.913259
 20
158.450222
 30
0.0
 11
334.083518
 21
158.450222
 31
0.0
  0
LINE
  5
6F
330
67
100
AcDbEntity
  8
0
  6
Continuous
 62
     0
370
     0
100
AcDbLine
 10
334.083518
 20
158.450222
 30
0.0
 11
313.013259
 21
158.450222
 31
0.0
  0
LWPOLYLINE
  5
70
330
67
100
AcDbEntity
  8
0
  6
Continuous
 62
     0
370
     0
100
AcDbPolyline
 90
        5
 70
     0
 43
0.0
 10
334.615906
 20
158.750214
 10
334.573669
 20
158.750214
 10
334.445312
 20
158.750214
 10
334.23172
 20
158.750214
 10
333.808685
 20
158.750214
  0
LINE
  5
71
330
67
100
AcDbEntity
  8
0
  6
Continuous
 62
     0
370
     0
100
AcDbLine
 10
333.808671
 20
158.75021
 30
0.0
 11
313.31062
 21
158.75021
 31
0.0
  0
LINE
  5
72
330
67
100
AcDbEntity
  8
0
  6
Continuous
 62
     0
370
     0
100
AcDbLine
 10
333.105017
 20
158.756854
 30
0.0
 11
333.854532
 21
158.756854
 31
0.0
  0
LWPOLYLINE
  5
73
330
67
100
AcDbEntity
  8
0
  6
Continuous
 62
     0
370
     0
100
AcDbPolyline
 90
       24
 70
     0
 43
0.0
 10
314.071991
 20
158.756851
 10
314.145233
 20
158.756851
 10
314.368835
 20
158.756851
 10
314.7435
 20
158.756851
 10
315.262848
 20
158.756851
 10
315.913727
 20
158.756851
 10
316.677368
 20
158.756851
 10
317.530914
 20
158.756851
 10
318.449585
 20
158.756851
 10
319.408386
 20
158.756851
 10
320.385803
 20
158.756851
 10
321.421082
 20
158.756851
 10
322.528931
 20
158.756851
 10
323.692383
 20
158.756851
 10
324.889709
 20
158.756851
 10
326.095245
 20
158.756851
 10
327.281006
 20
158.756851
 10
328.418701
 20
158.756851
 10
329.481964
 20
158.756851
 10
330.448212
 20
158.756851
 10
331.300354
 20
158.756851
 10
332.027527
 20
158.756851
 10
332.625214
 20
158.756851
 10
333.105011
 20
158.756851
  0
LINE
  5
74
330
67
100
AcDbEntity
  8
0
  6
Continuous
 62
     0
370
     0
100
AcDbLine
 10
315.063259
 20
159.756816
 30
0.0
 11
332.188858
 21
159.756816
 31
0.0
  0
LINE
  5
75
330
67
100
AcDbEntity
  8
0
  6
Continuous
 62
     0
370
     0
100
AcDbLine
 10
332.188858
 20
159.756816
 30
0.0
 11
332.863259
 21
159.756816
 31
0.0
  0
LINE
  5
76
330
67
100
AcDbEntity
  8
0
  6
Continuous
 62
     0
370
    30
100
AcDbLine
 10
323.963259
 20
170.921559
 30
0.0
 11
313.963259
 21
170.921559
 31
0.0
  0
LINE
  5
77
330
67
100
AcDbEntity
  8
0
  6
Continuous
 62
     0
370
    30
100
AcDbLine
 10
333.963259
 20
170.921559
 30
0.0
 11
323.963259
 21
170.921559
 31
0.0
  0
LINE
  5
78
330
67
100
AcDbEntity
  8
0
  6
Continuous
 62
     0
370
    30
100
AcDbLine
 10
323.963259
 20
171.921559
 30
0.0
 11
312.963259
 21
171.921559
 31
0.0
  0
LWPOLYLINE
  5
79
330
67
100
AcDbEntity
  8
0
  6
Continuous
 62
     0
370
    30
100
AcDbPolyline
 90
       15
 70
     0
 43
0.0
 10
334.963257
 20
171.921555
 10
334.894867
 20
171.921555
 10
334.690643
 20
171.921555
 10
334.353058
 20
171.921555
 10
333.886353
 20
171.921555
 10
333.296295
 20
171.921555
 10
332.59021
 20
171.921555
 10
331.776947
 20
171.921555
 10
330.866516
 20
171.921555
 10
329.870331
 20
171.921555
 10
328.800629
 20
171.921555
 10
327.67099
 20
171.921555
 10
326.495178
 20
171.921555
 10
325.287292
 20
171.921555
 10
323.963257
 20
171.921555
  0
LINE
  5
7A
330
67
100
AcDbEntity
  8
0
  6
Continuous
 62
     0
370
    30
100
AcDbLine
 10
393.463159
 20
182.021561
 30
0.0
 11
323.963259
 21
182.021558
 31
0.0
  0
LINE
  5
7B
330
67
100
AcDbEntity
  8
0
  6
Continuous
 62
     0
370
    30
100
AcDbLine
 10
323.963259
 20
182.021558
 30
0.0
 11
254.463359
 21
182.021561
 31
0.0
  0
LINE
  5
7C
330
67
100
AcDbEntity
  8
0
  6
Continuous
 62
     0
370
    30
100
AcDbLine
 10
393.963159
 20
182.521561
 30
0.0
 11
323.963259
 21
182.521558
 31
0.0
  0
LINE
  5
7D
330
67
100
AcDbEntity
  8
0
  6
Continuous
 62
     0
370
    30
100
AcDbLine
 10
323.963259
 20
182.521558
 30
0.0
 11
253.963359
 21
182.521561
 31
0.0
  0
LINE
  5
7E
330
67
100
AcDbEntity
  8
0
  6
Continuous
 62
     0
370
    30
100
AcDbLine
 10
393.963159
 20
192.52155
 30
0.0
 11
323.963259
 21
192.52155
 31
0.0
  0
LINE
  5
7F
330
67
100
AcDbEntity
  8
0
  6
Continuous
 62
     0
370
    30
100
AcDbLine
 10
323.963259
 20
192.52155
 30
0.0
 11
253.963359
 21
192.52155
 31
0.0
  0
LINE
  5
80
330
67
100
AcDbEntity
  8
0
  6
Continuous
 62
     0
370
     0
100
AcDbLine
 10
334.913259
 20
152.521561
 30
0.0
 11
346.163259
 21
152.521561
 31
0.0
  0
LINE
  5
81
330
67
100
AcDbEntity
  8
0
  6
Continuous
 62
     0
370
     0
100
AcDbLine
 10
301.763259
 20
152.521561
 30
0.0
 11
313.013259
 21
152.521561
 31
0.0
  0
LINE
  5
82
330
67
100
AcDbEntity
  8
0
  6
Continuous
 62
     0
370
    30
100
AcDbLine
 10
313.013259
 20
151.52156
 30
0.0
 11
302.763259
 21
151.521561
 31
0.0
  0
LINE
  5
83
330
67
100
AcDbEntity
  8
0
  6
Continuous
 62
     0
370
    30
100
AcDbLine
 10
345.163259
 20
151.521561
 30
0.0
 11
334.913259
 21
151.52156
 31
0.0
  0
LINE
  5
84
330
67
100
AcDbEntity
  8
0
  6
Continuous
 62
     0
370
    30
100
AcDbLine
 10
303.638135
 20
150.310543
 30
0.0
 11
301.969628
 21
150.310543
 31
0.0
  0
LINE
  5
85
330
67
100
AcDbEntity
  8
0
  6
Continuous
 62
     0
370
    30
100
AcDbLine
 10
345.956891
 20
150.310543
 30
0.0
 11
344.288388
 21
150.310543
 31
0.0
  0
LWPOLYLINE
  5
86
330
67
100
AcDbEntity
  8
0
  6
Continuous
 62
     0
370
    30
100
AcDbPolyline
 90
       20
 70
     0
 43
0.0
 10
345.963257
 20
119.310547
 10
345.900604
 20
119.310547
 10
345.70575
 20
119.310547
 10
345.369598
 20
119.310539
 10
344.885132
 20
119.310539
 10
344.247833
 20
119.310539
 10
343.456329
 20
119.310539
 10
342.512543
 20
119.310539
 10
341.421967
 20
119.310539
 10
340.193695
 20
119.310539
 10
338.840088
 20
119.310539
 10
337.376526
 20
119.310539
 10
335.820648
 20
119.310539
 10
334.191833
 20
119.310539
 10
332.510345
 20
119.310539
 10
330.79657
 20
119.310539
 10
329.070221
 20
119.310539
 10
327.349884
 20
119.310539
 10
325.652374
 20
119.310539
 10
323.963257
 20
119.310539
  0
LINE
  5
87
330
67
100
AcDbEntity
  8
0
  6
Continuous
 62
     0
370
    30
100
AcDbLine
 10
323.96326
 20
119.310542
 30
0.0
 11
301.96326
 21
119.310543
 31
0.0
  0
LWPOLYLINE
  5
88
330
67
100
AcDbEntity
  8
0
  6
Continuous
 62
     0
370
    30
100
AcDbPolyline
 90
       38
 70
     0
 43
0.0
 10
345.956879
 20
150.310547
 10
345.924164
 20
149.641846
 10
345.736877
 20
148.97406
 10
345.396118
 20
148.312286
 10
344.904114
 20
147.66304
 10
344.263092
 20
147.031097
 10
343.475372
 20
146.419113
 10
342.544128
 20
145.830627
 10
341.473358
 20
145.270187
 10
340.26886
 20
144.742432
 10
338.938293
 20
144.251877
 10
337.489594
 20
143.802841
 10
335.931122
 20
143.398987
 10
334.272675
 20
143.044205
 10
332.526398
 20
142.742126
 10
330.707489
 20
142.495941
 10
328.830261
 20
142.308563
 10
326.908081
 20
142.182358
 10
324.95816
 20
142.118546
 10
322.998901
 20
142.118057
 10
321.048676
 20
142.180878
 10
319.125916
 20
142.306122
 10
317.247864
 20
142.492569
 10
315.427979
 20
142.737854
 10
313.68045
 20
143.039078
 10
312.020508
 20
143.393082
 10
310.460419
 20
143.796188
 10
309.009918
 20
144.244553
 10
307.67746
 20
144.734482
 10
306.470947
 20
145.261703
 10
305.398041
 20
145.821655
 10
304.464569
 20
146.409744
 10
303.674591
 20
147.021393
 10
303.03125
 20
147.653046
 10
302.536926
 20
148.302063
 10
302.193787
 20
148.963669
 10
302.004089
 20
149.631424
 10
301.969635
 20
150.310547
  0
LWPOLYLINE
  5
89
330
67
100
AcDbEntity
  8
0
  6
Continuous
 62
     0
370
    30
100
AcDbPolyline
 90
       16
 70
     0
 43
0.0
 10
329.60675
 20
143.780136
 10
331.229431
 20
143.966217
 10
332.800903
 20
144.19841
 10
334.309448
 20
144.474945
 10
335.744598
 20
144.793884
 10
337.096252
 20
145.153046
 10
338.354736
 20
145.54982
 10
339.511047
 20
145.981415
 10
340.557068
 20
146.444778
 10
341.485596
 20
146.936554
 10
342.289642
 20
147.453323
 10
342.963684
 20
147.99144
 10
343.503204
 20
148.546982
 10
343.903992
 20
149.116089
 10
344.1633
 20
149.694763
 10
344.281494
 20
150.310547
  0
LWPOLYLINE
  5
8A
330
67
100
AcDbEntity
  8
0
  6
Continuous
 62
     0
370
    30
100
AcDbPolyline
 90
       22
 70
     0
 43
0.0
 10
303.64502
 20
150.310547
 10
303.75946
 20
149.706512
 10
304.0271
 20
149.108185
 10
304.445984
 20
148.520096
 10
305.012787
 20
147.946686
 10
305.723419
 20
147.392334
 10
306.572205
 20
146.861206
 10
307.552948
 20
146.357361
 10
308.658112
 20
145.884598
 10
309.879425
 20
145.446548
 10
311.20755
 20
145.046494
 10
312.632233
 20
144.687408
 10
314.142975
 20
144.372162
 10
315.728149
 20
144.102997
 10
317.375793
 20
143.882065
 10
319.073395
 20
143.710999
 10
320.808044
 20
143.591034
 10
322.56665
 20
143.523224
 10
324.335846
 20
143.507935
 10
326.102173
 20
143.545364
 10
327.852325
 20
143.635208
 10
329.60675
 20
143.780136
  0
LINE
  5
8B
330
67
100
AcDbEntity
  8
0
  6
Continuous
 62
     0
370
    30
100
AcDbLine
 10
312.963259
 20
182.021559
 30
0.0
 11
312.963259
 21
171.921559
 31
0.0
  0
LINE
  5
8C
330
67
100
AcDbEntity
  8
0
  6
Continuous
 62
     0
370
    30
100
AcDbLine
 10
334.963259
 20
182.021559
 30
0.0
 11
334.963259
 21
171.921559
 31
0.0
  0
ARC
  5
8D
330
67
100
AcDbEntity
  8
0
  6
Continuous
 62
     0
370
    30
100
AcDbCircle
 10
323.963213
 20
153.021585
 30
0.0
 40
20.50518281888813
100
AcDbArc
 50
351.859092
 51
355.804868
  0
ARC
  5
8E
330
67
100
AcDbEntity
  8
0
  6
Continuous
 62
     0
370
    30
100
AcDbCircle
 10
324.009042
 20
153.026528
 30
0.0
 40
20.55115706184862
100
AcDbArc
 50
184.199547
 51
188.136747
  0
LINE
  5
8F
330
67
100
AcDbEntity
  8
0
  6
Continuous
 62
     0
370
    30
100
AcDbLine
 10
345.96326
 20
150.117885
 30
0.0
 11
345.96326
 21
119.310543
 31
0.0
  0
LINE
  5
90
330
67
100
AcDbEntity
  8
0
  6
Continuous
 62
     0
370
    30
100
AcDbLine
 10
301.96326
 20
150.117886
 30
0.0
 11
301.96326
 21
119.310543
 31
0.0
  0
ARC
  5
91
330
67
100
AcDbEntity
  8
0
  6
Continuous
 62
     0
370
    30
100
AcDbCircle
 10
345.163234
 20
152.521587
 30
0.0
 40
1.00002541554241
100
AcDbArc
 50
270.007186
 51
359.998544
  0
ARC
  5
92
330
67
100
AcDbEntity
  8
0
  6
Continuous
 62
     0
370
    30
100
AcDbCircle
 10
302.763284
 20
152.521587
 30
0.0
 40
1.000025415543176
100
AcDbArc
 50
180.001456
 51
269.992814
  0
LINE
  5
93
330
67
100
AcDbEntity
  8
0
  6
Continuous
 62
     0
370
    30
100
AcDbLine
 10
301.763259
 20
182.021561
 30
0.0
 11
301.763259
 21
152.521561
 31
0.0
  0
LINE
  5
94
330
67
100
AcDbEntity
  8
0
  6
Continuous
 62
     0
370
    30
100
AcDbLine
 10
346.163259
 20
182.021561
 30
0.0
 11
346.163259
 21
152.521561
 31
0.0
  0
LINE
  5
95
330
67
100
AcDbEntity
  8
0
  6
Continuous
 62
     0
370
    30
100
AcDbLine
 10
253.963359
 20
182.521561
 30
0.0
 11
253.963359
 21
192.52155
 31
0.0
  0
LINE
  5
96
330
67
100
AcDbEntity
  8
0
  6
Continuous
 62
     0
370
    30
100
AcDbLine
 10
393.963159
 20
182.521561
 30
0.0
 11
393.963159
 21
192.52155
 31
0.0
  0
LINE
  5
97
330
67
100
AcDbEntity
  8
0
  6
Continuous
 62
     0
370
    30
100
AcDbLine
 10
254.463359
 20
182.021561
 30
0.0
 11
253.963359
 21
182.521561
 31
0.0
  0
LINE
  5
98
330
67
100
AcDbEntity
  8
0
  6
Continuous
 62
     0
370
    30
100
AcDbLine
 10
393.463159
 20
182.021561
 30
0.0
 11
393.963159
 21
182.521561
 31
0.0
  0
LINE
  5
99
330
67
100
AcDbEntity
  8
0
  6
Continuous
 62
     0
370
    30
100
AcDbLine
 10
313.963259
 20
170.921559
 30
0.0
 11
312.963259
 21
171.921559
 31
0.0
  0
LINE
  5
9A
330
67
100
AcDbEntity
  8
0
  6
Continuous
 62
     0
370
    30
100
AcDbLine
 10
334.963259
 20
171.921559
 30
0.0
 11
333.963259
 21
170.921559
 31
0.0
  0
ARC
  5
9B
330
67
100
AcDbEntity
  8
0
  6
Continuous
 62
     0
370
    30
100
AcDbCircle
 10
333.863284
 20
159.756841
 30
0.0
 40
1.000024867383596
100
AcDbArc
 50
180.001412
 51
269.498588
  0
ARC
  5
9C
330
67
100
AcDbEntity
  8
0
  6
Continuous
 62
     0
370
    30
100
AcDbCircle
 10
314.063234
 20
159.756841
 30
0.0
 40
1.000024887257592
100
AcDbArc
 50
270.501411
 51
359.998586
  0
LINE
  5
9D
330
67
100
AcDbEntity
  8
0
  6
Continuous
 62
     0
370
    30
100
AcDbLine
 10
315.063259
 20
159.756816
 30
0.0
 11
315.063259
 21
170.747615
 31
0.0
  0
LINE
  5
9E
330
67
100
AcDbEntity
  8
0
  6
Continuous
 62
     0
370
    30
100
AcDbLine
 10
332.863259
 20
159.756816
 30
0.0
 11
332.863259
 21
170.747615
 31
0.0
  0
LINE
  5
9F
330
67
100
AcDbEntity
  8
0
  6
Continuous
 62
     0
370
    30
100
AcDbLine
 10
334.615871
 20
158.75021
 30
0.0
 11
333.854532
 21
158.756854
 31
0.0
  0
LINE
  5
A0
330
67
100
AcDbEntity
  8
0
  6
Continuous
 62
     0
370
    30
100
AcDbLine
 10
313.31065
 20
158.75021
 30
0.0
 11
314.071986
 21
158.756854
 31
0.0
  0
ARC
  5
A1
330
67
100
AcDbEntity
  8
0
  6
Continuous
 62
     0
370
    30
100
AcDbCircle
 10
334.613244
 20
158.450207
 30
0.0
 40
0.300015051352471
100
AcDbArc
 50
0.002847
 51
89.484112
  0
ARC
  5
A2
330
67
100
AcDbEntity
  8
0
  6
Continuous
 62
     0
370
    30
100
AcDbCircle
 10
313.313274
 20
158.450207
 30
0.0
 40
0.3000150497635239
100
AcDbArc
 50
90.512017
 51
179.997154
  0
LINE
  5
A3
330
67
100
AcDbEntity
  8
0
  6
Continuous
 62
     0
370
    30
100
AcDbLine
 10
313.013259
 20
151.347615
 30
0.0
 11
313.013259
 21
158.450222
 31
0.0
  0
LINE
  5
A4
330
67
100
AcDbEntity
  8
0
  6
Continuous
 62
     0
370
    30
100
AcDbLine
 10
334.913259
 20
151.347615
 30
0.0
 11
334.913259
 21
158.450222
 31
0.0
  0
ARC
  5
A5
330
67
100
AcDbEntity
  8
0
  6
Continuous
 62
     0
370
    30
100
AcDbCircle
 10
332.563004
 20
170.747517
 30
0.0
 40
0.3002550780649375
100
AcDbArc
 50
0.018635
 51
35.425699
  0
ARC
  5
A6
330
67
100
AcDbEntity
  8
0
  6
Continuous
 62
     0
370
    30
100
AcDbCircle
 10
315.363512
 20
170.747518
 30
0.0
 40
0.3002529966038522
100
AcDbArc
 50
144.571502
 51
179.98149
  0
ARC
  5
A7
330
67
100
AcDbEntity
  8
0
  6
Continuous
 62
     0
370
    30
100
AcDbCircle
 10
334.613244
 20
151.34763
 30
0.0
 40
0.300015233302961
100
AcDbArc
 50
270.006607
 51
359.997093
  0
ARC
  5
A8
330
67
100
AcDbEntity
  8
0
  6
Continuous
 62
     0
370
    30
100
AcDbCircle
 10
313.313274
 20
151.34763
 30
0.0
 40
0.3000152356305369
100
AcDbArc
 50
180.002907
 51
269.996321
  0
ENDBLK
  5
AA
330
67
100
AcDbEntity
  8
0
100
AcDbBlockEnd
  0
BLOCK
  5
EE
330
AC
100
AcDbEntity
  8
0
100
AcDbBlockBegin
  2
c
 70
     0
 10
225.183151
 20
109.283974
 30
0.0
  3
c
  1

  0
LINE
  5
AD
330
AC
100
AcDbEntity
  8
0
  6
Continuous
 62
     0
370
    30
100
AcDbLine
 10
472.076026
 20
480.039667
 30
0.0
 11
472.076026
 21
486.622971
 31
0.0
  0
LINE
  5
AE
330
AC
100
AcDbEntity
  8
0
  6
Continuous
 62
     0
370
    30
100
AcDbLine
 10
472.076026
 20
486.622971
 30
0.0
 11
472.076026
 21
501.339667
 31
0.0
  0
LINE
  5
AF
330
AC
100
AcDbEntity
  8
0
  6
Continuous
 62
     0
370
     0
100
AcDbLine
 10
471.776026
 20
479.739671
 30
0.0
 11
471.776026
 21
486.508417
 31
0.0
  0
LINE
  5
B0
330
AC
100
AcDbEntity
  8
0
  6
Continuous
 62
     0
370
     0
100
AcDbLine
 10
471.776026
 20
486.508417
 30
0.0
 11
471.776026
 21
501.639662
 31
0.0
  0
LWPOLYLINE
  5
B1
330
AC
100
AcDbEntity
  8
0
  6
Continuous
 62
     0
370
     0
100
AcDbPolyline
 90
       16
 70
     0
 43
0.0
 10
452.376038
 20
499.589661
 10
452.376038
 20
499.514832
 10
452.376038
 20
499.289551
 10
452.376038
 20
498.917725
 10
452.376038
 20
498.405548
 10
452.376038
 20
497.761871
 10
452.376038
 20
496.99765
 10
452.376038
 20
496.125854
 10
452.376038
 20
495.161407
 10
452.376038
 20
494.120758
 10
452.376038
 20
493.021576
 10
452.376038
 20
491.882629
 10
452.376038
 20
490.723358
 10
452.376038
 20
489.56366
 10
452.376038
 20
488.422607
 10
452.376038
 20
487.291199
  0
LINE
  5
B2
330
AC
100
AcDbEntity
  8
0
  6
Continuous
 62
     0
370
     0
100
AcDbLine
 10
452.376026
 20
487.291208
 30
0.0
 11
452.376026
 21
481.78967
 31
0.0
  0
LINE
  5
B3
330
AC
100
AcDbEntity
  8
0
  6
Continuous
 62
     0
370
     0
100
AcDbLine
 10
464.673419
 20
486.508417
 30
0.0
 11
464.673419
 21
479.739667
 31
0.0
  0
LINE
  5
B4
330
AC
100
AcDbEntity
  8
0
  6
Continuous
 62
     0
370
     0
100
AcDbLine
 10
464.673419
 20
501.639667
 30
0.0
 11
464.673419
 21
486.508417
 31
0.0
  0
LINE
  5
B5
330
AC
100
AcDbEntity
  8
0
  6
Continuous
 62
     0
370
     0
100
AcDbLine
 10
464.373431
 20
486.621972
 30
0.0
 11
464.37343
 21
480.037108
 31
0.0
  0
LWPOLYLINE
  5
B6
330
AC
100
AcDbEntity
  8
0
  6
Continuous
 62
     0
370
     0
100
AcDbPolyline
 90
       17
 70
     0
 43
0.0
 10
464.373444
 20
501.342224
 10
464.373444
 20
501.263306
 10
464.373444
 20
501.02533
 10
464.373444
 20
500.631989
 10
464.373444
 20
500.08902
 10
464.373444
 20
499.404785
 10
464.373444
 20
498.589355
 10
464.373444
 20
497.655212
 10
464.373444
 20
496.616241
 10
464.373444
 20
495.48822
 10
464.373444
 20
494.287994
 10
464.373444
 20
493.033569
 10
464.373444
 20
491.743927
 10
464.373444
 20
490.438812
 10
464.373444
 20
489.137024
 10
464.373444
 20
487.857391
 10
464.373444
 20
486.621979
  0
LINE
  5
B7
330
AC
100
AcDbEntity
  8
0
  6
Continuous
 62
     0
370
     0
100
AcDbLine
 10
464.366786
 20
480.798393
 30
0.0
 11
464.366787
 21
486.912691
 31
0.0
  0
LINE
  5
B8
330
AC
100
AcDbEntity
  8
0
  6
Continuous
 62
     0
370
     0
100
AcDbLine
 10
464.366787
 20
486.912691
 30
0.0
 11
464.366786
 21
500.58094
 31
0.0
  0
LINE
  5
B9
330
AC
100
AcDbEntity
  8
0
  6
Continuous
 62
     0
370
     0
100
AcDbLine
 10
463.366824
 20
487.291208
 30
0.0
 11
463.366824
 21
499.589667
 31
0.0
  0
LINE
  5
BA
330
AC
100
AcDbEntity
  8
0
  6
Continuous
 62
     0
370
     0
100
AcDbLine
 10
463.366824
 20
481.789667
 30
0.0
 11
463.366824
 21
487.291208
 31
0.0
  0
LINE
  5
BB
330
AC
100
AcDbEntity
  8
0
  6
Continuous
 62
     0
370
    30
100
AcDbLine
 10
452.202081
 20
500.689668
 30
0.0
 11
452.202081
 21
480.689668
 31
0.0
  0
LINE
  5
BC
330
AC
100
AcDbEntity
  8
0
  6
Continuous
 62
     0
370
    30
100
AcDbLine
 10
452.202081
 20
500.689668
 30
0.0
 11
451.202081
 21
501.689668
 31
0.0
  0
LINE
  5
BD
330
AC
100
AcDbEntity
  8
0
  6
Continuous
 62
     0
370
    30
100
AcDbLine
 10
451.202081
 20
501.689668
 30
0.0
 11
451.202081
 21
479.689668
 31
0.0
  0
LINE
  5
BE
330
AC
100
AcDbEntity
  8
0
  6
Continuous
 62
     0
370
    30
100
AcDbLine
 10
441.102081
 20
527.189467
 30
0.0
 11
441.102081
 21
388.189668
 31
0.0
  0
LINE
  5
BF
330
AC
100
AcDbEntity
  8
0
  6
Continuous
 62
     0
370
    30
100
AcDbLine
 10
441.102081
 20
388.189668
 30
0.0
 11
440.602081
 21
387.689668
 31
0.0
  0
LINE
  5
C0
330
AC
100
AcDbEntity
  8
0
  6
Continuous
 62
     0
370
    30
100
AcDbLine
 10
440.602081
 20
527.689467
 30
0.0
 11
440.602081
 21
387.689668
 31
0.0
  0
LINE
  5
C1
330
AC
100
AcDbEntity
  8
0
  6
Continuous
 62
     0
370
    30
100
AcDbLine
 10
440.602081
 20
387.689668
 30
0.0
 11
430.602092
 21
387.689668
 31
0.0
  0
LINE
  5
C2
330
AC
100
AcDbEntity
  8
0
  6
Continuous
 62
     0
370
    30
100
AcDbLine
 10
430.602092
 20
527.689467
 30
0.0
 11
430.602092
 21
387.689668
 31
0.0
  0
LINE
  5
C3
330
AC
100
AcDbEntity
  8
0
  6
Continuous
 62
     0
370
     0
100
AcDbLine
 10
470.602081
 20
420.489668
 30
0.0
 11
470.602081
 21
464.889668
 31
0.0
  0
LINE
  5
C4
330
AC
100
AcDbEntity
  8
0
  6
Continuous
 62
     0
370
    30
100
AcDbLine
 10
470.602081
 20
464.889668
 30
0.0
 11
441.102081
 21
464.889668
 31
0.0
  0
LINE
  5
C5
330
AC
100
AcDbEntity
  8
0
  6
Continuous
 62
     0
370
    30
100
AcDbLine
 10
471.602081
 20
463.889668
 30
0.0
 11
471.602081
 21
421.489668
 31
0.0
  0
ARC
  5
C6
330
AC
100
AcDbEntity
  8
0
  6
Continuous
 62
     0
370
    30
100
AcDbCircle
 10
470.602081
 20
463.889668
 30
0.0
 40
0.9999999999994884
100
AcDbArc
 50
360.0
 51
90.0
  0
LINE
  5
C7
330
AC
100
AcDbEntity
  8
0
  6
Continuous
 62
     0
370
    30
100
AcDbLine
 10
472.8131
 20
442.160352
 30
0.0
 11
472.813099
 21
420.689666
 31
0.0
  0
LWPOLYLINE
  5
C8
330
AC
100
AcDbEntity
  8
0
  6
Continuous
 62
     0
370
    30
100
AcDbPolyline
 90
       39
 70
     0
 43
0.0
 10
503.81311
 20
464.689667
 10
503.81311
 20
464.626953
 10
503.81311
 20
464.431915
 10
503.81311
 20
464.095428
 10
503.81311
 20
463.610443
 10
503.81311
 20
462.972504
 10
503.81311
 20
462.180206
 10
503.81311
 20
461.235504
 10
503.81311
 20
460.143921
 10
503.81311
 20
458.91449
 10
503.81311
 20
457.559723
 10
503.81311
 20
456.09491
 10
503.81311
 20
454.537842
 10
503.81311
 20
452.907867
 10
503.81311
 20
451.225311
 10
503.81311
 20
449.510529
 10
503.81311
 20
447.783356
 10
503.81311
 20
446.062317
 10
503.81311
 20
444.364227
 10
503.81311
 20
442.703827
 10
503.81311
 20
441.044189
 10
503.81311
 20
439.346649
 10
503.81311
 20
437.625854
 10
503.81311
 20
435.898651
 10
503.81311
 20
434.183472
 10
503.81311
 20
432.500183
 10
503.81311
 20
430.869141
 10
503.81311
 20
429.310638
 10
503.81311
 20
427.844086
 10
503.81311
 20
426.487244
 10
503.81311
 20
425.255554
 10
503.81311
 20
424.161499
 10
503.81311
 20
423.214172
 10
503.81311
 20
422.41922
 10
503.81311
 20
421.778625
 10
503.81311
 20
421.291016
 10
503.81311
 20
420.952026
 10
503.81311
 20
420.754608
 10
503.81311
 20
420.689667
  0
LWPOLYLINE
  5
C9
330
AC
100
AcDbEntity
  8
0
  6
Continuous
 62
     0
370
    30
100
AcDbPolyline
 90
       21
 70
     0
 43
0.0
 10
481.013306
 20
464.689667
 10
480.986115
 20
464.614716
 10
480.905029
 20
464.391632
 10
480.770813
 20
464.023102
 10
480.584686
 20
463.512451
 10
480.348663
 20
462.864288
 10
480.065125
 20
462.085144
 10
479.736572
 20
461.182404
 10
479.365936
 20
460.164062
 10
478.956238
 20
459.038513
 10
478.510437
 20
457.81369
 10
478.031799
 20
456.498627
 10
477.523895
 20
455.10318
 10
476.990387
 20
453.637299
 10
476.434875
 20
452.111115
 10
475.86084
 20
450.533936
 10
475.270538
 20
448.912109
 10
474.66629
 20
447.251923
 10
474.052521
 20
445.565613
 10
473.434387
 20
443.86731
 10
472.81311
 20
442.160339
  0
LINE
  5
CA
330
AC
100
AcDbEntity
  8
0
  6
Continuous
 62
     0
370
    30
100
AcDbLine
 10
472.813099
 20
420.689666
 30
0.0
 11
477.329793
 21
420.689666
 31
0.0
  0
LWPOLYLINE
  5
CB
330
AC
100
AcDbEntity
  8
0
  6
Continuous
 62
     0
370
     0
100
AcDbPolyline
 90
       32
 70
     0
 43
0.0
 10
477.329803
 20
420.689667
 10
477.405701
 20
420.715302
 10
477.625946
 20
420.790192
 10
477.9823
 20
420.908813
 10
478.462708
 20
421.063202
 10
479.050354
 20
421.24411
 10
479.730621
 20
421.441986
 10
480.490143
 20
421.64798
 10
481.317902
 20
421.853912
 10
482.203613
 20
422.052338
 10
483.137512
 20
422.236237
 10
484.111633
 20
422.399658
 10
485.118683
 20
422.537354
 10
486.151367
 20
422.644867
 10
487.202362
 20
422.718781
 10
488.264496
 20
422.756622
 10
489.330414
 20
422.757172
 10
490.392761
 20
422.720428
 10
491.444214
 20
422.647552
 10
492.477478
 20
422.540985
 10
493.485382
 20
422.404114
 10
494.460663
 20
422.241333
 10
495.395752
 20
422.057983
 10
496.282745
 20
421.859985
 10
497.112823
 20
421.654053
 10
497.875977
 20
421.447479
 10
498.559509
 20
421.248932
 10
499.149963
 20
421.067444
 10
499.633057
 20
420.912323
 10
499.993561
 20
420.792694
 10
500.217682
 20
420.716614
 10
500.296417
 20
420.689667
  0
LINE
  5
CC
330
AC
100
AcDbEntity
  8
0
  6
Continuous
 62
     0
370
    30
100
AcDbLine
 10
500.296406
 20
420.689666
 30
0.0
 11
503.813099
 21
420.689666
 31
0.0
  0
LINE
  5
CD
330
AC
100
AcDbEntity
  8
0
  6
Continuous
 62
     0
370
    30
100
AcDbLine
 10
495.297167
 20
415.602404
 30
0.0
 11
495.313099
 21
414.689666
 31
0.0
  0
LWPOLYLINE
  5
CE
330
AC
100
AcDbEntity
  8
0
  6
Continuous
 62
     0
370
     0
100
AcDbPolyline
 90
       22
 70
     0
 43
0.0
 10
495.31311
 20
414.689667
 10
495.251221
 20
414.689667
 10
495.054779
 20
414.689667
 10
494.712555
 20
414.689667
 10
494.222412
 20
414.689667
 10
493.592834
 20
414.689667
 10
492.843323
 20
414.689667
 10
492.002258
 20
414.689667
 10
491.103638
 20
414.689667
 10
490.182617
 20
414.689667
 10
489.271698
 20
414.689667
 10
488.386383
 20
414.689667
 10
487.476349
 20
414.689667
 10
486.555145
 20
414.689667
 10
485.655121
 20
414.689667
 10
484.811432
 20
414.689667
 10
484.058105
 20
414.689667
 10
483.423889
 20
414.689667
 10
482.928558
 20
414.689667
 10
482.581055
 20
414.689667
 10
482.379578
 20
414.689667
 10
482.31311
 20
414.689667
  0
LWPOLYLINE
  5
CF
330
AC
100
AcDbEntity
  8
0
  6
Continuous
 62
     0
370
     0
100
AcDbPolyline
 90
       25
 70
     0
 43
0.0
 10
482.329041
 20
415.602417
 10
482.388855
 20
415.646667
 10
482.564575
 20
415.775146
 10
482.847473
 20
415.975494
 10
483.226929
 20
416.232056
 10
483.692108
 20
416.527008
 10
484.234741
 20
416.842743
 10
484.848877
 20
417.161835
 10
485.530487
 20
417.466309
 10
486.275513
 20
417.736938
 10
487.076294
 20
417.953217
 10
487.924591
 20
418.093994
 10
488.799225
 20
418.144714
 10
489.674255
 20
418.097046
 10
490.523773
 20
417.958923
 10
491.326202
 20
417.74469
 10
492.07312
 20
417.475403
 10
492.756805
 20
417.171661
 10
493.373108
 20
416.852783
 10
493.918091
 20
416.536682
 10
494.385834
 20
416.240814
 10
494.768127
 20
415.982697
 10
495.05426
 20
415.780243
 10
495.233521
 20
415.649384
 10
495.29718
 20
415.602417
  0
ARC
  5
D0
330
AC
100
AcDbEntity
  8
0
  6
Continuous
 62
     0
370
    30
100
AcDbCircle
 10
500.296406
 20
415.689666
 30
0.0
 40
4.999999999999808
100
AcDbArc
 50
90.0
 51
181.0
  0
ARC
  5
D1
330
AC
100
AcDbEntity
  8
0
  6
Continuous
 62
     0
370
    30
100
AcDbCircle
 10
477.329793
 20
415.689666
 30
0.0
 40
4.99999999999989
100
AcDbArc
 50
359.0
 51
90.0
  0
LINE
  5
D2
330
AC
100
AcDbEntity
  8
0
  6
Continuous
 62
     0
370
    30
100
AcDbLine
 10
482.313105
 20
354.689666
 30
0.0
 11
495.313094
 21
354.689666
 31
0.0
  0
LINE
  5
D3
330
AC
100
AcDbEntity
  8
0
  6
Continuous
 62
     0
370
    30
100
AcDbLine
 10
495.313094
 20
354.689666
 30
0.0
 11
495.313094
 21
414.689666
 31
0.0
  0
LINE
  5
D4
330
AC
100
AcDbEntity
  8
0
  6
Continuous
 62
     0
370
    30
100
AcDbLine
 10
441.102081
 20
501.689668
 30
0.0
 11
451.202081
 21
501.689668
 31
0.0
  0
LINE
  5
D5
330
AC
100
AcDbEntity
  8
0
  6
Continuous
 62
     0
370
    30
100
AcDbLine
 10
441.102081
 20
479.689668
 30
0.0
 11
451.202081
 21
479.689668
 31
0.0
  0
ARC
  5
D6
330
AC
100
AcDbEntity
  8
0
  6
Continuous
 62
     0
370
    30
100
AcDbCircle
 10
470.102032
 20
442.689964
 30
0.0
 40
20.5054344373672
100
AcDbArc
 50
274.195152
 51
277.597443
  0
ARC
  5
D7
330
AC
100
AcDbEntity
  8
0
  6
Continuous
 62
     0
370
    30
100
AcDbCircle
 10
470.102108
 20
442.68983
 30
0.0
 40
20.50496885903061
100
AcDbArc
 50
62.354454
 51
85.804966
  0
LINE
  5
D8
330
AC
100
AcDbEntity
  8
0
  6
Continuous
 62
     0
370
    30
100
AcDbLine
 10
482.313105
 20
414.689666
 30
0.0
 11
482.313105
 21
354.689666
 31
0.0
  0
LINE
  5
D9
330
AC
100
AcDbEntity
  8
0
  6
Continuous
 62
     0
370
    30
100
AcDbLine
 10
482.313099
 20
414.689666
 30
0.0
 11
482.329031
 21
415.602404
 31
0.0
  0
LINE
  5
DA
330
AC
100
AcDbEntity
  8
0
  6
Continuous
 62
     0
370
    30
100
AcDbLine
 10
481.013398
 20
464.689666
 30
0.0
 11
503.813099
 21
464.689666
 31
0.0
  0
ARC
  5
DB
330
AC
100
AcDbEntity
  8
0
  6
Continuous
 62
     0
370
    30
100
AcDbCircle
 10
470.602056
 20
421.489693
 30
0.0
 40
1.00002541554231
100
AcDbArc
 50
270.001456
 51
359.992814
  0
LINE
  5
DC
330
AC
100
AcDbEntity
  8
0
  6
Continuous
 62
     0
370
    30
100
AcDbLine
 10
441.102081
 20
420.489668
 30
0.0
 11
470.602081
 21
420.489668
 31
0.0
  0
LINE
  5
DD
330
AC
100
AcDbEntity
  8
0
  6
Continuous
 62
     0
370
    30
100
AcDbLine
 10
440.602081
 20
527.689467
 30
0.0
 11
430.602092
 21
527.689467
 31
0.0
  0
LINE
  5
DE
330
AC
100
AcDbEntity
  8
0
  6
Continuous
 62
     0
370
    30
100
AcDbLine
 10
441.102081
 20
527.189467
 30
0.0
 11
440.602081
 21
527.689467
 31
0.0
  0
LINE
  5
DF
330
AC
100
AcDbEntity
  8
0
  6
Continuous
 62
     0
370
    30
100
AcDbLine
 10
451.202081
 20
479.689668
 30
0.0
 11
452.202081
 21
480.689668
 31
0.0
  0
ARC
  5
E0
330
AC
100
AcDbEntity
  8
0
  6
Continuous
 62
     0
370
    30
100
AcDbCircle
 10
463.3668
 20
480.789642
 30
0.0
 40
1.000024867147244
100
AcDbArc
 50
0.501412
 51
89.998588
  0
ARC
  5
E1
330
AC
100
AcDbEntity
  8
0
  6
Continuous
 62
     0
370
    30
100
AcDbCircle
 10
463.3668
 20
500.589691
 30
0.0
 40
1.000024867387329
100
AcDbArc
 50
270.001412
 51
359.498588
  0
LINE
  5
E2
330
AC
100
AcDbEntity
  8
0
  6
Continuous
 62
     0
370
    30
100
AcDbLine
 10
463.366824
 20
499.589667
 30
0.0
 11
452.376026
 21
499.589667
 31
0.0
  0
LINE
  5
E3
330
AC
100
AcDbEntity
  8
0
  6
Continuous
 62
     0
370
    30
100
AcDbLine
 10
463.366824
 20
481.789667
 30
0.0
 11
452.376026
 21
481.789667
 31
0.0
  0
LINE
  5
E4
330
AC
100
AcDbEntity
  8
0
  6
Continuous
 62
     0
370
    30
100
AcDbLine
 10
464.37343
 20
480.037105
 30
0.0
 11
464.366786
 21
480.798393
 31
0.0
  0
LINE
  5
E5
330
AC
100
AcDbEntity
  8
0
  6
Continuous
 62
     0
370
    30
100
AcDbLine
 10
464.37343
 20
501.342228
 30
0.0
 11
464.366786
 21
500.58094
 31
0.0
  0
ARC
  5
E6
330
AC
100
AcDbEntity
  8
0
  6
Continuous
 62
     0
370
    30
100
AcDbCircle
 10
464.673434
 20
480.039682
 30
0.0
 40
0.3000150264152232
100
AcDbArc
 50
180.50324
 51
269.997158
  0
ARC
  5
E7
330
AC
100
AcDbEntity
  8
0
  6
Continuous
 62
     0
370
    30
100
AcDbCircle
 10
464.673434
 20
501.339651
 30
0.0
 40
0.3000150269729847
100
AcDbArc
 50
90.002843
 51
179.496516
  0
LINE
  5
E8
330
AC
100
AcDbEntity
  8
0
  6
Continuous
 62
     0
370
    30
100
AcDbLine
 10
471.776026
 20
501.639667
 30
0.0
 11
464.673419
 21
501.639667
 31
0.0
  0
LINE
  5
E9
330
AC
100
AcDbEntity
  8
0
  6
Continuous
 62
     0
370
    30
100
AcDbLine
 10
471.776026
 20
479.739667
 30
0.0
 11
464.673419
 21
479.739667
 31
0.0
  0
ARC
  5
EA
330
AC
100
AcDbEntity
  8
0
  6
Continuous
 62
     0
370
    30
100
AcDbCircle
 10
452.376121
 20
482.089916
 30
0.0
 40
0.3002496665828042
100
AcDbArc
 50
234.566991
 51
269.981692
  0
ARC
  5
EB
330
AC
100
AcDbEntity
  8
0
  6
Continuous
 62
     0
370
    30
100
AcDbCircle
 10
452.376121
 20
499.28942
 30
0.0
 40
0.3002469270020922
100
AcDbArc
 50
90.018142
 51
125.436721
  0
ARC
  5
EC
330
AC
100
AcDbEntity
  8
0
  6
Continuous
 62
     0
370
    30
100
AcDbCircle
 10
471.77601
 20
480.039682
 30
0.0
 40
0.3000152343532111
100
AcDbArc
 50
270.002907
 51
359.992835
  0
ARC
  5
ED
330
AC
100
AcDbEntity
  8
0
  6
Continuous
 62
     0
370
    30
100
AcDbCircle
 10
471.77601
 20
501.339651
 30
0.0
 40
0.3000152347427178
100
AcDbArc
 50
0.007326
 51
89.997093
  0
ENDBLK
  5
EF
330
AC
100
AcDbEntity
  8
0
100
AcDbBlockEnd
  0
BLOCK
  5
12F
330
F1
100
AcDbEntity
  8
0
100
AcDbBlockBegin
  2
d
 70
     0
 10
225.183151
 20
120.123878
 30
0.0
  3
d
  1

  0
LWPOLYLINE
  5
F2
330
F1
100
AcDbEntity
  8
0
  6
Continuous
 62
     0
370
     0
100
AcDbPolyline
 90
       28
 70
     0
 43
0.0
 10
483.921539
 20
218.196152
 10
484.188782
 20
217.247635
 10
484.378906
 20
216.298386
 10
484.479187
 20
215.368652
 10
484.478973
 20
214.480713
 10
484.371033
 20
213.657394
 10
484.152313
 20
212.920578
 10
483.824615
 20
212.289307
 10
483.394714
 20
211.778381
 10
482.87381
 20
211.39711
 10
482.276703
 20
211.148865
 10
481.620422
 20
211.031143
 10
480.922943
 20
211.036346
 10
480.201904
 20
211.152878
 10
479.465393
 20
211.369293
 10
478.677094
 20
211.696289
 10
477.838654
 20
212.14238
 10
476.963196
 20
212.710175
 10
476.066956
 20
213.397217
 10
475.168854
 20
214.195435
 10
474.289062
 20
215.091187
 10
473.447754
 20
216.065948
 10
472.663452
 20
217.097519
 10
471.951874
 20
218.161652
 10
471.324768
 20
219.233963
 10
470.789459
 20
220.291565
 10
470.348877
 20
221.314468
 10
470.001434
 20
222.287964
  0
LWPOLYLINE
  5
F3
330
F1
100
AcDbEntity
  8
0
  6
Continuous
 62
     0
370
     0
100
AcDbPolyline
 90
       27
 70
     0
 43
0.0
 10
470.001434
 20
222.287964
 10
469.713287
 20
223.324112
 10
469.520905
 20
224.34198
 10
469.434845
 20
225.317215
 10
469.461609
 20
226.225662
 10
469.602692
 20
227.045258
 10
469.854462
 20
227.757721
 10
470.208435
 20
228.34996
 10
470.652069
 20
228.814728
 10
471.171814
 20
229.151672
 10
471.779388
 20
229.370514
 10
472.475128
 20
229.462845
 10
473.248108
 20
229.419296
 10
474.083344
 20
229.236206
 10
474.962402
 20
228.916138
 10
475.86496
 20
228.46785
 10
476.770233
 20
227.905563
 10
477.658508
 20
227.247543
 10
478.523956
 20
226.504028
 10
479.387726
 20
225.655594
 10
480.233337
 20
224.711304
 10
481.040527
 20
223.688049
 10
481.789764
 20
222.607132
 10
482.463776
 20
221.492981
 10
483.048798
 20
220.371201
 10
483.535553
 20
219.2668
 10
483.921539
 20
218.196152
  0
LWPOLYLINE
  5
F4
330
F1
100
AcDbEntity
  8
0
  6
Continuous
 62
     0
370
     0
100
AcDbPolyline
 90
       10
 70
     0
 43
0.0
 10
484.329742
 20
218.288513
 10
484.612762
 20
217.2789
 10
484.804596
 20
216.307434
 10
484.902771
 20
215.386108
 10
484.906189
 20
214.526169
 10
484.814728
 20
213.738174
 10
484.629547
 20
213.03183
 10
484.352936
 20
212.41571
 10
483.98819
 20
211.897507
 10
483.49585
 20
211.451599
  0
LWPOLYLINE
  5
F5
330
F1
100
AcDbEntity
  8
0
  6
Continuous
 62
     0
370
     0
100
AcDbPolyline
 90
       19
 70
     0
 43
0.0
 10
470.85141
 20
229.33252
 10
471.423859
 20
229.643417
 10
472.076813
 20
229.824722
 10
472.801178
 20
229.873901
 10
473.586823
 20
229.790207
 10
474.422699
 20
229.574905
 10
475.297119
 20
229.230927
 10
476.197815
 20
228.763123
 10
477.112183
 20
228.178085
 10
478.027405
 20
227.483917
 10
478.930664
 20
226.690445
 10
479.809326
 20
225.808716
 10
480.651062
 20
224.851105
 10
481.444092
 20
223.831039
 10
482.177277
 20
222.762787
 10
482.840363
 20
221.661331
 10
483.424072
 20
220.542084
 10
483.920227
 20
219.420746
 10
484.329742
 20
218.288513
  0
LWPOLYLINE
  5
F6
330
F1
100
AcDbEntity
  8
0
  6
Continuous
 62
     0
370
    30
100
AcDbPolyline
 90
        6
 70
     0
 43
0.0
 10
496.794556
 20
228.479996
 10
497.023163
 20
227.664291
 10
497.178436
 20
226.87767
 10
497.257629
 20
226.132324
 10
497.259949
 20
225.437256
 10
497.153625
 20
224.645569
  0
LWPOLYLINE
  5
F7
330
F1
100
AcDbEntity
  8
0
  6
Continuous
 62
     0
370
    30
100
AcDbPolyline
 90
       14
 70
     0
 43
0.0
 10
487.843628
 20
237.811615
 10
488.574005
 20
237.662827
 10
489.346191
 20
237.385971
 10
490.146851
 20
236.985992
 10
490.962402
 20
236.469574
 10
491.778809
 20
235.845627
 10
492.582123
 20
235.124802
 10
493.358643
 20
234.319412
 10
494.095123
 20
233.443237
 10
494.778961
 20
232.511185
 10
495.398346
 20
231.539536
 10
495.942749
 20
230.544525
 10
496.40332
 20
229.54213
 10
496.794556
 20
228.479996
  0
LWPOLYLINE
  5
F8
330
F1
100
AcDbEntity
  8
0
  6
Continuous
 62
     0
370
     0
100
AcDbPolyline
 90
       17
 70
     0
 43
0.0
 10
496.707886
 20
228.382324
 10
496.336761
 20
229.396652
 10
495.868988
 20
230.423325
 10
495.312866
 20
231.444122
 10
494.678223
 20
232.440903
 10
493.976379
 20
233.395981
 10
493.219788
 20
234.292419
 10
492.421844
 20
235.114288
 10
491.59671
 20
235.846985
 10
490.759094
 20
236.477539
 10
489.923798
 20
236.99472
 10
489.105713
 20
237.389343
 10
488.319305
 20
237.654449
 10
487.578552
 20
237.785294
 10
486.896637
 20
237.779541
 10
486.285645
 20
237.63736
 10
485.752899
 20
237.358734
  0
LWPOLYLINE
  5
F9
330
F1
100
AcDbEntity
  8
0
  6
Continuous
 62
     0
370
     0
100
AcDbPolyline
 90
        9
 70
     0
 43
0.0
 10
496.027222
 20
222.823349
 10
496.440216
 20
223.19928
 10
496.766846
 20
223.68251
 10
497.001953
 20
224.265579
 10
497.141907
 20
224.939377
 10
497.18454
 20
225.69339
 10
497.12915
 20
226.51593
 10
496.976654
 20
227.39415
 10
496.707886
 20
228.382324
  0
ELLIPSE
  5
FA
330
F1
100
AcDbEntity
  8
0
  6
Continuous
 62
     0
370
     0
100
AcDbEllipse
 10
482.195929
 20
223.943359
 30
0.0
 11
6.321986217228305
 21
-8.940637016967813
 31
0.0
210
0.0
220
0.0
230
1.0
 40
0.5
 41
0.000000023740153
 42
1.007276024508881
  0
ELLIPSE
  5
FB
330
F1
100
AcDbEntity
  8
0
  6
Continuous
 62
     0
370
     0
100
AcDbEllipse
 10
482.195929
 20
223.943359
 30
0.0
 11
6.321986217228305
 21
-8.940637016967813
 31
0.0
210
0.0
220
0.0
230
1.0
 40
0.5
 41
1.007276024508881
 42
3.141592677329942
  0
LWPOLYLINE
  5
FC
330
F1
100
AcDbEntity
  8
0
  6
Continuous
 62
     0
370
    30
100
AcDbPolyline
 90
       13
 70
     0
 43
0.0
 10
491.014496
 20
237.250092
 10
490.249146
 20
237.749741
 10
489.463135
 20
238.174805
 10
488.671387
 20
238.507431
 10
487.891327
 20
238.7314
 10
487.141632
 20
238.83371
 10
486.441284
 20
238.805893
 10
485.80777
 20
238.645096
 10
485.255981
 20
238.354507
 10
484.796906
 20
237.943237
 10
484.43692
 20
237.425369
 10
484.177765
 20
236.818649
 10
484.014618
 20
236.129608
  0
LWPOLYLINE
  5
FD
330
F1
100
AcDbEntity
  8
0
  6
Continuous
 62
     0
370
    30
100
AcDbPolyline
 90
       24
 70
     0
 43
0.0
 10
494.291473
 20
221.595963
 10
495.013794
 20
221.519669
 10
495.68634
 20
221.567627
 10
496.293213
 20
221.741608
 10
496.821106
 20
222.037872
 10
497.260315
 20
222.447495
 10
497.605286
 20
222.957108
 10
497.854706
 20
223.550186
 10
498.011139
 20
224.208405
 10
498.080414
 20
224.91301
 10
498.069977
 20
225.65921
 10
497.978088
 20
226.48317
 10
497.797211
 20
227.381577
 10
497.522339
 20
228.342819
 10
497.151825
 20
229.351151
 10
496.688141
 20
230.387314
 10
496.138
 20
231.429535
 10
495.512115
 20
232.455048
 10
494.824615
 20
233.44165
 10
494.091858
 20
234.369308
 10
493.33136
 20
235.221497
 10
492.560394
 20
235.985931
 10
491.794952
 20
236.655029
 10
491.014496
 20
237.250092
  0
LWPOLYLINE
  5
FE
330
F1
100
AcDbEntity
  8
0
  6
Continuous
 62
     0
370
    30
100
AcDbPolyline
 90
       15
 70
     0
 43
0.0
 10
491.721588
 20
238.457199
 10
490.84845
 20
239.025391
 10
489.985565
 20
239.488571
 10
489.145081
 20
239.839951
 10
488.33725
 20
240.075378
 10
487.572144
 20
240.192032
 10
486.859558
 20
240.188263
 10
486.208496
 20
240.06424
 10
485.627197
 20
239.821411
 10
485.122986
 20
239.462967
 10
484.702271
 20
238.993362
 10
484.370361
 20
238.418564
 10
484.131439
 20
237.745865
 10
483.988586
 20
236.983719
 10
483.944061
 20
236.079697
  0
LWPOLYLINE
  5
FF
330
F1
100
AcDbEntity
  8
0
  6
Continuous
 62
     0
370
    30
100
AcDbPolyline
 90
       25
 70
     0
 43
0.0
 10
494.220917
 20
221.546082
 10
495.064514
 20
221.292084
 10
495.862335
 20
221.166702
 10
496.603394
 20
221.171692
 10
497.277557
 20
221.306915
 10
497.87558
 20
221.570602
 10
498.389313
 20
221.959076
 10
498.811676
 20
222.467026
 10
499.136841
 20
223.08754
 10
499.360474
 20
223.812027
 10
499.47937
 20
224.630646
 10
499.492004
 20
225.53212
 10
499.398132
 20
226.50412
 10
499.199097
 20
227.53334
 10
498.897614
 20
228.605652
 10
498.497742
 20
229.70639
 10
498.005096
 20
230.82045
 10
497.4263
 20
231.932571
 10
496.769348
 20
233.027496
 10
496.043243
 20
234.090271
 10
495.257874
 20
235.106308
 10
494.424164
 20
236.061615
 10
493.553375
 20
236.943176
 10
492.657043
 20
237.739212
 10
491.721588
 20
238.457199
  0
LWPOLYLINE
  5
100
330
F1
100
AcDbEntity
  8
0
  6
Continuous
 62
     0
370
    30
100
AcDbPolyline
 90
       70
 70
     0
 43
0.0
 10
498.863373
 20
163.250595
 10
500.894226
 20
161.856552
 10
502.954773
 20
160.528152
 10
505.0401
 20
159.272705
 10
507.144806
 20
158.097534
 10
509.263062
 20
157.009888
 10
511.38855
 20
156.016891
 10
513.514648
 20
155.125397
 10
515.634338
 20
154.341934
 10
517.740356
 20
153.672638
 10
519.825256
 20
153.123108
 10
521.88147
 20
152.698318
 10
523.901245
 20
152.402603
 10
525.877014
 20
152.239517
 10
527.801208
 20
152.211777
 10
529.666565
 20
152.321243
 10
531.466125
 20
152.568832
 10
533.193176
 20
152.954514
 10
534.841553
 20
153.477341
 10
536.405701
 20
154.135361
 10
537.880554
 20
154.925735
 10
539.26178
 20
155.844742
 10
540.545593
 20
156.887787
 10
541.729187
 20
158.049576
 10
542.810242
 20
159.324066
 10
543.787354
 20
160.704651
 10
544.659729
 20
162.184204
 10
545.427368
 20
163.755188
 10
546.090881
 20
165.409775
 10
546.651611
 20
167.139923
 10
547.11145
 20
168.937454
 10
547.472778
 20
170.794205
 10
547.738464
 20
172.702042
 10
547.911926
 20
174.652985
 10
547.996826
 20
176.639282
 10
547.996826
 20
178.662079
 10
547.912109
 20
180.768265
 10
547.738708
 20
182.964417
 10
547.473145
 20
185.247955
 10
547.111877
 20
187.615601
 10
546.652222
 20
190.063339
 10
546.091553
 20
192.586395
 10
545.428162
 20
195.179291
 10
544.660645
 20
197.8358
 10
543.788391
 20
200.549011
 10
542.811462
 20
203.31134
 10
541.730469
 20
206.114655
 10
540.547058
 20
208.950226
 10
539.263306
 20
211.808914
 10
537.882202
 20
214.681213
 10
536.407471
 20
217.557358
 10
534.843384
 20
220.427429
 10
533.195068
 20
223.281464
 10
531.46814
 20
226.109589
 10
529.668701
 20
228.90213
 10
527.803406
 20
231.649673
 10
525.879272
 20
234.343262
 10
523.903564
 20
236.97438
 10
521.883789
 20
239.535172
 10
519.827698
 20
242.018356
 10
517.742798
 20
244.417435
 10
515.63678
 20
246.726639
 10
513.51709
 20
248.940994
 10
511.390991
 20
251.056366
 10
509.265503
 20
253.069382
 10
507.147247
 20
254.977493
 10
505.042511
 20
256.778961
 10
502.957153
 20
258.472748
 10
500.896576
 20
260.058533
 10
498.863373
 20
261.538269
  0
LWPOLYLINE
  5
101
330
F1
100
AcDbEntity
  8
0
  6
Continuous
 62
     0
370
    30
100
AcDbPolyline
 90
        5
 70
     0
 43
0.0
 10
491.257812
 20
169.220627
 10
492.997925
 20
167.74939
 10
494.724152
 20
166.352112
 10
496.433441
 20
165.028931
 10
498.863373
 20
163.250595
  0
LWPOLYLINE
  5
102
330
F1
100
AcDbEntity
  8
0
  6
Continuous
 62
     0
370
    30
100
AcDbPolyline
 90
       53
 70
     0
 43
0.0
 10
498.863373
 20
261.538269
 10
496.858459
 20
262.91507
 10
494.824524
 20
264.227936
 10
492.766296
 20
265.469879
 10
490.688965
 20
266.63385
 10
488.598145
 20
267.71283
 10
486.499847
 20
268.700012
 10
484.400482
 20
269.588715
 10
482.306702
 20
270.37265
 10
480.225525
 20
271.045898
 10
478.164124
 20
271.602966
 10
476.129761
 20
272.039032
 10
474.129852
 20
272.349792
 10
472.171722
 20
272.531738
 10
470.262634
 20
272.582153
 10
468.409698
 20
272.499054
 10
466.619659
 20
272.281403
 10
464.899017
 20
271.929047
 10
463.253784
 20
271.442719
 10
461.689484
 20
270.824097
 10
460.211121
 20
270.075684
 10
458.822998
 20
269.200867
 10
457.528931
 20
268.203888
 10
456.331848
 20
267.089661
 10
455.234161
 20
265.86377
 10
454.237488
 20
264.53241
 10
453.342743
 20
263.102356
 10
452.550171
 20
261.580719
 10
451.859344
 20
259.974915
 10
451.269257
 20
258.292694
 10
450.77829
 20
256.54184
 10
450.384308
 20
254.730225
 10
450.084656
 20
252.865707
 10
449.876312
 20
250.956039
 10
449.75589
 20
249.008789
 10
449.719666
 20
247.031158
 10
449.765259
 20
244.992218
 10
449.895508
 20
242.86467
 10
450.114075
 20
240.650665
 10
450.424286
 20
238.353043
 10
450.829193
 20
235.975327
 10
451.331329
 20
233.521744
 10
451.9328
 20
230.997208
 10
452.635162
 20
228.407333
 10
453.439331
 20
225.758438
 10
454.345703
 20
223.057465
 10
455.353943
 20
220.311935
 10
456.463013
 20
217.529968
 10
457.671234
 20
214.720108
 10
458.976166
 20
211.891296
 10
460.374725
 20
209.052811
 10
461.863129
 20
206.214111
 10
463.459198
 20
203.34584
  0
LWPOLYLINE
  5
103
330
F1
100
AcDbEntity
  8
0
  6
Continuous
 62
     0
370
    30
100
AcDbPolyline
 90
        6
 70
     0
 43
0.0
 10
492.813568
 20
220.550934
 10
493.991333
 20
220.155533
 10
495.177368
 20
219.653198
 10
496.359802
 20
219.055038
 10
497.527924
 20
218.373077
 10
498.863373
 20
217.485672
  0
LWPOLYLINE
  5
104
330
F1
100
AcDbEntity
  8
0
  6
Continuous
 62
     0
370
    30
100
AcDbPolyline
 90
       28
 70
     0
 43
0.0
 10
498.863373
 20
217.485672
 10
500.027893
 20
216.618988
 10
501.218658
 20
215.642548
 10
502.42572
 20
214.557175
 10
503.637726
 20
213.366043
 10
504.842194
 20
212.07486
 10
506.025696
 20
210.691956
 10
507.174469
 20
209.228226
 10
508.274658
 20
207.696899
 10
509.312988
 20
206.113235
 10
510.277283
 20
204.494019
 10
511.156769
 20
202.856949
 10
511.942657
 20
201.220062
 10
512.628296
 20
199.601028
 10
513.209351
 20
198.016571
 10
513.684021
 20
196.481873
 10
514.052734
 20
195.010223
 10
514.317871
 20
193.612701
 10
514.483887
 20
192.298004
 10
514.556519
 20
191.072464
 10
514.541931
 20
189.925064
 10
514.438354
 20
188.815186
 10
514.239319
 20
187.753067
 10
513.939392
 20
186.753403
 10
513.534973
 20
185.831009
 10
513.024109
 20
185.000275
 10
512.407227
 20
184.274704
 10
511.680573
 20
183.661682
  0
LWPOLYLINE
  5
105
330
F1
100
AcDbEntity
  8
0
  6
Continuous
 62
     0
370
    30
100
AcDbPolyline
 90
       10
 70
     0
 43
0.0
 10
492.512512
 20
244.710495
 10
493.040558
 20
245.003387
 10
493.640228
 20
245.185928
 10
494.300873
 20
245.2547
 10
495.009705
 20
245.210403
 10
495.752747
 20
245.057678
 10
496.515594
 20
244.80455
 10
497.284332
 20
244.461792
 10
498.046112
 20
244.042053
 10
498.863373
 20
243.507202
  0
LWPOLYLINE
  5
106
330
F1
100
AcDbEntity
  8
0
  6
Continuous
 62
     0
370
    30
100
AcDbPolyline
 90
       20
 70
     0
 43
0.0
 10
498.863373
 20
243.507202
 10
499.687408
 20
242.880768
 10
500.533539
 20
242.144791
 10
501.386414
 20
241.302567
 10
502.22821
 20
240.362411
 10
503.039642
 20
239.337891
 10
503.801086
 20
238.247437
 10
504.494232
 20
237.113388
 10
505.10321
 20
235.960556
 10
505.616058
 20
234.814407
 10
506.025238
 20
233.699295
 10
506.328064
 20
232.636734
 10
506.526337
 20
231.644302
 10
506.625793
 20
230.734879
 10
506.634857
 20
229.911362
 10
506.555054
 20
229.133377
 10
506.377991
 20
228.407776
 10
506.097321
 20
227.755508
 10
505.710297
 20
227.197037
 10
505.214233
 20
226.747574
  0
LWPOLYLINE
  5
107
330
F1
100
AcDbEntity
  8
0
  6
Continuous
 62
     0
370
    30
100
AcDbPolyline
 90
       63
 70
     0
 43
0.0
 10
515.479736
 20
154.395416
 10
517.581421
 20
153.694244
 10
519.664612
 20
153.109314
 10
521.721863
 20
152.64566
 10
523.745789
 20
152.307724
 10
525.728943
 20
152.099213
 10
527.664001
 20
152.023056
 10
529.543701
 20
152.081375
 10
531.361084
 20
152.275406
 10
533.10968
 20
152.605469
 10
534.783203
 20
153.070984
 10
536.376038
 20
153.670456
 10
537.882996
 20
154.401474
 10
539.299561
 20
155.260788
 10
540.621826
 20
156.244278
 10
541.846619
 20
157.347107
 10
542.971497
 20
158.563705
 10
543.994568
 20
159.887909
 10
544.914917
 20
161.313004
 10
545.732056
 20
162.831863
 10
546.446411
 20
164.436981
 10
547.058777
 20
166.120636
 10
547.570801
 20
167.874939
 10
547.984497
 20
169.691925
 10
548.30249
 20
171.563644
 10
548.52771
 20
173.482254
 10
548.663635
 20
175.440079
 10
548.713867
 20
177.429657
 10
548.681458
 20
179.471298
 10
548.56427
 20
181.602325
 10
548.358459
 20
183.82103
 10
548.060608
 20
186.124649
 10
547.667664
 20
188.50975
 10
547.176941
 20
190.972168
 10
546.586182
 20
193.50705
 10
545.89386
 20
196.10881
 10
545.098755
 20
198.771194
 10
544.200562
 20
201.487274
 10
543.199402
 20
204.249527
 10
542.096252
 20
207.04985
 10
540.8927
 20
209.879654
 10
539.591064
 20
212.72995
 10
538.194397
 20
215.5914
 10
536.706482
 20
218.454483
 10
535.131653
 20
221.309509
 10
533.474976
 20
224.14682
 10
531.741943
 20
226.956833
 10
529.938782
 20
229.730148
 10
528.071838
 20
232.457703
 10
526.148071
 20
235.130844
 10
524.174622
 20
237.741364
 10
522.158813
 20
240.281693
 10
520.108032
 20
242.744843
 10
518.029785
 20
245.124588
 10
515.931458
 20
247.415359
 10
513.820312
 20
249.612411
 10
511.703369
 20
251.711777
 10
509.587402
 20
253.710236
 10
507.478882
 20
255.605347
 10
505.383911
 20
257.395447
 10
503.308167
 20
259.079529
 10
501.256866
 20
260.657318
 10
499.216949
 20
262.141846
  0
LWPOLYLINE
  5
108
330
F1
100
AcDbEntity
  8
0
  6
Continuous
 62
     0
370
    30
100
AcDbPolyline
 90
       36
 70
     0
 43
0.0
 10
499.216949
 20
262.141846
 10
497.194122
 20
263.530823
 10
495.142029
 20
264.855225
 10
493.065369
 20
266.10791
 10
490.969452
 20
267.281738
 10
488.859924
 20
268.369659
 10
486.74292
 20
269.364716
 10
484.624878
 20
270.260193
 10
482.512573
 20
271.049744
 10
480.413116
 20
271.727295
 10
478.33371
 20
272.287415
 10
476.281799
 20
272.725128
 10
474.264832
 20
273.036163
 10
472.290253
 20
273.216949
 10
470.365387
 20
273.264709
 10
468.497437
 20
273.177551
 10
466.693237
 20
272.954376
 10
464.95932
 20
272.595093
 10
463.301788
 20
272.100433
 10
461.726196
 20
271.472137
 10
460.23761
 20
270.712799
 10
458.840393
 20
269.825836
 10
457.5383
 20
268.815582
 10
456.334381
 20
267.687012
 10
455.230957
 20
266.445831
 10
454.229645
 20
265.098358
 10
453.33139
 20
263.651428
 10
452.536407
 20
262.112244
 10
451.844208
 20
260.488373
 10
451.253754
 20
258.787628
 10
450.763367
 20
257.017914
 10
450.37085
 20
255.187225
 10
450.073547
 20
253.303482
 10
449.868347
 20
251.374527
 10
449.75177
 20
249.40799
 10
449.720154
 20
247.393478
  0
ELLIPSE
  5
109
330
F1
100
AcDbEntity
  8
0
  6
Continuous
 62
     0
370
    30
100
AcDbEllipse
 10
506.287994
 20
217.644432
 30
0.0
 11
40.41446586024527
 21
-57.15467529910338
 31
0.0
210
0.0
220
0.0
230
1.0
 40
0.5
 41
0.0000000237401503
 42
2.186275947600802
  0
ELLIPSE
  5
10A
330
F1
100
AcDbEntity
  8
0
  6
Continuous
 62
     0
370
    30
100
AcDbEllipse
 10
506.287994
 20
217.644432
 30
0.0
 11
40.41446586024527
 21
-57.15467529910338
 31
0.0
210
0.0
220
0.0
230
1.0
 40
0.5
 41
2.186275947600802
 42
3.141592677329944
  0
ELLIPSE
  5
10B
330
F1
100
AcDbEntity
  8
0
  6
Continuous
 62
     0
370
     0
100
AcDbEllipse
 10
478.003732
 20
187.037905
 30
0.0
 11
-12.8171775362985
 21
18.12622299330462
 31
0.0
210
0.0
220
0.0
230
-0.9999999999999999
 40
0.5
 41
0.9553167059889922
 42
3.145864145004079
  0
ELLIPSE
  5
10C
330
F1
100
AcDbEntity
  8
0
  6
Continuous
 62
     0
370
     0
100
AcDbEllipse
 10
478.003732
 20
187.037905
 30
0.0
 11
-12.8171775362985
 21
18.12622299330462
 31
0.0
210
0.0
220
0.0
230
-0.9999999999999999
 40
0.5
 41
6.279582420749505
 42
7.238502013168579
  0
LWPOLYLINE
  5
10D
330
F1
100
AcDbEntity
  8
0
  6
Continuous
 62
     0
370
     0
100
AcDbPolyline
 90
       16
 70
     0
 43
0.0
 10
477.296631
 20
201.528564
 10
476.186737
 20
202.272232
 10
475.05188
 20
202.946823
 10
473.901459
 20
203.539764
 10
472.746277
 20
204.038849
 10
471.598175
 20
204.432648
 10
470.469879
 20
204.711136
 10
469.374512
 20
204.866043
 10
468.325134
 20
204.891388
 10
467.334412
 20
204.783783
 10
466.41394
 20
204.542694
 10
465.573975
 20
204.170486
 10
464.822876
 20
203.672363
 10
464.167053
 20
203.056152
 10
463.610565
 20
202.331909
 10
463.148254
 20
201.49649
  0
LWPOLYLINE
  5
10E
330
F1
100
AcDbEntity
  8
0
  6
Continuous
 62
     0
370
     0
100
AcDbPolyline
 90
       22
 70
     0
 43
0.0
 10
491.746216
 20
172.329346
 10
492.0354
 20
173.379501
 10
492.212555
 20
174.495789
 10
492.284698
 20
175.660446
 10
492.258881
 20
176.880569
 10
492.131805
 20
178.201355
 10
491.895752
 20
179.6185
 10
491.544739
 20
181.122452
 10
491.075073
 20
182.700546
 10
490.485687
 20
184.337082
 10
489.778534
 20
186.013779
 10
488.958801
 20
187.710312
 10
488.034668
 20
189.40509
 10
487.017303
 20
191.076141
 10
485.920166
 20
192.702057
 10
484.758698
 20
194.262878
 10
483.549347
 20
195.740936
 10
482.309082
 20
197.121399
 10
481.054443
 20
198.392731
 10
479.801208
 20
199.54686
 10
478.563538
 20
200.579102
 10
477.296631
 20
201.528564
  0
LWPOLYLINE
  5
10F
330
F1
100
AcDbEntity
  8
0
  6
Continuous
 62
     0
370
    30
100
AcDbPolyline
 90
       17
 70
     0
 43
0.0
 10
465.146729
 20
202.970428
 10
465.813934
 20
203.446762
 10
466.569305
 20
203.82016
 10
467.409302
 20
204.08136
 10
468.32843
 20
204.222946
 10
469.319092
 20
204.239731
 10
470.371979
 20
204.129028
 10
471.476166
 20
203.890945
 10
472.619659
 20
203.528275
 10
473.789642
 20
203.046478
 10
474.973114
 20
202.453445
 10
476.157288
 20
201.759064
 10
477.329895
 20
200.974808
 10
478.479828
 20
200.113235
 10
479.597107
 20
199.187531
 10
480.673309
 20
198.210922
 10
481.754944
 20
197.141434
  0
LWPOLYLINE
  5
110
330
F1
100
AcDbEntity
  8
0
  6
Continuous
 62
     0
370
    30
100
AcDbPolyline
 90
       16
 70
     0
 43
0.0
 10
481.754944
 20
197.141434
 10
482.850433
 20
195.962189
 10
483.941437
 20
194.682648
 10
485.014404
 20
193.309311
 10
486.054596
 20
191.851746
 10
487.046692
 20
190.322601
 10
487.975311
 20
188.737366
 10
488.825684
 20
187.114059
 10
489.584351
 20
185.472595
 10
490.239777
 20
183.834
 10
490.782898
 20
182.219528
 10
491.207581
 20
180.649826
 10
491.510895
 20
179.143967
 10
491.692932
 20
177.718765
 10
491.756897
 20
176.388184
 10
491.706726
 20
175.142502
  0
LWPOLYLINE
  5
111
330
F1
100
AcDbEntity
  8
0
  6
Continuous
 62
     0
370
    30
100
AcDbPolyline
 90
        9
 70
     0
 43
0.0
 10
489.142029
 20
167.969467
 10
489.795349
 20
168.511307
 10
490.364227
 20
169.149521
 10
490.846497
 20
169.87529
 10
491.241638
 20
170.678726
 10
491.550598
 20
171.549271
 10
491.775696
 20
172.475922
 10
491.92038
 20
173.447708
 10
491.992157
 20
174.561295
  0
LWPOLYLINE
  5
112
330
F1
100
AcDbEntity
  8
0
  6
Continuous
 62
     0
370
    30
100
AcDbPolyline
 90
       40
 70
     0
 43
0.0
 10
454.519989
 20
154.876038
 10
455.663696
 20
154.109436
 10
456.833008
 20
153.413422
 10
458.018372
 20
152.800781
 10
459.208893
 20
152.283966
 10
460.392487
 20
151.874573
 10
461.556274
 20
151.582886
 10
462.686951
 20
151.417358
 10
463.771179
 20
151.384201
 10
464.796082
 20
151.486969
 10
465.749756
 20
151.726425
 10
466.621765
 20
152.100327
 10
467.403351
 20
152.603592
 10
468.087952
 20
153.228485
 10
468.671112
 20
153.964935
 10
469.150787
 20
154.801041
 10
469.5271
 20
155.723541
 10
469.802155
 20
156.718445
 10
469.97995
 20
157.771408
 10
470.065857
 20
158.868347
 10
470.066101
 20
160.004364
 10
469.980713
 20
161.222275
 10
469.803497
 20
162.526169
 10
469.528992
 20
163.909622
 10
469.15332
 20
165.363922
 10
468.674255
 20
166.878067
 10
468.091675
 20
168.439011
 10
467.407684
 20
170.031906
 10
466.626648
 20
171.640472
 10
465.755157
 20
173.247635
 10
464.80191
 20
174.835968
 10
463.777405
 20
176.388443
 10
462.693481
 20
177.888947
 10
461.563049
 20
179.322861
 10
460.399414
 20
180.677536
 10
459.215912
 20
181.942551
 10
458.025391
 20
183.109955
 10
456.839966
 20
184.174316
 10
455.670502
 20
185.132599
 10
454.519989
 20
185.988739
  0
LWPOLYLINE
  5
113
330
F1
100
AcDbEntity
  8
0
  6
Continuous
 62
     0
370
    30
100
AcDbPolyline
 90
       40
 70
     0
 43
0.0
 10
454.519989
 20
185.988739
 10
453.376312
 20
186.755356
 10
452.207001
 20
187.45137
 10
451.021606
 20
188.063995
 10
449.831116
 20
188.580811
 10
448.647522
 20
188.990204
 10
447.483734
 20
189.281891
 10
446.353058
 20
189.447418
 10
445.268829
 20
189.480591
 10
444.243927
 20
189.377808
 10
443.290222
 20
189.138367
 10
442.418243
 20
188.764465
 10
441.636627
 20
188.261185
 10
440.952057
 20
187.636307
 10
440.368896
 20
186.899857
 10
439.889221
 20
186.063751
 10
439.512909
 20
185.141235
 10
439.237823
 20
184.146347
 10
439.060059
 20
183.093384
 10
438.974152
 20
181.996445
 10
438.973907
 20
180.860428
 10
439.059265
 20
179.642517
 10
439.236511
 20
178.338608
 10
439.510986
 20
176.955154
 10
439.886688
 20
175.50087
 10
440.365753
 20
173.98671
 10
440.948303
 20
172.425766
 10
441.632294
 20
170.832886
 10
442.413361
 20
169.224304
 10
443.284851
 20
167.617157
 10
444.238068
 20
166.028809
 10
445.262604
 20
164.476334
 10
446.346497
 20
162.975845
 10
447.476929
 20
161.541916
 10
448.640594
 20
160.187256
 10
449.824097
 20
158.922241
 10
451.014587
 20
157.754822
 10
452.200043
 20
156.69046
 10
453.369476
 20
155.732178
 10
454.519989
 20
154.876038
  0
LWPOLYLINE
  5
114
330
F1
100
AcDbEntity
  8
0
  6
Continuous
 62
     0
370
    30
100
AcDbPolyline
 90
       31
 70
     0
 43
0.0
 10
491.992157
 20
174.561295
 10
491.506836
 20
175.522629
 10
490.917023
 20
176.557129
 10
490.226715
 20
177.65741
 10
489.441772
 20
178.813629
 10
488.566986
 20
180.017899
 10
487.605682
 20
181.265472
 10
486.562103
 20
182.5504
 10
485.441956
 20
183.864609
 10
484.251831
 20
185.199326
 10
482.999847
 20
186.544769
 10
481.694183
 20
187.891251
 10
480.342804
 20
189.229782
 10
478.954498
 20
190.550797
 10
477.539398
 20
191.843857
 10
476.109497
 20
193.097214
 10
474.676727
 20
194.299652
 10
473.251526
 20
195.44223
 10
471.845581
 20
196.515335
 10
470.471741
 20
197.508499
 10
469.142609
 20
198.412125
 10
467.869995
 20
199.218933
 10
466.665283
 20
199.92218
 10
465.53714
 20
200.517105
 10
464.492645
 20
201.000534
 10
463.539825
 20
201.369751
 10
462.685883
 20
201.622986
 10
461.935272
 20
201.760361
 10
461.291595
 20
201.782684
 10
460.757629
 20
201.691422
 10
460.333282
 20
201.487381
  0
ELLIPSE
  5
115
330
F1
100
AcDbEntity
  8
0
  6
Continuous
 62
     0
370
    30
100
AcDbEllipse
 10
465.126598
 20
115.707001
 30
0.0
 11
-6.49999415358911
 21
1.251450216565332E-7
 31
0.0
210
0.0
220
0.0
230
0.9999999999999999
 40
0.707107
 41
0.7853982366160901
 42
3.141592620343599
  0
ELLIPSE
  5
116
330
F1
100
AcDbEntity
  8
0
  6
Continuous
 62
     0
370
    30
100
AcDbEllipse
 10
465.126598
 20
115.707001
 30
0.0
 11
-6.49999415358911
 21
1.251450216565332E-7
 31
0.0
210
0.0
220
0.0
230
0.9999999999999999
 40
0.707107
 41
6.283185273933392
 42
7.068583543795672
  0
LINE
  5
117
330
F1
100
AcDbEntity
  8
0
  6
Continuous
 62
     0
370
    30
100
AcDbLine
 10
492.512527
 20
244.710492
 30
0.0
 11
485.370749
 21
239.660491
 31
0.0
  0
LINE
  5
118
330
F1
100
AcDbEntity
  8
0
  6
Continuous
 62
     0
370
    30
100
AcDbLine
 10
505.214235
 20
226.747568
 30
0.0
 11
498.072457
 21
221.697568
 31
0.0
  0
LWPOLYLINE
  5
119
330
F1
100
AcDbEntity
  8
0
  6
Continuous
 62
     0
370
    30
100
AcDbPolyline
 90
        3
 70
     0
 43
0.0
 10
465.146729
 20
202.970428
 10
464.77533
 20
202.649887
 10
463.473572
 20
201.392349
  0
LINE
  5
11A
330
F1
100
AcDbEntity
  8
0
  6
Continuous
 62
     0
370
    30
100
AcDbLine
 10
458.626604
 20
152.524059
 30
0.0
 11
458.626604
 21
115.707002
 31
0.0
  0
LINE
  5
11B
330
F1
100
AcDbEntity
  8
0
  6
Continuous
 62
     0
370
    30
100
AcDbLine
 10
471.626593
 20
155.584194
 30
0.0
 11
471.626592
 21
115.707001
 31
0.0
  0
LINE
  5
11C
330
F1
100
AcDbEntity
  8
0
  6
Continuous
 62
     0
370
    30
100
AcDbLine
 10
489.142015
 20
167.969471
 30
0.0
 11
467.221706
 21
152.469469
 31
0.0
  0
LINE
  5
11D
330
F1
100
AcDbEntity
  8
0
  6
Continuous
 62
     0
370
    30
100
AcDbLine
 10
460.333388
 20
201.48747
 30
0.0
 11
441.81829
 21
188.395316
 31
0.0
  0
LWPOLYLINE
  5
11E
330
F1
100
AcDbEntity
  8
0
  6
Continuous
 62
     0
370
    30
100
AcDbPolyline
 90
        3
 70
     0
 43
0.0
 10
489.382996
 20
168.149963
 10
489.957642
 20
168.399109
 10
490.821381
 20
168.912048
  0
LWPOLYLINE
  5
11F
330
F1
100
AcDbEntity
  8
0
  6
Continuous
 62
     0
370
    30
100
AcDbPolyline
 90
        6
 70
     0
 43
0.0
 10
465.186066
 20
205.163757
 10
464.548767
 20
204.64772
 10
463.97757
 20
204.048752
 10
463.477753
 20
203.374466
 10
463.051727
 20
202.631302
 10
462.630981
 20
201.636108
  0
LINE
  5
120
330
F1
100
AcDbEntity
  8
0
  6
Continuous
 62
     0
370
    30
100
AcDbLine
 10
476.380913
 20
213.079736
 30
0.0
 11
465.186554
 21
205.164128
 31
0.0
  0
LINE
  5
121
330
F1
100
AcDbEntity
  8
0
  6
Continuous
 62
     0
370
    30
100
AcDbLine
 10
511.680559
 20
183.661684
 30
0.0
 11
490.82091
 21
168.911682
 31
0.0
  0
LINE
  5
122
330
F1
100
AcDbEntity
  8
0
  6
Continuous
 62
     0
370
    30
100
AcDbLine
 10
458.802468
 20
269.799112
 30
0.0
 11
465.873527
 21
274.799107
 31
0.0
  0
LINE
  5
123
330
F1
100
AcDbEntity
  8
0
  6
Continuous
 62
     0
370
    30
100
AcDbLine
 10
539.631401
 20
155.489762
 30
0.0
 11
546.70246
 21
160.489757
 31
0.0
  0
LINE
  5
124
330
F1
100
AcDbEntity
  8
0
  6
Continuous
 62
     0
370
    30
100
AcDbLine
 10
483.943428
 20
236.079257
 30
0.0
 11
483.943428
 21
236.179029
 31
0.0
  0
LINE
  5
125
330
F1
100
AcDbEntity
  8
0
  6
Continuous
 62
     0
370
    30
100
AcDbLine
 10
494.314759
 20
221.512231
 30
0.0
 11
494.220283
 21
221.545633
 31
0.0
  0
LINE
  5
126
330
F1
100
AcDbEntity
  8
0
  6
Continuous
 62
     0
370
    30
100
AcDbLine
 10
479.749699
 20
233.113843
 30
0.0
 11
485.753081
 21
237.358876
 31
0.0
  0
LINE
  5
127
330
F1
100
AcDbEntity
  8
0
  6
Continuous
 62
     0
370
    30
100
AcDbLine
 10
490.026549
 20
218.580214
 30
0.0
 11
496.029917
 21
222.825237
 31
0.0
  0
LWPOLYLINE
  5
128
330
F1
100
AcDbEntity
  8
0
  6
Continuous
 62
     0
370
    30
100
AcDbPolyline
 90
       28
 70
     0
 43
0.0
 10
475.897827
 20
232.900696
 10
476.499817
 20
233.222748
 10
477.177307
 20
233.411469
 10
477.915863
 20
233.465927
 10
478.704956
 20
233.389206
 10
479.534729
 20
233.185074
 10
480.395569
 20
232.857986
 10
481.277771
 20
232.412933
 10
482.171204
 20
231.856079
 10
483.064697
 20
231.19548
 10
483.947052
 20
230.439407
 10
484.806976
 20
229.597687
 10
485.633179
 20
228.681595
 10
486.414856
 20
227.7034
 10
487.141663
 20
226.676147
 10
487.803802
 20
225.613327
 10
488.392761
 20
224.529114
 10
488.900391
 20
223.437805
 10
489.319977
 20
222.353714
 10
489.645721
 20
221.290924
 10
489.873566
 20
220.262695
 10
490.0
 20
219.282059
 10
490.022308
 20
218.360962
 10
489.938934
 20
217.509979
 10
489.749115
 20
216.739716
 10
489.452515
 20
216.060776
 10
489.049652
 20
215.484146
 10
488.536591
 20
215.016037
  0
LINE
  5
129
330
F1
100
AcDbEntity
  8
0
  6
Continuous
 62
     0
370
    30
100
AcDbLine
 10
470.855048
 20
229.335101
 30
0.0
 11
475.873943
 21
232.883996
 31
0.0
  0
LINE
  5
12A
330
F1
100
AcDbEntity
  8
0
  6
Continuous
 62
     0
370
    30
100
AcDbLine
 10
483.495614
 20
211.451418
 30
0.0
 11
488.517915
 21
215.002722
 31
0.0
  0
LWPOLYLINE
  5
12B
330
F1
100
AcDbEntity
  8
0
  6
Continuous
 62
     0
370
    30
100
AcDbPolyline
 90
        5
 70
     0
 43
0.0
 10
496.030121
 20
222.825378
 10
496.394775
 20
223.141327
 10
496.699371
 20
223.528412
 10
496.939392
 20
223.978714
 10
497.153717
 20
224.645538
  0
LWPOLYLINE
  5
12C
330
F1
100
AcDbEntity
  8
0
  6
Continuous
 62
     0
370
    30
100
AcDbPolyline
 90
        5
 70
     0
 43
0.0
 10
485.752899
 20
237.358734
 10
486.17215
 20
237.597244
 10
486.638397
 20
237.755493
 10
487.142731
 20
237.831787
 10
487.843658
 20
237.811646
  0
LWPOLYLINE
  5
12D
330
F1
100
AcDbEntity
  8
0
  6
Continuous
 62
     0
370
    30
100
AcDbPolyline
 90
       10
 70
     0
 43
0.0
 10
469.927856
 20
222.346588
 10
469.644196
 20
223.360077
 10
469.452393
 20
224.337692
 10
469.355408
 20
225.268066
 10
469.35495
 20
226.141327
 10
469.452515
 20
226.9478
 10
469.648834
 20
227.677963
 10
469.944061
 20
228.322403
 10
470.337555
 20
228.871323
 10
470.85141
 20
229.33252
  0
LWPOLYLINE
  5
12E
330
F1
100
AcDbEntity
  8
0
  6
Continuous
 62
     0
370
    30
100
AcDbPolyline
 90
       20
 70
     0
 43
0.0
 10
483.49585
 20
211.451599
 10
482.91983
 20
211.133133
 10
482.272369
 20
210.938568
 10
481.566772
 20
210.869202
 10
480.812775
 20
210.922485
 10
480.019135
 20
211.095047
 10
479.19458
 20
211.383163
 10
478.347931
 20
211.782242
 10
477.488037
 20
212.287338
 10
476.624603
 20
212.891678
 10
475.767792
 20
213.587585
 10
474.927734
 20
214.367111
 10
474.114594
 20
215.220505
 10
473.338318
 20
216.137268
 10
472.608398
 20
217.105759
 10
471.933929
 20
218.113983
 10
471.323364
 20
219.149658
 10
470.783813
 20
220.200226
 10
470.322235
 20
221.252945
 10
469.927856
 20
222.346588
  0
ENDBLK
  5
130
330
F1
100
AcDbEntity
  8
0
100
AcDbBlockEnd
  0
BLOCK
  5
174
330
132
100
AcDbEntity
  8
0
100
AcDbBlockBegin
  2
e
 70
     0
 10
246.228241
 20
0.000031
 30
0.0
  3
e
  1

  0
LINE
  5
133
330
132
100
AcDbEntity
  8
0
  6
Continuous
 62
     0
370
    30
100
AcDbLine
 10
172.423913
 20
494.756369
 30
0.0
 11
172.423913
 21
480.039674
 31
0.0
  0
LWPOLYLINE
  5
134
330
132
100
AcDbEntity
  8
0
  6
Continuous
 62
     0
370
    30
100
AcDbPolyline
 90
       11
 70
     0
 43
0.0
 10
172.42392
 20
501.339661
 10
172.42392
 20
501.269897
 10
172.42392
 20
501.063599
 10
172.42392
 20
500.713409
 10
172.42392
 20
500.217194
 10
172.42392
 20
499.579071
 10
172.42392
 20
498.80954
 10
172.42392
 20
497.924957
 10
172.42392
 20
496.946472
 10
172.42392
 20
495.898254
 10
172.42392
 20
494.756378
  0
LINE
  5
135
330
132
100
AcDbEntity
  8
0
  6
Continuous
 62
     0
370
     0
100
AcDbLine
 10
172.723913
 20
494.870924
 30
0.0
 11
172.723913
 21
479.739679
 31
0.0
  0
LINE
  5
136
330
132
100
AcDbEntity
  8
0
  6
Continuous
 62
     0
370
     0
100
AcDbLine
 10
172.723913
 20
501.63967
 30
0.0
 11
172.723913
 21
494.870924
 31
0.0
  0
LINE
  5
137
330
132
100
AcDbEntity
  8
0
  6
Continuous
 62
     0
370
     0
100
AcDbLine
 10
192.123913
 20
494.088133
 30
0.0
 11
192.123913
 21
499.589671
 31
0.0
  0
LWPOLYLINE
  5
138
330
132
100
AcDbEntity
  8
0
  6
Continuous
 62
     0
370
     0
100
AcDbPolyline
 90
       16
 70
     0
 43
0.0
 10
192.123917
 20
481.789673
 10
192.123917
 20
481.864532
 10
192.123917
 20
482.089783
 10
192.123917
 20
482.461639
 10
192.123917
 20
482.973785
 10
192.123917
 20
483.617462
 10
192.123917
 20
484.381683
 10
192.123917
 20
485.253479
 10
192.123917
 20
486.217926
 10
192.123917
 20
487.258606
 10
192.123917
 20
488.357788
 10
192.123917
 20
489.496704
 10
192.123917
 20
490.655975
 10
192.123917
 20
491.815796
 10
192.123917
 20
492.956451
 10
192.123917
 20
494.088135
  0
LINE
  5
139
330
132
100
AcDbEntity
  8
0
  6
Continuous
 62
     0
370
     0
100
AcDbLine
 10
179.82652
 20
479.739674
 30
0.0
 11
179.82652
 21
494.870924
 31
0.0
  0
LINE
  5
13A
330
132
100
AcDbEntity
  8
0
  6
Continuous
 62
     0
370
     0
100
AcDbLine
 10
179.82652
 20
494.870924
 30
0.0
 11
179.82652
 21
501.639674
 31
0.0
  0
LWPOLYLINE
  5
13B
330
132
100
AcDbEntity
  8
0
  6
Continuous
 62
     0
370
     0
100
AcDbPolyline
 90
       17
 70
     0
 43
0.0
 10
180.126511
 20
480.037109
 10
180.126511
 20
480.116028
 10
180.126511
 20
480.354004
 10
180.126511
 20
480.747345
 10
180.126511
 20
481.290314
 10
180.126511
 20
481.974579
 10
180.126511
 20
482.789978
 10
180.126511
 20
483.724121
 10
180.126511
 20
484.763092
 10
180.126511
 20
485.891144
 10
180.126511
 20
487.09137
 10
180.126511
 20
488.345795
 10
180.126511
 20
489.635406
 10
180.126511
 20
490.940521
 10
180.126511
 20
492.24231
 10
180.126511
 20
493.521973
 10
180.126511
 20
494.757355
  0
LINE
  5
13C
330
132
100
AcDbEntity
  8
0
  6
Continuous
 62
     0
370
     0
100
AcDbLine
 10
180.126508
 20
494.757369
 30
0.0
 11
180.126509
 21
501.342232
 31
0.0
  0
LINE
  5
13D
330
132
100
AcDbEntity
  8
0
  6
Continuous
 62
     0
370
     0
100
AcDbLine
 10
180.133152
 20
494.46665
 30
0.0
 11
180.133153
 21
480.798401
 31
0.0
  0
LINE
  5
13E
330
132
100
AcDbEntity
  8
0
  6
Continuous
 62
     0
370
     0
100
AcDbLine
 10
180.133153
 20
500.580948
 30
0.0
 11
180.133152
 21
494.46665
 31
0.0
  0
LINE
  5
13F
330
132
100
AcDbEntity
  8
0
  6
Continuous
 62
     0
370
     0
100
AcDbLine
 10
181.133115
 20
499.589674
 30
0.0
 11
181.133115
 21
494.088133
 31
0.0
  0
LINE
  5
140
330
132
100
AcDbEntity
  8
0
  6
Continuous
 62
     0
370
     0
100
AcDbLine
 10
181.133115
 20
494.088133
 30
0.0
 11
181.133115
 21
481.789674
 31
0.0
  0
LINE
  5
141
330
132
100
AcDbEntity
  8
0
  6
Continuous
 62
     0
370
    30
100
AcDbLine
 10
192.297858
 20
480.689675
 30
0.0
 11
192.297858
 21
500.689675
 31
0.0
  0
LINE
  5
142
330
132
100
AcDbEntity
  8
0
  6
Continuous
 62
     0
370
    30
100
AcDbLine
 10
192.297858
 20
500.689675
 30
0.0
 11
193.297858
 21
501.689675
 31
0.0
  0
LINE
  5
143
330
132
100
AcDbEntity
  8
0
  6
Continuous
 62
     0
370
    30
100
AcDbLine
 10
193.297858
 20
479.689675
 30
0.0
 11
193.297858
 21
501.689675
 31
0.0
  0
LINE
  5
144
330
132
100
AcDbEntity
  8
0
  6
Continuous
 62
     0
370
    30
100
AcDbLine
 10
203.397858
 20
388.189675
 30
0.0
 11
203.397858
 21
527.189475
 31
0.0
  0
LINE
  5
145
330
132
100
AcDbEntity
  8
0
  6
Continuous
 62
     0
370
    30
100
AcDbLine
 10
203.397858
 20
388.189675
 30
0.0
 11
203.897858
 21
387.689675
 31
0.0
  0
LINE
  5
146
330
132
100
AcDbEntity
  8
0
  6
Continuous
 62
     0
370
    30
100
AcDbLine
 10
203.897858
 20
387.689675
 30
0.0
 11
203.897858
 21
527.689475
 31
0.0
  0
LINE
  5
147
330
132
100
AcDbEntity
  8
0
  6
Continuous
 62
     0
370
    30
100
AcDbLine
 10
203.897858
 20
387.689675
 30
0.0
 11
213.897847
 21
387.689675
 31
0.0
  0
LINE
  5
148
330
132
100
AcDbEntity
  8
0
  6
Continuous
 62
     0
370
    30
100
AcDbLine
 10
213.897847
 20
387.689675
 30
0.0
 11
213.897847
 21
527.689475
 31
0.0
  0
LINE
  5
149
330
132
100
AcDbEntity
  8
0
  6
Continuous
 62
     0
370
     0
100
AcDbLine
 10
173.897858
 20
464.889675
 30
0.0
 11
173.897858
 21
420.489675
 31
0.0
  0
LINE
  5
14A
330
132
100
AcDbEntity
  8
0
  6
Continuous
 62
     0
370
    30
100
AcDbLine
 10
173.897858
 20
464.889675
 30
0.0
 11
203.397858
 21
464.889675
 31
0.0
  0
LINE
  5
14B
330
132
100
AcDbEntity
  8
0
  6
Continuous
 62
     0
370
    30
100
AcDbLine
 10
172.897858
 20
421.489675
 30
0.0
 11
172.897858
 21
463.889675
 31
0.0
  0
ARC
  5
14C
330
132
100
AcDbEntity
  8
0
  6
Continuous
 62
     0
370
    30
100
AcDbCircle
 10
173.897858
 20
463.889675
 30
0.0
 40
0.9999999999994706
100
AcDbArc
 50
90.0
 51
180.0
  0
LWPOLYLINE
  5
14D
330
132
100
AcDbEntity
  8
0
  6
Continuous
 62
     0
370
    30
100
AcDbPolyline
 90
       20
 70
     0
 43
0.0
 10
171.686844
 20
420.689667
 10
171.686844
 20
420.750671
 10
171.686844
 20
420.940094
 10
171.686844
 20
421.266541
 10
171.686844
 20
421.736633
 10
171.686844
 20
422.354523
 10
171.686844
 20
423.121521
 10
171.686844
 20
424.035828
 10
171.686844
 20
425.092316
 10
171.686844
 20
426.282532
 10
171.686844
 20
427.594879
 10
171.686844
 20
429.015015
 10
171.686844
 20
430.526428
 10
171.686844
 20
432.110901
 10
171.686844
 20
433.749329
 10
171.686844
 20
435.422455
 10
171.686844
 20
437.11142
 10
171.686844
 20
438.798462
 10
171.686844
 20
440.467377
 10
171.686844
 20
442.16037
  0
LWPOLYLINE
  5
14E
330
132
100
AcDbEntity
  8
0
  6
Continuous
 62
     0
370
    30
100
AcDbPolyline
 90
       39
 70
     0
 43
0.0
 10
140.686844
 20
420.689667
 10
140.686844
 20
420.75238
 10
140.686844
 20
420.947449
 10
140.686844
 20
421.283905
 10
140.686844
 20
421.76889
 10
140.686844
 20
422.40683
 10
140.686844
 20
423.199127
 10
140.686844
 20
424.143829
 10
140.686844
 20
425.235443
 10
140.686844
 20
426.464844
 10
140.686844
 20
427.819641
 10
140.686844
 20
429.284424
 10
140.686844
 20
430.841492
 10
140.686844
 20
432.471466
 10
140.686844
 20
434.154022
 10
140.686844
 20
435.868805
 10
140.686844
 20
437.595978
 10
140.686844
 20
439.317017
 10
140.686844
 20
441.015106
 10
140.686844
 20
442.675507
 10
140.686844
 20
444.335144
 10
140.686844
 20
446.032684
 10
140.686844
 20
447.753479
 10
140.686844
 20
449.480713
 10
140.686844
 20
451.195862
 10
140.686844
 20
452.87915
 10
140.686844
 20
454.510193
 10
140.686844
 20
456.068695
 10
140.686844
 20
457.535248
 10
140.686844
 20
458.89209
 10
140.686844
 20
460.123779
 10
140.686844
 20
461.217834
 10
140.686844
 20
462.165161
 10
140.686844
 20
462.960114
 10
140.686844
 20
463.600708
 10
140.686844
 20
464.088318
 10
140.686844
 20
464.427307
 10
140.686844
 20
464.624725
 10
140.686844
 20
464.689667
  0
LINE
  5
14F
330
132
100
AcDbEntity
  8
0
  6
Continuous
 62
     0
370
    30
100
AcDbLine
 10
171.686839
 20
442.160359
 30
0.0
 11
163.486639
 21
464.689674
 31
0.0
  0
LINE
  5
150
330
132
100
AcDbEntity
  8
0
  6
Continuous
 62
     0
370
    30
100
AcDbLine
 10
171.68684
 20
420.689674
 30
0.0
 11
167.170146
 21
420.689674
 31
0.0
  0
LINE
  5
151
330
132
100
AcDbEntity
  8
0
  6
Continuous
 62
     0
370
    30
100
AcDbLine
 10
144.203533
 20
420.689674
 30
0.0
 11
140.68684
 21
420.689674
 31
0.0
  0
LWPOLYLINE
  5
152
330
132
100
AcDbEntity
  8
0
  6
Continuous
 62
     0
370
     0
100
AcDbPolyline
 90
       32
 70
     0
 43
0.0
 10
144.203537
 20
420.689667
 10
144.279449
 20
420.715302
 10
144.49968
 20
420.790192
 10
144.856049
 20
420.908844
 10
145.336441
 20
421.063202
 10
145.924088
 20
421.24411
 10
146.60437
 20
421.441986
 10
147.363892
 20
421.64798
 10
148.191635
 20
421.853912
 10
149.077362
 20
422.052368
 10
150.011246
 20
422.236237
 10
150.985382
 20
422.399689
 10
151.992432
 20
422.537354
 10
153.025101
 20
422.644897
 10
154.076111
 20
422.718781
 10
155.138229
 20
422.756622
 10
156.204147
 20
422.757172
 10
157.266495
 20
422.720428
 10
158.317932
 20
422.647552
 10
159.351227
 20
422.540985
 10
160.359116
 20
422.404114
 10
161.334396
 20
422.241333
 10
162.269501
 20
422.057983
 10
163.156494
 20
421.859985
 10
163.986557
 20
421.654053
 10
164.749725
 20
421.447479
 10
165.433243
 20
421.248962
 10
166.023697
 20
421.067444
 10
166.50679
 20
420.912323
 10
166.86731
 20
420.792694
 10
167.091415
 20
420.716614
 10
167.170151
 20
420.689667
  0
LINE
  5
153
330
132
100
AcDbEntity
  8
0
  6
Continuous
 62
     0
370
    30
100
AcDbLine
 10
149.202772
 20
415.602412
 30
0.0
 11
149.18684
 21
414.689674
 31
0.0
  0
LINE
  5
154
330
132
100
AcDbEntity
  8
0
  6
Continuous
 62
     0
370
     0
100
AcDbLine
 10
162.18684
 20
414.689674
 30
0.0
 11
149.18684
 21
414.689674
 31
0.0
  0
LWPOLYLINE
  5
155
330
132
100
AcDbEntity
  8
0
  6
Continuous
 62
     0
370
     0
100
AcDbPolyline
 90
       25
 70
     0
 43
0.0
 10
149.202774
 20
415.602417
 10
149.262604
 20
415.646667
 10
149.438324
 20
415.775177
 10
149.721222
 20
415.975525
 10
150.100662
 20
416.232086
 10
150.565857
 20
416.527008
 10
151.10849
 20
416.842743
 10
151.72261
 20
417.161835
 10
152.404221
 20
417.466309
 10
153.149246
 20
417.736969
 10
153.950027
 20
417.953217
 10
154.798325
 20
418.093994
 10
155.672958
 20
418.144714
 10
156.548004
 20
418.097046
 10
157.397522
 20
417.958923
 10
158.199951
 20
417.74472
 10
158.946854
 20
417.475403
 10
159.630539
 20
417.171692
 10
160.246857
 20
416.852783
 10
160.791824
 20
416.536713
 10
161.259567
 20
416.240814
 10
161.641876
 20
415.982697
 10
161.927994
 20
415.780243
 10
162.107254
 20
415.649384
 10
162.170914
 20
415.602417
  0
ARC
  5
156
330
132
100
AcDbEntity
  8
0
  6
Continuous
 62
     0
370
    30
100
AcDbCircle
 10
144.203533
 20
415.689674
 30
0.0
 40
4.999999999999973
100
AcDbArc
 50
359.0
 51
90.0
  0
ARC
  5
157
330
132
100
AcDbEntity
  8
0
  6
Continuous
 62
     0
370
    30
100
AcDbCircle
 10
167.170146
 20
415.689674
 30
0.0
 40
5.000000000000025
100
AcDbArc
 50
90.0
 51
181.0
  0
LINE
  5
158
330
132
100
AcDbEntity
  8
0
  6
Continuous
 62
     0
370
    30
100
AcDbLine
 10
149.186845
 20
354.689674
 30
0.0
 11
162.186834
 21
354.689674
 31
0.0
  0
LINE
  5
159
330
132
100
AcDbEntity
  8
0
  6
Continuous
 62
     0
370
    30
100
AcDbLine
 10
149.186845
 20
354.689674
 30
0.0
 11
149.186845
 21
414.689674
 31
0.0
  0
LINE
  5
15A
330
132
100
AcDbEntity
  8
0
  6
Continuous
 62
     0
370
    30
100
AcDbLine
 10
203.397858
 20
501.689675
 30
0.0
 11
193.297858
 21
501.689675
 31
0.0
  0
LINE
  5
15B
330
132
100
AcDbEntity
  8
0
  6
Continuous
 62
     0
370
    30
100
AcDbLine
 10
203.397858
 20
479.689675
 30
0.0
 11
193.297858
 21
479.689675
 31
0.0
  0
ARC
  5
15C
330
132
100
AcDbEntity
  8
0
  6
Continuous
 62
     0
370
    30
100
AcDbCircle
 10
174.397907
 20
442.689972
 30
0.0
 40
20.50543443734133
100
AcDbArc
 50
262.402557
 51
265.804848
  0
ARC
  5
15D
330
132
100
AcDbEntity
  8
0
  6
Continuous
 62
     0
370
    30
100
AcDbCircle
 10
174.397831
 20
442.689837
 30
0.0
 40
20.50496885903262
100
AcDbArc
 50
94.195034
 51
117.645546
  0
LINE
  5
15E
330
132
100
AcDbEntity
  8
0
  6
Continuous
 62
     0
370
    30
100
AcDbLine
 10
162.186834
 20
414.689674
 30
0.0
 11
162.186834
 21
354.689674
 31
0.0
  0
LINE
  5
15F
330
132
100
AcDbEntity
  8
0
  6
Continuous
 62
     0
370
    30
100
AcDbLine
 10
162.18684
 20
414.689674
 30
0.0
 11
162.170908
 21
415.602412
 31
0.0
  0
LINE
  5
160
330
132
100
AcDbEntity
  8
0
  6
Continuous
 62
     0
370
    30
100
AcDbLine
 10
163.486541
 20
464.689674
 30
0.0
 11
140.68684
 21
464.689674
 31
0.0
  0
ARC
  5
161
330
132
100
AcDbEntity
  8
0
  6
Continuous
 62
     0
370
    30
100
AcDbCircle
 10
173.897883
 20
421.489701
 30
0.0
 40
1.000025415542319
100
AcDbArc
 50
180.007186
 51
269.998544
  0
LINE
  5
162
330
132
100
AcDbEntity
  8
0
  6
Continuous
 62
     0
370
    30
100
AcDbLine
 10
203.397858
 20
420.489675
 30
0.0
 11
173.897858
 21
420.489675
 31
0.0
  0
LINE
  5
163
330
132
100
AcDbEntity
  8
0
  6
Continuous
 62
     0
370
    30
100
AcDbLine
 10
203.897858
 20
527.689475
 30
0.0
 11
213.897847
 21
527.689475
 31
0.0
  0
LINE
  5
164
330
132
100
AcDbEntity
  8
0
  6
Continuous
 62
     0
370
    30
100
AcDbLine
 10
203.397858
 20
527.189475
 30
0.0
 11
203.897858
 21
527.689475
 31
0.0
  0
LINE
  5
165
330
132
100
AcDbEntity
  8
0
  6
Continuous
 62
     0
370
    30
100
AcDbLine
 10
193.297858
 20
479.689675
 30
0.0
 11
192.297858
 21
480.689675
 31
0.0
  0
ARC
  5
166
330
132
100
AcDbEntity
  8
0
  6
Continuous
 62
     0
370
    30
100
AcDbCircle
 10
181.133139
 20
480.789649
 30
0.0
 40
1.000024867144802
100
AcDbArc
 50
90.001412
 51
179.498588
  0
ARC
  5
167
330
132
100
AcDbEntity
  8
0
  6
Continuous
 62
     0
370
    30
100
AcDbCircle
 10
181.133139
 20
500.589699
 30
0.0
 40
1.000024867384738
100
AcDbArc
 50
180.501412
 51
269.998588
  0
LINE
  5
168
330
132
100
AcDbEntity
  8
0
  6
Continuous
 62
     0
370
    30
100
AcDbLine
 10
181.133115
 20
499.589674
 30
0.0
 11
192.123913
 21
499.589674
 31
0.0
  0
LINE
  5
169
330
132
100
AcDbEntity
  8
0
  6
Continuous
 62
     0
370
    30
100
AcDbLine
 10
181.133115
 20
481.789674
 30
0.0
 11
192.123913
 21
481.789674
 31
0.0
  0
LINE
  5
16A
330
132
100
AcDbEntity
  8
0
  6
Continuous
 62
     0
370
    30
100
AcDbLine
 10
180.126509
 20
480.037112
 30
0.0
 11
180.133153
 21
480.798401
 31
0.0
  0
LINE
  5
16B
330
132
100
AcDbEntity
  8
0
  6
Continuous
 62
     0
370
    30
100
AcDbLine
 10
180.126509
 20
501.342235
 30
0.0
 11
180.133153
 21
500.580948
 31
0.0
  0
ARC
  5
16C
330
132
100
AcDbEntity
  8
0
  6
Continuous
 62
     0
370
    30
100
AcDbCircle
 10
179.826505
 20
480.039689
 30
0.0
 40
0.3000150264158746
100
AcDbArc
 50
270.002842
 51
359.49676
  0
ARC
  5
16D
330
132
100
AcDbEntity
  8
0
  6
Continuous
 62
     0
370
    30
100
AcDbCircle
 10
179.826505
 20
501.339659
 30
0.0
 40
0.300015026976732
100
AcDbArc
 50
0.503484
 51
89.997157
  0
LINE
  5
16E
330
132
100
AcDbEntity
  8
0
  6
Continuous
 62
     0
370
    30
100
AcDbLine
 10
172.723913
 20
501.639674
 30
0.0
 11
179.82652
 21
501.639674
 31
0.0
  0
LINE
  5
16F
330
132
100
AcDbEntity
  8
0
  6
Continuous
 62
     0
370
    30
100
AcDbLine
 10
172.723913
 20
479.739674
 30
0.0
 11
179.82652
 21
479.739674
 31
0.0
  0
ARC
  5
170
330
132
100
AcDbEntity
  8
0
  6
Continuous
 62
     0
370
    30
100
AcDbCircle
 10
192.123817
 20
482.089924
 30
0.0
 40
0.3002496665759904
100
AcDbArc
 50
270.018308
 51
305.433009
  0
ARC
  5
171
330
132
100
AcDbEntity
  8
0
  6
Continuous
 62
     0
370
    30
100
AcDbCircle
 10
192.123818
 20
499.289427
 30
0.0
 40
0.3002469270204861
100
AcDbArc
 50
54.563279
 51
89.981858
  0
ARC
  5
172
330
132
100
AcDbEntity
  8
0
  6
Continuous
 62
     0
370
    30
100
AcDbCircle
 10
172.723929
 20
480.039689
 30
0.0
 40
0.3000152343517544
100
AcDbArc
 50
180.007165
 51
269.997093
  0
ARC
  5
173
330
132
100
AcDbEntity
  8
0
  6
Continuous
 62
     0
370
    30
100
AcDbCircle
 10
172.723929
 20
501.339659
 30
0.0
 40
0.3000152347482108
100
AcDbArc
 50
90.002907
 51
179.992674
  0
ENDBLK
  5
175
330
132
100
AcDbEntity
  8
0
100
AcDbBlockEnd
  0
ENDSEC
  0
SECTION
  2
ENTITIES
  0
INSERT
  5
66
330
1F
100
AcDbEntity
  8
0
  6
Continuous
 62
   250
370
     0
100
AcDbBlockReference
  2
a
 10
225.183151
 20
120.123878
 30
0.0
  0
INSERT
  5
AB
330
1F
100
AcDbEntity
  8
0
  6
Continuous
 62
   250
370
     0
100
AcDbBlockReference
  2
b
 10
259.913326
 20
120.123878
 30
0.0
  0
INSERT
  5
F0
330
1F
100
AcDbEntity
  8
0
  6
Continuous
 62
   250
370
     0
100
AcDbBlockReference
  2
c
 10
225.183151
 20
109.283974
 30
0.0
  0
INSERT
  5
131
330
1F
100
AcDbEntity
  8
0
  6
Continuous
 62
   250
370
     0
100
AcDbBlockReference
  2
d
 10
225.183151
 20
120.123878
 30
0.0
  0
INSERT
  5
176
330
1F
100
AcDbEntity
  8
0
  6
Continuous
 62
   250
370
     0
100
AcDbBlockReference
  2
e
 10
246.228241
 20
0.000031
 30
0.0
  0
ENDSEC
  0
SECTION
  2
OBJECTS
  0
DICTIONARY
  5
C
330
0
100
AcDbDictionary
281
     1
  3
ACAD_GROUP
350
D
  3
ACAD_LAYOUT
350
1A
  3
ACAD_MLEADERSTYLE
350
179
  3
ACAD_MLINESTYLE
350
17
  3
ACAD_PLOTSETTINGS
350
19
  3
ACAD_PLOTSTYLENAME
350
E
  3
ACAD_VISUALSTYLE
350
2A
  3
AcDbVariableDictionary
350
177
  0
DICTIONARY
  5
D
102
{ACAD_REACTORS
330
C
102
}
330
C
100
AcDbDictionary
281
     1
  0
DICTIONARY
  5
1A
102
{ACAD_REACTORS
330
C
102
}
330
C
100
AcDbDictionary
281
     1
  3
Layout1
350
1E
  3
Layout2
350
26
  3
Model
350
22
  0
DICTIONARY
  5
179
102
{ACAD_REACTORS
330
C
102
}
330
C
100
AcDbDictionary
281
     1
  0
DICTIONARY
  5
17
102
{ACAD_REACTORS
330
C
102
}
330
C
100
AcDbDictionary
281
     1
  3
Standard
350
18
  0
DICTIONARY
  5
19
102
{ACAD_REACTORS
330
C
102
}
330
C
100
AcDbDictionary
281
     1
  0
ACDBDICTIONARYWDFLT
  5
E
102
{ACAD_REACTORS
330
C
102
}
330
C
100
AcDbDictionary
281
     1
  3
Normal
350
F
100
AcDbDictionaryWithDefault
340
F
  0
DICTIONARY
  5
2A
102
{ACAD_REACTORS
330
C
102
}
330
C
100
AcDbDictionary
281
     1
  3
2dWireframe
350
2F
  3
3D Hidden
350
31
  3
3dWireframe
350
30
  3
Basic
350
32
  3
Brighten
350
36
  3
ColorChange
350
3A
  3
Conceptual
350
34
  3
Dim
350
35
  3
Facepattern
350
39
  3
Flat
350
2B
  3
FlatWithEdges
350
2C
  3
Gouraud
350
2D
  3
GouraudWithEdges
350
2E
  3
Linepattern
350
38
  3
Realistic
350
33
  3
Thicken
350
37
  0
DICTIONARY
  5
177
102
{ACAD_REACTORS
330
C
102
}
330
C
100
AcDbDictionary
281
     1
  3
PSOLHEIGHT
350
17B
  3
PSOLWIDTH
350
17A
  0
LAYOUT
  5
1E
102
{ACAD_REACTORS
330
1A
102
}
330
1A
100
AcDbPlotSettings
  1

  2
none_device
  4

  6

 40
0.0
 41
0.0
 42
0.0
 43
0.0
 44
0.0
 45
0.0
 46
0.0
 47
0.0
 48
0.0
 49
0.0
140
0.0
141
0.0
142
1.0
143
1.0
 70
   688
 72
     0
 73
     0
 74
     5
  7

 75
    16
147
1.0
148
0.0
149
0.0
100
AcDbLayout
  1
Layout1
 70
     1
 71
     1
 10
0.0
 20
0.0
 11
420.0
 21
297.0
 12
0.0
 22
0.0
 32
0.0
 14
1.000000E+20
 24
1.000000E+20
 34
1.000000E+20
 15
-1.000000E+20
 25
-1.000000E+20
 35
-1.000000E+20
146
0.0
 13
0.0
 23
0.0
 33
0.0
 16
1.0
 26
0.0
 36
0.0
 17
0.0
 27
1.0
 37
0.0
 76
     0
330
1B
  0
LAYOUT
  5
26
102
{ACAD_REACTORS
330
1A
102
}
330
1A
100
AcDbPlotSettings
  1

  2
none_device
  4

  6

 40
0.0
 41
0.0
 42
0.0
 43
0.0
 44
0.0
 45
0.0
 46
0.0
 47
0.0
 48
0.0
 49
0.0
140
0.0
141
0.0
142
1.0
143
1.0
 70
   688
 72
     0
 73
     0
 74
     5
  7

 75
    16
147
1.0
148
0.0
149
0.0
100
AcDbLayout
  1
Layout2
 70
     1
 71
     2
 10
0.0
 20
0.0
 11
0.0
 21
0.0
 12
0.0
 22
0.0
 32
0.0
 14
0.0
 24
0.0
 34
0.0
 15
0.0
 25
0.0
 35
0.0
146
0.0
 13
0.0
 23
0.0
 33
0.0
 16
1.0
 26
0.0
 36
0.0
 17
0.0
 27
1.0
 37
0.0
 76
     0
330
23
  0
LAYOUT
  5
22
102
{ACAD_REACTORS
330
1A
102
}
330
1A
100
AcDbPlotSettings
  1

  2
none_device
  4

  6

 40
0.0
 41
0.0
 42
0.0
 43
0.0
 44
0.0
 45
0.0
 46
0.0
 47
0.0
 48
0.0
 49
0.0
140
0.0
141
0.0
142
1.0
143
1.0
 70
  1712
 72
     0
 73
     0
 74
     0
  7

 75
     0
147
1.0
148
0.0
149
0.0
100
AcDbLayout
  1
Model
 70
     1
 71
     0
 10
140.686844
 20
98.414764
 11
555.785278
 21
527.689453
 12
0.0
 22
0.0
 32
0.0
 14
140.686844
 24
98.414764
 34
0.0
 15
555.785278
 25
527.689453
 35
0.0
146
0.0
 13
0.0
 23
0.0
 33
0.0
 16
1.0
 26
0.0
 36
0.0
 17
0.0
 27
1.0
 37
0.0
 76
     0
330
1F
331
29
  0
MLINESTYLE
  5
18
102
{ACAD_REACTORS
330
17
102
}
330
17
100
AcDbMlineStyle
  2
Standard
 70
     0
  3

 62
   256
 51
90.0
 52
90.0
 71
     2
 49
0.5
 62
   256
  6
BYLAYER
 49
-0.5
 62
   256
  6
BYLAYER
  0
ACDBPLACEHOLDER
  5
F
102
{ACAD_REACTORS
330
E
102
}
330
E
  0
VISUALSTYLE
  5
2F
102
{ACAD_REACTORS
330
2A
102
}
330
2A
100
AcDbVisualStyle
  2
2dWireframe
 70
     4
 71
     0
 72
     2
 73
     0
 90
        0
 40
-0.6
 41
-30.0
 62
     5
 63
     7
 74
     1
 91
        4
 64
     7
 65
   257
 75
     1
175
     1
 42
1.0
 92
        0
 66
   257
 43
1.0
 76
     1
 77
     6
 78
     2
 67
     7
 79
     5
170
     0
171
     0
290
     0
174
     0
 93
        1
 44
0.0
173
     0
291
     0
 45
0.0
1001
ACAD
1000
AcDbSavedByObjectVersion
1070
     0
  0
VISUALSTYLE
  5
31
102
{ACAD_REACTORS
330
2A
102
}
330
2A
100
AcDbVisualStyle
  2
3D Hidden
 70
     6
 71
     1
 72
     2
 73
     2
 90
        0
 40
-0.6
 41
-30.0
 62
     5
 63
     7
 74
     2
 91
        2
 64
     7
 65
   257
 75
     2
175
     1
 42
40.0
 92
        0
 66
   257
 43
1.0
 76
     1
 77
     6
 78
     2
 67
     7
 79
     3
170
     0
171
     0
290
     0
174
     0
 93
        1
 44
0.0
173
     0
291
     0
 45
0.0
1001
ACAD
1000
AcDbSavedByObjectVersion
1070
     0
  0
VISUALSTYLE
  5
30
102
{ACAD_REACTORS
330
2A
102
}
330
2A
100
AcDbVisualStyle
  2
3dWireframe
 70
     5
 71
     0
 72
     2
 73
     0
 90
        0
 40
-0.6
 41
-30.0
 62
     5
 63
     7
 74
     1
 91
        4
 64
     7
 65
   257
 75
     1
175
     1
 42
1.0
 92
        0
 66
   257
 43
1.0
 76
     1
 77
     6
 78
     2
 67
     7
 79
     5
170
     0
171
     0
290
     0
174
     0
 93
        1
 44
0.0
173
     0
291
     0
 45
0.0
1001
ACAD
1000
AcDbSavedByObjectVersion
1070
     0
  0
VISUALSTYLE
  5
32
102
{ACAD_REACTORS
330
2A
102
}
330
2A
100
AcDbVisualStyle
  2
Basic
 70
     7
 71
     1
 72
     0
 73
     1
 90
        0
 40
-0.6
 41
-30.0
 62
     5
 63
     7
 74
     0
 91
        4
 64
     7
 65
   257
 75
     1
175
     1
 42
1.0
 92
        8
 66
     7
 43
1.0
 76
     1
 77
     6
 78
     2
 67
     7
 79
     5
170
     0
171
     0
290
     0
174
     0
 93
        1
 44
0.0
173
     0
291
     1
 45
0.0
1001
ACAD
1000
AcDbSavedByObjectVersion
1070
     0
  0
VISUALSTYLE
  5
36
102
{ACAD_REACTORS
330
2A
102
}
330
2A
100
AcDbVisualStyle
  2
Brighten
 70
    12
 71
     2
 72
     2
 73
     0
 90
        0
 40
-0.6
 41
-30.0
 62
     5
 63
     7
 74
     1
 91
        4
 64
     7
 65
   257
 75
     1
175
     1
 42
1.0
 92
        8
 66
     7
 43
1.0
 76
     1
 77
     6
 78
     2
 67
     7
 79
     5
170
     0
171
     0
290
     0
174
     0
 93
        1
 44
50.0
173
     0
291
     1
 45
0.0
1001
ACAD
1000
AcDbSavedByObjectVersion
1070
     0
  0
VISUALSTYLE
  5
3A
102
{ACAD_REACTORS
330
2A
102
}
330
2A
100
AcDbVisualStyle
  2
ColorChange
 70
    16
 71
     2
 72
     2
 73
     3
 90
        0
 40
-0.6
 41
-30.0
 62
     5
 63
     8
 74
     1
 91
        4
 64
     7
 65
   257
 75
     1
175
     1
 42
1.0
 92
        8
 66
     8
 43
1.0
 76
     1
 77
     6
 78
     2
 67
     7
 79
     5
170
     0
171
     0
290
     0
174
     0
 93
        1
 44
0.0
173
     0
291
     1
 45
0.0
1001
ACAD
1000
AcDbSavedByObjectVersion
1070
     0
  0
VISUALSTYLE
  5
34
102
{ACAD_REACTORS
330
2A
102
}
330
2A
100
AcDbVisualStyle
  2
Conceptual
 70
     9
 71
     3
 72
     2
 73
     0
 90
        0
 40
-0.6
 41
-30.0
 62
     5
 63
     7
 74
     2
 91
        2
 64
     7
 65
   257
 75
     1
175
     1
 42
40.0
 92
        8
 66
     7
 43
1.0
 76
     1
 77
     6
 78
     2
 67
     7
 79
     3
170
     0
171
     0
290
     0
174
     0
 93
        1
 44
0.0
173
     0
291
     0
 45
0.0
1001
ACAD
1000
AcDbSavedByObjectVersion
1070
     0
  0
VISUALSTYLE
  5
35
102
{ACAD_REACTORS
330
2A
102
}
330
2A
100
AcDbVisualStyle
  2
Dim
 70
    11
 71
     2
 72
     2
 73
     0
 90
        0
 40
-0.6
 41
-30.0
 62
     5
 63
     7
 74
     1
 91
        4
 64
     7
 65
   257
 75
     1
175
     1
 42
1.0
 92
        8
 66
     7
 43
1.0
 76
     1
 77
     6
 78
     2
 67
     7
 79
     5
170
     0
171
     0
290
     0
174
     0
 93
        1
 44
-50.0
173
     0
291
     1
 45
0.0
1001
ACAD
1000
AcDbSavedByObjectVersion
1070
     0
  0
VISUALSTYLE
  5
39
102
{ACAD_REACTORS
330
2A
102
}
330
2A
100
AcDbVisualStyle
  2
Facepattern
 70
    15
 71
     2
 72
     2
 73
     0
 90
        0
 40
-0.6
 41
-30.0
 62
     5
 63
     7
 74
     1
 91
        4
 64
     7
 65
   257
 75
     1
175
     1
 42
1.0
 92
        8
 66
     7
 43
1.0
 76
     1
 77
     6
 78
     2
 67
     7
 79
     5
170
     0
171
     0
290
     0
174
     0
 93
        1
 44
0.0
173
     0
291
     1
 45
0.0
1001
ACAD
1000
AcDbSavedByObjectVersion
1070
     0
  0
VISUALSTYLE
  5
2B
102
{ACAD_REACTORS
330
2A
102
}
330
2A
100
AcDbVisualStyle
  2
Flat
 70
     0
 71
     2
 72
     1
 73
     1
 90
        2
 40
-0.6
 41
30.0
 62
     5
 63
     7
 74
     0
 91
        4
 64
     7
 65
   257
 75
     1
175
     1
 42
1.0
 92
        8
 66
     7
 43
1.0
 76
     1
 77
     6
 78
     2
 67
     7
 79
     5
170
     0
171
     0
290
     0
174
     0
 93
       13
 44
0.0
173
     0
291
     1
 45
0.0
1001
ACAD
1000
AcDbSavedByObjectVersion
1070
     0
  0
VISUALSTYLE
  5
2C
102
{ACAD_REACTORS
330
2A
102
}
330
2A
100
AcDbVisualStyle
  2
FlatWithEdges
 70
     1
 71
     2
 72
     1
 73
     1
 90
        2
 40
-0.6
 41
30.0
 62
     5
 63
     7
 74
     1
 91
        4
 64
     7
 65
   257
 75
     1
175
     1
 42
1.0
 92
        0
 66
   257
 43
1.0
 76
     1
 77
     6
 78
     2
 67
     7
 79
     5
170
     0
171
     0
290
     0
174
     0
 93
       13
 44
0.0
173
     0
291
     1
 45
0.0
1001
ACAD
1000
AcDbSavedByObjectVersion
1070
     0
  0
VISUALSTYLE
  5
2D
102
{ACAD_REACTORS
330
2A
102
}
330
2A
100
AcDbVisualStyle
  2
Gouraud
 70
     2
 71
     2
 72
     2
 73
     1
 90
        2
 40
-0.6
 41
30.0
 62
     5
 63
     7
 74
     0
 91
        4
 64
     7
 65
   257
 75
     1
175
     1
 42
1.0
 92
        0
 66
     7
 43
1.0
 76
     1
 77
     6
 78
     2
 67
     7
 79
     5
170
     0
171
     0
290
     0
174
     0
 93
       13
 44
0.0
173
     0
291
     1
 45
0.0
1001
ACAD
1000
AcDbSavedByObjectVersion
1070
     0
  0
VISUALSTYLE
  5
2E
102
{ACAD_REACTORS
330
2A
102
}
330
2A
100
AcDbVisualStyle
  2
GouraudWithEdges
 70
     3
 71
     2
 72
     2
 73
     1
 90
        2
 40
-0.6
 41
30.0
 62
     5
 63
     7
 74
     1
 91
        4
 64
     7
 65
   257
 75
     1
175
     1
 42
1.0
 92
        0
 66
   257
 43
1.0
 76
     1
 77
     6
 78
     2
 67
     7
 79
     5
170
     0
171
     0
290
     0
174
     0
 93
       13
 44
0.0
173
     0
291
     1
 45
0.0
1001
ACAD
1000
AcDbSavedByObjectVersion
1070
     0
  0
VISUALSTYLE
  5
38
102
{ACAD_REACTORS
330
2A
102
}
330
2A
100
AcDbVisualStyle
  2
Linepattern
 70
    14
 71
     2
 72
     2
 73
     0
 90
        0
 40
-0.6
 41
-30.0
 62
     5
 63
     7
 74
     1
 91
        4
 64
     7
 65
   257
 75
     7
175
     7
 42
1.0
 92
        8
 66
     7
 43
1.0
 76
     1
 77
     6
 78
     2
 67
     7
 79
     5
170
     0
171
     0
290
     0
174
     0
 93
        1
 44
0.0
173
     0
291
     1
 45
0.0
1001
ACAD
1000
AcDbSavedByObjectVersion
1070
     0
  0
VISUALSTYLE
  5
33
102
{ACAD_REACTORS
330
2A
102
}
330
2A
100
AcDbVisualStyle
  2
Realistic
 70
     8
 71
     2
 72
     2
 73
     0
 90
        0
 40
-0.6
 41
-30.0
 62
     5
 63
     7
 74
     1
 91
        0
 64
     7
 65
   257
 75
     1
175
     1
 42
1.0
 92
        8
 66
     8
 43
1.0
 76
     1
 77
     6
 78
     2
 67
     7
 79
     5
170
     0
171
     0
290
     0
174
     0
 93
       13
 44
0.0
173
     0
291
     0
 45
0.0
1001
ACAD
1000
AcDbSavedByObjectVersion
1070
     0
  0
VISUALSTYLE
  5
37
102
{ACAD_REACTORS
330
2A
102
}
330
2A
100
AcDbVisualStyle
  2
Thicken
 70
    13
 71
     2
 72
     2
 73
     0
 90
        0
 40
-0.6
 41
-30.0
 62
     5
 63
     7
 74
     1
 91
        4
 64
     7
 65
   257
 75
     1
175
     1
 42
1.0
 92
       12
 66
     7
 43
1.0
 76
     1
 77
     6
 78
     2
 67
     7
 79
     5
170
     0
171
     0
290
     0
174
     0
 93
        1
 44
0.0
173
     0
291
     1
 45
0.0
1001
ACAD
1000
AcDbSavedByObjectVersion
1070
     0
  0
DICTIONARYVAR
  5
17B
102
{ACAD_REACTORS
330
177
102
}
330
177
100
DictionaryVariables
280
     0
  1
80.000000
  0
DICTIONARYVAR
  5
17A
102
{ACAD_REACTORS
330
177
102
}
330
177
100
DictionaryVariables
280
     0
  1
5.000000
  0
ENDSEC
  0
EOF
