  0
SECTION
  2
HEADER
  9
$ACADVER
  1
AC1015
  9
$ACADMAINTVER
 70
     6
  9
$DWGCODEPAGE
  3
ANSI_1252
  9
$INSBASE
 10
0.0
 20
0.0
 30
0.0
  9
$EXTMIN
 10
23.038866
 20
76.370598
 30
0.0
  9
$EXTMAX
 10
417.702667
 20
388.343109
 30
0.0
  9
$LIMMIN
 10
23.038866
 20
76.370598
  9
$LIMMAX
 10
417.702667
 20
388.343109
  9
$ORTHOMODE
 70
     0
  9
$REGENMODE
 70
     1
  9
$FILLMODE
 70
     1
  9
$QTEXTMODE
 70
     0
  9
$MIRRTEXT
 70
     1
  9
$LTSCALE
 40
1.0
  9
$ATTMODE
 70
     1
  9
$TEXTSIZE
 40
2.5
  9
$TRACEWID
 40
1.0
  9
$TEXTSTYLE
  7
Standard
  9
$CLAYER
  8
0
  9
$CELTYPE
  6
ByLayer
  9
$CECOLOR
 62
   256
  9
$CELTSCALE
 40
1.0
  9
$DISPSILH
 70
     0
  9
$DIMSCALE
 40
1.0
  9
$DIMASZ
 40
2.5
  9
$DIMEXO
 40
0.625
  9
$DIMDLI
 40
3.75
  9
$DIMRND
 40
0.0
  9
$DIMDLE
 40
0.0
  9
$DIMEXE
 40
1.25
  9
$DIMTP
 40
0.0
  9
$DIMTM
 40
0.0
  9
$DIMTXT
 40
2.5
  9
$DIMCEN
 40
2.5
  9
$DIMTSZ
 40
0.0
  9
$DIMTOL
 70
     0
  9
$DIMLIM
 70
     0
  9
$DIMTIH
 70
     0
  9
$DIMTOH
 70
     0
  9
$DIMSE1
 70
     0
  9
$DIMSE2
 70
     0
  9
$DIMTAD
 70
     1
  9
$DIMZIN
 70
     8
  9
$DIMBLK
  1

  9
$DIMASO
 70
     1
  9
$DIMSHO
 70
     1
  9
$DIMPOST
  1

  9
$DIMAPOST
  1

  9
$DIMALT
 70
     0
  9
$DIMALTD
 70
     3
  9
$DIMALTF
 40
0.03937
  9
$DIMLFAC
 40
1.0
  9
$DIMTOFL
 70
     1
  9
$DIMTVP
 40
0.0
  9
$DIMTIX
 70
     0
  9
$DIMSOXD
 70
     0
  9
$DIMSAH
 70
     0
  9
$DIMBLK1
  1

  9
$DIMBLK2
  1

  9
$DIMSTYLE
  2
ISO-25
  9
$DIMCLRD
 70
     0
  9
$DIMCLRE
 70
     0
  9
$DIMCLRT
 70
     0
  9
$DIMTFAC
 40
1.0
  9
$DIMGAP
 40
0.625
  9
$DIMJUST
 70
     0
  9
$DIMSD1
 70
     0
  9
$DIMSD2
 70
     0
  9
$DIMTOLJ
 70
     0
  9
$DIMTZIN
 70
     8
  9
$DIMALTZ
 70
     0
  9
$DIMALTTZ
 70
     0
  9
$DIMUPT
 70
     0
  9
$DIMDEC
 70
     2
  9
$DIMTDEC
 70
     2
  9
$DIMALTU
 70
     2
  9
$DIMALTTD
 70
     3
  9
$DIMTXSTY
  7
Standard
  9
$DIMAUNIT
 70
     0
  9
$DIMADEC
 70
     0
  9
$DIMALTRND
 40
0.0
  9
$DIMAZIN
 70
     0
  9
$DIMDSEP
 70
    44
  9
$DIMATFIT
 70
     3
  9
$DIMFRAC
 70
     0
  9
$DIMLDRBLK
  1

  9
$DIMLUNIT
 70
     2
  9
$DIMLWD
 70
    -2
  9
$DIMLWE
 70
    -2
  9
$DIMTMOVE
 70
     0
  9
$LUNITS
 70
     2
  9
$LUPREC
 70
     4
  9
$SKETCHINC
 40
1.0
  9
$FILLETRAD
 40
10.0
  9
$AUNITS
 70
     0
  9
$AUPREC
 70
     0
  9
$MENU
  1
.
  9
$ELEVATION
 40
0.0
  9
$PELEVATION
 40
0.0
  9
$THICKNESS
 40
0.0
  9
$LIMCHECK
 70
     0
  9
$CHAMFERA
 40
10.0
  9
$CHAMFERB
 40
10.0
  9
$CHAMFERC
 40
20.0
  9
$CHAMFERD
 40
0.0
  9
$SKPOLY
 70
     0
  9
$TDCREATE
 40
2455554.662201053
  9
$TDUCREATE
 40
2455554.620534386
  9
$TDUPDATE
 40
2455554.662201065
  9
$TDUUPDATE
 40
2455554.620534398
  9
$TDINDWG
 40
0.0000000116
  9
$TDUSRTIMER
 40
0.0000000116
  9
$USRTIMER
 70
     1
  9
$ANGBASE
 50
0.0
  9
$ANGDIR
 70
     0
  9
$PDMODE
 70
     0
  9
$PDSIZE
 40
0.0
  9
$PLINEWID
 40
0.0
  9
$SPLFRAME
 70
     0
  9
$SPLINETYPE
 70
     6
  9
$SPLINESEGS
 70
     8
  9
$HANDSEED
  5
105
  9
$SURFTAB1
 70
     6
  9
$SURFTAB2
 70
     6
  9
$SURFTYPE
 70
     6
  9
$SURFU
 70
     6
  9
$SURFV
 70
     6
  9
$UCSBASE
  2

  9
$UCSNAME
  2

  9
$UCSORG
 10
0.0
 20
0.0
 30
0.0
  9
$UCSXDIR
 10
1.0
 20
0.0
 30
0.0
  9
$UCSYDIR
 10
0.0
 20
1.0
 30
0.0
  9
$UCSORTHOREF
  2

  9
$UCSORTHOVIEW
 70
     0
  9
$UCSORGTOP
 10
0.0
 20
0.0
 30
0.0
  9
$UCSORGBOTTOM
 10
0.0
 20
0.0
 30
0.0
  9
$UCSORGLEFT
 10
0.0
 20
0.0
 30
0.0
  9
$UCSORGRIGHT
 10
0.0
 20
0.0
 30
0.0
  9
$UCSORGFRONT
 10
0.0
 20
0.0
 30
0.0
  9
$UCSORGBACK
 10
0.0
 20
0.0
 30
0.0
  9
$PUCSBASE
  2

  9
$PUCSNAME
  2

  9
$PUCSORG
 10
0.0
 20
0.0
 30
0.0
  9
$PUCSXDIR
 10
1.0
 20
0.0
 30
0.0
  9
$PUCSYDIR
 10
0.0
 20
1.0
 30
0.0
  9
$PUCSORTHOREF
  2

  9
$PUCSORTHOVIEW
 70
     0
  9
$PUCSORGTOP
 10
0.0
 20
0.0
 30
0.0
  9
$PUCSORGBOTTOM
 10
0.0
 20
0.0
 30
0.0
  9
$PUCSORGLEFT
 10
0.0
 20
0.0
 30
0.0
  9
$PUCSORGRIGHT
 10
0.0
 20
0.0
 30
0.0
  9
$PUCSORGFRONT
 10
0.0
 20
0.0
 30
0.0
  9
$PUCSORGBACK
 10
0.0
 20
0.0
 30
0.0
  9
$USERI1
 70
     0
  9
$USERI2
 70
     0
  9
$USERI3
 70
     0
  9
$USERI4
 70
     0
  9
$USERI5
 70
     0
  9
$USERR1
 40
0.0
  9
$USERR2
 40
0.0
  9
$USERR3
 40
0.0
  9
$USERR4
 40
0.0
  9
$USERR5
 40
0.0
  9
$WORLDVIEW
 70
     1
  9
$SHADEDGE
 70
     3
  9
$SHADEDIF
 70
    70
  9
$TILEMODE
 70
     1
  9
$MAXACTVP
 70
    64
  9
$PINSBASE
 10
0.0
 20
0.0
 30
0.0
  9
$PLIMCHECK
 70
     0
  9
$PEXTMIN
 10
1.000000E+20
 20
1.000000E+20
 30
1.000000E+20
  9
$PEXTMAX
 10
-1.000000E+20
 20
-1.000000E+20
 30
-1.000000E+20
  9
$PLIMMIN
 10
0.0
 20
0.0
  9
$PLIMMAX
 10
420.0
 20
297.0
  9
$UNITMODE
 70
     0
  9
$VISRETAIN
 70
     1
  9
$PLINEGEN
 70
     0
  9
$PSLTSCALE
 70
     1
  9
$TREEDEPTH
 70
  3020
  9
$CMLSTYLE
  2
Standard
  9
$CMLJUST
 70
     0
  9
$CMLSCALE
 40
20.0
  9
$PROXYGRAPHICS
 70
     1
  9
$MEASUREMENT
 70
     1
  9
$CELWEIGHT
370
    -1
  9
$ENDCAPS
280
     0
  9
$JOINSTYLE
280
     0
  9
$LWDISPLAY
290
     0
  9
$INSUNITS
 70
     4
  9
$HYPERLINKBASE
  1

  9
$STYLESHEET
  1

  9
$XEDIT
290
     1
  9
$CEPSNTYPE
380
     0
  9
$PSTYLEMODE
290
     1
  9
$FINGERPRINTGUID
  2
{BABDD2C5-30DC-4166-8EFE-725986675BDA}
  9
$VERSIONGUID
  2
{FAEB1C32-E019-11D5-929B-00C0DF256EC4}
  9
$EXTNAMES
290
     1
  9
$PSVPSCALE
 40
0.0
  9
$OLESTARTUP
290
     0
  0
ENDSEC
  0
SECTION
  2
CLASSES
  0
CLASS
  1
ACDBDICTIONARYWDFLT
  2
AcDbDictionaryWithDefault
  3
ObjectDBX Classes
 90
        0
280
     0
281
     0
  0
CLASS
  1
VISUALSTYLE
  2
AcDbVisualStyle
  3
ObjectDBX Classes
 90
     4095
280
     0
281
     0
  0
CLASS
  1
DICTIONARYVAR
  2
AcDbDictionaryVar
  3
ObjectDBX Classes
 90
        0
280
     0
281
     0
  0
CLASS
  1
ACDBPLACEHOLDER
  2
AcDbPlaceHolder
  3
ObjectDBX Classes
 90
        0
280
     0
281
     0
  0
CLASS
  1
LAYOUT
  2
AcDbLayout
  3
ObjectDBX Classes
 90
        0
280
     0
281
     0
  0
ENDSEC
  0
SECTION
  2
TABLES
  0
TABLE
  2
VPORT
  5
8
330
0
100
AcDbSymbolTable
 70
     1
  0
VPORT
  5
29
330
8
100
AcDbSymbolTableRecord
100
AcDbViewportTableRecord
  2
*Active
 70
     0
 10
0.0
 20
0.0
 11
1.0
 21
1.0
 12
344.186916
 22
148.5
 13
0.0
 23
0.0
 14
10.0
 24
10.0
 15
10.0
 25
10.0
 16
0.0
 26
0.0
 36
1.0
 17
0.0
 27
0.0
 37
0.0
 40
297.0
 41
1.972973
 42
50.0
 43
0.0
 44
0.0
 50
0.0
 51
0.0
 71
     0
 72
   100
 73
     1
 74
     3
 75
     0
 76
     0
 77
     0
 78
     0
281
     0
 65
     1
110
0.0
120
0.0
130
0.0
111
1.0
121
0.0
131
0.0
112
0.0
122
1.0
132
0.0
 79
     0
146
0.0
  0
ENDTAB
  0
TABLE
  2
LTYPE
  5
5
330
0
100
AcDbSymbolTable
 70
     1
  0
LTYPE
  5
14
330
5
100
AcDbSymbolTableRecord
100
AcDbLinetypeTableRecord
  2
ByBlock
 70
     0
  3

 72
    65
 73
     0
 40
0.0
  0
LTYPE
  5
15
330
5
100
AcDbSymbolTableRecord
100
AcDbLinetypeTableRecord
  2
ByLayer
 70
     0
  3

 72
    65
 73
     0
 40
0.0
  0
LTYPE
  5
16
330
5
100
AcDbSymbolTableRecord
100
AcDbLinetypeTableRecord
  2
Continuous
 70
     0
  3
Solid line
 72
    65
 73
     0
 40
0.0
  0
ENDTAB
  0
TABLE
  2
LAYER
  5
2
330
0
100
AcDbSymbolTable
 70
     1
  0
LAYER
  5
10
330
2
100
AcDbSymbolTableRecord
100
AcDbLayerTableRecord
  2
0
 70
     0
 62
   106
  6
Continuous
370
     0
390
F
  0
ENDTAB
  0
TABLE
  2
STYLE
  5
3
330
0
100
AcDbSymbolTable
 70
     4
  0
STYLE
  5
11
330
3
100
AcDbSymbolTableRecord
100
AcDbTextStyleTableRecord
  2
Standard
 70
     0
 40
0.0
 41
1.0
 50
0.0
 71
     0
 42
2.5
  3
txt
  4

  0
STYLE
  5
3B
330
3
100
AcDbSymbolTableRecord
100
AcDbTextStyleTableRecord
  2
Default
 70
     0
 40
0.0
 41
1.0
 50
0.0
 71
     0
 42
0.2
  3

  4

1001
ACAD
1000
txt
1071
        0
  0
STYLE
  5
3C
330
3
100
AcDbSymbolTableRecord
100
AcDbTextStyleTableRecord
  2
ISO
 70
     0
 40
0.0
 41
1.0
 50
0.0
 71
     0
 42
0.2
  3

  4

1001
ACAD
1000
txt
1071
        0
  0
STYLE
  5
3D
330
3
100
AcDbSymbolTableRecord
100
AcDbTextStyleTableRecord
  2
GIANLU
 70
     0
 40
0.0
 41
1.0
 50
0.0
 71
     0
 42
0.2
  3

  4

1001
ACAD
1000
Arial
1071
        0
  0
ENDTAB
  0
TABLE
  2
VIEW
  5
6
330
0
100
AcDbSymbolTable
 70
     0
  0
ENDTAB
  0
TABLE
  2
UCS
  5
7
330
0
100
AcDbSymbolTable
 70
     0
  0
ENDTAB
  0
TABLE
  2
APPID
  5
9
330
0
100
AcDbSymbolTable
 70
     1
  0
APPID
  5
12
330
9
100
AcDbSymbolTableRecord
100
AcDbRegAppTableRecord
  2
ACAD
 70
     0
  0
ENDTAB
  0
TABLE
  2
DIMSTYLE
  5
A
330
0
100
AcDbSymbolTable
 70
     4
100
AcDbDimStyleTable
  0
DIMSTYLE
105
27
330
A
100
AcDbSymbolTableRecord
100
AcDbDimStyleTableRecord
  2
ISO-25
 70
     0
 41
2.5
 42
0.625
 43
3.75
 44
1.25
 73
     0
 74
     0
 77
     1
 78
     8
140
2.5
141
2.5
143
0.03937
147
0.625
171
     3
172
     1
271
     2
272
     2
274
     3
278
    44
283
     0
284
     8
340
11
  0
DIMSTYLE
105
3E
330
A
100
AcDbSymbolTableRecord
100
AcDbDimStyleTableRecord
  2
Default
 70
     0
  3
<>
 41
4.375
 42
1.05
 44
2.1
 73
     0
 74
     0
 77
     1
 78
     8
140
3.5
146
0.4
147
1.75
178
     3
271
     2
272
     3
284
     8
340
3B
341
3F
342
3F
  0
DIMSTYLE
105
46
330
A
100
AcDbSymbolTableRecord
100
AcDbDimStyleTableRecord
  2
ISO
 70
     0
  3
<>
 41
4.375
 42
1.05
 44
2.1
 73
     0
 74
     0
 77
     1
 78
     8
140
3.5
146
0.4
147
1.75
178
     3
271
     2
272
     3
284
     8
340
3C
341
3F
342
3F
  0
DIMSTYLE
105
47
330
A
100
AcDbSymbolTableRecord
100
AcDbDimStyleTableRecord
  2
zucchetti_unico
 70
     0
  3
<>
 41
3.0
 42
0.9
 44
1.8
 73
     0
 74
     0
 77
     1
 78
     8
140
3.0
146
0.6
147
1.5
176
   104
177
     3
178
     3
271
     2
272
     2
284
     8
340
3D
  0
ENDTAB
  0
TABLE
  2
BLOCK_RECORD
  5
1
330
0
100
AcDbSymbolTable
 70
     7
  0
BLOCK_RECORD
  5
1F
330
1
100
AcDbSymbolTableRecord
100
AcDbBlockTableRecord
  2
*Model_Space
340
22
  0
BLOCK_RECORD
  5
1B
330
1
100
AcDbSymbolTableRecord
100
AcDbBlockTableRecord
  2
*Paper_Space
340
1E
  0
BLOCK_RECORD
  5
23
330
1
100
AcDbSymbolTableRecord
100
AcDbBlockTableRecord
  2
*Paper_Space0
340
26
  0
BLOCK_RECORD
  5
3F
330
1
100
AcDbSymbolTableRecord
100
AcDbBlockTableRecord
  2
_CLOSED
340
0
  0
BLOCK_RECORD
  5
48
330
1
100
AcDbSymbolTableRecord
100
AcDbBlockTableRecord
  2
a
340
0
102
{BLKREFS
331
65
102
}
  0
BLOCK_RECORD
  5
66
330
1
100
AcDbSymbolTableRecord
100
AcDbBlockTableRecord
  2
b
340
0
102
{BLKREFS
331
86
102
}
  0
BLOCK_RECORD
  5
87
330
1
100
AcDbSymbolTableRecord
100
AcDbBlockTableRecord
  2
c
340
0
102
{BLKREFS
331
AC
102
}
  0
BLOCK_RECORD
  5
AD
330
1
100
AcDbSymbolTableRecord
100
AcDbBlockTableRecord
  2
d
340
0
102
{BLKREFS
331
D9
102
}
  0
BLOCK_RECORD
  5
DA
330
1
100
AcDbSymbolTableRecord
100
AcDbBlockTableRecord
  2
e
340
0
102
{BLKREFS
331
FF
102
}
  0
ENDTAB
  0
ENDSEC
  0
SECTION
  2
BLOCKS
  0
BLOCK
  5
20
330
1F
100
AcDbEntity
  8
0
100
AcDbBlockBegin
  2
*Model_Space
 70
     0
 10
0.0
 20
0.0
 30
0.0
  3
*Model_Space
  1

  0
ENDBLK
  5
21
330
1F
100
AcDbEntity
  8
0
100
AcDbBlockEnd
  0
BLOCK
  5
1C
330
1B
100
AcDbEntity
 67
     1
  8
0
100
AcDbBlockBegin
  2
*Paper_Space
 70
     0
 10
0.0
 20
0.0
 30
0.0
  3
*Paper_Space
  1

  0
ENDBLK
  5
1D
330
1B
100
AcDbEntity
 67
     1
  8
0
100
AcDbBlockEnd
  0
BLOCK
  5
24
330
23
100
AcDbEntity
  8
0
100
AcDbBlockBegin
  2
*Paper_Space0
 70
     0
 10
0.0
 20
0.0
 30
0.0
  3
*Paper_Space0
  1

  0
ENDBLK
  5
25
330
23
100
AcDbEntity
  8
0
100
AcDbBlockEnd
  0
BLOCK
  5
40
330
3F
100
AcDbEntity
  8
0
100
AcDbBlockBegin
  2
_CLOSED
 70
     0
 10
0.0
 20
0.0
 30
0.0
  3
_CLOSED
  1

  0
LINE
  5
42
330
3F
100
AcDbEntity
  8
0
  6
ByBlock
 62
     0
370
    -2
100
AcDbLine
 10
-1.0
 20
0.166667
 30
0.0
 11
0.0
 21
0.0
 31
0.0
  0
LINE
  5
43
330
3F
100
AcDbEntity
  8
0
  6
ByBlock
 62
     0
370
    -2
100
AcDbLine
 10
0.0
 20
0.0
 30
0.0
 11
-1.0
 21
-0.166667
 31
0.0
  0
LINE
  5
44
330
3F
100
AcDbEntity
  8
0
  6
ByBlock
 62
     0
370
    -2
100
AcDbLine
 10
-1.0
 20
0.166667
 30
0.0
 11
-1.0
 21
-0.166667
 31
0.0
  0
LINE
  5
45
330
3F
100
AcDbEntity
  8
0
  6
ByBlock
 62
     0
370
    -2
100
AcDbLine
 10
0.0
 20
0.0
 30
0.0
 11
-1.0
 21
0.0
 31
0.0
  0
ENDBLK
  5
41
330
3F
100
AcDbEntity
  8
0
100
AcDbBlockEnd
  0
BLOCK
  5
63
330
48
100
AcDbEntity
  8
0
100
AcDbBlockBegin
  2
a
 70
     0
 10
148.717102
 20
81.54586
 30
0.0
  3
a
  1

  0
ARC
  5
49
330
48
100
AcDbEntity
  8
0
  6
Continuous
 62
     0
370
    30
100
AcDbCircle
 10
216.29731
 20
348.343098
 30
0.0
 40
22.2
100
AcDbArc
 50
291.789939
 51
90.0
  0
ARC
  5
4A
330
48
100
AcDbEntity
  8
0
  6
Continuous
 62
     0
370
    30
100
AcDbCircle
 10
216.29731
 20
348.343098
 30
0.0
 40
22.2
100
AcDbArc
 50
90.0
 51
248.210068
  0
ARC
  5
4B
330
48
100
AcDbEntity
  8
0
  6
Continuous
 62
     0
370
    30
100
AcDbCircle
 10
216.297311
 20
348.343097
 30
0.0
 40
22.0
100
AcDbArc
 50
269.999999
 51
89.999999
  0
ARC
  5
4C
330
48
100
AcDbEntity
  8
0
  6
Continuous
 62
     0
370
    30
100
AcDbCircle
 10
216.297311
 20
348.343097
 30
0.0
 40
22.0
100
AcDbArc
 50
89.999999
 51
269.999999
  0
LINE
  5
4D
330
48
100
AcDbEntity
  8
0
  6
Continuous
 62
     0
370
     0
100
AcDbLine
 10
222.79731
 20
320.343097
 30
0.0
 11
216.29731
 21
320.343097
 31
0.0
  0
LINE
  5
4E
330
48
100
AcDbEntity
  8
0
  6
Continuous
 62
     0
370
     0
100
AcDbLine
 10
216.29731
 20
320.343097
 30
0.0
 11
209.79731
 21
320.343097
 31
0.0
  0
LWPOLYLINE
  5
4F
330
48
100
AcDbEntity
  8
0
  6
Continuous
 62
     0
370
     0
100
AcDbPolyline
 90
       13
 70
     0
 43
0.0
 10
209.85762
 20
323.79837
 10
209.916809
 20
323.749146
 10
210.088943
 20
323.60968
 10
210.365372
 20
323.394592
 10
210.736023
 20
323.124786
 10
211.191635
 20
322.820862
 10
211.72583
 20
322.502014
 10
212.334122
 20
322.186218
 10
213.013062
 20
321.890839
 10
213.757904
 20
321.633392
 10
214.559937
 20
321.431763
 10
215.406693
 20
321.301575
 10
216.297318
 20
321.255829
  0
LWPOLYLINE
  5
50
330
48
100
AcDbEntity
  8
0
  6
Continuous
 62
     0
370
     0
100
AcDbPolyline
 90
       13
 70
     0
 43
0.0
 10
216.297318
 20
321.255829
 10
217.169495
 20
321.299805
 10
218.017059
 20
321.428436
 10
218.820175
 20
321.628632
 10
219.56636
 20
321.884979
 10
220.24678
 20
322.179718
 10
220.856598
 20
322.49527
 10
221.392395
 20
322.81424
 10
221.849747
 20
323.118683
 10
222.222305
 20
323.389374
 10
222.500839
 20
323.605804
 10
222.675293
 20
323.74704
 10
222.737
 20
323.79837
  0
LINE
  5
51
330
48
100
AcDbEntity
  8
0
  6
Continuous
 62
     0
370
     0
100
AcDbLine
 10
216.29731
 20
326.343097
 30
0.0
 11
216.29731
 21
321.255835
 31
0.0
  0
LINE
  5
52
330
48
100
AcDbEntity
  8
0
  6
Continuous
 62
     0
370
    30
100
AcDbLine
 10
216.297309
 20
260.343097
 30
0.0
 11
222.797303
 21
260.343097
 31
0.0
  0
LINE
  5
53
330
48
100
AcDbEntity
  8
0
  6
Continuous
 62
     0
370
    30
100
AcDbLine
 10
209.797315
 20
260.343097
 30
0.0
 11
216.297309
 21
260.343097
 31
0.0
  0
ARC
  5
54
330
48
100
AcDbEntity
  8
0
  6
Continuous
 62
     0
370
    30
100
AcDbCircle
 10
246.29731
 20
378.343098
 30
0.0
 40
10.0
100
AcDbArc
 50
0.0
 51
90.0
  0
ARC
  5
55
330
48
100
AcDbEntity
  8
0
  6
Continuous
 62
     0
370
    30
100
AcDbCircle
 10
186.29731
 20
318.343098
 30
0.0
 40
10.0
100
AcDbArc
 50
180.0
 51
270.0
  0
LINE
  5
56
330
48
100
AcDbEntity
  8
0
  6
Continuous
 62
     0
370
    30
100
AcDbLine
 10
209.797316
 20
308.343098
 30
0.0
 11
186.29731
 21
308.343098
 31
0.0
  0
LINE
  5
57
330
48
100
AcDbEntity
  8
0
  6
Continuous
 62
     0
370
    30
100
AcDbLine
 10
246.29731
 20
308.343098
 30
0.0
 11
222.797304
 21
308.343098
 31
0.0
  0
ARC
  5
58
330
48
100
AcDbEntity
  8
0
  6
Continuous
 62
     0
370
    30
100
AcDbCircle
 10
246.29731
 20
318.343098
 30
0.0
 40
10.0
100
AcDbArc
 50
270.0
 51
360.0
  0
LINE
  5
59
330
48
100
AcDbEntity
  8
0
  6
Continuous
 62
     0
370
    30
100
AcDbLine
 10
256.29731
 20
378.343098
 30
0.0
 11
256.29731
 21
318.343098
 31
0.0
  0
LINE
  5
5A
330
48
100
AcDbEntity
  8
0
  6
Continuous
 62
     0
370
    30
100
AcDbLine
 10
186.29731
 20
388.343098
 30
0.0
 11
246.29731
 21
388.343098
 31
0.0
  0
ARC
  5
5B
330
48
100
AcDbEntity
  8
0
  6
Continuous
 62
     0
370
    30
100
AcDbCircle
 10
186.29731
 20
378.343098
 30
0.0
 40
10.0
100
AcDbArc
 50
90.0
 51
180.0
  0
LINE
  5
5C
330
48
100
AcDbEntity
  8
0
  6
Continuous
 62
     0
370
    30
100
AcDbLine
 10
176.29731
 20
318.343098
 30
0.0
 11
176.29731
 21
378.343098
 31
0.0
  0
LINE
  5
5D
330
48
100
AcDbEntity
  8
0
  6
Continuous
 62
     0
370
    30
100
AcDbLine
 10
209.797316
 20
320.343097
 30
0.0
 11
209.797315
 21
260.343097
 31
0.0
  0
LINE
  5
5E
330
48
100
AcDbEntity
  8
0
  6
Continuous
 62
     0
370
    30
100
AcDbLine
 10
222.797304
 20
320.343097
 30
0.0
 11
222.797303
 21
260.343097
 31
0.0
  0
LWPOLYLINE
  5
5F
330
48
100
AcDbEntity
  8
0
  6
Continuous
 62
     0
370
    30
100
AcDbPolyline
 90
       20
 70
     0
 43
0.0
 10
225.603287
 20
328.408142
 10
225.566956
 20
328.390839
 10
225.287354
 20
328.245056
 10
225.016586
 20
328.08136
 10
224.756653
 20
327.90097
 10
224.508591
 20
327.704559
 10
224.273499
 20
327.492828
 10
224.052322
 20
327.266571
 10
223.845901
 20
327.026794
 10
223.655014
 20
326.774475
 10
223.480484
 20
326.510559
 10
223.323013
 20
326.236145
 10
223.183182
 20
325.952301
 10
223.0616
 20
325.660187
 10
222.958847
 20
325.360992
 10
222.875229
 20
325.055878
 10
222.810989
 20
324.746063
 10
222.766373
 20
324.4328
 10
222.741623
 20
324.117279
 10
222.736954
 20
323.798615
  0
LWPOLYLINE
  5
60
330
48
100
AcDbEntity
  8
0
  6
Continuous
 62
     0
370
    30
100
AcDbPolyline
 90
       20
 70
     0
 43
0.0
 10
206.991333
 20
328.408142
 10
207.027664
 20
328.390839
 10
207.307266
 20
328.245056
 10
207.578033
 20
328.08136
 10
207.837967
 20
327.90097
 10
208.086029
 20
327.704559
 10
208.321121
 20
327.492828
 10
208.542297
 20
327.266571
 10
208.748718
 20
327.026794
 10
208.939606
 20
326.774475
 10
209.114151
 20
326.510559
 10
209.271606
 20
326.236145
 10
209.411438
 20
325.952301
 10
209.53302
 20
325.660187
 10
209.635773
 20
325.360992
 10
209.719391
 20
325.055878
 10
209.78363
 20
324.746063
 10
209.828247
 20
324.4328
 10
209.852997
 20
324.117279
 10
209.857666
 20
323.798615
  0
LINE
  5
61
330
48
100
AcDbEntity
  8
0
  6
Continuous
 62
     0
370
    30
100
AcDbLine
 10
222.737002
 20
323.798152
 30
0.0
 11
222.79731
 21
320.343097
 31
0.0
  0
LINE
  5
62
330
48
100
AcDbEntity
  8
0
  6
Continuous
 62
     0
370
    30
100
AcDbLine
 10
209.857618
 20
323.798152
 30
0.0
 11
209.79731
 21
320.343097
 31
0.0
  0
ENDBLK
  5
64
330
48
100
AcDbEntity
  8
0
100
AcDbBlockEnd
  0
BLOCK
  5
84
330
66
100
AcDbEntity
  8
0
100
AcDbBlockBegin
  2
b
 70
     0
 10
148.717102
 20
81.54586
 30
0.0
  3
b
  1

  0
LINE
  5
67
330
66
100
AcDbEntity
  8
0
  6
Continuous
 62
     0
370
     0
100
AcDbLine
 10
216.29731
 20
117.867916
 30
0.0
 11
238.49731
 21
117.867916
 31
0.0
  0
LINE
  5
68
330
66
100
AcDbEntity
  8
0
  6
Continuous
 62
     0
370
     0
100
AcDbLine
 10
194.09731
 20
117.867916
 30
0.0
 11
216.29731
 21
117.867916
 31
0.0
  0
LINE
  5
69
330
66
100
AcDbEntity
  8
0
  6
Continuous
 62
     0
370
    30
100
AcDbLine
 10
216.29731
 20
116.867915
 30
0.0
 11
195.09731
 21
116.867916
 31
0.0
  0
LINE
  5
6A
330
66
100
AcDbEntity
  8
0
  6
Continuous
 62
     0
370
    30
100
AcDbLine
 10
237.49731
 20
116.867916
 30
0.0
 11
216.29731
 21
116.867915
 31
0.0
  0
LINE
  5
6B
330
66
100
AcDbEntity
  8
0
  6
Continuous
 62
     0
370
    30
100
AcDbLine
 10
195.972186
 20
115.656898
 30
0.0
 11
194.303679
 21
115.656898
 31
0.0
  0
LINE
  5
6C
330
66
100
AcDbEntity
  8
0
  6
Continuous
 62
     0
370
    30
100
AcDbLine
 10
238.290942
 20
115.656898
 30
0.0
 11
236.622439
 21
115.656898
 31
0.0
  0
LWPOLYLINE
  5
6D
330
66
100
AcDbEntity
  8
0
  6
Continuous
 62
     0
370
    30
100
AcDbPolyline
 90
       20
 70
     0
 43
0.0
 10
238.297318
 20
84.656898
 10
238.23465
 20
84.656898
 10
238.03981
 20
84.656898
 10
237.703659
 20
84.656898
 10
237.219162
 20
84.656898
 10
236.581879
 20
84.656898
 10
235.790375
 20
84.656898
 10
234.846573
 20
84.656898
 10
233.756012
 20
84.656898
 10
232.52774
 20
84.656898
 10
231.174149
 20
84.656898
 10
229.710571
 20
84.656898
 10
228.154694
 20
84.656898
 10
226.525894
 20
84.656898
 10
224.844406
 20
84.656898
 10
223.130615
 20
84.656898
 10
221.404282
 20
84.656898
 10
219.683945
 20
84.656898
 10
217.98642
 20
84.656898
 10
216.297318
 20
84.656898
  0
LINE
  5
6E
330
66
100
AcDbEntity
  8
0
  6
Continuous
 62
     0
370
    30
100
AcDbLine
 10
216.297311
 20
84.656897
 30
0.0
 11
194.297311
 21
84.656898
 31
0.0
  0
LWPOLYLINE
  5
6F
330
66
100
AcDbEntity
  8
0
  6
Continuous
 62
     0
370
    30
100
AcDbPolyline
 90
       38
 70
     0
 43
0.0
 10
238.290939
 20
115.656898
 10
238.258209
 20
114.988205
 10
238.070908
 20
114.320412
 10
237.730179
 20
113.658646
 10
237.238174
 20
113.009392
 10
236.597137
 20
112.377457
 10
235.809433
 20
111.765472
 10
234.878174
 20
111.176979
 10
233.807404
 20
110.616547
 10
232.602905
 20
110.088783
 10
231.272354
 20
109.598236
 10
229.823654
 20
109.149193
 10
228.265182
 20
108.745354
 10
226.60672
 20
108.390549
 10
224.860458
 20
108.088455
 10
223.04155
 20
107.842354
 10
221.164307
 20
107.655113
 10
219.242111
 20
107.528893
 10
217.292206
 20
107.465019
 10
215.332947
 20
107.464516
 10
213.382751
 20
107.527412
 10
211.459976
 20
107.652672
 10
209.581924
 20
107.838974
 10
207.762009
 20
108.084183
 10
206.014496
 20
108.385429
 10
204.354568
 20
108.739433
 10
202.794449
 20
109.14254
 10
201.343979
 20
109.590904
 10
200.01152
 20
110.080833
 10
198.804993
 20
110.608055
 10
197.732071
 20
111.168007
 10
196.798615
 20
111.756104
 10
196.008652
 20
112.367752
 10
195.365311
 20
112.999397
 10
194.870972
 20
113.648415
 10
194.527847
 20
114.310028
 10
194.33815
 20
114.977776
 10
194.30368
 20
115.656898
  0
LWPOLYLINE
  5
70
330
66
100
AcDbEntity
  8
0
  6
Continuous
 62
     0
370
    30
100
AcDbPolyline
 90
       16
 70
     0
 43
0.0
 10
221.940796
 20
109.126488
 10
223.563492
 20
109.312569
 10
225.134949
 20
109.544762
 10
226.643478
 20
109.821289
 10
228.078659
 20
110.140244
 10
229.430298
 20
110.499405
 10
230.688782
 20
110.896179
 10
231.845108
 20
111.327774
 10
232.891129
 20
111.791138
 10
233.819656
 20
112.282906
 10
234.623703
 20
112.799683
 10
235.297729
 20
113.337791
 10
235.83725
 20
113.893341
 10
236.238037
 20
114.46244
 10
236.497345
 20
115.041115
 10
236.61554
 20
115.656898
  0
LWPOLYLINE
  5
71
330
66
100
AcDbEntity
  8
0
  6
Continuous
 62
     0
370
    30
100
AcDbPolyline
 90
       22
 70
     0
 43
0.0
 10
195.97908
 20
115.656898
 10
196.093506
 20
115.052864
 10
196.36116
 20
114.454544
 10
196.780045
 20
113.866455
 10
197.346817
 20
113.293045
 10
198.057465
 20
112.738693
 10
198.906265
 20
112.207565
 10
199.886993
 20
111.703712
 10
200.992172
 20
111.230957
 10
202.213486
 20
110.792908
 10
203.541595
 20
110.392845
 10
204.966278
 20
110.033768
 10
206.477036
 20
109.718506
 10
208.06221
 20
109.449356
 10
209.709824
 20
109.228416
 10
211.407455
 20
109.057358
 10
213.14209
 20
108.937393
 10
214.900696
 20
108.869576
 10
216.669907
 20
108.854294
 10
218.436218
 20
108.891716
 10
220.186386
 20
108.981567
 10
221.940796
 20
109.126488
  0
LINE
  5
72
330
66
100
AcDbEntity
  8
0
  6
Continuous
 62
     0
370
    30
100
AcDbLine
 10
186.29731
 20
152.367914
 30
0.0
 11
176.29731
 21
152.367914
 31
0.0
  0
LINE
  5
73
330
66
100
AcDbEntity
  8
0
  6
Continuous
 62
     0
370
    30
100
AcDbLine
 10
186.29731
 20
152.367914
 30
0.0
 11
246.29731
 21
152.367914
 31
0.0
  0
LINE
  5
74
330
66
100
AcDbEntity
  8
0
  6
Continuous
 62
     0
370
    30
100
AcDbLine
 10
256.29731
 20
152.367914
 30
0.0
 11
246.29731
 21
152.367914
 31
0.0
  0
LINE
  5
75
330
66
100
AcDbEntity
  8
0
  6
Continuous
 62
     0
370
    30
100
AcDbLine
 10
256.29731
 20
147.367914
 30
0.0
 11
256.29731
 21
152.367914
 31
0.0
  0
LINE
  5
76
330
66
100
AcDbEntity
  8
0
  6
Continuous
 62
     0
370
     0
100
AcDbLine
 10
246.29731
 20
147.367914
 30
0.0
 11
246.29731
 21
152.367914
 31
0.0
  0
LINE
  5
77
330
66
100
AcDbEntity
  8
0
  6
Continuous
 62
     0
370
    30
100
AcDbLine
 10
256.29731
 20
147.367914
 30
0.0
 11
246.29731
 21
147.367914
 31
0.0
  0
LINE
  5
78
330
66
100
AcDbEntity
  8
0
  6
Continuous
 62
     0
370
    30
100
AcDbLine
 10
186.29731
 20
147.367914
 30
0.0
 11
246.29731
 21
147.367914
 31
0.0
  0
LINE
  5
79
330
66
100
AcDbEntity
  8
0
  6
Continuous
 62
     0
370
    30
100
AcDbLine
 10
186.29731
 20
147.367914
 30
0.0
 11
176.29731
 21
147.367914
 31
0.0
  0
LINE
  5
7A
330
66
100
AcDbEntity
  8
0
  6
Continuous
 62
     0
370
     0
100
AcDbLine
 10
186.29731
 20
147.367914
 30
0.0
 11
186.29731
 21
152.367914
 31
0.0
  0
LINE
  5
7B
330
66
100
AcDbEntity
  8
0
  6
Continuous
 62
     0
370
    30
100
AcDbLine
 10
176.29731
 20
147.367914
 30
0.0
 11
176.29731
 21
152.367914
 31
0.0
  0
ARC
  5
7C
330
66
100
AcDbEntity
  8
0
  6
Continuous
 62
     0
370
    30
100
AcDbCircle
 10
216.297263
 20
118.36794
 30
0.0
 40
20.50518281889349
100
AcDbArc
 50
351.859092
 51
355.804868
  0
ARC
  5
7D
330
66
100
AcDbEntity
  8
0
  6
Continuous
 62
     0
370
    30
100
AcDbCircle
 10
216.343093
 20
118.372882
 30
0.0
 40
20.55115706191323
100
AcDbArc
 50
184.199547
 51
188.136747
  0
LINE
  5
7E
330
66
100
AcDbEntity
  8
0
  6
Continuous
 62
     0
370
    30
100
AcDbLine
 10
238.297311
 20
115.464241
 30
0.0
 11
238.297311
 21
84.656898
 31
0.0
  0
LINE
  5
7F
330
66
100
AcDbEntity
  8
0
  6
Continuous
 62
     0
370
    30
100
AcDbLine
 10
194.297311
 20
115.464241
 30
0.0
 11
194.297311
 21
84.656898
 31
0.0
  0
ARC
  5
80
330
66
100
AcDbEntity
  8
0
  6
Continuous
 62
     0
370
    30
100
AcDbCircle
 10
195.097335
 20
117.867941
 30
0.0
 40
1.000025415542465
100
AcDbArc
 50
180.001456
 51
269.992814
  0
ARC
  5
81
330
66
100
AcDbEntity
  8
0
  6
Continuous
 62
     0
370
    30
100
AcDbCircle
 10
237.497286
 20
117.86794
 30
0.0
 40
1.000024307966266
100
AcDbArc
 50
270.001393
 51
359.998607
  0
LINE
  5
82
330
66
100
AcDbEntity
  8
0
  6
Continuous
 62
     0
370
    30
100
AcDbLine
 10
194.09731
 20
147.367916
 30
0.0
 11
194.09731
 21
117.867916
 31
0.0
  0
LINE
  5
83
330
66
100
AcDbEntity
  8
0
  6
Continuous
 62
     0
370
    30
100
AcDbLine
 10
238.49731
 20
147.367916
 30
0.0
 11
238.49731
 21
117.867916
 31
0.0
  0
ENDBLK
  5
85
330
66
100
AcDbEntity
  8
0
100
AcDbBlockEnd
  0
BLOCK
  5
AA
330
87
100
AcDbEntity
  8
0
100
AcDbBlockBegin
  2
c
 70
     0
 10
148.717102
 20
124.729652
 30
0.0
  3
c
  1

  0
LINE
  5
88
330
87
100
AcDbEntity
  8
0
  6
Continuous
 62
     0
370
     0
100
AcDbLine
 10
384.491663
 20
326.143083
 30
0.0
 11
384.491663
 21
370.543083
 31
0.0
  0
LINE
  5
89
330
87
100
AcDbEntity
  8
0
  6
Continuous
 62
     0
370
    30
100
AcDbLine
 10
354.991663
 20
370.543083
 30
0.0
 11
384.491663
 21
370.543083
 31
0.0
  0
LINE
  5
8A
330
87
100
AcDbEntity
  8
0
  6
Continuous
 62
     0
370
    30
100
AcDbLine
 10
385.491663
 20
369.543083
 30
0.0
 11
385.491663
 21
327.143083
 31
0.0
  0
ARC
  5
8B
330
87
100
AcDbEntity
  8
0
  6
Continuous
 62
     0
370
    30
100
AcDbCircle
 10
384.491663
 20
369.543083
 30
0.0
 40
1.000000000000568
100
AcDbArc
 50
0.0
 51
90.0
  0
LINE
  5
8C
330
87
100
AcDbEntity
  8
0
  6
Continuous
 62
     0
370
    30
100
AcDbLine
 10
386.702682
 20
347.813767
 30
0.0
 11
386.702681
 21
326.343082
 31
0.0
  0
LWPOLYLINE
  5
8D
330
87
100
AcDbEntity
  8
0
  6
Continuous
 62
     0
370
    30
100
AcDbPolyline
 90
       39
 70
     0
 43
0.0
 10
417.702667
 20
370.343079
 10
417.702667
 20
370.280365
 10
417.702667
 20
370.085327
 10
417.702667
 20
369.74884
 10
417.702667
 20
369.263855
 10
417.702667
 20
368.625946
 10
417.702667
 20
367.833618
 10
417.702667
 20
366.888916
 10
417.702667
 20
365.797333
 10
417.702667
 20
364.567902
 10
417.702667
 20
363.213135
 10
417.702667
 20
361.748322
 10
417.702667
 20
360.191254
 10
417.702667
 20
358.561279
 10
417.702667
 20
356.878723
 10
417.702667
 20
355.16394
 10
417.702667
 20
353.436768
 10
417.702667
 20
351.715729
 10
417.702667
 20
350.017639
 10
417.702667
 20
348.357239
 10
417.702667
 20
346.697632
 10
417.702667
 20
345.000061
 10
417.702667
 20
343.279266
 10
417.702667
 20
341.552063
 10
417.702667
 20
339.836914
 10
417.702667
 20
338.153595
 10
417.702667
 20
336.522552
 10
417.702667
 20
334.96405
 10
417.702667
 20
333.497498
 10
417.702667
 20
332.140656
 10
417.702667
 20
330.908966
 10
417.702667
 20
329.814911
 10
417.702667
 20
328.867584
 10
417.702667
 20
328.072632
 10
417.702667
 20
327.432037
 10
417.702667
 20
326.944427
 10
417.702667
 20
326.605438
 10
417.702667
 20
326.40802
 10
417.702667
 20
326.343079
  0
LWPOLYLINE
  5
8E
330
87
100
AcDbEntity
  8
0
  6
Continuous
 62
     0
370
    30
100
AcDbPolyline
 90
       21
 70
     0
 43
0.0
 10
394.902771
 20
370.343079
 10
394.875549
 20
370.268127
 10
394.794403
 20
370.045044
 10
394.660217
 20
369.676514
 10
394.474243
 20
369.165863
 10
394.238281
 20
368.5177
 10
393.954712
 20
367.738556
 10
393.626129
 20
366.835785
 10
393.255493
 20
365.817474
 10
392.845825
 20
364.691895
 10
392.400024
 20
363.467072
 10
391.921356
 20
362.151978
 10
391.413452
 20
360.756531
 10
390.879944
 20
359.29068
 10
390.324432
 20
357.764435
 10
389.750397
 20
356.187286
 10
389.160095
 20
354.56543
 10
388.555817
 20
352.905243
 10
387.942047
 20
351.218933
 10
387.323944
 20
349.52063
 10
386.702667
 20
347.813782
  0
LINE
  5
8F
330
87
100
AcDbEntity
  8
0
  6
Continuous
 62
     0
370
    30
100
AcDbLine
 10
386.702681
 20
326.343082
 30
0.0
 11
391.219374
 21
326.343082
 31
0.0
  0
LWPOLYLINE
  5
90
330
87
100
AcDbEntity
  8
0
  6
Continuous
 62
     0
370
     0
100
AcDbPolyline
 90
       32
 70
     0
 43
0.0
 10
391.21936
 20
326.343079
 10
391.295502
 20
326.368713
 10
391.515594
 20
326.443604
 10
391.871735
 20
326.562195
 10
392.352142
 20
326.716583
 10
392.939667
 20
326.89743
 10
393.619873
 20
327.095306
 10
394.379303
 20
327.30127
 10
395.20694
 20
327.507202
 10
396.09256
 20
327.705627
 10
397.026337
 20
327.889526
 10
398.000366
 20
328.052948
 10
399.007294
 20
328.190674
 10
400.039856
 20
328.298187
 10
401.090759
 20
328.372131
 10
402.152802
 20
328.410004
 10
403.218628
 20
328.410614
 10
404.280884
 20
328.373901
 10
405.332275
 20
328.301086
 10
406.365509
 20
328.19458
 10
407.373383
 20
328.05777
 10
408.348633
 20
327.89502
 10
409.283722
 20
327.711731
 10
410.170746
 20
327.513794
 10
411.000854
 20
327.307861
 10
411.764099
 20
327.101288
 10
412.447754
 20
326.902771
 10
413.038361
 20
326.721222
 10
413.521667
 20
326.56604
 10
413.882477
 20
326.44635
 10
414.106903
 20
326.370148
 10
414.185974
 20
326.343079
  0
LINE
  5
91
330
87
100
AcDbEntity
  8
0
  6
Continuous
 62
     0
370
    30
100
AcDbLine
 10
414.185988
 20
326.343082
 30
0.0
 11
417.702681
 21
326.343082
 31
0.0
  0
LINE
  5
92
330
87
100
AcDbEntity
  8
0
  6
Continuous
 62
     0
370
    30
100
AcDbLine
 10
409.186749
 20
321.25582
 30
0.0
 11
409.202681
 21
320.343082
 31
0.0
  0
LWPOLYLINE
  5
93
330
87
100
AcDbEntity
  8
0
  6
Continuous
 62
     0
370
     0
100
AcDbPolyline
 90
       22
 70
     0
 43
0.0
 10
409.202667
 20
320.343079
 10
409.140808
 20
320.343079
 10
408.944336
 20
320.343079
 10
408.602142
 20
320.343079
 10
408.111969
 20
320.343079
 10
407.482422
 20
320.343079
 10
406.73291
 20
320.343079
 10
405.891846
 20
320.343079
 10
404.993195
 20
320.343079
 10
404.072205
 20
320.343079
 10
403.161255
 20
320.343079
 10
402.27597
 20
320.343079
 10
401.365906
 20
320.343079
 10
400.444733
 20
320.343079
 10
399.544708
 20
320.343079
 10
398.700989
 20
320.343079
 10
397.947693
 20
320.343079
 10
397.313477
 20
320.343079
 10
396.818146
 20
320.343079
 10
396.470642
 20
320.343079
 10
396.269135
 20
320.343079
 10
396.202667
 20
320.343079
  0
LWPOLYLINE
  5
94
330
87
100
AcDbEntity
  8
0
  6
Continuous
 62
     0
370
     0
100
AcDbPolyline
 90
       25
 70
     0
 43
0.0
 10
396.218628
 20
321.255829
 10
396.278442
 20
321.299835
 10
396.454193
 20
321.428589
 10
396.737122
 20
321.628967
 10
397.116608
 20
321.885559
 10
397.581879
 20
322.180511
 10
398.124542
 20
322.496277
 10
398.738739
 20
322.815369
 10
399.420441
 20
323.119873
 10
400.165558
 20
323.390503
 10
400.9664
 20
323.60672
 10
401.814789
 20
323.747589
 10
402.689453
 20
323.79837
 10
403.564514
 20
323.750519
 10
404.414032
 20
323.612183
 10
405.216492
 20
323.397919
 10
405.963379
 20
323.12854
 10
406.647034
 20
322.824768
 10
407.263336
 20
322.505859
 10
407.808258
 20
322.189758
 10
408.27594
 20
321.89389
 10
408.658142
 20
321.635803
 10
408.944153
 20
321.433411
 10
409.12326
 20
321.302429
 10
409.186737
 20
321.255829
  0
ARC
  5
95
330
87
100
AcDbEntity
  8
0
  6
Continuous
 62
     0
370
    30
100
AcDbCircle
 10
414.185988
 20
321.343082
 30
0.0
 40
5.00000000000027
100
AcDbArc
 50
90.0
 51
181.0
  0
ARC
  5
96
330
87
100
AcDbEntity
  8
0
  6
Continuous
 62
     0
370
    30
100
AcDbCircle
 10
391.219374
 20
321.343082
 30
0.0
 40
4.999999999999952
100
AcDbArc
 50
359.0
 51
90.0
  0
LINE
  5
97
330
87
100
AcDbEntity
  8
0
  6
Continuous
 62
     0
370
    30
100
AcDbLine
 10
396.202687
 20
260.343082
 30
0.0
 11
409.202675
 21
260.343082
 31
0.0
  0
LINE
  5
98
330
87
100
AcDbEntity
  8
0
  6
Continuous
 62
     0
370
    30
100
AcDbLine
 10
409.202675
 20
260.343082
 30
0.0
 11
409.202675
 21
320.343082
 31
0.0
  0
LINE
  5
99
330
87
100
AcDbEntity
  8
0
  6
Continuous
 62
     0
370
    30
100
AcDbLine
 10
349.991665
 20
318.343083
 30
0.0
 11
349.991665
 21
378.343083
 31
0.0
  0
LINE
  5
9A
330
87
100
AcDbEntity
  8
0
  6
Continuous
 62
     0
370
    30
100
AcDbLine
 10
349.991664
 20
388.343083
 30
0.0
 11
349.991664
 21
378.343083
 31
0.0
  0
LINE
  5
9B
330
87
100
AcDbEntity
  8
0
  6
Continuous
 62
     0
370
    30
100
AcDbLine
 10
349.991664
 20
318.343083
 30
0.0
 11
349.991664
 21
308.343083
 31
0.0
  0
LINE
  5
9C
330
87
100
AcDbEntity
  8
0
  6
Continuous
 62
     0
370
    30
100
AcDbLine
 10
354.991664
 20
318.343083
 30
0.0
 11
354.991664
 21
308.343083
 31
0.0
  0
LINE
  5
9D
330
87
100
AcDbEntity
  8
0
  6
Continuous
 62
     0
370
    30
100
AcDbLine
 10
354.991664
 20
388.343083
 30
0.0
 11
354.991664
 21
378.343083
 31
0.0
  0
LINE
  5
9E
330
87
100
AcDbEntity
  8
0
  6
Continuous
 62
     0
370
    30
100
AcDbLine
 10
354.991665
 20
318.343083
 30
0.0
 11
354.991665
 21
378.343083
 31
0.0
  0
LINE
  5
9F
330
87
100
AcDbEntity
  8
0
  6
Continuous
 62
     0
370
     0
100
AcDbLine
 10
354.991665
 20
318.343083
 30
0.0
 11
349.991665
 21
318.343083
 31
0.0
  0
LINE
  5
A0
330
87
100
AcDbEntity
  8
0
  6
Continuous
 62
     0
370
    30
100
AcDbLine
 10
354.991664
 20
308.343083
 30
0.0
 11
349.991664
 21
308.343083
 31
0.0
  0
LINE
  5
A1
330
87
100
AcDbEntity
  8
0
  6
Continuous
 62
     0
370
    30
100
AcDbLine
 10
354.991664
 20
388.343083
 30
0.0
 11
349.991664
 21
388.343083
 31
0.0
  0
LINE
  5
A2
330
87
100
AcDbEntity
  8
0
  6
Continuous
 62
     0
370
     0
100
AcDbLine
 10
354.991665
 20
378.343083
 30
0.0
 11
349.991665
 21
378.343083
 31
0.0
  0
ARC
  5
A3
330
87
100
AcDbEntity
  8
0
  6
Continuous
 62
     0
370
    30
100
AcDbCircle
 10
383.98209
 20
348.435597
 30
0.0
 40
20.59810155464623
100
AcDbArc
 50
274.202807
 51
277.589788
  0
ARC
  5
A4
330
87
100
AcDbEntity
  8
0
  6
Continuous
 62
     0
370
    30
100
AcDbCircle
 10
383.991689
 20
348.343245
 30
0.0
 40
20.50496885893547
100
AcDbArc
 50
62.354454
 51
85.804966
  0
LINE
  5
A5
330
87
100
AcDbEntity
  8
0
  6
Continuous
 62
     0
370
    30
100
AcDbLine
 10
396.202687
 20
320.343082
 30
0.0
 11
396.202687
 21
260.343082
 31
0.0
  0
LINE
  5
A6
330
87
100
AcDbEntity
  8
0
  6
Continuous
 62
     0
370
    30
100
AcDbLine
 10
396.202681
 20
320.343082
 30
0.0
 11
396.218613
 21
321.25582
 31
0.0
  0
LINE
  5
A7
330
87
100
AcDbEntity
  8
0
  6
Continuous
 62
     0
370
    30
100
AcDbLine
 10
394.902882
 20
370.343082
 30
0.0
 11
417.702681
 21
370.343082
 31
0.0
  0
ARC
  5
A8
330
87
100
AcDbEntity
  8
0
  6
Continuous
 62
     0
370
    30
100
AcDbCircle
 10
384.491638
 20
327.143108
 30
0.0
 40
1.000025415542375
100
AcDbArc
 50
270.001456
 51
359.992814
  0
LINE
  5
A9
330
87
100
AcDbEntity
  8
0
  6
Continuous
 62
     0
370
    30
100
AcDbLine
 10
354.991663
 20
326.143083
 30
0.0
 11
384.491663
 21
326.143083
 31
0.0
  0
ENDBLK
  5
AB
330
87
100
AcDbEntity
  8
0
100
AcDbBlockEnd
  0
BLOCK
  5
D7
330
AD
100
AcDbEntity
  8
0
100
AcDbBlockBegin
  2
d
 70
     0
 10
148.717102
 20
81.54586
 30
0.0
  3
d
  1

  0
ELLIPSE
  5
AE
330
AD
100
AcDbEntity
  8
0
  6
Continuous
 62
     0
370
     0
100
AcDbEllipse
 10
364.356557
 20
169.401055
 30
0.0
 11
-12.81717626302651
 21
18.12622389364397
 31
0.0
210
0.0
220
0.0
230
-0.9999999999999998
 40
0.5
 41
0.9553166497931929
 42
3.145864132895039
  0
ELLIPSE
  5
AF
330
AD
100
AcDbEntity
  8
0
  6
Continuous
 62
     0
370
     0
100
AcDbEllipse
 10
364.356557
 20
169.401055
 30
0.0
 11
-12.81717626302651
 21
18.12622389364397
 31
0.0
210
0.0
220
0.0
230
-0.9999999999999998
 40
0.5
 41
6.279582399967344
 42
7.238501956972779
  0
ELLIPSE
  5
B0
330
AD
100
AcDbEntity
  8
0
  6
Continuous
 62
     0
370
    30
100
AcDbEllipse
 10
385.216208
 20
184.151056
 30
0.0
 11
12.81717626302651
 21
-18.12622389364397
 31
0.0
210
0.0
220
0.0
230
0.9999999999999998
 40
0.5
 41
2.1862760037966
 42
3.141592693951246
  0
ELLIPSE
  5
B1
330
AD
100
AcDbEntity
  8
0
  6
Continuous
 62
     0
370
    30
100
AcDbEllipse
 10
385.216208
 20
184.151056
 30
0.0
 11
12.81717626302651
 21
-18.12622389364397
 31
0.0
210
0.0
220
0.0
230
0.9999999999999998
 40
0.5
 41
0.0000000403614528
 42
2.1862760037966
  0
LWPOLYLINE
  5
B2
330
AD
100
AcDbEntity
  8
0
  6
Continuous
 62
     0
370
     0
100
AcDbPolyline
 90
       16
 70
     0
 43
0.0
 10
363.649445
 20
183.891724
 10
362.539581
 20
184.635376
 10
361.404694
 20
185.309967
 10
360.254303
 20
185.902924
 10
359.099121
 20
186.401993
 10
357.951019
 20
186.795807
 10
356.822723
 20
187.07428
 10
355.727325
 20
187.229187
 10
354.677979
 20
187.254532
 10
353.687225
 20
187.146942
 10
352.766785
 20
186.905838
 10
351.926788
 20
186.53363
 10
351.17572
 20
186.035507
 10
350.519867
 20
185.419296
 10
349.963379
 20
184.695068
 10
349.501099
 20
183.859634
  0
LWPOLYLINE
  5
B3
330
AD
100
AcDbEntity
  8
0
  6
Continuous
 62
     0
370
     0
100
AcDbPolyline
 90
       22
 70
     0
 43
0.0
 10
378.09903
 20
154.69249
 10
378.388214
 20
155.742645
 10
378.565399
 20
156.858932
 10
378.637512
 20
158.023605
 10
378.611694
 20
159.243713
 10
378.484619
 20
160.564499
 10
378.248596
 20
161.981644
 10
377.897583
 20
163.485611
 10
377.427887
 20
165.06369
 10
376.838501
 20
166.700226
 10
376.131378
 20
168.376923
 10
375.311615
 20
170.073456
 10
374.387512
 20
171.768234
 10
373.370117
 20
173.439285
 10
372.27301
 20
175.065201
 10
371.111511
 20
176.626022
 10
369.902161
 20
178.10408
 10
368.661896
 20
179.484543
 10
367.407288
 20
180.75589
 10
366.154022
 20
181.910004
 10
364.916351
 20
182.942245
 10
363.649445
 20
183.891724
  0
LWPOLYLINE
  5
B4
330
AD
100
AcDbEntity
  8
0
  6
Continuous
 62
     0
370
    30
100
AcDbPolyline
 90
       17
 70
     0
 43
0.0
 10
351.499573
 20
185.333588
 10
352.166748
 20
185.809906
 10
352.922119
 20
186.183304
 10
353.762146
 20
186.444519
 10
354.681244
 20
186.586105
 10
355.671936
 20
186.602875
 10
356.724792
 20
186.492188
 10
357.82901
 20
186.254089
 10
358.972473
 20
185.891418
 10
360.142456
 20
185.409637
 10
361.325958
 20
184.816605
 10
362.510101
 20
184.122208
 10
363.682739
 20
183.337952
 10
364.832642
 20
182.476395
 10
365.949921
 20
181.550674
 10
367.026123
 20
180.574081
 10
368.107758
 20
179.504578
  0
LWPOLYLINE
  5
B5
330
AD
100
AcDbEntity
  8
0
  6
Continuous
 62
     0
370
    30
100
AcDbPolyline
 90
       16
 70
     0
 43
0.0
 10
368.107758
 20
179.504578
 10
369.203247
 20
178.325348
 10
370.294281
 20
177.045807
 10
371.367218
 20
175.67247
 10
372.40741
 20
174.214905
 10
373.399506
 20
172.685745
 10
374.328125
 20
171.10051
 10
375.178528
 20
169.477219
 10
375.937195
 20
167.835754
 10
376.59259
 20
166.197144
 10
377.135712
 20
164.582687
 10
377.560425
 20
163.012985
 10
377.863708
 20
161.507111
 10
378.045776
 20
160.081909
 10
378.109741
 20
158.751343
 10
378.05954
 20
157.505661
  0
LWPOLYLINE
  5
B6
330
AD
100
AcDbEntity
  8
0
  6
Continuous
 62
     0
370
    30
100
AcDbPolyline
 90
        9
 70
     0
 43
0.0
 10
375.494843
 20
150.332626
 10
376.148163
 20
150.874466
 10
376.717041
 20
151.512665
 10
377.199341
 20
152.238434
 10
377.594452
 20
153.041885
 10
377.903412
 20
153.912415
 10
378.12851
 20
154.839081
 10
378.273193
 20
155.810852
 10
378.344971
 20
156.924454
  0
LWPOLYLINE
  5
B7
330
AD
100
AcDbEntity
  8
0
  6
Continuous
 62
     0
370
    30
100
AcDbPolyline
 90
       40
 70
     0
 43
0.0
 10
340.872833
 20
137.239197
 10
342.01651
 20
136.47258
 10
343.185822
 20
135.776566
 10
344.371185
 20
135.16394
 10
345.561707
 20
134.647125
 10
346.7453
 20
134.237732
 10
347.909088
 20
133.946045
 10
349.039764
 20
133.780518
 10
350.123993
 20
133.747345
 10
351.148895
 20
133.850128
 10
352.1026
 20
134.089569
 10
352.974579
 20
134.46347
 10
353.756195
 20
134.966751
 10
354.440765
 20
135.591629
 10
355.023926
 20
136.328079
 10
355.503601
 20
137.164185
 10
355.879913
 20
138.0867
 10
356.154999
 20
139.081589
 10
356.332764
 20
140.134552
 10
356.418671
 20
141.231506
 10
356.418915
 20
142.367508
 10
356.333527
 20
143.585419
 10
356.156311
 20
144.889328
 10
355.881836
 20
146.272781
 10
355.506134
 20
147.727066
 10
355.027069
 20
149.241226
 10
354.444489
 20
150.80217
 10
353.760529
 20
152.39505
 10
352.979462
 20
154.003632
 10
352.107971
 20
155.610779
 10
351.154755
 20
157.199127
 10
350.130219
 20
158.751602
 10
349.046326
 20
160.25209
 10
347.915863
 20
161.68602
 10
346.752228
 20
163.04068
 10
345.568726
 20
164.30571
 10
344.378204
 20
165.473114
 10
343.19278
 20
166.537476
 10
342.023346
 20
167.495758
 10
340.872833
 20
168.351898
  0
LWPOLYLINE
  5
B8
330
AD
100
AcDbEntity
  8
0
  6
Continuous
 62
     0
370
    30
100
AcDbPolyline
 90
       40
 70
     0
 43
0.0
 10
340.872833
 20
168.351898
 10
339.729126
 20
169.1185
 10
338.559814
 20
169.814514
 10
337.374451
 20
170.427155
 10
336.183929
 20
170.94397
 10
335.000336
 20
171.353363
 10
333.836548
 20
171.64505
 10
332.705872
 20
171.810577
 10
331.621643
 20
171.843735
 10
330.596741
 20
171.740967
 10
329.643066
 20
171.501526
 10
328.771057
 20
171.127609
 10
327.989471
 20
170.624344
 10
327.304871
 20
169.999451
 10
326.72171
 20
169.263
 10
326.242035
 20
168.42691
 10
325.865723
 20
167.504395
 10
325.590668
 20
166.509506
 10
325.412872
 20
165.456528
 10
325.326965
 20
164.359589
 10
325.326721
 20
163.223572
 10
325.412109
 20
162.005676
 10
325.589325
 20
160.701767
 10
325.863831
 20
159.318314
 10
326.239502
 20
157.864014
 10
326.718567
 20
156.349869
 10
327.301147
 20
154.788925
 10
327.985138
 20
153.19603
 10
328.766174
 20
151.587463
 10
329.637665
 20
149.980301
 10
330.590912
 20
148.391968
 10
331.615417
 20
146.839493
 10
332.699341
 20
145.338989
 10
333.829773
 20
143.905075
 10
334.993408
 20
142.5504
 10
336.17691
 20
141.285385
 10
337.367432
 20
140.117981
 10
338.552856
 20
139.053619
 10
339.722321
 20
138.095337
 10
340.872833
 20
137.239197
  0
LWPOLYLINE
  5
B9
330
AD
100
AcDbEntity
  8
0
  6
Continuous
 62
     0
370
    30
100
AcDbPolyline
 90
       31
 70
     0
 43
0.0
 10
378.344971
 20
156.924454
 10
377.85968
 20
157.885773
 10
377.269836
 20
158.920273
 10
376.579559
 20
160.020554
 10
375.794586
 20
161.176773
 10
374.9198
 20
162.381042
 10
373.958496
 20
163.628616
 10
372.914948
 20
164.913544
 10
371.794769
 20
166.227753
 10
370.604645
 20
167.562469
 10
369.352692
 20
168.907913
 10
368.046997
 20
170.254395
 10
366.695618
 20
171.592926
 10
365.307343
 20
172.91394
 10
363.892212
 20
174.206985
 10
362.462341
 20
175.460373
 10
361.029663
 20
176.662888
 10
359.604492
 20
177.805496
 10
358.198486
 20
178.878555
 10
356.824646
 20
179.871704
 10
355.495575
 20
180.775345
 10
354.222961
 20
181.582169
 10
353.018188
 20
182.285385
 10
351.889954
 20
182.880249
 10
350.845428
 20
183.363663
 10
349.89267
 20
183.73291
 10
349.038696
 20
183.98613
 10
348.288116
 20
184.12352
 10
347.64444
 20
184.145828
 10
347.110474
 20
184.054581
 10
346.686096
 20
183.85054
  0
ELLIPSE
  5
BA
330
AD
100
AcDbEntity
  8
0
  6
Continuous
 62
     0
370
    30
100
AcDbEllipse
 10
351.479423
 20
98.070151
 30
0.0
 11
-6.49999415358911
 21
1.251449782971798E-7
 31
0.0
210
0.0
220
0.0
230
0.9999999999999999
 40
0.707107
 41
0.78539817701144
 42
3.141592674491457
  0
ELLIPSE
  5
BB
330
AD
100
AcDbEntity
  8
0
  6
Continuous
 62
     0
370
    30
100
AcDbEllipse
 10
351.479423
 20
98.070151
 30
0.0
 11
-6.49999415358911
 21
1.251449782971798E-7
 31
0.0
210
0.0
220
0.0
230
0.9999999999999999
 40
0.707107
 41
0.0000000209016608
 42
0.78539817701144
  0
ELLIPSE
  5
BC
330
AD
100
AcDbEntity
  8
0
  6
Continuous
 62
     0
370
    30
100
AcDbEllipse
 10
367.538538
 20
222.864259
 30
0.0
 11
5.773502821183116
 21
-8.164965717857646
 31
0.0
210
0.0
220
0.0
230
0.9999999999999998
 40
0.5
 41
2.186276003796601
 42
3.141592693951246
  0
LINE
  5
BD
330
AD
100
AcDbEntity
  8
0
  6
Continuous
 62
     0
370
    30
100
AcDbLine
 10
367.538538
 20
229.935327
 30
0.0
 11
409.964945
 21
199.935326
 31
0.0
  0
ELLIPSE
  5
BE
330
AD
100
AcDbEntity
  8
0
  6
Continuous
 62
     0
370
    30
100
AcDbEllipse
 10
409.964945
 20
192.864258
 30
0.0
 11
5.773502821183116
 21
-8.164965717857646
 31
0.0
210
0.0
220
0.0
230
0.9999999999999998
 40
0.5
 41
0.6154796770017033
 42
2.186276003796601
  0
LINE
  5
BF
330
AD
100
AcDbEntity
  8
0
  6
Continuous
 62
     0
370
    30
100
AcDbLine
 10
417.036013
 20
187.864258
 30
0.0
 11
417.036013
 21
145.437852
 31
0.0
  0
ELLIPSE
  5
C0
330
AD
100
AcDbEntity
  8
0
  6
Continuous
 62
     0
370
    30
100
AcDbEllipse
 10
409.964945
 20
150.437853
 30
0.0
 11
5.773502821183116
 21
-8.164965717857646
 31
0.0
210
0.0
220
0.0
230
0.9999999999999998
 40
0.5
 41
0.0000000403614528
 42
0.6154796770017033
  0
LINE
  5
C1
330
AD
100
AcDbEntity
  8
0
  6
Continuous
 62
     0
370
     0
100
AcDbLine
 10
413.500479
 20
185.364258
 30
0.0
 11
417.036013
 21
187.864258
 31
0.0
  0
LINE
  5
C2
330
AD
100
AcDbEntity
  8
0
  6
Continuous
 62
     0
370
     0
100
AcDbLine
 10
406.429411
 20
197.435326
 30
0.0
 11
409.964945
 21
199.935326
 31
0.0
  0
ELLIPSE
  5
C3
330
AD
100
AcDbEntity
  8
0
  6
Continuous
 62
     0
370
    30
100
AcDbEllipse
 10
406.429411
 20
190.364258
 30
0.0
 11
5.773502821183116
 21
-8.164965717857646
 31
0.0
210
0.0
220
0.0
230
0.9999999999999998
 40
0.5
 41
0.6154796770017024
 42
2.186276003796601
  0
LINE
  5
C4
330
AD
100
AcDbEntity
  8
0
  6
Continuous
 62
     0
370
    30
100
AcDbLine
 10
406.429411
 20
140.866785
 30
0.0
 11
384.441974
 21
156.414252
 31
0.0
  0
ELLIPSE
  5
C5
330
AD
100
AcDbEntity
  8
0
  6
Continuous
 62
     0
370
    30
100
AcDbEllipse
 10
406.429411
 20
147.937853
 30
0.0
 11
5.773502821183116
 21
-8.164965717857646
 31
0.0
210
0.0
220
0.0
230
0.9999999999999998
 40
0.5
 41
5.327868657386393
 42
6.898664984181289
  0
LINE
  5
C6
330
AD
100
AcDbEntity
  8
0
  6
Continuous
 62
     0
370
    30
100
AcDbLine
 10
413.500479
 20
185.364258
 30
0.0
 11
413.500479
 21
142.937852
 31
0.0
  0
LINE
  5
C7
330
AD
100
AcDbEntity
  8
0
  6
Continuous
 62
     0
370
    30
100
AcDbLine
 10
364.003004
 20
227.435327
 30
0.0
 11
406.429411
 21
197.435326
 31
0.0
  0
ELLIPSE
  5
C8
330
AD
100
AcDbEntity
  8
0
  6
Continuous
 62
     0
370
    30
100
AcDbEllipse
 10
364.003004
 20
220.364259
 30
0.0
 11
5.773502821183116
 21
-8.164965717857646
 31
0.0
210
0.0
220
0.0
230
0.9999999999999998
 40
0.5
 41
2.1862760037966
 42
3.757072330591497
  0
LINE
  5
C9
330
AD
100
AcDbEntity
  8
0
  6
Continuous
 62
     0
370
    30
100
AcDbLine
 10
356.931936
 20
191.34039
 30
0.0
 11
356.931936
 21
225.364259
 31
0.0
  0
LINE
  5
CA
330
AD
100
AcDbEntity
  8
0
  6
Continuous
 62
     0
370
     0
100
AcDbLine
 10
413.500479
 20
142.937852
 30
0.0
 11
417.036013
 21
145.437852
 31
0.0
  0
LINE
  5
CB
330
AD
100
AcDbEntity
  8
0
  6
Continuous
 62
     0
370
     0
100
AcDbLine
 10
364.003004
 20
227.435327
 30
0.0
 11
367.538538
 21
229.935327
 31
0.0
  0
LINE
  5
CC
330
AD
100
AcDbEntity
  8
0
  6
Continuous
 62
     0
370
    30
100
AcDbLine
 10
361.765035
 20
231.029225
 30
0.0
 11
358.229501
 21
228.529225
 31
0.0
  0
LINE
  5
CD
330
AD
100
AcDbEntity
  8
0
  6
Continuous
 62
     0
370
    30
100
AcDbLine
 10
415.738448
 20
142.272887
 30
0.0
 11
412.202914
 21
139.772887
 31
0.0
  0
LWPOLYLINE
  5
CE
330
AD
100
AcDbEntity
  8
0
  6
Continuous
 62
     0
370
    30
100
AcDbPolyline
 90
        3
 70
     0
 43
0.0
 10
351.499573
 20
185.333588
 10
351.128143
 20
185.013046
 10
349.826385
 20
183.755493
  0
LINE
  5
CF
330
AD
100
AcDbEntity
  8
0
  6
Continuous
 62
     0
370
    30
100
AcDbLine
 10
344.979429
 20
134.887208
 30
0.0
 11
344.979428
 21
98.070151
 31
0.0
  0
LINE
  5
D0
330
AD
100
AcDbEntity
  8
0
  6
Continuous
 62
     0
370
    30
100
AcDbLine
 10
357.979417
 20
137.947346
 30
0.0
 11
357.979417
 21
98.070151
 31
0.0
  0
LINE
  5
D1
330
AD
100
AcDbEntity
  8
0
  6
Continuous
 62
     0
370
    30
100
AcDbLine
 10
375.494839
 20
150.33262
 30
0.0
 11
353.574529
 21
134.83262
 31
0.0
  0
LINE
  5
D2
330
AD
100
AcDbEntity
  8
0
  6
Continuous
 62
     0
370
    30
100
AcDbLine
 10
346.686214
 20
183.850621
 30
0.0
 11
328.171115
 21
170.758469
 31
0.0
  0
LWPOLYLINE
  5
D3
330
AD
100
AcDbEntity
  8
0
  6
Continuous
 62
     0
370
    30
100
AcDbPolyline
 90
        3
 70
     0
 43
0.0
 10
375.73584
 20
150.513107
 10
376.310455
 20
150.762253
 10
377.174225
 20
151.275192
  0
LWPOLYLINE
  5
D4
330
AD
100
AcDbEntity
  8
0
  6
Continuous
 62
     0
370
    30
100
AcDbPolyline
 90
        6
 70
     0
 43
0.0
 10
351.538879
 20
187.526901
 10
350.901611
 20
187.010864
 10
350.330383
 20
186.411896
 10
349.830597
 20
185.73761
 10
349.404541
 20
184.994446
 10
348.983795
 20
183.999268
  0
LINE
  5
D5
330
AD
100
AcDbEntity
  8
0
  6
Continuous
 62
     0
370
    30
100
AcDbLine
 10
372.399031
 20
202.277279
 30
0.0
 11
351.539381
 21
187.527279
 31
0.0
  0
LINE
  5
D6
330
AD
100
AcDbEntity
  8
0
  6
Continuous
 62
     0
370
    30
100
AcDbLine
 10
398.033384
 20
166.024832
 30
0.0
 11
377.173734
 21
151.274832
 31
0.0
  0
ENDBLK
  5
D8
330
AD
100
AcDbEntity
  8
0
100
AcDbBlockEnd
  0
BLOCK
  5
FD
330
DA
100
AcDbEntity
  8
0
100
AcDbBlockBegin
  2
e
 70
     0
 10
113.930771
 20
0.0
 30
0.0
  3
e
  1

  0
LINE
  5
DB
330
DA
100
AcDbEntity
  8
0
  6
Continuous
 62
     0
370
     0
100
AcDbLine
 10
56.249885
 20
370.543091
 30
0.0
 11
56.249885
 21
326.143091
 31
0.0
  0
LINE
  5
DC
330
DA
100
AcDbEntity
  8
0
  6
Continuous
 62
     0
370
    30
100
AcDbLine
 10
85.749885
 20
370.543091
 30
0.0
 11
56.249885
 21
370.543091
 31
0.0
  0
LINE
  5
DD
330
DA
100
AcDbEntity
  8
0
  6
Continuous
 62
     0
370
    30
100
AcDbLine
 10
55.249885
 20
327.143091
 30
0.0
 11
55.249885
 21
369.543091
 31
0.0
  0
ARC
  5
DE
330
DA
100
AcDbEntity
  8
0
  6
Continuous
 62
     0
370
    30
100
AcDbCircle
 10
56.249885
 20
369.543091
 30
0.0
 40
1.000000000000457
100
AcDbArc
 50
90.0
 51
180.0
  0
LWPOLYLINE
  5
DF
330
DA
100
AcDbEntity
  8
0
  6
Continuous
 62
     0
370
    30
100
AcDbPolyline
 90
       20
 70
     0
 43
0.0
 10
54.038868
 20
326.343079
 10
54.038868
 20
326.404083
 10
54.038868
 20
326.593506
 10
54.038868
 20
326.919983
 10
54.038868
 20
327.390045
 10
54.038868
 20
328.007935
 10
54.038868
 20
328.774933
 10
54.038868
 20
329.68927
 10
54.038868
 20
330.745728
 10
54.038868
 20
331.935944
 10
54.038868
 20
333.248291
 10
54.038868
 20
334.668457
 10
54.038868
 20
336.17984
 10
54.038868
 20
337.764313
 10
54.038868
 20
339.40274
 10
54.038868
 20
341.075867
 10
54.038868
 20
342.764832
 10
54.038868
 20
344.451874
 10
54.038868
 20
346.120789
 10
54.038868
 20
347.813782
  0
LWPOLYLINE
  5
E0
330
DA
100
AcDbEntity
  8
0
  6
Continuous
 62
     0
370
    30
100
AcDbPolyline
 90
       39
 70
     0
 43
0.0
 10
23.038868
 20
326.343079
 10
23.038866
 20
326.405792
 10
23.038866
 20
326.600861
 10
23.038866
 20
326.937347
 10
23.038866
 20
327.422302
 10
23.038866
 20
328.060242
 10
23.038866
 20
328.852539
 10
23.038866
 20
329.797241
 10
23.038866
 20
330.888855
 10
23.038866
 20
332.118256
 10
23.038866
 20
333.473053
 10
23.038866
 20
334.937836
 10
23.038866
 20
336.494904
 10
23.038866
 20
338.124878
 10
23.038866
 20
339.807434
 10
23.038866
 20
341.522217
 10
23.038866
 20
343.24939
 10
23.038866
 20
344.970428
 10
23.038866
 20
346.668518
 10
23.038866
 20
348.328918
 10
23.038866
 20
349.988556
 10
23.038866
 20
351.686096
 10
23.038866
 20
353.406891
 10
23.038866
 20
355.134125
 10
23.038866
 20
356.849274
 10
23.038866
 20
358.532562
 10
23.038866
 20
360.163605
 10
23.038866
 20
361.722107
 10
23.038866
 20
363.18866
 10
23.038866
 20
364.545502
 10
23.038866
 20
365.777191
 10
23.038866
 20
366.871277
 10
23.038866
 20
367.818573
 10
23.038866
 20
368.613556
 10
23.038866
 20
369.25415
 10
23.038866
 20
369.74173
 10
23.038866
 20
370.080719
 10
23.038866
 20
370.278137
 10
23.038868
 20
370.343079
  0
LINE
  5
E1
330
DA
100
AcDbEntity
  8
0
  6
Continuous
 62
     0
370
    30
100
AcDbLine
 10
54.038866
 20
347.813774
 30
0.0
 11
45.838762
 21
370.343089
 31
0.0
  0
LINE
  5
E2
330
DA
100
AcDbEntity
  8
0
  6
Continuous
 62
     0
370
    30
100
AcDbLine
 10
54.038867
 20
326.343089
 30
0.0
 11
49.522174
 21
326.343089
 31
0.0
  0
LINE
  5
E3
330
DA
100
AcDbEntity
  8
0
  6
Continuous
 62
     0
370
    30
100
AcDbLine
 10
26.55556
 20
326.343089
 30
0.0
 11
23.038867
 21
326.343089
 31
0.0
  0
LWPOLYLINE
  5
E4
330
DA
100
AcDbEntity
  8
0
  6
Continuous
 62
     0
370
     0
100
AcDbPolyline
 90
       32
 70
     0
 43
0.0
 10
26.555561
 20
326.343079
 10
26.631689
 20
326.368713
 10
26.851786
 20
326.443604
 10
27.207926
 20
326.562225
 10
27.688332
 20
326.716583
 10
28.275862
 20
326.897461
 10
28.956064
 20
327.095306
 10
29.715485
 20
327.3013
 10
30.543129
 20
327.507202
 10
31.42874
 20
327.705627
 10
32.362511
 20
327.889526
 10
33.336544
 20
328.052948
 10
34.343487
 20
328.190674
 10
35.376041
 20
328.298218
 10
36.426956
 20
328.372131
 10
37.488991
 20
328.410004
 10
38.55481
 20
328.410614
 10
39.617081
 20
328.373901
 10
40.668465
 20
328.301086
 10
41.701702
 20
328.19458
 10
42.70956
 20
328.05777
 10
43.684814
 20
327.89505
 10
44.619919
 20
327.711731
 10
45.506935
 20
327.513794
 10
46.337044
 20
327.307892
 10
47.100296
 20
327.101318
 10
47.783932
 20
326.902771
 10
48.37455
 20
326.721252
 10
48.857861
 20
326.566071
 10
49.218662
 20
326.44635
 10
49.443077
 20
326.370148
 10
49.522175
 20
326.343079
  0
LINE
  5
E5
330
DA
100
AcDbEntity
  8
0
  6
Continuous
 62
     0
370
    30
100
AcDbLine
 10
31.554799
 20
321.255827
 30
0.0
 11
31.538867
 21
320.343089
 31
0.0
  0
LINE
  5
E6
330
DA
100
AcDbEntity
  8
0
  6
Continuous
 62
     0
370
     0
100
AcDbLine
 10
44.538867
 20
320.343089
 30
0.0
 11
31.538867
 21
320.343089
 31
0.0
  0
LWPOLYLINE
  5
E7
330
DA
100
AcDbEntity
  8
0
  6
Continuous
 62
     0
370
     0
100
AcDbPolyline
 90
       25
 70
     0
 43
0.0
 10
31.554798
 20
321.255829
 10
31.614632
 20
321.299835
 10
31.790384
 20
321.428589
 10
32.073322
 20
321.628967
 10
32.452805
 20
321.885559
 10
32.918053
 20
322.180511
 10
33.460735
 20
322.496277
 10
34.074932
 20
322.815399
 10
34.756622
 20
323.119873
 10
35.501728
 20
323.390533
 10
36.302597
 20
323.60675
 10
37.150959
 20
323.747589
 10
38.025635
 20
323.79837
 10
38.900703
 20
323.750519
 10
39.750233
 20
323.612183
 10
40.552666
 20
323.397919
 10
41.299557
 20
323.128571
 10
41.983227
 20
322.824768
 10
42.599514
 20
322.505859
 10
43.144432
 20
322.189758
 10
43.61211
 20
321.89389
 10
43.994328
 20
321.635834
 10
44.280334
 20
321.433441
 10
44.459457
 20
321.302429
 10
44.522934
 20
321.255829
  0
ARC
  5
E8
330
DA
100
AcDbEntity
  8
0
  6
Continuous
 62
     0
370
    30
100
AcDbCircle
 10
26.55556
 20
321.343089
 30
0.0
 40
5.00000000000025
100
AcDbArc
 50
359.0
 51
90.0
  0
ARC
  5
E9
330
DA
100
AcDbEntity
  8
0
  6
Continuous
 62
     0
370
    30
100
AcDbCircle
 10
49.522174
 20
321.343089
 30
0.0
 40
5.000000000000006
100
AcDbArc
 50
90.0
 51
181.0
  0
LINE
  5
EA
330
DA
100
AcDbEntity
  8
0
  6
Continuous
 62
     0
370
    30
100
AcDbLine
 10
31.538873
 20
260.343089
 30
0.0
 11
44.538861
 21
260.343089
 31
0.0
  0
LINE
  5
EB
330
DA
100
AcDbEntity
  8
0
  6
Continuous
 62
     0
370
    30
100
AcDbLine
 10
31.538873
 20
260.343089
 30
0.0
 11
31.538873
 21
320.343089
 31
0.0
  0
LINE
  5
EC
330
DA
100
AcDbEntity
  8
0
  6
Continuous
 62
     0
370
    30
100
AcDbLine
 10
90.749884
 20
378.343091
 30
0.0
 11
90.749884
 21
388.343091
 31
0.0
  0
LINE
  5
ED
330
DA
100
AcDbEntity
  8
0
  6
Continuous
 62
     0
370
    30
100
AcDbLine
 10
90.749883
 20
378.343091
 30
0.0
 11
90.749883
 21
318.343091
 31
0.0
  0
LINE
  5
EE
330
DA
100
AcDbEntity
  8
0
  6
Continuous
 62
     0
370
    30
100
AcDbLine
 10
90.749884
 20
308.343091
 30
0.0
 11
90.749884
 21
318.343091
 31
0.0
  0
LINE
  5
EF
330
DA
100
AcDbEntity
  8
0
  6
Continuous
 62
     0
370
     0
100
AcDbLine
 10
85.749883
 20
378.343091
 30
0.0
 11
90.749883
 21
378.343091
 31
0.0
  0
LINE
  5
F0
330
DA
100
AcDbEntity
  8
0
  6
Continuous
 62
     0
370
    30
100
AcDbLine
 10
85.749884
 20
388.343091
 30
0.0
 11
90.749884
 21
388.343091
 31
0.0
  0
LINE
  5
F1
330
DA
100
AcDbEntity
  8
0
  6
Continuous
 62
     0
370
    30
100
AcDbLine
 10
85.749884
 20
378.343091
 30
0.0
 11
85.749884
 21
388.343091
 31
0.0
  0
LINE
  5
F2
330
DA
100
AcDbEntity
  8
0
  6
Continuous
 62
     0
370
    30
100
AcDbLine
 10
85.749884
 20
308.343091
 30
0.0
 11
85.749884
 21
318.343091
 31
0.0
  0
LINE
  5
F3
330
DA
100
AcDbEntity
  8
0
  6
Continuous
 62
     0
370
    30
100
AcDbLine
 10
85.749883
 20
378.343091
 30
0.0
 11
85.749883
 21
318.343091
 31
0.0
  0
LINE
  5
F4
330
DA
100
AcDbEntity
  8
0
  6
Continuous
 62
     0
370
    30
100
AcDbLine
 10
85.749884
 20
308.343091
 30
0.0
 11
90.749884
 21
308.343091
 31
0.0
  0
LINE
  5
F5
330
DA
100
AcDbEntity
  8
0
  6
Continuous
 62
     0
370
     0
100
AcDbLine
 10
85.749883
 20
318.343091
 30
0.0
 11
90.749883
 21
318.343091
 31
0.0
  0
ARC
  5
F6
330
DA
100
AcDbEntity
  8
0
  6
Continuous
 62
     0
370
    30
100
AcDbCircle
 10
56.759458
 20
348.435604
 30
0.0
 40
20.59810155465151
100
AcDbArc
 50
262.410212
 51
265.797193
  0
ARC
  5
F7
330
DA
100
AcDbEntity
  8
0
  6
Continuous
 62
     0
370
    30
100
AcDbCircle
 10
56.749859
 20
348.343253
 30
0.0
 40
20.50496885893597
100
AcDbArc
 50
94.195034
 51
117.645546
  0
LINE
  5
F8
330
DA
100
AcDbEntity
  8
0
  6
Continuous
 62
     0
370
    30
100
AcDbLine
 10
44.538861
 20
320.343089
 30
0.0
 11
44.538861
 21
260.343089
 31
0.0
  0
LINE
  5
F9
330
DA
100
AcDbEntity
  8
0
  6
Continuous
 62
     0
370
    30
100
AcDbLine
 10
44.538867
 20
320.343089
 30
0.0
 11
44.522935
 21
321.255827
 31
0.0
  0
LINE
  5
FA
330
DA
100
AcDbEntity
  8
0
  6
Continuous
 62
     0
370
    30
100
AcDbLine
 10
45.838666
 20
370.343089
 30
0.0
 11
23.038867
 21
370.343089
 31
0.0
  0
ARC
  5
FB
330
DA
100
AcDbEntity
  8
0
  6
Continuous
 62
     0
370
    30
100
AcDbCircle
 10
56.249911
 20
327.143116
 30
0.0
 40
1.000025415542419
100
AcDbArc
 50
180.007186
 51
269.998544
  0
LINE
  5
FC
330
DA
100
AcDbEntity
  8
0
  6
Continuous
 62
     0
370
    30
100
AcDbLine
 10
85.749885
 20
326.143091
 30
0.0
 11
56.249885
 21
326.143091
 31
0.0
  0
ENDBLK
  5
FE
330
DA
100
AcDbEntity
  8
0
100
AcDbBlockEnd
  0
ENDSEC
  0
SECTION
  2
ENTITIES
  0
INSERT
  5
65
330
1F
100
AcDbEntity
  8
0
  6
Continuous
 62
   250
370
     0
100
AcDbBlockReference
  2
a
 10
148.717102
 20
81.54586
 30
0.0
  0
INSERT
  5
86
330
1F
100
AcDbEntity
  8
0
  6
Continuous
 62
   250
370
     0
100
AcDbBlockReference
  2
b
 10
148.717102
 20
81.54586
 30
0.0
  0
INSERT
  5
AC
330
1F
100
AcDbEntity
  8
0
  6
Continuous
 62
   250
370
     0
100
AcDbBlockReference
  2
c
 10
148.717102
 20
124.729652
 30
0.0
  0
INSERT
  5
D9
330
1F
100
AcDbEntity
  8
0
  6
Continuous
 62
   250
370
     0
100
AcDbBlockReference
  2
d
 10
148.717102
 20
81.54586
 30
0.0
  0
INSERT
  5
FF
330
1F
100
AcDbEntity
  8
0
  6
Continuous
 62
   250
370
     0
100
AcDbBlockReference
  2
e
 10
113.930771
 20
0.0
 30
0.0
  0
ENDSEC
  0
SECTION
  2
OBJECTS
  0
DICTIONARY
  5
C
330
0
100
AcDbDictionary
281
     1
  3
ACAD_GROUP
350
D
  3
ACAD_LAYOUT
350
1A
  3
ACAD_MLEADERSTYLE
350
102
  3
ACAD_MLINESTYLE
350
17
  3
ACAD_PLOTSETTINGS
350
19
  3
ACAD_PLOTSTYLENAME
350
E
  3
ACAD_VISUALSTYLE
350
2A
  3
AcDbVariableDictionary
350
100
  0
DICTIONARY
  5
D
102
{ACAD_REACTORS
330
C
102
}
330
C
100
AcDbDictionary
281
     1
  0
DICTIONARY
  5
1A
102
{ACAD_REACTORS
330
C
102
}
330
C
100
AcDbDictionary
281
     1
  3
Layout1
350
1E
  3
Layout2
350
26
  3
Model
350
22
  0
DICTIONARY
  5
102
102
{ACAD_REACTORS
330
C
102
}
330
C
100
AcDbDictionary
281
     1
  0
DICTIONARY
  5
17
102
{ACAD_REACTORS
330
C
102
}
330
C
100
AcDbDictionary
281
     1
  3
Standard
350
18
  0
DICTIONARY
  5
19
102
{ACAD_REACTORS
330
C
102
}
330
C
100
AcDbDictionary
281
     1
  0
ACDBDICTIONARYWDFLT
  5
E
102
{ACAD_REACTORS
330
C
102
}
330
C
100
AcDbDictionary
281
     1
  3
Normal
350
F
100
AcDbDictionaryWithDefault
340
F
  0
DICTIONARY
  5
2A
102
{ACAD_REACTORS
330
C
102
}
330
C
100
AcDbDictionary
281
     1
  3
2dWireframe
350
2F
  3
3D Hidden
350
31
  3
3dWireframe
350
30
  3
Basic
350
32
  3
Brighten
350
36
  3
ColorChange
350
3A
  3
Conceptual
350
34
  3
Dim
350
35
  3
Facepattern
350
39
  3
Flat
350
2B
  3
FlatWithEdges
350
2C
  3
Gouraud
350
2D
  3
GouraudWithEdges
350
2E
  3
Linepattern
350
38
  3
Realistic
350
33
  3
Thicken
350
37
  0
DICTIONARY
  5
100
102
{ACAD_REACTORS
330
C
102
}
330
C
100
AcDbDictionary
281
     1
  3
PSOLHEIGHT
350
104
  3
PSOLWIDTH
350
103
  0
LAYOUT
  5
1E
102
{ACAD_REACTORS
330
1A
102
}
330
1A
100
AcDbPlotSettings
  1

  2
none_device
  4

  6

 40
0.0
 41
0.0
 42
0.0
 43
0.0
 44
0.0
 45
0.0
 46
0.0
 47
0.0
 48
0.0
 49
0.0
140
0.0
141
0.0
142
1.0
143
1.0
 70
   688
 72
     0
 73
     0
 74
     5
  7

 75
    16
147
1.0
148
0.0
149
0.0
100
AcDbLayout
  1
Layout1
 70
     1
 71
     1
 10
0.0
 20
0.0
 11
420.0
 21
297.0
 12
0.0
 22
0.0
 32
0.0
 14
1.000000E+20
 24
1.000000E+20
 34
1.000000E+20
 15
-1.000000E+20
 25
-1.000000E+20
 35
-1.000000E+20
146
0.0
 13
0.0
 23
0.0
 33
0.0
 16
1.0
 26
0.0
 36
0.0
 17
0.0
 27
1.0
 37
0.0
 76
     0
330
1B
  0
LAYOUT
  5
26
102
{ACAD_REACTORS
330
1A
102
}
330
1A
100
AcDbPlotSettings
  1

  2
none_device
  4

  6

 40
0.0
 41
0.0
 42
0.0
 43
0.0
 44
0.0
 45
0.0
 46
0.0
 47
0.0
 48
0.0
 49
0.0
140
0.0
141
0.0
142
1.0
143
1.0
 70
   688
 72
     0
 73
     0
 74
     5
  7

 75
    16
147
1.0
148
0.0
149
0.0
100
AcDbLayout
  1
Layout2
 70
     1
 71
     2
 10
0.0
 20
0.0
 11
0.0
 21
0.0
 12
0.0
 22
0.0
 32
0.0
 14
0.0
 24
0.0
 34
0.0
 15
0.0
 25
0.0
 35
0.0
146
0.0
 13
0.0
 23
0.0
 33
0.0
 16
1.0
 26
0.0
 36
0.0
 17
0.0
 27
1.0
 37
0.0
 76
     0
330
23
  0
LAYOUT
  5
22
102
{ACAD_REACTORS
330
1A
102
}
330
1A
100
AcDbPlotSettings
  1

  2
none_device
  4

  6

 40
0.0
 41
0.0
 42
0.0
 43
0.0
 44
0.0
 45
0.0
 46
0.0
 47
0.0
 48
0.0
 49
0.0
140
0.0
141
0.0
142
1.0
143
1.0
 70
  1712
 72
     0
 73
     0
 74
     0
  7

 75
     0
147
1.0
148
0.0
149
0.0
100
AcDbLayout
  1
Model
 70
     1
 71
     0
 10
23.038866
 20
76.370598
 11
417.702667
 21
388.343109
 12
0.0
 22
0.0
 32
0.0
 14
23.038866
 24
76.370598
 34
0.0
 15
417.702667
 25
388.343109
 35
0.0
146
0.0
 13
0.0
 23
0.0
 33
0.0
 16
1.0
 26
0.0
 36
0.0
 17
0.0
 27
1.0
 37
0.0
 76
     0
330
1F
331
29
  0
MLINESTYLE
  5
18
102
{ACAD_REACTORS
330
17
102
}
330
17
100
AcDbMlineStyle
  2
Standard
 70
     0
  3

 62
   256
 51
90.0
 52
90.0
 71
     2
 49
0.5
 62
   256
  6
BYLAYER
 49
-0.5
 62
   256
  6
BYLAYER
  0
ACDBPLACEHOLDER
  5
F
102
{ACAD_REACTORS
330
E
102
}
330
E
  0
VISUALSTYLE
  5
2F
102
{ACAD_REACTORS
330
2A
102
}
330
2A
100
AcDbVisualStyle
  2
2dWireframe
 70
     4
 71
     0
 72
     2
 73
     0
 90
        0
 40
-0.6
 41
-30.0
 62
     5
 63
     7
 74
     1
 91
        4
 64
     7
 65
   257
 75
     1
175
     1
 42
1.0
 92
        0
 66
   257
 43
1.0
 76
     1
 77
     6
 78
     2
 67
     7
 79
     5
170
     0
171
     0
290
     0
174
     0
 93
        1
 44
0.0
173
     0
291
     0
 45
0.0
1001
ACAD
1000
AcDbSavedByObjectVersion
1070
     0
  0
VISUALSTYLE
  5
31
102
{ACAD_REACTORS
330
2A
102
}
330
2A
100
AcDbVisualStyle
  2
3D Hidden
 70
     6
 71
     1
 72
     2
 73
     2
 90
        0
 40
-0.6
 41
-30.0
 62
     5
 63
     7
 74
     2
 91
        2
 64
     7
 65
   257
 75
     2
175
     1
 42
40.0
 92
        0
 66
   257
 43
1.0
 76
     1
 77
     6
 78
     2
 67
     7
 79
     3
170
     0
171
     0
290
     0
174
     0
 93
        1
 44
0.0
173
     0
291
     0
 45
0.0
1001
ACAD
1000
AcDbSavedByObjectVersion
1070
     0
  0
VISUALSTYLE
  5
30
102
{ACAD_REACTORS
330
2A
102
}
330
2A
100
AcDbVisualStyle
  2
3dWireframe
 70
     5
 71
     0
 72
     2
 73
     0
 90
        0
 40
-0.6
 41
-30.0
 62
     5
 63
     7
 74
     1
 91
        4
 64
     7
 65
   257
 75
     1
175
     1
 42
1.0
 92
        0
 66
   257
 43
1.0
 76
     1
 77
     6
 78
     2
 67
     7
 79
     5
170
     0
171
     0
290
     0
174
     0
 93
        1
 44
0.0
173
     0
291
     0
 45
0.0
1001
ACAD
1000
AcDbSavedByObjectVersion
1070
     0
  0
VISUALSTYLE
  5
32
102
{ACAD_REACTORS
330
2A
102
}
330
2A
100
AcDbVisualStyle
  2
Basic
 70
     7
 71
     1
 72
     0
 73
     1
 90
        0
 40
-0.6
 41
-30.0
 62
     5
 63
     7
 74
     0
 91
        4
 64
     7
 65
   257
 75
     1
175
     1
 42
1.0
 92
        8
 66
     7
 43
1.0
 76
     1
 77
     6
 78
     2
 67
     7
 79
     5
170
     0
171
     0
290
     0
174
     0
 93
        1
 44
0.0
173
     0
291
     1
 45
0.0
1001
ACAD
1000
AcDbSavedByObjectVersion
1070
     0
  0
VISUALSTYLE
  5
36
102
{ACAD_REACTORS
330
2A
102
}
330
2A
100
AcDbVisualStyle
  2
Brighten
 70
    12
 71
     2
 72
     2
 73
     0
 90
        0
 40
-0.6
 41
-30.0
 62
     5
 63
     7
 74
     1
 91
        4
 64
     7
 65
   257
 75
     1
175
     1
 42
1.0
 92
        8
 66
     7
 43
1.0
 76
     1
 77
     6
 78
     2
 67
     7
 79
     5
170
     0
171
     0
290
     0
174
     0
 93
        1
 44
50.0
173
     0
291
     1
 45
0.0
1001
ACAD
1000
AcDbSavedByObjectVersion
1070
     0
  0
VISUALSTYLE
  5
3A
102
{ACAD_REACTORS
330
2A
102
}
330
2A
100
AcDbVisualStyle
  2
ColorChange
 70
    16
 71
     2
 72
     2
 73
     3
 90
        0
 40
-0.6
 41
-30.0
 62
     5
 63
     8
 74
     1
 91
        4
 64
     7
 65
   257
 75
     1
175
     1
 42
1.0
 92
        8
 66
     8
 43
1.0
 76
     1
 77
     6
 78
     2
 67
     7
 79
     5
170
     0
171
     0
290
     0
174
     0
 93
        1
 44
0.0
173
     0
291
     1
 45
0.0
1001
ACAD
1000
AcDbSavedByObjectVersion
1070
     0
  0
VISUALSTYLE
  5
34
102
{ACAD_REACTORS
330
2A
102
}
330
2A
100
AcDbVisualStyle
  2
Conceptual
 70
     9
 71
     3
 72
     2
 73
     0
 90
        0
 40
-0.6
 41
-30.0
 62
     5
 63
     7
 74
     2
 91
        2
 64
     7
 65
   257
 75
     1
175
     1
 42
40.0
 92
        8
 66
     7
 43
1.0
 76
     1
 77
     6
 78
     2
 67
     7
 79
     3
170
     0
171
     0
290
     0
174
     0
 93
        1
 44
0.0
173
     0
291
     0
 45
0.0
1001
ACAD
1000
AcDbSavedByObjectVersion
1070
     0
  0
VISUALSTYLE
  5
35
102
{ACAD_REACTORS
330
2A
102
}
330
2A
100
AcDbVisualStyle
  2
Dim
 70
    11
 71
     2
 72
     2
 73
     0
 90
        0
 40
-0.6
 41
-30.0
 62
     5
 63
     7
 74
     1
 91
        4
 64
     7
 65
   257
 75
     1
175
     1
 42
1.0
 92
        8
 66
     7
 43
1.0
 76
     1
 77
     6
 78
     2
 67
     7
 79
     5
170
     0
171
     0
290
     0
174
     0
 93
        1
 44
-50.0
173
     0
291
     1
 45
0.0
1001
ACAD
1000
AcDbSavedByObjectVersion
1070
     0
  0
VISUALSTYLE
  5
39
102
{ACAD_REACTORS
330
2A
102
}
330
2A
100
AcDbVisualStyle
  2
Facepattern
 70
    15
 71
     2
 72
     2
 73
     0
 90
        0
 40
-0.6
 41
-30.0
 62
     5
 63
     7
 74
     1
 91
        4
 64
     7
 65
   257
 75
     1
175
     1
 42
1.0
 92
        8
 66
     7
 43
1.0
 76
     1
 77
     6
 78
     2
 67
     7
 79
     5
170
     0
171
     0
290
     0
174
     0
 93
        1
 44
0.0
173
     0
291
     1
 45
0.0
1001
ACAD
1000
AcDbSavedByObjectVersion
1070
     0
  0
VISUALSTYLE
  5
2B
102
{ACAD_REACTORS
330
2A
102
}
330
2A
100
AcDbVisualStyle
  2
Flat
 70
     0
 71
     2
 72
     1
 73
     1
 90
        2
 40
-0.6
 41
30.0
 62
     5
 63
     7
 74
     0
 91
        4
 64
     7
 65
   257
 75
     1
175
     1
 42
1.0
 92
        8
 66
     7
 43
1.0
 76
     1
 77
     6
 78
     2
 67
     7
 79
     5
170
     0
171
     0
290
     0
174
     0
 93
       13
 44
0.0
173
     0
291
     1
 45
0.0
1001
ACAD
1000
AcDbSavedByObjectVersion
1070
     0
  0
VISUALSTYLE
  5
2C
102
{ACAD_REACTORS
330
2A
102
}
330
2A
100
AcDbVisualStyle
  2
FlatWithEdges
 70
     1
 71
     2
 72
     1
 73
     1
 90
        2
 40
-0.6
 41
30.0
 62
     5
 63
     7
 74
     1
 91
        4
 64
     7
 65
   257
 75
     1
175
     1
 42
1.0
 92
        0
 66
   257
 43
1.0
 76
     1
 77
     6
 78
     2
 67
     7
 79
     5
170
     0
171
     0
290
     0
174
     0
 93
       13
 44
0.0
173
     0
291
     1
 45
0.0
1001
ACAD
1000
AcDbSavedByObjectVersion
1070
     0
  0
VISUALSTYLE
  5
2D
102
{ACAD_REACTORS
330
2A
102
}
330
2A
100
AcDbVisualStyle
  2
Gouraud
 70
     2
 71
     2
 72
     2
 73
     1
 90
        2
 40
-0.6
 41
30.0
 62
     5
 63
     7
 74
     0
 91
        4
 64
     7
 65
   257
 75
     1
175
     1
 42
1.0
 92
        0
 66
     7
 43
1.0
 76
     1
 77
     6
 78
     2
 67
     7
 79
     5
170
     0
171
     0
290
     0
174
     0
 93
       13
 44
0.0
173
     0
291
     1
 45
0.0
1001
ACAD
1000
AcDbSavedByObjectVersion
1070
     0
  0
VISUALSTYLE
  5
2E
102
{ACAD_REACTORS
330
2A
102
}
330
2A
100
AcDbVisualStyle
  2
GouraudWithEdges
 70
     3
 71
     2
 72
     2
 73
     1
 90
        2
 40
-0.6
 41
30.0
 62
     5
 63
     7
 74
     1
 91
        4
 64
     7
 65
   257
 75
     1
175
     1
 42
1.0
 92
        0
 66
   257
 43
1.0
 76
     1
 77
     6
 78
     2
 67
     7
 79
     5
170
     0
171
     0
290
     0
174
     0
 93
       13
 44
0.0
173
     0
291
     1
 45
0.0
1001
ACAD
1000
AcDbSavedByObjectVersion
1070
     0
  0
VISUALSTYLE
  5
38
102
{ACAD_REACTORS
330
2A
102
}
330
2A
100
AcDbVisualStyle
  2
Linepattern
 70
    14
 71
     2
 72
     2
 73
     0
 90
        0
 40
-0.6
 41
-30.0
 62
     5
 63
     7
 74
     1
 91
        4
 64
     7
 65
   257
 75
     7
175
     7
 42
1.0
 92
        8
 66
     7
 43
1.0
 76
     1
 77
     6
 78
     2
 67
     7
 79
     5
170
     0
171
     0
290
     0
174
     0
 93
        1
 44
0.0
173
     0
291
     1
 45
0.0
1001
ACAD
1000
AcDbSavedByObjectVersion
1070
     0
  0
VISUALSTYLE
  5
33
102
{ACAD_REACTORS
330
2A
102
}
330
2A
100
AcDbVisualStyle
  2
Realistic
 70
     8
 71
     2
 72
     2
 73
     0
 90
        0
 40
-0.6
 41
-30.0
 62
     5
 63
     7
 74
     1
 91
        0
 64
     7
 65
   257
 75
     1
175
     1
 42
1.0
 92
        8
 66
     8
 43
1.0
 76
     1
 77
     6
 78
     2
 67
     7
 79
     5
170
     0
171
     0
290
     0
174
     0
 93
       13
 44
0.0
173
     0
291
     0
 45
0.0
1001
ACAD
1000
AcDbSavedByObjectVersion
1070
     0
  0
VISUALSTYLE
  5
37
102
{ACAD_REACTORS
330
2A
102
}
330
2A
100
AcDbVisualStyle
  2
Thicken
 70
    13
 71
     2
 72
     2
 73
     0
 90
        0
 40
-0.6
 41
-30.0
 62
     5
 63
     7
 74
     1
 91
        4
 64
     7
 65
   257
 75
     1
175
     1
 42
1.0
 92
       12
 66
     7
 43
1.0
 76
     1
 77
     6
 78
     2
 67
     7
 79
     5
170
     0
171
     0
290
     0
174
     0
 93
        1
 44
0.0
173
     0
291
     1
 45
0.0
1001
ACAD
1000
AcDbSavedByObjectVersion
1070
     0
  0
DICTIONARYVAR
  5
104
102
{ACAD_REACTORS
330
100
102
}
330
100
100
DictionaryVariables
280
     0
  1
80.000000
  0
DICTIONARYVAR
  5
103
102
{ACAD_REACTORS
330
100
102
}
330
100
100
DictionaryVariables
280
     0
  1
5.000000
  0
ENDSEC
  0
EOF
