  0
SECTION
  2
HEADER
  9
$ACADVER
  1
AC1015
  9
$ACADMAINTVER
 70
     6
  9
$DWGCODEPAGE
  3
ANSI_1252
  9
$INSBASE
 10
0.0
 20
0.0
 30
0.0
  9
$EXTMIN
 10
169.516098
 20
139.364471
 30
0.0
  9
$EXTMAX
 10
549.677063
 20
499.273102
 30
0.0
  9
$LIMMIN
 10
169.516098
 20
139.364471
  9
$LIMMAX
 10
549.677063
 20
499.273102
  9
$ORTHOMODE
 70
     0
  9
$REGENMODE
 70
     1
  9
$FILLMODE
 70
     1
  9
$QTEXTMODE
 70
     0
  9
$MIRRTEXT
 70
     1
  9
$LTSCALE
 40
1.0
  9
$ATTMODE
 70
     1
  9
$TEXTSIZE
 40
2.5
  9
$TRACEWID
 40
1.0
  9
$TEXTSTYLE
  7
Standard
  9
$CLAYER
  8
0
  9
$CELTYPE
  6
ByLayer
  9
$CECOLOR
 62
   256
  9
$CELTSCALE
 40
1.0
  9
$DISPSILH
 70
     0
  9
$DIMSCALE
 40
1.0
  9
$DIMASZ
 40
2.5
  9
$DIMEXO
 40
0.625
  9
$DIMDLI
 40
3.75
  9
$DIMRND
 40
0.0
  9
$DIMDLE
 40
0.0
  9
$DIMEXE
 40
1.25
  9
$DIMTP
 40
0.0
  9
$DIMTM
 40
0.0
  9
$DIMTXT
 40
2.5
  9
$DIMCEN
 40
2.5
  9
$DIMTSZ
 40
0.0
  9
$DIMTOL
 70
     0
  9
$DIMLIM
 70
     0
  9
$DIMTIH
 70
     0
  9
$DIMTOH
 70
     0
  9
$DIMSE1
 70
     0
  9
$DIMSE2
 70
     0
  9
$DIMTAD
 70
     1
  9
$DIMZIN
 70
     8
  9
$DIMBLK
  1

  9
$DIMASO
 70
     1
  9
$DIMSHO
 70
     1
  9
$DIMPOST
  1

  9
$DIMAPOST
  1

  9
$DIMALT
 70
     0
  9
$DIMALTD
 70
     3
  9
$DIMALTF
 40
0.03937
  9
$DIMLFAC
 40
1.0
  9
$DIMTOFL
 70
     1
  9
$DIMTVP
 40
0.0
  9
$DIMTIX
 70
     0
  9
$DIMSOXD
 70
     0
  9
$DIMSAH
 70
     0
  9
$DIMBLK1
  1

  9
$DIMBLK2
  1

  9
$DIMSTYLE
  2
ISO-25
  9
$DIMCLRD
 70
     0
  9
$DIMCLRE
 70
     0
  9
$DIMCLRT
 70
     0
  9
$DIMTFAC
 40
1.0
  9
$DIMGAP
 40
0.625
  9
$DIMJUST
 70
     0
  9
$DIMSD1
 70
     0
  9
$DIMSD2
 70
     0
  9
$DIMTOLJ
 70
     0
  9
$DIMTZIN
 70
     8
  9
$DIMALTZ
 70
     0
  9
$DIMALTTZ
 70
     0
  9
$DIMUPT
 70
     0
  9
$DIMDEC
 70
     2
  9
$DIMTDEC
 70
     2
  9
$DIMALTU
 70
     2
  9
$DIMALTTD
 70
     3
  9
$DIMTXSTY
  7
Standard
  9
$DIMAUNIT
 70
     0
  9
$DIMADEC
 70
     0
  9
$DIMALTRND
 40
0.0
  9
$DIMAZIN
 70
     0
  9
$DIMDSEP
 70
    44
  9
$DIMATFIT
 70
     3
  9
$DIMFRAC
 70
     0
  9
$DIMLDRBLK
  1

  9
$DIMLUNIT
 70
     2
  9
$DIMLWD
 70
    -2
  9
$DIMLWE
 70
    -2
  9
$DIMTMOVE
 70
     0
  9
$LUNITS
 70
     2
  9
$LUPREC
 70
     4
  9
$SKETCHINC
 40
1.0
  9
$FILLETRAD
 40
10.0
  9
$AUNITS
 70
     0
  9
$AUPREC
 70
     0
  9
$MENU
  1
.
  9
$ELEVATION
 40
0.0
  9
$PELEVATION
 40
0.0
  9
$THICKNESS
 40
0.0
  9
$LIMCHECK
 70
     0
  9
$CHAMFERA
 40
10.0
  9
$CHAMFERB
 40
10.0
  9
$CHAMFERC
 40
20.0
  9
$CHAMFERD
 40
0.0
  9
$SKPOLY
 70
     0
  9
$TDCREATE
 40
2455554.658539005
  9
$TDUCREATE
 40
2455554.616872338
  9
$TDUPDATE
 40
2455554.658539016
  9
$TDUUPDATE
 40
2455554.61687235
  9
$TDINDWG
 40
0.0000000116
  9
$TDUSRTIMER
 40
0.0000000116
  9
$USRTIMER
 70
     1
  9
$ANGBASE
 50
0.0
  9
$ANGDIR
 70
     0
  9
$PDMODE
 70
     0
  9
$PDSIZE
 40
0.0
  9
$PLINEWID
 40
0.0
  9
$SPLFRAME
 70
     0
  9
$SPLINETYPE
 70
     6
  9
$SPLINESEGS
 70
     8
  9
$HANDSEED
  5
E2
  9
$SURFTAB1
 70
     6
  9
$SURFTAB2
 70
     6
  9
$SURFTYPE
 70
     6
  9
$SURFU
 70
     6
  9
$SURFV
 70
     6
  9
$UCSBASE
  2

  9
$UCSNAME
  2

  9
$UCSORG
 10
0.0
 20
0.0
 30
0.0
  9
$UCSXDIR
 10
1.0
 20
0.0
 30
0.0
  9
$UCSYDIR
 10
0.0
 20
1.0
 30
0.0
  9
$UCSORTHOREF
  2

  9
$UCSORTHOVIEW
 70
     0
  9
$UCSORGTOP
 10
0.0
 20
0.0
 30
0.0
  9
$UCSORGBOTTOM
 10
0.0
 20
0.0
 30
0.0
  9
$UCSORGLEFT
 10
0.0
 20
0.0
 30
0.0
  9
$UCSORGRIGHT
 10
0.0
 20
0.0
 30
0.0
  9
$UCSORGFRONT
 10
0.0
 20
0.0
 30
0.0
  9
$UCSORGBACK
 10
0.0
 20
0.0
 30
0.0
  9
$PUCSBASE
  2

  9
$PUCSNAME
  2

  9
$PUCSORG
 10
0.0
 20
0.0
 30
0.0
  9
$PUCSXDIR
 10
1.0
 20
0.0
 30
0.0
  9
$PUCSYDIR
 10
0.0
 20
1.0
 30
0.0
  9
$PUCSORTHOREF
  2

  9
$PUCSORTHOVIEW
 70
     0
  9
$PUCSORGTOP
 10
0.0
 20
0.0
 30
0.0
  9
$PUCSORGBOTTOM
 10
0.0
 20
0.0
 30
0.0
  9
$PUCSORGLEFT
 10
0.0
 20
0.0
 30
0.0
  9
$PUCSORGRIGHT
 10
0.0
 20
0.0
 30
0.0
  9
$PUCSORGFRONT
 10
0.0
 20
0.0
 30
0.0
  9
$PUCSORGBACK
 10
0.0
 20
0.0
 30
0.0
  9
$USERI1
 70
     0
  9
$USERI2
 70
     0
  9
$USERI3
 70
     0
  9
$USERI4
 70
     0
  9
$USERI5
 70
     0
  9
$USERR1
 40
0.0
  9
$USERR2
 40
0.0
  9
$USERR3
 40
0.0
  9
$USERR4
 40
0.0
  9
$USERR5
 40
0.0
  9
$WORLDVIEW
 70
     1
  9
$SHADEDGE
 70
     3
  9
$SHADEDIF
 70
    70
  9
$TILEMODE
 70
     1
  9
$MAXACTVP
 70
    64
  9
$PINSBASE
 10
0.0
 20
0.0
 30
0.0
  9
$PLIMCHECK
 70
     0
  9
$PEXTMIN
 10
1.000000E+20
 20
1.000000E+20
 30
1.000000E+20
  9
$PEXTMAX
 10
-1.000000E+20
 20
-1.000000E+20
 30
-1.000000E+20
  9
$PLIMMIN
 10
0.0
 20
0.0
  9
$PLIMMAX
 10
420.0
 20
297.0
  9
$UNITMODE
 70
     0
  9
$VISRETAIN
 70
     1
  9
$PLINEGEN
 70
     0
  9
$PSLTSCALE
 70
     1
  9
$TREEDEPTH
 70
  3020
  9
$CMLSTYLE
  2
Standard
  9
$CMLJUST
 70
     0
  9
$CMLSCALE
 40
20.0
  9
$PROXYGRAPHICS
 70
     1
  9
$MEASUREMENT
 70
     1
  9
$CELWEIGHT
370
    -1
  9
$ENDCAPS
280
     0
  9
$JOINSTYLE
280
     0
  9
$LWDISPLAY
290
     0
  9
$INSUNITS
 70
     4
  9
$HYPERLINKBASE
  1

  9
$STYLESHEET
  1

  9
$XEDIT
290
     1
  9
$CEPSNTYPE
380
     0
  9
$PSTYLEMODE
290
     1
  9
$FINGERPRINTGUID
  2
{51AABB27-6DA8-4CBF-A737-53C0624E7B1F}
  9
$VERSIONGUID
  2
{FAEB1C32-E019-11D5-929B-00C0DF256EC4}
  9
$EXTNAMES
290
     1
  9
$PSVPSCALE
 40
0.0
  9
$OLESTARTUP
290
     0
  0
ENDSEC
  0
SECTION
  2
CLASSES
  0
CLASS
  1
ACDBDICTIONARYWDFLT
  2
AcDbDictionaryWithDefault
  3
ObjectDBX Classes
 90
        0
280
     0
281
     0
  0
CLASS
  1
VISUALSTYLE
  2
AcDbVisualStyle
  3
ObjectDBX Classes
 90
     4095
280
     0
281
     0
  0
CLASS
  1
DICTIONARYVAR
  2
AcDbDictionaryVar
  3
ObjectDBX Classes
 90
        0
280
     0
281
     0
  0
CLASS
  1
ACDBPLACEHOLDER
  2
AcDbPlaceHolder
  3
ObjectDBX Classes
 90
        0
280
     0
281
     0
  0
CLASS
  1
LAYOUT
  2
AcDbLayout
  3
ObjectDBX Classes
 90
        0
280
     0
281
     0
  0
ENDSEC
  0
SECTION
  2
TABLES
  0
TABLE
  2
VPORT
  5
8
330
0
100
AcDbSymbolTable
 70
     1
  0
VPORT
  5
29
330
8
100
AcDbSymbolTableRecord
100
AcDbViewportTableRecord
  2
*Active
 70
     0
 10
0.0
 20
0.0
 11
1.0
 21
1.0
 12
344.186916
 22
148.5
 13
0.0
 23
0.0
 14
10.0
 24
10.0
 15
10.0
 25
10.0
 16
0.0
 26
0.0
 36
1.0
 17
0.0
 27
0.0
 37
0.0
 40
297.0
 41
1.972973
 42
50.0
 43
0.0
 44
0.0
 50
0.0
 51
0.0
 71
     0
 72
   100
 73
     1
 74
     3
 75
     0
 76
     0
 77
     0
 78
     0
281
     0
 65
     1
110
0.0
120
0.0
130
0.0
111
1.0
121
0.0
131
0.0
112
0.0
122
1.0
132
0.0
 79
     0
146
0.0
  0
ENDTAB
  0
TABLE
  2
LTYPE
  5
5
330
0
100
AcDbSymbolTable
 70
     1
  0
LTYPE
  5
14
330
5
100
AcDbSymbolTableRecord
100
AcDbLinetypeTableRecord
  2
ByBlock
 70
     0
  3

 72
    65
 73
     0
 40
0.0
  0
LTYPE
  5
15
330
5
100
AcDbSymbolTableRecord
100
AcDbLinetypeTableRecord
  2
ByLayer
 70
     0
  3

 72
    65
 73
     0
 40
0.0
  0
LTYPE
  5
16
330
5
100
AcDbSymbolTableRecord
100
AcDbLinetypeTableRecord
  2
Continuous
 70
     0
  3
Solid line
 72
    65
 73
     0
 40
0.0
  0
ENDTAB
  0
TABLE
  2
LAYER
  5
2
330
0
100
AcDbSymbolTable
 70
     1
  0
LAYER
  5
10
330
2
100
AcDbSymbolTableRecord
100
AcDbLayerTableRecord
  2
0
 70
     0
 62
   106
  6
Continuous
370
     0
390
F
  0
ENDTAB
  0
TABLE
  2
STYLE
  5
3
330
0
100
AcDbSymbolTable
 70
     4
  0
STYLE
  5
11
330
3
100
AcDbSymbolTableRecord
100
AcDbTextStyleTableRecord
  2
Standard
 70
     0
 40
0.0
 41
1.0
 50
0.0
 71
     0
 42
2.5
  3
txt
  4

  0
STYLE
  5
3B
330
3
100
AcDbSymbolTableRecord
100
AcDbTextStyleTableRecord
  2
Default
 70
     0
 40
0.0
 41
1.0
 50
0.0
 71
     0
 42
0.2
  3

  4

1001
ACAD
1000
txt
1071
        0
  0
STYLE
  5
3C
330
3
100
AcDbSymbolTableRecord
100
AcDbTextStyleTableRecord
  2
ISO
 70
     0
 40
0.0
 41
1.0
 50
0.0
 71
     0
 42
0.2
  3

  4

1001
ACAD
1000
txt
1071
        0
  0
STYLE
  5
3D
330
3
100
AcDbSymbolTableRecord
100
AcDbTextStyleTableRecord
  2
GIANLU
 70
     0
 40
0.0
 41
1.0
 50
0.0
 71
     0
 42
0.2
  3

  4

1001
ACAD
1000
Arial
1071
        0
  0
ENDTAB
  0
TABLE
  2
VIEW
  5
6
330
0
100
AcDbSymbolTable
 70
     0
  0
ENDTAB
  0
TABLE
  2
UCS
  5
7
330
0
100
AcDbSymbolTable
 70
     0
  0
ENDTAB
  0
TABLE
  2
APPID
  5
9
330
0
100
AcDbSymbolTable
 70
     1
  0
APPID
  5
12
330
9
100
AcDbSymbolTableRecord
100
AcDbRegAppTableRecord
  2
ACAD
 70
     0
  0
ENDTAB
  0
TABLE
  2
DIMSTYLE
  5
A
330
0
100
AcDbSymbolTable
 70
     4
100
AcDbDimStyleTable
  0
DIMSTYLE
105
27
330
A
100
AcDbSymbolTableRecord
100
AcDbDimStyleTableRecord
  2
ISO-25
 70
     0
 41
2.5
 42
0.625
 43
3.75
 44
1.25
 73
     0
 74
     0
 77
     1
 78
     8
140
2.5
141
2.5
143
0.03937
147
0.625
171
     3
172
     1
271
     2
272
     2
274
     3
278
    44
283
     0
284
     8
340
11
  0
DIMSTYLE
105
3E
330
A
100
AcDbSymbolTableRecord
100
AcDbDimStyleTableRecord
  2
Default
 70
     0
  3
<>
 41
4.375
 42
1.05
 44
2.1
 73
     0
 74
     0
 77
     1
 78
     8
140
3.5
146
0.4
147
1.75
178
     3
271
     2
272
     3
284
     8
340
3B
341
3F
342
3F
  0
DIMSTYLE
105
46
330
A
100
AcDbSymbolTableRecord
100
AcDbDimStyleTableRecord
  2
ISO
 70
     0
  3
<>
 41
4.375
 42
1.05
 44
2.1
 73
     0
 74
     0
 77
     1
 78
     8
140
3.5
146
0.4
147
1.75
178
     3
271
     2
272
     3
284
     8
340
3C
341
3F
342
3F
  0
DIMSTYLE
105
47
330
A
100
AcDbSymbolTableRecord
100
AcDbDimStyleTableRecord
  2
zucchetti_unico
 70
     0
  3
<>
 41
3.0
 42
0.9
 44
1.8
 73
     0
 74
     0
 77
     1
 78
     8
140
3.0
146
0.6
147
1.5
176
   104
177
     3
178
     3
271
     2
272
     2
284
     8
340
3D
  0
ENDTAB
  0
TABLE
  2
BLOCK_RECORD
  5
1
330
0
100
AcDbSymbolTable
 70
     7
  0
BLOCK_RECORD
  5
1F
330
1
100
AcDbSymbolTableRecord
100
AcDbBlockTableRecord
  2
*Model_Space
340
22
  0
BLOCK_RECORD
  5
1B
330
1
100
AcDbSymbolTableRecord
100
AcDbBlockTableRecord
  2
*Paper_Space
340
1E
  0
BLOCK_RECORD
  5
23
330
1
100
AcDbSymbolTableRecord
100
AcDbBlockTableRecord
  2
*Paper_Space0
340
26
  0
BLOCK_RECORD
  5
3F
330
1
100
AcDbSymbolTableRecord
100
AcDbBlockTableRecord
  2
_CLOSED
340
0
  0
BLOCK_RECORD
  5
48
330
1
100
AcDbSymbolTableRecord
100
AcDbBlockTableRecord
  2
a
340
0
102
{BLKREFS
331
5E
102
}
  0
BLOCK_RECORD
  5
5F
330
1
100
AcDbSymbolTableRecord
100
AcDbBlockTableRecord
  2
b
340
0
102
{BLKREFS
331
7C
102
}
  0
BLOCK_RECORD
  5
7D
330
1
100
AcDbSymbolTableRecord
100
AcDbBlockTableRecord
  2
c
340
0
102
{BLKREFS
331
9A
102
}
  0
BLOCK_RECORD
  5
9B
330
1
100
AcDbSymbolTableRecord
100
AcDbBlockTableRecord
  2
d
340
0
102
{BLKREFS
331
BD
102
}
  0
BLOCK_RECORD
  5
BE
330
1
100
AcDbSymbolTableRecord
100
AcDbBlockTableRecord
  2
e
340
0
102
{BLKREFS
331
DC
102
}
  0
ENDTAB
  0
ENDSEC
  0
SECTION
  2
BLOCKS
  0
BLOCK
  5
20
330
1F
100
AcDbEntity
  8
0
100
AcDbBlockBegin
  2
*Model_Space
 70
     0
 10
0.0
 20
0.0
 30
0.0
  3
*Model_Space
  1

  0
ENDBLK
  5
21
330
1F
100
AcDbEntity
  8
0
100
AcDbBlockEnd
  0
BLOCK
  5
1C
330
1B
100
AcDbEntity
 67
     1
  8
0
100
AcDbBlockBegin
  2
*Paper_Space
 70
     0
 10
0.0
 20
0.0
 30
0.0
  3
*Paper_Space
  1

  0
ENDBLK
  5
1D
330
1B
100
AcDbEntity
 67
     1
  8
0
100
AcDbBlockEnd
  0
BLOCK
  5
24
330
23
100
AcDbEntity
  8
0
100
AcDbBlockBegin
  2
*Paper_Space0
 70
     0
 10
0.0
 20
0.0
 30
0.0
  3
*Paper_Space0
  1

  0
ENDBLK
  5
25
330
23
100
AcDbEntity
  8
0
100
AcDbBlockEnd
  0
BLOCK
  5
40
330
3F
100
AcDbEntity
  8
0
100
AcDbBlockBegin
  2
_CLOSED
 70
     0
 10
0.0
 20
0.0
 30
0.0
  3
_CLOSED
  1

  0
LINE
  5
42
330
3F
100
AcDbEntity
  8
0
  6
ByBlock
 62
     0
370
    -2
100
AcDbLine
 10
-1.0
 20
0.166667
 30
0.0
 11
0.0
 21
0.0
 31
0.0
  0
LINE
  5
43
330
3F
100
AcDbEntity
  8
0
  6
ByBlock
 62
     0
370
    -2
100
AcDbLine
 10
0.0
 20
0.0
 30
0.0
 11
-1.0
 21
-0.166667
 31
0.0
  0
LINE
  5
44
330
3F
100
AcDbEntity
  8
0
  6
ByBlock
 62
     0
370
    -2
100
AcDbLine
 10
-1.0
 20
0.166667
 30
0.0
 11
-1.0
 21
-0.166667
 31
0.0
  0
LINE
  5
45
330
3F
100
AcDbEntity
  8
0
  6
ByBlock
 62
     0
370
    -2
100
AcDbLine
 10
0.0
 20
0.0
 30
0.0
 11
-1.0
 21
0.0
 31
0.0
  0
ENDBLK
  5
41
330
3F
100
AcDbEntity
  8
0
100
AcDbBlockEnd
  0
BLOCK
  5
5C
330
48
100
AcDbEntity
  8
0
100
AcDbBlockBegin
  2
a
 70
     0
 10
261.942688
 20
146.785187
 30
0.0
  3
a
  1

  0
ARC
  5
49
330
48
100
AcDbEntity
  8
0
  6
Continuous
 62
     0
370
    30
100
AcDbCircle
 10
350.322768
 20
439.273234
 30
0.0
 40
22.19999731148577
100
AcDbArc
 50
89.999998
 51
248.210034
  0
ARC
  5
4A
330
48
100
AcDbEntity
  8
0
  6
Continuous
 62
     0
370
    30
100
AcDbCircle
 10
350.32277
 20
439.273234
 30
0.0
 40
22.19999731153472
100
AcDbArc
 50
291.789973
 51
90.000002
  0
ARC
  5
4B
330
48
100
AcDbEntity
  8
0
  6
Continuous
 62
     0
370
    30
100
AcDbCircle
 10
350.32277
 20
439.27323
 30
0.0
 40
22.00000000000003
100
AcDbArc
 50
269.999999
 51
89.999999
  0
ARC
  5
4C
330
48
100
AcDbEntity
  8
0
  6
Continuous
 62
     0
370
    30
100
AcDbCircle
 10
350.32277
 20
439.27323
 30
0.0
 40
22.00000000000003
100
AcDbArc
 50
89.999999
 51
269.999999
  0
LINE
  5
4D
330
48
100
AcDbEntity
  8
0
  6
Continuous
 62
     0
370
     0
100
AcDbLine
 10
356.822769
 20
411.27323
 30
0.0
 11
350.322769
 21
411.27323
 31
0.0
  0
LINE
  5
4E
330
48
100
AcDbEntity
  8
0
  6
Continuous
 62
     0
370
     0
100
AcDbLine
 10
350.322769
 20
411.27323
 30
0.0
 11
343.822769
 21
411.27323
 31
0.0
  0
LWPOLYLINE
  5
4F
330
48
100
AcDbEntity
  8
0
  6
Continuous
 62
     0
370
     0
100
AcDbPolyline
 90
       13
 70
     0
 43
0.0
 10
343.883087
 20
414.728271
 10
343.942261
 20
414.679138
 10
344.11441
 20
414.539825
 10
344.390808
 20
414.324738
 10
344.761444
 20
414.054962
 10
345.21701
 20
413.751038
 10
345.75116
 20
413.43222
 10
346.359436
 20
413.116425
 10
347.03833
 20
412.821045
 10
347.783112
 20
412.563599
 10
348.585114
 20
412.361969
 10
349.431824
 20
412.231995
 10
350.322784
 20
412.185974
  0
LWPOLYLINE
  5
50
330
48
100
AcDbEntity
  8
0
  6
Continuous
 62
     0
370
     0
100
AcDbPolyline
 90
       13
 70
     0
 43
0.0
 10
350.322784
 20
412.185974
 10
351.194916
 20
412.230194
 10
352.04245
 20
412.358551
 10
352.845551
 20
412.558716
 10
353.591705
 20
412.815063
 10
354.272125
 20
413.109802
 10
354.881927
 20
413.425354
 10
355.417725
 20
413.744293
 10
355.875092
 20
414.048706
 10
356.24765
 20
414.319397
 10
356.526215
 20
414.535858
 10
356.700714
 20
414.677032
 10
356.762451
 20
414.728271
  0
LINE
  5
51
330
48
100
AcDbEntity
  8
0
  6
Continuous
 62
     0
370
     0
100
AcDbLine
 10
350.32277
 20
417.27323
 30
0.0
 11
350.32277
 21
412.185968
 31
0.0
  0
LINE
  5
52
330
48
100
AcDbEntity
  8
0
  6
Continuous
 62
     0
370
    30
100
AcDbLine
 10
350.322768
 20
351.27323
 30
0.0
 11
356.822762
 21
351.27323
 31
0.0
  0
LINE
  5
53
330
48
100
AcDbEntity
  8
0
  6
Continuous
 62
     0
370
    30
100
AcDbLine
 10
343.822774
 20
351.27323
 30
0.0
 11
350.322768
 21
351.27323
 31
0.0
  0
ARC
  5
54
330
48
100
AcDbEntity
  8
0
  6
Continuous
 62
     0
370
    30
100
AcDbCircle
 10
350.322769
 20
439.273231
 30
0.0
 40
59.99987909889018
100
AcDbArc
 50
276.219255
 51
90.0
  0
ARC
  5
55
330
48
100
AcDbEntity
  8
0
  6
Continuous
 62
     0
370
    30
100
AcDbCircle
 10
350.322769
 20
439.273231
 30
0.0
 40
59.99987909889018
100
AcDbArc
 50
90.0
 51
263.780744
  0
LINE
  5
56
330
48
100
AcDbEntity
  8
0
  6
Continuous
 62
     0
370
    30
100
AcDbLine
 10
343.822775
 20
411.27323
 30
0.0
 11
343.822774
 21
351.27323
 31
0.0
  0
LINE
  5
57
330
48
100
AcDbEntity
  8
0
  6
Continuous
 62
     0
370
    30
100
AcDbLine
 10
356.822764
 20
411.27323
 30
0.0
 11
356.822762
 21
351.27323
 31
0.0
  0
LWPOLYLINE
  5
58
330
48
100
AcDbEntity
  8
0
  6
Continuous
 62
     0
370
    30
100
AcDbPolyline
 90
       20
 70
     0
 43
0.0
 10
359.628754
 20
419.338287
 10
359.592407
 20
419.320953
 10
359.312805
 20
419.175171
 10
359.042053
 20
419.011505
 10
358.782104
 20
418.831116
 10
358.534058
 20
418.634705
 10
358.298981
 20
418.422974
 10
358.077789
 20
418.196716
 10
357.871368
 20
417.95694
 10
357.680481
 20
417.70462
 10
357.505951
 20
417.440735
 10
357.34848
 20
417.16629
 10
357.208649
 20
416.882477
 10
357.087067
 20
416.590393
 10
356.984314
 20
416.291168
 10
356.900696
 20
415.986084
 10
356.836456
 20
415.67627
 10
356.79184
 20
415.362976
 10
356.76709
 20
415.047485
 10
356.762421
 20
414.72876
  0
LWPOLYLINE
  5
59
330
48
100
AcDbEntity
  8
0
  6
Continuous
 62
     0
370
    30
100
AcDbPolyline
 90
       20
 70
     0
 43
0.0
 10
341.016785
 20
419.338287
 10
341.053131
 20
419.320953
 10
341.332733
 20
419.175171
 10
341.603485
 20
419.011505
 10
341.863434
 20
418.831116
 10
342.111481
 20
418.634705
 10
342.346558
 20
418.422974
 10
342.567749
 20
418.196716
 10
342.77417
 20
417.95694
 10
342.965057
 20
417.70462
 10
343.139587
 20
417.440735
 10
343.297058
 20
417.16629
 10
343.43689
 20
416.882477
 10
343.558472
 20
416.590393
 10
343.661224
 20
416.291168
 10
343.744843
 20
415.986084
 10
343.809082
 20
415.67627
 10
343.853699
 20
415.362976
 10
343.878448
 20
415.047485
 10
343.883118
 20
414.72876
  0
LINE
  5
5A
330
48
100
AcDbEntity
  8
0
  6
Continuous
 62
     0
370
    30
100
AcDbLine
 10
356.762465
 20
414.728054
 30
0.0
 11
356.822769
 21
411.27323
 31
0.0
  0
LINE
  5
5B
330
48
100
AcDbEntity
  8
0
  6
Continuous
 62
     0
370
    30
100
AcDbLine
 10
343.883074
 20
414.728054
 30
0.0
 11
343.822769
 21
411.27323
 31
0.0
  0
ENDBLK
  5
5D
330
48
100
AcDbEntity
  8
0
100
AcDbBlockEnd
  0
BLOCK
  5
7A
330
5F
100
AcDbEntity
  8
0
100
AcDbBlockBegin
  2
b
 70
     0
 10
287.153248
 20
146.785187
 30
0.0
  3
b
  1

  0
LINE
  5
60
330
5F
100
AcDbEntity
  8
0
  6
Continuous
 62
     0
370
    30
100
AcDbLine
 10
350.322773
 20
179.937922
 30
0.0
 11
329.122773
 21
179.937923
 31
0.0
  0
LINE
  5
61
330
5F
100
AcDbEntity
  8
0
  6
Continuous
 62
     0
370
    30
100
AcDbLine
 10
371.522773
 20
179.937923
 30
0.0
 11
350.322773
 21
179.937922
 31
0.0
  0
LINE
  5
62
330
5F
100
AcDbEntity
  8
0
  6
Continuous
 62
     0
370
     0
100
AcDbLine
 10
350.322773
 20
180.937922
 30
0.0
 11
328.122773
 21
180.937923
 31
0.0
  0
LWPOLYLINE
  5
63
330
5F
100
AcDbEntity
  8
0
  6
Continuous
 62
     0
370
     0
100
AcDbPolyline
 90
       20
 70
     0
 43
0.0
 10
372.522766
 20
180.937927
 10
372.447113
 20
180.937927
 10
372.220886
 20
180.937927
 10
371.84549
 20
180.937927
 10
371.323517
 20
180.937927
 10
370.6586
 20
180.937927
 10
369.855072
 20
180.937927
 10
368.918671
 20
180.937927
 10
367.855499
 20
180.937927
 10
366.673004
 20
180.937927
 10
365.379181
 20
180.937927
 10
363.982758
 20
180.937927
 10
362.493378
 20
180.937927
 10
360.920959
 20
180.937927
 10
359.27655
 20
180.937927
 10
357.57132
 20
180.937927
 10
355.81662
 20
180.937927
 10
354.023804
 20
180.937927
 10
352.205505
 20
180.937927
 10
350.322784
 20
180.937927
  0
LINE
  5
64
330
5F
100
AcDbEntity
  8
0
  6
Continuous
 62
     0
370
    30
100
AcDbLine
 10
329.997649
 20
178.726905
 30
0.0
 11
328.329142
 21
178.726905
 31
0.0
  0
LINE
  5
65
330
5F
100
AcDbEntity
  8
0
  6
Continuous
 62
     0
370
    30
100
AcDbLine
 10
372.316405
 20
178.726905
 30
0.0
 11
370.647902
 21
178.726905
 31
0.0
  0
LWPOLYLINE
  5
66
330
5F
100
AcDbEntity
  8
0
  6
Continuous
 62
     0
370
    30
100
AcDbPolyline
 90
       20
 70
     0
 43
0.0
 10
372.322784
 20
147.726898
 10
372.260132
 20
147.726898
 10
372.065277
 20
147.726898
 10
371.729126
 20
147.726898
 10
371.244629
 20
147.726898
 10
370.60733
 20
147.726898
 10
369.815826
 20
147.726898
 10
368.87204
 20
147.726898
 10
367.781494
 20
147.726898
 10
366.553192
 20
147.726898
 10
365.199615
 20
147.726898
 10
363.736023
 20
147.726898
 10
362.180145
 20
147.726898
 10
360.551361
 20
147.726898
 10
358.869873
 20
147.726898
 10
357.156067
 20
147.726898
 10
355.429749
 20
147.726898
 10
353.709412
 20
147.726898
 10
352.011871
 20
147.726898
 10
350.322784
 20
147.726898
  0
LINE
  5
67
330
5F
100
AcDbEntity
  8
0
  6
Continuous
 62
     0
370
    30
100
AcDbLine
 10
350.322774
 20
147.726904
 30
0.0
 11
328.322774
 21
147.726905
 31
0.0
  0
LWPOLYLINE
  5
68
330
5F
100
AcDbEntity
  8
0
  6
Continuous
 62
     0
370
    30
100
AcDbPolyline
 90
       38
 70
     0
 43
0.0
 10
372.316406
 20
178.726898
 10
372.283661
 20
178.058212
 10
372.096375
 20
177.390411
 10
371.755646
 20
176.728653
 10
371.263641
 20
176.079407
 10
370.622589
 20
175.447464
 10
369.8349
 20
174.83548
 10
368.903625
 20
174.246979
 10
367.832886
 20
173.686554
 10
366.628357
 20
173.158783
 10
365.297821
 20
172.668243
 10
363.849121
 20
172.219193
 10
362.290649
 20
171.815353
 10
360.632172
 20
171.460571
 10
358.885895
 20
171.158493
 10
357.067017
 20
170.912308
 10
355.189789
 20
170.72493
 10
353.267578
 20
170.598709
 10
351.317657
 20
170.534912
 10
349.358398
 20
170.534409
 10
347.408203
 20
170.597244
 10
345.485443
 20
170.722488
 10
343.607391
 20
170.908936
 10
341.787476
 20
171.154221
 10
340.039978
 20
171.455444
 10
338.380035
 20
171.809433
 10
336.819916
 20
172.21254
 10
335.369446
 20
172.660904
 10
334.036987
 20
173.150848
 10
332.830444
 20
173.678055
 10
331.757538
 20
174.238022
 10
330.824097
 20
174.826111
 10
330.034119
 20
175.437759
 10
329.390778
 20
176.069412
 10
328.896423
 20
176.718414
 10
328.553314
 20
177.380035
 10
328.363617
 20
178.047775
 10
328.329132
 20
178.726898
  0
LWPOLYLINE
  5
69
330
5F
100
AcDbEntity
  8
0
  6
Continuous
 62
     0
370
    30
100
AcDbPolyline
 90
       16
 70
     0
 43
0.0
 10
355.966248
 20
172.196487
 10
357.588959
 20
172.382584
 10
359.1604
 20
172.614761
 10
360.668945
 20
172.891296
 10
362.104126
 20
173.210251
 10
363.45575
 20
173.569412
 10
364.714233
 20
173.966187
 10
365.870575
 20
174.397781
 10
366.916595
 20
174.861145
 10
367.845123
 20
175.352921
 10
368.64917
 20
175.86969
 10
369.323181
 20
176.407791
 10
369.862701
 20
176.963348
 10
370.263489
 20
177.532455
 10
370.522797
 20
178.111115
 10
370.641022
 20
178.726898
  0
LWPOLYLINE
  5
6A
330
5F
100
AcDbEntity
  8
0
  6
Continuous
 62
     0
370
    30
100
AcDbPolyline
 90
       22
 70
     0
 43
0.0
 10
330.004547
 20
178.726898
 10
330.118988
 20
178.122879
 10
330.386627
 20
177.524551
 10
330.805511
 20
176.936462
 10
331.372284
 20
176.363052
 10
332.082916
 20
175.808701
 10
332.931732
 20
175.277573
 10
333.912445
 20
174.773727
 10
335.017639
 20
174.300964
 10
336.238953
 20
173.862915
 10
337.567047
 20
173.46286
 10
338.99173
 20
173.103775
 10
340.502502
 20
172.788513
 10
342.087677
 20
172.519363
 10
343.735291
 20
172.298416
 10
345.432922
 20
172.127365
 10
347.167542
 20
172.007401
 10
348.926178
 20
171.939575
 10
350.695374
 20
171.924301
 10
352.46167
 20
171.961716
 10
354.211853
 20
172.051575
 10
355.966248
 20
172.196487
  0
LINE
  5
6B
330
5F
100
AcDbEntity
  8
0
  6
Continuous
 62
     0
370
    30
100
AcDbLine
 10
350.322773
 20
213.74061
 30
0.0
 11
410.322652
 21
213.74061
 31
0.0
  0
LINE
  5
6C
330
5F
100
AcDbEntity
  8
0
  6
Continuous
 62
     0
370
    30
100
AcDbLine
 10
290.322894
 20
213.74061
 30
0.0
 11
350.322773
 21
213.74061
 31
0.0
  0
LINE
  5
6D
330
5F
100
AcDbEntity
  8
0
  6
Continuous
 62
     0
370
    30
100
AcDbLine
 10
350.322773
 20
219.244827
 30
0.0
 11
290.322894
 21
219.244827
 31
0.0
  0
LINE
  5
6E
330
5F
100
AcDbEntity
  8
0
  6
Continuous
 62
     0
370
    30
100
AcDbLine
 10
410.322652
 20
219.244827
 30
0.0
 11
350.322773
 21
219.244827
 31
0.0
  0
LINE
  5
6F
330
5F
100
AcDbEntity
  8
0
  6
Continuous
 62
     0
370
     0
100
AcDbLine
 10
350.322773
 20
180.937922
 30
0.0
 11
350.322773
 21
213.740609
 31
0.0
  0
LINE
  5
70
330
5F
100
AcDbEntity
  8
0
  6
Continuous
 62
     0
370
    30
100
AcDbLine
 10
328.122773
 20
180.937923
 30
0.0
 11
328.122773
 21
213.74061
 31
0.0
  0
LINE
  5
71
330
5F
100
AcDbEntity
  8
0
  6
Continuous
 62
     0
370
    30
100
AcDbLine
 10
372.522773
 20
180.937923
 30
0.0
 11
372.522773
 21
213.74061
 31
0.0
  0
LINE
  5
72
330
5F
100
AcDbEntity
  8
0
  6
Continuous
 62
     0
370
    30
100
AcDbLine
 10
410.322652
 20
213.74061
 30
0.0
 11
410.322652
 21
219.244827
 31
0.0
  0
LINE
  5
73
330
5F
100
AcDbEntity
  8
0
  6
Continuous
 62
     0
370
    30
100
AcDbLine
 10
290.322894
 20
213.74061
 30
0.0
 11
290.322894
 21
219.244827
 31
0.0
  0
ARC
  5
74
330
5F
100
AcDbEntity
  8
0
  6
Continuous
 62
     0
370
    30
100
AcDbCircle
 10
350.322726
 20
181.437947
 30
0.0
 40
20.5051828189003
100
AcDbArc
 50
351.859092
 51
355.804868
  0
ARC
  5
75
330
5F
100
AcDbEntity
  8
0
  6
Continuous
 62
     0
370
    30
100
AcDbCircle
 10
350.368556
 20
181.44289
 30
0.0
 40
20.55115706181842
100
AcDbArc
 50
184.199547
 51
188.136747
  0
LINE
  5
76
330
5F
100
AcDbEntity
  8
0
  6
Continuous
 62
     0
370
    30
100
AcDbLine
 10
372.322774
 20
178.534248
 30
0.0
 11
372.322774
 21
147.726905
 31
0.0
  0
LINE
  5
77
330
5F
100
AcDbEntity
  8
0
  6
Continuous
 62
     0
370
    30
100
AcDbLine
 10
328.322774
 20
178.534248
 30
0.0
 11
328.322774
 21
147.726905
 31
0.0
  0
ARC
  5
78
330
5F
100
AcDbEntity
  8
0
  6
Continuous
 62
     0
370
    30
100
AcDbCircle
 10
329.122798
 20
180.937949
 30
0.0
 40
1.000025415542188
100
AcDbArc
 50
180.001456
 51
269.992814
  0
ARC
  5
79
330
5F
100
AcDbEntity
  8
0
  6
Continuous
 62
     0
370
    30
100
AcDbCircle
 10
371.522749
 20
180.937948
 30
0.0
 40
1.000024307965928
100
AcDbArc
 50
270.001393
 51
359.998607
  0
ENDBLK
  5
7B
330
5F
100
AcDbEntity
  8
0
100
AcDbBlockEnd
  0
BLOCK
  5
98
330
7D
100
AcDbEntity
  8
0
100
AcDbBlockBegin
  2
c
 70
     0
 10
261.942688
 20
175.345306
 30
0.0
  3
c
  1

  0
LINE
  5
7E
330
7D
100
AcDbEntity
  8
0
  6
Continuous
 62
     0
370
    30
100
AcDbLine
 10
504.845762
 20
460.473231
 30
0.0
 11
504.845762
 21
418.073231
 31
0.0
  0
ARC
  5
7F
330
7D
100
AcDbEntity
  8
0
  6
Continuous
 62
     0
370
    30
100
AcDbCircle
 10
503.845762
 20
460.473231
 30
0.0
 40
0.9999999999995204
100
AcDbArc
 50
360.0
 51
90.0
  0
LINE
  5
80
330
7D
100
AcDbEntity
  8
0
  6
Continuous
 62
     0
370
     0
100
AcDbLine
 10
503.845762
 20
461.473231
 30
0.0
 11
503.845762
 21
417.073231
 31
0.0
  0
LINE
  5
81
330
7D
100
AcDbEntity
  8
0
  6
Continuous
 62
     0
370
    30
100
AcDbLine
 10
506.056781
 20
438.743915
 30
0.0
 11
506.056781
 21
417.27323
 31
0.0
  0
LWPOLYLINE
  5
82
330
7D
100
AcDbEntity
  8
0
  6
Continuous
 62
     0
370
    30
100
AcDbPolyline
 90
       39
 70
     0
 43
0.0
 10
537.056763
 20
461.273224
 10
537.056763
 20
461.21051
 10
537.056763
 20
461.015472
 10
537.056763
 20
460.678986
 10
537.056763
 20
460.194
 10
537.056763
 20
459.556091
 10
537.056763
 20
458.763794
 10
537.056763
 20
457.819061
 10
537.056763
 20
456.727478
 10
537.056763
 20
455.498077
 10
537.056763
 20
454.14328
 10
537.056763
 20
452.678467
 10
537.056763
 20
451.121399
 10
537.056763
 20
449.491425
 10
537.056763
 20
447.808868
 10
537.056763
 20
446.094116
 10
537.056763
 20
444.366913
 10
537.056763
 20
442.645874
 10
537.056763
 20
440.947784
 10
537.056763
 20
439.287384
 10
537.056763
 20
437.627777
 10
537.056763
 20
435.930206
 10
537.056763
 20
434.209442
 10
537.056763
 20
432.482208
 10
537.056763
 20
430.767059
 10
537.056763
 20
429.08374
 10
537.056763
 20
427.452698
 10
537.056763
 20
425.894196
 10
537.056763
 20
424.427643
 10
537.056763
 20
423.070831
 10
537.056763
 20
421.839111
 10
537.056763
 20
420.745056
 10
537.056763
 20
419.797729
 10
537.056763
 20
419.002777
 10
537.056763
 20
418.362183
 10
537.056763
 20
417.874603
 10
537.056763
 20
417.535583
 10
537.056763
 20
417.338165
 10
537.056763
 20
417.273224
  0
LWPOLYLINE
  5
83
330
7D
100
AcDbEntity
  8
0
  6
Continuous
 62
     0
370
    30
100
AcDbPolyline
 90
       21
 70
     0
 43
0.0
 10
514.256958
 20
461.273224
 10
514.229797
 20
461.198273
 10
514.148682
 20
460.975189
 10
514.014465
 20
460.606689
 10
513.828369
 20
460.096039
 10
513.592346
 20
459.447876
 10
513.308777
 20
458.668732
 10
512.980225
 20
457.765961
 10
512.609619
 20
456.74765
 10
512.199951
 20
455.62207
 10
511.75412
 20
454.397247
 10
511.275482
 20
453.082184
 10
510.767578
 20
451.686737
 10
510.234039
 20
450.220886
 10
509.678558
 20
448.694672
 10
509.104523
 20
447.117523
 10
508.514221
 20
445.495667
 10
507.909973
 20
443.83548
 10
507.296204
 20
442.14917
 10
506.67807
 20
440.450867
 10
506.056793
 20
438.743927
  0
LINE
  5
84
330
7D
100
AcDbEntity
  8
0
  6
Continuous
 62
     0
370
    30
100
AcDbLine
 10
506.056781
 20
417.27323
 30
0.0
 11
510.573474
 21
417.27323
 31
0.0
  0
LWPOLYLINE
  5
85
330
7D
100
AcDbEntity
  8
0
  6
Continuous
 62
     0
370
     0
100
AcDbPolyline
 90
       32
 70
     0
 43
0.0
 10
510.573486
 20
417.273224
 10
510.649384
 20
417.298859
 10
510.869629
 20
417.373749
 10
511.225983
 20
417.492401
 10
511.70639
 20
417.646759
 10
512.294006
 20
417.827667
 10
512.974304
 20
418.025543
 10
513.733826
 20
418.231537
 10
514.561584
 20
418.437469
 10
515.447327
 20
418.635925
 10
516.381165
 20
418.819794
 10
517.355347
 20
418.983246
 10
518.362366
 20
419.120911
 10
519.39502
 20
419.228424
 10
520.446045
 20
419.302338
 10
521.508179
 20
419.340179
 10
522.574097
 20
419.340729
 10
523.636414
 20
419.303986
 10
524.687866
 20
419.23111
 10
525.721191
 20
419.124542
 10
526.729065
 20
418.987671
 10
527.704346
 20
418.82489
 10
528.639465
 20
418.641541
 10
529.526428
 20
418.443542
 10
530.356506
 20
418.23761
 10
531.11969
 20
418.031036
 10
531.803162
 20
417.83252
 10
532.393616
 20
417.651001
 10
532.876709
 20
417.49588
 10
533.237244
 20
417.376251
 10
533.461365
 20
417.300171
 10
533.5401
 20
417.273224
  0
LINE
  5
86
330
7D
100
AcDbEntity
  8
0
  6
Continuous
 62
     0
370
    30
100
AcDbLine
 10
533.540087
 20
417.27323
 30
0.0
 11
537.056781
 21
417.27323
 31
0.0
  0
LWPOLYLINE
  5
87
330
7D
100
AcDbEntity
  8
0
  6
Continuous
 62
     0
370
     0
100
AcDbPolyline
 90
       22
 70
     0
 43
0.0
 10
528.556763
 20
411.273224
 10
528.494934
 20
411.273224
 10
528.298462
 20
411.273224
 10
527.956238
 20
411.273224
 10
527.466064
 20
411.273224
 10
526.836548
 20
411.273224
 10
526.086975
 20
411.273224
 10
525.245911
 20
411.273224
 10
524.34729
 20
411.273224
 10
523.42627
 20
411.273224
 10
522.515381
 20
411.273224
 10
521.630066
 20
411.273224
 10
520.720032
 20
411.273224
 10
519.798828
 20
411.273224
 10
518.898804
 20
411.273224
 10
518.055115
 20
411.273224
 10
517.301758
 20
411.273224
 10
516.667542
 20
411.273224
 10
516.172241
 20
411.273224
 10
515.824768
 20
411.273224
 10
515.62323
 20
411.273224
 10
515.556763
 20
411.273224
  0
LWPOLYLINE
  5
88
330
7D
100
AcDbEntity
  8
0
  6
Continuous
 62
     0
370
     0
100
AcDbPolyline
 90
       25
 70
     0
 43
0.0
 10
515.572693
 20
412.185974
 10
515.632568
 20
412.230225
 10
515.808289
 20
412.358704
 10
516.091187
 20
412.559082
 10
516.470581
 20
412.815613
 10
516.935791
 20
413.110565
 10
517.478455
 20
413.4263
 10
518.092529
 20
413.745392
 10
518.77417
 20
414.049866
 10
519.519165
 20
414.320526
 10
520.319946
 20
414.536774
 10
521.168274
 20
414.677551
 10
522.042908
 20
414.728271
 10
522.917969
 20
414.680603
 10
523.767456
 20
414.54248
 10
524.569885
 20
414.328278
 10
525.316772
 20
414.05896
 10
526.000488
 20
413.755249
 10
526.616821
 20
413.43634
 10
527.161743
 20
413.12027
 10
527.629517
 20
412.824371
 10
528.011841
 20
412.566254
 10
528.297913
 20
412.3638
 10
528.477173
 20
412.232941
 10
528.540833
 20
412.185974
  0
ARC
  5
89
330
7D
100
AcDbEntity
  8
0
  6
Continuous
 62
     0
370
    30
100
AcDbCircle
 10
533.540087
 20
412.27323
 30
0.0
 40
5.00000000000016
100
AcDbArc
 50
90.0
 51
181.0
  0
ARC
  5
8A
330
7D
100
AcDbEntity
  8
0
  6
Continuous
 62
     0
370
    30
100
AcDbCircle
 10
510.573474
 20
412.27323
 30
0.0
 40
4.99999999999998
100
AcDbArc
 50
359.0
 51
90.0
  0
LINE
  5
8B
330
7D
100
AcDbEntity
  8
0
  6
Continuous
 62
     0
370
    30
100
AcDbLine
 10
515.556786
 20
351.27323
 30
0.0
 11
528.556775
 21
351.27323
 31
0.0
  0
LINE
  5
8C
330
7D
100
AcDbEntity
  8
0
  6
Continuous
 62
     0
370
    30
100
AcDbLine
 10
528.556775
 20
351.27323
 30
0.0
 11
528.556775
 21
411.27323
 31
0.0
  0
LINE
  5
8D
330
7D
100
AcDbEntity
  8
0
  6
Continuous
 62
     0
370
    30
100
AcDbLine
 10
465.538861
 20
499.273111
 30
0.0
 11
471.043079
 21
499.27311
 31
0.0
  0
LINE
  5
8E
330
7D
100
AcDbEntity
  8
0
  6
Continuous
 62
     0
370
    30
100
AcDbLine
 10
471.043073
 20
379.273352
 30
0.0
 11
471.043079
 21
499.27311
 31
0.0
  0
LINE
  5
8F
330
7D
100
AcDbEntity
  8
0
  6
Continuous
 62
     0
370
    30
100
AcDbLine
 10
465.538861
 20
499.273111
 30
0.0
 11
465.538856
 21
379.273352
 31
0.0
  0
LINE
  5
90
330
7D
100
AcDbEntity
  8
0
  6
Continuous
 62
     0
370
    30
100
AcDbLine
 10
503.845762
 20
461.473231
 30
0.0
 11
471.043076
 21
461.473231
 31
0.0
  0
LINE
  5
91
330
7D
100
AcDbEntity
  8
0
  6
Continuous
 62
     0
370
    30
100
AcDbLine
 10
471.043076
 20
417.073231
 30
0.0
 11
503.845762
 21
417.073231
 31
0.0
  0
LINE
  5
92
330
7D
100
AcDbEntity
  8
0
  6
Continuous
 62
     0
370
    30
100
AcDbLine
 10
471.043073
 20
379.273352
 30
0.0
 11
465.538856
 21
379.273352
 31
0.0
  0
ARC
  5
93
330
7D
100
AcDbEntity
  8
0
  6
Continuous
 62
     0
370
    30
100
AcDbCircle
 10
503.345713
 20
439.273527
 30
0.0
 40
20.50543443731863
100
AcDbArc
 50
274.195152
 51
277.597443
  0
ARC
  5
94
330
7D
100
AcDbEntity
  8
0
  6
Continuous
 62
     0
370
    30
100
AcDbCircle
 10
503.345789
 20
439.273393
 30
0.0
 40
20.50496885902989
100
AcDbArc
 50
62.354454
 51
85.804966
  0
LINE
  5
95
330
7D
100
AcDbEntity
  8
0
  6
Continuous
 62
     0
370
    30
100
AcDbLine
 10
515.556786
 20
411.27323
 30
0.0
 11
515.556786
 21
351.27323
 31
0.0
  0
LINE
  5
96
330
7D
100
AcDbEntity
  8
0
  6
Continuous
 62
     0
370
    30
100
AcDbLine
 10
514.257079
 20
461.27323
 30
0.0
 11
537.056781
 21
461.27323
 31
0.0
  0
ARC
  5
97
330
7D
100
AcDbEntity
  8
0
  6
Continuous
 62
     0
370
    30
100
AcDbCircle
 10
503.845737
 20
418.073257
 30
0.0
 40
1.000025415542376
100
AcDbArc
 50
270.001456
 51
359.992814
  0
ENDBLK
  5
99
330
7D
100
AcDbEntity
  8
0
100
AcDbBlockEnd
  0
BLOCK
  5
BB
330
9B
100
AcDbEntity
  8
0
100
AcDbBlockBegin
  2
d
 70
     0
 10
261.942688
 20
146.785187
 30
0.0
  3
d
  1

  0
LWPOLYLINE
  5
9C
330
9B
100
AcDbEntity
  8
0
  6
Continuous
 62
     0
370
     0
100
AcDbPolyline
 90
       16
 70
     0
 43
0.0
 10
479.457184
 20
249.651947
 10
478.34729
 20
250.395615
 10
477.212433
 20
251.070206
 10
476.062012
 20
251.663147
 10
474.90683
 20
252.162231
 10
473.758759
 20
252.556046
 10
472.630432
 20
252.834518
 10
471.535065
 20
252.989426
 10
470.485687
 20
253.014771
 10
469.494965
 20
252.907166
 10
468.574493
 20
252.666077
 10
467.734528
 20
252.293869
 10
466.983429
 20
251.795746
 10
466.327606
 20
251.179535
 10
465.771118
 20
250.455292
 10
465.308807
 20
249.619873
  0
LWPOLYLINE
  5
9D
330
9B
100
AcDbEntity
  8
0
  6
Continuous
 62
     0
370
     0
100
AcDbPolyline
 90
       22
 70
     0
 43
0.0
 10
493.906769
 20
220.452728
 10
494.195953
 20
221.502884
 10
494.373108
 20
222.619171
 10
494.445251
 20
223.783829
 10
494.419434
 20
225.003952
 10
494.292358
 20
226.324738
 10
494.056305
 20
227.741882
 10
493.705292
 20
229.245834
 10
493.235626
 20
230.823929
 10
492.64624
 20
232.460464
 10
491.939087
 20
234.137161
 10
491.119354
 20
235.833694
 10
490.195221
 20
237.528473
 10
489.177856
 20
239.199524
 10
488.080719
 20
240.825439
 10
486.91925
 20
242.386261
 10
485.7099
 20
243.864319
 10
484.469635
 20
245.244781
 10
483.215027
 20
246.516113
 10
481.961761
 20
247.670242
 10
480.724091
 20
248.702484
 10
479.457184
 20
249.651947
  0
LWPOLYLINE
  5
9E
330
9B
100
AcDbEntity
  8
0
  6
Continuous
 62
     0
370
    30
100
AcDbPolyline
 90
       17
 70
     0
 43
0.0
 10
467.307281
 20
251.093826
 10
467.974487
 20
251.570145
 10
468.729858
 20
251.943542
 10
469.569885
 20
252.204758
 10
470.488983
 20
252.346344
 10
471.479645
 20
252.363113
 10
472.532532
 20
252.252426
 10
473.636719
 20
252.014328
 10
474.780212
 20
251.651657
 10
475.950195
 20
251.169861
 10
477.133667
 20
250.576828
 10
478.317841
 20
249.882446
 10
479.490448
 20
249.09819
 10
480.640381
 20
248.236633
 10
481.75766
 20
247.310913
 10
482.833862
 20
246.33432
 10
483.915497
 20
245.264816
  0
LWPOLYLINE
  5
9F
330
9B
100
AcDbEntity
  8
0
  6
Continuous
 62
     0
370
    30
100
AcDbPolyline
 90
       16
 70
     0
 43
0.0
 10
483.915497
 20
245.264816
 10
485.010986
 20
244.085587
 10
486.10199
 20
242.806046
 10
487.174957
 20
241.432709
 10
488.215149
 20
239.975143
 10
489.207245
 20
238.445984
 10
490.135864
 20
236.860748
 10
490.986267
 20
235.237442
 10
491.744904
 20
233.595993
 10
492.40033
 20
231.957382
 10
492.943451
 20
230.342926
 10
493.368134
 20
228.773209
 10
493.671448
 20
227.267349
 10
493.853516
 20
225.842148
 10
493.91745
 20
224.511566
 10
493.867279
 20
223.2659
  0
LWPOLYLINE
  5
A0
330
9B
100
AcDbEntity
  8
0
  6
Continuous
 62
     0
370
     0
100
AcDbPolyline
 90
       13
 70
     0
 43
0.0
 10
480.164276
 20
250.859055
 10
478.924255
 20
251.686722
 10
477.690613
 20
252.412003
 10
476.472504
 20
253.029266
 10
475.278015
 20
253.534332
 10
474.114227
 20
253.924377
 10
472.98822
 20
254.19696
 10
471.907013
 20
254.350586
 10
470.877502
 20
254.384064
 10
469.906128
 20
254.297195
 10
468.998962
 20
254.090652
 10
468.161713
 20
253.765518
 10
467.346619
 20
253.28714
  0
LWPOLYLINE
  5
A1
330
9B
100
AcDbEntity
  8
0
  6
Continuous
 62
     0
370
     0
100
AcDbPolyline
 90
       27
 70
     0
 43
0.0
 10
492.981934
 20
217.035431
 10
493.697479
 20
217.637527
 10
494.317474
 20
218.363327
 10
494.837585
 20
219.207703
 10
495.254028
 20
220.16478
 10
495.564026
 20
221.227631
 10
495.765167
 20
222.388977
 10
495.856293
 20
223.640396
 10
495.836548
 20
224.973221
 10
495.706177
 20
226.37796
 10
495.466095
 20
227.844681
 10
495.11792
 20
229.363113
 10
494.664276
 20
230.922424
 10
494.108154
 20
232.511703
 10
493.453644
 20
234.119675
 10
492.705261
 20
235.735001
 10
491.868378
 20
237.346283
 10
490.948853
 20
238.942123
 10
489.953156
 20
240.511276
 10
488.888397
 20
242.042694
 10
487.761932
 20
243.525497
 10
486.58194
 20
244.949265
 10
485.356781
 20
246.303757
 10
484.094849
 20
247.579681
 10
482.804688
 20
248.768295
 10
481.495697
 20
249.860916
 10
480.164276
 20
250.859055
  0
LWPOLYLINE
  5
A2
330
9B
100
AcDbEntity
  8
0
  6
Continuous
 62
     0
370
    30
100
AcDbPolyline
 90
        9
 70
     0
 43
0.0
 10
491.297119
 20
216.089005
 10
491.951782
 20
216.630722
 10
492.521851
 20
217.269089
 10
493.005096
 20
217.995255
 10
493.401031
 20
218.799332
 10
493.710571
 20
219.670685
 10
493.936035
 20
220.598312
 10
494.080933
 20
221.571182
 10
494.15271
 20
222.684677
  0
LWPOLYLINE
  5
A3
330
9B
100
AcDbEntity
  8
0
  6
Continuous
 62
     0
370
    30
100
AcDbPolyline
 90
       40
 70
     0
 43
0.0
 10
456.680542
 20
202.999435
 10
457.824249
 20
202.232819
 10
458.993561
 20
201.536804
 10
460.178925
 20
200.924179
 10
461.369446
 20
200.407349
 10
462.55304
 20
199.997971
 10
463.716827
 20
199.706268
 10
464.847504
 20
199.540741
 10
465.931732
 20
199.507584
 10
466.956635
 20
199.610352
 10
467.910309
 20
199.849808
 10
468.782318
 20
200.223709
 10
469.563904
 20
200.726974
 10
470.248505
 20
201.351868
 10
470.831665
 20
202.088318
 10
471.31134
 20
202.924423
 10
471.687653
 20
203.846939
 10
471.962708
 20
204.841827
 10
472.140503
 20
205.894791
 10
472.22641
 20
206.99173
 10
472.226654
 20
208.127747
 10
472.141266
 20
209.345657
 10
471.96405
 20
210.649551
 10
471.689545
 20
212.03302
 10
471.313873
 20
213.487305
 10
470.834808
 20
215.001465
 10
470.252228
 20
216.562408
 10
469.568237
 20
218.155289
 10
468.787201
 20
219.76387
 10
467.91571
 20
221.371017
 10
466.962463
 20
222.959366
 10
465.937958
 20
224.511826
 10
464.854034
 20
226.012329
 10
463.723602
 20
227.446259
 10
462.559967
 20
228.800919
 10
461.376465
 20
230.065933
 10
460.185944
 20
231.233353
 10
459.000519
 20
232.297699
 10
457.831055
 20
233.255981
 10
456.680542
 20
234.112122
  0
LWPOLYLINE
  5
A4
330
9B
100
AcDbEntity
  8
0
  6
Continuous
 62
     0
370
    30
100
AcDbPolyline
 90
       40
 70
     0
 43
0.0
 10
456.680542
 20
234.112122
 10
455.536865
 20
234.878738
 10
454.367554
 20
235.574753
 10
453.182159
 20
236.187393
 10
451.991669
 20
236.704208
 10
450.808075
 20
237.113586
 10
449.644287
 20
237.405289
 10
448.513611
 20
237.570816
 10
447.429382
 20
237.603973
 10
446.40448
 20
237.501205
 10
445.450775
 20
237.261749
 10
444.578796
 20
236.887848
 10
443.79718
 20
236.384583
 10
443.11261
 20
235.759689
 10
442.529449
 20
235.023239
 10
442.049774
 20
234.187134
 10
441.673462
 20
233.264618
 10
441.398376
 20
232.26973
 10
441.220612
 20
231.216766
 10
441.134705
 20
230.119827
 10
441.13446
 20
228.98381
 10
441.219818
 20
227.7659
 10
441.397064
 20
226.462006
 10
441.671539
 20
225.078537
 10
442.047241
 20
223.624252
 10
442.526306
 20
222.110107
 10
443.108856
 20
220.549149
 10
443.792847
 20
218.956268
 10
444.573914
 20
217.347687
 10
445.445404
 20
215.74054
 10
446.398621
 20
214.152206
 10
447.423157
 20
212.599731
 10
448.50705
 20
211.099228
 10
449.637482
 20
209.665298
 10
450.801147
 20
208.310638
 10
451.98465
 20
207.045624
 10
453.17514
 20
205.878204
 10
454.360596
 20
204.813858
 10
455.530029
 20
203.855576
 10
456.680542
 20
202.999435
  0
LWPOLYLINE
  5
A5
330
9B
100
AcDbEntity
  8
0
  6
Continuous
 62
     0
370
    30
100
AcDbPolyline
 90
       31
 70
     0
 43
0.0
 10
494.15271
 20
222.684677
 10
493.667389
 20
223.646011
 10
493.077576
 20
224.680511
 10
492.387268
 20
225.780792
 10
491.602325
 20
226.937012
 10
490.727539
 20
228.141281
 10
489.766235
 20
229.388855
 10
488.722656
 20
230.673782
 10
487.602509
 20
231.987991
 10
486.412384
 20
233.322708
 10
485.1604
 20
234.668152
 10
483.854736
 20
236.014633
 10
482.503357
 20
237.353165
 10
481.115051
 20
238.674179
 10
479.699951
 20
239.967239
 10
478.27005
 20
241.220612
 10
476.83728
 20
242.42305
 10
475.412079
 20
243.565613
 10
474.006134
 20
244.638718
 10
472.632294
 20
245.631882
 10
471.303162
 20
246.535507
 10
470.030548
 20
247.342316
 10
468.825836
 20
248.045563
 10
467.697693
 20
248.640488
 10
466.653198
 20
249.123917
 10
465.700378
 20
249.493149
 10
464.846436
 20
249.746368
 10
464.095825
 20
249.883743
 10
463.452148
 20
249.906067
 10
462.918182
 20
249.814819
 10
462.493835
 20
249.610779
  0
ELLIPSE
  5
A6
330
9B
100
AcDbEntity
  8
0
  6
Continuous
 62
     0
370
    30
100
AcDbEllipse
 10
467.287152
 20
163.830386
 30
0.0
 11
-6.49999415358911
 21
1.251449782971798E-7
 31
0.0
210
0.0
220
0.0
230
0.9999999999999999
 40
0.707107
 41
0.7853981770114409
 42
3.141592632688127
  0
ELLIPSE
  5
A7
330
9B
100
AcDbEntity
  8
0
  6
Continuous
 62
     0
370
    30
100
AcDbEllipse
 10
467.287152
 20
163.830386
 30
0.0
 11
-6.49999415358911
 21
1.251449782971798E-7
 31
0.0
210
0.0
220
0.0
230
0.9999999999999999
 40
0.707107
 41
6.28318528627792
 42
7.068583484191026
  0
ELLIPSE
  5
A8
330
9B
100
AcDbEntity
  8
0
  6
Continuous
 62
     0
370
    30
100
AcDbEllipse
 10
503.359289
 20
251.562634
 30
0.0
 11
-34.64094855241373
 21
48.98969458233501
 31
0.0
210
0.0
220
0.0
230
-1.0
 40
0.5
 41
0.955316664363653
 42
4.096909317953446
  0
ELLIPSE
  5
A9
330
9B
100
AcDbEntity
  8
0
  6
Continuous
 62
     0
370
    30
100
AcDbEllipse
 10
503.359289
 20
251.562634
 30
0.0
 11
-34.64094855241373
 21
48.98969458233501
 31
0.0
210
0.0
220
0.0
230
-1.0
 40
0.5
 41
5.091398397416076
 42
7.238501971543239
  0
ELLIPSE
  5
AA
330
9B
100
AcDbEntity
  8
0
  6
Continuous
 62
     0
370
    30
100
AcDbEllipse
 10
503.359289
 20
251.562634
 30
0.0
 11
-34.64094855241373
 21
48.98969458233501
 31
0.0
210
0.0
220
0.0
230
-1.0
 40
0.5
 41
4.096909317953446
 42
4.333379446970083
  0
ELLIPSE
  5
AB
330
9B
100
AcDbEntity
  8
0
  6
Continuous
 62
     0
370
    30
100
AcDbEllipse
 10
507.251358
 20
254.314743
 30
0.0
 11
34.64094855241373
 21
-48.98969458233501
 31
0.0
210
0.0
220
0.0
230
1.0
 40
0.5
 41
2.18627598922614
 42
3.141592713657522
  0
ELLIPSE
  5
AC
330
9B
100
AcDbEntity
  8
0
  6
Continuous
 62
     0
370
    30
100
AcDbEllipse
 10
507.251358
 20
254.314743
 30
0.0
 11
34.64094855241373
 21
-48.98969458233501
 31
0.0
210
0.0
220
0.0
230
1.0
 40
0.5
 41
0.0000000600677295
 42
2.186275989226139
  0
LWPOLYLINE
  5
AD
330
9B
100
AcDbEntity
  8
0
  6
Continuous
 62
     0
370
    30
100
AcDbPolyline
 90
       27
 70
     0
 43
0.0
 10
503.359283
 20
267.260406
 10
504.6763
 20
266.273651
 10
505.985443
 20
265.182129
 10
507.275879
 20
263.994537
 10
508.538147
 20
262.719513
 10
509.763763
 20
261.365845
 10
510.944305
 20
259.94278
 10
512.071411
 20
258.460541
 10
513.136841
 20
256.929626
 10
514.133362
 20
255.360825
 10
515.053711
 20
253.765213
 10
515.891602
 20
252.154037
 10
516.64093
 20
250.538696
 10
517.296509
 20
248.930573
 10
517.85376
 20
247.341034
 10
518.308533
 20
245.781326
 10
518.657898
 20
244.26239
 10
518.89917
 20
242.795044
 10
519.030701
 20
241.389572
 10
519.051697
 20
240.055923
 10
518.961792
 20
238.803543
 10
518.761841
 20
237.641174
 10
518.453003
 20
236.577209
 10
518.03772
 20
235.618927
 10
517.518738
 20
234.773285
 10
516.89978
 20
234.046173
 10
516.176941
 20
233.436768
  0
LINE
  5
AE
330
9B
100
AcDbEntity
  8
0
  6
Continuous
 62
     0
370
     0
100
AcDbLine
 10
480.164287
 20
250.85906
 30
0.0
 11
503.359289
 21
267.260404
 31
0.0
  0
LWPOLYLINE
  5
AF
330
9B
100
AcDbEntity
  8
0
  6
Continuous
 62
     0
370
    30
100
AcDbPolyline
 90
       13
 70
     0
 43
0.0
 10
490.541626
 20
269.688477
 10
491.298126
 20
270.138367
 10
492.130035
 20
270.472137
 10
493.032257
 20
270.687439
 10
493.999115
 20
270.783112
 10
495.024567
 20
270.758484
 10
496.102234
 20
270.613647
 10
497.225189
 20
270.349762
 10
498.386414
 20
269.968262
 10
499.578918
 20
269.471558
 10
500.795532
 20
268.862427
 10
502.028351
 20
268.144867
 10
503.359283
 20
267.260406
  0
LINE
  5
B0
330
9B
100
AcDbEntity
  8
0
  6
Continuous
 62
     0
370
    30
100
AcDbLine
 10
467.34661
 20
253.287136
 30
0.0
 11
490.541612
 21
269.688479
 31
0.0
  0
LINE
  5
B1
330
9B
100
AcDbEntity
  8
0
  6
Continuous
 62
     0
370
    30
100
AcDbLine
 10
492.981943
 20
217.035429
 30
0.0
 11
516.176945
 21
233.436773
 31
0.0
  0
LINE
  5
B2
330
9B
100
AcDbEntity
  8
0
  6
Continuous
 62
     0
370
    30
100
AcDbLine
 10
538.000239
 20
202.572941
 30
0.0
 11
541.892308
 21
205.32505
 31
0.0
  0
LINE
  5
B3
330
9B
100
AcDbEntity
  8
0
  6
Continuous
 62
     0
370
    30
100
AcDbLine
 10
468.718339
 20
300.552328
 30
0.0
 11
472.610408
 21
303.304437
 31
0.0
  0
LWPOLYLINE
  5
B4
330
9B
100
AcDbEntity
  8
0
  6
Continuous
 62
     0
370
    30
100
AcDbPolyline
 90
        3
 70
     0
 43
0.0
 10
467.307281
 20
251.093826
 10
466.935883
 20
250.773285
 10
465.634125
 20
249.515732
  0
LINE
  5
B5
330
9B
100
AcDbEntity
  8
0
  6
Continuous
 62
     0
370
    30
100
AcDbLine
 10
460.787158
 20
200.647444
 30
0.0
 11
460.787157
 21
163.830386
 31
0.0
  0
LINE
  5
B6
330
9B
100
AcDbEntity
  8
0
  6
Continuous
 62
     0
370
    30
100
AcDbLine
 10
473.787146
 20
203.70758
 30
0.0
 11
473.787146
 21
163.830385
 31
0.0
  0
LINE
  5
B7
330
9B
100
AcDbEntity
  8
0
  6
Continuous
 62
     0
370
    30
100
AcDbLine
 10
491.302568
 20
216.092855
 30
0.0
 11
469.382258
 21
200.592855
 31
0.0
  0
LINE
  5
B8
330
9B
100
AcDbEntity
  8
0
  6
Continuous
 62
     0
370
    30
100
AcDbLine
 10
462.493943
 20
249.610856
 30
0.0
 11
443.978844
 21
236.518703
 31
0.0
  0
LWPOLYLINE
  5
B9
330
9B
100
AcDbEntity
  8
0
  6
Continuous
 62
     0
370
    30
100
AcDbPolyline
 90
        3
 70
     0
 43
0.0
 10
491.543549
 20
216.273346
 10
492.118195
 20
216.522491
 10
492.981934
 20
217.035431
  0
LWPOLYLINE
  5
BA
330
9B
100
AcDbEntity
  8
0
  6
Continuous
 62
     0
370
    30
100
AcDbPolyline
 90
        6
 70
     0
 43
0.0
 10
467.346619
 20
253.28714
 10
466.70932
 20
252.771103
 10
466.138123
 20
252.172134
 10
465.638306
 20
251.497849
 10
465.21228
 20
250.754684
 10
464.791534
 20
249.759491
  0
ENDBLK
  5
BC
330
9B
100
AcDbEntity
  8
0
100
AcDbBlockEnd
  0
BLOCK
  5
DA
330
BE
100
AcDbEntity
  8
0
100
AcDbBlockBegin
  2
e
 70
     0
 10
273.330566
 20
0.0
 30
0.0
  3
e
  1

  0
LINE
  5
BF
330
BE
100
AcDbEntity
  8
0
  6
Continuous
 62
     0
370
    30
100
AcDbLine
 10
201.727123
 20
418.073231
 30
0.0
 11
201.727123
 21
460.473231
 31
0.0
  0
ARC
  5
C0
330
BE
100
AcDbEntity
  8
0
  6
Continuous
 62
     0
370
    30
100
AcDbCircle
 10
202.727123
 20
460.473231
 30
0.0
 40
0.9999999999995204
100
AcDbArc
 50
90.0
 51
180.0
  0
LINE
  5
C1
330
BE
100
AcDbEntity
  8
0
  6
Continuous
 62
     0
370
     0
100
AcDbLine
 10
202.727123
 20
417.073231
 30
0.0
 11
202.727123
 21
461.473231
 31
0.0
  0
LWPOLYLINE
  5
C2
330
BE
100
AcDbEntity
  8
0
  6
Continuous
 62
     0
370
    30
100
AcDbPolyline
 90
       20
 70
     0
 43
0.0
 10
200.516098
 20
417.273224
 10
200.516098
 20
417.334198
 10
200.516098
 20
417.523651
 10
200.516098
 20
417.850098
 10
200.516098
 20
418.32019
 10
200.516098
 20
418.93808
 10
200.516098
 20
419.705078
 10
200.516098
 20
420.619385
 10
200.516098
 20
421.675873
 10
200.516098
 20
422.866089
 10
200.516098
 20
424.178436
 10
200.516098
 20
425.598572
 10
200.516098
 20
427.109985
 10
200.516098
 20
428.694458
 10
200.516098
 20
430.332886
 10
200.516098
 20
432.006012
 10
200.516098
 20
433.694977
 10
200.516098
 20
435.382019
 10
200.516098
 20
437.050934
 10
200.516098
 20
438.743927
  0
LWPOLYLINE
  5
C3
330
BE
100
AcDbEntity
  8
0
  6
Continuous
 62
     0
370
    30
100
AcDbPolyline
 90
       39
 70
     0
 43
0.0
 10
169.516098
 20
417.273224
 10
169.516098
 20
417.335938
 10
169.516098
 20
417.530975
 10
169.516098
 20
417.867462
 10
169.516098
 20
418.352448
 10
169.516098
 20
418.990387
 10
169.516098
 20
419.782684
 10
169.516098
 20
420.727386
 10
169.516098
 20
421.819
 10
169.516098
 20
423.048401
 10
169.516098
 20
424.403168
 10
169.516098
 20
425.867981
 10
169.516098
 20
427.425049
 10
169.516098
 20
429.055023
 10
169.516098
 20
430.737579
 10
169.516098
 20
432.452362
 10
169.516098
 20
434.179535
 10
169.516098
 20
435.900574
 10
169.516098
 20
437.598663
 10
169.516098
 20
439.259064
 10
169.516098
 20
440.918701
 10
169.516098
 20
442.616241
 10
169.516098
 20
444.337036
 10
169.516098
 20
446.06427
 10
169.516098
 20
447.779419
 10
169.516098
 20
449.462708
 10
169.516098
 20
451.09375
 10
169.516098
 20
452.652252
 10
169.516098
 20
454.118805
 10
169.516098
 20
455.475647
 10
169.516098
 20
456.707336
 10
169.516098
 20
457.801392
 10
169.516098
 20
458.748718
 10
169.516098
 20
459.543671
 10
169.516098
 20
460.184265
 10
169.516098
 20
460.671875
 10
169.516098
 20
461.010864
 10
169.516098
 20
461.208282
 10
169.516098
 20
461.273224
  0
LINE
  5
C4
330
BE
100
AcDbEntity
  8
0
  6
Continuous
 62
     0
370
    30
100
AcDbLine
 10
200.516104
 20
438.743914
 30
0.0
 11
192.315904
 21
461.27323
 31
0.0
  0
LINE
  5
C5
330
BE
100
AcDbEntity
  8
0
  6
Continuous
 62
     0
370
    30
100
AcDbLine
 10
200.516105
 20
417.27323
 30
0.0
 11
195.999412
 21
417.27323
 31
0.0
  0
LINE
  5
C6
330
BE
100
AcDbEntity
  8
0
  6
Continuous
 62
     0
370
    30
100
AcDbLine
 10
173.032799
 20
417.27323
 30
0.0
 11
169.516105
 21
417.27323
 31
0.0
  0
LWPOLYLINE
  5
C7
330
BE
100
AcDbEntity
  8
0
  6
Continuous
 62
     0
370
     0
100
AcDbPolyline
 90
       32
 70
     0
 43
0.0
 10
173.032791
 20
417.273224
 10
173.108704
 20
417.298859
 10
173.328949
 20
417.373749
 10
173.685303
 20
417.492401
 10
174.16571
 20
417.646759
 10
174.753357
 20
417.827667
 10
175.43364
 20
418.025543
 10
176.193161
 20
418.231537
 10
177.020905
 20
418.437469
 10
177.906631
 20
418.635925
 10
178.8405
 20
418.819794
 10
179.814651
 20
418.983246
 10
180.821701
 20
419.120911
 10
181.854355
 20
419.228424
 10
182.90538
 20
419.302338
 10
183.967499
 20
419.340179
 10
185.033417
 20
419.340729
 10
186.095749
 20
419.303986
 10
187.147202
 20
419.23111
 10
188.180496
 20
419.124542
 10
189.188385
 20
418.987671
 10
190.163666
 20
418.82489
 10
191.09877
 20
418.641541
 10
191.985764
 20
418.443542
 10
192.815826
 20
418.23761
 10
193.578979
 20
418.031036
 10
194.262497
 20
417.83252
 10
194.852951
 20
417.651001
 10
195.33606
 20
417.49588
 10
195.696564
 20
417.376251
 10
195.920685
 20
417.300171
 10
195.999405
 20
417.273224
  0
LINE
  5
C8
330
BE
100
AcDbEntity
  8
0
  6
Continuous
 62
     0
370
    30
100
AcDbLine
 10
178.032037
 20
412.185968
 30
0.0
 11
178.016105
 21
411.27323
 31
0.0
  0
LINE
  5
C9
330
BE
100
AcDbEntity
  8
0
  6
Continuous
 62
     0
370
     0
100
AcDbLine
 10
191.016105
 20
411.27323
 30
0.0
 11
178.016105
 21
411.27323
 31
0.0
  0
LWPOLYLINE
  5
CA
330
BE
100
AcDbEntity
  8
0
  6
Continuous
 62
     0
370
     0
100
AcDbPolyline
 90
       25
 70
     0
 43
0.0
 10
178.032043
 20
412.185974
 10
178.091873
 20
412.230225
 10
178.267593
 20
412.358704
 10
178.550491
 20
412.559082
 10
178.929932
 20
412.815613
 10
179.395126
 20
413.110565
 10
179.937744
 20
413.4263
 10
180.55188
 20
413.745392
 10
181.23349
 20
414.049866
 10
181.978516
 20
414.320526
 10
182.779297
 20
414.536774
 10
183.627594
 20
414.677551
 10
184.502228
 20
414.728271
 10
185.377274
 20
414.680603
 10
186.226791
 20
414.54248
 10
187.029221
 20
414.328278
 10
187.776108
 20
414.05896
 10
188.459808
 20
413.755249
 10
189.076126
 20
413.43634
 10
189.621094
 20
413.12027
 10
190.088837
 20
412.824371
 10
190.47113
 20
412.566254
 10
190.757263
 20
412.3638
 10
190.936523
 20
412.232941
 10
191.000168
 20
412.185974
  0
ARC
  5
CB
330
BE
100
AcDbEntity
  8
0
  6
Continuous
 62
     0
370
    30
100
AcDbCircle
 10
173.032799
 20
412.27323
 30
0.0
 40
5.000000000000146
100
AcDbArc
 50
359.0
 51
90.0
  0
ARC
  5
CC
330
BE
100
AcDbEntity
  8
0
  6
Continuous
 62
     0
370
    30
100
AcDbCircle
 10
195.999412
 20
412.27323
 30
0.0
 40
5.000000000000009
100
AcDbArc
 50
90.0
 51
181.0
  0
LINE
  5
CD
330
BE
100
AcDbEntity
  8
0
  6
Continuous
 62
     0
370
    30
100
AcDbLine
 10
178.016111
 20
351.27323
 30
0.0
 11
191.016099
 21
351.27323
 31
0.0
  0
LINE
  5
CE
330
BE
100
AcDbEntity
  8
0
  6
Continuous
 62
     0
370
    30
100
AcDbLine
 10
178.016111
 20
351.27323
 30
0.0
 11
178.016111
 21
411.27323
 31
0.0
  0
LINE
  5
CF
330
BE
100
AcDbEntity
  8
0
  6
Continuous
 62
     0
370
    30
100
AcDbLine
 10
241.034024
 20
499.273111
 30
0.0
 11
235.529807
 21
499.27311
 31
0.0
  0
LINE
  5
D0
330
BE
100
AcDbEntity
  8
0
  6
Continuous
 62
     0
370
    30
100
AcDbLine
 10
235.529807
 20
499.27311
 30
0.0
 11
235.529812
 21
379.273352
 31
0.0
  0
LINE
  5
D1
330
BE
100
AcDbEntity
  8
0
  6
Continuous
 62
     0
370
    30
100
AcDbLine
 10
241.03403
 20
379.273352
 30
0.0
 11
241.034024
 21
499.273111
 31
0.0
  0
LINE
  5
D2
330
BE
100
AcDbEntity
  8
0
  6
Continuous
 62
     0
370
    30
100
AcDbLine
 10
202.727123
 20
461.473231
 30
0.0
 11
235.52981
 21
461.473231
 31
0.0
  0
LINE
  5
D3
330
BE
100
AcDbEntity
  8
0
  6
Continuous
 62
     0
370
    30
100
AcDbLine
 10
235.52981
 20
417.073231
 30
0.0
 11
202.727123
 21
417.073231
 31
0.0
  0
LINE
  5
D4
330
BE
100
AcDbEntity
  8
0
  6
Continuous
 62
     0
370
    30
100
AcDbLine
 10
235.529812
 20
379.273352
 30
0.0
 11
241.03403
 21
379.273352
 31
0.0
  0
ARC
  5
D5
330
BE
100
AcDbEntity
  8
0
  6
Continuous
 62
     0
370
    30
100
AcDbCircle
 10
203.227173
 20
439.273527
 30
0.0
 40
20.50543443731431
100
AcDbArc
 50
262.402557
 51
265.804848
  0
ARC
  5
D6
330
BE
100
AcDbEntity
  8
0
  6
Continuous
 62
     0
370
    30
100
AcDbCircle
 10
203.227097
 20
439.273393
 30
0.0
 40
20.50496885903008
100
AcDbArc
 50
94.195034
 51
117.645546
  0
LINE
  5
D7
330
BE
100
AcDbEntity
  8
0
  6
Continuous
 62
     0
370
    30
100
AcDbLine
 10
191.016099
 20
411.27323
 30
0.0
 11
191.016099
 21
351.27323
 31
0.0
  0
LINE
  5
D8
330
BE
100
AcDbEntity
  8
0
  6
Continuous
 62
     0
370
    30
100
AcDbLine
 10
192.315806
 20
461.27323
 30
0.0
 11
169.516105
 21
461.27323
 31
0.0
  0
ARC
  5
D9
330
BE
100
AcDbEntity
  8
0
  6
Continuous
 62
     0
370
    30
100
AcDbCircle
 10
202.727149
 20
418.073257
 30
0.0
 40
1.000025415542376
100
AcDbArc
 50
180.007186
 51
269.998544
  0
ENDBLK
  5
DB
330
BE
100
AcDbEntity
  8
0
100
AcDbBlockEnd
  0
ENDSEC
  0
SECTION
  2
ENTITIES
  0
INSERT
  5
5E
330
1F
100
AcDbEntity
  8
0
  6
Continuous
 62
   250
370
     0
100
AcDbBlockReference
  2
a
 10
261.942688
 20
146.785187
 30
0.0
  0
INSERT
  5
7C
330
1F
100
AcDbEntity
  8
0
  6
Continuous
 62
   250
370
     0
100
AcDbBlockReference
  2
b
 10
287.153248
 20
146.785187
 30
0.0
  0
INSERT
  5
9A
330
1F
100
AcDbEntity
  8
0
  6
Continuous
 62
   250
370
     0
100
AcDbBlockReference
  2
c
 10
261.942688
 20
175.345306
 30
0.0
  0
INSERT
  5
BD
330
1F
100
AcDbEntity
  8
0
  6
Continuous
 62
   250
370
     0
100
AcDbBlockReference
  2
d
 10
261.942688
 20
146.785187
 30
0.0
  0
INSERT
  5
DC
330
1F
100
AcDbEntity
  8
0
  6
Continuous
 62
   250
370
     0
100
AcDbBlockReference
  2
e
 10
273.330566
 20
0.0
 30
0.0
  0
ENDSEC
  0
SECTION
  2
OBJECTS
  0
DICTIONARY
  5
C
330
0
100
AcDbDictionary
281
     1
  3
ACAD_GROUP
350
D
  3
ACAD_LAYOUT
350
1A
  3
ACAD_MLEADERSTYLE
350
DF
  3
ACAD_MLINESTYLE
350
17
  3
ACAD_PLOTSETTINGS
350
19
  3
ACAD_PLOTSTYLENAME
350
E
  3
ACAD_VISUALSTYLE
350
2A
  3
AcDbVariableDictionary
350
DD
  0
DICTIONARY
  5
D
102
{ACAD_REACTORS
330
C
102
}
330
C
100
AcDbDictionary
281
     1
  0
DICTIONARY
  5
1A
102
{ACAD_REACTORS
330
C
102
}
330
C
100
AcDbDictionary
281
     1
  3
Layout1
350
1E
  3
Layout2
350
26
  3
Model
350
22
  0
DICTIONARY
  5
DF
102
{ACAD_REACTORS
330
C
102
}
330
C
100
AcDbDictionary
281
     1
  0
DICTIONARY
  5
17
102
{ACAD_REACTORS
330
C
102
}
330
C
100
AcDbDictionary
281
     1
  3
Standard
350
18
  0
DICTIONARY
  5
19
102
{ACAD_REACTORS
330
C
102
}
330
C
100
AcDbDictionary
281
     1
  0
ACDBDICTIONARYWDFLT
  5
E
102
{ACAD_REACTORS
330
C
102
}
330
C
100
AcDbDictionary
281
     1
  3
Normal
350
F
100
AcDbDictionaryWithDefault
340
F
  0
DICTIONARY
  5
2A
102
{ACAD_REACTORS
330
C
102
}
330
C
100
AcDbDictionary
281
     1
  3
2dWireframe
350
2F
  3
3D Hidden
350
31
  3
3dWireframe
350
30
  3
Basic
350
32
  3
Brighten
350
36
  3
ColorChange
350
3A
  3
Conceptual
350
34
  3
Dim
350
35
  3
Facepattern
350
39
  3
Flat
350
2B
  3
FlatWithEdges
350
2C
  3
Gouraud
350
2D
  3
GouraudWithEdges
350
2E
  3
Linepattern
350
38
  3
Realistic
350
33
  3
Thicken
350
37
  0
DICTIONARY
  5
DD
102
{ACAD_REACTORS
330
C
102
}
330
C
100
AcDbDictionary
281
     1
  3
PSOLHEIGHT
350
E1
  3
PSOLWIDTH
350
E0
  0
LAYOUT
  5
1E
102
{ACAD_REACTORS
330
1A
102
}
330
1A
100
AcDbPlotSettings
  1

  2
none_device
  4

  6

 40
0.0
 41
0.0
 42
0.0
 43
0.0
 44
0.0
 45
0.0
 46
0.0
 47
0.0
 48
0.0
 49
0.0
140
0.0
141
0.0
142
1.0
143
1.0
 70
   688
 72
     0
 73
     0
 74
     5
  7

 75
    16
147
1.0
148
0.0
149
0.0
100
AcDbLayout
  1
Layout1
 70
     1
 71
     1
 10
0.0
 20
0.0
 11
420.0
 21
297.0
 12
0.0
 22
0.0
 32
0.0
 14
1.000000E+20
 24
1.000000E+20
 34
1.000000E+20
 15
-1.000000E+20
 25
-1.000000E+20
 35
-1.000000E+20
146
0.0
 13
0.0
 23
0.0
 33
0.0
 16
1.0
 26
0.0
 36
0.0
 17
0.0
 27
1.0
 37
0.0
 76
     0
330
1B
  0
LAYOUT
  5
26
102
{ACAD_REACTORS
330
1A
102
}
330
1A
100
AcDbPlotSettings
  1

  2
none_device
  4

  6

 40
0.0
 41
0.0
 42
0.0
 43
0.0
 44
0.0
 45
0.0
 46
0.0
 47
0.0
 48
0.0
 49
0.0
140
0.0
141
0.0
142
1.0
143
1.0
 70
   688
 72
     0
 73
     0
 74
     5
  7

 75
    16
147
1.0
148
0.0
149
0.0
100
AcDbLayout
  1
Layout2
 70
     1
 71
     2
 10
0.0
 20
0.0
 11
0.0
 21
0.0
 12
0.0
 22
0.0
 32
0.0
 14
0.0
 24
0.0
 34
0.0
 15
0.0
 25
0.0
 35
0.0
146
0.0
 13
0.0
 23
0.0
 33
0.0
 16
1.0
 26
0.0
 36
0.0
 17
0.0
 27
1.0
 37
0.0
 76
     0
330
23
  0
LAYOUT
  5
22
102
{ACAD_REACTORS
330
1A
102
}
330
1A
100
AcDbPlotSettings
  1

  2
none_device
  4

  6

 40
0.0
 41
0.0
 42
0.0
 43
0.0
 44
0.0
 45
0.0
 46
0.0
 47
0.0
 48
0.0
 49
0.0
140
0.0
141
0.0
142
1.0
143
1.0
 70
  1712
 72
     0
 73
     0
 74
     0
  7

 75
     0
147
1.0
148
0.0
149
0.0
100
AcDbLayout
  1
Model
 70
     1
 71
     0
 10
169.516098
 20
139.364471
 11
549.677063
 21
499.273102
 12
0.0
 22
0.0
 32
0.0
 14
169.516098
 24
139.364471
 34
0.0
 15
549.677063
 25
499.273102
 35
0.0
146
0.0
 13
0.0
 23
0.0
 33
0.0
 16
1.0
 26
0.0
 36
0.0
 17
0.0
 27
1.0
 37
0.0
 76
     0
330
1F
331
29
  0
MLINESTYLE
  5
18
102
{ACAD_REACTORS
330
17
102
}
330
17
100
AcDbMlineStyle
  2
Standard
 70
     0
  3

 62
   256
 51
90.0
 52
90.0
 71
     2
 49
0.5
 62
   256
  6
BYLAYER
 49
-0.5
 62
   256
  6
BYLAYER
  0
ACDBPLACEHOLDER
  5
F
102
{ACAD_REACTORS
330
E
102
}
330
E
  0
VISUALSTYLE
  5
2F
102
{ACAD_REACTORS
330
2A
102
}
330
2A
100
AcDbVisualStyle
  2
2dWireframe
 70
     4
 71
     0
 72
     2
 73
     0
 90
        0
 40
-0.6
 41
-30.0
 62
     5
 63
     7
 74
     1
 91
        4
 64
     7
 65
   257
 75
     1
175
     1
 42
1.0
 92
        0
 66
   257
 43
1.0
 76
     1
 77
     6
 78
     2
 67
     7
 79
     5
170
     0
171
     0
290
     0
174
     0
 93
        1
 44
0.0
173
     0
291
     0
 45
0.0
1001
ACAD
1000
AcDbSavedByObjectVersion
1070
     0
  0
VISUALSTYLE
  5
31
102
{ACAD_REACTORS
330
2A
102
}
330
2A
100
AcDbVisualStyle
  2
3D Hidden
 70
     6
 71
     1
 72
     2
 73
     2
 90
        0
 40
-0.6
 41
-30.0
 62
     5
 63
     7
 74
     2
 91
        2
 64
     7
 65
   257
 75
     2
175
     1
 42
40.0
 92
        0
 66
   257
 43
1.0
 76
     1
 77
     6
 78
     2
 67
     7
 79
     3
170
     0
171
     0
290
     0
174
     0
 93
        1
 44
0.0
173
     0
291
     0
 45
0.0
1001
ACAD
1000
AcDbSavedByObjectVersion
1070
     0
  0
VISUALSTYLE
  5
30
102
{ACAD_REACTORS
330
2A
102
}
330
2A
100
AcDbVisualStyle
  2
3dWireframe
 70
     5
 71
     0
 72
     2
 73
     0
 90
        0
 40
-0.6
 41
-30.0
 62
     5
 63
     7
 74
     1
 91
        4
 64
     7
 65
   257
 75
     1
175
     1
 42
1.0
 92
        0
 66
   257
 43
1.0
 76
     1
 77
     6
 78
     2
 67
     7
 79
     5
170
     0
171
     0
290
     0
174
     0
 93
        1
 44
0.0
173
     0
291
     0
 45
0.0
1001
ACAD
1000
AcDbSavedByObjectVersion
1070
     0
  0
VISUALSTYLE
  5
32
102
{ACAD_REACTORS
330
2A
102
}
330
2A
100
AcDbVisualStyle
  2
Basic
 70
     7
 71
     1
 72
     0
 73
     1
 90
        0
 40
-0.6
 41
-30.0
 62
     5
 63
     7
 74
     0
 91
        4
 64
     7
 65
   257
 75
     1
175
     1
 42
1.0
 92
        8
 66
     7
 43
1.0
 76
     1
 77
     6
 78
     2
 67
     7
 79
     5
170
     0
171
     0
290
     0
174
     0
 93
        1
 44
0.0
173
     0
291
     1
 45
0.0
1001
ACAD
1000
AcDbSavedByObjectVersion
1070
     0
  0
VISUALSTYLE
  5
36
102
{ACAD_REACTORS
330
2A
102
}
330
2A
100
AcDbVisualStyle
  2
Brighten
 70
    12
 71
     2
 72
     2
 73
     0
 90
        0
 40
-0.6
 41
-30.0
 62
     5
 63
     7
 74
     1
 91
        4
 64
     7
 65
   257
 75
     1
175
     1
 42
1.0
 92
        8
 66
     7
 43
1.0
 76
     1
 77
     6
 78
     2
 67
     7
 79
     5
170
     0
171
     0
290
     0
174
     0
 93
        1
 44
50.0
173
     0
291
     1
 45
0.0
1001
ACAD
1000
AcDbSavedByObjectVersion
1070
     0
  0
VISUALSTYLE
  5
3A
102
{ACAD_REACTORS
330
2A
102
}
330
2A
100
AcDbVisualStyle
  2
ColorChange
 70
    16
 71
     2
 72
     2
 73
     3
 90
        0
 40
-0.6
 41
-30.0
 62
     5
 63
     8
 74
     1
 91
        4
 64
     7
 65
   257
 75
     1
175
     1
 42
1.0
 92
        8
 66
     8
 43
1.0
 76
     1
 77
     6
 78
     2
 67
     7
 79
     5
170
     0
171
     0
290
     0
174
     0
 93
        1
 44
0.0
173
     0
291
     1
 45
0.0
1001
ACAD
1000
AcDbSavedByObjectVersion
1070
     0
  0
VISUALSTYLE
  5
34
102
{ACAD_REACTORS
330
2A
102
}
330
2A
100
AcDbVisualStyle
  2
Conceptual
 70
     9
 71
     3
 72
     2
 73
     0
 90
        0
 40
-0.6
 41
-30.0
 62
     5
 63
     7
 74
     2
 91
        2
 64
     7
 65
   257
 75
     1
175
     1
 42
40.0
 92
        8
 66
     7
 43
1.0
 76
     1
 77
     6
 78
     2
 67
     7
 79
     3
170
     0
171
     0
290
     0
174
     0
 93
        1
 44
0.0
173
     0
291
     0
 45
0.0
1001
ACAD
1000
AcDbSavedByObjectVersion
1070
     0
  0
VISUALSTYLE
  5
35
102
{ACAD_REACTORS
330
2A
102
}
330
2A
100
AcDbVisualStyle
  2
Dim
 70
    11
 71
     2
 72
     2
 73
     0
 90
        0
 40
-0.6
 41
-30.0
 62
     5
 63
     7
 74
     1
 91
        4
 64
     7
 65
   257
 75
     1
175
     1
 42
1.0
 92
        8
 66
     7
 43
1.0
 76
     1
 77
     6
 78
     2
 67
     7
 79
     5
170
     0
171
     0
290
     0
174
     0
 93
        1
 44
-50.0
173
     0
291
     1
 45
0.0
1001
ACAD
1000
AcDbSavedByObjectVersion
1070
     0
  0
VISUALSTYLE
  5
39
102
{ACAD_REACTORS
330
2A
102
}
330
2A
100
AcDbVisualStyle
  2
Facepattern
 70
    15
 71
     2
 72
     2
 73
     0
 90
        0
 40
-0.6
 41
-30.0
 62
     5
 63
     7
 74
     1
 91
        4
 64
     7
 65
   257
 75
     1
175
     1
 42
1.0
 92
        8
 66
     7
 43
1.0
 76
     1
 77
     6
 78
     2
 67
     7
 79
     5
170
     0
171
     0
290
     0
174
     0
 93
        1
 44
0.0
173
     0
291
     1
 45
0.0
1001
ACAD
1000
AcDbSavedByObjectVersion
1070
     0
  0
VISUALSTYLE
  5
2B
102
{ACAD_REACTORS
330
2A
102
}
330
2A
100
AcDbVisualStyle
  2
Flat
 70
     0
 71
     2
 72
     1
 73
     1
 90
        2
 40
-0.6
 41
30.0
 62
     5
 63
     7
 74
     0
 91
        4
 64
     7
 65
   257
 75
     1
175
     1
 42
1.0
 92
        8
 66
     7
 43
1.0
 76
     1
 77
     6
 78
     2
 67
     7
 79
     5
170
     0
171
     0
290
     0
174
     0
 93
       13
 44
0.0
173
     0
291
     1
 45
0.0
1001
ACAD
1000
AcDbSavedByObjectVersion
1070
     0
  0
VISUALSTYLE
  5
2C
102
{ACAD_REACTORS
330
2A
102
}
330
2A
100
AcDbVisualStyle
  2
FlatWithEdges
 70
     1
 71
     2
 72
     1
 73
     1
 90
        2
 40
-0.6
 41
30.0
 62
     5
 63
     7
 74
     1
 91
        4
 64
     7
 65
   257
 75
     1
175
     1
 42
1.0
 92
        0
 66
   257
 43
1.0
 76
     1
 77
     6
 78
     2
 67
     7
 79
     5
170
     0
171
     0
290
     0
174
     0
 93
       13
 44
0.0
173
     0
291
     1
 45
0.0
1001
ACAD
1000
AcDbSavedByObjectVersion
1070
     0
  0
VISUALSTYLE
  5
2D
102
{ACAD_REACTORS
330
2A
102
}
330
2A
100
AcDbVisualStyle
  2
Gouraud
 70
     2
 71
     2
 72
     2
 73
     1
 90
        2
 40
-0.6
 41
30.0
 62
     5
 63
     7
 74
     0
 91
        4
 64
     7
 65
   257
 75
     1
175
     1
 42
1.0
 92
        0
 66
     7
 43
1.0
 76
     1
 77
     6
 78
     2
 67
     7
 79
     5
170
     0
171
     0
290
     0
174
     0
 93
       13
 44
0.0
173
     0
291
     1
 45
0.0
1001
ACAD
1000
AcDbSavedByObjectVersion
1070
     0
  0
VISUALSTYLE
  5
2E
102
{ACAD_REACTORS
330
2A
102
}
330
2A
100
AcDbVisualStyle
  2
GouraudWithEdges
 70
     3
 71
     2
 72
     2
 73
     1
 90
        2
 40
-0.6
 41
30.0
 62
     5
 63
     7
 74
     1
 91
        4
 64
     7
 65
   257
 75
     1
175
     1
 42
1.0
 92
        0
 66
   257
 43
1.0
 76
     1
 77
     6
 78
     2
 67
     7
 79
     5
170
     0
171
     0
290
     0
174
     0
 93
       13
 44
0.0
173
     0
291
     1
 45
0.0
1001
ACAD
1000
AcDbSavedByObjectVersion
1070
     0
  0
VISUALSTYLE
  5
38
102
{ACAD_REACTORS
330
2A
102
}
330
2A
100
AcDbVisualStyle
  2
Linepattern
 70
    14
 71
     2
 72
     2
 73
     0
 90
        0
 40
-0.6
 41
-30.0
 62
     5
 63
     7
 74
     1
 91
        4
 64
     7
 65
   257
 75
     7
175
     7
 42
1.0
 92
        8
 66
     7
 43
1.0
 76
     1
 77
     6
 78
     2
 67
     7
 79
     5
170
     0
171
     0
290
     0
174
     0
 93
        1
 44
0.0
173
     0
291
     1
 45
0.0
1001
ACAD
1000
AcDbSavedByObjectVersion
1070
     0
  0
VISUALSTYLE
  5
33
102
{ACAD_REACTORS
330
2A
102
}
330
2A
100
AcDbVisualStyle
  2
Realistic
 70
     8
 71
     2
 72
     2
 73
     0
 90
        0
 40
-0.6
 41
-30.0
 62
     5
 63
     7
 74
     1
 91
        0
 64
     7
 65
   257
 75
     1
175
     1
 42
1.0
 92
        8
 66
     8
 43
1.0
 76
     1
 77
     6
 78
     2
 67
     7
 79
     5
170
     0
171
     0
290
     0
174
     0
 93
       13
 44
0.0
173
     0
291
     0
 45
0.0
1001
ACAD
1000
AcDbSavedByObjectVersion
1070
     0
  0
VISUALSTYLE
  5
37
102
{ACAD_REACTORS
330
2A
102
}
330
2A
100
AcDbVisualStyle
  2
Thicken
 70
    13
 71
     2
 72
     2
 73
     0
 90
        0
 40
-0.6
 41
-30.0
 62
     5
 63
     7
 74
     1
 91
        4
 64
     7
 65
   257
 75
     1
175
     1
 42
1.0
 92
       12
 66
     7
 43
1.0
 76
     1
 77
     6
 78
     2
 67
     7
 79
     5
170
     0
171
     0
290
     0
174
     0
 93
        1
 44
0.0
173
     0
291
     1
 45
0.0
1001
ACAD
1000
AcDbSavedByObjectVersion
1070
     0
  0
DICTIONARYVAR
  5
E1
102
{ACAD_REACTORS
330
DD
102
}
330
DD
100
DictionaryVariables
280
     0
  1
80.000000
  0
DICTIONARYVAR
  5
E0
102
{ACAD_REACTORS
330
DD
102
}
330
DD
100
DictionaryVariables
280
     0
  1
5.000000
  0
ENDSEC
  0
EOF
