  0
SECTION
  2
HEADER
  9
$ACADVER
  1
AC1015
  9
$ACADMAINTVER
 70
     6
  9
$DWGCODEPAGE
  3
ANSI_1252
  9
$INSBASE
 10
0.0
 20
0.0
 30
0.0
  9
$EXTMIN
 10
137.095139
 20
67.213005
 30
0.0
  9
$EXTMAX
 10
525.09436
 20
503.989044
 30
0.0
  9
$LIMMIN
 10
137.095139
 20
67.213005
  9
$LIMMAX
 10
525.09436
 20
503.989044
  9
$ORTHOMODE
 70
     0
  9
$REGENMODE
 70
     1
  9
$FILLMODE
 70
     1
  9
$QTEXTMODE
 70
     0
  9
$MIRRTEXT
 70
     1
  9
$LTSCALE
 40
1.0
  9
$ATTMODE
 70
     1
  9
$TEXTSIZE
 40
2.5
  9
$TRACEWID
 40
1.0
  9
$TEXTSTYLE
  7
Standard
  9
$CLAYER
  8
0
  9
$CELTYPE
  6
ByLayer
  9
$CECOLOR
 62
   256
  9
$CELTSCALE
 40
1.0
  9
$DISPSILH
 70
     0
  9
$DIMSCALE
 40
1.0
  9
$DIMASZ
 40
2.5
  9
$DIMEXO
 40
0.625
  9
$DIMDLI
 40
3.75
  9
$DIMRND
 40
0.0
  9
$DIMDLE
 40
0.0
  9
$DIMEXE
 40
1.25
  9
$DIMTP
 40
0.0
  9
$DIMTM
 40
0.0
  9
$DIMTXT
 40
2.5
  9
$DIMCEN
 40
2.5
  9
$DIMTSZ
 40
0.0
  9
$DIMTOL
 70
     0
  9
$DIMLIM
 70
     0
  9
$DIMTIH
 70
     0
  9
$DIMTOH
 70
     0
  9
$DIMSE1
 70
     0
  9
$DIMSE2
 70
     0
  9
$DIMTAD
 70
     1
  9
$DIMZIN
 70
     8
  9
$DIMBLK
  1

  9
$DIMASO
 70
     1
  9
$DIMSHO
 70
     1
  9
$DIMPOST
  1

  9
$DIMAPOST
  1

  9
$DIMALT
 70
     0
  9
$DIMALTD
 70
     3
  9
$DIMALTF
 40
0.03937
  9
$DIMLFAC
 40
1.0
  9
$DIMTOFL
 70
     1
  9
$DIMTVP
 40
0.0
  9
$DIMTIX
 70
     0
  9
$DIMSOXD
 70
     0
  9
$DIMSAH
 70
     0
  9
$DIMBLK1
  1

  9
$DIMBLK2
  1

  9
$DIMSTYLE
  2
ISO-25
  9
$DIMCLRD
 70
     0
  9
$DIMCLRE
 70
     0
  9
$DIMCLRT
 70
     0
  9
$DIMTFAC
 40
1.0
  9
$DIMGAP
 40
0.625
  9
$DIMJUST
 70
     0
  9
$DIMSD1
 70
     0
  9
$DIMSD2
 70
     0
  9
$DIMTOLJ
 70
     0
  9
$DIMTZIN
 70
     8
  9
$DIMALTZ
 70
     0
  9
$DIMALTTZ
 70
     0
  9
$DIMUPT
 70
     0
  9
$DIMDEC
 70
     2
  9
$DIMTDEC
 70
     2
  9
$DIMALTU
 70
     2
  9
$DIMALTTD
 70
     3
  9
$DIMTXSTY
  7
Standard
  9
$DIMAUNIT
 70
     0
  9
$DIMADEC
 70
     0
  9
$DIMALTRND
 40
0.0
  9
$DIMAZIN
 70
     0
  9
$DIMDSEP
 70
    44
  9
$DIMATFIT
 70
     3
  9
$DIMFRAC
 70
     0
  9
$DIMLDRBLK
  1

  9
$DIMLUNIT
 70
     2
  9
$DIMLWD
 70
    -2
  9
$DIMLWE
 70
    -2
  9
$DIMTMOVE
 70
     0
  9
$LUNITS
 70
     2
  9
$LUPREC
 70
     4
  9
$SKETCHINC
 40
1.0
  9
$FILLETRAD
 40
10.0
  9
$AUNITS
 70
     0
  9
$AUPREC
 70
     0
  9
$MENU
  1
.
  9
$ELEVATION
 40
0.0
  9
$PELEVATION
 40
0.0
  9
$THICKNESS
 40
0.0
  9
$LIMCHECK
 70
     0
  9
$CHAMFERA
 40
10.0
  9
$CHAMFERB
 40
10.0
  9
$CHAMFERC
 40
20.0
  9
$CHAMFERD
 40
0.0
  9
$SKPOLY
 70
     0
  9
$TDCREATE
 40
2455554.65792434
  9
$TDUCREATE
 40
2455554.616257674
  9
$TDUPDATE
 40
2455554.657924352
  9
$TDUUPDATE
 40
2455554.616257685
  9
$TDINDWG
 40
0.0000000116
  9
$TDUSRTIMER
 40
0.0000000116
  9
$USRTIMER
 70
     1
  9
$ANGBASE
 50
0.0
  9
$ANGDIR
 70
     0
  9
$PDMODE
 70
     0
  9
$PDSIZE
 40
0.0
  9
$PLINEWID
 40
0.0
  9
$SPLFRAME
 70
     0
  9
$SPLINETYPE
 70
     6
  9
$SPLINESEGS
 70
     8
  9
$HANDSEED
  5
18E
  9
$SURFTAB1
 70
     6
  9
$SURFTAB2
 70
     6
  9
$SURFTYPE
 70
     6
  9
$SURFU
 70
     6
  9
$SURFV
 70
     6
  9
$UCSBASE
  2

  9
$UCSNAME
  2

  9
$UCSORG
 10
0.0
 20
0.0
 30
0.0
  9
$UCSXDIR
 10
1.0
 20
0.0
 30
0.0
  9
$UCSYDIR
 10
0.0
 20
1.0
 30
0.0
  9
$UCSORTHOREF
  2

  9
$UCSORTHOVIEW
 70
     0
  9
$UCSORGTOP
 10
0.0
 20
0.0
 30
0.0
  9
$UCSORGBOTTOM
 10
0.0
 20
0.0
 30
0.0
  9
$UCSORGLEFT
 10
0.0
 20
0.0
 30
0.0
  9
$UCSORGRIGHT
 10
0.0
 20
0.0
 30
0.0
  9
$UCSORGFRONT
 10
0.0
 20
0.0
 30
0.0
  9
$UCSORGBACK
 10
0.0
 20
0.0
 30
0.0
  9
$PUCSBASE
  2

  9
$PUCSNAME
  2

  9
$PUCSORG
 10
0.0
 20
0.0
 30
0.0
  9
$PUCSXDIR
 10
1.0
 20
0.0
 30
0.0
  9
$PUCSYDIR
 10
0.0
 20
1.0
 30
0.0
  9
$PUCSORTHOREF
  2

  9
$PUCSORTHOVIEW
 70
     0
  9
$PUCSORGTOP
 10
0.0
 20
0.0
 30
0.0
  9
$PUCSORGBOTTOM
 10
0.0
 20
0.0
 30
0.0
  9
$PUCSORGLEFT
 10
0.0
 20
0.0
 30
0.0
  9
$PUCSORGRIGHT
 10
0.0
 20
0.0
 30
0.0
  9
$PUCSORGFRONT
 10
0.0
 20
0.0
 30
0.0
  9
$PUCSORGBACK
 10
0.0
 20
0.0
 30
0.0
  9
$USERI1
 70
     0
  9
$USERI2
 70
     0
  9
$USERI3
 70
     0
  9
$USERI4
 70
     0
  9
$USERI5
 70
     0
  9
$USERR1
 40
0.0
  9
$USERR2
 40
0.0
  9
$USERR3
 40
0.0
  9
$USERR4
 40
0.0
  9
$USERR5
 40
0.0
  9
$WORLDVIEW
 70
     1
  9
$SHADEDGE
 70
     3
  9
$SHADEDIF
 70
    70
  9
$TILEMODE
 70
     1
  9
$MAXACTVP
 70
    64
  9
$PINSBASE
 10
0.0
 20
0.0
 30
0.0
  9
$PLIMCHECK
 70
     0
  9
$PEXTMIN
 10
1.000000E+20
 20
1.000000E+20
 30
1.000000E+20
  9
$PEXTMAX
 10
-1.000000E+20
 20
-1.000000E+20
 30
-1.000000E+20
  9
$PLIMMIN
 10
0.0
 20
0.0
  9
$PLIMMAX
 10
420.0
 20
297.0
  9
$UNITMODE
 70
     0
  9
$VISRETAIN
 70
     1
  9
$PLINEGEN
 70
     0
  9
$PSLTSCALE
 70
     1
  9
$TREEDEPTH
 70
  3020
  9
$CMLSTYLE
  2
Standard
  9
$CMLJUST
 70
     0
  9
$CMLSCALE
 40
20.0
  9
$PROXYGRAPHICS
 70
     1
  9
$MEASUREMENT
 70
     1
  9
$CELWEIGHT
370
    -1
  9
$ENDCAPS
280
     0
  9
$JOINSTYLE
280
     0
  9
$LWDISPLAY
290
     0
  9
$INSUNITS
 70
     4
  9
$HYPERLINKBASE
  1

  9
$STYLESHEET
  1

  9
$XEDIT
290
     1
  9
$CEPSNTYPE
380
     0
  9
$PSTYLEMODE
290
     1
  9
$FINGERPRINTGUID
  2
{E8A3FB45-0903-4733-A0BB-6B191AEDA6FF}
  9
$VERSIONGUID
  2
{FAEB1C32-E019-11D5-929B-00C0DF256EC4}
  9
$EXTNAMES
290
     1
  9
$PSVPSCALE
 40
0.0
  9
$OLESTARTUP
290
     0
  0
ENDSEC
  0
SECTION
  2
CLASSES
  0
CLASS
  1
ACDBDICTIONARYWDFLT
  2
AcDbDictionaryWithDefault
  3
ObjectDBX Classes
 90
        0
280
     0
281
     0
  0
CLASS
  1
VISUALSTYLE
  2
AcDbVisualStyle
  3
ObjectDBX Classes
 90
     4095
280
     0
281
     0
  0
CLASS
  1
DICTIONARYVAR
  2
AcDbDictionaryVar
  3
ObjectDBX Classes
 90
        0
280
     0
281
     0
  0
CLASS
  1
ACDBPLACEHOLDER
  2
AcDbPlaceHolder
  3
ObjectDBX Classes
 90
        0
280
     0
281
     0
  0
CLASS
  1
LAYOUT
  2
AcDbLayout
  3
ObjectDBX Classes
 90
        0
280
     0
281
     0
  0
ENDSEC
  0
SECTION
  2
TABLES
  0
TABLE
  2
VPORT
  5
8
330
0
100
AcDbSymbolTable
 70
     1
  0
VPORT
  5
29
330
8
100
AcDbSymbolTableRecord
100
AcDbViewportTableRecord
  2
*Active
 70
     0
 10
0.0
 20
0.0
 11
1.0
 21
1.0
 12
344.186916
 22
148.5
 13
0.0
 23
0.0
 14
10.0
 24
10.0
 15
10.0
 25
10.0
 16
0.0
 26
0.0
 36
1.0
 17
0.0
 27
0.0
 37
0.0
 40
297.0
 41
1.972973
 42
50.0
 43
0.0
 44
0.0
 50
0.0
 51
0.0
 71
     0
 72
   100
 73
     1
 74
     3
 75
     0
 76
     0
 77
     0
 78
     0
281
     0
 65
     1
110
0.0
120
0.0
130
0.0
111
1.0
121
0.0
131
0.0
112
0.0
122
1.0
132
0.0
 79
     0
146
0.0
  0
ENDTAB
  0
TABLE
  2
LTYPE
  5
5
330
0
100
AcDbSymbolTable
 70
     1
  0
LTYPE
  5
14
330
5
100
AcDbSymbolTableRecord
100
AcDbLinetypeTableRecord
  2
ByBlock
 70
     0
  3

 72
    65
 73
     0
 40
0.0
  0
LTYPE
  5
15
330
5
100
AcDbSymbolTableRecord
100
AcDbLinetypeTableRecord
  2
ByLayer
 70
     0
  3

 72
    65
 73
     0
 40
0.0
  0
LTYPE
  5
16
330
5
100
AcDbSymbolTableRecord
100
AcDbLinetypeTableRecord
  2
Continuous
 70
     0
  3
Solid line
 72
    65
 73
     0
 40
0.0
  0
ENDTAB
  0
TABLE
  2
LAYER
  5
2
330
0
100
AcDbSymbolTable
 70
     1
  0
LAYER
  5
10
330
2
100
AcDbSymbolTableRecord
100
AcDbLayerTableRecord
  2
0
 70
     0
 62
   106
  6
Continuous
370
     0
390
F
  0
ENDTAB
  0
TABLE
  2
STYLE
  5
3
330
0
100
AcDbSymbolTable
 70
     4
  0
STYLE
  5
11
330
3
100
AcDbSymbolTableRecord
100
AcDbTextStyleTableRecord
  2
Standard
 70
     0
 40
0.0
 41
1.0
 50
0.0
 71
     0
 42
2.5
  3
txt
  4

  0
STYLE
  5
3B
330
3
100
AcDbSymbolTableRecord
100
AcDbTextStyleTableRecord
  2
Default
 70
     0
 40
0.0
 41
1.0
 50
0.0
 71
     0
 42
0.2
  3

  4

1001
ACAD
1000
txt
1071
        0
  0
STYLE
  5
3C
330
3
100
AcDbSymbolTableRecord
100
AcDbTextStyleTableRecord
  2
ISO
 70
     0
 40
0.0
 41
1.0
 50
0.0
 71
     0
 42
0.2
  3

  4

1001
ACAD
1000
txt
1071
        0
  0
STYLE
  5
3D
330
3
100
AcDbSymbolTableRecord
100
AcDbTextStyleTableRecord
  2
GIANLU
 70
     0
 40
0.0
 41
1.0
 50
0.0
 71
     0
 42
0.2
  3

  4

1001
ACAD
1000
Arial
1071
        0
  0
ENDTAB
  0
TABLE
  2
VIEW
  5
6
330
0
100
AcDbSymbolTable
 70
     0
  0
ENDTAB
  0
TABLE
  2
UCS
  5
7
330
0
100
AcDbSymbolTable
 70
     0
  0
ENDTAB
  0
TABLE
  2
APPID
  5
9
330
0
100
AcDbSymbolTable
 70
     1
  0
APPID
  5
12
330
9
100
AcDbSymbolTableRecord
100
AcDbRegAppTableRecord
  2
ACAD
 70
     0
  0
ENDTAB
  0
TABLE
  2
DIMSTYLE
  5
A
330
0
100
AcDbSymbolTable
 70
     4
100
AcDbDimStyleTable
  0
DIMSTYLE
105
27
330
A
100
AcDbSymbolTableRecord
100
AcDbDimStyleTableRecord
  2
ISO-25
 70
     0
 41
2.5
 42
0.625
 43
3.75
 44
1.25
 73
     0
 74
     0
 77
     1
 78
     8
140
2.5
141
2.5
143
0.03937
147
0.625
171
     3
172
     1
271
     2
272
     2
274
     3
278
    44
283
     0
284
     8
340
11
  0
DIMSTYLE
105
3E
330
A
100
AcDbSymbolTableRecord
100
AcDbDimStyleTableRecord
  2
Default
 70
     0
  3
<>
 41
4.375
 42
1.05
 44
2.1
 73
     0
 74
     0
 77
     1
 78
     8
140
3.5
146
0.4
147
1.75
178
     3
271
     2
272
     3
284
     8
340
3B
341
3F
342
3F
  0
DIMSTYLE
105
46
330
A
100
AcDbSymbolTableRecord
100
AcDbDimStyleTableRecord
  2
ISO
 70
     0
  3
<>
 41
4.375
 42
1.05
 44
2.1
 73
     0
 74
     0
 77
     1
 78
     8
140
3.5
146
0.4
147
1.75
178
     3
271
     2
272
     3
284
     8
340
3C
341
3F
342
3F
  0
DIMSTYLE
105
47
330
A
100
AcDbSymbolTableRecord
100
AcDbDimStyleTableRecord
  2
zucchetti_unico
 70
     0
  3
<>
 41
3.0
 42
0.9
 44
1.8
 73
     0
 74
     0
 77
     1
 78
     8
140
3.0
146
0.6
147
1.5
176
   104
177
     3
178
     3
271
     2
272
     2
284
     8
340
3D
  0
ENDTAB
  0
TABLE
  2
BLOCK_RECORD
  5
1
330
0
100
AcDbSymbolTable
 70
     7
  0
BLOCK_RECORD
  5
1F
330
1
100
AcDbSymbolTableRecord
100
AcDbBlockTableRecord
  2
*Model_Space
340
22
  0
BLOCK_RECORD
  5
1B
330
1
100
AcDbSymbolTableRecord
100
AcDbBlockTableRecord
  2
*Paper_Space
340
1E
  0
BLOCK_RECORD
  5
23
330
1
100
AcDbSymbolTableRecord
100
AcDbBlockTableRecord
  2
*Paper_Space0
340
26
  0
BLOCK_RECORD
  5
3F
330
1
100
AcDbSymbolTableRecord
100
AcDbBlockTableRecord
  2
_CLOSED
340
0
  0
BLOCK_RECORD
  5
48
330
1
100
AcDbSymbolTableRecord
100
AcDbBlockTableRecord
  2
a
340
0
102
{BLKREFS
331
6B
102
}
  0
BLOCK_RECORD
  5
6C
330
1
100
AcDbSymbolTableRecord
100
AcDbBlockTableRecord
  2
b
340
0
102
{BLKREFS
331
B0
102
}
  0
BLOCK_RECORD
  5
B1
330
1
100
AcDbSymbolTableRecord
100
AcDbBlockTableRecord
  2
c
340
0
102
{BLKREFS
331
F6
102
}
  0
BLOCK_RECORD
  5
F7
330
1
100
AcDbSymbolTableRecord
100
AcDbBlockTableRecord
  2
d
340
0
102
{BLKREFS
331
141
102
}
  0
BLOCK_RECORD
  5
142
330
1
100
AcDbSymbolTableRecord
100
AcDbBlockTableRecord
  2
e
340
0
102
{BLKREFS
331
188
102
}
  0
ENDTAB
  0
ENDSEC
  0
SECTION
  2
BLOCKS
  0
BLOCK
  5
20
330
1F
100
AcDbEntity
  8
0
100
AcDbBlockBegin
  2
*Model_Space
 70
     0
 10
0.0
 20
0.0
 30
0.0
  3
*Model_Space
  1

  0
ENDBLK
  5
21
330
1F
100
AcDbEntity
  8
0
100
AcDbBlockEnd
  0
BLOCK
  5
1C
330
1B
100
AcDbEntity
 67
     1
  8
0
100
AcDbBlockBegin
  2
*Paper_Space
 70
     0
 10
0.0
 20
0.0
 30
0.0
  3
*Paper_Space
  1

  0
ENDBLK
  5
1D
330
1B
100
AcDbEntity
 67
     1
  8
0
100
AcDbBlockEnd
  0
BLOCK
  5
24
330
23
100
AcDbEntity
  8
0
100
AcDbBlockBegin
  2
*Paper_Space0
 70
     0
 10
0.0
 20
0.0
 30
0.0
  3
*Paper_Space0
  1

  0
ENDBLK
  5
25
330
23
100
AcDbEntity
  8
0
100
AcDbBlockEnd
  0
BLOCK
  5
40
330
3F
100
AcDbEntity
  8
0
100
AcDbBlockBegin
  2
_CLOSED
 70
     0
 10
0.0
 20
0.0
 30
0.0
  3
_CLOSED
  1

  0
LINE
  5
42
330
3F
100
AcDbEntity
  8
0
  6
ByBlock
 62
     0
370
    -2
100
AcDbLine
 10
-1.0
 20
0.166667
 30
0.0
 11
0.0
 21
0.0
 31
0.0
  0
LINE
  5
43
330
3F
100
AcDbEntity
  8
0
  6
ByBlock
 62
     0
370
    -2
100
AcDbLine
 10
0.0
 20
0.0
 30
0.0
 11
-1.0
 21
-0.166667
 31
0.0
  0
LINE
  5
44
330
3F
100
AcDbEntity
  8
0
  6
ByBlock
 62
     0
370
    -2
100
AcDbLine
 10
-1.0
 20
0.166667
 30
0.0
 11
-1.0
 21
-0.166667
 31
0.0
  0
LINE
  5
45
330
3F
100
AcDbEntity
  8
0
  6
ByBlock
 62
     0
370
    -2
100
AcDbLine
 10
0.0
 20
0.0
 30
0.0
 11
-1.0
 21
0.0
 31
0.0
  0
ENDBLK
  5
41
330
3F
100
AcDbEntity
  8
0
100
AcDbBlockEnd
  0
BLOCK
  5
69
330
48
100
AcDbEntity
  8
0
100
AcDbBlockBegin
  2
a
 70
     0
 10
233.676636
 20
119.121208
 30
0.0
  3
a
  1

  0
ARC
  5
49
330
48
100
AcDbEntity
  8
0
  6
Continuous
 62
     0
370
     0
100
AcDbCircle
 10
322.187348
 20
466.989055
 30
0.0
 40
10.64999998807906
100
AcDbArc
 50
202.44828
 51
22.44828
  0
ARC
  5
4A
330
48
100
AcDbEntity
  8
0
  6
Continuous
 62
     0
370
     0
100
AcDbCircle
 10
322.187348
 20
466.989055
 30
0.0
 40
10.64999998807906
100
AcDbArc
 50
22.44828
 51
202.44828
  0
ARC
  5
4B
330
48
100
AcDbEntity
  8
0
  6
Continuous
 62
     0
370
    30
100
AcDbCircle
 10
322.187348
 20
466.989055
 30
0.0
 40
10.94999999999999
100
AcDbArc
 50
202.44828
 51
22.44828
  0
ARC
  5
4C
330
48
100
AcDbEntity
  8
0
  6
Continuous
 62
     0
370
    30
100
AcDbCircle
 10
322.187348
 20
466.989055
 30
0.0
 40
10.94999999999999
100
AcDbArc
 50
22.44828
 51
202.44828
  0
ARC
  5
4D
330
48
100
AcDbEntity
  8
0
  6
Continuous
 62
     0
370
    30
100
AcDbCircle
 10
352.187348
 20
383.989057
 30
0.0
 40
10.00000000000001
100
AcDbArc
 50
270.0
 51
0.0
  0
ARC
  5
4E
330
48
100
AcDbEntity
  8
0
  6
Continuous
 62
     0
370
    30
100
AcDbCircle
 10
292.187348
 20
383.989057
 30
0.0
 40
10.00000000000005
100
AcDbArc
 50
180.0
 51
270.0
  0
LINE
  5
4F
330
48
100
AcDbEntity
  8
0
  6
Continuous
 62
     0
370
    30
100
AcDbLine
 10
315.687354
 20
373.989057
 30
0.0
 11
292.187348
 21
373.989057
 31
0.0
  0
LINE
  5
50
330
48
100
AcDbEntity
  8
0
  6
Continuous
 62
     0
370
    30
100
AcDbLine
 10
352.187348
 20
373.989057
 30
0.0
 11
328.687342
 21
373.989057
 31
0.0
  0
LINE
  5
51
330
48
100
AcDbEntity
  8
0
  6
Continuous
 62
     0
370
    30
100
AcDbLine
 10
362.187348
 20
493.989057
 30
0.0
 11
362.187348
 21
383.989057
 31
0.0
  0
ARC
  5
52
330
48
100
AcDbEntity
  8
0
  6
Continuous
 62
     0
370
    30
100
AcDbCircle
 10
352.187348
 20
493.989057
 30
0.0
 40
9.999999999999968
100
AcDbArc
 50
0.0
 51
90.0
  0
LINE
  5
53
330
48
100
AcDbEntity
  8
0
  6
Continuous
 62
     0
370
    30
100
AcDbLine
 10
292.187348
 20
503.989057
 30
0.0
 11
352.187348
 21
503.989057
 31
0.0
  0
ARC
  5
54
330
48
100
AcDbEntity
  8
0
  6
Continuous
 62
     0
370
    30
100
AcDbCircle
 10
292.187348
 20
493.989057
 30
0.0
 40
9.99999999999988
100
AcDbArc
 50
90.0
 51
180.0
  0
LINE
  5
55
330
48
100
AcDbEntity
  8
0
  6
Continuous
 62
     0
370
    30
100
AcDbLine
 10
282.187348
 20
383.989057
 30
0.0
 11
282.187348
 21
493.989057
 31
0.0
  0
ARC
  5
56
330
48
100
AcDbEntity
  8
0
  6
Continuous
 62
     0
370
    30
100
AcDbCircle
 10
322.187348
 20
418.989057
 30
0.0
 40
22.2
100
AcDbArc
 50
291.789939
 51
90.0
  0
ARC
  5
57
330
48
100
AcDbEntity
  8
0
  6
Continuous
 62
     0
370
    30
100
AcDbCircle
 10
322.187348
 20
418.989057
 30
0.0
 40
22.2
100
AcDbArc
 50
90.0
 51
248.210068
  0
ARC
  5
58
330
48
100
AcDbEntity
  8
0
  6
Continuous
 62
     0
370
    30
100
AcDbCircle
 10
322.187348
 20
466.989057
 30
0.0
 40
10.99999999999999
100
AcDbArc
 50
90.0
 51
270.0
  0
ARC
  5
59
330
48
100
AcDbEntity
  8
0
  6
Continuous
 62
     0
370
    30
100
AcDbCircle
 10
322.187348
 20
466.989057
 30
0.0
 40
10.99999999999998
100
AcDbArc
 50
270.0
 51
90.0
  0
ARC
  5
5A
330
48
100
AcDbEntity
  8
0
  6
Continuous
 62
     0
370
    30
100
AcDbCircle
 10
322.187349
 20
418.989055
 30
0.0
 40
21.99999999999999
100
AcDbArc
 50
269.999999
 51
89.999999
  0
ARC
  5
5B
330
48
100
AcDbEntity
  8
0
  6
Continuous
 62
     0
370
    30
100
AcDbCircle
 10
322.187349
 20
418.989055
 30
0.0
 40
21.99999999999999
100
AcDbArc
 50
89.999999
 51
269.999999
  0
LINE
  5
5C
330
48
100
AcDbEntity
  8
0
  6
Continuous
 62
     0
370
     0
100
AcDbLine
 10
328.687348
 20
390.989055
 30
0.0
 11
322.187348
 21
390.989055
 31
0.0
  0
LINE
  5
5D
330
48
100
AcDbEntity
  8
0
  6
Continuous
 62
     0
370
     0
100
AcDbLine
 10
322.187348
 20
390.989055
 30
0.0
 11
315.687348
 21
390.989055
 31
0.0
  0
LWPOLYLINE
  5
5E
330
48
100
AcDbEntity
  8
0
  6
Continuous
 62
     0
370
     0
100
AcDbPolyline
 90
       13
 70
     0
 43
0.0
 10
315.74765
 20
394.444336
 10
315.806854
 20
394.395111
 10
315.978973
 20
394.255615
 10
316.255402
 20
394.040558
 10
316.626068
 20
393.770752
 10
317.081665
 20
393.466827
 10
317.615875
 20
393.14798
 10
318.224152
 20
392.832184
 10
318.903107
 20
392.536804
 10
319.647949
 20
392.279358
 10
320.449982
 20
392.077728
 10
321.296722
 20
391.94754
 10
322.187347
 20
391.901794
  0
LWPOLYLINE
  5
5F
330
48
100
AcDbEntity
  8
0
  6
Continuous
 62
     0
370
     0
100
AcDbPolyline
 90
       13
 70
     0
 43
0.0
 10
322.187347
 20
391.901794
 10
323.05954
 20
391.94574
 10
323.907104
 20
392.074371
 10
324.710205
 20
392.274567
 10
325.45639
 20
392.530945
 10
326.13681
 20
392.825684
 10
326.746643
 20
393.141235
 10
327.28244
 20
393.460205
 10
327.739777
 20
393.764618
 10
328.112335
 20
394.035339
 10
328.390869
 20
394.25177
 10
328.565338
 20
394.393005
 10
328.627045
 20
394.444336
  0
LINE
  5
60
330
48
100
AcDbEntity
  8
0
  6
Continuous
 62
     0
370
     0
100
AcDbLine
 10
322.187348
 20
396.989055
 30
0.0
 11
322.187348
 21
391.901793
 31
0.0
  0
LINE
  5
61
330
48
100
AcDbEntity
  8
0
  6
Continuous
 62
     0
370
    30
100
AcDbLine
 10
322.187347
 20
330.989055
 30
0.0
 11
328.687341
 21
330.989055
 31
0.0
  0
LINE
  5
62
330
48
100
AcDbEntity
  8
0
  6
Continuous
 62
     0
370
    30
100
AcDbLine
 10
315.687353
 20
330.989055
 30
0.0
 11
322.187347
 21
330.989055
 31
0.0
  0
LINE
  5
63
330
48
100
AcDbEntity
  8
0
  6
Continuous
 62
     0
370
    30
100
AcDbLine
 10
315.687354
 20
390.989055
 30
0.0
 11
315.687353
 21
330.989055
 31
0.0
  0
LINE
  5
64
330
48
100
AcDbEntity
  8
0
  6
Continuous
 62
     0
370
    30
100
AcDbLine
 10
328.687342
 20
390.989055
 30
0.0
 11
328.687341
 21
330.989055
 31
0.0
  0
LWPOLYLINE
  5
65
330
48
100
AcDbEntity
  8
0
  6
Continuous
 62
     0
370
    30
100
AcDbPolyline
 90
       20
 70
     0
 43
0.0
 10
331.493317
 20
399.054108
 10
331.457001
 20
399.036774
 10
331.177399
 20
398.890991
 10
330.906616
 20
398.727325
 10
330.646698
 20
398.546936
 10
330.398621
 20
398.350525
 10
330.163544
 20
398.138794
 10
329.942352
 20
397.912537
 10
329.735931
 20
397.67276
 10
329.545044
 20
397.42041
 10
329.370514
 20
397.156525
 10
329.213043
 20
396.88208
 10
329.073212
 20
396.598267
 10
328.95163
 20
396.306152
 10
328.848877
 20
396.006958
 10
328.765259
 20
395.701843
 10
328.701019
 20
395.392029
 10
328.656403
 20
395.078735
 10
328.631653
 20
394.763245
 10
328.626984
 20
394.44458
  0
LWPOLYLINE
  5
66
330
48
100
AcDbEntity
  8
0
  6
Continuous
 62
     0
370
    30
100
AcDbPolyline
 90
       20
 70
     0
 43
0.0
 10
312.881378
 20
399.054108
 10
312.917694
 20
399.036774
 10
313.197296
 20
398.890991
 10
313.468079
 20
398.727325
 10
313.727997
 20
398.546936
 10
313.976074
 20
398.350525
 10
314.211151
 20
398.138794
 10
314.432343
 20
397.912537
 10
314.638763
 20
397.67276
 10
314.829651
 20
397.42041
 10
315.004181
 20
397.156525
 10
315.161652
 20
396.88208
 10
315.301483
 20
396.598267
 10
315.423065
 20
396.306152
 10
315.525818
 20
396.006958
 10
315.609436
 20
395.701843
 10
315.673676
 20
395.392029
 10
315.718292
 20
395.078735
 10
315.743042
 20
394.763245
 10
315.747711
 20
394.44458
  0
LINE
  5
67
330
48
100
AcDbEntity
  8
0
  6
Continuous
 62
     0
370
    30
100
AcDbLine
 10
328.62704
 20
394.44411
 30
0.0
 11
328.687348
 21
390.989055
 31
0.0
  0
LINE
  5
68
330
48
100
AcDbEntity
  8
0
  6
Continuous
 62
     0
370
    30
100
AcDbLine
 10
315.747656
 20
394.444111
 30
0.0
 11
315.687348
 21
390.989055
 31
0.0
  0
ENDBLK
  5
6A
330
48
100
AcDbEntity
  8
0
100
AcDbBlockEnd
  0
BLOCK
  5
AE
330
6C
100
AcDbEntity
  8
0
100
AcDbBlockBegin
  2
b
 70
     0
 10
239.797955
 20
119.121208
 30
0.0
  3
b
  1

  0
LINE
  5
6D
330
6C
100
AcDbEntity
  8
0
  6
Continuous
 62
     0
370
    30
100
AcDbLine
 10
332.03034
 20
151.389656
 30
0.0
 11
332.837348
 21
151.389656
 31
0.0
  0
LWPOLYLINE
  5
6E
330
6C
100
AcDbEntity
  8
0
  6
Continuous
 62
     0
370
    30
100
AcDbPolyline
 90
       24
 70
     0
 43
0.0
 10
311.537354
 20
151.389664
 10
311.614105
 20
151.389664
 10
311.848511
 20
151.389664
 10
312.234009
 20
151.389664
 10
312.757538
 20
151.389664
 10
313.401001
 20
151.389648
 10
314.149384
 20
151.389648
 10
315.022491
 20
151.389648
 10
316.015381
 20
151.389648
 10
317.112152
 20
151.389648
 10
318.291382
 20
151.389648
 10
319.527435
 20
151.389648
 10
320.792175
 20
151.389648
 10
322.057251
 20
151.389648
 10
323.295959
 20
151.389648
 10
324.505859
 20
151.389648
 10
325.713196
 20
151.389648
 10
326.893219
 20
151.389648
 10
328.018219
 20
151.389648
 10
329.061554
 20
151.389648
 10
329.999786
 20
151.389648
 10
330.814331
 20
151.389648
 10
331.492615
 20
151.389664
 10
332.030334
 20
151.389664
  0
LINE
  5
6F
330
6C
100
AcDbEntity
  8
0
  6
Continuous
 62
     0
370
     0
100
AcDbLine
 10
332.307607
 20
151.689656
 30
0.0
 11
333.137343
 21
151.689656
 31
0.0
  0
LINE
  5
70
330
6C
100
AcDbEntity
  8
0
  6
Continuous
 62
     0
370
     0
100
AcDbLine
 10
311.237352
 20
151.689656
 30
0.0
 11
332.307607
 21
151.689656
 31
0.0
  0
LINE
  5
71
330
6C
100
AcDbEntity
  8
0
  6
Continuous
 62
     0
370
     0
100
AcDbLine
 10
330.412947
 20
171.089656
 30
0.0
 11
313.287351
 21
171.089656
 31
0.0
  0
LWPOLYLINE
  5
72
330
6C
100
AcDbEntity
  8
0
  6
Continuous
 62
     0
370
     0
100
AcDbPolyline
 90
        4
 70
     0
 43
0.0
 10
331.087341
 20
171.089661
 10
331.013977
 20
171.089661
 10
330.793091
 20
171.089661
 10
330.412933
 20
171.089661
  0
LINE
  5
73
330
6C
100
AcDbEntity
  8
0
  6
Continuous
 62
     0
370
     0
100
AcDbLine
 10
333.137348
 20
158.792263
 30
0.0
 11
332.307607
 21
158.792263
 31
0.0
  0
LINE
  5
74
330
6C
100
AcDbEntity
  8
0
  6
Continuous
 62
     0
370
     0
100
AcDbLine
 10
332.307607
 20
158.792263
 30
0.0
 11
311.237348
 21
158.792263
 31
0.0
  0
LWPOLYLINE
  5
75
330
6C
100
AcDbEntity
  8
0
  6
Continuous
 62
     0
370
     0
100
AcDbPolyline
 90
        5
 70
     0
 43
0.0
 10
332.839996
 20
159.092255
 10
332.79776
 20
159.092255
 10
332.669403
 20
159.092255
 10
332.455841
 20
159.092255
 10
332.032745
 20
159.092255
  0
LINE
  5
76
330
6C
100
AcDbEntity
  8
0
  6
Continuous
 62
     0
370
     0
100
AcDbLine
 10
332.032759
 20
159.092251
 30
0.0
 11
311.534726
 21
159.092251
 31
0.0
  0
LINE
  5
77
330
6C
100
AcDbEntity
  8
0
  6
Continuous
 62
     0
370
     0
100
AcDbLine
 10
331.329106
 20
159.098896
 30
0.0
 11
332.078621
 21
159.098896
 31
0.0
  0
LWPOLYLINE
  5
78
330
6C
100
AcDbEntity
  8
0
  6
Continuous
 62
     0
370
     0
100
AcDbPolyline
 90
       24
 70
     0
 43
0.0
 10
312.296082
 20
159.098892
 10
312.369324
 20
159.098892
 10
312.592926
 20
159.098892
 10
312.96759
 20
159.098892
 10
313.486938
 20
159.098892
 10
314.137817
 20
159.098892
 10
314.901459
 20
159.098892
 10
315.755005
 20
159.098892
 10
316.673645
 20
159.098892
 10
317.632477
 20
159.098892
 10
318.609894
 20
159.098892
 10
319.645172
 20
159.098892
 10
320.753021
 20
159.098892
 10
321.916473
 20
159.098892
 10
323.1138
 20
159.098892
 10
324.319336
 20
159.098892
 10
325.505096
 20
159.098892
 10
326.642792
 20
159.098892
 10
327.706055
 20
159.098892
 10
328.672272
 20
159.098892
 10
329.524445
 20
159.098892
 10
330.251617
 20
159.098892
 10
330.849304
 20
159.098892
 10
331.329102
 20
159.098892
  0
LINE
  5
79
330
6C
100
AcDbEntity
  8
0
  6
Continuous
 62
     0
370
     0
100
AcDbLine
 10
313.287348
 20
160.098858
 30
0.0
 11
330.412947
 21
160.098858
 31
0.0
  0
LINE
  5
7A
330
6C
100
AcDbEntity
  8
0
  6
Continuous
 62
     0
370
     0
100
AcDbLine
 10
330.412947
 20
160.098858
 30
0.0
 11
331.087348
 21
160.098858
 31
0.0
  0
LINE
  5
7B
330
6C
100
AcDbEntity
  8
0
  6
Continuous
 62
     0
370
    30
100
AcDbLine
 10
282.187348
 20
187.363599
 30
0.0
 11
292.187348
 21
187.363599
 31
0.0
  0
LINE
  5
7C
330
6C
100
AcDbEntity
  8
0
  6
Continuous
 62
     0
370
    30
100
AcDbLine
 10
292.187348
 20
187.363599
 30
0.0
 11
352.187348
 21
187.363599
 31
0.0
  0
LINE
  5
7D
330
6C
100
AcDbEntity
  8
0
  6
Continuous
 62
     0
370
    30
100
AcDbLine
 10
352.187348
 20
187.363599
 30
0.0
 11
362.187348
 21
187.363599
 31
0.0
  0
LINE
  5
7E
330
6C
100
AcDbEntity
  8
0
  6
Continuous
 62
     0
370
    30
100
AcDbLine
 10
352.187348
 20
182.363599
 30
0.0
 11
362.187348
 21
182.363599
 31
0.0
  0
LINE
  5
7F
330
6C
100
AcDbEntity
  8
0
  6
Continuous
 62
     0
370
    30
100
AcDbLine
 10
292.187348
 20
182.363599
 30
0.0
 11
352.187348
 21
182.363599
 31
0.0
  0
LINE
  5
80
330
6C
100
AcDbEntity
  8
0
  6
Continuous
 62
     0
370
    30
100
AcDbLine
 10
282.187348
 20
182.363599
 30
0.0
 11
292.187348
 21
182.363599
 31
0.0
  0
LINE
  5
81
330
6C
100
AcDbEntity
  8
0
  6
Continuous
 62
     0
370
    30
100
AcDbLine
 10
362.187348
 20
182.363599
 30
0.0
 11
362.187348
 21
187.363599
 31
0.0
  0
LINE
  5
82
330
6C
100
AcDbEntity
  8
0
  6
Continuous
 62
     0
370
     0
100
AcDbLine
 10
352.187348
 20
187.363599
 30
0.0
 11
352.187348
 21
182.363599
 31
0.0
  0
LINE
  5
83
330
6C
100
AcDbEntity
  8
0
  6
Continuous
 62
     0
370
     0
100
AcDbLine
 10
292.187348
 20
182.363599
 30
0.0
 11
292.187348
 21
187.363599
 31
0.0
  0
LINE
  5
84
330
6C
100
AcDbEntity
  8
0
  6
Continuous
 62
     0
370
    30
100
AcDbLine
 10
282.187348
 20
187.363599
 30
0.0
 11
282.187348
 21
182.363599
 31
0.0
  0
LINE
  5
85
330
6C
100
AcDbEntity
  8
0
  6
Continuous
 62
     0
370
     0
100
AcDbLine
 10
333.137348
 20
152.863603
 30
0.0
 11
344.387348
 21
152.863603
 31
0.0
  0
LINE
  5
86
330
6C
100
AcDbEntity
  8
0
  6
Continuous
 62
     0
370
     0
100
AcDbLine
 10
299.987348
 20
152.863603
 30
0.0
 11
311.237348
 21
152.863603
 31
0.0
  0
LINE
  5
87
330
6C
100
AcDbEntity
  8
0
  6
Continuous
 62
     0
370
    30
100
AcDbLine
 10
311.237348
 20
151.863602
 30
0.0
 11
300.987348
 21
151.863603
 31
0.0
  0
LINE
  5
88
330
6C
100
AcDbEntity
  8
0
  6
Continuous
 62
     0
370
    30
100
AcDbLine
 10
343.387348
 20
151.863603
 30
0.0
 11
333.137348
 21
151.863602
 31
0.0
  0
LINE
  5
89
330
6C
100
AcDbEntity
  8
0
  6
Continuous
 62
     0
370
    30
100
AcDbLine
 10
322.187348
 20
171.2636
 30
0.0
 11
312.187348
 21
171.263601
 31
0.0
  0
LINE
  5
8A
330
6C
100
AcDbEntity
  8
0
  6
Continuous
 62
     0
370
    30
100
AcDbLine
 10
332.187348
 20
171.263601
 30
0.0
 11
322.187348
 21
171.2636
 31
0.0
  0
LINE
  5
8B
330
6C
100
AcDbEntity
  8
0
  6
Continuous
 62
     0
370
    30
100
AcDbLine
 10
322.187348
 20
172.2636
 30
0.0
 11
311.187348
 21
172.263601
 31
0.0
  0
LWPOLYLINE
  5
8C
330
6C
100
AcDbEntity
  8
0
  6
Continuous
 62
     0
370
    30
100
AcDbPolyline
 90
       15
 70
     0
 43
0.0
 10
333.187347
 20
172.263596
 10
333.118958
 20
172.263596
 10
332.914734
 20
172.263596
 10
332.577148
 20
172.263596
 10
332.110443
 20
172.263596
 10
331.520386
 20
172.263596
 10
330.814301
 20
172.263596
 10
330.001038
 20
172.263596
 10
329.090607
 20
172.263596
 10
328.094421
 20
172.263596
 10
327.024719
 20
172.263596
 10
325.895081
 20
172.263596
 10
324.719269
 20
172.263596
 10
323.511383
 20
172.263596
 10
322.187347
 20
172.263596
  0
LINE
  5
8D
330
6C
100
AcDbEntity
  8
0
  6
Continuous
 62
     0
370
    30
100
AcDbLine
 10
301.862223
 20
150.652585
 30
0.0
 11
300.193717
 21
150.652585
 31
0.0
  0
LINE
  5
8E
330
6C
100
AcDbEntity
  8
0
  6
Continuous
 62
     0
370
    30
100
AcDbLine
 10
344.18098
 20
150.652585
 30
0.0
 11
342.512477
 21
150.652585
 31
0.0
  0
LWPOLYLINE
  5
8F
330
6C
100
AcDbEntity
  8
0
  6
Continuous
 62
     0
370
    30
100
AcDbPolyline
 90
       20
 70
     0
 43
0.0
 10
344.187347
 20
119.652588
 10
344.124695
 20
119.652588
 10
343.92984
 20
119.652588
 10
343.593689
 20
119.652588
 10
343.109192
 20
119.652588
 10
342.471924
 20
119.652588
 10
341.68042
 20
119.652588
 10
340.736603
 20
119.65258
 10
339.646057
 20
119.65258
 10
338.417786
 20
119.65258
 10
337.064178
 20
119.65258
 10
335.600616
 20
119.65258
 10
334.044739
 20
119.65258
 10
332.415924
 20
119.65258
 10
330.734436
 20
119.65258
 10
329.02066
 20
119.65258
 10
327.294312
 20
119.65258
 10
325.573975
 20
119.65258
 10
323.876465
 20
119.65258
 10
322.187347
 20
119.65258
  0
LINE
  5
90
330
6C
100
AcDbEntity
  8
0
  6
Continuous
 62
     0
370
    30
100
AcDbLine
 10
322.187349
 20
119.652584
 30
0.0
 11
300.187349
 21
119.652585
 31
0.0
  0
LWPOLYLINE
  5
91
330
6C
100
AcDbEntity
  8
0
  6
Continuous
 62
     0
370
    30
100
AcDbPolyline
 90
       38
 70
     0
 43
0.0
 10
344.180969
 20
150.652588
 10
344.148254
 20
149.983887
 10
343.960938
 20
149.316101
 10
343.620209
 20
148.654327
 10
343.128204
 20
148.005081
 10
342.487183
 20
147.373138
 10
341.699463
 20
146.761154
 10
340.768219
 20
146.172668
 10
339.697449
 20
145.612228
 10
338.49295
 20
145.084473
 10
337.162384
 20
144.593918
 10
335.713684
 20
144.144882
 10
334.155212
 20
143.741043
 10
332.496765
 20
143.38623
 10
330.750488
 20
143.084152
 10
328.93158
 20
142.838043
 10
327.054352
 20
142.650803
 10
325.132141
 20
142.524582
 10
323.182251
 20
142.460709
 10
321.222992
 20
142.460205
 10
319.272797
 20
142.523102
 10
317.350006
 20
142.648361
 10
315.471954
 20
142.834656
 10
313.652039
 20
143.079865
 10
311.904541
 20
143.381119
 10
310.244598
 20
143.735123
 10
308.684479
 20
144.138229
 10
307.234009
 20
144.586594
 10
305.90155
 20
145.076523
 10
304.695038
 20
145.603745
 10
303.622101
 20
146.163696
 10
302.68866
 20
146.751801
 10
301.898682
 20
147.363434
 10
301.255341
 20
147.995087
 10
300.761017
 20
148.644104
 10
300.417877
 20
149.30571
 10
300.22818
 20
149.973465
 10
300.193726
 20
150.652588
  0
LWPOLYLINE
  5
92
330
6C
100
AcDbEntity
  8
0
  6
Continuous
 62
     0
370
    30
100
AcDbPolyline
 90
       16
 70
     0
 43
0.0
 10
327.830841
 20
144.122177
 10
329.453522
 20
144.308258
 10
331.024994
 20
144.540451
 10
332.533508
 20
144.816986
 10
333.968689
 20
145.135925
 10
335.320343
 20
145.495087
 10
336.578827
 20
145.891861
 10
337.735138
 20
146.323456
 10
338.781158
 20
146.786819
 10
339.709686
 20
147.278595
 10
340.513733
 20
147.795364
 10
341.187775
 20
148.333481
 10
341.727295
 20
148.889023
 10
342.128082
 20
149.45813
 10
342.38739
 20
150.036804
 10
342.505585
 20
150.652588
  0
LWPOLYLINE
  5
93
330
6C
100
AcDbEntity
  8
0
  6
Continuous
 62
     0
370
    30
100
AcDbPolyline
 90
       22
 70
     0
 43
0.0
 10
301.86911
 20
150.652588
 10
301.983551
 20
150.048553
 10
302.25119
 20
149.450226
 10
302.670074
 20
148.862137
 10
303.236847
 20
148.288727
 10
303.94751
 20
147.734375
 10
304.796295
 20
147.203247
 10
305.777039
 20
146.699402
 10
306.882202
 20
146.226639
 10
308.103516
 20
145.788589
 10
309.431641
 20
145.388535
 10
310.856323
 20
145.029449
 10
312.367065
 20
144.714203
 10
313.95224
 20
144.445038
 10
315.599854
 20
144.224106
 10
317.297485
 20
144.05304
 10
319.032135
 20
143.933075
 10
320.790741
 20
143.865265
 10
322.559937
 20
143.849976
 10
324.326263
 20
143.887405
 10
326.076416
 20
143.977249
 10
327.830841
 20
144.122177
  0
LINE
  5
94
330
6C
100
AcDbEntity
  8
0
  6
Continuous
 62
     0
370
    30
100
AcDbLine
 10
311.187348
 20
182.363601
 30
0.0
 11
311.187348
 21
172.263601
 31
0.0
  0
LINE
  5
95
330
6C
100
AcDbEntity
  8
0
  6
Continuous
 62
     0
370
    30
100
AcDbLine
 10
333.187348
 20
182.363601
 30
0.0
 11
333.187348
 21
172.263601
 31
0.0
  0
ARC
  5
96
330
6C
100
AcDbEntity
  8
0
  6
Continuous
 62
     0
370
    30
100
AcDbCircle
 10
322.187301
 20
153.363627
 30
0.0
 40
20.5051828189079
100
AcDbArc
 50
351.859092
 51
355.804868
  0
ARC
  5
97
330
6C
100
AcDbEntity
  8
0
  6
Continuous
 62
     0
370
    30
100
AcDbCircle
 10
322.233131
 20
153.368569
 30
0.0
 40
20.55115706201877
100
AcDbArc
 50
184.199547
 51
188.136747
  0
LINE
  5
98
330
6C
100
AcDbEntity
  8
0
  6
Continuous
 62
     0
370
    30
100
AcDbLine
 10
344.187349
 20
150.459928
 30
0.0
 11
344.187349
 21
119.652585
 31
0.0
  0
LINE
  5
99
330
6C
100
AcDbEntity
  8
0
  6
Continuous
 62
     0
370
    30
100
AcDbLine
 10
300.187349
 20
150.459928
 30
0.0
 11
300.187349
 21
119.652585
 31
0.0
  0
LINE
  5
9A
330
6C
100
AcDbEntity
  8
0
  6
Continuous
 62
     0
370
    30
100
AcDbLine
 10
332.187348
 20
171.263601
 30
0.0
 11
333.187348
 21
172.263601
 31
0.0
  0
LINE
  5
9B
330
6C
100
AcDbEntity
  8
0
  6
Continuous
 62
     0
370
    30
100
AcDbLine
 10
312.187348
 20
171.263601
 30
0.0
 11
311.187348
 21
172.263601
 31
0.0
  0
ARC
  5
9C
330
6C
100
AcDbEntity
  8
0
  6
Continuous
 62
     0
370
    30
100
AcDbCircle
 10
300.987373
 20
152.863628
 30
0.0
 40
1.000025415542769
100
AcDbArc
 50
180.001456
 51
269.992814
  0
ARC
  5
9D
330
6C
100
AcDbEntity
  8
0
  6
Continuous
 62
     0
370
    30
100
AcDbCircle
 10
343.387323
 20
152.863627
 30
0.0
 40
1.00002430796537
100
AcDbArc
 50
270.001393
 51
359.998607
  0
LINE
  5
9E
330
6C
100
AcDbEntity
  8
0
  6
Continuous
 62
     0
370
    30
100
AcDbLine
 10
299.987348
 20
182.363603
 30
0.0
 11
299.987348
 21
152.863603
 31
0.0
  0
LINE
  5
9F
330
6C
100
AcDbEntity
  8
0
  6
Continuous
 62
     0
370
    30
100
AcDbLine
 10
344.387348
 20
182.363603
 30
0.0
 11
344.387348
 21
152.863603
 31
0.0
  0
ARC
  5
A0
330
6C
100
AcDbEntity
  8
0
  6
Continuous
 62
     0
370
    30
100
AcDbCircle
 10
332.087373
 20
160.098882
 30
0.0
 40
1.000024867385895
100
AcDbArc
 50
180.001412
 51
269.498588
  0
ARC
  5
A1
330
6C
100
AcDbEntity
  8
0
  6
Continuous
 62
     0
370
    30
100
AcDbCircle
 10
312.287322
 20
160.098882
 30
0.0
 40
1.000024887263065
100
AcDbArc
 50
270.501411
 51
359.998586
  0
LINE
  5
A2
330
6C
100
AcDbEntity
  8
0
  6
Continuous
 62
     0
370
    30
100
AcDbLine
 10
313.287348
 20
160.098858
 30
0.0
 11
313.287348
 21
171.089656
 31
0.0
  0
LINE
  5
A3
330
6C
100
AcDbEntity
  8
0
  6
Continuous
 62
     0
370
    30
100
AcDbLine
 10
331.087348
 20
160.098858
 30
0.0
 11
331.087348
 21
171.089656
 31
0.0
  0
LINE
  5
A4
330
6C
100
AcDbEntity
  8
0
  6
Continuous
 62
     0
370
    30
100
AcDbLine
 10
332.839954
 20
159.092252
 30
0.0
 11
332.078621
 21
159.098896
 31
0.0
  0
LINE
  5
A5
330
6C
100
AcDbEntity
  8
0
  6
Continuous
 62
     0
370
    30
100
AcDbLine
 10
311.534749
 20
159.092252
 30
0.0
 11
312.296074
 21
159.098896
 31
0.0
  0
ARC
  5
A6
330
6C
100
AcDbEntity
  8
0
  6
Continuous
 62
     0
370
    30
100
AcDbCircle
 10
332.837333
 20
158.792248
 30
0.0
 40
0.300015042463869
100
AcDbArc
 50
0.002845
 51
89.488672
  0
ARC
  5
A7
330
6C
100
AcDbEntity
  8
0
  6
Continuous
 62
     0
370
    30
100
AcDbCircle
 10
311.537362
 20
158.792248
 30
0.0
 40
0.3000150422087245
100
AcDbArc
 50
90.508169
 51
179.997155
  0
LINE
  5
A8
330
6C
100
AcDbEntity
  8
0
  6
Continuous
 62
     0
370
    30
100
AcDbLine
 10
311.237348
 20
151.689656
 30
0.0
 11
311.237348
 21
158.792263
 31
0.0
  0
LINE
  5
A9
330
6C
100
AcDbEntity
  8
0
  6
Continuous
 62
     0
370
    30
100
AcDbLine
 10
333.137348
 20
151.689656
 30
0.0
 11
333.137348
 21
158.792263
 31
0.0
  0
ARC
  5
AA
330
6C
100
AcDbEntity
  8
0
  6
Continuous
 62
     0
370
    30
100
AcDbCircle
 10
330.787095
 20
171.089559
 30
0.0
 40
0.3002524738183613
100
AcDbArc
 50
0.018477
 51
35.426354
  0
ARC
  5
AB
330
6C
100
AcDbEntity
  8
0
  6
Continuous
 62
     0
370
    30
100
AcDbCircle
 10
313.587598
 20
171.08956
 30
0.0
 40
0.3002506503835735
100
AcDbArc
 50
144.571191
 51
179.981633
  0
ARC
  5
AC
330
6C
100
AcDbEntity
  8
0
  6
Continuous
 62
     0
370
    30
100
AcDbCircle
 10
332.837332
 20
151.689672
 30
0.0
 40
0.3000152332916996
100
AcDbArc
 50
270.006607
 51
359.997093
  0
ARC
  5
AD
330
6C
100
AcDbEntity
  8
0
  6
Continuous
 62
     0
370
    30
100
AcDbCircle
 10
311.537362
 20
151.689672
 30
0.0
 40
0.300015235635534
100
AcDbArc
 50
180.002907
 51
269.996321
  0
ENDBLK
  5
AF
330
6C
100
AcDbEntity
  8
0
100
AcDbBlockEnd
  0
BLOCK
  5
F4
330
B1
100
AcDbEntity
  8
0
100
AcDbBlockBegin
  2
c
 70
     0
 10
233.676636
 20
138.319893
 30
0.0
  3
c
  1

  0
LINE
  5
B2
330
B1
100
AcDbEntity
  8
0
  6
Continuous
 62
     0
370
    30
100
AcDbLine
 10
473.504799
 20
456.339055
 30
0.0
 11
473.504799
 21
462.92236
 31
0.0
  0
LINE
  5
B3
330
B1
100
AcDbEntity
  8
0
  6
Continuous
 62
     0
370
    30
100
AcDbLine
 10
473.504799
 20
462.92236
 30
0.0
 11
473.504799
 21
477.639055
 31
0.0
  0
LINE
  5
B4
330
B1
100
AcDbEntity
  8
0
  6
Continuous
 62
     0
370
     0
100
AcDbLine
 10
473.204799
 20
456.03906
 30
0.0
 11
473.204799
 21
462.807805
 31
0.0
  0
LINE
  5
B5
330
B1
100
AcDbEntity
  8
0
  6
Continuous
 62
     0
370
     0
100
AcDbLine
 10
473.204799
 20
462.807805
 30
0.0
 11
473.204799
 21
477.939051
 31
0.0
  0
LWPOLYLINE
  5
B6
330
B1
100
AcDbEntity
  8
0
  6
Continuous
 62
     0
370
     0
100
AcDbPolyline
 90
       16
 70
     0
 43
0.0
 10
453.80481
 20
475.889038
 10
453.80481
 20
475.814209
 10
453.80481
 20
475.588959
 10
453.80481
 20
475.217102
 10
453.80481
 20
474.704926
 10
453.80481
 20
474.061279
 10
453.80481
 20
473.297058
 10
453.80481
 20
472.425262
 10
453.80481
 20
471.460815
 10
453.80481
 20
470.420135
 10
453.80481
 20
469.320953
 10
453.80481
 20
468.182007
 10
453.80481
 20
467.022766
 10
453.80481
 20
465.863037
 10
453.80481
 20
464.722015
 10
453.80481
 20
463.590607
  0
LINE
  5
B7
330
B1
100
AcDbEntity
  8
0
  6
Continuous
 62
     0
370
     0
100
AcDbLine
 10
453.804799
 20
463.590597
 30
0.0
 11
453.804799
 21
458.089059
 31
0.0
  0
LINE
  5
B8
330
B1
100
AcDbEntity
  8
0
  6
Continuous
 62
     0
370
     0
100
AcDbLine
 10
466.102192
 20
462.807805
 30
0.0
 11
466.102192
 21
456.039055
 31
0.0
  0
LINE
  5
B9
330
B1
100
AcDbEntity
  8
0
  6
Continuous
 62
     0
370
     0
100
AcDbLine
 10
466.102192
 20
477.939055
 30
0.0
 11
466.102192
 21
462.807805
 31
0.0
  0
LINE
  5
BA
330
B1
100
AcDbEntity
  8
0
  6
Continuous
 62
     0
370
     0
100
AcDbLine
 10
465.802204
 20
462.921361
 30
0.0
 11
465.802204
 21
456.336481
 31
0.0
  0
LWPOLYLINE
  5
BB
330
B1
100
AcDbEntity
  8
0
  6
Continuous
 62
     0
370
     0
100
AcDbPolyline
 90
       17
 70
     0
 43
0.0
 10
465.802216
 20
477.641632
 10
465.802216
 20
477.562714
 10
465.802216
 20
477.324738
 10
465.802216
 20
476.931396
 10
465.802216
 20
476.388428
 10
465.802216
 20
475.704163
 10
465.802216
 20
474.888763
 10
465.802216
 20
473.95462
 10
465.802216
 20
472.915619
 10
465.802216
 20
471.787598
 10
465.802216
 20
470.587372
 10
465.802216
 20
469.332947
 10
465.802216
 20
468.043304
 10
465.802216
 20
466.73819
 10
465.802216
 20
465.436401
 10
465.802216
 20
464.156738
 10
465.802216
 20
462.921356
  0
LINE
  5
BC
330
B1
100
AcDbEntity
  8
0
  6
Continuous
 62
     0
370
     0
100
AcDbLine
 10
465.795559
 20
457.097782
 30
0.0
 11
465.79556
 21
463.212079
 31
0.0
  0
LINE
  5
BD
330
B1
100
AcDbEntity
  8
0
  6
Continuous
 62
     0
370
     0
100
AcDbLine
 10
465.79556
 20
463.212079
 30
0.0
 11
465.795559
 21
476.880329
 31
0.0
  0
LINE
  5
BE
330
B1
100
AcDbEntity
  8
0
  6
Continuous
 62
     0
370
     0
100
AcDbLine
 10
464.795597
 20
463.590597
 30
0.0
 11
464.795597
 21
475.889055
 31
0.0
  0
LINE
  5
BF
330
B1
100
AcDbEntity
  8
0
  6
Continuous
 62
     0
370
     0
100
AcDbLine
 10
464.795597
 20
458.089055
 30
0.0
 11
464.795597
 21
463.590597
 31
0.0
  0
LINE
  5
C0
330
B1
100
AcDbEntity
  8
0
  6
Continuous
 62
     0
370
    30
100
AcDbLine
 10
437.530856
 20
383.989057
 30
0.0
 11
437.530856
 21
493.989057
 31
0.0
  0
LINE
  5
C1
330
B1
100
AcDbEntity
  8
0
  6
Continuous
 62
     0
370
    30
100
AcDbLine
 10
437.530856
 20
493.989057
 30
0.0
 11
437.530856
 21
503.989057
 31
0.0
  0
LINE
  5
C2
330
B1
100
AcDbEntity
  8
0
  6
Continuous
 62
     0
370
    30
100
AcDbLine
 10
437.530856
 20
373.989057
 30
0.0
 11
437.530856
 21
383.989057
 31
0.0
  0
LINE
  5
C3
330
B1
100
AcDbEntity
  8
0
  6
Continuous
 62
     0
370
    30
100
AcDbLine
 10
442.530856
 20
373.989057
 30
0.0
 11
442.530856
 21
383.989057
 31
0.0
  0
LINE
  5
C4
330
B1
100
AcDbEntity
  8
0
  6
Continuous
 62
     0
370
    30
100
AcDbLine
 10
442.530856
 20
493.989057
 30
0.0
 11
442.530856
 21
503.989057
 31
0.0
  0
LINE
  5
C5
330
B1
100
AcDbEntity
  8
0
  6
Continuous
 62
     0
370
    30
100
AcDbLine
 10
442.530856
 20
383.989057
 30
0.0
 11
442.530856
 21
493.989057
 31
0.0
  0
LINE
  5
C6
330
B1
100
AcDbEntity
  8
0
  6
Continuous
 62
     0
370
    30
100
AcDbLine
 10
442.530856
 20
503.989057
 30
0.0
 11
437.530856
 21
503.989057
 31
0.0
  0
LINE
  5
C7
330
B1
100
AcDbEntity
  8
0
  6
Continuous
 62
     0
370
     0
100
AcDbLine
 10
437.530856
 20
493.989057
 30
0.0
 11
442.530856
 21
493.989057
 31
0.0
  0
LINE
  5
C8
330
B1
100
AcDbEntity
  8
0
  6
Continuous
 62
     0
370
     0
100
AcDbLine
 10
442.530856
 20
383.989057
 30
0.0
 11
437.530856
 21
383.989057
 31
0.0
  0
LINE
  5
C9
330
B1
100
AcDbEntity
  8
0
  6
Continuous
 62
     0
370
    30
100
AcDbLine
 10
437.530856
 20
373.989057
 30
0.0
 11
442.530856
 21
373.989057
 31
0.0
  0
LINE
  5
CA
330
B1
100
AcDbEntity
  8
0
  6
Continuous
 62
     0
370
    30
100
AcDbLine
 10
442.530854
 20
441.189057
 30
0.0
 11
472.030854
 21
441.189057
 31
0.0
  0
LINE
  5
CB
330
B1
100
AcDbEntity
  8
0
  6
Continuous
 62
     0
370
     0
100
AcDbLine
 10
472.030854
 20
396.789057
 30
0.0
 11
472.030854
 21
441.189057
 31
0.0
  0
LINE
  5
CC
330
B1
100
AcDbEntity
  8
0
  6
Continuous
 62
     0
370
    30
100
AcDbLine
 10
473.030854
 20
440.189057
 30
0.0
 11
473.030854
 21
397.789057
 31
0.0
  0
ARC
  5
CD
330
B1
100
AcDbEntity
  8
0
  6
Continuous
 62
     0
370
    30
100
AcDbCircle
 10
472.030854
 20
440.189057
 30
0.0
 40
1.000000000001529
100
AcDbArc
 50
0.0
 51
90.0
  0
LINE
  5
CE
330
B1
100
AcDbEntity
  8
0
  6
Continuous
 62
     0
370
    30
100
AcDbLine
 10
453.630854
 20
476.989057
 30
0.0
 11
453.630854
 21
456.989057
 31
0.0
  0
LINE
  5
CF
330
B1
100
AcDbEntity
  8
0
  6
Continuous
 62
     0
370
    30
100
AcDbLine
 10
453.630854
 20
476.989057
 30
0.0
 11
452.630854
 21
477.989057
 31
0.0
  0
LINE
  5
D0
330
B1
100
AcDbEntity
  8
0
  6
Continuous
 62
     0
370
    30
100
AcDbLine
 10
452.630854
 20
477.989057
 30
0.0
 11
452.630854
 21
455.989057
 31
0.0
  0
LINE
  5
D1
330
B1
100
AcDbEntity
  8
0
  6
Continuous
 62
     0
370
    30
100
AcDbLine
 10
474.241873
 20
418.459741
 30
0.0
 11
474.241872
 21
396.989055
 31
0.0
  0
LWPOLYLINE
  5
D2
330
B1
100
AcDbEntity
  8
0
  6
Continuous
 62
     0
370
    30
100
AcDbPolyline
 90
       39
 70
     0
 43
0.0
 10
505.241882
 20
440.989044
 10
505.241882
 20
440.926331
 10
505.241882
 20
440.731293
 10
505.241882
 20
440.394806
 10
505.241882
 20
439.909821
 10
505.241882
 20
439.271912
 10
505.241882
 20
438.479614
 10
505.241882
 20
437.534882
 10
505.241882
 20
436.443298
 10
505.241882
 20
435.213898
 10
505.241882
 20
433.8591
 10
505.241882
 20
432.394318
 10
505.241882
 20
430.837219
 10
505.241882
 20
429.207275
 10
505.241882
 20
427.524689
 10
505.241882
 20
425.809937
 10
505.241882
 20
424.082733
 10
505.241882
 20
422.361694
 10
505.241882
 20
420.663605
 10
505.241882
 20
419.003235
 10
505.241882
 20
417.343597
 10
505.241882
 20
415.646027
 10
505.241882
 20
413.925262
 10
505.241882
 20
412.198029
 10
505.241882
 20
410.48288
 10
505.241882
 20
408.799591
 10
505.241882
 20
407.168518
 10
505.241882
 20
405.610016
 10
505.241882
 20
404.143463
 10
505.241882
 20
402.786652
 10
505.241882
 20
401.554962
 10
505.241882
 20
400.460876
 10
505.241882
 20
399.51358
 10
505.241882
 20
398.718597
 10
505.241882
 20
398.078003
 10
505.241882
 20
397.590424
 10
505.241882
 20
397.251404
 10
505.241882
 20
397.053986
 10
505.241882
 20
396.989044
  0
LWPOLYLINE
  5
D3
330
B1
100
AcDbEntity
  8
0
  6
Continuous
 62
     0
370
    30
100
AcDbPolyline
 90
       21
 70
     0
 43
0.0
 10
482.441986
 20
440.989044
 10
482.414734
 20
440.914093
 10
482.333588
 20
440.69104
 10
482.199432
 20
440.32251
 10
482.013428
 20
439.811829
 10
481.777466
 20
439.163666
 10
481.493896
 20
438.384521
 10
481.165344
 20
437.48175
 10
480.794678
 20
436.46344
 10
480.38501
 20
435.33786
 10
479.939209
 20
434.113037
 10
479.460571
 20
432.797943
 10
478.952667
 20
431.402496
 10
478.419128
 20
429.936646
 10
477.863617
 20
428.410431
 10
477.289581
 20
426.833252
 10
476.69928
 20
425.211395
 10
476.095032
 20
423.551208
 10
475.481262
 20
421.864899
 10
474.863129
 20
420.166595
 10
474.241882
 20
418.459747
  0
LINE
  5
D4
330
B1
100
AcDbEntity
  8
0
  6
Continuous
 62
     0
370
    30
100
AcDbLine
 10
474.241872
 20
396.989055
 30
0.0
 11
478.758566
 21
396.989055
 31
0.0
  0
LWPOLYLINE
  5
D5
330
B1
100
AcDbEntity
  8
0
  6
Continuous
 62
     0
370
     0
100
AcDbPolyline
 90
       32
 70
     0
 43
0.0
 10
478.758575
 20
396.989044
 10
478.834686
 20
397.014679
 10
479.054779
 20
397.089569
 10
479.410919
 20
397.208191
 10
479.891327
 20
397.362549
 10
480.478882
 20
397.543427
 10
481.159058
 20
397.741272
 10
481.918488
 20
397.947266
 10
482.746124
 20
398.153168
 10
483.631744
 20
398.351593
 10
484.565521
 20
398.535492
 10
485.539551
 20
398.698914
 10
486.546478
 20
398.836639
 10
487.579041
 20
398.944183
 10
488.629974
 20
399.018097
 10
489.691986
 20
399.055969
 10
490.757812
 20
399.05658
 10
491.820099
 20
399.019867
 10
492.87146
 20
398.947052
 10
493.904694
 20
398.840546
 10
494.912567
 20
398.703735
 10
495.887817
 20
398.541016
 10
496.822937
 20
398.357697
 10
497.70993
 20
398.15976
 10
498.540039
 20
397.953857
 10
499.303314
 20
397.747284
 10
499.986938
 20
397.548737
 10
500.577545
 20
397.367218
 10
501.060883
 20
397.212036
 10
501.421661
 20
397.092316
 10
501.646088
 20
397.016113
 10
501.725189
 20
396.989044
  0
LINE
  5
D6
330
B1
100
AcDbEntity
  8
0
  6
Continuous
 62
     0
370
    30
100
AcDbLine
 10
501.725179
 20
396.989055
 30
0.0
 11
505.241872
 21
396.989055
 31
0.0
  0
LWPOLYLINE
  5
D7
330
B1
100
AcDbEntity
  8
0
  6
Continuous
 62
     0
370
     0
100
AcDbPolyline
 90
       22
 70
     0
 43
0.0
 10
496.741882
 20
390.989044
 10
496.679993
 20
390.989044
 10
496.483551
 20
390.989044
 10
496.141327
 20
390.989044
 10
495.651184
 20
390.989044
 10
495.021606
 20
390.989044
 10
494.272095
 20
390.989044
 10
493.43103
 20
390.989044
 10
492.53241
 20
390.989044
 10
491.611389
 20
390.989044
 10
490.70047
 20
390.989044
 10
489.815155
 20
390.989044
 10
488.905121
 20
390.989044
 10
487.983917
 20
390.989044
 10
487.083893
 20
390.989044
 10
486.240204
 20
390.989044
 10
485.486877
 20
390.989044
 10
484.852661
 20
390.989044
 10
484.35733
 20
390.989044
 10
484.009827
 20
390.989044
 10
483.80835
 20
390.989044
 10
483.741882
 20
390.989044
  0
LWPOLYLINE
  5
D8
330
B1
100
AcDbEntity
  8
0
  6
Continuous
 62
     0
370
     0
100
AcDbPolyline
 90
       25
 70
     0
 43
0.0
 10
483.757812
 20
391.901794
 10
483.817627
 20
391.945801
 10
483.993378
 20
392.074554
 10
484.276337
 20
392.274933
 10
484.655823
 20
392.531525
 10
485.121063
 20
392.826477
 10
485.663727
 20
393.142242
 10
486.277954
 20
393.461365
 10
486.959625
 20
393.765839
 10
487.704742
 20
394.036499
 10
488.505615
 20
394.252716
 10
489.353973
 20
394.393555
 10
490.228638
 20
394.444336
 10
491.103699
 20
394.396484
 10
491.953247
 20
394.258148
 10
492.755676
 20
394.043884
 10
493.502563
 20
393.774536
 10
494.186249
 20
393.470734
 10
494.802521
 20
393.151825
 10
495.347443
 20
392.835724
 10
495.815125
 20
392.539856
 10
496.197327
 20
392.281799
 10
496.483337
 20
392.079407
 10
496.662476
 20
391.948395
 10
496.725952
 20
391.901794
  0
ARC
  5
D9
330
B1
100
AcDbEntity
  8
0
  6
Continuous
 62
     0
370
    30
100
AcDbCircle
 10
501.725179
 20
391.989055
 30
0.0
 40
5.000000000000586
100
AcDbArc
 50
90.0
 51
181.0
  0
ARC
  5
DA
330
B1
100
AcDbEntity
  8
0
  6
Continuous
 62
     0
370
    30
100
AcDbCircle
 10
478.758566
 20
391.989055
 30
0.0
 40
4.999999999999444
100
AcDbArc
 50
359.0
 51
90.0
  0
LINE
  5
DB
330
B1
100
AcDbEntity
  8
0
  6
Continuous
 62
     0
370
    30
100
AcDbLine
 10
483.741878
 20
330.989055
 30
0.0
 11
496.741867
 21
330.989055
 31
0.0
  0
LINE
  5
DC
330
B1
100
AcDbEntity
  8
0
  6
Continuous
 62
     0
370
    30
100
AcDbLine
 10
496.741867
 20
330.989055
 30
0.0
 11
496.741867
 21
390.989055
 31
0.0
  0
LINE
  5
DD
330
B1
100
AcDbEntity
  8
0
  6
Continuous
 62
     0
370
    30
100
AcDbLine
 10
442.530854
 20
477.989057
 30
0.0
 11
452.630854
 21
477.989057
 31
0.0
  0
LINE
  5
DE
330
B1
100
AcDbEntity
  8
0
  6
Continuous
 62
     0
370
    30
100
AcDbLine
 10
442.530854
 20
455.989057
 30
0.0
 11
452.630854
 21
455.989057
 31
0.0
  0
ARC
  5
DF
330
B1
100
AcDbEntity
  8
0
  6
Continuous
 62
     0
370
    30
100
AcDbCircle
 10
471.530805
 20
418.989353
 30
0.0
 40
20.50543443720832
100
AcDbArc
 50
274.195152
 51
277.597443
  0
ARC
  5
E0
330
B1
100
AcDbEntity
  8
0
  6
Continuous
 62
     0
370
    30
100
AcDbCircle
 10
471.530881
 20
418.989219
 30
0.0
 40
20.50496885893644
100
AcDbArc
 50
62.354454
 51
85.804966
  0
LINE
  5
E1
330
B1
100
AcDbEntity
  8
0
  6
Continuous
 62
     0
370
    30
100
AcDbLine
 10
483.741878
 20
390.989055
 30
0.0
 11
483.741878
 21
330.989055
 31
0.0
  0
LINE
  5
E2
330
B1
100
AcDbEntity
  8
0
  6
Continuous
 62
     0
370
    30
100
AcDbLine
 10
482.442073
 20
440.989055
 30
0.0
 11
505.241872
 21
440.989055
 31
0.0
  0
LINE
  5
E3
330
B1
100
AcDbEntity
  8
0
  6
Continuous
 62
     0
370
    30
100
AcDbLine
 10
453.630854
 20
456.989057
 30
0.0
 11
452.630854
 21
455.989057
 31
0.0
  0
ARC
  5
E4
330
B1
100
AcDbEntity
  8
0
  6
Continuous
 62
     0
370
    30
100
AcDbCircle
 10
472.03083
 20
397.789081
 30
0.0
 40
1.000024307960912
100
AcDbArc
 50
270.001393
 51
359.998607
  0
LINE
  5
E5
330
B1
100
AcDbEntity
  8
0
  6
Continuous
 62
     0
370
    30
100
AcDbLine
 10
442.530854
 20
396.789057
 30
0.0
 11
472.030854
 21
396.789057
 31
0.0
  0
ARC
  5
E6
330
B1
100
AcDbEntity
  8
0
  6
Continuous
 62
     0
370
    30
100
AcDbCircle
 10
464.795573
 20
457.089031
 30
0.0
 40
1.000024867139296
100
AcDbArc
 50
0.501412
 51
89.998588
  0
ARC
  5
E7
330
B1
100
AcDbEntity
  8
0
  6
Continuous
 62
     0
370
    30
100
AcDbCircle
 10
464.795573
 20
476.88908
 30
0.0
 40
1.00002486738541
100
AcDbArc
 50
270.001412
 51
359.498588
  0
LINE
  5
E8
330
B1
100
AcDbEntity
  8
0
  6
Continuous
 62
     0
370
    30
100
AcDbLine
 10
464.795597
 20
475.889055
 30
0.0
 11
453.804799
 21
475.889055
 31
0.0
  0
LINE
  5
E9
330
B1
100
AcDbEntity
  8
0
  6
Continuous
 62
     0
370
    30
100
AcDbLine
 10
464.795597
 20
458.089055
 30
0.0
 11
453.804799
 21
458.089055
 31
0.0
  0
LINE
  5
EA
330
B1
100
AcDbEntity
  8
0
  6
Continuous
 62
     0
370
    30
100
AcDbLine
 10
465.802203
 20
456.336478
 30
0.0
 11
465.795559
 21
457.097782
 31
0.0
  0
LINE
  5
EB
330
B1
100
AcDbEntity
  8
0
  6
Continuous
 62
     0
370
    30
100
AcDbLine
 10
465.802203
 20
477.641633
 30
0.0
 11
465.795559
 21
476.880329
 31
0.0
  0
ARC
  5
EC
330
B1
100
AcDbEntity
  8
0
  6
Continuous
 62
     0
370
    30
100
AcDbCircle
 10
466.102207
 20
456.33907
 30
0.0
 40
0.3000150275717079
100
AcDbArc
 50
180.503826
 51
269.997157
  0
ARC
  5
ED
330
B1
100
AcDbEntity
  8
0
  6
Continuous
 62
     0
370
    30
100
AcDbCircle
 10
466.102207
 20
477.63904
 30
0.0
 40
0.3000150277562073
100
AcDbArc
 50
90.002843
 51
179.49612
  0
LINE
  5
EE
330
B1
100
AcDbEntity
  8
0
  6
Continuous
 62
     0
370
    30
100
AcDbLine
 10
473.204799
 20
477.939055
 30
0.0
 11
466.102192
 21
477.939055
 31
0.0
  0
LINE
  5
EF
330
B1
100
AcDbEntity
  8
0
  6
Continuous
 62
     0
370
    30
100
AcDbLine
 10
473.204799
 20
456.039055
 30
0.0
 11
466.102192
 21
456.039055
 31
0.0
  0
ARC
  5
F0
330
B1
100
AcDbEntity
  8
0
  6
Continuous
 62
     0
370
    30
100
AcDbCircle
 10
453.804895
 20
458.389306
 30
0.0
 40
0.3002505200652681
100
AcDbArc
 50
234.571005
 51
269.981641
  0
ARC
  5
F1
330
B1
100
AcDbEntity
  8
0
  6
Continuous
 62
     0
370
    30
100
AcDbCircle
 10
453.804894
 20
475.588808
 30
0.0
 40
0.3002475512231895
100
AcDbArc
 50
90.018179
 51
125.433015
  0
ARC
  5
F2
330
B1
100
AcDbEntity
  8
0
  6
Continuous
 62
     0
370
    30
100
AcDbCircle
 10
473.204783
 20
456.339071
 30
0.0
 40
0.3000152343583159
100
AcDbArc
 50
270.002907
 51
359.992835
  0
ARC
  5
F3
330
B1
100
AcDbEntity
  8
0
  6
Continuous
 62
     0
370
    30
100
AcDbCircle
 10
473.204783
 20
477.63904
 30
0.0
 40
0.3000152347510532
100
AcDbArc
 50
0.007326
 51
89.997093
  0
ENDBLK
  5
F5
330
B1
100
AcDbEntity
  8
0
100
AcDbBlockEnd
  0
BLOCK
  5
13F
330
F7
100
AcDbEntity
  8
0
100
AcDbBlockBegin
  2
d
 70
     0
 10
233.676636
 20
119.121208
 30
0.0
  3
d
  1

  0
LWPOLYLINE
  5
F8
330
F7
100
AcDbEntity
  8
0
  6
Continuous
 62
     0
370
     0
100
AcDbPolyline
 90
       28
 70
     0
 43
0.0
 10
478.332733
 20
186.639389
 10
478.599976
 20
185.690887
 10
478.7901
 20
184.741638
 10
478.890381
 20
183.811905
 10
478.890167
 20
182.923965
 10
478.782227
 20
182.100647
 10
478.563507
 20
181.363815
 10
478.235809
 20
180.732559
 10
477.805908
 20
180.221619
 10
477.285004
 20
179.840363
 10
476.687866
 20
179.592102
 10
476.031616
 20
179.47438
 10
475.334137
 20
179.479599
 10
474.613098
 20
179.596115
 10
473.876587
 20
179.812546
 10
473.088257
 20
180.139542
 10
472.249847
 20
180.585632
 10
471.374359
 20
181.153427
 10
470.478149
 20
181.840454
 10
469.580048
 20
182.638672
 10
468.700256
 20
183.534439
 10
467.858948
 20
184.509201
 10
467.074646
 20
185.540756
 10
466.363068
 20
186.604904
 10
465.735962
 20
187.677216
 10
465.200653
 20
188.734818
 10
464.760071
 20
189.757721
 10
464.412628
 20
190.731216
  0
LWPOLYLINE
  5
F9
330
F7
100
AcDbEntity
  8
0
  6
Continuous
 62
     0
370
     0
100
AcDbPolyline
 90
       27
 70
     0
 43
0.0
 10
464.412628
 20
190.731216
 10
464.124481
 20
191.767365
 10
463.932098
 20
192.785233
 10
463.846039
 20
193.760452
 10
463.872803
 20
194.6689
 10
464.013885
 20
195.488495
 10
464.265656
 20
196.200974
 10
464.619629
 20
196.793213
 10
465.063263
 20
197.25798
 10
465.583008
 20
197.59491
 10
466.190582
 20
197.813766
 10
466.886322
 20
197.906097
 10
467.659302
 20
197.862549
 10
468.494507
 20
197.679459
 10
469.373596
 20
197.359375
 10
470.276154
 20
196.911102
 10
471.181427
 20
196.348801
 10
472.069702
 20
195.690796
 10
472.93515
 20
194.947281
 10
473.79892
 20
194.098831
 10
474.644531
 20
193.154556
 10
475.451721
 20
192.131302
 10
476.200958
 20
191.050385
 10
476.874969
 20
189.936218
 10
477.459991
 20
188.814453
 10
477.946747
 20
187.710052
 10
478.332733
 20
186.639389
  0
LWPOLYLINE
  5
FA
330
F7
100
AcDbEntity
  8
0
  6
Continuous
 62
     0
370
     0
100
AcDbPolyline
 90
       10
 70
     0
 43
0.0
 10
478.740936
 20
186.731766
 10
479.023956
 20
185.722137
 10
479.21579
 20
184.750687
 10
479.313965
 20
183.829346
 10
479.317383
 20
182.969421
 10
479.225922
 20
182.181427
 10
479.040741
 20
181.475082
 10
478.76413
 20
180.858963
 10
478.399384
 20
180.340759
 10
477.907043
 20
179.894836
  0
LWPOLYLINE
  5
FB
330
F7
100
AcDbEntity
  8
0
  6
Continuous
 62
     0
370
     0
100
AcDbPolyline
 90
       19
 70
     0
 43
0.0
 10
465.262604
 20
197.775772
 10
465.835052
 20
198.08667
 10
466.488007
 20
198.26796
 10
467.212372
 20
198.317154
 10
467.998016
 20
198.233459
 10
468.833893
 20
198.018158
 10
469.708313
 20
197.674179
 10
470.609009
 20
197.206375
 10
471.523376
 20
196.621338
 10
472.438599
 20
195.92717
 10
473.341858
 20
195.133698
 10
474.22052
 20
194.251968
 10
475.062256
 20
193.294357
 10
475.855286
 20
192.274292
 10
476.58847
 20
191.206039
 10
477.251556
 20
190.104584
 10
477.835266
 20
188.985336
 10
478.331421
 20
187.863998
 10
478.740936
 20
186.731766
  0
LWPOLYLINE
  5
FC
330
F7
100
AcDbEntity
  8
0
  6
Continuous
 62
     0
370
    30
100
AcDbPolyline
 90
        6
 70
     0
 43
0.0
 10
491.20575
 20
196.923233
 10
491.434418
 20
196.10733
 10
491.589691
 20
195.320541
 10
491.668854
 20
194.575058
 10
491.671112
 20
193.879852
 10
491.564697
 20
193.088242
  0
LWPOLYLINE
  5
FD
330
F7
100
AcDbEntity
  8
0
  6
Continuous
 62
     0
370
    30
100
AcDbPolyline
 90
       14
 70
     0
 43
0.0
 10
482.2547
 20
206.254883
 10
482.985077
 20
206.10611
 10
483.757263
 20
205.829269
 10
484.557953
 20
205.429306
 10
485.373474
 20
204.912888
 10
486.189911
 20
204.28894
 10
486.993256
 20
203.568115
 10
487.769775
 20
202.762711
 10
488.506256
 20
201.886536
 10
489.190094
 20
200.954483
 10
489.809509
 20
199.982834
 10
490.353943
 20
198.987793
 10
490.814484
 20
197.985367
 10
491.20575
 20
196.923233
  0
LWPOLYLINE
  5
FE
330
F7
100
AcDbEntity
  8
0
  6
Continuous
 62
     0
370
     0
100
AcDbPolyline
 90
       17
 70
     0
 43
0.0
 10
491.11908
 20
196.825577
 10
490.747955
 20
197.839905
 10
490.280182
 20
198.866577
 10
489.72406
 20
199.88736
 10
489.089417
 20
200.88414
 10
488.387573
 20
201.839218
 10
487.630981
 20
202.735672
 10
486.833038
 20
203.557526
 10
486.007904
 20
204.290222
 10
485.170288
 20
204.920792
 10
484.334991
 20
205.437958
 10
483.516907
 20
205.832581
 10
482.730499
 20
206.097702
 10
481.989746
 20
206.228546
 10
481.307831
 20
206.222794
 10
480.696808
 20
206.080597
 10
480.164093
 20
205.801987
  0
LWPOLYLINE
  5
FF
330
F7
100
AcDbEntity
  8
0
  6
Continuous
 62
     0
370
     0
100
AcDbPolyline
 90
        9
 70
     0
 43
0.0
 10
490.438416
 20
191.266602
 10
490.85141
 20
191.642532
 10
491.17804
 20
192.125763
 10
491.413147
 20
192.708817
 10
491.553101
 20
193.382629
 10
491.595734
 20
194.136642
 10
491.540344
 20
194.959183
 10
491.387848
 20
195.837387
 10
491.11908
 20
196.825577
  0
ELLIPSE
  5
100
330
F7
100
AcDbEntity
  8
0
  6
Continuous
 62
     0
370
     0
100
AcDbEllipse
 10
476.607121
 20
192.386606
 30
0.0
 11
6.321985411561005
 21
-8.940637586660674
 31
0.0
210
0.0
220
0.0
230
0.9999999999999999
 40
0.5
 41
0.0000000121016157
 42
1.007276120441105
  0
ELLIPSE
  5
101
330
F7
100
AcDbEntity
  8
0
  6
Continuous
 62
     0
370
     0
100
AcDbEllipse
 10
476.607121
 20
192.386606
 30
0.0
 11
6.321985411561005
 21
-8.940637586660674
 31
0.0
210
0.0
220
0.0
230
0.9999999999999999
 40
0.5
 41
1.007276120441105
 42
3.141592665691411
  0
LWPOLYLINE
  5
102
330
F7
100
AcDbEntity
  8
0
  6
Continuous
 62
     0
370
    30
100
AcDbPolyline
 90
        9
 70
     0
 43
0.0
 10
469.823395
 20
248.929123
 10
470.373505
 20
249.223801
 10
471.005951
 20
249.388474
 10
471.705902
 20
249.419754
 10
472.45578
 20
249.320358
 10
473.236603
 20
249.098648
 10
474.029541
 20
248.767624
 10
474.817047
 20
248.343536
 10
475.596893
 20
247.83522
  0
LINE
  5
103
330
F7
100
AcDbEntity
  8
0
  6
Continuous
 62
     0
370
    30
100
AcDbLine
 10
475.596905
 20
247.835227
 30
0.0
 11
518.023311
 21
217.835227
 31
0.0
  0
LWPOLYLINE
  5
104
330
F7
100
AcDbEntity
  8
0
  6
Continuous
 62
     0
370
    30
100
AcDbPolyline
 90
       13
 70
     0
 43
0.0
 10
518.023315
 20
217.83522
 10
518.872192
 20
217.183823
 10
519.744568
 20
216.405396
 10
520.619568
 20
215.505524
 10
521.472961
 20
214.497421
 10
522.279053
 20
213.401917
 10
523.012878
 20
212.246414
 10
523.652649
 20
211.062759
 10
524.181702
 20
209.884399
 10
524.590088
 20
208.743271
 10
524.874939
 20
207.667145
 10
525.040039
 20
206.677643
 10
525.09436
 20
205.76416
  0
LINE
  5
105
330
F7
100
AcDbEntity
  8
0
  6
Continuous
 62
     0
370
    30
100
AcDbLine
 10
525.094379
 20
205.764159
 30
0.0
 11
525.094379
 21
127.982413
 31
0.0
  0
LWPOLYLINE
  5
106
330
F7
100
AcDbEntity
  8
0
  6
Continuous
 62
     0
370
    30
100
AcDbPolyline
 90
        7
 70
     0
 43
0.0
 10
525.09436
 20
127.982414
 10
525.064331
 20
127.352524
 10
524.970337
 20
126.751358
 10
524.807373
 20
126.191299
 10
524.572327
 20
125.684982
 10
524.263794
 20
125.244583
 10
523.796814
 20
124.817444
  0
LINE
  5
107
330
F7
100
AcDbEntity
  8
0
  6
Continuous
 62
     0
370
     0
100
AcDbLine
 10
525.094379
 20
127.982413
 30
0.0
 11
521.558845
 21
125.482413
 31
0.0
  0
ELLIPSE
  5
108
330
F7
100
AcDbEntity
  8
0
  6
Continuous
 62
     0
370
    30
100
AcDbEllipse
 10
514.487777
 20
130.482413
 30
0.0
 11
-5.773502658959832
 21
8.164965832566839
 31
0.0
210
0.0
220
0.0
230
-1.0
 40
0.5
 41
2.526112936851662
 42
4.096909263646557
  0
LINE
  5
109
330
F7
100
AcDbEntity
  8
0
  6
Continuous
 62
     0
370
    30
100
AcDbLine
 10
514.487777
 20
123.411345
 30
0.0
 11
490.000338
 21
140.726579
 31
0.0
  0
LINE
  5
10A
330
F7
100
AcDbEntity
  8
0
  6
Continuous
 62
     0
370
    30
100
AcDbLine
 10
521.558845
 20
203.264159
 30
0.0
 11
521.558845
 21
125.482413
 31
0.0
  0
LWPOLYLINE
  5
10B
330
F7
100
AcDbEntity
  8
0
  6
Continuous
 62
     0
370
    30
100
AcDbPolyline
 90
       13
 70
     0
 43
0.0
 10
514.487793
 20
215.33522
 10
515.33667
 20
214.683823
 10
516.209045
 20
213.905396
 10
517.084045
 20
213.005524
 10
517.937439
 20
211.997421
 10
518.74353
 20
210.901917
 10
519.477356
 20
209.746414
 10
520.117065
 20
208.562759
 10
520.646118
 20
207.384399
 10
521.054565
 20
206.243271
 10
521.339417
 20
205.167145
 10
521.504517
 20
204.177643
 10
521.558838
 20
203.26416
  0
LINE
  5
10C
330
F7
100
AcDbEntity
  8
0
  6
Continuous
 62
     0
370
    30
100
AcDbLine
 10
472.061371
 20
245.335227
 30
0.0
 11
514.487777
 21
215.335227
 31
0.0
  0
LWPOLYLINE
  5
10D
330
F7
100
AcDbEntity
  8
0
  6
Continuous
 62
     0
370
    30
100
AcDbPolyline
 90
       15
 70
     0
 43
0.0
 10
464.990295
 20
243.26416
 10
465.027435
 20
243.961487
 10
465.144012
 20
244.621811
 10
465.346436
 20
245.228119
 10
465.638489
 20
245.763275
 10
466.02063
 20
246.211136
 10
466.489716
 20
246.557846
 10
467.038788
 20
246.792984
 10
467.657349
 20
246.910416
 10
468.332062
 20
246.908859
 10
469.047668
 20
246.791855
 10
469.788086
 20
246.567307
 10
470.537476
 20
246.246628
 10
471.281219
 20
245.843704
 10
472.061371
 20
245.33522
  0
LINE
  5
10E
330
F7
100
AcDbEntity
  8
0
  6
Continuous
 62
     0
370
    30
100
AcDbLine
 10
464.990303
 20
197.558058
 30
0.0
 11
464.990303
 21
243.264159
 31
0.0
  0
LINE
  5
10F
330
F7
100
AcDbEntity
  8
0
  6
Continuous
 62
     0
370
    30
100
AcDbLine
 10
464.990303
 20
177.420486
 30
0.0
 11
464.990303
 21
189.088263
 31
0.0
  0
LWPOLYLINE
  5
110
330
F7
100
AcDbEntity
  8
0
  6
Continuous
 62
     0
370
    30
100
AcDbPolyline
 90
       20
 70
     0
 43
0.0
 10
499.625427
 20
195.190811
 10
500.117889
 20
195.636154
 10
500.505768
 20
196.193787
 10
500.787323
 20
196.845367
 10
500.96521
 20
197.57045
 10
501.045776
 20
198.348099
 10
501.037415
 20
199.171066
 10
500.938751
 20
200.079742
 10
500.741272
 20
201.071548
 10
500.439331
 20
202.133606
 10
500.031006
 20
203.248383
 10
499.519012
 20
204.394363
 10
498.910767
 20
205.547241
 10
498.218262
 20
206.681549
 10
497.457275
 20
207.772461
 10
496.64621
 20
208.797592
 10
495.804565
 20
209.738495
 10
494.951721
 20
210.581573
 10
494.105438
 20
211.318436
 10
493.274567
 20
211.950455
  0
LWPOLYLINE
  5
111
330
F7
100
AcDbEntity
  8
0
  6
Continuous
 62
     0
370
    30
100
AcDbPolyline
 90
       10
 70
     0
 43
0.0
 10
493.274567
 20
211.950455
 10
492.533264
 20
212.43924
 10
491.772827
 20
212.865997
 10
491.004242
 20
213.217102
 10
490.240173
 20
213.479797
 10
489.494476
 20
213.643066
 10
488.781555
 20
213.698547
 10
488.115448
 20
213.641281
 10
487.509094
 20
213.470123
 10
486.923706
 20
213.153732
  0
LWPOLYLINE
  5
112
330
F7
100
AcDbEntity
  8
0
  6
Continuous
 62
     0
370
    30
100
AcDbPolyline
 90
       28
 70
     0
 43
0.0
 10
506.090454
 20
152.104004
 10
506.811737
 20
152.711273
 10
507.429718
 20
153.435776
 10
507.94165
 20
154.265579
 10
508.347168
 20
155.187225
 10
508.648071
 20
156.186264
 10
508.848114
 20
157.24791
 10
508.952576
 20
158.357483
 10
508.967987
 20
159.504471
 10
508.89621
 20
160.729233
 10
508.73111
 20
162.043198
 10
508.466858
 20
163.440079
 10
508.099152
 20
164.911179
 10
507.625397
 20
166.44545
 10
507.045258
 20
168.029633
 10
506.360504
 20
169.648529
 10
505.57547
 20
171.285431
 10
504.696716
 20
172.922684
 10
503.733093
 20
174.542252
 10
502.695251
 20
176.126419
 10
501.59549
 20
177.658371
 10
500.447021
 20
179.122849
 10
499.263672
 20
180.506592
 10
498.059265
 20
181.798676
 10
496.847168
 20
182.990768
 10
495.639923
 20
184.077118
 10
494.448914
 20
185.05455
 10
493.274567
 20
185.928925
  0
LWPOLYLINE
  5
113
330
F7
100
AcDbEntity
  8
0
  6
Continuous
 62
     0
370
    30
100
AcDbPolyline
 90
        6
 70
     0
 43
0.0
 10
493.274567
 20
185.928925
 10
492.135223
 20
186.693161
 10
490.97052
 20
187.388123
 10
489.789764
 20
188.001358
 10
488.603546
 20
188.520767
 10
487.224762
 20
188.994171
  0
LINE
  5
114
330
F7
100
AcDbEntity
  8
0
  6
Continuous
 62
     0
370
     0
100
AcDbLine
 10
521.558845
 20
203.264159
 30
0.0
 11
525.094379
 21
205.764159
 31
0.0
  0
LINE
  5
115
330
F7
100
AcDbEntity
  8
0
  6
Continuous
 62
     0
370
     0
100
AcDbLine
 10
518.023311
 20
217.835227
 30
0.0
 11
514.487777
 21
215.335227
 31
0.0
  0
LINE
  5
116
330
F7
100
AcDbEntity
  8
0
  6
Continuous
 62
     0
370
     0
100
AcDbLine
 10
472.061371
 20
245.335227
 30
0.0
 11
475.596905
 21
247.835227
 31
0.0
  0
ELLIPSE
  5
117
330
F7
100
AcDbEntity
  8
0
  6
Continuous
 62
     0
370
     0
100
AcDbEllipse
 10
472.414924
 20
155.48115
 30
0.0
 11
-12.81717590289082
 21
18.12622414829837
 31
0.0
210
0.0
220
0.0
230
-1.0
 40
0.5
 41
0.9553166100567638
 42
3.145864170407875
  0
ELLIPSE
  5
118
330
F7
100
AcDbEntity
  8
0
  6
Continuous
 62
     0
370
     0
100
AcDbEllipse
 10
472.414924
 20
155.48115
 30
0.0
 11
-12.81717590289082
 21
18.12622414829837
 31
0.0
210
0.0
220
0.0
230
-1.0
 40
0.5
 41
6.279582419783923
 42
7.23850191723635
  0
LWPOLYLINE
  5
119
330
F7
100
AcDbEntity
  8
0
  6
Continuous
 62
     0
370
     0
100
AcDbPolyline
 90
       16
 70
     0
 43
0.0
 10
471.707825
 20
169.971817
 10
470.597931
 20
170.715469
 10
469.463074
 20
171.39006
 10
468.312653
 20
171.983017
 10
467.157471
 20
172.482086
 10
466.009369
 20
172.8759
 10
464.881073
 20
173.154373
 10
463.785706
 20
173.30928
 10
462.736328
 20
173.334625
 10
461.745605
 20
173.227036
 10
460.825134
 20
172.985947
 10
459.985168
 20
172.613724
 10
459.23407
 20
172.115601
 10
458.578247
 20
171.49939
 10
458.021759
 20
170.775162
 10
457.559448
 20
169.939743
  0
LWPOLYLINE
  5
11A
330
F7
100
AcDbEntity
  8
0
  6
Continuous
 62
     0
370
     0
100
AcDbPolyline
 90
       22
 70
     0
 43
0.0
 10
486.15741
 20
140.772583
 10
486.446594
 20
141.822739
 10
486.623749
 20
142.939026
 10
486.695892
 20
144.103699
 10
486.670074
 20
145.323807
 10
486.542999
 20
146.644592
 10
486.306946
 20
148.061737
 10
485.955933
 20
149.565704
 10
485.486267
 20
151.143784
 10
484.896851
 20
152.780319
 10
484.189728
 20
154.457016
 10
483.369995
 20
156.153549
 10
482.445862
 20
157.848328
 10
481.428467
 20
159.519379
 10
480.33136
 20
161.145294
 10
479.169891
 20
162.706131
 10
477.960541
 20
164.184174
 10
476.720245
 20
165.564636
 10
475.465637
 20
166.835983
 10
474.212402
 20
167.990112
 10
472.974731
 20
169.022339
 10
471.707825
 20
169.971817
  0
LWPOLYLINE
  5
11B
330
F7
100
AcDbEntity
  8
0
  6
Continuous
 62
     0
370
    30
100
AcDbPolyline
 90
       17
 70
     0
 43
0.0
 10
459.557922
 20
171.413681
 10
460.225128
 20
171.889999
 10
460.980499
 20
172.263412
 10
461.820496
 20
172.524612
 10
462.739624
 20
172.666199
 10
463.730286
 20
172.682968
 10
464.783173
 20
172.572281
 10
465.88736
 20
172.334183
 10
467.030853
 20
171.971512
 10
468.200836
 20
171.489731
 10
469.384308
 20
170.896698
 10
470.568481
 20
170.202301
 10
471.741089
 20
169.418045
 10
472.891022
 20
168.556488
 10
474.008301
 20
167.630783
 10
475.084503
 20
166.654175
 10
476.166138
 20
165.584686
  0
LWPOLYLINE
  5
11C
330
F7
100
AcDbEntity
  8
0
  6
Continuous
 62
     0
370
    30
100
AcDbPolyline
 90
       16
 70
     0
 43
0.0
 10
476.166138
 20
165.584686
 10
477.261627
 20
164.405441
 10
478.352631
 20
163.1259
 10
479.425598
 20
161.752563
 10
480.46579
 20
160.294998
 10
481.457886
 20
158.765839
 10
482.386505
 20
157.180603
 10
483.236877
 20
155.557312
 10
483.995544
 20
153.915848
 10
484.65097
 20
152.277252
 10
485.194092
 20
150.662781
 10
485.618774
 20
149.093079
 10
485.922089
 20
147.587204
 10
486.104126
 20
146.162003
 10
486.168091
 20
144.831436
 10
486.11792
 20
143.585754
  0
LWPOLYLINE
  5
11D
330
F7
100
AcDbEntity
  8
0
  6
Continuous
 62
     0
370
    30
100
AcDbPolyline
 90
       13
 70
     0
 43
0.0
 10
485.42569
 20
205.693344
 10
484.660339
 20
206.192978
 10
483.874329
 20
206.618042
 10
483.082581
 20
206.950668
 10
482.302521
 20
207.174652
 10
481.552826
 20
207.276962
 10
480.852478
 20
207.249146
 10
480.218964
 20
207.088333
 10
479.667175
 20
206.79776
 10
479.208099
 20
206.38649
 10
478.848114
 20
205.868622
 10
478.588959
 20
205.261902
 10
478.425812
 20
204.572845
  0
LWPOLYLINE
  5
11E
330
F7
100
AcDbEntity
  8
0
  6
Continuous
 62
     0
370
    30
100
AcDbPolyline
 90
       24
 70
     0
 43
0.0
 10
488.702667
 20
190.039215
 10
489.424988
 20
189.962906
 10
490.097534
 20
190.01088
 10
490.704407
 20
190.18486
 10
491.2323
 20
190.481125
 10
491.671509
 20
190.890732
 10
492.016479
 20
191.40036
 10
492.2659
 20
191.993439
 10
492.422333
 20
192.651642
 10
492.491608
 20
193.356262
 10
492.481171
 20
194.102463
 10
492.389282
 20
194.926422
 10
492.208405
 20
195.824829
 10
491.933533
 20
196.786072
 10
491.563019
 20
197.794403
 10
491.099335
 20
198.830551
 10
490.549194
 20
199.872787
 10
489.923309
 20
200.898285
 10
489.235809
 20
201.884888
 10
488.503052
 20
202.812561
 10
487.742554
 20
203.664734
 10
486.971588
 20
204.429169
 10
486.206146
 20
205.098282
 10
485.42569
 20
205.693344
  0
LWPOLYLINE
  5
11F
330
F7
100
AcDbEntity
  8
0
  6
Continuous
 62
     0
370
    30
100
AcDbPolyline
 90
       15
 70
     0
 43
0.0
 10
486.132782
 20
206.900452
 10
485.259644
 20
207.468643
 10
484.396759
 20
207.931824
 10
483.556274
 20
208.283203
 10
482.748444
 20
208.518631
 10
481.983337
 20
208.635284
 10
481.270752
 20
208.631516
 10
480.61969
 20
208.507492
 10
480.038391
 20
208.264664
 10
479.53418
 20
207.906219
 10
479.113464
 20
207.4366
 10
478.781555
 20
206.861801
 10
478.542633
 20
206.189102
 10
478.39978
 20
205.426956
 10
478.355255
 20
204.522949
  0
LWPOLYLINE
  5
120
330
F7
100
AcDbEntity
  8
0
  6
Continuous
 62
     0
370
    30
100
AcDbPolyline
 90
       25
 70
     0
 43
0.0
 10
488.632111
 20
189.989334
 10
489.475708
 20
189.735321
 10
490.273529
 20
189.60994
 10
491.014557
 20
189.614944
 10
491.688751
 20
189.750153
 10
492.286774
 20
190.013855
 10
492.800507
 20
190.402328
 10
493.22287
 20
190.910278
 10
493.548035
 20
191.530777
 10
493.771667
 20
192.255264
 10
493.890564
 20
193.073898
 10
493.903198
 20
193.975357
 10
493.809326
 20
194.947372
 10
493.61026
 20
195.976593
 10
493.308807
 20
197.048904
 10
492.908936
 20
198.149643
 10
492.41626
 20
199.263687
 10
491.837494
 20
200.375809
 10
491.180542
 20
201.470749
 10
490.454437
 20
202.533524
 10
489.669067
 20
203.549545
 10
488.835358
 20
204.504852
 10
487.964569
 20
205.386429
 10
487.068237
 20
206.182465
 10
486.132782
 20
206.900452
  0
LWPOLYLINE
  5
121
330
F7
100
AcDbEntity
  8
0
  6
Continuous
 62
     0
370
    30
100
AcDbPolyline
 90
        9
 70
     0
 43
0.0
 10
483.553192
 20
136.41272
 10
484.206543
 20
136.954559
 10
484.775421
 20
137.592758
 10
485.25769
 20
138.318527
 10
485.652832
 20
139.121979
 10
485.961792
 20
139.992508
 10
486.186859
 20
140.919174
 10
486.331573
 20
141.890945
 10
486.403351
 20
143.004547
  0
LWPOLYLINE
  5
122
330
F7
100
AcDbEntity
  8
0
  6
Continuous
 62
     0
370
    30
100
AcDbPolyline
 90
       40
 70
     0
 43
0.0
 10
448.931183
 20
123.31929
 10
450.07486
 20
122.552681
 10
451.244202
 20
121.856667
 10
452.429565
 20
121.244034
 10
453.620087
 20
120.727219
 10
454.80368
 20
120.317825
 10
455.967468
 20
120.026138
 10
457.098145
 20
119.860611
 10
458.182343
 20
119.827446
 10
459.207275
 20
119.930222
 10
460.16095
 20
120.169662
 10
461.032959
 20
120.543571
 10
461.814545
 20
121.046844
 10
462.499115
 20
121.67173
 10
463.082306
 20
122.40818
 10
463.561981
 20
123.244278
 10
463.938263
 20
124.166794
 10
464.213348
 20
125.161682
 10
464.391144
 20
126.214653
 10
464.477051
 20
127.311592
 10
464.477295
 20
128.447617
 10
464.391907
 20
129.665512
 10
464.214691
 20
130.969421
 10
463.940186
 20
132.352875
 10
463.564514
 20
133.807175
 10
463.085449
 20
135.32132
 10
462.502869
 20
136.882263
 10
461.818878
 20
138.475159
 10
461.037842
 20
140.083725
 10
460.166351
 20
141.690887
 10
459.213104
 20
143.279221
 10
458.188599
 20
144.831696
 10
457.104675
 20
146.332199
 10
455.974243
 20
147.766113
 10
454.810608
 20
149.120789
 10
453.627075
 20
150.385803
 10
452.436584
 20
151.553207
 10
451.25116
 20
152.617569
 10
450.081696
 20
153.575851
 10
448.931183
 20
154.431992
  0
LWPOLYLINE
  5
123
330
F7
100
AcDbEntity
  8
0
  6
Continuous
 62
     0
370
    30
100
AcDbPolyline
 90
       40
 70
     0
 43
0.0
 10
448.931183
 20
154.431992
 10
447.787506
 20
155.198593
 10
446.618195
 20
155.894608
 10
445.4328
 20
156.507248
 10
444.24231
 20
157.024063
 10
443.058716
 20
157.433456
 10
441.894928
 20
157.725143
 10
440.764252
 20
157.890671
 10
439.680023
 20
157.923843
 10
438.655121
 20
157.82106
 10
437.701416
 20
157.581619
 10
436.829437
 20
157.207703
 10
436.047821
 20
156.704437
 10
435.363251
 20
156.079544
 10
434.78006
 20
155.343094
 10
434.300385
 20
154.507004
 10
433.924103
 20
153.584488
 10
433.649017
 20
152.5896
 10
433.471252
 20
151.536636
 10
433.385345
 20
150.439682
 10
433.385101
 20
149.303665
 10
433.470459
 20
148.08577
 10
433.647705
 20
146.78186
 10
433.92218
 20
145.398407
 10
434.297882
 20
143.944107
 10
434.776947
 20
142.429962
 10
435.359497
 20
140.869019
 10
436.043488
 20
139.276123
 10
436.824554
 20
137.667557
 10
437.696014
 20
136.060394
 10
438.649261
 20
134.472061
 10
439.673798
 20
132.919586
 10
440.75769
 20
131.419083
 10
441.888123
 20
129.985168
 10
443.051788
 20
128.630493
 10
444.235291
 20
127.365479
 10
445.425781
 20
126.198067
 10
446.611237
 20
125.133713
 10
447.78067
 20
124.17543
 10
448.931183
 20
123.31929
  0
LWPOLYLINE
  5
124
330
F7
100
AcDbEntity
  8
0
  6
Continuous
 62
     0
370
    30
100
AcDbPolyline
 90
       31
 70
     0
 43
0.0
 10
486.403351
 20
143.004547
 10
485.91803
 20
143.965881
 10
485.328217
 20
145.000381
 10
484.637909
 20
146.100662
 10
483.852966
 20
147.256866
 10
482.97818
 20
148.461136
 10
482.016876
 20
149.708725
 10
480.973297
 20
150.993637
 10
479.853149
 20
152.307846
 10
478.663025
 20
153.642563
 10
477.411041
 20
154.988007
 10
476.105377
 20
156.334488
 10
474.753998
 20
157.673019
 10
473.365723
 20
158.994034
 10
471.950592
 20
160.287079
 10
470.520721
 20
161.540466
 10
469.088043
 20
162.742981
 10
467.662842
 20
163.88559
 10
466.256866
 20
164.958649
 10
464.882996
 20
165.951797
 10
463.553925
 20
166.855438
 10
462.281342
 20
167.662277
 10
461.076569
 20
168.365494
 10
459.948334
 20
168.960358
 10
458.903809
 20
169.443771
 10
457.951019
 20
169.813004
 10
457.097076
 20
170.066223
 10
456.346466
 20
170.203613
 10
455.702789
 20
170.225922
 10
455.168823
 20
170.134674
 10
454.744476
 20
169.930634
  0
ELLIPSE
  5
125
330
F7
100
AcDbEntity
  8
0
  6
Continuous
 62
     0
370
    30
100
AcDbEllipse
 10
459.537789
 20
84.150243
 30
0.0
 11
-6.49999415358911
 21
1.251449729963253E-7
 31
0.0
210
0.0
220
0.0
230
0.9999999999999999
 40
0.707107
 41
0.7853981770114364
 42
3.141592645032655
  0
ELLIPSE
  5
126
330
F7
100
AcDbEntity
  8
0
  6
Continuous
 62
     0
370
    30
100
AcDbEllipse
 10
459.537789
 20
84.150243
 30
0.0
 11
-6.49999415358911
 21
1.251449729963253E-7
 31
0.0
210
0.0
220
0.0
230
0.9999999999999999
 40
0.707107
 41
6.283185298622453
 42
7.068583484191023
  0
LINE
  5
127
330
F7
100
AcDbEntity
  8
0
  6
Continuous
 62
     0
370
    30
100
AcDbLine
 10
486.923721
 20
213.153738
 30
0.0
 11
479.781943
 21
208.103738
 31
0.0
  0
LINE
  5
128
330
F7
100
AcDbEntity
  8
0
  6
Continuous
 62
     0
370
    30
100
AcDbLine
 10
499.625427
 20
195.190814
 30
0.0
 11
492.483649
 21
190.140814
 31
0.0
  0
LWPOLYLINE
  5
129
330
F7
100
AcDbEntity
  8
0
  6
Continuous
 62
     0
370
    30
100
AcDbPolyline
 90
        3
 70
     0
 43
0.0
 10
459.557922
 20
171.413681
 10
459.186523
 20
171.09314
 10
457.884766
 20
169.835602
  0
LINE
  5
12A
330
F7
100
AcDbEntity
  8
0
  6
Continuous
 62
     0
370
    30
100
AcDbLine
 10
453.037796
 20
120.967305
 30
0.0
 11
453.037795
 21
84.150244
 31
0.0
  0
LINE
  5
12B
330
F7
100
AcDbEntity
  8
0
  6
Continuous
 62
     0
370
    30
100
AcDbLine
 10
466.037784
 20
124.027442
 30
0.0
 11
466.037783
 21
84.150243
 31
0.0
  0
LINE
  5
12C
330
F7
100
AcDbEntity
  8
0
  6
Continuous
 62
     0
370
    30
100
AcDbLine
 10
483.553205
 20
136.412715
 30
0.0
 11
461.632894
 21
120.912715
 31
0.0
  0
LINE
  5
12D
330
F7
100
AcDbEntity
  8
0
  6
Continuous
 62
     0
370
    30
100
AcDbLine
 10
454.744581
 20
169.930716
 30
0.0
 11
436.229483
 21
156.838565
 31
0.0
  0
LINE
  5
12E
330
F7
100
AcDbEntity
  8
0
  6
Continuous
 62
     0
370
    30
100
AcDbLine
 10
488.631475
 20
189.988879
 30
0.0
 11
488.725951
 21
189.955477
 31
0.0
  0
LINE
  5
12F
330
F7
100
AcDbEntity
  8
0
  6
Continuous
 62
     0
370
    30
100
AcDbLine
 10
478.354621
 20
204.522504
 30
0.0
 11
478.354621
 21
204.622276
 31
0.0
  0
LWPOLYLINE
  5
130
330
F7
100
AcDbEntity
  8
0
  6
Continuous
 62
     0
370
    30
100
AcDbPolyline
 90
        3
 70
     0
 43
0.0
 10
483.794189
 20
136.593201
 10
484.368835
 20
136.842346
 10
485.232574
 20
137.355286
  0
LWPOLYLINE
  5
131
330
F7
100
AcDbEntity
  8
0
  6
Continuous
 62
     0
370
    30
100
AcDbPolyline
 90
        6
 70
     0
 43
0.0
 10
459.59726
 20
173.606995
 10
458.959961
 20
173.090958
 10
458.388763
 20
172.491989
 10
457.888947
 20
171.817703
 10
457.462921
 20
171.074539
 10
457.042175
 20
170.079361
  0
LINE
  5
132
330
F7
100
AcDbEntity
  8
0
  6
Continuous
 62
     0
370
    30
100
AcDbLine
 10
470.792107
 20
181.522981
 30
0.0
 11
459.597748
 21
173.607374
 31
0.0
  0
LINE
  5
133
330
F7
100
AcDbEntity
  8
0
  6
Continuous
 62
     0
370
    30
100
AcDbLine
 10
506.09175
 20
152.104926
 30
0.0
 11
485.2321
 21
137.354926
 31
0.0
  0
LINE
  5
134
330
F7
100
AcDbEntity
  8
0
  6
Continuous
 62
     0
370
    30
100
AcDbLine
 10
469.823402
 20
248.929125
 30
0.0
 11
466.287868
 21
246.429125
 31
0.0
  0
LINE
  5
135
330
F7
100
AcDbEntity
  8
0
  6
Continuous
 62
     0
370
    30
100
AcDbLine
 10
523.796814
 20
124.817447
 30
0.0
 11
520.26128
 21
122.317447
 31
0.0
  0
LINE
  5
136
330
F7
100
AcDbEntity
  8
0
  6
Continuous
 62
     0
370
    30
100
AcDbLine
 10
474.160892
 20
201.557091
 30
0.0
 11
480.164274
 21
205.802123
 31
0.0
  0
LINE
  5
137
330
F7
100
AcDbEntity
  8
0
  6
Continuous
 62
     0
370
    30
100
AcDbLine
 10
484.43774
 20
187.023461
 30
0.0
 11
490.441109
 21
191.268483
 31
0.0
  0
LWPOLYLINE
  5
138
330
F7
100
AcDbEntity
  8
0
  6
Continuous
 62
     0
370
    30
100
AcDbPolyline
 90
       28
 70
     0
 43
0.0
 10
470.309021
 20
201.343933
 10
470.911011
 20
201.666
 10
471.588501
 20
201.854721
 10
472.327057
 20
201.90918
 10
473.11615
 20
201.832458
 10
473.945923
 20
201.628326
 10
474.806763
 20
201.301239
 10
475.688965
 20
200.856186
 10
476.582397
 20
200.299332
 10
477.475891
 20
199.638718
 10
478.358246
 20
198.88266
 10
479.21817
 20
198.040924
 10
480.044373
 20
197.124847
 10
480.82605
 20
196.146637
 10
481.552856
 20
195.1194
 10
482.214996
 20
194.056564
 10
482.803955
 20
192.972366
 10
483.311584
 20
191.881058
 10
483.731171
 20
190.796951
 10
484.056915
 20
189.734161
 10
484.28476
 20
188.705933
 10
484.411163
 20
187.725311
 10
484.433502
 20
186.804199
 10
484.350128
 20
185.953232
 10
484.160309
 20
185.182968
 10
483.863708
 20
184.504028
 10
483.460846
 20
183.927399
 10
482.947754
 20
183.45929
  0
LINE
  5
139
330
F7
100
AcDbEntity
  8
0
  6
Continuous
 62
     0
370
    30
100
AcDbLine
 10
465.266241
 20
197.778349
 30
0.0
 11
470.285136
 21
201.327244
 31
0.0
  0
LINE
  5
13A
330
F7
100
AcDbEntity
  8
0
  6
Continuous
 62
     0
370
    30
100
AcDbLine
 10
477.906806
 20
179.894666
 30
0.0
 11
482.929107
 21
183.445969
 31
0.0
  0
LWPOLYLINE
  5
13B
330
F7
100
AcDbEntity
  8
0
  6
Continuous
 62
     0
370
    30
100
AcDbPolyline
 90
        5
 70
     0
 43
0.0
 10
490.441284
 20
191.268631
 10
490.805847
 20
191.584442
 10
491.110382
 20
191.971359
 10
491.350342
 20
192.421448
 10
491.564789
 20
193.088211
  0
LWPOLYLINE
  5
13C
330
F7
100
AcDbEntity
  8
0
  6
Continuous
 62
     0
370
    30
100
AcDbPolyline
 90
        5
 70
     0
 43
0.0
 10
480.164093
 20
205.801987
 10
480.583313
 20
206.040482
 10
481.0495
 20
206.198715
 10
481.553802
 20
206.275024
 10
482.2547
 20
206.254898
  0
LWPOLYLINE
  5
13D
330
F7
100
AcDbEntity
  8
0
  6
Continuous
 62
     0
370
    30
100
AcDbPolyline
 90
       10
 70
     0
 43
0.0
 10
464.33905
 20
190.789841
 10
464.055389
 20
191.803329
 10
463.863586
 20
192.780945
 10
463.766602
 20
193.711319
 10
463.766144
 20
194.584579
 10
463.863708
 20
195.391052
 10
464.060028
 20
196.121216
 10
464.355255
 20
196.765656
 10
464.748749
 20
197.314575
 10
465.262604
 20
197.775772
  0
LWPOLYLINE
  5
13E
330
F7
100
AcDbEntity
  8
0
  6
Continuous
 62
     0
370
    30
100
AcDbPolyline
 90
       20
 70
     0
 43
0.0
 10
477.907043
 20
179.894836
 10
477.331024
 20
179.576385
 10
476.683533
 20
179.381821
 10
475.977966
 20
179.312439
 10
475.223969
 20
179.365738
 10
474.430328
 20
179.5383
 10
473.605774
 20
179.826416
 10
472.759125
 20
180.225494
 10
471.899231
 20
180.730591
 10
471.035797
 20
181.33493
 10
470.178986
 20
182.030838
 10
469.338928
 20
182.810364
 10
468.525787
 20
183.663757
 10
467.749512
 20
184.580505
 10
467.019562
 20
185.549011
 10
466.345123
 20
186.557236
 10
465.734558
 20
187.592911
 10
465.195007
 20
188.643463
 10
464.733429
 20
189.696198
 10
464.33905
 20
190.789841
  0
ENDBLK
  5
140
330
F7
100
AcDbEntity
  8
0
100
AcDbBlockEnd
  0
BLOCK
  5
186
330
142
100
AcDbEntity
  8
0
100
AcDbBlockBegin
  2
e
 70
     0
 10
237.02655
 20
0.0
 30
0.0
  3
e
  1

  0
LINE
  5
143
330
142
100
AcDbEntity
  8
0
  6
Continuous
 62
     0
370
    30
100
AcDbLine
 10
168.832216
 20
471.055751
 30
0.0
 11
168.832217
 21
456.339055
 31
0.0
  0
LWPOLYLINE
  5
144
330
142
100
AcDbEntity
  8
0
  6
Continuous
 62
     0
370
    30
100
AcDbPolyline
 90
       11
 70
     0
 43
0.0
 10
168.832214
 20
477.639069
 10
168.832214
 20
477.569275
 10
168.832214
 20
477.362976
 10
168.832214
 20
477.012787
 10
168.832214
 20
476.516571
 10
168.832214
 20
475.878448
 10
168.832214
 20
475.108917
 10
168.832214
 20
474.224365
 10
168.832214
 20
473.24585
 10
168.832214
 20
472.197632
 10
168.832214
 20
471.055756
  0
LINE
  5
145
330
142
100
AcDbEntity
  8
0
  6
Continuous
 62
     0
370
     0
100
AcDbLine
 10
169.132216
 20
471.170305
 30
0.0
 11
169.132217
 21
456.03906
 31
0.0
  0
LINE
  5
146
330
142
100
AcDbEntity
  8
0
  6
Continuous
 62
     0
370
     0
100
AcDbLine
 10
169.132217
 20
477.939051
 30
0.0
 11
169.132216
 21
471.170305
 31
0.0
  0
LINE
  5
147
330
142
100
AcDbEntity
  8
0
  6
Continuous
 62
     0
370
     0
100
AcDbLine
 10
188.532216
 20
470.387514
 30
0.0
 11
188.532217
 21
475.889052
 31
0.0
  0
LWPOLYLINE
  5
148
330
142
100
AcDbEntity
  8
0
  6
Continuous
 62
     0
370
     0
100
AcDbPolyline
 90
       16
 70
     0
 43
0.0
 10
188.532211
 20
458.08905
 10
188.532211
 20
458.16391
 10
188.532211
 20
458.38916
 10
188.532211
 20
458.761017
 10
188.532211
 20
459.273163
 10
188.532211
 20
459.91684
 10
188.532211
 20
460.681061
 10
188.532211
 20
461.552856
 10
188.532211
 20
462.517303
 10
188.532211
 20
463.557983
 10
188.532211
 20
464.657166
 10
188.532211
 20
465.796082
 10
188.532211
 20
466.955353
 10
188.532211
 20
468.115173
 10
188.532211
 20
469.255829
 10
188.532211
 20
470.387512
  0
LINE
  5
149
330
142
100
AcDbEntity
  8
0
  6
Continuous
 62
     0
370
     0
100
AcDbLine
 10
176.234823
 20
456.039055
 30
0.0
 11
176.234823
 21
471.170305
 31
0.0
  0
LINE
  5
14A
330
142
100
AcDbEntity
  8
0
  6
Continuous
 62
     0
370
     0
100
AcDbLine
 10
176.234823
 20
471.170305
 30
0.0
 11
176.234823
 21
477.939055
 31
0.0
  0
LWPOLYLINE
  5
14B
330
142
100
AcDbEntity
  8
0
  6
Continuous
 62
     0
370
     0
100
AcDbPolyline
 90
       17
 70
     0
 43
0.0
 10
176.534805
 20
456.336487
 10
176.534805
 20
456.415375
 10
176.534805
 20
456.653351
 10
176.534805
 20
457.046722
 10
176.534805
 20
457.589691
 10
176.534805
 20
458.273926
 10
176.534805
 20
459.089355
 10
176.534805
 20
460.023499
 10
176.534805
 20
461.062469
 10
176.534805
 20
462.190521
 10
176.534805
 20
463.390747
 10
176.534805
 20
464.645172
 10
176.534805
 20
465.934814
 10
176.534805
 20
467.239899
 10
176.534805
 20
468.541687
 10
176.534805
 20
469.821381
 10
176.534805
 20
471.056763
  0
LINE
  5
14C
330
142
100
AcDbEntity
  8
0
  6
Continuous
 62
     0
370
     0
100
AcDbLine
 10
176.534812
 20
471.05675
 30
0.0
 11
176.534812
 21
477.64163
 31
0.0
  0
LINE
  5
14D
330
142
100
AcDbEntity
  8
0
  6
Continuous
 62
     0
370
     0
100
AcDbLine
 10
176.541456
 20
470.766031
 30
0.0
 11
176.541456
 21
457.097782
 31
0.0
  0
LINE
  5
14E
330
142
100
AcDbEntity
  8
0
  6
Continuous
 62
     0
370
     0
100
AcDbLine
 10
176.541456
 20
476.880329
 30
0.0
 11
176.541456
 21
470.766031
 31
0.0
  0
LINE
  5
14F
330
142
100
AcDbEntity
  8
0
  6
Continuous
 62
     0
370
     0
100
AcDbLine
 10
177.541418
 20
475.889055
 30
0.0
 11
177.541418
 21
470.387514
 31
0.0
  0
LINE
  5
150
330
142
100
AcDbEntity
  8
0
  6
Continuous
 62
     0
370
     0
100
AcDbLine
 10
177.541418
 20
470.387514
 30
0.0
 11
177.541418
 21
458.089055
 31
0.0
  0
LINE
  5
151
330
142
100
AcDbEntity
  8
0
  6
Continuous
 62
     0
370
    30
100
AcDbLine
 10
204.80616
 20
503.989057
 30
0.0
 11
204.806159
 21
493.989057
 31
0.0
  0
LINE
  5
152
330
142
100
AcDbEntity
  8
0
  6
Continuous
 62
     0
370
    30
100
AcDbLine
 10
204.806159
 20
493.989057
 30
0.0
 11
204.806159
 21
383.989057
 31
0.0
  0
LINE
  5
153
330
142
100
AcDbEntity
  8
0
  6
Continuous
 62
     0
370
    30
100
AcDbLine
 10
204.806159
 20
383.989057
 30
0.0
 11
204.80616
 21
373.989057
 31
0.0
  0
LINE
  5
154
330
142
100
AcDbEntity
  8
0
  6
Continuous
 62
     0
370
    30
100
AcDbLine
 10
199.80616
 20
373.989057
 30
0.0
 11
204.80616
 21
373.989057
 31
0.0
  0
LINE
  5
155
330
142
100
AcDbEntity
  8
0
  6
Continuous
 62
     0
370
     0
100
AcDbLine
 10
204.806159
 20
383.989057
 30
0.0
 11
199.806159
 21
383.989057
 31
0.0
  0
LINE
  5
156
330
142
100
AcDbEntity
  8
0
  6
Continuous
 62
     0
370
    30
100
AcDbLine
 10
199.80616
 20
383.989057
 30
0.0
 11
199.80616
 21
373.989057
 31
0.0
  0
LINE
  5
157
330
142
100
AcDbEntity
  8
0
  6
Continuous
 62
     0
370
    30
100
AcDbLine
 10
199.806159
 20
493.989057
 30
0.0
 11
199.806159
 21
383.989057
 31
0.0
  0
LINE
  5
158
330
142
100
AcDbEntity
  8
0
  6
Continuous
 62
     0
370
    30
100
AcDbLine
 10
199.80616
 20
503.989057
 30
0.0
 11
199.806159
 21
493.989057
 31
0.0
  0
LINE
  5
159
330
142
100
AcDbEntity
  8
0
  6
Continuous
 62
     0
370
     0
100
AcDbLine
 10
199.806159
 20
493.989057
 30
0.0
 11
204.806159
 21
493.989057
 31
0.0
  0
LINE
  5
15A
330
142
100
AcDbEntity
  8
0
  6
Continuous
 62
     0
370
    30
100
AcDbLine
 10
204.80616
 20
503.989057
 30
0.0
 11
199.80616
 21
503.989057
 31
0.0
  0
LINE
  5
15B
330
142
100
AcDbEntity
  8
0
  6
Continuous
 62
     0
370
    30
100
AcDbLine
 10
199.806161
 20
441.189057
 30
0.0
 11
170.306161
 21
441.189057
 31
0.0
  0
LINE
  5
15C
330
142
100
AcDbEntity
  8
0
  6
Continuous
 62
     0
370
     0
100
AcDbLine
 10
170.306161
 20
441.189057
 30
0.0
 11
170.306161
 21
396.789057
 31
0.0
  0
LINE
  5
15D
330
142
100
AcDbEntity
  8
0
  6
Continuous
 62
     0
370
    30
100
AcDbLine
 10
169.306161
 20
397.789057
 30
0.0
 11
169.306161
 21
440.189057
 31
0.0
  0
ARC
  5
15E
330
142
100
AcDbEntity
  8
0
  6
Continuous
 62
     0
370
    30
100
AcDbCircle
 10
170.306161
 20
440.189057
 30
0.0
 40
1.000000000001443
100
AcDbArc
 50
90.0
 51
180.0
  0
LINE
  5
15F
330
142
100
AcDbEntity
  8
0
  6
Continuous
 62
     0
370
    30
100
AcDbLine
 10
188.706161
 20
456.989057
 30
0.0
 11
188.706161
 21
476.989057
 31
0.0
  0
LINE
  5
160
330
142
100
AcDbEntity
  8
0
  6
Continuous
 62
     0
370
    30
100
AcDbLine
 10
188.706161
 20
476.989057
 30
0.0
 11
189.706161
 21
477.989057
 31
0.0
  0
LINE
  5
161
330
142
100
AcDbEntity
  8
0
  6
Continuous
 62
     0
370
    30
100
AcDbLine
 10
189.706161
 20
455.989057
 30
0.0
 11
189.706161
 21
477.989057
 31
0.0
  0
LWPOLYLINE
  5
162
330
142
100
AcDbEntity
  8
0
  6
Continuous
 62
     0
370
    30
100
AcDbPolyline
 90
       20
 70
     0
 43
0.0
 10
168.095139
 20
396.989044
 10
168.095139
 20
397.050049
 10
168.095139
 20
397.239471
 10
168.095139
 20
397.565948
 10
168.095139
 20
398.036011
 10
168.095139
 20
398.6539
 10
168.095139
 20
399.420898
 10
168.095139
 20
400.335236
 10
168.095139
 20
401.391693
 10
168.095139
 20
402.581909
 10
168.095139
 20
403.894257
 10
168.095139
 20
405.314423
 10
168.095139
 20
406.825806
 10
168.095139
 20
408.410278
 10
168.095139
 20
410.048706
 10
168.095139
 20
411.721832
 10
168.095139
 20
413.410797
 10
168.095139
 20
415.097839
 10
168.095139
 20
416.766754
 10
168.095139
 20
418.459747
  0
LWPOLYLINE
  5
163
330
142
100
AcDbEntity
  8
0
  6
Continuous
 62
     0
370
    30
100
AcDbPolyline
 90
       39
 70
     0
 43
0.0
 10
137.095139
 20
396.989044
 10
137.095139
 20
397.051758
 10
137.095139
 20
397.246826
 10
137.095139
 20
397.583313
 10
137.095139
 20
398.068268
 10
137.095139
 20
398.706207
 10
137.095139
 20
399.498505
 10
137.095139
 20
400.443207
 10
137.095139
 20
401.534821
 10
137.095139
 20
402.764221
 10
137.095139
 20
404.119019
 10
137.095139
 20
405.583801
 10
137.095139
 20
407.140869
 10
137.095139
 20
408.770844
 10
137.095139
 20
410.4534
 10
137.095139
 20
412.168182
 10
137.095139
 20
413.895355
 10
137.095139
 20
415.616425
 10
137.095139
 20
417.314484
 10
137.095139
 20
418.974884
 10
137.095139
 20
420.634521
 10
137.095139
 20
422.332062
 10
137.095139
 20
424.052856
 10
137.095139
 20
425.78009
 10
137.095139
 20
427.495239
 10
137.095139
 20
429.178528
 10
137.095139
 20
430.80957
 10
137.095139
 20
432.368103
 10
137.095139
 20
433.834625
 10
137.095139
 20
435.191467
 10
137.095139
 20
436.423157
 10
137.095139
 20
437.517242
 10
137.095139
 20
438.464539
 10
137.095139
 20
439.259521
 10
137.095139
 20
439.900116
 10
137.095139
 20
440.387695
 10
137.095139
 20
440.726685
 10
137.095139
 20
440.924103
 10
137.095139
 20
440.989044
  0
LINE
  5
164
330
142
100
AcDbEntity
  8
0
  6
Continuous
 62
     0
370
    30
100
AcDbLine
 10
168.095142
 20
418.45974
 30
0.0
 11
159.895038
 21
440.989055
 31
0.0
  0
LINE
  5
165
330
142
100
AcDbEntity
  8
0
  6
Continuous
 62
     0
370
    30
100
AcDbLine
 10
168.095143
 20
396.989055
 30
0.0
 11
163.57845
 21
396.989055
 31
0.0
  0
LINE
  5
166
330
142
100
AcDbEntity
  8
0
  6
Continuous
 62
     0
370
    30
100
AcDbLine
 10
140.611836
 20
396.989055
 30
0.0
 11
137.095143
 21
396.989055
 31
0.0
  0
LWPOLYLINE
  5
167
330
142
100
AcDbEntity
  8
0
  6
Continuous
 62
     0
370
     0
100
AcDbPolyline
 90
       32
 70
     0
 43
0.0
 10
140.611832
 20
396.989044
 10
140.687973
 20
397.014679
 10
140.908066
 20
397.089569
 10
141.264206
 20
397.208191
 10
141.744614
 20
397.362549
 10
142.332138
 20
397.543427
 10
143.012344
 20
397.741272
 10
143.771759
 20
397.947266
 10
144.599411
 20
398.153168
 10
145.485016
 20
398.351593
 10
146.418793
 20
398.535492
 10
147.392822
 20
398.698914
 10
148.399765
 20
398.836639
 10
149.432312
 20
398.944183
 10
150.483231
 20
399.018097
 10
151.545258
 20
399.055969
 10
152.611084
 20
399.05658
 10
153.673355
 20
399.019867
 10
154.724747
 20
398.947052
 10
155.75798
 20
398.840546
 10
156.765839
 20
398.703735
 10
157.741089
 20
398.541016
 10
158.676193
 20
398.357697
 10
159.563217
 20
398.15976
 10
160.393326
 20
397.953857
 10
161.15657
 20
397.747284
 10
161.84021
 20
397.548737
 10
162.430832
 20
397.367218
 10
162.914139
 20
397.212036
 10
163.274933
 20
397.092316
 10
163.499359
 20
397.016113
 10
163.578445
 20
396.989044
  0
LINE
  5
168
330
142
100
AcDbEntity
  8
0
  6
Continuous
 62
     0
370
    30
100
AcDbLine
 10
145.611075
 20
391.901793
 30
0.0
 11
145.595143
 21
390.989055
 31
0.0
  0
LINE
  5
169
330
142
100
AcDbEntity
  8
0
  6
Continuous
 62
     0
370
     0
100
AcDbLine
 10
158.595143
 20
390.989055
 30
0.0
 11
145.595143
 21
390.989055
 31
0.0
  0
LWPOLYLINE
  5
16A
330
142
100
AcDbEntity
  8
0
  6
Continuous
 62
     0
370
     0
100
AcDbPolyline
 90
       25
 70
     0
 43
0.0
 10
145.611069
 20
391.901794
 10
145.670914
 20
391.945801
 10
145.846664
 20
392.074554
 10
146.129593
 20
392.274933
 10
146.509079
 20
392.531525
 10
146.974335
 20
392.826477
 10
147.517014
 20
393.142242
 10
148.13121
 20
393.461365
 10
148.812897
 20
393.765839
 10
149.557999
 20
394.036499
 10
150.358871
 20
394.252716
 10
151.20723
 20
394.393555
 10
152.081909
 20
394.444336
 10
152.956985
 20
394.396484
 10
153.806503
 20
394.258148
 10
154.608948
 20
394.043884
 10
155.355835
 20
393.774536
 10
156.039505
 20
393.470734
 10
156.655792
 20
393.151825
 10
157.200714
 20
392.835724
 10
157.668381
 20
392.539856
 10
158.050598
 20
392.281799
 10
158.336609
 20
392.079407
 10
158.515732
 20
391.948395
 10
158.579208
 20
391.901794
  0
ARC
  5
16B
330
142
100
AcDbEntity
  8
0
  6
Continuous
 62
     0
370
    30
100
AcDbCircle
 10
140.611836
 20
391.989055
 30
0.0
 40
4.999999999998597
100
AcDbArc
 50
359.0
 51
90.0
  0
ARC
  5
16C
330
142
100
AcDbEntity
  8
0
  6
Continuous
 62
     0
370
    30
100
AcDbCircle
 10
163.57845
 20
391.989055
 30
0.0
 40
5.000000000000441
100
AcDbArc
 50
90.0
 51
181.0
  0
LINE
  5
16D
330
142
100
AcDbEntity
  8
0
  6
Continuous
 62
     0
370
    30
100
AcDbLine
 10
145.595149
 20
330.989055
 30
0.0
 11
158.595137
 21
330.989055
 31
0.0
  0
LINE
  5
16E
330
142
100
AcDbEntity
  8
0
  6
Continuous
 62
     0
370
    30
100
AcDbLine
 10
145.595149
 20
330.989055
 30
0.0
 11
145.595149
 21
390.989055
 31
0.0
  0
LINE
  5
16F
330
142
100
AcDbEntity
  8
0
  6
Continuous
 62
     0
370
    30
100
AcDbLine
 10
199.806161
 20
477.989057
 30
0.0
 11
189.706161
 21
477.989057
 31
0.0
  0
LINE
  5
170
330
142
100
AcDbEntity
  8
0
  6
Continuous
 62
     0
370
    30
100
AcDbLine
 10
199.806161
 20
455.989057
 30
0.0
 11
189.706161
 21
455.989057
 31
0.0
  0
ARC
  5
171
330
142
100
AcDbEntity
  8
0
  6
Continuous
 62
     0
370
    30
100
AcDbCircle
 10
170.806211
 20
418.989353
 30
0.0
 40
20.50543443738426
100
AcDbArc
 50
262.402557
 51
265.804848
  0
ARC
  5
172
330
142
100
AcDbEntity
  8
0
  6
Continuous
 62
     0
370
    30
100
AcDbCircle
 10
170.806135
 20
418.989219
 30
0.0
 40
20.50496885894089
100
AcDbArc
 50
94.195034
 51
117.645546
  0
LINE
  5
173
330
142
100
AcDbEntity
  8
0
  6
Continuous
 62
     0
370
    30
100
AcDbLine
 10
158.595137
 20
390.989055
 30
0.0
 11
158.595137
 21
330.989055
 31
0.0
  0
LINE
  5
174
330
142
100
AcDbEntity
  8
0
  6
Continuous
 62
     0
370
    30
100
AcDbLine
 10
159.894942
 20
440.989055
 30
0.0
 11
137.095143
 21
440.989055
 31
0.0
  0
LINE
  5
175
330
142
100
AcDbEntity
  8
0
  6
Continuous
 62
     0
370
    30
100
AcDbLine
 10
188.706161
 20
456.989057
 30
0.0
 11
189.706161
 21
455.989057
 31
0.0
  0
ARC
  5
176
330
142
100
AcDbEntity
  8
0
  6
Continuous
 62
     0
370
    30
100
AcDbCircle
 10
170.306185
 20
397.789081
 30
0.0
 40
1.000024307963487
100
AcDbArc
 50
180.001393
 51
269.998607
  0
LINE
  5
177
330
142
100
AcDbEntity
  8
0
  6
Continuous
 62
     0
370
    30
100
AcDbLine
 10
199.806161
 20
396.789057
 30
0.0
 11
170.306161
 21
396.789057
 31
0.0
  0
ARC
  5
178
330
142
100
AcDbEntity
  8
0
  6
Continuous
 62
     0
370
    30
100
AcDbCircle
 10
177.541443
 20
457.089031
 30
0.0
 40
1.000024867137306
100
AcDbArc
 50
90.001412
 51
179.498588
  0
ARC
  5
179
330
142
100
AcDbEntity
  8
0
  6
Continuous
 62
     0
370
    30
100
AcDbCircle
 10
177.541443
 20
476.88908
 30
0.0
 40
1.000024867388342
100
AcDbArc
 50
180.501412
 51
269.998588
  0
LINE
  5
17A
330
142
100
AcDbEntity
  8
0
  6
Continuous
 62
     0
370
    30
100
AcDbLine
 10
177.541418
 20
475.889055
 30
0.0
 11
188.532217
 21
475.889055
 31
0.0
  0
LINE
  5
17B
330
142
100
AcDbEntity
  8
0
  6
Continuous
 62
     0
370
    30
100
AcDbLine
 10
177.541418
 20
458.089055
 30
0.0
 11
188.532217
 21
458.089055
 31
0.0
  0
LINE
  5
17C
330
142
100
AcDbEntity
  8
0
  6
Continuous
 62
     0
370
    30
100
AcDbLine
 10
176.534812
 20
456.336478
 30
0.0
 11
176.541456
 21
457.097782
 31
0.0
  0
LINE
  5
17D
330
142
100
AcDbEntity
  8
0
  6
Continuous
 62
     0
370
    30
100
AcDbLine
 10
176.534812
 20
477.641633
 30
0.0
 11
176.541456
 21
476.880329
 31
0.0
  0
ARC
  5
17E
330
142
100
AcDbEntity
  8
0
  6
Continuous
 62
     0
370
    30
100
AcDbCircle
 10
176.234809
 20
456.33907
 30
0.0
 40
0.3000150275974905
100
AcDbArc
 50
270.002843
 51
359.496174
  0
ARC
  5
17F
330
142
100
AcDbEntity
  8
0
  6
Continuous
 62
     0
370
    30
100
AcDbCircle
 10
176.234809
 20
477.63904
 30
0.0
 40
0.3000150277419447
100
AcDbArc
 50
0.50388
 51
89.997157
  0
LINE
  5
180
330
142
100
AcDbEntity
  8
0
  6
Continuous
 62
     0
370
    30
100
AcDbLine
 10
169.132217
 20
477.939055
 30
0.0
 11
176.234823
 21
477.939055
 31
0.0
  0
LINE
  5
181
330
142
100
AcDbEntity
  8
0
  6
Continuous
 62
     0
370
    30
100
AcDbLine
 10
169.132217
 20
456.039055
 30
0.0
 11
176.234823
 21
456.039055
 31
0.0
  0
ARC
  5
182
330
142
100
AcDbEntity
  8
0
  6
Continuous
 62
     0
370
    30
100
AcDbCircle
 10
188.532121
 20
458.389306
 30
0.0
 40
0.3002505200939085
100
AcDbArc
 50
270.018359
 51
305.428995
  0
ARC
  5
183
330
142
100
AcDbEntity
  8
0
  6
Continuous
 62
     0
370
    30
100
AcDbCircle
 10
188.532122
 20
475.588808
 30
0.0
 40
0.3002475511320742
100
AcDbArc
 50
54.566985
 51
89.981821
  0
ARC
  5
184
330
142
100
AcDbEntity
  8
0
  6
Continuous
 62
     0
370
    30
100
AcDbCircle
 10
169.132232
 20
456.339071
 30
0.0
 40
0.3000152343487919
100
AcDbArc
 50
180.007165
 51
269.997093
  0
ARC
  5
185
330
142
100
AcDbEntity
  8
0
  6
Continuous
 62
     0
370
    30
100
AcDbCircle
 10
169.132232
 20
477.63904
 30
0.0
 40
0.3000152347350328
100
AcDbArc
 50
90.002907
 51
179.992674
  0
ENDBLK
  5
187
330
142
100
AcDbEntity
  8
0
100
AcDbBlockEnd
  0
ENDSEC
  0
SECTION
  2
ENTITIES
  0
INSERT
  5
6B
330
1F
100
AcDbEntity
  8
0
  6
Continuous
 62
   250
370
     0
100
AcDbBlockReference
  2
a
 10
233.676636
 20
119.121208
 30
0.0
  0
INSERT
  5
B0
330
1F
100
AcDbEntity
  8
0
  6
Continuous
 62
   250
370
     0
100
AcDbBlockReference
  2
b
 10
239.797955
 20
119.121208
 30
0.0
  0
INSERT
  5
F6
330
1F
100
AcDbEntity
  8
0
  6
Continuous
 62
   250
370
     0
100
AcDbBlockReference
  2
c
 10
233.676636
 20
138.319893
 30
0.0
  0
INSERT
  5
141
330
1F
100
AcDbEntity
  8
0
  6
Continuous
 62
   250
370
     0
100
AcDbBlockReference
  2
d
 10
233.676636
 20
119.121208
 30
0.0
  0
INSERT
  5
188
330
1F
100
AcDbEntity
  8
0
  6
Continuous
 62
   250
370
     0
100
AcDbBlockReference
  2
e
 10
237.02655
 20
0.0
 30
0.0
  0
ENDSEC
  0
SECTION
  2
OBJECTS
  0
DICTIONARY
  5
C
330
0
100
AcDbDictionary
281
     1
  3
ACAD_GROUP
350
D
  3
ACAD_LAYOUT
350
1A
  3
ACAD_MLEADERSTYLE
350
18B
  3
ACAD_MLINESTYLE
350
17
  3
ACAD_PLOTSETTINGS
350
19
  3
ACAD_PLOTSTYLENAME
350
E
  3
ACAD_VISUALSTYLE
350
2A
  3
AcDbVariableDictionary
350
189
  0
DICTIONARY
  5
D
102
{ACAD_REACTORS
330
C
102
}
330
C
100
AcDbDictionary
281
     1
  0
DICTIONARY
  5
1A
102
{ACAD_REACTORS
330
C
102
}
330
C
100
AcDbDictionary
281
     1
  3
Layout1
350
1E
  3
Layout2
350
26
  3
Model
350
22
  0
DICTIONARY
  5
18B
102
{ACAD_REACTORS
330
C
102
}
330
C
100
AcDbDictionary
281
     1
  0
DICTIONARY
  5
17
102
{ACAD_REACTORS
330
C
102
}
330
C
100
AcDbDictionary
281
     1
  3
Standard
350
18
  0
DICTIONARY
  5
19
102
{ACAD_REACTORS
330
C
102
}
330
C
100
AcDbDictionary
281
     1
  0
ACDBDICTIONARYWDFLT
  5
E
102
{ACAD_REACTORS
330
C
102
}
330
C
100
AcDbDictionary
281
     1
  3
Normal
350
F
100
AcDbDictionaryWithDefault
340
F
  0
DICTIONARY
  5
2A
102
{ACAD_REACTORS
330
C
102
}
330
C
100
AcDbDictionary
281
     1
  3
2dWireframe
350
2F
  3
3D Hidden
350
31
  3
3dWireframe
350
30
  3
Basic
350
32
  3
Brighten
350
36
  3
ColorChange
350
3A
  3
Conceptual
350
34
  3
Dim
350
35
  3
Facepattern
350
39
  3
Flat
350
2B
  3
FlatWithEdges
350
2C
  3
Gouraud
350
2D
  3
GouraudWithEdges
350
2E
  3
Linepattern
350
38
  3
Realistic
350
33
  3
Thicken
350
37
  0
DICTIONARY
  5
189
102
{ACAD_REACTORS
330
C
102
}
330
C
100
AcDbDictionary
281
     1
  3
PSOLHEIGHT
350
18D
  3
PSOLWIDTH
350
18C
  0
LAYOUT
  5
1E
102
{ACAD_REACTORS
330
1A
102
}
330
1A
100
AcDbPlotSettings
  1

  2
none_device
  4

  6

 40
0.0
 41
0.0
 42
0.0
 43
0.0
 44
0.0
 45
0.0
 46
0.0
 47
0.0
 48
0.0
 49
0.0
140
0.0
141
0.0
142
1.0
143
1.0
 70
   688
 72
     0
 73
     0
 74
     5
  7

 75
    16
147
1.0
148
0.0
149
0.0
100
AcDbLayout
  1
Layout1
 70
     1
 71
     1
 10
0.0
 20
0.0
 11
420.0
 21
297.0
 12
0.0
 22
0.0
 32
0.0
 14
1.000000E+20
 24
1.000000E+20
 34
1.000000E+20
 15
-1.000000E+20
 25
-1.000000E+20
 35
-1.000000E+20
146
0.0
 13
0.0
 23
0.0
 33
0.0
 16
1.0
 26
0.0
 36
0.0
 17
0.0
 27
1.0
 37
0.0
 76
     0
330
1B
  0
LAYOUT
  5
26
102
{ACAD_REACTORS
330
1A
102
}
330
1A
100
AcDbPlotSettings
  1

  2
none_device
  4

  6

 40
0.0
 41
0.0
 42
0.0
 43
0.0
 44
0.0
 45
0.0
 46
0.0
 47
0.0
 48
0.0
 49
0.0
140
0.0
141
0.0
142
1.0
143
1.0
 70
   688
 72
     0
 73
     0
 74
     5
  7

 75
    16
147
1.0
148
0.0
149
0.0
100
AcDbLayout
  1
Layout2
 70
     1
 71
     2
 10
0.0
 20
0.0
 11
0.0
 21
0.0
 12
0.0
 22
0.0
 32
0.0
 14
0.0
 24
0.0
 34
0.0
 15
0.0
 25
0.0
 35
0.0
146
0.0
 13
0.0
 23
0.0
 33
0.0
 16
1.0
 26
0.0
 36
0.0
 17
0.0
 27
1.0
 37
0.0
 76
     0
330
23
  0
LAYOUT
  5
22
102
{ACAD_REACTORS
330
1A
102
}
330
1A
100
AcDbPlotSettings
  1

  2
none_device
  4

  6

 40
0.0
 41
0.0
 42
0.0
 43
0.0
 44
0.0
 45
0.0
 46
0.0
 47
0.0
 48
0.0
 49
0.0
140
0.0
141
0.0
142
1.0
143
1.0
 70
  1712
 72
     0
 73
     0
 74
     0
  7

 75
     0
147
1.0
148
0.0
149
0.0
100
AcDbLayout
  1
Model
 70
     1
 71
     0
 10
137.095139
 20
67.213005
 11
525.09436
 21
503.989044
 12
0.0
 22
0.0
 32
0.0
 14
137.095139
 24
67.213005
 34
0.0
 15
525.09436
 25
503.989044
 35
0.0
146
0.0
 13
0.0
 23
0.0
 33
0.0
 16
1.0
 26
0.0
 36
0.0
 17
0.0
 27
1.0
 37
0.0
 76
     0
330
1F
331
29
  0
MLINESTYLE
  5
18
102
{ACAD_REACTORS
330
17
102
}
330
17
100
AcDbMlineStyle
  2
Standard
 70
     0
  3

 62
   256
 51
90.0
 52
90.0
 71
     2
 49
0.5
 62
   256
  6
BYLAYER
 49
-0.5
 62
   256
  6
BYLAYER
  0
ACDBPLACEHOLDER
  5
F
102
{ACAD_REACTORS
330
E
102
}
330
E
  0
VISUALSTYLE
  5
2F
102
{ACAD_REACTORS
330
2A
102
}
330
2A
100
AcDbVisualStyle
  2
2dWireframe
 70
     4
 71
     0
 72
     2
 73
     0
 90
        0
 40
-0.6
 41
-30.0
 62
     5
 63
     7
 74
     1
 91
        4
 64
     7
 65
   257
 75
     1
175
     1
 42
1.0
 92
        0
 66
   257
 43
1.0
 76
     1
 77
     6
 78
     2
 67
     7
 79
     5
170
     0
171
     0
290
     0
174
     0
 93
        1
 44
0.0
173
     0
291
     0
 45
0.0
1001
ACAD
1000
AcDbSavedByObjectVersion
1070
     0
  0
VISUALSTYLE
  5
31
102
{ACAD_REACTORS
330
2A
102
}
330
2A
100
AcDbVisualStyle
  2
3D Hidden
 70
     6
 71
     1
 72
     2
 73
     2
 90
        0
 40
-0.6
 41
-30.0
 62
     5
 63
     7
 74
     2
 91
        2
 64
     7
 65
   257
 75
     2
175
     1
 42
40.0
 92
        0
 66
   257
 43
1.0
 76
     1
 77
     6
 78
     2
 67
     7
 79
     3
170
     0
171
     0
290
     0
174
     0
 93
        1
 44
0.0
173
     0
291
     0
 45
0.0
1001
ACAD
1000
AcDbSavedByObjectVersion
1070
     0
  0
VISUALSTYLE
  5
30
102
{ACAD_REACTORS
330
2A
102
}
330
2A
100
AcDbVisualStyle
  2
3dWireframe
 70
     5
 71
     0
 72
     2
 73
     0
 90
        0
 40
-0.6
 41
-30.0
 62
     5
 63
     7
 74
     1
 91
        4
 64
     7
 65
   257
 75
     1
175
     1
 42
1.0
 92
        0
 66
   257
 43
1.0
 76
     1
 77
     6
 78
     2
 67
     7
 79
     5
170
     0
171
     0
290
     0
174
     0
 93
        1
 44
0.0
173
     0
291
     0
 45
0.0
1001
ACAD
1000
AcDbSavedByObjectVersion
1070
     0
  0
VISUALSTYLE
  5
32
102
{ACAD_REACTORS
330
2A
102
}
330
2A
100
AcDbVisualStyle
  2
Basic
 70
     7
 71
     1
 72
     0
 73
     1
 90
        0
 40
-0.6
 41
-30.0
 62
     5
 63
     7
 74
     0
 91
        4
 64
     7
 65
   257
 75
     1
175
     1
 42
1.0
 92
        8
 66
     7
 43
1.0
 76
     1
 77
     6
 78
     2
 67
     7
 79
     5
170
     0
171
     0
290
     0
174
     0
 93
        1
 44
0.0
173
     0
291
     1
 45
0.0
1001
ACAD
1000
AcDbSavedByObjectVersion
1070
     0
  0
VISUALSTYLE
  5
36
102
{ACAD_REACTORS
330
2A
102
}
330
2A
100
AcDbVisualStyle
  2
Brighten
 70
    12
 71
     2
 72
     2
 73
     0
 90
        0
 40
-0.6
 41
-30.0
 62
     5
 63
     7
 74
     1
 91
        4
 64
     7
 65
   257
 75
     1
175
     1
 42
1.0
 92
        8
 66
     7
 43
1.0
 76
     1
 77
     6
 78
     2
 67
     7
 79
     5
170
     0
171
     0
290
     0
174
     0
 93
        1
 44
50.0
173
     0
291
     1
 45
0.0
1001
ACAD
1000
AcDbSavedByObjectVersion
1070
     0
  0
VISUALSTYLE
  5
3A
102
{ACAD_REACTORS
330
2A
102
}
330
2A
100
AcDbVisualStyle
  2
ColorChange
 70
    16
 71
     2
 72
     2
 73
     3
 90
        0
 40
-0.6
 41
-30.0
 62
     5
 63
     8
 74
     1
 91
        4
 64
     7
 65
   257
 75
     1
175
     1
 42
1.0
 92
        8
 66
     8
 43
1.0
 76
     1
 77
     6
 78
     2
 67
     7
 79
     5
170
     0
171
     0
290
     0
174
     0
 93
        1
 44
0.0
173
     0
291
     1
 45
0.0
1001
ACAD
1000
AcDbSavedByObjectVersion
1070
     0
  0
VISUALSTYLE
  5
34
102
{ACAD_REACTORS
330
2A
102
}
330
2A
100
AcDbVisualStyle
  2
Conceptual
 70
     9
 71
     3
 72
     2
 73
     0
 90
        0
 40
-0.6
 41
-30.0
 62
     5
 63
     7
 74
     2
 91
        2
 64
     7
 65
   257
 75
     1
175
     1
 42
40.0
 92
        8
 66
     7
 43
1.0
 76
     1
 77
     6
 78
     2
 67
     7
 79
     3
170
     0
171
     0
290
     0
174
     0
 93
        1
 44
0.0
173
     0
291
     0
 45
0.0
1001
ACAD
1000
AcDbSavedByObjectVersion
1070
     0
  0
VISUALSTYLE
  5
35
102
{ACAD_REACTORS
330
2A
102
}
330
2A
100
AcDbVisualStyle
  2
Dim
 70
    11
 71
     2
 72
     2
 73
     0
 90
        0
 40
-0.6
 41
-30.0
 62
     5
 63
     7
 74
     1
 91
        4
 64
     7
 65
   257
 75
     1
175
     1
 42
1.0
 92
        8
 66
     7
 43
1.0
 76
     1
 77
     6
 78
     2
 67
     7
 79
     5
170
     0
171
     0
290
     0
174
     0
 93
        1
 44
-50.0
173
     0
291
     1
 45
0.0
1001
ACAD
1000
AcDbSavedByObjectVersion
1070
     0
  0
VISUALSTYLE
  5
39
102
{ACAD_REACTORS
330
2A
102
}
330
2A
100
AcDbVisualStyle
  2
Facepattern
 70
    15
 71
     2
 72
     2
 73
     0
 90
        0
 40
-0.6
 41
-30.0
 62
     5
 63
     7
 74
     1
 91
        4
 64
     7
 65
   257
 75
     1
175
     1
 42
1.0
 92
        8
 66
     7
 43
1.0
 76
     1
 77
     6
 78
     2
 67
     7
 79
     5
170
     0
171
     0
290
     0
174
     0
 93
        1
 44
0.0
173
     0
291
     1
 45
0.0
1001
ACAD
1000
AcDbSavedByObjectVersion
1070
     0
  0
VISUALSTYLE
  5
2B
102
{ACAD_REACTORS
330
2A
102
}
330
2A
100
AcDbVisualStyle
  2
Flat
 70
     0
 71
     2
 72
     1
 73
     1
 90
        2
 40
-0.6
 41
30.0
 62
     5
 63
     7
 74
     0
 91
        4
 64
     7
 65
   257
 75
     1
175
     1
 42
1.0
 92
        8
 66
     7
 43
1.0
 76
     1
 77
     6
 78
     2
 67
     7
 79
     5
170
     0
171
     0
290
     0
174
     0
 93
       13
 44
0.0
173
     0
291
     1
 45
0.0
1001
ACAD
1000
AcDbSavedByObjectVersion
1070
     0
  0
VISUALSTYLE
  5
2C
102
{ACAD_REACTORS
330
2A
102
}
330
2A
100
AcDbVisualStyle
  2
FlatWithEdges
 70
     1
 71
     2
 72
     1
 73
     1
 90
        2
 40
-0.6
 41
30.0
 62
     5
 63
     7
 74
     1
 91
        4
 64
     7
 65
   257
 75
     1
175
     1
 42
1.0
 92
        0
 66
   257
 43
1.0
 76
     1
 77
     6
 78
     2
 67
     7
 79
     5
170
     0
171
     0
290
     0
174
     0
 93
       13
 44
0.0
173
     0
291
     1
 45
0.0
1001
ACAD
1000
AcDbSavedByObjectVersion
1070
     0
  0
VISUALSTYLE
  5
2D
102
{ACAD_REACTORS
330
2A
102
}
330
2A
100
AcDbVisualStyle
  2
Gouraud
 70
     2
 71
     2
 72
     2
 73
     1
 90
        2
 40
-0.6
 41
30.0
 62
     5
 63
     7
 74
     0
 91
        4
 64
     7
 65
   257
 75
     1
175
     1
 42
1.0
 92
        0
 66
     7
 43
1.0
 76
     1
 77
     6
 78
     2
 67
     7
 79
     5
170
     0
171
     0
290
     0
174
     0
 93
       13
 44
0.0
173
     0
291
     1
 45
0.0
1001
ACAD
1000
AcDbSavedByObjectVersion
1070
     0
  0
VISUALSTYLE
  5
2E
102
{ACAD_REACTORS
330
2A
102
}
330
2A
100
AcDbVisualStyle
  2
GouraudWithEdges
 70
     3
 71
     2
 72
     2
 73
     1
 90
        2
 40
-0.6
 41
30.0
 62
     5
 63
     7
 74
     1
 91
        4
 64
     7
 65
   257
 75
     1
175
     1
 42
1.0
 92
        0
 66
   257
 43
1.0
 76
     1
 77
     6
 78
     2
 67
     7
 79
     5
170
     0
171
     0
290
     0
174
     0
 93
       13
 44
0.0
173
     0
291
     1
 45
0.0
1001
ACAD
1000
AcDbSavedByObjectVersion
1070
     0
  0
VISUALSTYLE
  5
38
102
{ACAD_REACTORS
330
2A
102
}
330
2A
100
AcDbVisualStyle
  2
Linepattern
 70
    14
 71
     2
 72
     2
 73
     0
 90
        0
 40
-0.6
 41
-30.0
 62
     5
 63
     7
 74
     1
 91
        4
 64
     7
 65
   257
 75
     7
175
     7
 42
1.0
 92
        8
 66
     7
 43
1.0
 76
     1
 77
     6
 78
     2
 67
     7
 79
     5
170
     0
171
     0
290
     0
174
     0
 93
        1
 44
0.0
173
     0
291
     1
 45
0.0
1001
ACAD
1000
AcDbSavedByObjectVersion
1070
     0
  0
VISUALSTYLE
  5
33
102
{ACAD_REACTORS
330
2A
102
}
330
2A
100
AcDbVisualStyle
  2
Realistic
 70
     8
 71
     2
 72
     2
 73
     0
 90
        0
 40
-0.6
 41
-30.0
 62
     5
 63
     7
 74
     1
 91
        0
 64
     7
 65
   257
 75
     1
175
     1
 42
1.0
 92
        8
 66
     8
 43
1.0
 76
     1
 77
     6
 78
     2
 67
     7
 79
     5
170
     0
171
     0
290
     0
174
     0
 93
       13
 44
0.0
173
     0
291
     0
 45
0.0
1001
ACAD
1000
AcDbSavedByObjectVersion
1070
     0
  0
VISUALSTYLE
  5
37
102
{ACAD_REACTORS
330
2A
102
}
330
2A
100
AcDbVisualStyle
  2
Thicken
 70
    13
 71
     2
 72
     2
 73
     0
 90
        0
 40
-0.6
 41
-30.0
 62
     5
 63
     7
 74
     1
 91
        4
 64
     7
 65
   257
 75
     1
175
     1
 42
1.0
 92
       12
 66
     7
 43
1.0
 76
     1
 77
     6
 78
     2
 67
     7
 79
     5
170
     0
171
     0
290
     0
174
     0
 93
        1
 44
0.0
173
     0
291
     1
 45
0.0
1001
ACAD
1000
AcDbSavedByObjectVersion
1070
     0
  0
DICTIONARYVAR
  5
18D
102
{ACAD_REACTORS
330
189
102
}
330
189
100
DictionaryVariables
280
     0
  1
80.000000
  0
DICTIONARYVAR
  5
18C
102
{ACAD_REACTORS
330
189
102
}
330
189
100
DictionaryVariables
280
     0
  1
5.000000
  0
ENDSEC
  0
EOF
