  0
SECTION
  2
HEADER
  9
$ACADVER
  1
AC1015
  9
$ACADMAINTVER
 70
     6
  9
$DWGCODEPAGE
  3
ANSI_1252
  9
$INSBASE
 10
0.0
 20
0.0
 30
0.0
  9
$EXTMIN
 10
73.656204
 20
98.367226
 30
0.0
  9
$EXTMAX
 10
651.819763
 20
536.556702
 30
0.0
  9
$LIMMIN
 10
73.656204
 20
98.367226
  9
$LIMMAX
 10
651.819763
 20
536.556702
  9
$ORTHOMODE
 70
     0
  9
$REGENMODE
 70
     1
  9
$FILLMODE
 70
     1
  9
$QTEXTMODE
 70
     0
  9
$MIRRTEXT
 70
     1
  9
$LTSCALE
 40
1.0
  9
$ATTMODE
 70
     1
  9
$TEXTSIZE
 40
2.5
  9
$TRACEWID
 40
1.0
  9
$TEXTSTYLE
  7
Standard
  9
$CLAYER
  8
0
  9
$CELTYPE
  6
ByLayer
  9
$CECOLOR
 62
   256
  9
$CELTSCALE
 40
1.0
  9
$DISPSILH
 70
     0
  9
$DIMSCALE
 40
1.0
  9
$DIMASZ
 40
2.5
  9
$DIMEXO
 40
0.625
  9
$DIMDLI
 40
3.75
  9
$DIMRND
 40
0.0
  9
$DIMDLE
 40
0.0
  9
$DIMEXE
 40
1.25
  9
$DIMTP
 40
0.0
  9
$DIMTM
 40
0.0
  9
$DIMTXT
 40
2.5
  9
$DIMCEN
 40
2.5
  9
$DIMTSZ
 40
0.0
  9
$DIMTOL
 70
     0
  9
$DIMLIM
 70
     0
  9
$DIMTIH
 70
     0
  9
$DIMTOH
 70
     0
  9
$DIMSE1
 70
     0
  9
$DIMSE2
 70
     0
  9
$DIMTAD
 70
     1
  9
$DIMZIN
 70
     8
  9
$DIMBLK
  1

  9
$DIMASO
 70
     1
  9
$DIMSHO
 70
     1
  9
$DIMPOST
  1

  9
$DIMAPOST
  1

  9
$DIMALT
 70
     0
  9
$DIMALTD
 70
     3
  9
$DIMALTF
 40
0.03937
  9
$DIMLFAC
 40
1.0
  9
$DIMTOFL
 70
     1
  9
$DIMTVP
 40
0.0
  9
$DIMTIX
 70
     0
  9
$DIMSOXD
 70
     0
  9
$DIMSAH
 70
     0
  9
$DIMBLK1
  1

  9
$DIMBLK2
  1

  9
$DIMSTYLE
  2
ISO-25
  9
$DIMCLRD
 70
     0
  9
$DIMCLRE
 70
     0
  9
$DIMCLRT
 70
     0
  9
$DIMTFAC
 40
1.0
  9
$DIMGAP
 40
0.625
  9
$DIMJUST
 70
     0
  9
$DIMSD1
 70
     0
  9
$DIMSD2
 70
     0
  9
$DIMTOLJ
 70
     0
  9
$DIMTZIN
 70
     8
  9
$DIMALTZ
 70
     0
  9
$DIMALTTZ
 70
     0
  9
$DIMUPT
 70
     0
  9
$DIMDEC
 70
     2
  9
$DIMTDEC
 70
     2
  9
$DIMALTU
 70
     2
  9
$DIMALTTD
 70
     3
  9
$DIMTXSTY
  7
Standard
  9
$DIMAUNIT
 70
     0
  9
$DIMADEC
 70
     0
  9
$DIMALTRND
 40
0.0
  9
$DIMAZIN
 70
     0
  9
$DIMDSEP
 70
    44
  9
$DIMATFIT
 70
     3
  9
$DIMFRAC
 70
     0
  9
$DIMLDRBLK
  1

  9
$DIMLUNIT
 70
     2
  9
$DIMLWD
 70
    -2
  9
$DIMLWE
 70
    -2
  9
$DIMTMOVE
 70
     0
  9
$LUNITS
 70
     2
  9
$LUPREC
 70
     4
  9
$SKETCHINC
 40
1.0
  9
$FILLETRAD
 40
10.0
  9
$AUNITS
 70
     0
  9
$AUPREC
 70
     0
  9
$MENU
  1
.
  9
$ELEVATION
 40
0.0
  9
$PELEVATION
 40
0.0
  9
$THICKNESS
 40
0.0
  9
$LIMCHECK
 70
     0
  9
$CHAMFERA
 40
10.0
  9
$CHAMFERB
 40
10.0
  9
$CHAMFERC
 40
20.0
  9
$CHAMFERD
 40
0.0
  9
$SKPOLY
 70
     0
  9
$TDCREATE
 40
2455554.655971516
  9
$TDUCREATE
 40
2455554.614304849
  9
$TDUPDATE
 40
2455554.655971528
  9
$TDUUPDATE
 40
2455554.614304861
  9
$TDINDWG
 40
0.0000000116
  9
$TDUSRTIMER
 40
0.0000000116
  9
$USRTIMER
 70
     1
  9
$ANGBASE
 50
0.0
  9
$ANGDIR
 70
     0
  9
$PDMODE
 70
     0
  9
$PDSIZE
 40
0.0
  9
$PLINEWID
 40
0.0
  9
$SPLFRAME
 70
     0
  9
$SPLINETYPE
 70
     6
  9
$SPLINESEGS
 70
     8
  9
$HANDSEED
  5
12F
  9
$SURFTAB1
 70
     6
  9
$SURFTAB2
 70
     6
  9
$SURFTYPE
 70
     6
  9
$SURFU
 70
     6
  9
$SURFV
 70
     6
  9
$UCSBASE
  2

  9
$UCSNAME
  2

  9
$UCSORG
 10
0.0
 20
0.0
 30
0.0
  9
$UCSXDIR
 10
1.0
 20
0.0
 30
0.0
  9
$UCSYDIR
 10
0.0
 20
1.0
 30
0.0
  9
$UCSORTHOREF
  2

  9
$UCSORTHOVIEW
 70
     0
  9
$UCSORGTOP
 10
0.0
 20
0.0
 30
0.0
  9
$UCSORGBOTTOM
 10
0.0
 20
0.0
 30
0.0
  9
$UCSORGLEFT
 10
0.0
 20
0.0
 30
0.0
  9
$UCSORGRIGHT
 10
0.0
 20
0.0
 30
0.0
  9
$UCSORGFRONT
 10
0.0
 20
0.0
 30
0.0
  9
$UCSORGBACK
 10
0.0
 20
0.0
 30
0.0
  9
$PUCSBASE
  2

  9
$PUCSNAME
  2

  9
$PUCSORG
 10
0.0
 20
0.0
 30
0.0
  9
$PUCSXDIR
 10
1.0
 20
0.0
 30
0.0
  9
$PUCSYDIR
 10
0.0
 20
1.0
 30
0.0
  9
$PUCSORTHOREF
  2

  9
$PUCSORTHOVIEW
 70
     0
  9
$PUCSORGTOP
 10
0.0
 20
0.0
 30
0.0
  9
$PUCSORGBOTTOM
 10
0.0
 20
0.0
 30
0.0
  9
$PUCSORGLEFT
 10
0.0
 20
0.0
 30
0.0
  9
$PUCSORGRIGHT
 10
0.0
 20
0.0
 30
0.0
  9
$PUCSORGFRONT
 10
0.0
 20
0.0
 30
0.0
  9
$PUCSORGBACK
 10
0.0
 20
0.0
 30
0.0
  9
$USERI1
 70
     0
  9
$USERI2
 70
     0
  9
$USERI3
 70
     0
  9
$USERI4
 70
     0
  9
$USERI5
 70
     0
  9
$USERR1
 40
0.0
  9
$USERR2
 40
0.0
  9
$USERR3
 40
0.0
  9
$USERR4
 40
0.0
  9
$USERR5
 40
0.0
  9
$WORLDVIEW
 70
     1
  9
$SHADEDGE
 70
     3
  9
$SHADEDIF
 70
    70
  9
$TILEMODE
 70
     1
  9
$MAXACTVP
 70
    64
  9
$PINSBASE
 10
0.0
 20
0.0
 30
0.0
  9
$PLIMCHECK
 70
     0
  9
$PEXTMIN
 10
1.000000E+20
 20
1.000000E+20
 30
1.000000E+20
  9
$PEXTMAX
 10
-1.000000E+20
 20
-1.000000E+20
 30
-1.000000E+20
  9
$PLIMMIN
 10
0.0
 20
0.0
  9
$PLIMMAX
 10
420.0
 20
297.0
  9
$UNITMODE
 70
     0
  9
$VISRETAIN
 70
     1
  9
$PLINEGEN
 70
     0
  9
$PSLTSCALE
 70
     1
  9
$TREEDEPTH
 70
  3020
  9
$CMLSTYLE
  2
Standard
  9
$CMLJUST
 70
     0
  9
$CMLSCALE
 40
20.0
  9
$PROXYGRAPHICS
 70
     1
  9
$MEASUREMENT
 70
     1
  9
$CELWEIGHT
370
    -1
  9
$ENDCAPS
280
     0
  9
$JOINSTYLE
280
     0
  9
$LWDISPLAY
290
     0
  9
$INSUNITS
 70
     4
  9
$HYPERLINKBASE
  1

  9
$STYLESHEET
  1

  9
$XEDIT
290
     1
  9
$CEPSNTYPE
380
     0
  9
$PSTYLEMODE
290
     1
  9
$FINGERPRINTGUID
  2
{5E7D675A-FEA8-4A6F-A1BE-A901FB6F4501}
  9
$VERSIONGUID
  2
{FAEB1C32-E019-11D5-929B-00C0DF256EC4}
  9
$EXTNAMES
290
     1
  9
$PSVPSCALE
 40
0.0
  9
$OLESTARTUP
290
     0
  0
ENDSEC
  0
SECTION
  2
CLASSES
  0
CLASS
  1
ACDBDICTIONARYWDFLT
  2
AcDbDictionaryWithDefault
  3
ObjectDBX Classes
 90
        0
280
     0
281
     0
  0
CLASS
  1
VISUALSTYLE
  2
AcDbVisualStyle
  3
ObjectDBX Classes
 90
     4095
280
     0
281
     0
  0
CLASS
  1
DICTIONARYVAR
  2
AcDbDictionaryVar
  3
ObjectDBX Classes
 90
        0
280
     0
281
     0
  0
CLASS
  1
ACDBPLACEHOLDER
  2
AcDbPlaceHolder
  3
ObjectDBX Classes
 90
        0
280
     0
281
     0
  0
CLASS
  1
LAYOUT
  2
AcDbLayout
  3
ObjectDBX Classes
 90
        0
280
     0
281
     0
  0
ENDSEC
  0
SECTION
  2
TABLES
  0
TABLE
  2
VPORT
  5
8
330
0
100
AcDbSymbolTable
 70
     1
  0
VPORT
  5
29
330
8
100
AcDbSymbolTableRecord
100
AcDbViewportTableRecord
  2
*Active
 70
     0
 10
0.0
 20
0.0
 11
1.0
 21
1.0
 12
344.186916
 22
148.5
 13
0.0
 23
0.0
 14
10.0
 24
10.0
 15
10.0
 25
10.0
 16
0.0
 26
0.0
 36
1.0
 17
0.0
 27
0.0
 37
0.0
 40
297.0
 41
1.972973
 42
50.0
 43
0.0
 44
0.0
 50
0.0
 51
0.0
 71
     0
 72
   100
 73
     1
 74
     3
 75
     0
 76
     0
 77
     0
 78
     0
281
     0
 65
     1
110
0.0
120
0.0
130
0.0
111
1.0
121
0.0
131
0.0
112
0.0
122
1.0
132
0.0
 79
     0
146
0.0
  0
ENDTAB
  0
TABLE
  2
LTYPE
  5
5
330
0
100
AcDbSymbolTable
 70
     1
  0
LTYPE
  5
14
330
5
100
AcDbSymbolTableRecord
100
AcDbLinetypeTableRecord
  2
ByBlock
 70
     0
  3

 72
    65
 73
     0
 40
0.0
  0
LTYPE
  5
15
330
5
100
AcDbSymbolTableRecord
100
AcDbLinetypeTableRecord
  2
ByLayer
 70
     0
  3

 72
    65
 73
     0
 40
0.0
  0
LTYPE
  5
16
330
5
100
AcDbSymbolTableRecord
100
AcDbLinetypeTableRecord
  2
Continuous
 70
     0
  3
Solid line
 72
    65
 73
     0
 40
0.0
  0
ENDTAB
  0
TABLE
  2
LAYER
  5
2
330
0
100
AcDbSymbolTable
 70
     1
  0
LAYER
  5
10
330
2
100
AcDbSymbolTableRecord
100
AcDbLayerTableRecord
  2
0
 70
     0
 62
   106
  6
Continuous
370
     0
390
F
  0
ENDTAB
  0
TABLE
  2
STYLE
  5
3
330
0
100
AcDbSymbolTable
 70
     4
  0
STYLE
  5
11
330
3
100
AcDbSymbolTableRecord
100
AcDbTextStyleTableRecord
  2
Standard
 70
     0
 40
0.0
 41
1.0
 50
0.0
 71
     0
 42
2.5
  3
txt
  4

  0
STYLE
  5
3B
330
3
100
AcDbSymbolTableRecord
100
AcDbTextStyleTableRecord
  2
Default
 70
     0
 40
0.0
 41
1.0
 50
0.0
 71
     0
 42
0.2
  3

  4

1001
ACAD
1000
txt
1071
        0
  0
STYLE
  5
3C
330
3
100
AcDbSymbolTableRecord
100
AcDbTextStyleTableRecord
  2
ISO
 70
     0
 40
0.0
 41
1.0
 50
0.0
 71
     0
 42
0.2
  3

  4

1001
ACAD
1000
txt
1071
        0
  0
STYLE
  5
3D
330
3
100
AcDbSymbolTableRecord
100
AcDbTextStyleTableRecord
  2
GIANLU
 70
     0
 40
0.0
 41
1.0
 50
0.0
 71
     0
 42
0.2
  3

  4

1001
ACAD
1000
Arial
1071
        0
  0
ENDTAB
  0
TABLE
  2
VIEW
  5
6
330
0
100
AcDbSymbolTable
 70
     0
  0
ENDTAB
  0
TABLE
  2
UCS
  5
7
330
0
100
AcDbSymbolTable
 70
     0
  0
ENDTAB
  0
TABLE
  2
APPID
  5
9
330
0
100
AcDbSymbolTable
 70
     1
  0
APPID
  5
12
330
9
100
AcDbSymbolTableRecord
100
AcDbRegAppTableRecord
  2
ACAD
 70
     0
  0
ENDTAB
  0
TABLE
  2
DIMSTYLE
  5
A
330
0
100
AcDbSymbolTable
 70
     4
100
AcDbDimStyleTable
  0
DIMSTYLE
105
27
330
A
100
AcDbSymbolTableRecord
100
AcDbDimStyleTableRecord
  2
ISO-25
 70
     0
 41
2.5
 42
0.625
 43
3.75
 44
1.25
 73
     0
 74
     0
 77
     1
 78
     8
140
2.5
141
2.5
143
0.03937
147
0.625
171
     3
172
     1
271
     2
272
     2
274
     3
278
    44
283
     0
284
     8
340
11
  0
DIMSTYLE
105
3E
330
A
100
AcDbSymbolTableRecord
100
AcDbDimStyleTableRecord
  2
Default
 70
     0
  3
<>
 41
4.375
 42
1.05
 44
2.1
 73
     0
 74
     0
 77
     1
 78
     8
140
3.5
146
0.4
147
1.75
178
     3
271
     2
272
     3
284
     8
340
3B
341
3F
342
3F
  0
DIMSTYLE
105
46
330
A
100
AcDbSymbolTableRecord
100
AcDbDimStyleTableRecord
  2
ISO
 70
     0
  3
<>
 41
4.375
 42
1.05
 44
2.1
 73
     0
 74
     0
 77
     1
 78
     8
140
3.5
146
0.4
147
1.75
178
     3
271
     2
272
     3
284
     8
340
3C
341
3F
342
3F
  0
DIMSTYLE
105
47
330
A
100
AcDbSymbolTableRecord
100
AcDbDimStyleTableRecord
  2
zucchetti_unico
 70
     0
  3
<>
 41
3.0
 42
0.9
 44
1.8
 73
     0
 74
     0
 77
     1
 78
     8
140
3.0
146
0.6
147
1.5
176
   104
177
     3
178
     3
271
     2
272
     2
284
     8
340
3D
  0
ENDTAB
  0
TABLE
  2
BLOCK_RECORD
  5
1
330
0
100
AcDbSymbolTable
 70
     7
  0
BLOCK_RECORD
  5
1F
330
1
100
AcDbSymbolTableRecord
100
AcDbBlockTableRecord
  2
*Model_Space
340
22
  0
BLOCK_RECORD
  5
1B
330
1
100
AcDbSymbolTableRecord
100
AcDbBlockTableRecord
  2
*Paper_Space
340
1E
  0
BLOCK_RECORD
  5
23
330
1
100
AcDbSymbolTableRecord
100
AcDbBlockTableRecord
  2
*Paper_Space0
340
26
  0
BLOCK_RECORD
  5
3F
330
1
100
AcDbSymbolTableRecord
100
AcDbBlockTableRecord
  2
_CLOSED
340
0
  0
BLOCK_RECORD
  5
48
330
1
100
AcDbSymbolTableRecord
100
AcDbBlockTableRecord
  2
a
340
0
102
{BLKREFS
331
7D
102
}
  0
BLOCK_RECORD
  5
7E
330
1
100
AcDbSymbolTableRecord
100
AcDbBlockTableRecord
  2
b
340
0
102
{BLKREFS
331
A0
102
}
  0
BLOCK_RECORD
  5
A1
330
1
100
AcDbSymbolTableRecord
100
AcDbBlockTableRecord
  2
c
340
0
102
{BLKREFS
331
CE
102
}
  0
BLOCK_RECORD
  5
CF
330
1
100
AcDbSymbolTableRecord
100
AcDbBlockTableRecord
  2
d
340
0
102
{BLKREFS
331
F8
102
}
  0
BLOCK_RECORD
  5
F9
330
1
100
AcDbSymbolTableRecord
100
AcDbBlockTableRecord
  2
e
340
0
102
{BLKREFS
331
129
102
}
  0
ENDTAB
  0
ENDSEC
  0
SECTION
  2
BLOCKS
  0
BLOCK
  5
20
330
1F
100
AcDbEntity
  8
0
100
AcDbBlockBegin
  2
*Model_Space
 70
     0
 10
0.0
 20
0.0
 30
0.0
  3
*Model_Space
  1

  0
ENDBLK
  5
21
330
1F
100
AcDbEntity
  8
0
100
AcDbBlockEnd
  0
BLOCK
  5
1C
330
1B
100
AcDbEntity
 67
     1
  8
0
100
AcDbBlockBegin
  2
*Paper_Space
 70
     0
 10
0.0
 20
0.0
 30
0.0
  3
*Paper_Space
  1

  0
ENDBLK
  5
1D
330
1B
100
AcDbEntity
 67
     1
  8
0
100
AcDbBlockEnd
  0
BLOCK
  5
24
330
23
100
AcDbEntity
  8
0
100
AcDbBlockBegin
  2
*Paper_Space0
 70
     0
 10
0.0
 20
0.0
 30
0.0
  3
*Paper_Space0
  1

  0
ENDBLK
  5
25
330
23
100
AcDbEntity
  8
0
100
AcDbBlockEnd
  0
BLOCK
  5
40
330
3F
100
AcDbEntity
  8
0
100
AcDbBlockBegin
  2
_CLOSED
 70
     0
 10
0.0
 20
0.0
 30
0.0
  3
_CLOSED
  1

  0
LINE
  5
42
330
3F
100
AcDbEntity
  8
0
  6
ByBlock
 62
     0
370
    -2
100
AcDbLine
 10
-1.0
 20
0.166667
 30
0.0
 11
0.0
 21
0.0
 31
0.0
  0
LINE
  5
43
330
3F
100
AcDbEntity
  8
0
  6
ByBlock
 62
     0
370
    -2
100
AcDbLine
 10
0.0
 20
0.0
 30
0.0
 11
-1.0
 21
-0.166667
 31
0.0
  0
LINE
  5
44
330
3F
100
AcDbEntity
  8
0
  6
ByBlock
 62
     0
370
    -2
100
AcDbLine
 10
-1.0
 20
0.166667
 30
0.0
 11
-1.0
 21
-0.166667
 31
0.0
  0
LINE
  5
45
330
3F
100
AcDbEntity
  8
0
  6
ByBlock
 62
     0
370
    -2
100
AcDbLine
 10
0.0
 20
0.0
 30
0.0
 11
-1.0
 21
0.0
 31
0.0
  0
ENDBLK
  5
41
330
3F
100
AcDbEntity
  8
0
100
AcDbBlockEnd
  0
BLOCK
  5
7B
330
48
100
AcDbEntity
  8
0
100
AcDbBlockBegin
  2
a
 70
     0
 10
157.508316
 20
109.401588
 30
0.0
  3
a
  1

  0
LINE
  5
49
330
48
100
AcDbEntity
  8
0
  6
Continuous
 62
     0
370
    30
100
AcDbLine
 10
391.764992
 20
426.510804
 30
0.0
 11
391.764992
 21
470.51027
 31
0.0
  0
LINE
  5
4A
330
48
100
AcDbEntity
  8
0
  6
Continuous
 62
     0
370
    30
100
AcDbLine
 10
422.764992
 20
427.010804
 30
0.0
 11
422.764992
 21
470.010284
 31
0.0
  0
LINE
  5
4B
330
48
100
AcDbEntity
  8
0
  6
Continuous
 62
     0
370
     0
100
AcDbLine
 10
422.264992
 20
426.510804
 30
0.0
 11
422.264992
 21
470.51027
 31
0.0
  0
ELLIPSE
  5
4C
330
48
100
AcDbEntity
  8
0
  6
Continuous
 62
     0
370
    30
100
AcDbEllipse
 10
407.764992
 20
536.508411
 30
0.0
 11
-6.5
 21
-1.785785198321050E-11
 31
0.0
210
0.0
220
0.0
230
1.0
 40
0.00743
 41
3.141592653588724
 42
6.283185307178517
  0
ELLIPSE
  5
4D
330
48
100
AcDbEntity
  8
0
  6
Continuous
 62
     0
370
    30
100
AcDbEllipse
 10
407.764992
 20
536.508411
 30
0.0
 11
-6.5
 21
-1.785785198321050E-11
 31
0.0
210
0.0
220
0.0
230
1.0
 40
0.00743
 41
6.283185307178517
 42
9.42477796076831
  0
LINE
  5
4E
330
48
100
AcDbEntity
  8
0
  6
Continuous
 62
     0
370
    30
100
AcDbLine
 10
414.264992
 20
536.508411
 30
0.0
 11
414.264992
 21
475.510132
 31
0.0
  0
LWPOLYLINE
  5
4F
330
48
100
AcDbEntity
  8
0
  6
Continuous
 62
     0
370
     0
100
AcDbPolyline
 90
       24
 70
     0
 43
0.0
 10
401.264984
 20
475.510132
 10
401.327026
 20
475.456696
 10
401.510406
 20
475.314911
 10
401.810303
 20
475.094147
 10
402.218597
 20
474.810638
 10
402.72641
 20
474.483429
 10
403.324341
 20
474.135254
 10
404.002991
 20
473.789703
 10
404.752777
 20
473.470459
 10
405.562653
 20
473.202087
 10
406.419067
 20
473.007233
 10
407.305511
 20
472.904114
 10
408.202484
 20
472.902802
 10
409.089447
 20
473.00351
 10
409.946747
 20
473.196411
 10
410.758026
 20
473.463104
 10
411.509399
 20
473.781525
 10
412.189972
 20
474.127106
 10
412.789978
 20
474.475372
 10
413.300079
 20
474.802917
 10
413.710938
 20
475.087891
 10
414.01355
 20
475.310394
 10
414.199982
 20
475.454468
 10
414.264984
 20
475.510132
  0
LWPOLYLINE
  5
50
330
48
100
AcDbEntity
  8
0
  6
Continuous
 62
     0
370
     0
100
AcDbPolyline
 90
       29
 70
     0
 43
0.0
 10
396.264984
 20
470.510284
 10
396.339355
 20
470.47644
 10
396.55957
 20
470.393311
 10
396.921234
 20
470.26474
 10
397.418243
 20
470.096344
 10
398.04184
 20
469.896545
 10
398.78299
 20
469.674316
 10
399.63269
 20
469.439728
 10
400.581696
 20
469.203308
 10
401.620667
 20
468.976105
 10
402.739716
 20
468.769165
 10
403.92746
 20
468.593536
 10
405.170197
 20
468.459198
 10
406.451782
 20
468.374634
 10
407.753754
 20
468.345398
 10
409.055878
 20
468.373688
 10
410.338043
 20
468.457275
 10
411.581512
 20
468.590851
 10
412.770355
 20
468.765839
 10
413.890656
 20
468.972351
 10
414.931152
 20
469.19931
 10
415.881775
 20
469.435638
 10
416.733215
 20
469.670349
 10
417.476349
 20
469.892792
 10
418.10202
 20
470.09317
 10
418.601257
 20
470.262115
 10
418.965637
 20
470.391693
 10
419.188232
 20
470.475555
 10
419.264984
 20
470.510284
  0
ARC
  5
51
330
48
100
AcDbEntity
  8
0
  6
Continuous
 62
     0
370
    30
100
AcDbCircle
 10
419.264923
 20
475.510201
 30
0.0
 40
4.999930986519832
100
AcDbArc
 50
180.000791
 51
270.000791
  0
ARC
  5
52
330
48
100
AcDbEntity
  8
0
  6
Continuous
 62
     0
370
    30
100
AcDbCircle
 10
396.265061
 20
475.510201
 30
0.0
 40
4.999930986520079
100
AcDbArc
 50
269.999209
 51
359.999209
  0
LINE
  5
53
330
48
100
AcDbEntity
  8
0
  6
Continuous
 62
     0
370
    30
100
AcDbLine
 10
188.180214
 20
470.511544
 30
0.0
 11
188.180214
 21
427.319084
 31
0.0
  0
LINE
  5
54
330
48
100
AcDbEntity
  8
0
  6
Continuous
 62
     0
370
     0
100
AcDbLine
 10
188.180214
 20
427.319084
 30
0.0
 11
388.180214
 21
427.319084
 31
0.0
  0
LINE
  5
55
330
48
100
AcDbEntity
  8
0
  6
Continuous
 62
     0
370
    30
100
AcDbLine
 10
388.180214
 20
470.511544
 30
0.0
 11
388.180214
 21
427.319084
 31
0.0
  0
LINE
  5
56
330
48
100
AcDbEntity
  8
0
  6
Continuous
 62
     0
370
    30
100
AcDbLine
 10
188.180214
 20
427.319084
 30
0.0
 11
188.180214
 21
418.509551
 31
0.0
  0
LINE
  5
57
330
48
100
AcDbEntity
  8
0
  6
Continuous
 62
     0
370
    30
100
AcDbLine
 10
388.180214
 20
427.319084
 30
0.0
 11
388.180214
 21
418.509551
 31
0.0
  0
LINE
  5
58
330
48
100
AcDbEntity
  8
0
  6
Continuous
 62
     0
370
    30
100
AcDbLine
 10
206.780574
 20
424.360153
 30
0.0
 11
206.780267
 21
424.341269
 31
0.0
  0
LWPOLYLINE
  5
59
330
48
100
AcDbEntity
  8
0
  6
Continuous
 62
     0
370
    30
100
AcDbPolyline
 90
       28
 70
     0
 43
0.0
 10
229.580215
 20
424.341248
 10
229.505234
 20
424.638214
 10
229.281448
 20
424.938629
 10
228.911697
 20
425.238312
 10
228.400482
 20
425.532867
 10
227.753464
 20
425.817688
 10
226.978119
 20
426.087982
 10
226.083191
 20
426.338898
 10
225.0793
 20
426.565643
 10
223.978577
 20
426.763519
 10
222.795639
 20
426.928345
 10
221.545792
 20
427.056183
 10
220.246597
 20
427.143982
 10
218.91684
 20
427.189545
 10
217.576202
 20
427.191711
 10
216.244492
 20
427.150421
 10
214.941391
 20
427.066742
 10
213.685944
 20
426.942688
 10
212.495621
 20
426.781342
 10
211.386017
 20
426.586578
 10
210.372116
 20
426.362518
 10
209.465973
 20
426.11377
 10
208.678116
 20
425.845154
 10
208.01828
 20
425.561615
 10
207.493271
 20
425.267792
 10
207.109116
 20
424.968384
 10
206.870743
 20
424.667877
 10
206.780579
 20
424.360168
  0
LINE
  5
5A
330
48
100
AcDbEntity
  8
0
  6
Continuous
 62
     0
370
    30
100
AcDbLine
 10
227.280218
 20
421.320907
 30
0.0
 11
227.280218
 21
417.820907
 31
0.0
  0
LINE
  5
5B
330
48
100
AcDbEntity
  8
0
  6
Continuous
 62
     0
370
    30
100
AcDbLine
 10
207.680218
 20
417.820907
 30
0.0
 11
228.680218
 21
417.820907
 31
0.0
  0
LINE
  5
5C
330
48
100
AcDbEntity
  8
0
  6
Continuous
 62
     0
370
    30
100
AcDbLine
 10
228.680218
 20
417.820907
 30
0.0
 11
228.680218
 21
412.220907
 31
0.0
  0
LINE
  5
5D
330
48
100
AcDbEntity
  8
0
  6
Continuous
 62
     0
370
    30
100
AcDbLine
 10
207.680218
 20
412.220907
 30
0.0
 11
228.680218
 21
412.220907
 31
0.0
  0
LINE
  5
5E
330
48
100
AcDbEntity
  8
0
  6
Continuous
 62
     0
370
    30
100
AcDbLine
 10
208.680218
 20
411.220907
 30
0.0
 11
227.680218
 21
411.220907
 31
0.0
  0
LINE
  5
5F
330
48
100
AcDbEntity
  8
0
  6
Continuous
 62
     0
370
    30
100
AcDbLine
 10
227.680218
 20
411.220907
 30
0.0
 11
228.680218
 21
412.220907
 31
0.0
  0
LINE
  5
60
330
48
100
AcDbEntity
  8
0
  6
Continuous
 62
     0
370
    30
100
AcDbLine
 10
227.430218
 20
411.220907
 30
0.0
 11
227.430218
 21
410.970907
 31
0.0
  0
LINE
  5
61
330
48
100
AcDbEntity
  8
0
  6
Continuous
 62
     0
370
     0
100
AcDbLine
 10
208.930218
 20
410.970907
 30
0.0
 11
227.430218
 21
410.970907
 31
0.0
  0
LINE
  5
62
330
48
100
AcDbEntity
  8
0
  6
Continuous
 62
     0
370
    30
100
AcDbLine
 10
209.180218
 20
410.720907
 30
0.0
 11
227.180218
 21
410.720907
 31
0.0
  0
ARC
  5
63
330
48
100
AcDbEntity
  8
0
  6
Continuous
 62
     0
370
    30
100
AcDbCircle
 10
227.180218
 20
410.970907
 30
0.0
 40
0.25
100
AcDbArc
 50
270.0
 51
360.0
  0
LINE
  5
64
330
48
100
AcDbEntity
  8
0
  6
Continuous
 62
     0
370
     0
100
AcDbLine
 10
206.780218
 20
421.520907
 30
0.0
 11
229.580218
 21
421.520907
 31
0.0
  0
LINE
  5
65
330
48
100
AcDbEntity
  8
0
  6
Continuous
 62
     0
370
    30
100
AcDbLine
 10
229.580218
 20
424.34125
 30
0.0
 11
229.580218
 21
421.520907
 31
0.0
  0
LINE
  5
66
330
48
100
AcDbEntity
  8
0
  6
Continuous
 62
     0
370
    30
100
AcDbLine
 10
206.980218
 20
421.320907
 30
0.0
 11
229.380218
 21
421.320907
 31
0.0
  0
ARC
  5
67
330
48
100
AcDbEntity
  8
0
  6
Continuous
 62
     0
370
    30
100
AcDbCircle
 10
229.380218
 20
421.520907
 30
0.0
 40
0.200000002980232
100
AcDbArc
 50
270.0
 51
360.0
  0
ARC
  5
68
330
48
100
AcDbEntity
  8
0
  6
Continuous
 62
     0
370
    30
100
AcDbCircle
 10
206.980251
 20
421.52094
 30
0.0
 40
0.2000327650226696
100
AcDbArc
 50
180.009383
 51
269.990617
  0
LINE
  5
69
330
48
100
AcDbEntity
  8
0
  6
Continuous
 62
     0
370
    30
100
AcDbLine
 10
229.404241
 20
421.322374
 30
0.0
 11
229.380218
 21
421.320907
 31
0.0
  0
LINE
  5
6A
330
48
100
AcDbEntity
  8
0
  6
Continuous
 62
     0
370
    30
100
AcDbLine
 10
206.780218
 20
421.520907
 30
0.0
 11
206.780218
 21
424.341269
 31
0.0
  0
ARC
  5
6B
330
48
100
AcDbEntity
  8
0
  6
Continuous
 62
     0
370
    30
100
AcDbCircle
 10
209.180232
 20
410.970922
 30
0.0
 40
0.2500146763716322
100
AcDbArc
 50
180.003363
 51
269.996637
  0
LINE
  5
6C
330
48
100
AcDbEntity
  8
0
  6
Continuous
 62
     0
370
    30
100
AcDbLine
 10
208.930218
 20
410.970907
 30
0.0
 11
208.930218
 21
411.220907
 31
0.0
  0
LINE
  5
6D
330
48
100
AcDbEntity
  8
0
  6
Continuous
 62
     0
370
    30
100
AcDbLine
 10
208.680218
 20
411.220907
 30
0.0
 11
207.680218
 21
412.220907
 31
0.0
  0
LINE
  5
6E
330
48
100
AcDbEntity
  8
0
  6
Continuous
 62
     0
370
    30
100
AcDbLine
 10
207.680218
 20
412.220907
 30
0.0
 11
207.680218
 21
417.820907
 31
0.0
  0
LINE
  5
6F
330
48
100
AcDbEntity
  8
0
  6
Continuous
 62
     0
370
    30
100
AcDbLine
 10
209.080218
 20
417.820907
 30
0.0
 11
209.080218
 21
421.320907
 31
0.0
  0
LINE
  5
70
330
48
100
AcDbEntity
  8
0
  6
Continuous
 62
     0
370
    30
100
AcDbLine
 10
227.280218
 20
418.509551
 30
0.0
 11
388.180214
 21
418.509551
 31
0.0
  0
LINE
  5
71
330
48
100
AcDbEntity
  8
0
  6
Continuous
 62
     0
370
    30
100
AcDbLine
 10
188.180214
 20
418.509551
 30
0.0
 11
209.080218
 21
418.509551
 31
0.0
  0
LINE
  5
72
330
48
100
AcDbEntity
  8
0
  6
Continuous
 62
     0
370
    30
100
AcDbLine
 10
188.180214
 20
470.511544
 30
0.0
 11
388.180214
 21
470.511544
 31
0.0
  0
ARC
  5
73
330
48
100
AcDbEntity
  8
0
  6
Continuous
 62
     0
370
    30
100
AcDbCircle
 10
386.655707
 20
448.517892
 30
0.0
 40
20.50041497493079
100
AcDbArc
 50
75.567745
 51
85.735279
  0
ARC
  5
74
330
48
100
AcDbEntity
  8
0
  6
Continuous
 62
     0
370
    30
100
AcDbCircle
 10
386.655695
 20
448.505272
 30
0.0
 40
20.50049277390711
100
AcDbArc
 50
274.264741
 51
284.43223
  0
LINE
  5
75
330
48
100
AcDbEntity
  8
0
  6
Continuous
 62
     0
370
    30
100
AcDbLine
 10
422.264992
 20
470.510877
 30
0.0
 11
419.264992
 21
470.510877
 31
0.0
  0
LINE
  5
76
330
48
100
AcDbEntity
  8
0
  6
Continuous
 62
     0
370
    30
100
AcDbLine
 10
396.264992
 20
470.510877
 30
0.0
 11
391.764992
 21
470.510877
 31
0.0
  0
LINE
  5
77
330
48
100
AcDbEntity
  8
0
  6
Continuous
 62
     0
370
    30
100
AcDbLine
 10
422.264992
 20
426.510804
 30
0.0
 11
391.764992
 21
426.510804
 31
0.0
  0
LINE
  5
78
330
48
100
AcDbEntity
  8
0
  6
Continuous
 62
     0
370
    30
100
AcDbLine
 10
401.264992
 20
475.510132
 30
0.0
 11
401.264992
 21
536.508411
 31
0.0
  0
ARC
  5
79
330
48
100
AcDbEntity
  8
0
  6
Continuous
 62
     0
370
    30
100
AcDbCircle
 10
422.264977
 20
470.010862
 30
0.0
 40
0.5000150271610573
100
AcDbArc
 50
0.001722
 51
89.998278
  0
ARC
  5
7A
330
48
100
AcDbEntity
  8
0
  6
Continuous
 62
     0
370
    30
100
AcDbCircle
 10
422.264977
 20
427.010819
 30
0.0
 40
0.5000150271637405
100
AcDbArc
 50
270.001722
 51
359.998278
  0
ENDBLK
  5
7C
330
48
100
AcDbEntity
  8
0
100
AcDbBlockEnd
  0
BLOCK
  5
9E
330
7E
100
AcDbEntity
  8
0
100
AcDbBlockBegin
  2
b
 70
     0
 10
196.765919
 20
109.401588
 30
0.0
  3
b
  1

  0
LINE
  5
7F
330
7E
100
AcDbEntity
  8
0
  6
Continuous
 62
     0
370
    30
100
AcDbLine
 10
391.764984
 20
132.28068
 30
0.0
 11
391.764984
 21
154.444188
 31
0.0
  0
LINE
  5
80
330
7E
100
AcDbEntity
  8
0
  6
Continuous
 62
     0
370
    30
100
AcDbLine
 10
391.764984
 20
110.444114
 30
0.0
 11
391.764984
 21
132.28068
 31
0.0
  0
LINE
  5
81
330
7E
100
AcDbEntity
  8
0
  6
Continuous
 62
     0
370
    30
100
AcDbLine
 10
422.764984
 20
132.284395
 30
0.0
 11
422.764984
 21
153.944188
 31
0.0
  0
LINE
  5
82
330
7E
100
AcDbEntity
  8
0
  6
Continuous
 62
     0
370
    30
100
AcDbLine
 10
422.764984
 20
110.944114
 30
0.0
 11
422.764984
 21
132.284395
 31
0.0
  0
LINE
  5
83
330
7E
100
AcDbEntity
  8
0
  6
Continuous
 62
     0
370
     0
100
AcDbLine
 10
422.264984
 20
110.444114
 30
0.0
 11
422.264984
 21
132.28068
 31
0.0
  0
LINE
  5
84
330
7E
100
AcDbEntity
  8
0
  6
Continuous
 62
     0
370
     0
100
AcDbLine
 10
422.264984
 20
132.28068
 30
0.0
 11
422.264984
 21
154.444188
 31
0.0
  0
ARC
  5
85
330
7E
100
AcDbEntity
  8
0
  6
Continuous
 62
     0
370
    30
100
AcDbCircle
 10
407.764985
 20
131.79009
 30
0.0
 40
6.500000002476916
100
AcDbArc
 50
0.001582
 51
179.998418
  0
ARC
  5
86
330
7E
100
AcDbEntity
  8
0
  6
Continuous
 62
     0
370
    30
100
AcDbCircle
 10
407.764985
 20
131.790449
 30
0.0
 40
6.500000002476916
100
AcDbArc
 50
180.001582
 51
359.998418
  0
LINE
  5
87
330
7E
100
AcDbEntity
  8
0
  6
Continuous
 62
     0
370
    30
100
AcDbLine
 10
414.264985
 20
131.79027
 30
0.0
 11
414.264985
 21
132.243528
 31
0.0
  0
LWPOLYLINE
  5
88
330
7E
100
AcDbEntity
  8
0
  6
Continuous
 62
     0
370
     0
100
AcDbPolyline
 90
       22
 70
     0
 43
0.0
 10
401.264984
 20
132.24353
 10
401.339264
 20
133.222397
 10
401.558502
 20
134.176285
 10
401.91568
 20
135.081543
 10
402.39978
 20
135.918655
 10
402.998932
 20
136.671432
 10
403.700745
 20
137.327286
 10
404.492859
 20
137.87381
 10
405.361633
 20
138.299088
 10
406.290466
 20
138.591949
 10
407.258301
 20
138.742508
 10
408.240051
 20
138.744934
 10
409.208771
 20
138.599091
 10
410.13913
 20
138.310654
 10
411.010193
 20
137.889465
 10
411.805023
 20
137.346848
 10
412.509979
 20
136.694519
 10
413.112579
 20
135.944275
 10
413.600616
 20
135.109802
 10
413.962006
 20
134.206375
 10
414.185974
 20
133.253769
 10
414.264984
 20
132.24353
  0
LWPOLYLINE
  5
89
330
7E
100
AcDbEntity
  8
0
  6
Continuous
 62
     0
370
     0
100
AcDbPolyline
 90
       28
 70
     0
 43
0.0
 10
396.264984
 20
132.280685
 10
396.345001
 20
133.381287
 10
396.581818
 20
134.464706
 10
396.97049
 20
135.513992
 10
397.503815
 20
136.514191
 10
398.171967
 20
137.452881
 10
398.964844
 20
138.319031
 10
399.872314
 20
139.103577
 10
400.884033
 20
139.798187
 10
401.989563
 20
140.394928
 10
403.177246
 20
140.88588
 10
404.433777
 20
141.263184
 10
405.742493
 20
141.519806
 10
407.084534
 20
141.649841
 10
408.437897
 20
141.650223
 10
409.78006
 20
141.520874
 10
411.08905
 20
141.264969
 10
412.345917
 20
140.88829
 10
413.533997
 20
140.397964
 10
414.640045
 20
139.801788
 10
415.652313
 20
139.107727
 10
416.560364
 20
138.323639
 10
417.353912
 20
137.457748
 10
418.022766
 20
136.519684
 10
418.556854
 20
135.519714
 10
418.946655
 20
134.470749
 10
419.184265
 20
133.387482
 10
419.264984
 20
132.280685
  0
LWPOLYLINE
  5
8A
330
7E
100
AcDbEntity
  8
0
  6
Continuous
 62
     0
370
     0
100
AcDbPolyline
 90
       28
 70
     0
 43
0.0
 10
396.264984
 20
132.280685
 10
396.345001
 20
131.180481
 10
396.581818
 20
130.098251
 10
396.97049
 20
129.050888
 10
397.503845
 20
128.053238
 10
398.171997
 20
127.117592
 10
398.964905
 20
126.254814
 10
399.872375
 20
125.473824
 10
400.884125
 20
124.782753
 10
401.989655
 20
124.189369
 10
403.177338
 20
123.701408
 10
404.433899
 20
123.326546
 10
405.742645
 20
123.071655
 10
407.084686
 20
122.942543
 10
408.43808
 20
122.942177
 10
409.780243
 20
123.070641
 10
411.089233
 20
123.324852
 10
412.3461
 20
123.69912
 10
413.53418
 20
124.186485
 10
414.640228
 20
124.779327
 10
415.652496
 20
125.469872
 10
416.560547
 20
126.250435
 10
417.354065
 20
127.112953
 10
418.022919
 20
128.048004
 10
418.556946
 20
129.045425
 10
418.946747
 20
130.092484
 10
419.184296
 20
131.174561
 10
419.264984
 20
132.280685
  0
ELLIPSE
  5
8B
330
7E
100
AcDbEntity
  8
0
  6
Continuous
 62
     0
370
     0
100
AcDbEllipse
 10
419.264985
 20
132.243528
 30
0.0
 11
5.000000000000004
 21
-4.666102313765816E-12
 31
0.0
210
0.0
220
0.0
230
-1.0
 40
0.00743
 41
3.141592653592529
 42
4.712388980387428
  0
ELLIPSE
  5
8C
330
7E
100
AcDbEntity
  8
0
  6
Continuous
 62
     0
370
     0
100
AcDbEllipse
 10
396.264985
 20
132.243528
 30
0.0
 11
5.0
 21
-4.665765304462235E-12
 31
0.0
210
0.0
220
0.0
230
-1.0
 40
0.00743
 41
4.712388980387431
 42
6.283185307182331
  0
LINE
  5
8D
330
7E
100
AcDbEntity
  8
0
  6
Continuous
 62
     0
370
    30
100
AcDbLine
 10
188.180206
 20
191.943318
 30
0.0
 11
188.180206
 21
158.806171
 31
0.0
  0
LINE
  5
8E
330
7E
100
AcDbEntity
  8
0
  6
Continuous
 62
     0
370
     0
100
AcDbLine
 10
188.180206
 20
158.806171
 30
0.0
 11
388.180206
 21
158.806171
 31
0.0
  0
LINE
  5
8F
330
7E
100
AcDbEntity
  8
0
  6
Continuous
 62
     0
370
    30
100
AcDbLine
 10
388.180206
 20
191.943318
 30
0.0
 11
388.180206
 21
158.806171
 31
0.0
  0
LINE
  5
90
330
7E
100
AcDbEntity
  8
0
  6
Continuous
 62
     0
370
    30
100
AcDbLine
 10
188.180206
 20
191.943318
 30
0.0
 11
388.180206
 21
191.943318
 31
0.0
  0
LINE
  5
91
330
7E
100
AcDbEntity
  8
0
  6
Continuous
 62
     0
370
    30
100
AcDbLine
 10
188.180206
 20
158.806171
 30
0.0
 11
188.180206
 21
140.498634
 31
0.0
  0
LINE
  5
92
330
7E
100
AcDbEntity
  8
0
  6
Continuous
 62
     0
370
     0
100
AcDbLine
 10
188.180206
 20
140.498634
 30
0.0
 11
388.180206
 21
140.498634
 31
0.0
  0
LINE
  5
93
330
7E
100
AcDbEntity
  8
0
  6
Continuous
 62
     0
370
    30
100
AcDbLine
 10
388.180206
 20
158.806171
 30
0.0
 11
388.180206
 21
140.498634
 31
0.0
  0
LINE
  5
94
330
7E
100
AcDbEntity
  8
0
  6
Continuous
 62
     0
370
    30
100
AcDbLine
 10
188.180206
 20
140.498634
 30
0.0
 11
188.180206
 21
110.443319
 31
0.0
  0
LINE
  5
95
330
7E
100
AcDbEntity
  8
0
  6
Continuous
 62
     0
370
    30
100
AcDbLine
 10
388.180206
 20
140.498634
 30
0.0
 11
388.180206
 21
110.443319
 31
0.0
  0
LINE
  5
96
330
7E
100
AcDbEntity
  8
0
  6
Continuous
 62
     0
370
    30
100
AcDbLine
 10
188.180206
 20
110.443319
 30
0.0
 11
388.180206
 21
110.443319
 31
0.0
  0
ARC
  5
97
330
7E
100
AcDbEntity
  8
0
  6
Continuous
 62
     0
370
    30
100
AcDbCircle
 10
386.655699
 20
132.449665
 30
0.0
 40
20.50041719311693
100
AcDbArc
 50
75.567758
 51
85.735278
  0
ARC
  5
98
330
7E
100
AcDbEntity
  8
0
  6
Continuous
 62
     0
370
    30
100
AcDbCircle
 10
386.655687
 20
132.437048
 30
0.0
 40
20.50049276337581
100
AcDbArc
 50
274.264741
 51
284.432243
  0
LINE
  5
99
330
7E
100
AcDbEntity
  8
0
  6
Continuous
 62
     0
370
    30
100
AcDbLine
 10
422.264984
 20
154.444188
 30
0.0
 11
391.764984
 21
154.444188
 31
0.0
  0
LINE
  5
9A
330
7E
100
AcDbEntity
  8
0
  6
Continuous
 62
     0
370
    30
100
AcDbLine
 10
422.264984
 20
110.444114
 30
0.0
 11
391.764984
 21
110.444114
 31
0.0
  0
LINE
  5
9B
330
7E
100
AcDbEntity
  8
0
  6
Continuous
 62
     0
370
    30
100
AcDbLine
 10
401.264985
 20
132.243528
 30
0.0
 11
401.264985
 21
131.79027
 31
0.0
  0
ARC
  5
9C
330
7E
100
AcDbEntity
  8
0
  6
Continuous
 62
     0
370
    30
100
AcDbCircle
 10
422.264969
 20
153.944172
 30
0.0
 40
0.5000150271619668
100
AcDbArc
 50
0.001722
 51
89.998278
  0
ARC
  5
9D
330
7E
100
AcDbEntity
  8
0
  6
Continuous
 62
     0
370
    30
100
AcDbCircle
 10
422.264969
 20
110.944129
 30
0.0
 40
0.5000150271677045
100
AcDbArc
 50
270.001722
 51
359.998278
  0
ENDBLK
  5
9F
330
7E
100
AcDbEntity
  8
0
100
AcDbBlockEnd
  0
BLOCK
  5
CC
330
A1
100
AcDbEntity
  8
0
100
AcDbBlockBegin
  2
c
 70
     0
 10
157.508316
 20
130.664223
 30
0.0
  3
c
  1

  0
LINE
  5
A2
330
A1
100
AcDbEntity
  8
0
  6
Continuous
 62
     0
370
    30
100
AcDbLine
 10
502.457493
 20
536.556678
 30
0.0
 11
508.957314
 21
536.508381
 31
0.0
  0
LINE
  5
A3
330
A1
100
AcDbEntity
  8
0
  6
Continuous
 62
     0
370
    30
100
AcDbLine
 10
508.957314
 20
536.508381
 30
0.0
 11
515.457134
 21
536.460083
 31
0.0
  0
LWPOLYLINE
  5
A4
330
A1
100
AcDbEntity
  8
0
  6
Continuous
 62
     0
370
     0
100
AcDbPolyline
 90
       13
 70
     0
 43
0.0
 10
508.504059
 20
475.510101
 10
507.648621
 20
475.473663
 10
506.809753
 20
475.355988
 10
506.003815
 20
475.164551
 10
505.244385
 20
474.912964
 10
504.543579
 20
474.617188
 10
503.910645
 20
474.296539
 10
503.353882
 20
473.971405
 10
502.881439
 20
473.662323
 10
502.501312
 20
473.390289
 10
502.220978
 20
473.176239
 10
502.047272
 20
473.037659
 10
501.985138
 20
472.986938
  0
LWPOLYLINE
  5
A5
330
A1
100
AcDbEntity
  8
0
  6
Continuous
 62
     0
370
     0
100
AcDbPolyline
 90
       13
 70
     0
 43
0.0
 10
508.504059
 20
475.510101
 10
509.358856
 20
475.460968
 10
510.195892
 20
475.330811
 10
510.998871
 20
475.127441
 10
511.754486
 20
474.864594
 10
512.450867
 20
474.558441
 10
513.078918
 20
474.228394
 10
513.630798
 20
473.89505
 10
514.098572
 20
473.578949
 10
514.474609
 20
473.3013
 10
514.75177
 20
473.08313
 10
514.923401
 20
472.941986
 10
514.984741
 20
472.89035
  0
LINE
  5
A6
330
A1
100
AcDbEntity
  8
0
  6
Continuous
 62
     0
370
     0
100
AcDbLine
 10
508.466906
 20
470.51024
 30
0.0
 11
508.504059
 21
475.510102
 31
0.0
  0
LINE
  5
A7
330
A1
100
AcDbEntity
  8
0
  6
Continuous
 62
     0
370
    30
100
AcDbLine
 10
448.804278
 20
465.511513
 30
0.0
 11
481.941425
 21
465.511513
 31
0.0
  0
ARC
  5
A8
330
A1
100
AcDbEntity
  8
0
  6
Continuous
 62
     0
370
    30
100
AcDbCircle
 10
481.941425
 20
515.511513
 30
0.0
 40
50.0
100
AcDbArc
 50
270.0
 51
291.478418
  0
ARC
  5
A9
330
A1
100
AcDbEntity
  8
0
  6
Continuous
 62
     0
370
    30
100
AcDbCircle
 10
508.304278
 20
448.511513
 30
0.0
 40
22.0
100
AcDbArc
 50
285.572055
 51
111.478418
  0
ARC
  5
AA
330
A1
100
AcDbEntity
  8
0
  6
Continuous
 62
     0
370
    30
100
AcDbCircle
 10
449.782173
 20
658.509521
 30
0.0
 40
240.0
100
AcDbArc
 50
269.766544
 51
285.572055
  0
LINE
  5
AB
330
A1
100
AcDbEntity
  8
0
  6
Continuous
 62
     0
370
    30
100
AcDbLine
 10
448.804278
 20
465.511513
 30
0.0
 11
448.804278
 21
418.511513
 31
0.0
  0
LINE
  5
AC
330
A1
100
AcDbEntity
  8
0
  6
Continuous
 62
     0
370
    30
100
AcDbLine
 10
491.867406
 20
417.820877
 30
0.0
 11
502.367406
 21
417.820877
 31
0.0
  0
LINE
  5
AD
330
A1
100
AcDbEntity
  8
0
  6
Continuous
 62
     0
370
    30
100
AcDbLine
 10
502.367406
 20
417.820877
 30
0.0
 11
512.867406
 21
417.820877
 31
0.0
  0
LINE
  5
AE
330
A1
100
AcDbEntity
  8
0
  6
Continuous
 62
     0
370
    30
100
AcDbLine
 10
491.867406
 20
412.220877
 30
0.0
 11
502.367406
 21
412.220877
 31
0.0
  0
LINE
  5
AF
330
A1
100
AcDbEntity
  8
0
  6
Continuous
 62
     0
370
    30
100
AcDbLine
 10
502.367406
 20
412.220877
 30
0.0
 11
512.867406
 21
412.220877
 31
0.0
  0
LINE
  5
B0
330
A1
100
AcDbEntity
  8
0
  6
Continuous
 62
     0
370
    30
100
AcDbLine
 10
502.367406
 20
411.220877
 30
0.0
 11
511.867406
 21
411.220877
 31
0.0
  0
LINE
  5
B1
330
A1
100
AcDbEntity
  8
0
  6
Continuous
 62
     0
370
    30
100
AcDbLine
 10
492.867406
 20
411.220877
 30
0.0
 11
502.367406
 21
411.220877
 31
0.0
  0
LINE
  5
B2
330
A1
100
AcDbEntity
  8
0
  6
Continuous
 62
     0
370
     0
100
AcDbLine
 10
493.117406
 20
410.970877
 30
0.0
 11
502.367406
 21
410.970877
 31
0.0
  0
LINE
  5
B3
330
A1
100
AcDbEntity
  8
0
  6
Continuous
 62
     0
370
     0
100
AcDbLine
 10
502.367406
 20
410.970877
 30
0.0
 11
511.617406
 21
410.970877
 31
0.0
  0
LINE
  5
B4
330
A1
100
AcDbEntity
  8
0
  6
Continuous
 62
     0
370
    30
100
AcDbLine
 10
502.367406
 20
410.720877
 30
0.0
 11
511.367406
 21
410.720877
 31
0.0
  0
LINE
  5
B5
330
A1
100
AcDbEntity
  8
0
  6
Continuous
 62
     0
370
    30
100
AcDbLine
 10
493.367406
 20
410.720877
 30
0.0
 11
502.367406
 21
410.720877
 31
0.0
  0
LINE
  5
B6
330
A1
100
AcDbEntity
  8
0
  6
Continuous
 62
     0
370
     0
100
AcDbLine
 10
490.967406
 20
421.520877
 30
0.0
 11
502.367406
 21
421.520877
 31
0.0
  0
LINE
  5
B7
330
A1
100
AcDbEntity
  8
0
  6
Continuous
 62
     0
370
     0
100
AcDbLine
 10
502.367406
 20
421.520877
 30
0.0
 11
513.767406
 21
421.520877
 31
0.0
  0
LINE
  5
B8
330
A1
100
AcDbEntity
  8
0
  6
Continuous
 62
     0
370
    30
100
AcDbLine
 10
502.367406
 20
421.320877
 30
0.0
 11
513.567406
 21
421.320877
 31
0.0
  0
LINE
  5
B9
330
A1
100
AcDbEntity
  8
0
  6
Continuous
 62
     0
370
    30
100
AcDbLine
 10
491.167406
 20
421.320877
 30
0.0
 11
502.367406
 21
421.320877
 31
0.0
  0
ARC
  5
BA
330
A1
100
AcDbEntity
  8
0
  6
Continuous
 62
     0
370
    30
100
AcDbCircle
 10
513.567374
 20
421.520909
 30
0.0
 40
0.2000321919654619
100
AcDbArc
 50
270.015404
 51
359.990782
  0
ARC
  5
BB
330
A1
100
AcDbEntity
  8
0
  6
Continuous
 62
     0
370
    30
100
AcDbCircle
 10
491.167438
 20
421.520909
 30
0.0
 40
0.2000321919677202
100
AcDbArc
 50
180.009218
 51
269.984596
  0
LINE
  5
BC
330
A1
100
AcDbEntity
  8
0
  6
Continuous
 62
     0
370
    30
100
AcDbLine
 10
490.967406
 20
421.520877
 30
0.0
 11
490.967406
 21
422.069446
 31
0.0
  0
LINE
  5
BD
330
A1
100
AcDbEntity
  8
0
  6
Continuous
 62
     0
370
    30
100
AcDbLine
 10
513.767406
 20
421.520877
 30
0.0
 11
513.767406
 21
427.195954
 31
0.0
  0
ARC
  5
BE
330
A1
100
AcDbEntity
  8
0
  6
Continuous
 62
     0
370
    30
100
AcDbCircle
 10
511.367393
 20
410.970889
 30
0.0
 40
0.2500126790143247
100
AcDbArc
 50
270.006882
 51
359.997095
  0
ARC
  5
BF
330
A1
100
AcDbEntity
  8
0
  6
Continuous
 62
     0
370
    30
100
AcDbCircle
 10
493.367418
 20
410.970889
 30
0.0
 40
0.2500126790139516
100
AcDbArc
 50
180.002905
 51
269.993118
  0
LINE
  5
C0
330
A1
100
AcDbEntity
  8
0
  6
Continuous
 62
     0
370
    30
100
AcDbLine
 10
493.117406
 20
410.970877
 30
0.0
 11
493.117406
 21
411.220877
 31
0.0
  0
LINE
  5
C1
330
A1
100
AcDbEntity
  8
0
  6
Continuous
 62
     0
370
    30
100
AcDbLine
 10
511.617406
 20
410.970877
 30
0.0
 11
511.617406
 21
411.220877
 31
0.0
  0
LINE
  5
C2
330
A1
100
AcDbEntity
  8
0
  6
Continuous
 62
     0
370
    30
100
AcDbLine
 10
511.867406
 20
411.220877
 30
0.0
 11
512.867406
 21
412.220877
 31
0.0
  0
LINE
  5
C3
330
A1
100
AcDbEntity
  8
0
  6
Continuous
 62
     0
370
    30
100
AcDbLine
 10
492.867406
 20
411.220877
 30
0.0
 11
491.867406
 21
412.220877
 31
0.0
  0
LINE
  5
C4
330
A1
100
AcDbEntity
  8
0
  6
Continuous
 62
     0
370
    30
100
AcDbLine
 10
491.867406
 20
412.220877
 30
0.0
 11
491.867406
 21
417.820877
 31
0.0
  0
LINE
  5
C5
330
A1
100
AcDbEntity
  8
0
  6
Continuous
 62
     0
370
    30
100
AcDbLine
 10
512.867406
 20
412.220877
 30
0.0
 11
512.867406
 21
417.820877
 31
0.0
  0
LINE
  5
C6
330
A1
100
AcDbEntity
  8
0
  6
Continuous
 62
     0
370
    30
100
AcDbLine
 10
493.267406
 20
417.820877
 30
0.0
 11
493.267406
 21
421.320877
 31
0.0
  0
LINE
  5
C7
330
A1
100
AcDbEntity
  8
0
  6
Continuous
 62
     0
370
    30
100
AcDbLine
 10
511.467406
 20
417.820877
 30
0.0
 11
511.467406
 21
421.320877
 31
0.0
  0
ARC
  5
C8
330
A1
100
AcDbEntity
  8
0
  6
Continuous
 62
     0
370
    30
100
AcDbCircle
 10
496.985544
 20
473.024081
 30
0.0
 40
4.999725882641599
100
AcDbArc
 50
299.755315
 51
359.574443
  0
ARC
  5
C9
330
A1
100
AcDbEntity
  8
0
  6
Continuous
 62
     0
370
    30
100
AcDbCircle
 10
519.984596
 20
472.853185
 30
0.0
 40
4.999964694026913
100
AcDbArc
 50
179.574098
 51
243.360283
  0
LINE
  5
CA
330
A1
100
AcDbEntity
  8
0
  6
Continuous
 62
     0
370
    30
100
AcDbLine
 10
501.985129
 20
472.986853
 30
0.0
 11
502.457493
 21
536.556678
 31
0.0
  0
LINE
  5
CB
330
A1
100
AcDbEntity
  8
0
  6
Continuous
 62
     0
370
    30
100
AcDbLine
 10
514.98477
 20
472.890258
 30
0.0
 11
515.457134
 21
536.460083
 31
0.0
  0
ENDBLK
  5
CD
330
A1
100
AcDbEntity
  8
0
100
AcDbBlockEnd
  0
BLOCK
  5
F6
330
CF
100
AcDbEntity
  8
0
100
AcDbBlockBegin
  2
d
 70
     0
 10
157.508316
 20
109.401588
 30
0.0
  3
d
  1

  0
ELLIPSE
  5
D0
330
CF
100
AcDbEntity
  8
0
  6
Continuous
 62
     0
370
    30
100
AcDbEllipse
 10
612.282331
 20
163.739289
 30
0.0
 11
-12.70172750506871
 21
-17.96295469990043
 31
0.0
210
0.0
220
0.0
230
-1.0
 40
0.5
 41
2.178845513834499
 42
2.487701834559641
  0
ELLIPSE
  5
D1
330
CF
100
AcDbEntity
  8
0
  6
Continuous
 62
     0
370
    30
100
AcDbEllipse
 10
612.282331
 20
163.739289
 30
0.0
 11
-12.70172750506871
 21
-17.96295469990043
 31
0.0
210
0.0
220
0.0
230
-1.0
 40
0.5
 41
0.0000000588625219
 42
2.178845513834497
  0
ELLIPSE
  5
D2
330
CF
100
AcDbEntity
  8
0
  6
Continuous
 62
     0
370
     0
100
AcDbEllipse
 10
634.202641
 20
148.239288
 30
0.0
 11
-12.41305236401007
 21
-17.55470641400747
 31
0.0
210
0.0
220
0.0
230
-0.9999999999999999
 40
0.5
 41
2.178845513834499
 42
5.320438167424289
  0
ELLIPSE
  5
D3
330
CF
100
AcDbEntity
  8
0
  6
Continuous
 62
     0
370
     0
100
AcDbEllipse
 10
634.202641
 20
148.239288
 30
0.0
 11
-12.41305236401007
 21
-17.55470641400747
 31
0.0
210
0.0
220
0.0
230
-0.9999999999999999
 40
0.5
 41
5.320438167424289
 42
8.462030821014082
  0
ELLIPSE
  5
D4
330
CF
100
AcDbEntity
  8
0
  6
Continuous
 62
     0
370
     0
100
AcDbEllipse
 10
633.849088
 20
148.489288
 30
0.0
 11
-12.70172750506884
 21
-17.96295469990062
 31
0.0
210
0.0
220
0.0
230
-1.0
 40
0.5
 41
6.283182950639291
 42
8.462030821014082
  0
ELLIPSE
  5
D5
330
CF
100
AcDbEntity
  8
0
  6
Continuous
 62
     0
370
     0
100
AcDbEllipse
 10
633.849088
 20
148.489288
 30
0.0
 11
-12.70172750506884
 21
-17.96295469990062
 31
0.0
210
0.0
220
0.0
230
-1.0
 40
0.5
 41
2.178845513834498
 42
3.141592712452307
  0
ELLIPSE
  5
D6
330
CF
100
AcDbEntity
  8
0
  6
Continuous
 62
     0
370
    30
100
AcDbEllipse
 10
623.133679
 20
217.636027
 30
0.0
 11
-6.499818660707017
 21
-0.04855283642442223
 31
0.0
210
0.0
220
0.0
230
0.9999999999999999
 40
0.710802
 41
2.350898737086264
 42
5.492491390676058
  0
ELLIPSE
  5
D7
330
CF
100
AcDbEntity
  8
0
  6
Continuous
 62
     0
370
    30
100
AcDbEllipse
 10
623.133679
 20
217.636027
 30
0.0
 11
-6.499818660707017
 21
-0.04855283642442223
 31
0.0
210
0.0
220
0.0
230
0.9999999999999999
 40
0.710802
 41
5.492491390676058
 42
8.634084044265851
  0
LWPOLYLINE
  5
D8
330
CF
100
AcDbEntity
  8
0
  6
Continuous
 62
     0
370
     0
100
AcDbPolyline
 90
        7
 70
     0
 43
0.0
 10
629.960632
 20
173.893661
 10
629.913879
 20
173.538605
 10
629.765442
 20
173.175125
 10
629.516113
 20
172.799072
 10
629.167969
 20
172.407913
 10
628.725342
 20
172.002243
 10
628.050354
 20
171.480362
  0
LWPOLYLINE
  5
D9
330
CF
100
AcDbEntity
  8
0
  6
Continuous
 62
     0
370
     0
100
AcDbPolyline
 90
       19
 70
     0
 43
0.0
 10
616.961304
 20
173.7901
 10
617.021118
 20
172.965851
 10
617.188232
 20
172.16333
 10
617.461426
 20
171.405914
 10
617.838013
 20
170.717331
 10
618.31311
 20
170.119934
 10
618.878662
 20
169.632568
 10
619.523499
 20
169.268219
 10
620.233521
 20
169.031525
 10
620.994385
 20
168.919388
 10
621.791748
 20
168.922775
 10
622.612793
 20
169.029129
 10
623.445801
 20
169.224075
 10
624.279602
 20
169.493042
 10
625.1026
 20
169.821777
 10
625.902405
 20
170.19632
 10
626.665771
 20
170.603073
 10
627.378113
 20
171.029022
 10
628.050354
 20
171.480362
  0
LWPOLYLINE
  5
DA
330
CF
100
AcDbEntity
  8
0
  6
Continuous
 62
     0
370
     0
100
AcDbPolyline
 90
       14
 70
     0
 43
0.0
 10
629.955444
 20
174.587112
 10
630.924622
 20
173.868805
 10
631.777954
 20
173.135605
 10
632.50177
 20
172.397293
 10
633.086792
 20
171.660172
 10
633.5271
 20
170.928101
 10
633.81897
 20
170.202728
 10
633.960144
 20
169.484909
 10
633.948608
 20
168.775299
 10
633.78363
 20
168.076004
 10
633.465088
 20
167.39006
 10
632.9953
 20
166.722641
 10
632.379333
 20
166.080887
 10
631.612183
 20
165.463501
  0
LWPOLYLINE
  5
DB
330
CF
100
AcDbEntity
  8
0
  6
Continuous
 62
     0
370
     0
100
AcDbPolyline
 90
        3
 70
     0
 43
0.0
 10
615.348694
 20
176.963501
 10
616.031738
 20
177.382858
 10
616.931274
 20
177.770172
  0
LWPOLYLINE
  5
DC
330
CF
100
AcDbEntity
  8
0
  6
Continuous
 62
     0
370
     0
100
AcDbPolyline
 90
       29
 70
     0
 43
0.0
 10
615.348694
 20
176.963501
 10
614.651489
 20
176.372253
 10
614.068726
 20
175.681335
 10
613.608032
 20
174.903259
 10
613.274658
 20
174.051834
 10
613.070374
 20
173.142899
 10
612.99585
 20
172.192368
 10
613.050415
 20
171.215958
 10
613.232971
 20
170.229416
 10
613.541809
 20
169.248672
 10
613.974731
 20
168.289993
 10
614.528748
 20
167.370316
 10
615.198669
 20
166.506729
 10
615.977173
 20
165.716232
 10
616.853943
 20
165.013809
 10
617.815796
 20
164.412018
 10
618.847473
 20
163.918503
 10
619.933105
 20
163.537079
 10
621.057251
 20
163.266724
 10
622.205627
 20
163.104233
 10
623.365295
 20
163.043945
 10
624.524292
 20
163.079605
 10
625.671143
 20
163.20462
 10
626.794128
 20
163.412338
 10
627.880737
 20
163.696121
 10
628.91803
 20
164.049194
 10
629.891907
 20
164.464294
 10
630.788025
 20
164.933823
 10
631.612183
 20
165.463501
  0
ELLIPSE
  5
DD
330
CF
100
AcDbEntity
  8
0
  6
Continuous
 62
     0
370
     0
100
AcDbEllipse
 10
631.585907
 20
168.980359
 30
0.0
 11
2.906869003009899
 21
-4.068182960406316
 31
0.0
210
0.0
220
0.0
230
0.9999999999999999
 40
0.494732
 41
3.754617096992019
 42
5.325413423786914
  0
ELLIPSE
  5
DE
330
CF
100
AcDbEntity
  8
0
  6
Continuous
 62
     0
370
     0
100
AcDbEllipse
 10
615.322451
 20
180.480359
 30
0.0
 11
2.906869003009896
 21
-4.068182960406311
 31
0.0
210
0.0
220
0.0
230
1.0
 40
0.494732
 41
5.325413423786919
 42
5.794092678408959
  0
ELLIPSE
  5
DF
330
CF
100
AcDbEntity
  8
0
  6
Continuous
 62
     0
370
    30
100
AcDbEllipse
 10
609.746923
 20
165.531759
 30
0.0
 11
11.80681326931947
 21
16.69735489301889
 31
0.0
210
0.0
220
0.0
230
0.9999999999999998
 40
0.5
 41
2.236018228558246
 42
3.034205520161476
  0
ELLIPSE
  5
E0
330
CF
100
AcDbEntity
  8
0
  6
Continuous
 62
     0
370
    30
100
AcDbEllipse
 10
609.746923
 20
165.531759
 30
0.0
 11
11.80681326931947
 21
16.69735489301889
 31
0.0
210
0.0
220
0.0
230
0.9999999999999998
 40
0.5
 41
0.4385740447537758
 42
2.236018228558246
  0
LINE
  5
E1
330
CF
100
AcDbEntity
  8
0
  6
Continuous
 62
     0
370
    30
100
AcDbLine
 10
510.39842
 20
307.302579
 30
0.0
 11
486.966918
 21
290.734004
 31
0.0
  0
LINE
  5
E2
330
CF
100
AcDbEntity
  8
0
  6
Continuous
 62
     0
370
     0
100
AcDbLine
 10
486.966918
 20
290.734004
 30
0.0
 11
616.7731
 21
198.94717
 31
0.0
  0
LINE
  5
E3
330
CF
100
AcDbEntity
  8
0
  6
Continuous
 62
     0
370
    30
100
AcDbLine
 10
651.819776
 20
207.302575
 30
0.0
 11
629.827214
 21
191.751485
 31
0.0
  0
LINE
  5
E4
330
CF
100
AcDbEntity
  8
0
  6
Continuous
 62
     0
370
    30
100
AcDbLine
 10
510.39842
 20
307.302579
 30
0.0
 11
651.819776
 21
207.302575
 31
0.0
  0
ELLIPSE
  5
E5
330
CF
100
AcDbEntity
  8
0
  6
Continuous
 62
     0
370
    30
100
AcDbEllipse
 10
486.966918
 20
326.089342
 30
0.0
 11
-28.86751410591557
 21
-40.82482858928823
 31
0.0
210
0.0
220
0.0
230
-0.9999999999999998
 40
0.5
 41
5.327868657386394
 42
5.70273776683235
  0
LINE
  5
E6
330
CF
100
AcDbEntity
  8
0
  6
Continuous
 62
     0
370
     0
100
AcDbLine
 10
474.021535
 20
284.035468
 30
0.0
 11
615.442891
 21
184.035464
 31
0.0
  0
ELLIPSE
  5
E7
330
CF
100
AcDbEntity
  8
0
  6
Continuous
 62
     0
370
    30
100
AcDbEllipse
 10
628.388274
 20
226.089339
 30
0.0
 11
-28.86751410591557
 21
-40.82482858928823
 31
0.0
210
0.0
220
0.0
230
-0.9999999999999998
 40
0.5
 41
5.659386926225363
 42
5.70273776683235
  0
ELLIPSE
  5
E8
330
CF
100
AcDbEntity
  8
0
  6
Continuous
 62
     0
370
    30
100
AcDbEllipse
 10
468.325566
 20
265.531763
 30
0.0
 11
12.70170620660285
 21
17.96292457928682
 31
0.0
210
0.0
220
0.0
230
1.0
 40
0.5
 41
0.5804475403472376
 42
3.141592594727272
  0
ELLIPSE
  5
E9
330
CF
100
AcDbEntity
  8
0
  6
Continuous
 62
     0
370
    30
100
AcDbEllipse
 10
609.746922
 20
165.531759
 30
0.0
 11
12.70170620660285
 21
17.96292457928682
 31
0.0
210
0.0
220
0.0
230
1.0
 40
0.5
 41
0.5804475403472376
 42
3.283241398493793
  0
ELLIPSE
  5
EA
330
CF
100
AcDbEntity
  8
0
  6
Continuous
 62
     0
370
    30
100
AcDbEllipse
 10
651.128299
 20
343.283823
 30
0.0
 11
138.5640677083948
 21
195.9591772285835
 31
0.0
210
0.0
220
0.0
230
0.9999999999999998
 40
0.5
 41
4.053036772162341
 42
4.100983878221419
  0
LINE
  5
EB
330
CF
100
AcDbEntity
  8
0
  6
Continuous
 62
     0
370
    30
100
AcDbLine
 10
651.819776
 20
207.302575
 30
0.0
 11
651.819776
 21
174.068558
 31
0.0
  0
ELLIPSE
  5
EC
330
CF
100
AcDbEntity
  8
0
  6
Continuous
 62
     0
370
    30
100
AcDbEllipse
 10
493.736774
 20
227.838841
 30
0.0
 11
-10.5
 21
0.0
 31
0.0
210
0.0
220
0.0
230
1.0
 40
0.707107
 41
0.0000000234582984
 42
1.598002119831982
  0
LWPOLYLINE
  5
ED
330
CF
100
AcDbEntity
  8
0
  6
Continuous
 62
     0
370
    30
100
AcDbPolyline
 90
        4
 70
     0
 43
0.0
 10
490.062439
 20
220.883652
 10
491.369751
 20
220.560577
 10
492.729828
 20
220.380234
 10
494.121643
 20
220.346786
  0
LINE
  5
EE
330
CF
100
AcDbEntity
  8
0
  6
Continuous
 62
     0
370
    30
100
AcDbLine
 10
483.236774
 20
227.838841
 30
0.0
 11
483.236774
 21
228.043557
 31
0.0
  0
LINE
  5
EF
330
CF
100
AcDbEntity
  8
0
  6
Continuous
 62
     0
370
    30
100
AcDbLine
 10
455.623859
 20
247.568839
 30
0.0
 11
597.045216
 21
147.568835
 31
0.0
  0
LWPOLYLINE
  5
F0
330
CF
100
AcDbEntity
  8
0
  6
Continuous
 62
     0
370
    30
100
AcDbPolyline
 90
        4
 70
     0
 43
0.0
 10
630.053467
 20
173.40773
 10
630.026917
 20
173.473679
 10
629.982422
 20
173.649277
 10
629.960693
 20
173.887848
  0
LINE
  5
F1
330
CF
100
AcDbEntity
  8
0
  6
Continuous
 62
     0
370
    30
100
AcDbLine
 10
646.550816
 20
166.452243
 30
0.0
 11
629.928397
 21
178.206068
 31
0.0
  0
LINE
  5
F2
330
CF
100
AcDbEntity
  8
0
  6
Continuous
 62
     0
370
    30
100
AcDbLine
 10
621.14736
 20
130.526334
 30
0.0
 11
599.580603
 21
145.776335
 31
0.0
  0
LINE
  5
F3
330
CF
100
AcDbEntity
  8
0
  6
Continuous
 62
     0
370
    30
100
AcDbLine
 10
629.960655
 20
173.887639
 30
0.0
 11
629.633498
 21
217.68458
 31
0.0
  0
LINE
  5
F4
330
CF
100
AcDbEntity
  8
0
  6
Continuous
 62
     0
370
    30
100
AcDbLine
 10
616.961021
 20
173.790092
 30
0.0
 11
616.63386
 21
217.587474
 31
0.0
  0
LWPOLYLINE
  5
F5
330
CF
100
AcDbEntity
  8
0
  6
Continuous
 62
     0
370
    30
100
AcDbPolyline
 90
       39
 70
     0
 43
0.0
 10
646.550842
 20
166.45224
 10
647.290466
 20
165.832565
 10
647.931458
 20
165.091248
 10
648.468201
 20
164.237045
 10
648.898376
 20
163.278381
 10
649.220337
 20
162.223526
 10
649.433899
 20
161.080017
 10
649.539429
 20
159.855331
 10
649.537537
 20
158.557114
 10
649.428894
 20
157.193268
 10
649.214966
 20
155.772263
 10
648.897522
 20
154.30307
 10
648.478943
 20
152.795166
 10
647.962097
 20
151.258179
 10
647.350708
 20
149.702301
 10
646.648865
 20
148.137817
 10
645.861328
 20
146.57515
 10
644.993469
 20
145.024826
 10
644.051086
 20
143.497269
 10
643.040771
 20
142.002747
 10
641.969238
 20
140.551468
 10
640.843689
 20
139.153168
 10
639.671814
 20
137.817352
 10
638.461426
 20
136.553116
 10
637.220703
 20
135.368851
 10
635.957825
 20
134.272736
 10
634.681152
 20
133.272003
 10
633.398987
 20
132.373489
 10
632.119568
 20
131.583206
 10
630.850952
 20
130.906418
 10
629.601074
 20
130.347992
 10
628.37738
 20
129.911957
 10
627.187134
 20
129.601776
 10
626.037292
 20
129.420441
 10
624.934875
 20
129.370773
 10
623.887024
 20
129.455154
 10
622.901917
 20
129.674896
 10
621.988403
 20
130.030609
 10
621.1474
 20
130.526321
  0
ENDBLK
  5
F7
330
CF
100
AcDbEntity
  8
0
100
AcDbBlockEnd
  0
BLOCK
  5
127
330
F9
100
AcDbEntity
  8
0
100
AcDbBlockBegin
  2
e
 70
     0
 10
187.707001
 20
0.0
 30
0.0
  3
e
  1

  0
ARC
  5
FA
330
F9
100
AcDbEntity
  8
0
  6
Continuous
 62
     0
370
     0
100
AcDbCircle
 10
95.642744
 20
448.510833
 30
0.0
 40
21.50003689005326
100
AcDbArc
 50
270.425736
 51
90.425736
  0
ARC
  5
FB
330
F9
100
AcDbEntity
  8
0
  6
Continuous
 62
     0
370
     0
100
AcDbCircle
 10
95.642744
 20
448.510833
 30
0.0
 40
21.50003689005326
100
AcDbArc
 50
90.425736
 51
270.425736
  0
ARC
  5
FC
330
F9
100
AcDbEntity
  8
0
  6
Continuous
 62
     0
370
    30
100
AcDbCircle
 10
95.642744
 20
448.510833
 30
0.0
 40
22.00003689005326
100
AcDbArc
 50
90.425736
 51
270.425736
  0
ARC
  5
FD
330
F9
100
AcDbEntity
  8
0
  6
Continuous
 62
     0
370
    30
100
AcDbCircle
 10
95.642744
 20
448.510833
 30
0.0
 40
22.00003689005326
100
AcDbArc
 50
270.425736
 51
90.425736
  0
LINE
  5
FE
330
F9
100
AcDbEntity
  8
0
  6
Continuous
 62
     0
370
    30
100
AcDbLine
 10
94.988867
 20
536.508404
 30
0.0
 11
101.488688
 21
536.556701
 31
0.0
  0
LINE
  5
FF
330
F9
100
AcDbEntity
  8
0
  6
Continuous
 62
     0
370
    30
100
AcDbLine
 10
88.489047
 20
536.460106
 30
0.0
 11
94.988867
 21
536.508404
 31
0.0
  0
LWPOLYLINE
  5
100
330
F9
100
AcDbEntity
  8
0
  6
Continuous
 62
     0
370
     0
100
AcDbPolyline
 90
       13
 70
     0
 43
0.0
 10
101.961052
 20
472.986969
 10
101.90416
 20
473.033447
 10
101.735405
 20
473.168274
 10
101.459648
 20
473.379333
 10
101.083771
 20
473.649078
 10
100.615387
 20
473.957306
 10
100.062332
 20
474.282562
 10
99.432281
 20
474.603607
 10
98.733986
 20
474.900604
 10
97.976974
 20
475.154663
 10
97.172592
 20
475.349091
 10
96.334785
 20
475.470398
 10
95.442123
 20
475.510132
  0
LWPOLYLINE
  5
101
330
F9
100
AcDbEntity
  8
0
  6
Continuous
 62
     0
370
     0
100
AcDbPolyline
 90
       13
 70
     0
 43
0.0
 10
88.961411
 20
472.890381
 10
89.017609
 20
472.937683
 10
89.184334
 20
473.075012
 10
89.456924
 20
473.290161
 10
89.828751
 20
473.56546
 10
90.292503
 20
473.880615
 10
90.840668
 20
474.21405
 10
91.465874
 20
474.544403
 10
92.159683
 20
474.851746
 10
92.912834
 20
475.117035
 10
93.714233
 20
475.323395
 10
94.550148
 20
475.457153
 10
95.442123
 20
475.510132
  0
LINE
  5
102
330
F9
100
AcDbEntity
  8
0
  6
Continuous
 62
     0
370
     0
100
AcDbLine
 10
95.442122
 20
475.510124
 30
0.0
 11
95.479274
 21
470.510262
 31
0.0
  0
LINE
  5
103
330
F9
100
AcDbEntity
  8
0
  6
Continuous
 62
     0
370
    30
100
AcDbLine
 10
155.141914
 20
465.511536
 30
0.0
 11
122.004766
 21
465.511536
 31
0.0
  0
ARC
  5
104
330
F9
100
AcDbEntity
  8
0
  6
Continuous
 62
     0
370
    30
100
AcDbCircle
 10
122.004766
 20
515.511536
 30
0.0
 40
50.0
100
AcDbArc
 50
249.481515
 51
270.0
  0
ARC
  5
105
330
F9
100
AcDbEntity
  8
0
  6
Continuous
 62
     0
370
    30
100
AcDbCircle
 10
154.164019
 20
658.509544
 30
0.0
 40
240.0
100
AcDbArc
 50
254.428205
 51
270.233456
  0
LINE
  5
106
330
F9
100
AcDbEntity
  8
0
  6
Continuous
 62
     0
370
    30
100
AcDbLine
 10
155.141914
 20
465.511536
 30
0.0
 11
155.141914
 21
418.511536
 31
0.0
  0
LINE
  5
107
330
F9
100
AcDbEntity
  8
0
  6
Continuous
 62
     0
370
    30
100
AcDbLine
 10
101.578791
 20
417.8209
 30
0.0
 11
112.078792
 21
417.8209
 31
0.0
  0
LINE
  5
108
330
F9
100
AcDbEntity
  8
0
  6
Continuous
 62
     0
370
    30
100
AcDbLine
 10
91.078792
 20
417.8209
 30
0.0
 11
101.578791
 21
417.8209
 31
0.0
  0
LINE
  5
109
330
F9
100
AcDbEntity
  8
0
  6
Continuous
 62
     0
370
    30
100
AcDbLine
 10
101.578791
 20
412.2209
 30
0.0
 11
112.078792
 21
412.2209
 31
0.0
  0
LINE
  5
10A
330
F9
100
AcDbEntity
  8
0
  6
Continuous
 62
     0
370
    30
100
AcDbLine
 10
91.078792
 20
412.2209
 30
0.0
 11
101.578791
 21
412.2209
 31
0.0
  0
LINE
  5
10B
330
F9
100
AcDbEntity
  8
0
  6
Continuous
 62
     0
370
    30
100
AcDbLine
 10
92.078792
 20
411.2209
 30
0.0
 11
101.578791
 21
411.2209
 31
0.0
  0
LINE
  5
10C
330
F9
100
AcDbEntity
  8
0
  6
Continuous
 62
     0
370
    30
100
AcDbLine
 10
101.578791
 20
411.2209
 30
0.0
 11
111.078792
 21
411.2209
 31
0.0
  0
LINE
  5
10D
330
F9
100
AcDbEntity
  8
0
  6
Continuous
 62
     0
370
     0
100
AcDbLine
 10
101.578791
 20
410.9709
 30
0.0
 11
110.828792
 21
410.9709
 31
0.0
  0
LINE
  5
10E
330
F9
100
AcDbEntity
  8
0
  6
Continuous
 62
     0
370
     0
100
AcDbLine
 10
92.328792
 20
410.9709
 30
0.0
 11
101.578791
 21
410.9709
 31
0.0
  0
LINE
  5
10F
330
F9
100
AcDbEntity
  8
0
  6
Continuous
 62
     0
370
    30
100
AcDbLine
 10
92.578792
 20
410.7209
 30
0.0
 11
101.578791
 21
410.7209
 31
0.0
  0
LINE
  5
110
330
F9
100
AcDbEntity
  8
0
  6
Continuous
 62
     0
370
    30
100
AcDbLine
 10
101.578791
 20
410.7209
 30
0.0
 11
110.578792
 21
410.7209
 31
0.0
  0
LINE
  5
111
330
F9
100
AcDbEntity
  8
0
  6
Continuous
 62
     0
370
     0
100
AcDbLine
 10
101.578791
 20
421.5209
 30
0.0
 11
112.978792
 21
421.5209
 31
0.0
  0
LINE
  5
112
330
F9
100
AcDbEntity
  8
0
  6
Continuous
 62
     0
370
     0
100
AcDbLine
 10
90.178792
 20
421.5209
 30
0.0
 11
101.578791
 21
421.5209
 31
0.0
  0
LINE
  5
113
330
F9
100
AcDbEntity
  8
0
  6
Continuous
 62
     0
370
    30
100
AcDbLine
 10
90.378792
 20
421.3209
 30
0.0
 11
101.578791
 21
421.3209
 31
0.0
  0
LINE
  5
114
330
F9
100
AcDbEntity
  8
0
  6
Continuous
 62
     0
370
    30
100
AcDbLine
 10
101.578791
 20
421.3209
 30
0.0
 11
112.778792
 21
421.3209
 31
0.0
  0
ARC
  5
115
330
F9
100
AcDbEntity
  8
0
  6
Continuous
 62
     0
370
    30
100
AcDbCircle
 10
90.378824
 20
421.520932
 30
0.0
 40
0.2000321919722703
100
AcDbArc
 50
180.009218
 51
269.984596
  0
ARC
  5
116
330
F9
100
AcDbEntity
  8
0
  6
Continuous
 62
     0
370
    30
100
AcDbCircle
 10
112.77876
 20
421.520932
 30
0.0
 40
0.2000321919672049
100
AcDbArc
 50
270.015404
 51
359.990782
  0
LINE
  5
117
330
F9
100
AcDbEntity
  8
0
  6
Continuous
 62
     0
370
    30
100
AcDbLine
 10
112.978792
 20
421.5209
 30
0.0
 11
112.978792
 21
422.069469
 31
0.0
  0
LINE
  5
118
330
F9
100
AcDbEntity
  8
0
  6
Continuous
 62
     0
370
    30
100
AcDbLine
 10
90.178792
 20
421.5209
 30
0.0
 11
90.178792
 21
427.195977
 31
0.0
  0
ARC
  5
119
330
F9
100
AcDbEntity
  8
0
  6
Continuous
 62
     0
370
    30
100
AcDbCircle
 10
92.578804
 20
410.970912
 30
0.0
 40
0.2500126790106206
100
AcDbArc
 50
180.002905
 51
269.993118
  0
ARC
  5
11A
330
F9
100
AcDbEntity
  8
0
  6
Continuous
 62
     0
370
    30
100
AcDbCircle
 10
110.578779
 20
410.970912
 30
0.0
 40
0.2500126790143798
100
AcDbArc
 50
270.006882
 51
359.997095
  0
LINE
  5
11B
330
F9
100
AcDbEntity
  8
0
  6
Continuous
 62
     0
370
    30
100
AcDbLine
 10
110.828792
 20
410.9709
 30
0.0
 11
110.828792
 21
411.2209
 31
0.0
  0
LINE
  5
11C
330
F9
100
AcDbEntity
  8
0
  6
Continuous
 62
     0
370
    30
100
AcDbLine
 10
92.328792
 20
410.9709
 30
0.0
 11
92.328792
 21
411.2209
 31
0.0
  0
LINE
  5
11D
330
F9
100
AcDbEntity
  8
0
  6
Continuous
 62
     0
370
    30
100
AcDbLine
 10
92.078792
 20
411.2209
 30
0.0
 11
91.078792
 21
412.2209
 31
0.0
  0
LINE
  5
11E
330
F9
100
AcDbEntity
  8
0
  6
Continuous
 62
     0
370
    30
100
AcDbLine
 10
111.078792
 20
411.2209
 30
0.0
 11
112.078792
 21
412.2209
 31
0.0
  0
LINE
  5
11F
330
F9
100
AcDbEntity
  8
0
  6
Continuous
 62
     0
370
    30
100
AcDbLine
 10
112.078792
 20
412.2209
 30
0.0
 11
112.078792
 21
417.8209
 31
0.0
  0
LINE
  5
120
330
F9
100
AcDbEntity
  8
0
  6
Continuous
 62
     0
370
    30
100
AcDbLine
 10
91.078792
 20
412.2209
 30
0.0
 11
91.078792
 21
417.8209
 31
0.0
  0
LINE
  5
121
330
F9
100
AcDbEntity
  8
0
  6
Continuous
 62
     0
370
    30
100
AcDbLine
 10
110.678792
 20
417.8209
 30
0.0
 11
110.678792
 21
421.3209
 31
0.0
  0
LINE
  5
122
330
F9
100
AcDbEntity
  8
0
  6
Continuous
 62
     0
370
    30
100
AcDbLine
 10
92.478792
 20
417.8209
 30
0.0
 11
92.478792
 21
421.3209
 31
0.0
  0
ARC
  5
123
330
F9
100
AcDbEntity
  8
0
  6
Continuous
 62
     0
370
    30
100
AcDbCircle
 10
106.960891
 20
473.024106
 30
0.0
 40
4.999979628125747
100
AcDbArc
 50
180.42556
 51
245.216624
  0
ARC
  5
124
330
F9
100
AcDbEntity
  8
0
  6
Continuous
 62
     0
370
    30
100
AcDbCircle
 10
83.96157
 20
472.853207
 30
0.0
 40
4.999979628142647
100
AcDbArc
 50
295.634847
 51
0.425911
  0
LINE
  5
125
330
F9
100
AcDbEntity
  8
0
  6
Continuous
 62
     0
370
    30
100
AcDbLine
 10
101.961052
 20
472.986876
 30
0.0
 11
101.488688
 21
536.556701
 31
0.0
  0
LINE
  5
126
330
F9
100
AcDbEntity
  8
0
  6
Continuous
 62
     0
370
    30
100
AcDbLine
 10
88.961411
 20
472.89028
 30
0.0
 11
88.489047
 21
536.460106
 31
0.0
  0
ENDBLK
  5
128
330
F9
100
AcDbEntity
  8
0
100
AcDbBlockEnd
  0
ENDSEC
  0
SECTION
  2
ENTITIES
  0
INSERT
  5
7D
330
1F
100
AcDbEntity
  8
0
  6
Continuous
 62
   250
370
     0
100
AcDbBlockReference
  2
a
 10
157.508316
 20
109.401588
 30
0.0
  0
INSERT
  5
A0
330
1F
100
AcDbEntity
  8
0
  6
Continuous
 62
   250
370
     0
100
AcDbBlockReference
  2
b
 10
196.765919
 20
109.401588
 30
0.0
  0
INSERT
  5
CE
330
1F
100
AcDbEntity
  8
0
  6
Continuous
 62
   250
370
     0
100
AcDbBlockReference
  2
c
 10
157.508316
 20
130.664223
 30
0.0
  0
INSERT
  5
F8
330
1F
100
AcDbEntity
  8
0
  6
Continuous
 62
   250
370
     0
100
AcDbBlockReference
  2
d
 10
157.508316
 20
109.401588
 30
0.0
  0
INSERT
  5
129
330
1F
100
AcDbEntity
  8
0
  6
Continuous
 62
   250
370
     0
100
AcDbBlockReference
  2
e
 10
187.707001
 20
0.0
 30
0.0
  0
ENDSEC
  0
SECTION
  2
OBJECTS
  0
DICTIONARY
  5
C
330
0
100
AcDbDictionary
281
     1
  3
ACAD_GROUP
350
D
  3
ACAD_LAYOUT
350
1A
  3
ACAD_MLEADERSTYLE
350
12C
  3
ACAD_MLINESTYLE
350
17
  3
ACAD_PLOTSETTINGS
350
19
  3
ACAD_PLOTSTYLENAME
350
E
  3
ACAD_VISUALSTYLE
350
2A
  3
AcDbVariableDictionary
350
12A
  0
DICTIONARY
  5
D
102
{ACAD_REACTORS
330
C
102
}
330
C
100
AcDbDictionary
281
     1
  0
DICTIONARY
  5
1A
102
{ACAD_REACTORS
330
C
102
}
330
C
100
AcDbDictionary
281
     1
  3
Layout1
350
1E
  3
Layout2
350
26
  3
Model
350
22
  0
DICTIONARY
  5
12C
102
{ACAD_REACTORS
330
C
102
}
330
C
100
AcDbDictionary
281
     1
  0
DICTIONARY
  5
17
102
{ACAD_REACTORS
330
C
102
}
330
C
100
AcDbDictionary
281
     1
  3
Standard
350
18
  0
DICTIONARY
  5
19
102
{ACAD_REACTORS
330
C
102
}
330
C
100
AcDbDictionary
281
     1
  0
ACDBDICTIONARYWDFLT
  5
E
102
{ACAD_REACTORS
330
C
102
}
330
C
100
AcDbDictionary
281
     1
  3
Normal
350
F
100
AcDbDictionaryWithDefault
340
F
  0
DICTIONARY
  5
2A
102
{ACAD_REACTORS
330
C
102
}
330
C
100
AcDbDictionary
281
     1
  3
2dWireframe
350
2F
  3
3D Hidden
350
31
  3
3dWireframe
350
30
  3
Basic
350
32
  3
Brighten
350
36
  3
ColorChange
350
3A
  3
Conceptual
350
34
  3
Dim
350
35
  3
Facepattern
350
39
  3
Flat
350
2B
  3
FlatWithEdges
350
2C
  3
Gouraud
350
2D
  3
GouraudWithEdges
350
2E
  3
Linepattern
350
38
  3
Realistic
350
33
  3
Thicken
350
37
  0
DICTIONARY
  5
12A
102
{ACAD_REACTORS
330
C
102
}
330
C
100
AcDbDictionary
281
     1
  3
PSOLHEIGHT
350
12E
  3
PSOLWIDTH
350
12D
  0
LAYOUT
  5
1E
102
{ACAD_REACTORS
330
1A
102
}
330
1A
100
AcDbPlotSettings
  1

  2
none_device
  4

  6

 40
0.0
 41
0.0
 42
0.0
 43
0.0
 44
0.0
 45
0.0
 46
0.0
 47
0.0
 48
0.0
 49
0.0
140
0.0
141
0.0
142
1.0
143
1.0
 70
   688
 72
     0
 73
     0
 74
     5
  7

 75
    16
147
1.0
148
0.0
149
0.0
100
AcDbLayout
  1
Layout1
 70
     1
 71
     1
 10
0.0
 20
0.0
 11
420.0
 21
297.0
 12
0.0
 22
0.0
 32
0.0
 14
1.000000E+20
 24
1.000000E+20
 34
1.000000E+20
 15
-1.000000E+20
 25
-1.000000E+20
 35
-1.000000E+20
146
0.0
 13
0.0
 23
0.0
 33
0.0
 16
1.0
 26
0.0
 36
0.0
 17
0.0
 27
1.0
 37
0.0
 76
     0
330
1B
  0
LAYOUT
  5
26
102
{ACAD_REACTORS
330
1A
102
}
330
1A
100
AcDbPlotSettings
  1

  2
none_device
  4

  6

 40
0.0
 41
0.0
 42
0.0
 43
0.0
 44
0.0
 45
0.0
 46
0.0
 47
0.0
 48
0.0
 49
0.0
140
0.0
141
0.0
142
1.0
143
1.0
 70
   688
 72
     0
 73
     0
 74
     5
  7

 75
    16
147
1.0
148
0.0
149
0.0
100
AcDbLayout
  1
Layout2
 70
     1
 71
     2
 10
0.0
 20
0.0
 11
0.0
 21
0.0
 12
0.0
 22
0.0
 32
0.0
 14
0.0
 24
0.0
 34
0.0
 15
0.0
 25
0.0
 35
0.0
146
0.0
 13
0.0
 23
0.0
 33
0.0
 16
1.0
 26
0.0
 36
0.0
 17
0.0
 27
1.0
 37
0.0
 76
     0
330
23
  0
LAYOUT
  5
22
102
{ACAD_REACTORS
330
1A
102
}
330
1A
100
AcDbPlotSettings
  1

  2
none_device
  4

  6

 40
0.0
 41
0.0
 42
0.0
 43
0.0
 44
0.0
 45
0.0
 46
0.0
 47
0.0
 48
0.0
 49
0.0
140
0.0
141
0.0
142
1.0
143
1.0
 70
  1712
 72
     0
 73
     0
 74
     0
  7

 75
     0
147
1.0
148
0.0
149
0.0
100
AcDbLayout
  1
Model
 70
     1
 71
     0
 10
73.656204
 20
98.367226
 11
651.819763
 21
536.556702
 12
0.0
 22
0.0
 32
0.0
 14
73.656204
 24
98.367226
 34
0.0
 15
651.819763
 25
536.556702
 35
0.0
146
0.0
 13
0.0
 23
0.0
 33
0.0
 16
1.0
 26
0.0
 36
0.0
 17
0.0
 27
1.0
 37
0.0
 76
     0
330
1F
331
29
  0
MLINESTYLE
  5
18
102
{ACAD_REACTORS
330
17
102
}
330
17
100
AcDbMlineStyle
  2
Standard
 70
     0
  3

 62
   256
 51
90.0
 52
90.0
 71
     2
 49
0.5
 62
   256
  6
BYLAYER
 49
-0.5
 62
   256
  6
BYLAYER
  0
ACDBPLACEHOLDER
  5
F
102
{ACAD_REACTORS
330
E
102
}
330
E
  0
VISUALSTYLE
  5
2F
102
{ACAD_REACTORS
330
2A
102
}
330
2A
100
AcDbVisualStyle
  2
2dWireframe
 70
     4
 71
     0
 72
     2
 73
     0
 90
        0
 40
-0.6
 41
-30.0
 62
     5
 63
     7
 74
     1
 91
        4
 64
     7
 65
   257
 75
     1
175
     1
 42
1.0
 92
        0
 66
   257
 43
1.0
 76
     1
 77
     6
 78
     2
 67
     7
 79
     5
170
     0
171
     0
290
     0
174
     0
 93
        1
 44
0.0
173
     0
291
     0
 45
0.0
1001
ACAD
1000
AcDbSavedByObjectVersion
1070
     0
  0
VISUALSTYLE
  5
31
102
{ACAD_REACTORS
330
2A
102
}
330
2A
100
AcDbVisualStyle
  2
3D Hidden
 70
     6
 71
     1
 72
     2
 73
     2
 90
        0
 40
-0.6
 41
-30.0
 62
     5
 63
     7
 74
     2
 91
        2
 64
     7
 65
   257
 75
     2
175
     1
 42
40.0
 92
        0
 66
   257
 43
1.0
 76
     1
 77
     6
 78
     2
 67
     7
 79
     3
170
     0
171
     0
290
     0
174
     0
 93
        1
 44
0.0
173
     0
291
     0
 45
0.0
1001
ACAD
1000
AcDbSavedByObjectVersion
1070
     0
  0
VISUALSTYLE
  5
30
102
{ACAD_REACTORS
330
2A
102
}
330
2A
100
AcDbVisualStyle
  2
3dWireframe
 70
     5
 71
     0
 72
     2
 73
     0
 90
        0
 40
-0.6
 41
-30.0
 62
     5
 63
     7
 74
     1
 91
        4
 64
     7
 65
   257
 75
     1
175
     1
 42
1.0
 92
        0
 66
   257
 43
1.0
 76
     1
 77
     6
 78
     2
 67
     7
 79
     5
170
     0
171
     0
290
     0
174
     0
 93
        1
 44
0.0
173
     0
291
     0
 45
0.0
1001
ACAD
1000
AcDbSavedByObjectVersion
1070
     0
  0
VISUALSTYLE
  5
32
102
{ACAD_REACTORS
330
2A
102
}
330
2A
100
AcDbVisualStyle
  2
Basic
 70
     7
 71
     1
 72
     0
 73
     1
 90
        0
 40
-0.6
 41
-30.0
 62
     5
 63
     7
 74
     0
 91
        4
 64
     7
 65
   257
 75
     1
175
     1
 42
1.0
 92
        8
 66
     7
 43
1.0
 76
     1
 77
     6
 78
     2
 67
     7
 79
     5
170
     0
171
     0
290
     0
174
     0
 93
        1
 44
0.0
173
     0
291
     1
 45
0.0
1001
ACAD
1000
AcDbSavedByObjectVersion
1070
     0
  0
VISUALSTYLE
  5
36
102
{ACAD_REACTORS
330
2A
102
}
330
2A
100
AcDbVisualStyle
  2
Brighten
 70
    12
 71
     2
 72
     2
 73
     0
 90
        0
 40
-0.6
 41
-30.0
 62
     5
 63
     7
 74
     1
 91
        4
 64
     7
 65
   257
 75
     1
175
     1
 42
1.0
 92
        8
 66
     7
 43
1.0
 76
     1
 77
     6
 78
     2
 67
     7
 79
     5
170
     0
171
     0
290
     0
174
     0
 93
        1
 44
50.0
173
     0
291
     1
 45
0.0
1001
ACAD
1000
AcDbSavedByObjectVersion
1070
     0
  0
VISUALSTYLE
  5
3A
102
{ACAD_REACTORS
330
2A
102
}
330
2A
100
AcDbVisualStyle
  2
ColorChange
 70
    16
 71
     2
 72
     2
 73
     3
 90
        0
 40
-0.6
 41
-30.0
 62
     5
 63
     8
 74
     1
 91
        4
 64
     7
 65
   257
 75
     1
175
     1
 42
1.0
 92
        8
 66
     8
 43
1.0
 76
     1
 77
     6
 78
     2
 67
     7
 79
     5
170
     0
171
     0
290
     0
174
     0
 93
        1
 44
0.0
173
     0
291
     1
 45
0.0
1001
ACAD
1000
AcDbSavedByObjectVersion
1070
     0
  0
VISUALSTYLE
  5
34
102
{ACAD_REACTORS
330
2A
102
}
330
2A
100
AcDbVisualStyle
  2
Conceptual
 70
     9
 71
     3
 72
     2
 73
     0
 90
        0
 40
-0.6
 41
-30.0
 62
     5
 63
     7
 74
     2
 91
        2
 64
     7
 65
   257
 75
     1
175
     1
 42
40.0
 92
        8
 66
     7
 43
1.0
 76
     1
 77
     6
 78
     2
 67
     7
 79
     3
170
     0
171
     0
290
     0
174
     0
 93
        1
 44
0.0
173
     0
291
     0
 45
0.0
1001
ACAD
1000
AcDbSavedByObjectVersion
1070
     0
  0
VISUALSTYLE
  5
35
102
{ACAD_REACTORS
330
2A
102
}
330
2A
100
AcDbVisualStyle
  2
Dim
 70
    11
 71
     2
 72
     2
 73
     0
 90
        0
 40
-0.6
 41
-30.0
 62
     5
 63
     7
 74
     1
 91
        4
 64
     7
 65
   257
 75
     1
175
     1
 42
1.0
 92
        8
 66
     7
 43
1.0
 76
     1
 77
     6
 78
     2
 67
     7
 79
     5
170
     0
171
     0
290
     0
174
     0
 93
        1
 44
-50.0
173
     0
291
     1
 45
0.0
1001
ACAD
1000
AcDbSavedByObjectVersion
1070
     0
  0
VISUALSTYLE
  5
39
102
{ACAD_REACTORS
330
2A
102
}
330
2A
100
AcDbVisualStyle
  2
Facepattern
 70
    15
 71
     2
 72
     2
 73
     0
 90
        0
 40
-0.6
 41
-30.0
 62
     5
 63
     7
 74
     1
 91
        4
 64
     7
 65
   257
 75
     1
175
     1
 42
1.0
 92
        8
 66
     7
 43
1.0
 76
     1
 77
     6
 78
     2
 67
     7
 79
     5
170
     0
171
     0
290
     0
174
     0
 93
        1
 44
0.0
173
     0
291
     1
 45
0.0
1001
ACAD
1000
AcDbSavedByObjectVersion
1070
     0
  0
VISUALSTYLE
  5
2B
102
{ACAD_REACTORS
330
2A
102
}
330
2A
100
AcDbVisualStyle
  2
Flat
 70
     0
 71
     2
 72
     1
 73
     1
 90
        2
 40
-0.6
 41
30.0
 62
     5
 63
     7
 74
     0
 91
        4
 64
     7
 65
   257
 75
     1
175
     1
 42
1.0
 92
        8
 66
     7
 43
1.0
 76
     1
 77
     6
 78
     2
 67
     7
 79
     5
170
     0
171
     0
290
     0
174
     0
 93
       13
 44
0.0
173
     0
291
     1
 45
0.0
1001
ACAD
1000
AcDbSavedByObjectVersion
1070
     0
  0
VISUALSTYLE
  5
2C
102
{ACAD_REACTORS
330
2A
102
}
330
2A
100
AcDbVisualStyle
  2
FlatWithEdges
 70
     1
 71
     2
 72
     1
 73
     1
 90
        2
 40
-0.6
 41
30.0
 62
     5
 63
     7
 74
     1
 91
        4
 64
     7
 65
   257
 75
     1
175
     1
 42
1.0
 92
        0
 66
   257
 43
1.0
 76
     1
 77
     6
 78
     2
 67
     7
 79
     5
170
     0
171
     0
290
     0
174
     0
 93
       13
 44
0.0
173
     0
291
     1
 45
0.0
1001
ACAD
1000
AcDbSavedByObjectVersion
1070
     0
  0
VISUALSTYLE
  5
2D
102
{ACAD_REACTORS
330
2A
102
}
330
2A
100
AcDbVisualStyle
  2
Gouraud
 70
     2
 71
     2
 72
     2
 73
     1
 90
        2
 40
-0.6
 41
30.0
 62
     5
 63
     7
 74
     0
 91
        4
 64
     7
 65
   257
 75
     1
175
     1
 42
1.0
 92
        0
 66
     7
 43
1.0
 76
     1
 77
     6
 78
     2
 67
     7
 79
     5
170
     0
171
     0
290
     0
174
     0
 93
       13
 44
0.0
173
     0
291
     1
 45
0.0
1001
ACAD
1000
AcDbSavedByObjectVersion
1070
     0
  0
VISUALSTYLE
  5
2E
102
{ACAD_REACTORS
330
2A
102
}
330
2A
100
AcDbVisualStyle
  2
GouraudWithEdges
 70
     3
 71
     2
 72
     2
 73
     1
 90
        2
 40
-0.6
 41
30.0
 62
     5
 63
     7
 74
     1
 91
        4
 64
     7
 65
   257
 75
     1
175
     1
 42
1.0
 92
        0
 66
   257
 43
1.0
 76
     1
 77
     6
 78
     2
 67
     7
 79
     5
170
     0
171
     0
290
     0
174
     0
 93
       13
 44
0.0
173
     0
291
     1
 45
0.0
1001
ACAD
1000
AcDbSavedByObjectVersion
1070
     0
  0
VISUALSTYLE
  5
38
102
{ACAD_REACTORS
330
2A
102
}
330
2A
100
AcDbVisualStyle
  2
Linepattern
 70
    14
 71
     2
 72
     2
 73
     0
 90
        0
 40
-0.6
 41
-30.0
 62
     5
 63
     7
 74
     1
 91
        4
 64
     7
 65
   257
 75
     7
175
     7
 42
1.0
 92
        8
 66
     7
 43
1.0
 76
     1
 77
     6
 78
     2
 67
     7
 79
     5
170
     0
171
     0
290
     0
174
     0
 93
        1
 44
0.0
173
     0
291
     1
 45
0.0
1001
ACAD
1000
AcDbSavedByObjectVersion
1070
     0
  0
VISUALSTYLE
  5
33
102
{ACAD_REACTORS
330
2A
102
}
330
2A
100
AcDbVisualStyle
  2
Realistic
 70
     8
 71
     2
 72
     2
 73
     0
 90
        0
 40
-0.6
 41
-30.0
 62
     5
 63
     7
 74
     1
 91
        0
 64
     7
 65
   257
 75
     1
175
     1
 42
1.0
 92
        8
 66
     8
 43
1.0
 76
     1
 77
     6
 78
     2
 67
     7
 79
     5
170
     0
171
     0
290
     0
174
     0
 93
       13
 44
0.0
173
     0
291
     0
 45
0.0
1001
ACAD
1000
AcDbSavedByObjectVersion
1070
     0
  0
VISUALSTYLE
  5
37
102
{ACAD_REACTORS
330
2A
102
}
330
2A
100
AcDbVisualStyle
  2
Thicken
 70
    13
 71
     2
 72
     2
 73
     0
 90
        0
 40
-0.6
 41
-30.0
 62
     5
 63
     7
 74
     1
 91
        4
 64
     7
 65
   257
 75
     1
175
     1
 42
1.0
 92
       12
 66
     7
 43
1.0
 76
     1
 77
     6
 78
     2
 67
     7
 79
     5
170
     0
171
     0
290
     0
174
     0
 93
        1
 44
0.0
173
     0
291
     1
 45
0.0
1001
ACAD
1000
AcDbSavedByObjectVersion
1070
     0
  0
DICTIONARYVAR
  5
12E
102
{ACAD_REACTORS
330
12A
102
}
330
12A
100
DictionaryVariables
280
     0
  1
80.000000
  0
DICTIONARYVAR
  5
12D
102
{ACAD_REACTORS
330
12A
102
}
330
12A
100
DictionaryVariables
280
     0
  1
5.000000
  0
ENDSEC
  0
EOF
