  0
SECTION
  2
HEADER
  9
$ACADVER
  1
AC1024
  9
$ACADMAINTVER
 70
     6
  9
$DWGCODEPAGE
  3
ANSI_1252
  9
$INSBASE
 10
0.0
 20
0.0
 30
0.0
  9
$EXTMIN
 10
1.000000E+20
 20
1.000000E+20
 30
1.000000E+20
  9
$EXTMAX
 10
-1.000000E+20
 20
-1.000000E+20
 30
-1.000000E+20
  9
$LIMMIN
 10
0.0
 20
0.0
  9
$LIMMAX
 10
420.0
 20
297.0
  9
$ORTHOMODE
 70
     0
  9
$REGENMODE
 70
     1
  9
$FILLMODE
 70
     1
  9
$QTEXTMODE
 70
     0
  9
$MIRRTEXT
 70
     1
  9
$LTSCALE
 40
1.0
  9
$ATTMODE
 70
     1
  9
$TEXTSIZE
 40
2.5
  9
$TRACEWID
 40
1.0
  9
$TEXTSTYLE
  7
Standard
  9
$CLAYER
  8
0
  9
$CELTYPE
  6
ByLayer
  9
$CECOLOR
 62
   256
  9
$CELTSCALE
 40
1.0
  9
$DISPSILH
 70
     0
  9
$DIMSCALE
 40
1.0
  9
$DIMASZ
 40
2.5
  9
$DIMEXO
 40
0.625
  9
$DIMDLI
 40
3.75
  9
$DIMRND
 40
0.0
  9
$DIMDLE
 40
0.0
  9
$DIMEXE
 40
1.25
  9
$DIMTP
 40
0.0
  9
$DIMTM
 40
0.0
  9
$DIMTXT
 40
2.5
  9
$DIMCEN
 40
2.5
  9
$DIMTSZ
 40
0.0
  9
$DIMTOL
 70
     0
  9
$DIMLIM
 70
     0
  9
$DIMTIH
 70
     0
  9
$DIMTOH
 70
     0
  9
$DIMSE1
 70
     0
  9
$DIMSE2
 70
     0
  9
$DIMTAD
 70
     1
  9
$DIMZIN
 70
     8
  9
$DIMBLK
  1

  9
$DIMASO
 70
     1
  9
$DIMSHO
 70
     1
  9
$DIMPOST
  1

  9
$DIMAPOST
  1

  9
$DIMALT
 70
     0
  9
$DIMALTD
 70
     3
  9
$DIMALTF
 40
0.03937
  9
$DIMLFAC
 40
1.0
  9
$DIMTOFL
 70
     1
  9
$DIMTVP
 40
0.0
  9
$DIMTIX
 70
     0
  9
$DIMSOXD
 70
     0
  9
$DIMSAH
 70
     0
  9
$DIMBLK1
  1

  9
$DIMBLK2
  1

  9
$DIMSTYLE
  2
ISO-25
  9
$DIMCLRD
 70
     0
  9
$DIMCLRE
 70
     0
  9
$DIMCLRT
 70
     0
  9
$DIMTFAC
 40
1.0
  9
$DIMGAP
 40
0.625
  9
$DIMJUST
 70
     0
  9
$DIMSD1
 70
     0
  9
$DIMSD2
 70
     0
  9
$DIMTOLJ
 70
     0
  9
$DIMTZIN
 70
     8
  9
$DIMALTZ
 70
     0
  9
$DIMALTTZ
 70
     0
  9
$DIMUPT
 70
     0
  9
$DIMDEC
 70
     2
  9
$DIMTDEC
 70
     2
  9
$DIMALTU
 70
     2
  9
$DIMALTTD
 70
     3
  9
$DIMTXSTY
  7
Standard
  9
$DIMAUNIT
 70
     0
  9
$DIMADEC
 70
     0
  9
$DIMALTRND
 40
0.0
  9
$DIMAZIN
 70
     0
  9
$DIMDSEP
 70
    44
  9
$DIMATFIT
 70
     3
  9
$DIMFRAC
 70
     0
  9
$DIMLDRBLK
  1

  9
$DIMLUNIT
 70
     2
  9
$DIMLWD
 70
    -2
  9
$DIMLWE
 70
    -2
  9
$DIMTMOVE
 70
     0
  9
$DIMFXL
 40
1.0
  9
$DIMFXLON
 70
     0
  9
$DIMJOGANG
 40
0.785398
  9
$DIMTFILL
 70
     0
  9
$DIMTFILLCLR
 70
     0
  9
$DIMARCSYM
 70
     0
  9
$DIMLTYPE
  6

  9
$DIMLTEX1
  6

  9
$DIMLTEX2
  6

  9
$DIMTXTDIRECTION
 70
     0
  9
$LUNITS
 70
     2
  9
$LUPREC
 70
     4
  9
$SKETCHINC
 40
1.0
  9
$FILLETRAD
 40
10.0
  9
$AUNITS
 70
     0
  9
$AUPREC
 70
     0
  9
$MENU
  1
.
  9
$ELEVATION
 40
0.0
  9
$PELEVATION
 40
0.0
  9
$THICKNESS
 40
0.0
  9
$LIMCHECK
 70
     0
  9
$CHAMFERA
 40
0.0
  9
$CHAMFERB
 40
0.0
  9
$CHAMFERC
 40
0.0
  9
$CHAMFERD
 40
0.0
  9
$SKPOLY
 70
     0
  9
$TDCREATE
 40
2457819.647711643
  9
$TDUCREATE
 40
2457819.606044977
  9
$TDUPDATE
 40
2457819.647712361
  9
$TDUUPDATE
 40
2457819.606045695
  9
$TDINDWG
 40
0.0000000116
  9
$TDUSRTIMER
 40
0.0000000116
  9
$USRTIMER
 70
     1
  9
$ANGBASE
 50
0.0
  9
$ANGDIR
 70
     0
  9
$PDMODE
 70
     0
  9
$PDSIZE
 40
0.0
  9
$PLINEWID
 40
0.0
  9
$SPLFRAME
 70
     0
  9
$SPLINETYPE
 70
     6
  9
$SPLINESEGS
 70
     8
  9
$HANDSEED
  5
25C
  9
$SURFTAB1
 70
     6
  9
$SURFTAB2
 70
     6
  9
$SURFTYPE
 70
     6
  9
$SURFU
 70
     6
  9
$SURFV
 70
     6
  9
$UCSBASE
  2

  9
$UCSNAME
  2

  9
$UCSORG
 10
0.0
 20
0.0
 30
0.0
  9
$UCSXDIR
 10
1.0
 20
0.0
 30
0.0
  9
$UCSYDIR
 10
0.0
 20
1.0
 30
0.0
  9
$UCSORTHOREF
  2

  9
$UCSORTHOVIEW
 70
     0
  9
$UCSORGTOP
 10
0.0
 20
0.0
 30
0.0
  9
$UCSORGBOTTOM
 10
0.0
 20
0.0
 30
0.0
  9
$UCSORGLEFT
 10
0.0
 20
0.0
 30
0.0
  9
$UCSORGRIGHT
 10
0.0
 20
0.0
 30
0.0
  9
$UCSORGFRONT
 10
0.0
 20
0.0
 30
0.0
  9
$UCSORGBACK
 10
0.0
 20
0.0
 30
0.0
  9
$PUCSBASE
  2

  9
$PUCSNAME
  2

  9
$PUCSORG
 10
0.0
 20
0.0
 30
0.0
  9
$PUCSXDIR
 10
1.0
 20
0.0
 30
0.0
  9
$PUCSYDIR
 10
0.0
 20
1.0
 30
0.0
  9
$PUCSORTHOREF
  2

  9
$PUCSORTHOVIEW
 70
     0
  9
$PUCSORGTOP
 10
0.0
 20
0.0
 30
0.0
  9
$PUCSORGBOTTOM
 10
0.0
 20
0.0
 30
0.0
  9
$PUCSORGLEFT
 10
0.0
 20
0.0
 30
0.0
  9
$PUCSORGRIGHT
 10
0.0
 20
0.0
 30
0.0
  9
$PUCSORGFRONT
 10
0.0
 20
0.0
 30
0.0
  9
$PUCSORGBACK
 10
0.0
 20
0.0
 30
0.0
  9
$USERI1
 70
     0
  9
$USERI2
 70
     0
  9
$USERI3
 70
     0
  9
$USERI4
 70
     0
  9
$USERI5
 70
     0
  9
$USERR1
 40
0.0
  9
$USERR2
 40
0.0
  9
$USERR3
 40
0.0
  9
$USERR4
 40
0.0
  9
$USERR5
 40
0.0
  9
$WORLDVIEW
 70
     1
  9
$SHADEDGE
 70
     3
  9
$SHADEDIF
 70
    70
  9
$TILEMODE
 70
     1
  9
$MAXACTVP
 70
    64
  9
$PINSBASE
 10
0.0
 20
0.0
 30
0.0
  9
$PLIMCHECK
 70
     0
  9
$PEXTMIN
 10
1.000000E+20
 20
1.000000E+20
 30
1.000000E+20
  9
$PEXTMAX
 10
-1.000000E+20
 20
-1.000000E+20
 30
-1.000000E+20
  9
$PLIMMIN
 10
0.0
 20
0.0
  9
$PLIMMAX
 10
420.0
 20
297.0
  9
$UNITMODE
 70
     0
  9
$VISRETAIN
 70
     1
  9
$PLINEGEN
 70
     0
  9
$PSLTSCALE
 70
     1
  9
$TREEDEPTH
 70
  3020
  9
$CMLSTYLE
  2
Standard
  9
$CMLJUST
 70
     0
  9
$CMLSCALE
 40
20.0
  9
$PROXYGRAPHICS
 70
     1
  9
$MEASUREMENT
 70
     1
  9
$CELWEIGHT
370
    -1
  9
$ENDCAPS
280
     0
  9
$JOINSTYLE
280
     0
  9
$LWDISPLAY
290
     0
  9
$INSUNITS
 70
     4
  9
$HYPERLINKBASE
  1

  9
$STYLESHEET
  1

  9
$XEDIT
290
     1
  9
$CEPSNTYPE
380
     0
  9
$PSTYLEMODE
290
     1
  9
$FINGERPRINTGUID
  2
{FB9541B0-4234-4417-BBCC-7AE836754F0E}
  9
$VERSIONGUID
  2
{FAEB1C32-E019-11D5-929B-00C0DF256EC4}
  9
$EXTNAMES
290
     1
  9
$PSVPSCALE
 40
0.0
  9
$OLESTARTUP
290
     0
  9
$SORTENTS
280
   127
  9
$INDEXCTL
280
     0
  9
$HIDETEXT
280
     1
  9
$XCLIPFRAME
280
     2
  9
$HALOGAP
280
     0
  9
$OBSCOLOR
 70
   257
  9
$OBSLTYPE
280
     0
  9
$INTERSECTIONDISPLAY
280
     0
  9
$INTERSECTIONCOLOR
 70
   257
  9
$DIMASSOC
280
     2
  9
$PROJECTNAME
  1

  9
$CAMERADISPLAY
290
     0
  9
$LENSLENGTH
 40
50.0
  9
$CAMERAHEIGHT
 40
0.0
  9
$STEPSPERSEC
 40
2.0
  9
$STEPSIZE
 40
6.0
  9
$3DDWFPREC
 40
2.0
  9
$PSOLWIDTH
 40
5.0
  9
$PSOLHEIGHT
 40
80.0
  9
$LOFTANG1
 40
1.570796
  9
$LOFTANG2
 40
1.570796
  9
$LOFTMAG1
 40
0.0
  9
$LOFTMAG2
 40
0.0
  9
$LOFTPARAM
 70
     7
  9
$LOFTNORMALS
280
     1
  9
$LATITUDE
 40
37.795
  9
$LONGITUDE
 40
-122.394
  9
$NORTHDIRECTION
 40
0.0
  9
$TIMEZONE
 70
 -8000
  9
$LIGHTGLYPHDISPLAY
280
     1
  9
$TILEMODELIGHTSYNCH
280
     1
  9
$CMATERIAL
347
44
  9
$SOLIDHIST
280
     0
  9
$SHOWHIST
280
     1
  9
$DWFFRAME
280
     2
  9
$DGNFRAME
280
     2
  9
$REALWORLDSCALE
290
     1
  9
$INTERFERECOLOR
 62
   256
  9
$CSHADOW
280
     0
  9
$SHADOWPLANELOCATION
 40
0.0
  0
ENDSEC
  0
SECTION
  2
CLASSES
  0
CLASS
  1
ACDBDICTIONARYWDFLT
  2
AcDbDictionaryWithDefault
  3
ObjectDBX Classes
 90
        0
 91
        4
280
     0
281
     0
  0
CLASS
  1
VISUALSTYLE
  2
AcDbVisualStyle
  3
ObjectDBX Classes
 90
     4095
 91
        4
280
     0
281
     0
  0
CLASS
  1
MATERIAL
  2
AcDbMaterial
  3
ObjectDBX Classes
 90
     1153
 91
        4
280
     0
281
     0
  0
CLASS
  1
SCALE
  2
AcDbScale
  3
ObjectDBX Classes
 90
     1153
 91
        4
280
     0
281
     0
  0
CLASS
  1
TABLESTYLE
  2
AcDbTableStyle
  3
ObjectDBX Classes
 90
     4095
 91
        4
280
     0
281
     0
  0
CLASS
  1
MLEADERSTYLE
  2
AcDbMLeaderStyle
  3
ACDB_MLEADERSTYLE_CLASS
 90
     4095
 91
        4
280
     0
281
     0
  0
CLASS
  1
SUN
  2
AcDbSun
  3
SCENEOE
 90
     1153
 91
        4
280
     0
281
     0
  0
CLASS
  1
DICTIONARYVAR
  2
AcDbDictionaryVar
  3
ObjectDBX Classes
 90
        0
 91
        4
280
     0
281
     0
  0
CLASS
  1
CELLSTYLEMAP
  2
AcDbCellStyleMap
  3
ObjectDBX Classes
 90
     1152
 91
        4
280
     0
281
     0
  0
ENDSEC
  0
SECTION
  2
TABLES
  0
TABLE
  2
VPORT
  5
8
330
0
100
AcDbSymbolTable
 70
     1
  0
VPORT
  5
29
330
8
100
AcDbSymbolTableRecord
100
AcDbViewportTableRecord
  2
*Active
 70
     0
 10
0.0
 20
0.0
 11
1.0
 21
1.0
 12
344.186916
 22
148.5
 13
0.0
 23
0.0
 14
10.0
 24
10.0
 15
10.0
 25
10.0
 16
0.0
 26
0.0
 36
1.0
 17
0.0
 27
0.0
 37
0.0
 40
297.0
 41
1.972973
 42
50.0
 43
0.0
 44
0.0
 50
0.0
 51
0.0
 71
     0
 72
   100
 73
     1
 74
     3
 75
     0
 76
     0
 77
     0
 78
     0
281
     0
 65
     1
110
0.0
120
0.0
130
0.0
111
1.0
121
0.0
131
0.0
112
0.0
122
1.0
132
0.0
 79
     0
146
0.0
348
2F
 60
     3
 61
     5
292
     1
282
     1
141
0.0
142
0.0
 63
   250
361
6D
  0
ENDTAB
  0
TABLE
  2
LTYPE
  5
5
330
0
100
AcDbSymbolTable
 70
     1
  0
LTYPE
  5
14
330
5
100
AcDbSymbolTableRecord
100
AcDbLinetypeTableRecord
  2
ByBlock
 70
     0
  3

 72
    65
 73
     0
 40
0.0
  0
LTYPE
  5
15
330
5
100
AcDbSymbolTableRecord
100
AcDbLinetypeTableRecord
  2
ByLayer
 70
     0
  3

 72
    65
 73
     0
 40
0.0
  0
LTYPE
  5
16
330
5
100
AcDbSymbolTableRecord
100
AcDbLinetypeTableRecord
  2
Continuous
 70
     0
  3
Solid line
 72
    65
 73
     0
 40
0.0
  0
ENDTAB
  0
TABLE
  2
LAYER
  5
2
330
0
100
AcDbSymbolTable
 70
     1
  0
LAYER
  5
10
330
2
100
AcDbSymbolTableRecord
100
AcDbLayerTableRecord
  2
0
 70
     0
 62
   106
  6
Continuous
370
     0
390
F
347
46
  0
ENDTAB
  0
TABLE
  2
STYLE
  5
3
330
0
100
AcDbSymbolTable
 70
     4
  0
STYLE
  5
11
330
3
100
AcDbSymbolTableRecord
100
AcDbTextStyleTableRecord
  2
Standard
 70
     0
 40
0.0
 41
1.0
 50
0.0
 71
     0
 42
2.5
  3
txt
  4

  0
STYLE
  5
6E
330
3
100
AcDbSymbolTableRecord
100
AcDbTextStyleTableRecord
  2
Default
 70
     0
 40
0.0
 41
1.0
 50
0.0
 71
     0
 42
2.5
  3

  4

1001
ACAD
1000
txt
1071
        0
  0
STYLE
  5
6F
330
3
100
AcDbSymbolTableRecord
100
AcDbTextStyleTableRecord
  2
ISO
 70
     0
 40
0.0
 41
1.0
 50
0.0
 71
     0
 42
2.5
  3

  4

1001
ACAD
1000
txt
1071
        0
  0
STYLE
  5
70
330
3
100
AcDbSymbolTableRecord
100
AcDbTextStyleTableRecord
  2
zucchetti
 70
     0
 40
0.0
 41
1.0
 50
0.0
 71
     0
 42
2.5
  3

  4

1001
ACAD
1000
Arial
1071
        0
  0
ENDTAB
  0
TABLE
  2
VIEW
  5
6
330
0
100
AcDbSymbolTable
 70
     0
  0
ENDTAB
  0
TABLE
  2
UCS
  5
7
330
0
100
AcDbSymbolTable
 70
     0
  0
ENDTAB
  0
TABLE
  2
APPID
  5
9
330
0
100
AcDbSymbolTable
 70
     1
  0
APPID
  5
12
330
9
100
AcDbSymbolTableRecord
100
AcDbRegAppTableRecord
  2
ACAD
 70
     0
  0
ENDTAB
  0
TABLE
  2
DIMSTYLE
  5
A
330
0
100
AcDbSymbolTable
 70
     4
100
AcDbDimStyleTable
  0
DIMSTYLE
105
27
330
A
100
AcDbSymbolTableRecord
100
AcDbDimStyleTableRecord
  2
ISO-25
 70
     0
 41
2.5
 42
0.625
 43
3.75
 44
1.25
 73
     0
 74
     0
 77
     1
 78
     8
140
2.5
141
2.5
143
0.03937
147
0.625
171
     3
172
     1
178
     0
271
     2
272
     2
274
     3
278
    44
283
     0
284
     8
340
11
  0
DIMSTYLE
105
71
330
A
100
AcDbSymbolTableRecord
100
AcDbDimStyleTableRecord
  2
Default
 70
     0
  3
<>
 41
4.375
 42
1.05
 44
2.1
 49
10.01
 73
     0
 74
     0
 77
     1
 78
     8
140
3.5
146
0.4
147
1.75
172
     1
271
     2
178
     3
271
     2
272
     3
284
     8
340
6E
341
72
342
72
  0
DIMSTYLE
105
79
330
A
100
AcDbSymbolTableRecord
100
AcDbDimStyleTableRecord
  2
ISO
 70
     0
  3
<>
 41
4.375
 42
1.05
 44
2.1
 49
10.01
 73
     0
 74
     0
 77
     1
 78
     8
140
3.5
146
0.4
147
1.75
172
     1
271
     2
178
     3
271
     2
272
     3
284
     8
340
6F
341
72
342
72
  0
DIMSTYLE
105
7A
330
A
100
AcDbSymbolTableRecord
100
AcDbDimStyleTableRecord
  2
zucchetti
 70
     0
  3
<>
 41
3.0
 42
0.9
 44
1.8
 49
8.58
 73
     0
 74
     0
 77
     1
 78
     8
140
3.0
146
0.6
147
1.5
172
     1
176
     3
177
     3
271
     2
178
     3
271
     2
272
     2
284
     8
340
70
  0
ENDTAB
  0
TABLE
  2
BLOCK_RECORD
  5
1
330
0
100
AcDbSymbolTable
 70
     7
  0
BLOCK_RECORD
  5
1F
330
1
100
AcDbSymbolTableRecord
100
AcDbBlockTableRecord
  2
*Model_Space
340
22
 70
     0
280
     1
281
     0
  0
BLOCK_RECORD
  5
1B
330
1
100
AcDbSymbolTableRecord
100
AcDbBlockTableRecord
  2
*Paper_Space
340
1E
 70
     0
280
     1
281
     0
  0
BLOCK_RECORD
  5
23
330
1
100
AcDbSymbolTableRecord
100
AcDbBlockTableRecord
  2
*Paper_Space0
340
26
 70
     0
280
     1
281
     0
  0
BLOCK_RECORD
  5
72
330
1
100
AcDbSymbolTableRecord
100
AcDbBlockTableRecord
  2
_CLOSED
340
0
 70
     0
280
     1
281
     0
  0
BLOCK_RECORD
  5
7B
330
1
100
AcDbSymbolTableRecord
100
AcDbBlockTableRecord
  2
a
340
0
102
{BLKREFS
331
A1
102
}
 70
     0
280
     1
281
     0
  0
BLOCK_RECORD
  5
A2
330
1
100
AcDbSymbolTableRecord
100
AcDbBlockTableRecord
  2
b
340
0
102
{BLKREFS
331
109
102
}
 70
     0
280
     1
281
     0
  0
BLOCK_RECORD
  5
10A
330
1
100
AcDbSymbolTableRecord
100
AcDbBlockTableRecord
  2
c
340
0
102
{BLKREFS
331
157
102
}
 70
     0
280
     1
281
     0
  0
BLOCK_RECORD
  5
158
330
1
100
AcDbSymbolTableRecord
100
AcDbBlockTableRecord
  2
d
340
0
102
{BLKREFS
331
1D8
102
}
 70
     0
280
     1
281
     0
  0
BLOCK_RECORD
  5
1D9
330
1
100
AcDbSymbolTableRecord
100
AcDbBlockTableRecord
  2
e
340
0
102
{BLKREFS
331
222
102
}
 70
     0
280
     1
281
     0
  0
ENDTAB
  0
ENDSEC
  0
SECTION
  2
BLOCKS
  0
BLOCK
  5
20
330
1F
100
AcDbEntity
  8
0
100
AcDbBlockBegin
  2
*Model_Space
 70
     0
 10
0.0
 20
0.0
 30
0.0
  3
*Model_Space
  1

  0
ENDBLK
  5
21
330
1F
100
AcDbEntity
  8
0
100
AcDbBlockEnd
  0
BLOCK
  5
1C
330
1B
100
AcDbEntity
 67
     1
  8
0
100
AcDbBlockBegin
  2
*Paper_Space
 70
     0
 10
0.0
 20
0.0
 30
0.0
  3
*Paper_Space
  1

  0
ENDBLK
  5
1D
330
1B
100
AcDbEntity
 67
     1
  8
0
100
AcDbBlockEnd
  0
BLOCK
  5
24
330
23
100
AcDbEntity
  8
0
100
AcDbBlockBegin
  2
*Paper_Space0
 70
     0
 10
0.0
 20
0.0
 30
0.0
  3
*Paper_Space0
  1

  0
ENDBLK
  5
25
330
23
100
AcDbEntity
  8
0
100
AcDbBlockEnd
  0
BLOCK
  5
73
330
72
100
AcDbEntity
  8
0
100
AcDbBlockBegin
  2
_CLOSED
 70
     0
 10
0.0
 20
0.0
 30
0.0
  3
_CLOSED
  1

  0
LINE
  5
75
330
72
100
AcDbEntity
  8
0
  6
ByBlock
 62
     0
370
    -2
100
AcDbLine
 10
-1.0
 20
0.166667
 30
0.0
 11
0.0
 21
0.0
 31
0.0
  0
LINE
  5
76
330
72
100
AcDbEntity
  8
0
  6
ByBlock
 62
     0
370
    -2
100
AcDbLine
 10
0.0
 20
0.0
 30
0.0
 11
-1.0
 21
-0.166667
 31
0.0
  0
LINE
  5
77
330
72
100
AcDbEntity
  8
0
  6
ByBlock
 62
     0
370
    -2
100
AcDbLine
 10
-1.0
 20
0.166667
 30
0.0
 11
-1.0
 21
-0.166667
 31
0.0
  0
LINE
  5
78
330
72
100
AcDbEntity
  8
0
  6
ByBlock
 62
     0
370
    -2
100
AcDbLine
 10
0.0
 20
0.0
 30
0.0
 11
-1.0
 21
0.0
 31
0.0
  0
ENDBLK
  5
74
330
72
100
AcDbEntity
  8
0
100
AcDbBlockEnd
  0
BLOCK
  5
9F
330
7B
100
AcDbEntity
  8
0
100
AcDbBlockBegin
  2
a
 70
     0
 10
15.948711
 20
90.780327
 30
0.0
  3
a
  1

  0
ARC
  5
7C
330
7B
100
AcDbEntity
  8
0
  6
Continuous
 62
     0
370
    30
100
AcDbCircle
 10
70.734838
 20
807.23398
 30
0.0
 40
8.391206355691178
100
AcDbArc
 50
3.561542
 51
176.438458
  0
ARC
  5
7D
330
7B
100
AcDbEntity
  8
0
  6
Continuous
 62
     0
370
    30
100
AcDbCircle
 10
70.734838
 20
808.276521
 30
0.0
 40
8.391206844921484
100
AcDbArc
 50
183.561595
 51
356.438405
  0
ARC
  5
7E
330
7B
100
AcDbEntity
  8
0
  6
Continuous
 62
     0
370
    30
100
AcDbCircle
 10
70.734838
 20
808.377594
 30
0.0
 40
8.641691091577183
100
AcDbArc
 50
183.561644
 51
356.438356
  0
ARC
  5
7F
330
7B
100
AcDbEntity
  8
0
  6
Continuous
 62
     0
370
    30
100
AcDbCircle
 10
70.734838
 20
807.303909
 30
0.0
 40
8.641691112905267
100
AcDbArc
 50
3.561647
 51
176.438353
  0
ELLIPSE
  5
80
330
7B
100
AcDbEntity
  8
0
  6
Continuous
 62
     0
370
    30
100
AcDbEllipse
 10
70.734838
 20
806.712085
 30
0.0
 11
-8.375
 21
0.0
 31
0.0
210
0.0
220
0.0
230
1.0
 40
0.939693
 41
3.273225685509821
 42
6.151552275248619
  0
ARC
  5
81
330
7B
100
AcDbEntity
  8
0
  6
Continuous
 62
     0
370
     0
100
AcDbCircle
 10
86.080649
 20
691.581955
 30
0.0
 40
1.032948712835687
100
AcDbArc
 50
47.828984
 51
107.10644
  0
LWPOLYLINE
  5
82
330
7B
100
AcDbEntity
  8
0
  6
Continuous
 62
     0
370
     0
100
AcDbPolyline
 90
        7
 70
     0
 43
0.0
 10
85.77681
 20
692.569214
 10
86.004944
 20
690.137817
 10
86.276367
 20
687.734802
 10
86.592293
 20
685.364258
 10
86.954185
 20
683.030334
 10
87.363213
 20
680.73761
 10
87.853165
 20
678.340759
  0
LWPOLYLINE
  5
83
330
7B
100
AcDbEntity
  8
0
  6
Continuous
 62
     0
370
     0
100
AcDbPolyline
 90
       15
 70
     0
 43
0.0
 10
86.774162
 20
692.346985
 10
86.865181
 20
691.309814
 10
86.963699
 20
690.277527
 10
87.069839
 20
689.250427
 10
87.183693
 20
688.228699
 10
87.305359
 20
687.212585
 10
87.434944
 20
686.202454
 10
87.572548
 20
685.198608
 10
87.718262
 20
684.201355
 10
87.872185
 20
683.210999
 10
88.034401
 20
682.227966
 10
88.205002
 20
681.252502
 10
88.384071
 20
680.285034
 10
88.571686
 20
679.325867
 10
88.775291
 20
678.340759
  0
LWPOLYLINE
  5
84
330
7B
100
AcDbEntity
  8
0
  6
Continuous
 62
     0
370
    30
100
AcDbPolyline
 90
       88
 70
     0
 43
0.0
 10
86.774063
 20
692.346985
 10
86.697357
 20
693.59198
 10
86.642227
 20
694.843201
 10
86.608673
 20
696.100159
 10
86.596756
 20
697.364075
 10
86.612549
 20
698.648926
 10
86.630661
 20
699.947998
 10
86.64856
 20
701.247314
 10
86.666222
 20
702.546326
 10
86.683655
 20
703.845276
 10
86.700851
 20
705.144165
 10
86.717819
 20
706.442871
 10
86.73455
 20
707.741577
 10
86.751045
 20
709.0401
 10
86.767303
 20
710.338501
 10
86.783318
 20
711.636841
 10
86.799095
 20
712.935059
 10
86.814621
 20
714.233154
 10
86.829903
 20
715.531128
 10
86.844933
 20
716.829041
 10
86.859711
 20
718.12677
 10
86.874245
 20
719.424438
 10
86.888519
 20
720.721985
 10
86.902534
 20
722.019348
 10
86.916298
 20
723.31665
 10
86.929794
 20
724.613831
 10
86.943039
 20
725.910828
 10
86.956009
 20
727.207764
 10
86.968719
 20
728.504517
 10
86.981155
 20
729.801208
 10
86.993324
 20
731.097717
 10
87.005219
 20
732.394104
 10
87.016838
 20
733.690369
 10
87.028183
 20
734.986511
 10
87.039246
 20
736.282532
 10
87.050026
 20
737.578369
 10
87.060532
 20
738.874084
 10
87.07074
 20
740.169678
 10
87.080666
 20
741.465088
 10
87.090302
 20
742.760376
 10
87.099648
 20
744.055542
 10
87.108696
 20
745.350525
 10
87.117447
 20
746.645386
 10
87.1259
 20
747.940063
 10
87.134048
 20
749.234619
 10
87.141899
 20
750.528992
 10
87.149437
 20
751.823242
 10
87.15667
 20
753.11731
 10
87.163589
 20
754.411255
 10
87.170197
 20
755.704956
 10
87.176483
 20
756.998535
 10
87.182457
 20
758.291992
 10
87.18811
 20
759.585327
 10
87.193436
 20
760.878357
 10
87.198433
 20
762.171021
 10
87.203102
 20
763.464172
 10
87.207443
 20
764.757019
 10
87.211449
 20
766.048767
 10
87.215141
 20
767.340942
 10
87.218521
 20
768.633179
 10
87.221581
 20
769.924744
 10
87.224327
 20
771.216309
 10
87.226746
 20
772.507874
 10
87.228851
 20
773.799133
 10
87.230637
 20
775.09021
 10
87.232101
 20
776.381042
 10
87.233246
 20
777.671692
 10
87.234085
 20
778.962158
 10
87.234604
 20
780.25238
 10
87.234833
 20
781.555908
 10
87.23484
 20
782.86908
 10
87.23484
 20
784.182678
 10
87.23484
 20
785.48291
 10
87.23484
 20
786.759277
 10
87.23484
 20
788.00293
 10
87.23484
 20
789.206421
 10
87.23484
 20
790.363831
 10
87.23484
 20
791.469788
 10
87.23484
 20
792.52002
 10
87.23484
 20
793.510742
 10
87.23484
 20
794.438538
 10
87.23484
 20
795.30011
 10
87.23484
 20
796.092773
 10
87.23484
 20
796.81366
 10
87.23484
 20
797.459473
 10
87.23484
 20
798.026855
 10
87.23484
 20
798.512878
 10
87.23484
 20
798.916321
  0
ARC
  5
85
330
7B
100
AcDbEntity
  8
0
  6
Continuous
 62
     0
370
    30
100
AcDbCircle
 10
86.262803
 20
798.946067
 30
0.0
 40
0.9724903549675357
100
AcDbArc
 50
268.35219
 51
358.247169
  0
LWPOLYLINE
  5
86
330
7B
100
AcDbEntity
  8
0
  6
Continuous
 62
     0
370
     0
100
AcDbPolyline
 90
      256
 70
     0
 43
0.0
 10
85.77681
 20
692.569214
 10
85.747787
 20
692.993347
 10
85.721306
 20
693.418457
 10
85.697372
 20
693.844299
 10
85.675995
 20
694.270935
 10
85.657166
 20
694.698303
 10
85.640884
 20
695.126404
 10
85.627151
 20
695.555359
 10
85.615967
 20
695.984619
 10
85.607338
 20
696.416138
 10
85.601219
 20
696.841309
 10
85.597717
 20
697.294617
 10
85.59684
 20
697.646667
 10
85.602386
 20
698.08844
 10
85.608589
 20
698.533691
 10
85.614838
 20
698.976685
 10
85.621025
 20
699.420898
 10
85.627197
 20
699.864685
 10
85.633347
 20
700.308228
 10
85.639473
 20
700.751648
 10
85.645569
 20
701.195251
 10
85.651634
 20
701.638916
 10
85.657677
 20
702.082642
 10
85.663689
 20
702.526306
 10
85.669678
 20
702.969971
 10
85.675644
 20
703.413513
 10
85.681572
 20
703.857117
 10
85.687485
 20
704.30072
 10
85.693359
 20
704.744263
 10
85.699219
 20
705.187866
 10
85.70504
 20
705.631409
 10
85.710838
 20
706.074951
 10
85.716614
 20
706.518494
 10
85.722359
 20
706.961975
 10
85.728073
 20
707.405518
 10
85.733765
 20
707.848999
 10
85.739426
 20
708.29248
 10
85.745056
 20
708.735962
 10
85.750664
 20
709.179382
 10
85.756241
 20
709.622864
 10
85.761787
 20
710.066284
 10
85.767311
 20
710.509705
 10
85.772804
 20
710.953125
 10
85.778275
 20
711.396484
 10
85.783714
 20
711.839905
 10
85.789124
 20
712.283264
 10
85.794502
 20
712.726624
 10
85.79985
 20
713.169922
 10
85.805176
 20
713.613281
 10
85.810471
 20
714.05658
 10
85.815742
 20
714.499878
 10
85.820976
 20
714.943176
 10
85.826187
 20
715.386475
 10
85.831367
 20
715.829773
 10
85.836517
 20
716.27301
 10
85.841644
 20
716.716248
 10
85.846733
 20
717.159485
 10
85.851799
 20
717.602661
 10
85.856834
 20
718.045898
 10
85.861839
 20
718.489075
 10
85.866814
 20
718.932251
 10
85.871765
 20
719.375427
 10
85.876678
 20
719.818542
 10
85.881569
 20
720.261719
 10
85.886421
 20
720.704834
 10
85.891251
 20
721.147949
 10
85.896049
 20
721.591003
 10
85.900818
 20
722.034119
 10
85.905556
 20
722.477173
 10
85.910263
 20
722.920227
 10
85.91494
 20
723.363281
 10
85.919586
 20
723.806274
 10
85.924202
 20
724.249268
 10
85.928787
 20
724.692322
 10
85.933342
 20
725.135254
 10
85.937866
 20
725.578247
 10
85.942368
 20
726.021179
 10
85.946831
 20
726.464172
 10
85.951263
 20
726.907104
 10
85.955666
 20
727.349976
 10
85.96003
 20
727.792908
 10
85.964371
 20
728.235779
 10
85.968681
 20
728.67865
 10
85.972954
 20
729.121521
 10
85.977203
 20
729.564331
 10
85.981415
 20
730.007141
 10
85.985603
 20
730.449951
 10
85.989754
 20
730.892761
 10
85.993874
 20
731.335571
 10
85.997955
 20
731.77832
 10
86.002014
 20
732.221069
 10
86.006035
 20
732.663818
 10
86.010025
 20
733.106567
 10
86.013985
 20
733.549255
 10
86.017914
 20
733.991943
 10
86.021812
 20
734.434631
 10
86.025673
 20
734.877258
 10
86.029503
 20
735.319946
 10
86.033302
 20
735.762573
 10
86.037064
 20
736.2052
 10
86.040794
 20
736.647766
 10
86.044495
 20
737.090393
 10
86.048164
 20
737.532959
 10
86.051796
 20
737.975464
 10
86.055397
 20
738.41803
 10
86.058968
 20
738.860535
 10
86.0625
 20
739.30304
 10
86.066002
 20
739.745544
 10
86.069466
 20
740.188049
 10
86.072899
 20
740.630493
 10
86.076302
 20
741.072937
 10
86.079666
 20
741.515381
 10
86.083
 20
741.957764
 10
86.086296
 20
742.400146
 10
86.089561
 20
742.842529
 10
86.092796
 20
743.284912
 10
86.095993
 20
743.727234
 10
86.099152
 20
744.169556
 10
86.10228
 20
744.611877
 10
86.105377
 20
745.054199
 10
86.108429
 20
745.49646
 10
86.111458
 20
745.938721
 10
86.114449
 20
746.380981
 10
86.117401
 20
746.823181
 10
86.120323
 20
747.265381
 10
86.123207
 20
747.707581
 10
86.126053
 20
748.14978
 10
86.128868
 20
748.591919
 10
86.131653
 20
749.034058
 10
86.134392
 20
749.476196
 10
86.1371
 20
749.918335
 10
86.139778
 20
750.360413
 10
86.142418
 20
750.80249
 10
86.14502
 20
751.244507
 10
86.147583
 20
751.686584
 10
86.150108
 20
752.128601
 10
86.152603
 20
752.570557
 10
86.15506
 20
753.012573
 10
86.157486
 20
753.454529
 10
86.159874
 20
753.896484
 10
86.162216
 20
754.338379
 10
86.164536
 20
754.780334
 10
86.166809
 20
755.222168
 10
86.169044
 20
755.664062
 10
86.171249
 20
756.105896
 10
86.173416
 20
756.547791
 10
86.175545
 20
756.989563
 10
86.177635
 20
757.431396
 10
86.179688
 20
757.873169
 10
86.181702
 20
758.314941
 10
86.183685
 20
758.756653
 10
86.185623
 20
759.198364
 10
86.187531
 20
759.640076
 10
86.1894
 20
760.081787
 10
86.191223
 20
760.523438
 10
86.193016
 20
760.965088
 10
86.194771
 20
761.406677
 10
86.19648
 20
761.848328
 10
86.198158
 20
762.289917
 10
86.199799
 20
762.731445
 10
86.201393
 20
763.173035
 10
86.202957
 20
763.614563
 10
86.204475
 20
764.05603
 10
86.205963
 20
764.497559
 10
86.207405
 20
764.938965
 10
86.208817
 20
765.380432
 10
86.210182
 20
765.821838
 10
86.21151
 20
766.263245
 10
86.212807
 20
766.704651
 10
86.214066
 20
767.145996
 10
86.215286
 20
767.587341
 10
86.216469
 20
768.028687
 10
86.217613
 20
768.469971
 10
86.218727
 20
768.911255
 10
86.219803
 20
769.352539
 10
86.22084
 20
769.793762
 10
86.22184
 20
770.234985
 10
86.222801
 20
770.676147
 10
86.223724
 20
771.117371
 10
86.224617
 20
771.558472
 10
86.225464
 20
771.999634
 10
86.22628
 20
772.440735
 10
86.227058
 20
772.881836
 10
86.227798
 20
773.322876
 10
86.2285
 20
773.763916
 10
86.229164
 20
774.204956
 10
86.22979
 20
774.645935
 10
86.230377
 20
775.086914
 10
86.230934
 20
775.527893
 10
86.231445
 20
775.968811
 10
86.231926
 20
776.409729
 10
86.232368
 20
776.850586
 10
86.232773
 20
777.291504
 10
86.233139
 20
777.732361
 10
86.233475
 20
778.173096
 10
86.233765
 20
778.613831
 10
86.234024
 20
779.054626
 10
86.234245
 20
779.495544
 10
86.234436
 20
779.935974
 10
86.234581
 20
780.37854
 10
86.234703
 20
780.788757
 10
86.234787
 20
781.193298
 10
86.234833
 20
781.605164
 10
86.23484
 20
782.017578
 10
86.23484
 20
782.431396
 10
86.23484
 20
782.846619
 10
86.23484
 20
783.262146
 10
86.23484
 20
783.67749
 10
86.23484
 20
784.092224
 10
86.23484
 20
784.506104
 10
86.23484
 20
784.918579
 10
86.23484
 20
785.329224
 10
86.23484
 20
785.737732
 10
86.23484
 20
786.143738
 10
86.23484
 20
786.546814
 10
86.23484
 20
786.946777
 10
86.23484
 20
787.343262
 10
86.23484
 20
787.735962
 10
86.23484
 20
788.124573
 10
86.23484
 20
788.508911
 10
86.23484
 20
788.888672
 10
86.23484
 20
789.263611
 10
86.23484
 20
789.633545
 10
86.23484
 20
789.99823
 10
86.23484
 20
790.357483
 10
86.23484
 20
790.71106
 10
86.23484
 20
791.058899
 10
86.23484
 20
791.400757
 10
86.23484
 20
791.73645
 10
86.23484
 20
792.065857
 10
86.23484
 20
792.388855
 10
86.23484
 20
792.7052
 10
86.23484
 20
793.014771
 10
86.23484
 20
793.317383
 10
86.23484
 20
793.612976
 10
86.23484
 20
793.901428
 10
86.23484
 20
794.182556
 10
86.23484
 20
794.456238
 10
86.23484
 20
794.722351
 10
86.23484
 20
794.980835
 10
86.23484
 20
795.231567
 10
86.23484
 20
795.474365
 10
86.23484
 20
795.709167
 10
86.23484
 20
795.935852
 10
86.23484
 20
796.154236
 10
86.23484
 20
796.364197
 10
86.23484
 20
796.565674
 10
86.23484
 20
796.758423
 10
86.23484
 20
796.942383
 10
86.23484
 20
797.117371
 10
86.23484
 20
797.283325
 10
86.23484
 20
797.440063
 10
86.23484
 20
797.587524
 10
86.23484
 20
797.725647
 10
86.23484
 20
797.85437
 10
86.23484
 20
797.973999
  0
LWPOLYLINE
  5
87
330
7B
100
AcDbEntity
  8
0
  6
Continuous
 62
     0
370
     0
100
AcDbPolyline
 90
       15
 70
     0
 43
0.0
 10
54.695518
 20
692.346985
 10
54.6045
 20
691.309814
 10
54.505974
 20
690.277527
 10
54.399837
 20
689.250427
 10
54.285988
 20
688.228699
 10
54.164318
 20
687.212585
 10
54.034733
 20
686.202454
 10
53.897129
 20
685.198608
 10
53.751415
 20
684.201355
 10
53.597492
 20
683.210999
 10
53.435276
 20
682.227966
 10
53.264671
 20
681.252502
 10
53.085606
 20
680.285034
 10
52.897991
 20
679.325867
 10
52.694386
 20
678.340759
  0
LWPOLYLINE
  5
88
330
7B
100
AcDbEntity
  8
0
  6
Continuous
 62
     0
370
     0
100
AcDbPolyline
 90
        7
 70
     0
 43
0.0
 10
55.692867
 20
692.569214
 10
55.464733
 20
690.137817
 10
55.19331
 20
687.734802
 10
54.877388
 20
685.364258
 10
54.515488
 20
683.030334
 10
54.106468
 20
680.73761
 10
53.616512
 20
678.340759
  0
ARC
  5
89
330
7B
100
AcDbEntity
  8
0
  6
Continuous
 62
     0
370
     0
100
AcDbCircle
 10
55.389028
 20
691.581956
 30
0.0
 40
1.032948473614215
100
AcDbArc
 50
72.893554
 51
132.171019
  0
ARC
  5
8A
330
7B
100
AcDbEntity
  8
0
  6
Continuous
 62
     0
370
    30
100
AcDbCircle
 10
55.206874
 20
798.946067
 30
0.0
 40
0.972490250087279
100
AcDbArc
 50
181.752762
 51
271.647815
  0
LWPOLYLINE
  5
8B
330
7B
100
AcDbEntity
  8
0
  6
Continuous
 62
     0
370
    30
100
AcDbPolyline
 90
       88
 70
     0
 43
0.0
 10
54.23484
 20
798.916321
 10
54.23484
 20
798.514832
 10
54.23484
 20
798.029175
 10
54.23484
 20
797.461731
 10
54.23484
 20
796.816223
 10
54.23484
 20
796.095825
 10
54.23484
 20
795.303528
 10
54.23484
 20
794.4422
 10
54.23484
 20
793.514648
 10
54.23484
 20
792.524231
 10
54.23484
 20
791.474243
 10
54.23484
 20
790.368469
 10
54.23484
 20
789.211365
 10
54.23484
 20
788.007996
 10
54.23484
 20
786.764526
 10
54.23484
 20
785.488342
 10
54.23484
 20
784.188171
 10
54.234837
 20
782.874634
 10
54.234844
 20
781.560669
 10
54.235069
 20
780.257874
 10
54.235592
 20
778.967651
 10
54.236423
 20
777.677185
 10
54.237572
 20
776.386597
 10
54.239037
 20
775.095764
 10
54.240818
 20
773.804688
 10
54.24292
 20
772.513489
 10
54.245342
 20
771.222046
 10
54.248085
 20
769.93042
 10
54.251144
 20
768.638672
 10
54.25452
 20
767.346619
 10
54.258209
 20
766.055725
 10
54.26223
 20
764.759155
 10
54.26656
 20
763.468872
 10
54.271221
 20
762.177856
 10
54.276222
 20
760.883728
 10
54.281548
 20
759.590576
 10
54.287193
 20
758.297729
 10
54.293163
 20
757.004395
 10
54.299454
 20
755.710754
 10
54.306057
 20
754.417053
 10
54.312977
 20
753.123169
 10
54.320206
 20
751.829102
 10
54.327744
 20
750.534912
 10
54.33559
 20
749.24054
 10
54.343739
 20
747.945984
 10
54.352188
 20
746.651306
 10
54.360939
 20
745.356506
 10
54.369987
 20
744.061523
 10
54.37933
 20
742.766357
 10
54.388962
 20
741.471069
 10
54.398888
 20
740.175659
 10
54.4091
 20
738.880127
 10
54.419598
 20
737.584412
 10
54.430378
 20
736.288574
 10
54.441441
 20
734.992615
 10
54.452785
 20
733.696472
 10
54.464401
 20
732.400269
 10
54.476295
 20
731.103882
 10
54.488464
 20
729.807373
 10
54.5009
 20
728.510742
 10
54.513607
 20
727.213928
 10
54.526577
 20
725.917053
 10
54.539814
 20
724.620056
 10
54.553314
 20
723.322876
 10
54.567074
 20
722.025635
 10
54.581089
 20
720.72821
 10
54.595364
 20
719.430725
 10
54.609894
 20
718.133118
 10
54.624672
 20
716.835388
 10
54.639702
 20
715.537476
 10
54.654984
 20
714.239563
 10
54.670509
 20
712.941467
 10
54.686279
 20
711.64325
 10
54.702293
 20
710.34491
 10
54.718548
 20
709.046509
 10
54.735039
 20
707.747986
 10
54.75177
 20
706.449402
 10
54.768738
 20
705.150513
 10
54.785934
 20
703.851868
 10
54.803368
 20
702.552979
 10
54.821053
 20
701.252625
 10
54.838837
 20
699.959473
 10
54.857281
 20
698.641357
 10
54.872925
 20
697.371582
 10
54.861115
 20
696.106567
 10
54.827675
 20
694.849609
 10
54.772659
 20
693.598328
 10
54.695614
 20
692.346985
  0
LWPOLYLINE
  5
8C
330
7B
100
AcDbEntity
  8
0
  6
Continuous
 62
     0
370
     0
100
AcDbPolyline
 90
      184
 70
     0
 43
0.0
 10
55.23484
 20
797.973999
 10
55.234837
 20
797.805176
 10
55.234837
 20
797.618042
 10
55.234837
 20
797.412842
 10
55.234837
 20
797.189636
 10
55.234837
 20
796.948669
 10
55.234837
 20
796.690369
 10
55.234837
 20
796.414978
 10
55.234837
 20
796.123047
 10
55.234837
 20
795.814758
 10
55.234837
 20
795.490601
 10
55.234837
 20
795.150818
 10
55.234837
 20
794.795776
 10
55.234837
 20
794.425781
 10
55.234837
 20
794.041199
 10
55.234837
 20
793.642334
 10
55.234837
 20
793.229431
 10
55.234837
 20
792.802979
 10
55.234837
 20
792.363342
 10
55.234837
 20
791.910828
 10
55.234837
 20
791.445923
 10
55.234837
 20
790.969055
 10
55.234837
 20
790.480652
 10
55.234837
 20
789.98114
 10
55.234837
 20
789.471191
 10
55.234837
 20
788.951233
 10
55.234837
 20
788.421875
 10
55.234837
 20
787.883789
 10
55.234837
 20
787.337585
 10
55.23484
 20
786.784058
 10
55.234837
 20
786.22406
 10
55.234837
 20
785.658325
 10
55.234837
 20
785.087891
 10
55.23484
 20
784.513733
 10
55.23484
 20
783.936829
 10
55.23484
 20
783.358337
 10
55.234837
 20
782.779297
 10
55.23484
 20
782.201294
 10
55.234844
 20
781.626282
 10
55.234917
 20
781.051575
 10
55.235058
 20
780.494385
 10
55.235264
 20
779.879822
 10
55.235542
 20
779.264526
 10
55.235886
 20
778.651062
 10
55.236305
 20
778.036438
 10
55.23679
 20
777.422302
 10
55.23735
 20
776.808044
 10
55.23798
 20
776.193665
 10
55.238682
 20
775.579285
 10
55.239456
 20
774.964844
 10
55.240303
 20
774.350342
 10
55.241222
 20
773.735779
 10
55.242214
 20
773.121216
 10
55.243279
 20
772.506592
 10
55.244415
 20
771.891907
 10
55.245625
 20
771.277222
 10
55.246906
 20
770.662476
 10
55.248257
 20
770.047668
 10
55.249683
 20
769.432861
 10
55.251179
 20
768.817932
 10
55.25275
 20
768.203064
 10
55.254391
 20
767.588074
 10
55.256104
 20
766.973083
 10
55.257885
 20
766.358032
 10
55.259739
 20
765.742981
 10
55.261665
 20
765.127869
 10
55.263668
 20
764.512695
 10
55.265739
 20
763.897522
 10
55.267891
 20
763.282288
 10
55.270115
 20
762.666992
 10
55.272415
 20
762.051697
 10
55.274792
 20
761.43634
 10
55.277241
 20
760.820923
 10
55.279766
 20
760.205505
 10
55.28236
 20
759.590027
 10
55.28503
 20
758.974548
 10
55.287773
 20
758.359009
 10
55.290588
 20
757.743408
 10
55.293476
 20
757.127808
 10
55.296436
 20
756.512146
 10
55.299469
 20
755.896484
 10
55.30257
 20
755.280762
 10
55.305744
 20
754.664978
 10
55.30899
 20
754.049194
 10
55.312305
 20
753.433411
 10
55.315693
 20
752.817505
 10
55.319149
 20
752.201599
 10
55.322678
 20
751.585693
 10
55.326275
 20
750.969727
 10
55.329941
 20
750.353699
 10
55.333675
 20
749.737671
 10
55.337479
 20
749.121582
 10
55.341354
 20
748.505493
 10
55.345295
 20
747.889343
 10
55.349304
 20
747.273193
 10
55.353382
 20
746.656982
 10
55.357529
 20
746.040771
 10
55.36174
 20
745.4245
 10
55.36602
 20
744.808167
 10
55.370365
 20
744.191833
 10
55.374779
 20
743.5755
 10
55.379261
 20
742.959106
 10
55.383804
 20
742.342651
 10
55.388416
 20
741.726196
 10
55.393097
 20
741.10968
 10
55.397839
 20
740.493164
 10
55.402649
 20
739.876587
 10
55.40752
 20
739.26001
 10
55.41246
 20
738.643372
 10
55.417461
 20
738.026733
 10
55.422527
 20
737.410034
 10
55.427658
 20
736.793335
 10
55.432854
 20
736.176575
 10
55.43811
 20
735.559814
 10
55.443432
 20
734.943054
 10
55.448818
 20
734.326172
 10
55.454266
 20
733.709351
 10
55.459774
 20
733.092468
 10
55.465347
 20
732.475525
 10
55.470982
 20
731.858582
 10
55.476677
 20
731.241577
 10
55.482437
 20
730.624573
 10
55.488255
 20
730.007568
 10
55.494137
 20
729.390503
 10
55.50008
 20
728.773438
 10
55.506081
 20
728.156311
 10
55.512146
 20
727.539124
 10
55.518269
 20
726.921936
 10
55.524452
 20
726.304749
 10
55.530697
 20
725.687561
 10
55.536999
 20
725.070251
 10
55.543362
 20
724.453003
 10
55.549782
 20
723.835693
 10
55.556263
 20
723.218323
 10
55.562805
 20
722.600952
 10
55.569401
 20
721.983582
 10
55.576057
 20
721.36615
 10
55.582775
 20
720.748718
 10
55.589546
 20
720.131226
 10
55.596378
 20
719.513733
 10
55.603264
 20
718.89624
 10
55.61021
 20
718.278687
 10
55.61721
 20
717.661072
 10
55.624271
 20
717.043518
 10
55.631386
 20
716.425842
 10
55.638557
 20
715.808228
 10
55.645786
 20
715.190552
 10
55.653072
 20
714.572815
 10
55.660412
 20
713.955139
 10
55.667809
 20
713.337341
 10
55.675262
 20
712.719604
 10
55.682766
 20
712.101807
 10
55.690331
 20
711.483948
 10
55.697945
 20
710.866089
 10
55.705616
 20
710.24823
 10
55.713341
 20
709.63031
 10
55.721123
 20
709.01239
 10
55.728954
 20
708.39447
 10
55.736843
 20
707.776489
 10
55.744785
 20
707.158508
 10
55.752781
 20
706.540527
 10
55.760826
 20
705.922424
 10
55.768929
 20
705.304321
 10
55.777081
 20
704.686218
 10
55.78529
 20
704.068237
 10
55.793549
 20
703.450256
 10
55.801861
 20
702.832031
 10
55.810215
 20
702.213257
 10
55.818626
 20
701.594604
 10
55.827103
 20
700.977478
 10
55.835651
 20
700.361877
 10
55.844219
 20
699.743408
 10
55.852753
 20
699.117493
 10
55.861279
 20
698.491577
 10
55.870209
 20
697.884216
 10
55.872295
 20
697.347412
 10
55.867176
 20
696.742981
 10
55.857121
 20
696.140259
 10
55.842117
 20
695.541321
 10
55.822166
 20
694.94397
 10
55.797268
 20
694.348022
 10
55.767414
 20
693.753479
 10
55.732609
 20
693.160522
 10
55.692867
 20
692.569214
  0
ARC
  5
8D
330
7B
100
AcDbEntity
  8
0
  6
Continuous
 62
     0
370
    30
100
AcDbCircle
 10
86.263411
 20
816.736044
 30
0.0
 40
0.9719004121730762
100
AcDbArc
 50
1.787472
 51
91.684658
  0
ARC
  5
8E
330
7B
100
AcDbEntity
  8
0
  6
Continuous
 62
     0
370
    30
100
AcDbCircle
 10
55.206266
 20
816.736044
 30
0.0
 40
0.971900435060516
100
AcDbArc
 50
88.315343
 51
178.212526
  0
LINE
  5
8F
330
7B
100
AcDbEntity
  8
0
  6
Continuous
 62
     0
370
    30
100
AcDbLine
 10
87.234838
 20
798.916321
 30
0.0
 11
87.234838
 21
816.76636
 31
0.0
  0
LINE
  5
90
330
7B
100
AcDbEntity
  8
0
  6
Continuous
 62
     0
370
    30
100
AcDbLine
 10
55.234838
 20
817.707524
 30
0.0
 11
86.234838
 21
817.707524
 31
0.0
  0
LINE
  5
91
330
7B
100
AcDbEntity
  8
0
  6
Continuous
 62
     0
370
    30
100
AcDbLine
 10
54.234838
 20
798.916322
 30
0.0
 11
54.234838
 21
816.76636
 31
0.0
  0
LINE
  5
92
330
7B
100
AcDbEntity
  8
0
  6
Continuous
 62
     0
370
    30
100
AcDbLine
 10
86.234838
 20
797.973979
 30
0.0
 11
55.234838
 21
797.973979
 31
0.0
  0
LINE
  5
93
330
7B
100
AcDbEntity
  8
0
  6
Continuous
 62
     0
370
    30
100
AcDbLine
 10
44.234838
 20
678.340752
 30
0.0
 11
43.234838
 21
678.340752
 31
0.0
  0
LINE
  5
94
330
7B
100
AcDbEntity
  8
0
  6
Continuous
 62
     0
370
    30
100
AcDbLine
 10
98.234838
 20
678.340752
 30
0.0
 11
97.234838
 21
678.340752
 31
0.0
  0
LINE
  5
95
330
7B
100
AcDbEntity
  8
0
  6
Continuous
 62
     0
370
    30
100
AcDbLine
 10
43.234838
 20
677.340752
 30
0.0
 11
43.234838
 21
678.340752
 31
0.0
  0
LINE
  5
96
330
7B
100
AcDbEntity
  8
0
  6
Continuous
 62
     0
370
    30
100
AcDbLine
 10
98.234838
 20
678.340752
 30
0.0
 11
98.234838
 21
677.340752
 31
0.0
  0
LINE
  5
97
330
7B
100
AcDbEntity
  8
0
  6
Continuous
 62
     0
370
    30
100
AcDbLine
 10
43.234838
 20
677.340752
 30
0.0
 11
43.234838
 21
624.340752
 31
0.0
  0
ARC
  5
98
330
7B
100
AcDbEntity
  8
0
  6
Continuous
 62
     0
370
    30
100
AcDbCircle
 10
44.234838
 20
624.340752
 30
0.0
 40
0.9999999999999961
100
AcDbArc
 50
180.0
 51
270.0
  0
LINE
  5
99
330
7B
100
AcDbEntity
  8
0
  6
Continuous
 62
     0
370
    30
100
AcDbLine
 10
44.234838
 20
623.340752
 30
0.0
 11
97.234838
 21
623.340752
 31
0.0
  0
ARC
  5
9A
330
7B
100
AcDbEntity
  8
0
  6
Continuous
 62
     0
370
    30
100
AcDbCircle
 10
97.234838
 20
624.340752
 30
0.0
 40
1.0
100
AcDbArc
 50
270.0
 51
0.0
  0
LINE
  5
9B
330
7B
100
AcDbEntity
  8
0
  6
Continuous
 62
     0
370
    30
100
AcDbLine
 10
98.234838
 20
624.340752
 30
0.0
 11
98.234838
 21
677.340752
 31
0.0
  0
ARC
  5
9C
330
7B
100
AcDbEntity
  8
0
  6
Continuous
 62
     0
370
    30
100
AcDbCircle
 10
97.234838
 20
677.340752
 30
0.0
 40
0.9999999999999961
100
AcDbArc
 50
0.0
 51
90.0
  0
LINE
  5
9D
330
7B
100
AcDbEntity
  8
0
  6
Continuous
 62
     0
370
    30
100
AcDbLine
 10
97.234838
 20
678.340752
 30
0.0
 11
44.234838
 21
678.340752
 31
0.0
  0
ARC
  5
9E
330
7B
100
AcDbEntity
  8
0
  6
Continuous
 62
     0
370
    30
100
AcDbCircle
 10
44.234838
 20
677.340752
 30
0.0
 40
0.9999999999999961
100
AcDbArc
 50
90.0
 51
180.0
  0
ENDBLK
  5
A0
330
7B
100
AcDbEntity
  8
0
100
AcDbBlockEnd
  0
BLOCK
  5
107
330
A2
100
AcDbEntity
  8
0
100
AcDbBlockBegin
  2
b
 70
     0
 10
15.948711
 20
90.780327
 30
0.0
  3
b
  1

  0
LWPOLYLINE
  5
A3
330
A2
100
AcDbEntity
  8
0
  6
Continuous
 62
     0
370
    30
100
AcDbPolyline
 90
        6
 70
     0
 43
0.0
 10
79.734703
 20
490.631744
 10
79.696808
 20
490.631744
 10
79.583504
 20
490.631744
 10
79.395401
 20
490.631744
 10
79.13398
 20
490.631744
 10
78.791977
 20
490.631744
  0
LINE
  5
A4
330
A2
100
AcDbEntity
  8
0
  6
Continuous
 62
     0
370
    30
100
AcDbLine
 10
61.734953
 20
490.631752
 30
0.0
 11
62.965298
 21
490.631752
 31
0.0
  0
LINE
  5
A5
330
A2
100
AcDbEntity
  8
0
  6
Continuous
 62
     0
370
    30
100
AcDbLine
 10
62.965355
 20
490.631752
 30
0.0
 11
63.475273
 21
490.631752
 31
0.0
  0
LINE
  5
A6
330
A2
100
AcDbEntity
  8
0
  6
Continuous
 62
     0
370
    30
100
AcDbLine
 10
63.218905
 20
512.809785
 30
0.0
 11
79.218667
 21
512.809785
 31
0.0
  0
LINE
  5
A7
330
A2
100
AcDbEntity
  8
0
  6
Continuous
 62
     0
370
    30
100
AcDbLine
 10
79.218667
 20
512.809785
 30
0.0
 11
79.237623
 21
493.11363
 31
0.0
  0
LWPOLYLINE
  5
A8
330
A2
100
AcDbEntity
  8
0
  6
Continuous
 62
     0
370
    30
100
AcDbPolyline
 90
       40
 70
     0
 43
0.0
 10
79.237625
 20
493.113617
 10
79.230553
 20
492.871338
 10
79.214005
 20
492.625641
 10
79.18821
 20
492.376678
 10
79.153366
 20
492.124512
 10
79.109673
 20
491.869232
 10
79.057312
 20
491.61087
 10
78.996468
 20
491.349518
 10
78.92733
 20
491.085266
 10
78.850082
 20
490.818176
 10
78.764893
 20
490.548309
 10
78.671928
 20
490.275726
 10
78.571335
 20
490.000458
 10
78.463264
 20
489.722626
 10
78.347878
 20
489.44223
 10
78.225327
 20
489.159332
 10
78.095749
 20
488.873993
 10
77.959274
 20
488.586273
 10
77.815994
 20
488.296173
 10
77.666054
 20
488.003815
 10
77.509705
 20
487.709198
 10
77.347061
 20
487.412415
 10
77.177544
 20
487.113342
 10
77.004288
 20
486.812683
 10
76.831146
 20
486.511353
 10
76.659164
 20
486.209442
 10
76.489006
 20
485.907043
 10
76.320763
 20
485.604126
 10
76.154449
 20
485.300537
 10
75.990387
 20
484.996185
 10
75.828979
 20
484.690979
 10
75.670624
 20
484.384735
 10
75.515862
 20
484.077362
 10
75.365517
 20
483.768524
 10
75.220482
 20
483.457916
 10
75.08242
 20
483.145081
 10
74.954918
 20
482.828857
 10
74.841919
 20
482.507935
 10
74.802399
 20
482.167755
 10
74.833885
 20
481.809631
  0
LINE
  5
A9
330
A2
100
AcDbEntity
  8
0
  6
Continuous
 62
     0
370
    30
100
AcDbLine
 10
63.237861
 20
493.11363
 30
0.0
 11
79.237623
 21
493.11363
 31
0.0
  0
LWPOLYLINE
  5
AA
330
A2
100
AcDbEntity
  8
0
  6
Continuous
 62
     0
370
    30
100
AcDbPolyline
 90
       41
 70
     0
 43
0.0
 10
66.807098
 20
481.809631
 10
66.859375
 20
482.158813
 10
66.844368
 20
482.491119
 10
66.758385
 20
482.804871
 10
66.655205
 20
483.113312
 10
66.542259
 20
483.418579
 10
66.422653
 20
483.721649
 10
66.297844
 20
484.02301
 10
66.168686
 20
484.322968
 10
66.035774
 20
484.621704
 10
65.899704
 20
484.919403
 10
65.761078
 20
485.216278
 10
65.620338
 20
485.512451
 10
65.477692
 20
485.807983
 10
65.333321
 20
486.102936
 10
65.187347
 20
486.397339
 10
65.039848
 20
486.691315
 10
64.891136
 20
486.984833
 10
64.744385
 20
487.277222
 10
64.6036
 20
487.567566
 10
64.469032
 20
487.855804
 10
64.340485
 20
488.141937
 10
64.218124
 20
488.425934
 10
64.102135
 20
488.707764
 10
63.992664
 20
488.987305
 10
63.889828
 20
489.264557
 10
63.793736
 20
489.539459
 10
63.704506
 20
489.811981
 10
63.62228
 20
490.082062
 10
63.547192
 20
490.34967
 10
63.479393
 20
490.614746
 10
63.419041
 20
490.877197
 10
63.366287
 20
491.136993
 10
63.321301
 20
491.394073
 10
63.284229
 20
491.648376
 10
63.255238
 20
491.899811
 10
63.234497
 20
492.148346
 10
63.222183
 20
492.393921
 10
63.218479
 20
492.636414
 10
63.223621
 20
492.875824
 10
63.237862
 20
493.113617
  0
LINE
  5
AB
330
A2
100
AcDbEntity
  8
0
  6
Continuous
 62
     0
370
     0
100
AcDbLine
 10
74.833882
 20
481.809632
 30
0.0
 11
66.8071
 21
481.809632
 31
0.0
  0
LINE
  5
AC
330
A2
100
AcDbEntity
  8
0
  6
Continuous
 62
     0
370
    30
100
AcDbLine
 10
63.218905
 20
512.809785
 30
0.0
 11
63.237861
 21
493.11363
 31
0.0
  0
LINE
  5
AD
330
A2
100
AcDbEntity
  8
0
  6
Continuous
 62
     0
370
    30
100
AcDbLine
 10
74.833882
 20
481.809632
 30
0.0
 11
75.199749
 21
480.493132
 31
0.0
  0
LINE
  5
AE
330
A2
100
AcDbEntity
  8
0
  6
Continuous
 62
     0
370
    30
100
AcDbLine
 10
75.199749
 20
480.493132
 30
0.0
 11
76.285106
 21
485.539404
 31
0.0
  0
LINE
  5
AF
330
A2
100
AcDbEntity
  8
0
  6
Continuous
 62
     0
370
    30
100
AcDbLine
 10
66.8071
 20
481.809632
 30
0.0
 11
66.369351
 21
480.493132
 31
0.0
  0
LINE
  5
B0
330
A2
100
AcDbEntity
  8
0
  6
Continuous
 62
     0
370
    30
100
AcDbLine
 10
66.369351
 20
480.493132
 30
0.0
 11
64.998233
 21
486.773655
 31
0.0
  0
ARC
  5
B1
330
A2
100
AcDbEntity
  8
0
  6
Continuous
 62
     0
370
    30
100
AcDbCircle
 10
166.459924
 20
470.766289
 30
0.0
 40
90.1237538805961
100
AcDbArc
 50
168.202619
 51
177.987156
  0
LINE
  5
B2
330
A2
100
AcDbEntity
  8
0
  6
Continuous
 62
     0
370
    30
100
AcDbLine
 10
72.450369
 20
473.931752
 30
0.0
 11
69.087784
 21
473.931752
 31
0.0
  0
LWPOLYLINE
  5
B3
330
A2
100
AcDbEntity
  8
0
  6
Continuous
 62
     0
370
    30
100
AcDbPolyline
 90
       13
 70
     0
 43
0.0
 10
75.199745
 20
480.493103
 10
75.249535
 20
480.229401
 10
75.296761
 20
479.889496
 10
75.340698
 20
479.477997
 10
75.380646
 20
479.002319
 10
75.416153
 20
478.471252
 10
75.446922
 20
477.894745
 10
75.47287
 20
477.282196
 10
75.494026
 20
476.642029
 10
75.510521
 20
475.981873
 10
75.522545
 20
475.308105
 10
75.530296
 20
474.626038
 10
75.534019
 20
473.931763
  0
LWPOLYLINE
  5
B4
330
A2
100
AcDbEntity
  8
0
  6
Continuous
 62
     0
370
    30
100
AcDbPolyline
 90
       13
 70
     0
 43
0.0
 10
65.983833
 20
473.931763
 10
65.987991
 20
474.618103
 10
65.996834
 20
475.300262
 10
66.010605
 20
475.974121
 10
66.029541
 20
476.634491
 10
66.053864
 20
477.274933
 10
66.08371
 20
477.887878
 10
66.119141
 20
478.464844
 10
66.160042
 20
478.99649
 10
66.206085
 20
479.47287
 10
66.256744
 20
479.885132
 10
66.311226
 20
480.225922
 10
66.369354
 20
480.493103
  0
LINE
  5
B5
330
A2
100
AcDbEntity
  8
0
  6
Continuous
 62
     0
370
    30
100
AcDbLine
 10
76.391779
 20
473.931753
 30
0.0
 11
75.534018
 21
473.931752
 31
0.0
  0
ARC
  5
B6
330
A2
100
AcDbEntity
  8
0
  6
Continuous
 62
     0
370
     0
100
AcDbCircle
 10
-25.395395
 20
470.77757
 30
0.0
 40
90.5637854609659
100
AcDbArc
 50
1.995918
 51
12.663713
  0
LINE
  5
B7
330
A2
100
AcDbEntity
  8
0
  6
Continuous
 62
     0
370
    30
100
AcDbLine
 10
65.987799
 20
474.597154
 30
0.0
 11
65.9867
 21
473.931752
 31
0.0
  0
LWPOLYLINE
  5
B8
330
A2
100
AcDbEntity
  8
0
  6
Continuous
 62
     0
370
    30
100
AcDbPolyline
 90
       24
 70
     0
 43
0.0
 10
64.53244
 20
487.718658
 10
64.60257
 20
487.206787
 10
64.673866
 20
486.695221
 10
64.746307
 20
486.18396
 10
64.819908
 20
485.673004
 10
64.894653
 20
485.162384
 10
64.970551
 20
484.652039
 10
65.047592
 20
484.142059
 10
65.125809
 20
483.632385
 10
65.205193
 20
483.123047
 10
65.285698
 20
482.614044
 10
65.367264
 20
482.105377
 10
65.450096
 20
481.597076
 10
65.533737
 20
481.08902
 10
65.614143
 20
480.580109
 10
65.673599
 20
480.065735
 10
65.728218
 20
479.550323
 10
65.777481
 20
479.033936
 10
65.821594
 20
478.516632
 10
65.860596
 20
477.998596
 10
65.894417
 20
477.479858
 10
65.92305
 20
476.960571
 10
65.946495
 20
476.440765
 10
65.965271
 20
475.903564
  0
LINE
  5
B9
330
A2
100
AcDbEntity
  8
0
  6
Continuous
 62
     0
370
    30
100
AcDbLine
 10
65.664933
 20
473.931774
 30
0.0
 11
65.113447
 21
473.931753
 31
0.0
  0
LINE
  5
BA
330
A2
100
AcDbEntity
  8
0
  6
Continuous
 62
     0
370
    30
100
AcDbLine
 10
75.534391
 20
473.931747
 30
0.0
 11
72.450369
 21
473.931747
 31
0.0
  0
LINE
  5
BB
330
A2
100
AcDbEntity
  8
0
  6
Continuous
 62
     0
370
    30
100
AcDbLine
 10
77.234816
 20
473.931747
 30
0.0
 11
76.381662
 21
473.931747
 31
0.0
  0
LINE
  5
BC
330
A2
100
AcDbEntity
  8
0
  6
Continuous
 62
     0
370
    30
100
AcDbLine
 10
65.1235
 20
473.931747
 30
0.0
 11
64.234939
 21
473.931747
 31
0.0
  0
LINE
  5
BD
330
A2
100
AcDbEntity
  8
0
  6
Continuous
 62
     0
370
    30
100
AcDbLine
 10
69.087784
 20
473.931747
 30
0.0
 11
65.984294
 21
473.931747
 31
0.0
  0
LINE
  5
BE
330
A2
100
AcDbEntity
  8
0
  6
Continuous
 62
     0
370
    30
100
AcDbLine
 10
87.234774
 20
433.93175
 30
0.0
 11
90.234647
 21
433.931751
 31
0.0
  0
LINE
  5
BF
330
A2
100
AcDbEntity
  8
0
  6
Continuous
 62
     0
370
    30
100
AcDbLine
 10
51.235037
 20
433.931751
 30
0.0
 11
54.234911
 21
433.93175
 31
0.0
  0
LINE
  5
C0
330
A2
100
AcDbEntity
  8
0
  6
Continuous
 62
     0
370
    30
100
AcDbLine
 10
65.983429
 20
473.931747
 30
0.0
 11
65.664933
 21
473.931747
 31
0.0
  0
LWPOLYLINE
  5
C1
330
A2
100
AcDbEntity
  8
0
  6
Continuous
 62
     0
370
    30
100
AcDbPolyline
 90
       31
 70
     0
 43
0.0
 10
90.23494
 20
433.931763
 10
89.837814
 20
435.277405
 10
89.435387
 20
436.621552
 10
89.027664
 20
437.964081
 10
88.61467
 20
439.305054
 10
88.196434
 20
440.644379
 10
87.772957
 20
441.982086
 10
87.344269
 20
443.318115
 10
86.910393
 20
444.652496
 10
86.471336
 20
445.985168
 10
86.027122
 20
447.316101
 10
85.577728
 20
448.645264
 10
85.1231
 20
449.972656
 10
84.663155
 20
451.298218
 10
84.197845
 20
452.621948
 10
83.727089
 20
453.943787
 10
83.2509
 20
455.263702
 10
82.769669
 20
456.581757
 10
82.28392
 20
457.898071
 10
81.794159
 20
459.212738
 10
81.300148
 20
460.525665
 10
80.800049
 20
461.836426
 10
80.291878
 20
463.144562
 10
79.774307
 20
464.449799
 10
79.258713
 20
465.75592
 10
78.767616
 20
467.07019
 10
78.323936
 20
468.399963
 10
77.947708
 20
469.75116
 10
77.642677
 20
471.121399
 10
77.40683
 20
472.50531
 10
77.23484
 20
473.931732
  0
LINE
  5
C2
330
A2
100
AcDbEntity
  8
0
  6
Continuous
 62
     0
370
    30
100
AcDbLine
 10
51.234746
 20
433.931751
 30
0.0
 11
52.186876
 21
437.126445
 31
0.0
  0
LINE
  5
C3
330
A2
100
AcDbEntity
  8
0
  6
Continuous
 62
     0
370
    30
100
AcDbLine
 10
65.985028
 20
474.220614
 30
0.0
 11
65.96524
 21
475.903567
 31
0.0
  0
ARC
  5
C4
330
A2
100
AcDbEntity
  8
0
  6
Continuous
 62
     0
370
    30
100
AcDbCircle
 10
-14.651854
 20
470.714559
 30
0.0
 40
78.94062178101385
100
AcDbArc
 50
2.335714
 51
14.614011
  0
ARC
  5
C5
330
A2
100
AcDbEntity
  8
0
  6
Continuous
 62
     0
370
    30
100
AcDbCircle
 10
156.058528
 20
470.723829
 30
0.0
 40
78.8773125636299
100
AcDbArc
 50
165.380957
 51
177.66915
  0
LWPOLYLINE
  5
C6
330
A2
100
AcDbEntity
  8
0
  6
Continuous
 62
     0
370
    30
100
AcDbPolyline
 90
       34
 70
     0
 43
0.0
 10
79.10984
 20
407.236694
 10
79.071938
 20
406.964691
 10
78.958244
 20
406.694824
 10
78.770576
 20
406.429962
 10
78.51075
 20
406.172668
 10
78.180534
 20
405.925018
 10
77.782524
 20
405.689178
 10
77.320755
 20
405.467255
 10
76.799538
 20
405.261322
 10
76.223663
 20
405.073212
 10
75.598122
 20
404.904663
 10
74.928535
 20
404.757233
 10
74.221062
 20
404.632233
 10
73.48204
 20
404.530762
 10
72.718224
 20
404.453735
 10
71.936455
 20
404.401917
 10
71.143822
 20
404.375671
 10
70.347504
 20
404.375336
 10
69.554672
 20
404.400848
 10
68.772514
 20
404.451996
 10
68.008118
 20
404.528351
 10
67.268333
 20
404.62915
 10
66.559937
 20
404.753571
 10
65.889259
 20
404.900391
 10
65.262383
 20
405.068359
 10
64.685013
 20
405.25592
 10
64.162277
 20
405.461395
 10
63.699062
 20
405.682953
 10
63.299374
 20
405.918549
 10
62.966957
 20
406.165955
 10
62.704727
 20
406.423065
 10
62.515072
 20
406.687805
 10
62.399807
 20
406.95755
 10
62.35984
 20
407.236694
  0
LWPOLYLINE
  5
C7
330
A2
100
AcDbEntity
  8
0
  6
Continuous
 62
     0
370
    30
100
AcDbPolyline
 90
       34
 70
     0
 43
0.0
 10
62.10984
 20
407.00177
 10
62.148891
 20
406.721863
 10
62.265568
 20
406.443848
 10
62.458954
 20
406.170929
 10
62.727203
 20
405.905792
 10
63.06786
 20
405.650604
 10
63.477951
 20
405.407562
 10
63.953613
 20
405.178925
 10
64.490723
 20
404.966797
 10
65.084282
 20
404.773071
 10
65.728989
 20
404.599548
 10
66.418991
 20
404.447754
 10
67.14801
 20
404.319031
 10
67.909531
 20
404.21463
 10
68.696587
 20
404.135406
 10
69.502098
 20
404.082153
 10
70.318764
 20
404.055267
 10
71.139183
 20
404.055084
 10
71.955956
 20
404.081573
 10
72.761681
 20
404.13446
 10
73.549034
 20
404.213318
 10
74.310974
 20
404.317352
 10
75.040535
 20
404.44574
 10
75.731155
 20
404.597198
 10
76.376495
 20
404.770447
 10
76.970741
 20
404.963928
 10
77.508743
 20
405.175812
 10
77.985527
 20
405.404205
 10
78.396652
 20
405.647034
 10
78.7379
 20
405.9021
 10
79.006622
 20
406.167175
 10
79.201019
 20
406.440033
 10
79.319321
 20
406.717957
 10
79.35984
 20
407.00177
  0
LWPOLYLINE
  5
C8
330
A2
100
AcDbEntity
  8
0
  6
Continuous
 62
     0
370
    30
100
AcDbPolyline
 90
       34
 70
     0
 43
0.0
 10
79.35984
 20
407.00177
 10
79.320427
 20
407.281647
 10
79.203201
 20
407.559662
 10
79.009857
 20
407.832611
 10
78.742165
 20
408.097839
 10
78.401917
 20
408.353058
 10
77.991745
 20
408.596069
 10
77.515846
 20
408.824677
 10
76.978668
 20
409.036774
 10
76.38517
 20
409.230499
 10
75.740509
 20
409.404022
 10
75.050476
 20
409.555817
 10
74.321419
 20
409.68454
 10
73.559883
 20
409.78894
 10
72.772835
 20
409.868134
 10
71.967323
 20
409.921387
 10
71.15065
 20
409.948242
 10
70.330231
 20
409.948425
 10
69.513458
 20
409.921936
 10
68.707741
 20
409.869049
 10
67.920387
 20
409.790192
 10
67.158455
 20
409.686127
 10
66.42894
 20
409.557739
 10
65.738342
 20
409.40625
 10
65.092964
 20
409.233002
 10
64.49865
 20
409.039551
 10
63.960716
 20
408.827698
 10
63.484161
 20
408.599243
 10
63.073128
 20
408.356415
 10
62.731476
 20
408.101379
 10
62.462196
 20
407.836365
 10
62.26775
 20
407.563538
 10
62.14999
 20
407.285583
 10
62.10984
 20
407.00177
  0
ELLIPSE
  5
C9
330
A2
100
AcDbEntity
  8
0
  6
Continuous
 62
     0
370
    30
100
AcDbEllipse
 10
70.734842
 20
410.102745
 30
0.0
 11
8.375
 21
0.0
 31
0.0
210
0.0
220
0.0
230
1.0
 40
0.34202
 41
3.680644723182498
 42
5.744153063182864
  0
LINE
  5
CA
330
A2
100
AcDbEntity
  8
0
  6
Continuous
 62
     0
370
    30
100
AcDbLine
 10
88.234842
 20
431.841766
 30
0.0
 11
87.234842
 21
431.841766
 31
0.0
  0
LINE
  5
CB
330
A2
100
AcDbEntity
  8
0
  6
Continuous
 62
     0
370
    30
100
AcDbLine
 10
54.234842
 20
431.841766
 30
0.0
 11
53.234842
 21
431.841766
 31
0.0
  0
ARC
  5
CC
330
A2
100
AcDbEntity
  8
0
  6
Continuous
 62
     0
370
     0
100
AcDbCircle
 10
85.771085
 20
400.590368
 30
0.0
 40
1.003307518457829
100
AcDbArc
 50
270.327109
 51
358.660306
  0
LWPOLYLINE
  5
CD
330
A2
100
AcDbEntity
  8
0
  6
Continuous
 62
     0
370
     0
100
AcDbPolyline
 90
       23
 70
     0
 43
0.0
 10
85.776817
 20
399.587067
 10
85.878349
 20
399.230499
 10
85.989174
 20
398.858948
 10
86.109474
 20
398.472504
 10
86.239426
 20
398.070923
 10
86.379066
 20
397.654114
 10
86.528557
 20
397.221924
 10
86.688072
 20
396.7742
 10
86.857765
 20
396.310822
 10
87.037727
 20
395.831696
 10
87.228073
 20
395.3367
 10
87.428871
 20
394.825775
 10
87.640297
 20
394.298828
 10
87.862549
 20
393.755707
 10
88.095543
 20
393.196747
 10
88.33989
 20
392.623901
 10
88.578506
 20
392.026764
 10
88.805168
 20
391.370148
 10
89.016563
 20
390.648163
 10
89.209007
 20
389.85614
 10
89.379051
 20
388.992981
 10
89.526558
 20
388.060028
 10
89.679108
 20
387.045197
  0
ELLIPSE
  5
CE
330
A2
100
AcDbEntity
  8
0
  6
Continuous
 62
     0
370
     0
100
AcDbEllipse
 10
89.679109
 20
387.383002
 30
0.0
 11
-0.9869823171245438
 21
-0.16082880862416
 31
0.0
210
0.0
220
0.0
230
1.0
 40
0.333892
 41
1.516442131792357
 42
2.637019480037973
  0
LWPOLYLINE
  5
CF
330
A2
100
AcDbEntity
  8
0
  6
Continuous
 62
     0
370
     0
100
AcDbPolyline
 90
       37
 70
     0
 43
0.0
 10
86.774162
 20
400.566742
 10
86.834785
 20
400.344543
 10
86.898804
 20
400.11676
 10
86.96627
 20
399.883362
 10
87.037201
 20
399.644409
 10
87.111626
 20
399.399841
 10
87.18959
 20
399.149689
 10
87.271118
 20
398.893921
 10
87.356239
 20
398.632538
 10
87.444992
 20
398.365479
 10
87.537392
 20
398.092682
 10
87.633484
 20
397.814087
 10
87.733292
 20
397.529694
 10
87.836838
 20
397.239502
 10
87.944153
 20
396.943451
 10
88.055275
 20
396.641541
 10
88.170212
 20
396.33371
 10
88.289009
 20
396.019989
 10
88.411674
 20
395.700317
 10
88.538254
 20
395.374664
 10
88.668839
 20
395.042816
 10
88.803162
 20
394.705505
 10
88.941383
 20
394.361145
 10
89.083618
 20
394.011749
 10
89.231544
 20
393.655121
 10
89.380516
 20
393.288239
 10
89.525703
 20
392.898285
 10
89.666527
 20
392.482574
 10
89.802246
 20
392.03891
 10
89.932007
 20
391.565033
 10
90.054901
 20
391.059418
 10
90.170006
 20
390.520966
 10
90.276321
 20
389.949341
 10
90.373009
 20
389.345367
 10
90.459503
 20
388.711731
 10
90.533272
 20
388.051971
 10
90.569054
 20
387.364471
  0
LINE
  5
D0
330
A2
100
AcDbEntity
  8
0
  6
Continuous
 62
     0
370
    30
100
AcDbLine
 10
86.635791
 20
402.401378
 30
0.0
 11
86.721086
 21
403.453887
 31
0.0
  0
LINE
  5
D1
330
A2
100
AcDbEntity
  8
0
  6
Continuous
 62
     0
370
    30
100
AcDbLine
 10
86.774067
 20
400.570656
 30
0.0
 11
86.59682
 21
401.903847
 31
0.0
  0
ARC
  5
D2
330
A2
100
AcDbEntity
  8
0
  6
Continuous
 62
     0
370
    30
100
AcDbCircle
 10
86.455625
 20
404.396124
 30
0.0
 40
1.010001733697428
100
AcDbArc
 50
257.373423
 51
320.488905
  0
LWPOLYLINE
  5
D3
330
A2
100
AcDbEntity
  8
0
  6
Continuous
 62
     0
370
     0
100
AcDbPolyline
 90
       48
 70
     0
 43
0.0
 10
85.776817
 20
399.587067
 10
85.74865
 20
399.711212
 10
85.72287
 20
399.833252
 10
85.699478
 20
399.953156
 10
85.67849
 20
400.070862
 10
85.659897
 20
400.186401
 10
85.6437
 20
400.299744
 10
85.629898
 20
400.41095
 10
85.618484
 20
400.519897
 10
85.609474
 20
400.626892
 10
85.602829
 20
400.730499
 10
85.598663
 20
400.837372
 10
85.596817
 20
400.914185
 10
85.599785
 20
400.983307
 10
85.605896
 20
401.053558
 10
85.611969
 20
401.123688
 10
85.617989
 20
401.194061
 10
85.623978
 20
401.264496
 10
85.629951
 20
401.334961
 10
85.635902
 20
401.405487
 10
85.64183
 20
401.476074
 10
85.647728
 20
401.546753
 10
85.653603
 20
401.617493
 10
85.659447
 20
401.688324
 10
85.665268
 20
401.759216
 10
85.671066
 20
401.8302
 10
85.676842
 20
401.901215
 10
85.682587
 20
401.972321
 10
85.688309
 20
402.043488
 10
85.694008
 20
402.114746
 10
85.699677
 20
402.186066
 10
85.705322
 20
402.257446
 10
85.710945
 20
402.328918
 10
85.716537
 20
402.400452
 10
85.722107
 20
402.472046
 10
85.727646
 20
402.543732
 10
85.733162
 20
402.615479
 10
85.738655
 20
402.687317
 10
85.744118
 20
402.759216
 10
85.749557
 20
402.831177
 10
85.754967
 20
402.903229
 10
85.760353
 20
402.975342
 10
85.765717
 20
403.047516
 10
85.771049
 20
403.119781
 10
85.77636
 20
403.192139
 10
85.781639
 20
403.264526
 10
85.786888
 20
403.337036
 10
85.792191
 20
403.410553
  0
LWPOLYLINE
  5
D4
330
A2
100
AcDbEntity
  8
0
  6
Continuous
 62
     0
370
     0
100
AcDbPolyline
 90
       37
 70
     0
 43
0.0
 10
54.695522
 20
400.566742
 10
54.634903
 20
400.344543
 10
54.570877
 20
400.11676
 10
54.503418
 20
399.883362
 10
54.432487
 20
399.644409
 10
54.358055
 20
399.399841
 10
54.280094
 20
399.149689
 10
54.198566
 20
398.893921
 10
54.113441
 20
398.632538
 10
54.024693
 20
398.365479
 10
53.932289
 20
398.092682
 10
53.836201
 20
397.814087
 10
53.736397
 20
397.529724
 10
53.632847
 20
397.239502
 10
53.525528
 20
396.943451
 10
53.414413
 20
396.641541
 10
53.299469
 20
396.33374
 10
53.180676
 20
396.019989
 10
53.058014
 20
395.700317
 10
52.931435
 20
395.374664
 10
52.80085
 20
395.042816
 10
52.666519
 20
394.705536
 10
52.528305
 20
394.361145
 10
52.386063
 20
394.011749
 10
52.238136
 20
393.655121
 10
52.089172
 20
393.288239
 10
51.943981
 20
392.898285
 10
51.803158
 20
392.482605
 10
51.667439
 20
392.03891
 10
51.537678
 20
391.565063
 10
51.41478
 20
391.059418
 10
51.299683
 20
390.520966
 10
51.193363
 20
389.949371
 10
51.096676
 20
389.345398
 10
51.010185
 20
388.711731
 10
50.936413
 20
388.051971
 10
50.900631
 20
387.364471
  0
ELLIPSE
  5
D5
330
A2
100
AcDbEntity
  8
0
  6
Continuous
 62
     0
370
     0
100
AcDbEllipse
 10
51.790576
 20
387.383012
 30
0.0
 11
0.9869822927188568
 21
-0.1608289583981142
 31
0.0
210
0.0
220
0.0
230
-1.0
 40
0.333893
 41
1.516442044753456
 42
2.637020721815892
  0
LWPOLYLINE
  5
D6
330
A2
100
AcDbEntity
  8
0
  6
Continuous
 62
     0
370
     0
100
AcDbPolyline
 90
       23
 70
     0
 43
0.0
 10
55.692871
 20
399.587067
 10
55.591339
 20
399.230499
 10
55.480507
 20
398.858948
 10
55.36021
 20
398.472504
 10
55.230263
 20
398.070923
 10
55.090618
 20
397.654114
 10
54.941132
 20
397.221924
 10
54.781609
 20
396.7742
 10
54.611923
 20
396.310822
 10
54.431957
 20
395.831696
 10
54.241611
 20
395.3367
 10
54.040813
 20
394.825775
 10
53.829388
 20
394.298828
 10
53.607136
 20
393.755707
 10
53.374138
 20
393.196747
 10
53.129795
 20
392.623901
 10
52.891174
 20
392.026764
 10
52.664513
 20
391.370178
 10
52.453121
 20
390.648193
 10
52.260681
 20
389.856171
 10
52.090633
 20
388.992981
 10
51.94313
 20
388.060028
 10
51.790577
 20
387.045227
  0
ARC
  5
D7
330
A2
100
AcDbEntity
  8
0
  6
Continuous
 62
     0
370
     0
100
AcDbCircle
 10
55.698599
 20
400.59037
 30
0.0
 40
1.003307540892608
100
AcDbArc
 50
181.339694
 51
269.672883
  0
ARC
  5
D8
330
A2
100
AcDbEntity
  8
0
  6
Continuous
 62
     0
370
    30
100
AcDbCircle
 10
55.01406
 20
404.396122
 30
0.0
 40
1.010000069803315
100
AcDbArc
 50
219.511013
 51
282.62662
  0
LINE
  5
D9
330
A2
100
AcDbEntity
  8
0
  6
Continuous
 62
     0
370
    30
100
AcDbLine
 10
54.872904
 20
401.909507
 30
0.0
 11
54.695618
 21
400.570658
 31
0.0
  0
LINE
  5
DA
330
A2
100
AcDbEntity
  8
0
  6
Continuous
 62
     0
370
    30
100
AcDbLine
 10
54.748597
 20
403.453888
 30
0.0
 11
54.800395
 21
402.804613
 31
0.0
  0
LWPOLYLINE
  5
DB
330
A2
100
AcDbEntity
  8
0
  6
Continuous
 62
     0
370
     0
100
AcDbPolyline
 90
       48
 70
     0
 43
0.0
 10
55.677498
 20
403.410553
 10
55.682724
 20
403.338013
 10
55.687977
 20
403.265533
 10
55.693256
 20
403.193115
 10
55.698563
 20
403.120789
 10
55.703896
 20
403.048523
 10
55.709255
 20
402.976349
 10
55.714638
 20
402.904236
 10
55.720051
 20
402.832214
 10
55.725487
 20
402.760254
 10
55.730953
 20
402.688354
 10
55.736443
 20
402.616547
 10
55.741959
 20
402.5448
 10
55.747498
 20
402.473145
 10
55.753067
 20
402.40152
 10
55.758659
 20
402.329987
 10
55.764275
 20
402.258545
 10
55.76992
 20
402.187164
 10
55.775589
 20
402.115845
 10
55.781284
 20
402.044617
 10
55.787006
 20
401.97345
 10
55.792755
 20
401.902374
 10
55.798527
 20
401.83136
 10
55.804321
 20
401.760376
 10
55.810139
 20
401.689423
 10
55.815979
 20
401.618561
 10
55.821854
 20
401.547821
 10
55.827763
 20
401.477295
 10
55.833706
 20
401.406982
 10
55.839664
 20
401.336609
 10
55.845619
 20
401.265961
 10
55.851555
 20
401.194763
 10
55.857475
 20
401.123291
 10
55.863449
 20
401.052521
 10
55.869732
 20
400.984406
 10
55.872879
 20
400.9151
 10
55.871124
 20
400.832947
 10
55.866936
 20
400.733795
 10
55.860355
 20
400.62851
 10
55.851383
 20
400.521881
 10
55.840019
 20
400.412933
 10
55.82626
 20
400.301819
 10
55.810108
 20
400.188507
 10
55.791561
 20
400.073029
 10
55.770615
 20
399.955353
 10
55.747272
 20
399.83551
 10
55.721542
 20
399.713531
 10
55.692871
 20
399.587067
  0
LINE
  5
DC
330
A2
100
AcDbEntity
  8
0
  6
Continuous
 62
     0
370
    30
100
AcDbLine
 10
87.234444
 20
434.595312
 30
0.0
 11
87.234014
 21
434.302769
 31
0.0
  0
LINE
  5
DD
330
A2
100
AcDbEntity
  8
0
  6
Continuous
 62
     0
370
    30
100
AcDbLine
 10
87.234842
 20
410.250415
 30
0.0
 11
87.234444
 21
434.595312
 31
0.0
  0
LINE
  5
DE
330
A2
100
AcDbEntity
  8
0
  6
Continuous
 62
     0
370
     0
100
AcDbLine
 10
86.234842
 20
410.592971
 30
0.0
 11
86.234444
 21
435.595663
 31
0.0
  0
ARC
  5
DF
330
A2
100
AcDbEntity
  8
0
  6
Continuous
 62
     0
370
    30
100
AcDbCircle
 10
86.45564
 20
409.606637
 30
0.0
 40
1.010745493648539
100
AcDbArc
 50
39.563573
 51
102.618034
  0
LINE
  5
E0
330
A2
100
AcDbEntity
  8
0
  6
Continuous
 62
     0
370
     0
100
AcDbLine
 10
55.235241
 20
435.595667
 30
0.0
 11
55.234842
 21
410.592971
 31
0.0
  0
LINE
  5
E1
330
A2
100
AcDbEntity
  8
0
  6
Continuous
 62
     0
370
    30
100
AcDbLine
 10
54.235241
 20
434.595315
 30
0.0
 11
54.234842
 21
410.250415
 31
0.0
  0
LINE
  5
E2
330
A2
100
AcDbEntity
  8
0
  6
Continuous
 62
     0
370
    30
100
AcDbLine
 10
54.235669
 20
434.304987
 30
0.0
 11
54.235241
 21
434.595315
 31
0.0
  0
ARC
  5
E3
330
A2
100
AcDbEntity
  8
0
  6
Continuous
 62
     0
370
    30
100
AcDbCircle
 10
55.014045
 20
409.606636
 30
0.0
 40
1.010745523921194
100
AcDbArc
 50
77.381967
 51
140.436426
  0
LINE
  5
E4
330
A2
100
AcDbEntity
  8
0
  6
Continuous
 62
     0
370
    30
100
AcDbLine
 10
87.234842
 20
403.753533
 30
0.0
 11
87.234842
 21
410.250415
 31
0.0
  0
LINE
  5
E5
330
A2
100
AcDbEntity
  8
0
  6
Continuous
 62
     0
370
    30
100
AcDbLine
 10
55.234842
 20
410.592971
 30
0.0
 11
86.234842
 21
410.592971
 31
0.0
  0
LINE
  5
E6
330
A2
100
AcDbEntity
  8
0
  6
Continuous
 62
     0
370
    30
100
AcDbLine
 10
54.234842
 20
403.753533
 30
0.0
 11
54.234842
 21
410.250415
 31
0.0
  0
LINE
  5
E7
330
A2
100
AcDbEntity
  8
0
  6
Continuous
 62
     0
370
    30
100
AcDbLine
 10
86.234842
 20
403.410548
 30
0.0
 11
55.234842
 21
403.410548
 31
0.0
  0
LINE
  5
E8
330
A2
100
AcDbEntity
  8
0
  6
Continuous
 62
     0
370
    30
100
AcDbLine
 10
86.728955
 20
402.403204
 30
0.0
 11
86.774067
 21
400.570656
 31
0.0
  0
LINE
  5
E9
330
A2
100
AcDbEntity
  8
0
  6
Continuous
 62
     0
370
     0
100
AcDbLine
 10
50.989187
 20
384.098009
 30
0.0
 11
90.480497
 21
384.098034
 31
0.0
  0
LINE
  5
EA
330
A2
100
AcDbEntity
  8
0
  6
Continuous
 62
     0
370
     0
100
AcDbLine
 10
90.480501
 20
384.098034
 30
0.0
 11
89.679109
 21
387.045206
 31
0.0
  0
LINE
  5
EB
330
A2
100
AcDbEntity
  8
0
  6
Continuous
 62
     0
370
     0
100
AcDbLine
 10
50.989188
 20
384.098009
 30
0.0
 11
51.790576
 21
387.045215
 31
0.0
  0
ARC
  5
EC
330
A2
100
AcDbEntity
  8
0
  6
Continuous
 62
     0
370
    30
100
AcDbCircle
 10
-47.864471
 20
388.825946
 30
0.0
 40
138.4412506886438
100
AcDbArc
 50
359.395139
 51
12.614834
  0
ARC
  5
ED
330
A2
100
AcDbEntity
  8
0
  6
Continuous
 62
     0
370
    30
100
AcDbCircle
 10
189.334158
 20
388.825946
 30
0.0
 40
138.4412527959203
100
AcDbArc
 50
167.385166
 51
180.604856
  0
LINE
  5
EE
330
A2
100
AcDbEntity
  8
0
  6
Continuous
 62
     0
370
    30
100
AcDbLine
 10
54.750631
 20
402.805413
 30
0.0
 11
54.695618
 21
400.570658
 31
0.0
  0
LINE
  5
EF
330
A2
100
AcDbEntity
  8
0
  6
Continuous
 62
     0
370
    30
100
AcDbLine
 10
50.989187
 20
384.098009
 30
0.0
 11
50.900619
 21
387.364485
 31
0.0
  0
LINE
  5
F0
330
A2
100
AcDbEntity
  8
0
  6
Continuous
 62
     0
370
    30
100
AcDbLine
 10
90.569065
 20
387.364475
 30
0.0
 11
90.480497
 21
384.098009
 31
0.0
  0
LINE
  5
F1
330
A2
100
AcDbEntity
  8
0
  6
Continuous
 62
     0
370
    30
100
AcDbLine
 10
98.234842
 20
312.841765
 30
0.0
 11
43.234842
 21
312.841765
 31
0.0
  0
LWPOLYLINE
  5
F2
330
A2
100
AcDbEntity
  8
0
  6
Continuous
 62
     0
370
    30
100
AcDbPolyline
 90
       47
 70
     0
 43
0.0
 10
90.480499
 20
384.098022
 10
90.400269
 20
382.415497
 10
90.296097
 20
380.73526
 10
90.167824
 20
379.058319
 10
90.015297
 20
377.385681
 10
89.838028
 20
375.71814
 10
89.636192
 20
374.056122
 10
89.412239
 20
372.39978
 10
89.169594
 20
370.748718
 10
88.912254
 20
369.10199
 10
88.644272
 20
367.458679
 10
88.369553
 20
365.817688
 10
88.091766
 20
364.177795
 10
87.814522
 20
362.53775
 10
87.541481
 20
360.896179
 10
87.276558
 20
359.251984
 10
87.023743
 20
357.603943
 10
86.787064
 20
355.950958
 10
86.570999
 20
354.292236
 10
86.380348
 20
352.62735
 10
86.21994
 20
350.955902
 10
86.095078
 20
349.278168
 10
86.011703
 20
347.595276
 10
85.975792
 20
345.908447
 10
85.993195
 20
344.220276
 10
86.069466
 20
342.535858
 10
86.210152
 20
340.860565
 10
86.420425
 20
339.200287
 10
86.704163
 20
337.562164
 10
87.059685
 20
335.952087
 10
87.481125
 20
334.374298
 10
87.960983
 20
332.830231
 10
88.492455
 20
331.320435
 10
89.069809
 20
329.844788
 10
89.687988
 20
328.402588
 10
90.342537
 20
326.992889
 10
91.029633
 20
325.614532
 10
91.746002
 20
324.266388
 10
92.488708
 20
322.947174
 10
93.255844
 20
321.656189
 10
94.047722
 20
320.395477
 10
94.865311
 20
319.16803
 10
95.709343
 20
317.976929
 10
96.580345
 20
316.825348
 10
97.478577
 20
315.716431
 10
98.234848
 20
314.53714
 10
98.23484
 20
312.841766
  0
LWPOLYLINE
  5
F3
330
A2
100
AcDbEntity
  8
0
  6
Continuous
 62
     0
370
    30
100
AcDbPolyline
 90
       47
 70
     0
 43
0.0
 10
43.234844
 20
312.841766
 10
43.234833
 20
314.528076
 10
43.986202
 20
315.710602
 10
44.884586
 20
316.819275
 10
45.755733
 20
317.970642
 10
46.599911
 20
319.16153
 10
47.417641
 20
320.388794
 10
48.209648
 20
321.649353
 10
48.976917
 20
322.940155
 10
49.719761
 20
324.259216
 10
50.436275
 20
325.607208
 10
51.123543
 20
326.985413
 10
51.778271
 20
328.394928
 10
52.39666
 20
329.836945
 10
52.974243
 20
331.312408
 10
53.505974
 20
332.822052
 10
53.98613
 20
334.365906
 10
54.407906
 20
335.943512
 10
54.763798
 20
337.553406
 10
55.047935
 20
339.191437
 10
55.258595
 20
340.851593
 10
55.399643
 20
342.526825
 10
55.476246
 20
344.211212
 10
55.493942
 20
345.899384
 10
55.458309
 20
347.586212
 10
55.375172
 20
349.269135
 10
55.250519
 20
350.946899
 10
55.090282
 20
352.618378
 10
54.89978
 20
354.283295
 10
54.683838
 20
355.942047
 10
54.447262
 20
357.595093
 10
54.194523
 20
359.243134
 10
53.929653
 20
360.88736
 10
53.656647
 20
362.528931
 10
53.379414
 20
364.169006
 10
53.10162
 20
365.808868
 10
52.826878
 20
367.449829
 10
52.558846
 20
369.09314
 10
52.301441
 20
370.739868
 10
52.058704
 20
372.3909
 10
51.834641
 20
374.047211
 10
51.632675
 20
375.709198
 10
51.455276
 20
377.376709
 10
51.302616
 20
379.049316
 10
51.17421
 20
380.726257
 10
51.069912
 20
382.406433
 10
50.989189
 20
384.098022
  0
LWPOLYLINE
  5
F4
330
A2
100
AcDbEntity
  8
0
  6
Continuous
 62
     0
370
    30
100
AcDbPolyline
 90
       24
 70
     0
 43
0.0
 10
51.736168
 20
374.832764
 10
51.916725
 20
373.210968
 10
52.121414
 20
371.591583
 10
52.346367
 20
369.974304
 10
52.587723
 20
368.358887
 10
52.84161
 20
366.745026
 10
53.104172
 20
365.132446
 10
53.37154
 20
363.520905
 10
53.639828
 20
361.909943
 10
53.905079
 20
360.298859
 10
54.163307
 20
358.686707
 10
54.410542
 20
357.072601
 10
54.642796
 20
355.455688
 10
54.855751
 20
353.835388
 10
55.044308
 20
352.212067
 10
55.203243
 20
350.586121
 10
55.327343
 20
348.957947
 10
55.411388
 20
347.328033
 10
55.450161
 20
345.696777
 10
55.438446
 20
344.064606
 10
55.370705
 20
342.4328
 10
55.240582
 20
340.804779
 10
55.041599
 20
339.184235
 10
54.763977
 20
337.554321
  0
LWPOLYLINE
  5
F5
330
A2
100
AcDbEntity
  8
0
  6
Continuous
 62
     0
370
    30
100
AcDbPolyline
 90
        8
 70
     0
 43
0.0
 10
53.23484
 20
431.841766
 10
53.010815
 20
428.334595
 10
52.835011
 20
424.824524
 10
52.689342
 20
421.312653
 10
52.555729
 20
417.800171
 10
52.417072
 20
414.288147
 10
52.26244
 20
410.777008
 10
52.059811
 20
406.802521
  0
LWPOLYLINE
  5
F6
330
A2
100
AcDbEntity
  8
0
  6
Continuous
 62
     0
370
    30
100
AcDbPolyline
 90
       24
 70
     0
 43
0.0
 10
89.733521
 20
374.832764
 10
89.552956
 20
373.210968
 10
89.348274
 20
371.591583
 10
89.123314
 20
369.974304
 10
88.881966
 20
368.358887
 10
88.628075
 20
366.745026
 10
88.365509
 20
365.132446
 10
88.098145
 20
363.520905
 10
87.829857
 20
361.909943
 10
87.564606
 20
360.298859
 10
87.306374
 20
358.686707
 10
87.059143
 20
357.072601
 10
86.826889
 20
355.455688
 10
86.61393
 20
353.835388
 10
86.425377
 20
352.212067
 10
86.266441
 20
350.586121
 10
86.142342
 20
348.957947
 10
86.058296
 20
347.328033
 10
86.019524
 20
345.696777
 10
86.031235
 20
344.064606
 10
86.098984
 20
342.4328
 10
86.229103
 20
340.804779
 10
86.428085
 20
339.184235
 10
86.705704
 20
337.554321
  0
LWPOLYLINE
  5
F7
330
A2
100
AcDbEntity
  8
0
  6
Continuous
 62
     0
370
    30
100
AcDbPolyline
 90
        8
 70
     0
 43
0.0
 10
88.23484
 20
431.841766
 10
88.45887
 20
428.334595
 10
88.634674
 20
424.824524
 10
88.780342
 20
421.312653
 10
88.913956
 20
417.800171
 10
89.052612
 20
414.288147
 10
89.207245
 20
410.777008
 10
89.409874
 20
406.802521
  0
LINE
  5
F8
330
A2
100
AcDbEntity
  8
0
  6
Continuous
 62
     0
370
    30
100
AcDbLine
 10
86.234389
 20
435.595663
 30
0.0
 11
55.235238
 21
435.595663
 31
0.0
  0
LWPOLYLINE
  5
F9
330
A2
100
AcDbEntity
  8
0
  6
Continuous
 62
     0
370
    30
100
AcDbPolyline
 90
       23
 70
     0
 43
0.0
 10
55.235241
 20
435.595673
 10
54.980938
 20
435.562195
 10
54.741238
 20
435.464996
 10
54.535469
 20
435.309509
 10
54.375713
 20
435.107605
 10
54.275219
 20
434.86911
 10
54.211044
 20
434.643097
 10
54.160332
 20
434.459473
 10
54.121834
 20
434.314758
 10
54.094421
 20
434.205231
 10
54.076969
 20
434.127197
 10
54.068348
 20
434.076996
 10
54.06744
 20
434.050934
 10
54.073112
 20
434.045288
 10
54.08424
 20
434.056396
 10
54.099701
 20
434.080536
 10
54.11837
 20
434.114044
 10
54.139118
 20
434.153198
 10
54.16082
 20
434.194336
 10
54.18235
 20
434.233734
 10
54.202587
 20
434.2677
 10
54.220398
 20
434.292603
 10
54.234989
 20
434.304779
  0
LWPOLYLINE
  5
FA
330
A2
100
AcDbEntity
  8
0
  6
Continuous
 62
     0
370
    30
100
AcDbPolyline
 90
       23
 70
     0
 43
0.0
 10
86.234444
 20
435.595673
 10
86.489548
 20
435.561981
 10
86.729889
 20
435.464172
 10
86.935982
 20
435.30777
 10
87.095673
 20
435.104767
 10
87.195625
 20
434.865173
 10
87.259766
 20
434.639099
 10
87.31044
 20
434.455536
 10
87.348885
 20
434.310883
 10
87.376228
 20
434.201508
 10
87.393608
 20
434.123657
 10
87.402138
 20
434.073669
 10
87.402954
 20
434.047821
 10
87.397186
 20
434.042389
 10
87.385956
 20
434.053711
 10
87.370392
 20
434.078064
 10
87.351624
 20
434.111725
 10
87.330788
 20
434.151062
 10
87.308998
 20
434.192291
 10
87.287392
 20
434.23175
 10
87.267097
 20
434.265747
 10
87.249245
 20
434.290558
 10
87.234695
 20
434.302582
  0
LWPOLYLINE
  5
FB
330
A2
100
AcDbEntity
  8
0
  6
Continuous
 62
     0
370
    30
100
AcDbPolyline
 90
       18
 70
     0
 43
0.0
 10
54.872932
 20
401.909515
 10
54.873772
 20
401.885162
 10
54.871826
 20
401.908264
 10
54.866573
 20
401.968475
 10
54.860046
 20
402.042572
 10
54.854176
 20
402.109863
 10
54.849258
 20
402.167236
 10
54.844738
 20
402.220795
 10
54.840122
 20
402.27594
 10
54.835327
 20
402.333374
 10
54.83041
 20
402.392334
 10
54.825424
 20
402.451996
 10
54.820419
 20
402.511536
 10
54.815453
 20
402.570312
 10
54.810547
 20
402.628479
 10
54.805733
 20
402.686462
 10
54.801029
 20
402.744659
 10
54.796398
 20
402.804291
  0
LWPOLYLINE
  5
FC
330
A2
100
AcDbEntity
  8
0
  6
Continuous
 62
     0
370
    30
100
AcDbPolyline
 90
       20
 70
     0
 43
0.0
 10
86.596825
 20
401.903839
 10
86.594627
 20
401.874969
 10
86.594337
 20
401.861267
 10
86.597748
 20
401.904327
 10
86.601242
 20
401.948517
 10
86.60434
 20
401.986481
 10
86.607117
 20
402.019409
 10
86.609665
 20
402.048492
 10
86.612045
 20
402.075012
 10
86.614342
 20
402.100098
 10
86.616638
 20
402.125
 10
86.618996
 20
402.150909
 10
86.621483
 20
402.178711
 10
86.624077
 20
402.208252
 10
86.626747
 20
402.239166
 10
86.629456
 20
402.271027
 10
86.632172
 20
402.303497
 10
86.634872
 20
402.336182
 10
86.637505
 20
402.368713
 10
86.640083
 20
402.401001
  0
LINE
  5
FD
330
A2
100
AcDbEntity
  8
0
  6
Continuous
 62
     0
370
    30
100
AcDbLine
 10
97.234842
 20
82.591765
 30
0.0
 11
98.234842
 21
82.591765
 31
0.0
  0
LINE
  5
FE
330
A2
100
AcDbEntity
  8
0
  6
Continuous
 62
     0
370
    30
100
AcDbLine
 10
97.234842
 20
82.591765
 30
0.0
 11
44.234842
 21
82.591765
 31
0.0
  0
LINE
  5
FF
330
A2
100
AcDbEntity
  8
0
  6
Continuous
 62
     0
370
    30
100
AcDbLine
 10
43.234842
 20
82.591765
 30
0.0
 11
44.234842
 21
82.591765
 31
0.0
  0
LINE
  5
100
330
A2
100
AcDbEntity
  8
0
  6
Continuous
 62
     0
370
     0
100
AcDbLine
 10
97.234842
 20
312.591765
 30
0.0
 11
97.234842
 21
82.591765
 31
0.0
  0
LINE
  5
101
330
A2
100
AcDbEntity
  8
0
  6
Continuous
 62
     0
370
    30
100
AcDbLine
 10
98.234842
 20
312.591765
 30
0.0
 11
98.234842
 21
82.591765
 31
0.0
  0
LINE
  5
102
330
A2
100
AcDbEntity
  8
0
  6
Continuous
 62
     0
370
    30
100
AcDbLine
 10
97.234842
 20
312.591765
 30
0.0
 11
98.234842
 21
312.591765
 31
0.0
  0
LINE
  5
103
330
A2
100
AcDbEntity
  8
0
  6
Continuous
 62
     0
370
    30
100
AcDbLine
 10
43.234842
 20
312.591765
 30
0.0
 11
44.234842
 21
312.591765
 31
0.0
  0
LINE
  5
104
330
A2
100
AcDbEntity
  8
0
  6
Continuous
 62
     0
370
    30
100
AcDbLine
 10
97.234842
 20
312.591765
 30
0.0
 11
44.234842
 21
312.591765
 31
0.0
  0
LINE
  5
105
330
A2
100
AcDbEntity
  8
0
  6
Continuous
 62
     0
370
    30
100
AcDbLine
 10
43.234842
 20
312.591765
 30
0.0
 11
43.234842
 21
82.591765
 31
0.0
  0
LINE
  5
106
330
A2
100
AcDbEntity
  8
0
  6
Continuous
 62
     0
370
     0
100
AcDbLine
 10
44.234842
 20
312.591765
 30
0.0
 11
44.234842
 21
82.591765
 31
0.0
  0
ENDBLK
  5
108
330
A2
100
AcDbEntity
  8
0
100
AcDbBlockEnd
  0
BLOCK
  5
155
330
10A
100
AcDbEntity
  8
0
100
AcDbBlockBegin
  2
c
 70
     0
 10
15.948711
 20
90.780327
 30
0.0
  3
c
  1

  0
LINE
  5
10B
330
10A
100
AcDbEntity
  8
0
  6
Continuous
 62
     0
370
    30
100
AcDbLine
 10
265.613041
 20
641.840887
 30
0.0
 11
265.613041
 21
655.383223
 31
0.0
  0
LINE
  5
10C
330
10A
100
AcDbEntity
  8
0
  6
Continuous
 62
     0
370
    30
100
AcDbLine
 10
265.613041
 20
655.38319
 30
0.0
 11
265.613041
 21
656.982279
 31
0.0
  0
LWPOLYLINE
  5
10D
330
10A
100
AcDbEntity
  8
0
  6
Continuous
 62
     0
370
    30
100
AcDbPolyline
 90
       13
 70
     0
 43
0.0
 10
265.613037
 20
656.9823
 10
265.650696
 20
657.528259
 10
265.648834
 20
658.12262
 10
265.618561
 20
658.744629
 10
265.566986
 20
659.38385
 10
265.499023
 20
660.033752
 10
265.41806
 20
660.690918
 10
265.326477
 20
661.352722
 10
265.226135
 20
662.017822
 10
265.118073
 20
662.685242
 10
265.003479
 20
663.354248
 10
264.88324
 20
664.024231
 10
264.746796
 20
664.75354
  0
LWPOLYLINE
  5
10E
330
10A
100
AcDbEntity
  8
0
  6
Continuous
 62
     0
370
    30
100
AcDbPolyline
 90
       25
 70
     0
 43
0.0
 10
264.746796
 20
664.75354
 10
264.09967
 20
667.921082
 10
263.385742
 20
671.083252
 10
262.637512
 20
674.235657
 10
261.868103
 20
677.380188
 10
261.066742
 20
680.516174
 10
260.234222
 20
683.643311
 10
259.370514
 20
686.761353
 10
258.475677
 20
689.869873
 10
257.549713
 20
692.968445
 10
256.592743
 20
696.056824
 10
255.604843
 20
699.134644
 10
254.585907
 20
702.201477
 10
253.53627
 20
705.256958
 10
252.472626
 20
708.307983
 10
251.443298
 20
711.374146
 10
250.447662
 20
714.454163
 10
249.484055
 20
717.54657
 10
248.549896
 20
720.649536
 10
247.643158
 20
723.761719
 10
246.762085
 20
726.882019
 10
245.905106
 20
730.009521
 10
245.070755
 20
733.143311
 10
244.25769
 20
736.282837
 10
243.434998
 20
739.546631
  0
LWPOLYLINE
  5
10F
330
10A
100
AcDbEntity
  8
0
  6
Continuous
 62
     0
370
    30
100
AcDbPolyline
 90
       21
 70
     0
 43
0.0
 10
274.43515
 20
666.55426
 10
273.753937
 20
670.361328
 10
273.131989
 20
674.174805
 10
272.523865
 20
677.988159
 10
271.922791
 20
681.80127
 10
271.326569
 20
685.614136
 10
270.733765
 20
689.426758
 10
270.143524
 20
693.239197
 10
269.555389
 20
697.051453
 10
268.969696
 20
700.863953
 10
268.391296
 20
704.679077
 10
267.82135
 20
708.497192
 10
267.260193
 20
712.318115
 10
266.708191
 20
716.141907
 10
266.165741
 20
719.968384
 10
265.63324
 20
723.797424
 10
265.111115
 20
727.629028
 10
264.599884
 20
731.462769
 10
264.100037
 20
735.298584
 10
263.612061
 20
739.136169
 10
263.131165
 20
743.019531
  0
LINE
  5
110
330
10A
100
AcDbEntity
  8
0
  6
Continuous
 62
     0
370
     0
100
AcDbLine
 10
274.43516
 20
666.554239
 30
0.0
 11
264.746807
 21
664.753551
 31
0.0
  0
LINE
  5
111
330
10A
100
AcDbEntity
  8
0
  6
Continuous
 62
     0
370
    30
100
AcDbLine
 10
243.435004
 20
739.546616
 30
0.0
 11
263.13116
 21
743.019528
 31
0.0
  0
LINE
  5
112
330
10A
100
AcDbEntity
  8
0
  6
Continuous
 62
     0
370
    30
100
AcDbLine
 10
274.43516
 20
666.554239
 30
0.0
 11
275.75166
 21
659.971861
 31
0.0
  0
LINE
  5
113
330
10A
100
AcDbEntity
  8
0
  6
Continuous
 62
     0
370
    30
100
AcDbLine
 10
275.75166
 20
659.971861
 30
0.0
 11
265.613041
 21
656.982279
 31
0.0
  0
LINE
  5
114
330
10A
100
AcDbEntity
  8
0
  6
Continuous
 62
     0
370
    30
100
AcDbLine
 10
266.395501
 20
642.040688
 30
0.0
 11
265.613041
 21
641.840887
 31
0.0
  0
LINE
  5
115
330
10A
100
AcDbEntity
  8
0
  6
Continuous
 62
     0
370
    30
100
AcDbLine
 10
282.31304
 20
644.329205
 30
0.0
 11
282.028627
 21
644.317109
 31
0.0
  0
LINE
  5
116
330
10A
100
AcDbEntity
  8
0
  6
Continuous
 62
     0
370
    30
100
AcDbLine
 10
282.31304
 20
657.341129
 30
0.0
 11
282.313041
 21
657.128614
 31
0.0
  0
ARC
  5
117
330
10A
100
AcDbEntity
  8
0
  6
Continuous
 62
     0
370
    30
100
AcDbCircle
 10
282.214624
 20
662.07507
 30
0.0
 40
6.796537808410077
100
AcDbArc
 50
198.026179
 51
270.829692
  0
LINE
  5
118
330
10A
100
AcDbEntity
  8
0
  6
Continuous
 62
     0
370
    30
100
AcDbLine
 10
282.31304
 20
654.127307
 30
0.0
 11
282.31304
 21
644.329205
 31
0.0
  0
ARC
  5
119
330
10A
100
AcDbEntity
  8
0
  6
Continuous
 62
     0
370
     0
100
AcDbCircle
 10
285.359718
 20
806.297087
 30
0.0
 40
152.2002767941325
100
AcDbArc
 50
262.545364
 51
268.853002
  0
LWPOLYLINE
  5
11A
330
10A
100
AcDbEntity
  8
0
  6
Continuous
 62
     0
370
    30
100
AcDbPolyline
 90
       28
 70
     0
 43
0.0
 10
265.613037
 20
656.9823
 10
266.230774
 20
656.910767
 10
266.848114
 20
656.837646
 10
267.465057
 20
656.763
 10
268.081573
 20
656.686768
 10
268.697693
 20
656.609009
 10
269.313354
 20
656.529663
 10
269.928589
 20
656.448792
 10
270.543396
 20
656.366333
 10
271.157745
 20
656.282288
 10
271.771606
 20
656.196777
 10
272.38504
 20
656.109619
 10
272.997955
 20
656.020935
 10
273.610382
 20
655.930664
 10
274.222382
 20
655.838989
 10
274.833771
 20
655.745483
 10
275.44458
 20
655.650269
 10
276.061951
 20
655.577759
 10
276.681885
 20
655.515747
 10
277.303253
 20
655.460876
 10
277.925873
 20
655.412903
 10
278.549561
 20
655.371887
 10
279.174164
 20
655.337952
 10
279.799438
 20
655.310974
 10
280.425354
 20
655.290955
 10
281.051727
 20
655.278015
 10
281.678314
 20
655.272095
 10
282.313049
 20
655.273254
  0
LINE
  5
11B
330
10A
100
AcDbEntity
  8
0
  6
Continuous
 62
     0
370
    30
100
AcDbLine
 10
282.313019
 20
654.908432
 30
0.0
 11
282.31304
 21
654.127306
 31
0.0
  0
LINE
  5
11C
330
10A
100
AcDbEntity
  8
0
  6
Continuous
 62
     0
370
    30
100
AcDbLine
 10
282.313046
 20
657.128614
 30
0.0
 11
282.313046
 21
655.277225
 31
0.0
  0
LINE
  5
11D
330
10A
100
AcDbEntity
  8
0
  6
Continuous
 62
     0
370
    30
100
AcDbLine
 10
322.313043
 20
650.947188
 30
0.0
 11
322.313042
 21
670.340848
 31
0.0
  0
LWPOLYLINE
  5
11E
330
10A
100
AcDbEntity
  8
0
  6
Continuous
 62
     0
370
    30
100
AcDbPolyline
 90
       26
 70
     0
 43
0.0
 10
322.313049
 20
631.340637
 10
322.313049
 20
631.372681
 10
322.313049
 20
631.471558
 10
322.313049
 20
631.641113
 10
322.313049
 20
631.884705
 10
322.313049
 20
632.204895
 10
322.313049
 20
632.603699
 10
322.313049
 20
633.082031
 10
322.313049
 20
633.639954
 10
322.313049
 20
634.276428
 10
322.313049
 20
634.989319
 10
322.313049
 20
635.775452
 10
322.313049
 20
636.630676
 10
322.313049
 20
637.549744
 10
322.313049
 20
638.526611
 10
322.313049
 20
639.554382
 10
322.313049
 20
640.625854
 10
322.313049
 20
641.733032
 10
322.313049
 20
642.868042
 10
322.313049
 20
644.022705
 10
322.313049
 20
645.189148
 10
322.313049
 20
646.35968
 10
322.313049
 20
647.526978
 10
322.313049
 20
648.684326
 10
322.313049
 20
649.825623
 10
322.313049
 20
650.947205
  0
LINE
  5
11F
330
10A
100
AcDbEntity
  8
0
  6
Continuous
 62
     0
370
    30
100
AcDbLine
 10
282.313046
 20
655.276299
 30
0.0
 11
282.313046
 21
654.908432
 31
0.0
  0
LWPOLYLINE
  5
120
330
10A
100
AcDbEntity
  8
0
  6
Continuous
 62
     0
370
    30
100
AcDbPolyline
 90
       31
 70
     0
 43
0.0
 10
322.313049
 20
670.34082
 10
320.967377
 20
669.943726
 10
319.62326
 20
669.541321
 10
318.280701
 20
669.133545
 10
316.939758
 20
668.720581
 10
315.600403
 20
668.302368
 10
314.262695
 20
667.878845
 10
312.926666
 20
667.450195
 10
311.592285
 20
667.016296
 10
310.259644
 20
666.577271
 10
308.928711
 20
666.133057
 10
307.599518
 20
665.683655
 10
306.272125
 20
665.229004
 10
304.946564
 20
664.769043
 10
303.622833
 20
664.303772
 10
302.301025
 20
663.833008
 10
300.98111
 20
663.356812
 10
299.663025
 20
662.87561
 10
298.34671
 20
662.389832
 10
297.032043
 20
661.900085
 10
295.719116
 20
661.406067
 10
294.408356
 20
660.905945
 10
293.10025
 20
660.397766
 10
291.794983
 20
659.880188
 10
290.488861
 20
659.364624
 10
289.174622
 20
658.873535
 10
287.844849
 20
658.429871
 10
286.493622
 20
658.053589
 10
285.123383
 20
657.748596
 10
283.739471
 20
657.512756
 10
282.313049
 20
657.340759
  0
LWPOLYLINE
  5
121
330
10A
100
AcDbEntity
  8
0
  6
Continuous
 62
     0
370
    30
100
AcDbPolyline
 90
       31
 70
     0
 43
0.0
 10
322.313049
 20
631.340637
 10
320.967377
 20
631.737793
 10
319.62326
 20
632.140198
 10
318.280701
 20
632.547913
 10
316.939758
 20
632.960938
 10
315.600403
 20
633.37915
 10
314.262695
 20
633.802612
 10
312.926666
 20
634.231323
 10
311.592285
 20
634.665222
 10
310.259644
 20
635.104248
 10
308.928711
 20
635.548462
 10
307.599518
 20
635.997864
 10
306.272125
 20
636.452515
 10
304.946564
 20
636.912415
 10
303.622833
 20
637.377747
 10
302.301025
 20
637.848511
 10
300.98111
 20
638.324707
 10
299.663025
 20
638.805908
 10
298.34671
 20
639.291687
 10
297.032043
 20
639.781433
 10
295.719116
 20
640.275452
 10
294.408356
 20
640.775513
 10
293.10025
 20
641.283691
 10
291.794983
 20
641.80127
 10
290.488861
 20
642.316895
 10
289.174622
 20
642.807983
 10
287.844849
 20
643.251648
 10
286.493622
 20
643.627869
 10
285.123383
 20
643.932922
 10
283.739471
 20
644.168762
 10
282.313049
 20
644.340759
  0
ARC
  5
122
330
10A
100
AcDbEntity
  8
0
  6
Continuous
 62
     0
370
    30
100
AcDbCircle
 10
285.633014
 20
564.746483
 30
0.0
 40
79.65221937226819
100
AcDbArc
 50
92.593609
 51
103.976202
  0
LWPOLYLINE
  5
123
330
10A
100
AcDbEntity
  8
0
  6
Continuous
 62
     0
370
    30
100
AcDbPolyline
 90
       22
 70
     0
 43
0.0
 10
274.826019
 20
664.599976
 10
274.943237
 20
664.061707
 10
275.064911
 20
663.515259
 10
275.188141
 20
662.966431
 10
275.312439
 20
662.417908
 10
275.440918
 20
661.870056
 10
275.577545
 20
661.323364
 10
275.744659
 20
660.786011
 10
275.977203
 20
660.273499
 10
276.275238
 20
659.794861
 10
276.630127
 20
659.357056
 10
277.033508
 20
658.964661
 10
277.477478
 20
658.618286
 10
277.954193
 20
658.318237
 10
278.455811
 20
658.064697
 10
278.976715
 20
657.855957
 10
279.513214
 20
657.688416
 10
280.061707
 20
657.558411
 10
280.618622
 20
657.462402
 10
281.18042
 20
657.396606
 10
281.743469
 20
657.357422
 10
282.313049
 20
657.341125
  0
LINE
  5
124
330
10A
100
AcDbEntity
  8
0
  6
Continuous
 62
     0
370
    30
100
AcDbLine
 10
332.394716
 20
672.377325
 30
0.0
 11
332.394716
 21
666.06941
 31
0.0
  0
LINE
  5
125
330
10A
100
AcDbEntity
  8
0
  6
Continuous
 62
     0
370
    30
100
AcDbLine
 10
324.403028
 20
663.21512
 30
0.0
 11
324.403028
 21
668.34075
 31
0.0
  0
ARC
  5
126
330
10A
100
AcDbEntity
  8
0
  6
Continuous
 62
     0
370
    30
100
AcDbCircle
 10
353.565817
 20
594.173622
 30
0.0
 40
74.9479609146972
100
AcDbArc
 50
106.408052
 51
112.898957
  0
LINE
  5
127
330
10A
100
AcDbEntity
  8
0
  6
Continuous
 62
     0
370
    30
100
AcDbLine
 10
324.403027
 20
638.466383
 30
0.0
 11
324.403027
 21
633.340752
 31
0.0
  0
LINE
  5
128
330
10A
100
AcDbEntity
  8
0
  6
Continuous
 62
     0
370
    30
100
AcDbLine
 10
324.403027
 20
663.21512
 30
0.0
 11
324.403027
 21
638.466383
 31
0.0
  0
LWPOLYLINE
  5
129
330
10A
100
AcDbEntity
  8
0
  6
Continuous
 62
     0
370
     0
100
AcDbPolyline
 90
       50
 70
     0
 43
0.0
 10
355.67804
 20
692.346985
 10
355.840729
 20
691.832153
 10
356.006409
 20
691.318481
 10
356.17511
 20
690.80603
 10
356.346832
 20
690.2948
 10
356.521576
 20
689.784851
 10
356.69931
 20
689.276123
 10
356.880066
 20
688.768799
 10
357.063873
 20
688.262817
 10
357.250671
 20
687.758179
 10
357.440491
 20
687.255005
 10
357.633392
 20
686.753296
 10
357.829315
 20
686.253052
 10
358.028351
 20
685.754333
 10
358.230499
 20
685.257263
 10
358.435791
 20
684.761719
 10
358.644196
 20
684.267883
 10
358.855713
 20
683.775757
 10
359.070404
 20
683.2854
 10
359.288269
 20
682.796753
 10
359.509277
 20
682.309937
 10
359.733459
 20
681.825012
 10
359.960815
 20
681.34198
 10
360.191376
 20
680.860901
 10
360.42514
 20
680.381836
 10
360.662109
 20
679.904846
 10
360.902344
 20
679.42981
 10
361.145844
 20
678.956848
 10
361.392303
 20
678.486877
 10
361.64212
 20
678.017883
 10
361.896057
 20
677.552612
 10
362.152008
 20
677.088257
 10
362.41272
 20
676.6297
 10
362.675995
 20
676.166687
 10
362.946838
 20
675.706482
 10
363.230377
 20
675.253662
 10
363.527496
 20
674.809204
 10
363.83902
 20
674.374146
 10
364.165863
 20
673.950073
 10
364.508911
 20
673.538391
 10
364.868835
 20
673.140808
 10
365.246155
 20
672.759155
 10
365.641266
 20
672.395386
 10
366.05426
 20
672.051636
 10
366.485107
 20
671.730469
 10
366.933014
 20
671.434143
 10
367.396912
 20
671.16571
 10
367.875305
 20
670.931213
 10
368.366699
 20
670.751465
 10
368.88031
 20
670.674988
  0
ELLIPSE
  5
12A
330
10A
100
AcDbEntity
  8
0
  6
Continuous
 62
     0
370
     0
100
AcDbEllipse
 10
368.86178
 20
670.219273
 30
0.0
 11
0.3377972620188805
 21
0.9412188957795851
 31
0.0
210
0.0
220
0.0
230
1.0
 40
0.151599
 41
0.0000000518651255
 42
1.120578728927529
  0
LWPOLYLINE
  5
12B
330
10A
100
AcDbEntity
  8
0
  6
Continuous
 62
     0
370
    30
100
AcDbPolyline
 90
       30
 70
     0
 43
0.0
 10
356.657715
 20
692.569214
 10
356.926941
 20
691.702454
 10
357.204926
 20
690.83844
 10
357.491394
 20
689.977966
 10
357.786469
 20
689.121216
 10
358.090271
 20
688.268311
 10
358.402863
 20
687.419312
 10
358.724243
 20
686.574524
 10
359.054535
 20
685.73407
 10
359.393768
 20
684.898193
 10
359.742035
 20
684.067017
 10
360.099335
 20
683.240784
 10
360.465729
 20
682.419678
 10
360.841278
 20
681.603943
 10
361.225983
 20
680.793823
 10
361.619904
 20
679.989441
 10
362.023102
 20
679.19104
 10
362.435608
 20
678.398804
 10
362.8573
 20
677.612976
 10
363.288483
 20
676.833923
 10
363.724213
 20
676.075073
 10
364.17984
 20
675.352905
 10
364.669617
 20
674.659973
 10
365.195892
 20
674.002869
 10
365.761566
 20
673.387573
 10
366.367767
 20
672.821106
 10
367.014893
 20
672.310791
 10
367.703491
 20
671.861328
 10
368.42923
 20
671.47821
 10
369.199585
 20
671.160522
  0
LINE
  5
12C
330
10A
100
AcDbEntity
  8
0
  6
Continuous
 62
     0
370
     0
100
AcDbLine
 10
355.677879
 20
692.347519
 30
0.0
 11
356.657713
 21
692.569206
 31
0.0
  0
LWPOLYLINE
  5
12D
330
10A
100
AcDbEntity
  8
0
  6
Continuous
 62
     0
370
    30
100
AcDbPolyline
 90
        7
 70
     0
 43
0.0
 10
352.834229
 20
797.973999
 10
352.822876
 20
798.005188
 10
352.78952
 20
798.096863
 10
352.736542
 20
798.242432
 10
352.667389
 20
798.432434
 10
352.586639
 20
798.654297
 10
352.491241
 20
798.916321
  0
LWPOLYLINE
  5
12E
330
10A
100
AcDbEntity
  8
0
  6
Continuous
 62
     0
370
     0
100
AcDbPolyline
 90
      112
 70
     0
 43
0.0
 10
352.491241
 20
798.916321
 10
351.50647
 20
798.608826
 10
350.539429
 20
798.24939
 10
349.592957
 20
797.838989
 10
348.669464
 20
797.379028
 10
347.771301
 20
796.871399
 10
346.900818
 20
796.317688
 10
346.060455
 20
795.719299
 10
345.252655
 20
795.077576
 10
344.480042
 20
794.39386
 10
343.745331
 20
793.669617
 10
343.05127
 20
792.906372
 10
342.400665
 20
792.105774
 10
341.79657
 20
791.26947
 10
341.242279
 20
790.399353
 10
340.741211
 20
789.49762
 10
340.296783
 20
788.56665
 10
339.912781
 20
787.609192
 10
339.592926
 20
786.628418
 10
339.341034
 20
785.628052
 10
339.16095
 20
784.612366
 10
339.056213
 20
783.586121
 10
339.030212
 20
782.554932
 10
339.085632
 20
781.525757
 10
339.225739
 20
780.502747
 10
339.430786
 20
779.491333
 10
339.636139
 20
778.480042
 10
339.840973
 20
777.468567
 10
340.045166
 20
776.457031
 10
340.248749
 20
775.445312
 10
340.451721
 20
774.433533
 10
340.654114
 20
773.42157
 10
340.855927
 20
772.409546
 10
341.057129
 20
771.397339
 10
341.257751
 20
770.385071
 10
341.457794
 20
769.372681
 10
341.657227
 20
768.360168
 10
341.85614
 20
767.347473
 10
342.054504
 20
766.334229
 10
342.251984
 20
765.323242
 10
342.44986
 20
764.305481
 10
342.645935
 20
763.295776
 10
342.841766
 20
762.283752
 10
343.037354
 20
761.269409
 10
343.2323
 20
760.255554
 10
343.426575
 20
759.242249
 10
343.6203
 20
758.228943
 10
343.813477
 20
757.215271
 10
344.006134
 20
756.201355
 10
344.198242
 20
755.1875
 10
344.389801
 20
754.173462
 10
344.580811
 20
753.159363
 10
344.771301
 20
752.145142
 10
344.961243
 20
751.130798
 10
345.150665
 20
750.116394
 10
345.339569
 20
749.101868
 10
345.527924
 20
748.08728
 10
345.71579
 20
747.072571
 10
345.903107
 20
746.0578
 10
346.089935
 20
745.042908
 10
346.276215
 20
744.027893
 10
346.462036
 20
743.012878
 10
346.647308
 20
741.997681
 10
346.832123
 20
740.982422
 10
347.016418
 20
739.967102
 10
347.200195
 20
738.951721
 10
347.383514
 20
737.936157
 10
347.566345
 20
736.920593
 10
347.748657
 20
735.904907
 10
347.930511
 20
734.88916
 10
348.111877
 20
733.873291
 10
348.292755
 20
732.857361
 10
348.473175
 20
731.84137
 10
348.653137
 20
730.825256
 10
348.832611
 20
729.809082
 10
349.011597
 20
728.792847
 10
349.190155
 20
727.77655
 10
349.368225
 20
726.760132
 10
349.545868
 20
725.743652
 10
349.723022
 20
724.727051
 10
349.89975
 20
723.710449
 10
350.076019
 20
722.693726
 10
350.251831
 20
721.676941
 10
350.427216
 20
720.660095
 10
350.602142
 20
719.643127
 10
350.776611
 20
718.626099
 10
350.950684
 20
717.60907
 10
351.124298
 20
716.591919
 10
351.297485
 20
715.574646
 10
351.470245
 20
714.557373
 10
351.642578
 20
713.540039
 10
351.814484
 20
712.522583
 10
351.985962
 20
711.505066
 10
352.157013
 20
710.487488
 10
352.327667
 20
709.469849
 10
352.497894
 20
708.452148
 10
352.667725
 20
707.434448
 10
352.837128
 20
706.416626
 10
353.006104
 20
705.39856
 10
353.174683
 20
704.380615
 10
353.342957
 20
703.362976
 10
353.510651
 20
702.344482
 10
353.677826
 20
701.325195
 10
353.845734
 20
700.311584
 10
354.011749
 20
699.290344
 10
354.174072
 20
698.253174
 10
354.344574
 20
697.268982
 10
354.585602
 20
696.279297
 10
354.840363
 20
695.293091
 10
355.106323
 20
694.310242
 10
355.383392
 20
693.331116
 10
355.674133
 20
692.346985
  0
LWPOLYLINE
  5
12F
330
10A
100
AcDbEntity
  8
0
  6
Continuous
 62
     0
370
    30
100
AcDbPolyline
 90
      187
 70
     0
 43
0.0
 10
352.834229
 20
797.973999
 10
352.273895
 20
797.808044
 10
351.719177
 20
797.62439
 10
351.170532
 20
797.423157
 10
350.62851
 20
797.20459
 10
350.093597
 20
796.96875
 10
349.566284
 20
796.716125
 10
349.047058
 20
796.44696
 10
348.536346
 20
796.161621
 10
348.034698
 20
795.860535
 10
347.542664
 20
795.543945
 10
347.06076
 20
795.212219
 10
346.5896
 20
794.865723
 10
346.129669
 20
794.504639
 10
345.681519
 20
794.129395
 10
345.245728
 20
793.740173
 10
344.822876
 20
793.337402
 10
344.413422
 20
792.921387
 10
344.018005
 20
792.492432
 10
343.637177
 20
792.050964
 10
343.271545
 20
791.597351
 10
342.921783
 20
791.132019
 10
342.588501
 20
790.655396
 10
342.272339
 20
790.167847
 10
341.973999
 20
789.669983
 10
341.694153
 20
789.162231
 10
341.433472
 20
788.645203
 10
341.192627
 20
788.119324
 10
340.972382
 20
787.585388
 10
340.773407
 20
787.044006
 10
340.596436
 20
786.496033
 10
340.442169
 20
785.942078
 10
340.311279
 20
785.383118
 10
340.204498
 20
784.820007
 10
340.122467
 20
784.253723
 10
340.065735
 20
783.685364
 10
340.034882
 20
783.115784
 10
340.030426
 20
782.546265
 10
340.052856
 20
781.978699
 10
340.102936
 20
781.413574
 10
340.179749
 20
780.852051
 10
340.288574
 20
780.290955
 10
340.41333
 20
779.680176
 10
340.53595
 20
779.077332
 10
340.65863
 20
778.4729
 10
340.781128
 20
777.868408
 10
340.90332
 20
777.264221
 10
341.02533
 20
776.65979
 10
341.147095
 20
776.055359
 10
341.268646
 20
775.450867
 10
341.389984
 20
774.846313
 10
341.511108
 20
774.24176
 10
341.632019
 20
773.637085
 10
341.752686
 20
773.032471
 10
341.873169
 20
772.427734
 10
341.993408
 20
771.822998
 10
342.113464
 20
771.218201
 10
342.233276
 20
770.613342
 10
342.352875
 20
770.008484
 10
342.47229
 20
769.403564
 10
342.591492
 20
768.798645
 10
342.710449
 20
768.193665
 10
342.829224
 20
767.588623
 10
342.947784
 20
766.983521
 10
343.066132
 20
766.378418
 10
343.184296
 20
765.773315
 10
343.302216
 20
765.168091
 10
343.419952
 20
764.562866
 10
343.537506
 20
763.957642
 10
343.654816
 20
763.352295
 10
343.771942
 20
762.747009
 10
343.888885
 20
762.141602
 10
344.005615
 20
761.536194
 10
344.122131
 20
760.930725
 10
344.238434
 20
760.325256
 10
344.354584
 20
759.719727
 10
344.47049
 20
759.114197
 10
344.586243
 20
758.508606
 10
344.701782
 20
757.902954
 10
344.817108
 20
757.297302
 10
344.932251
 20
756.691589
 10
345.047211
 20
756.085876
 10
345.161957
 20
755.480103
 10
345.27652
 20
754.874268
 10
345.3909
 20
754.268433
 10
345.505096
 20
753.662598
 10
345.61908
 20
753.056641
 10
345.73288
 20
752.450745
 10
345.846497
 20
751.844727
 10
345.95993
 20
751.238708
 10
346.073181
 20
750.63269
 10
346.186218
 20
750.026611
 10
346.299103
 20
749.420532
 10
346.411774
 20
748.814392
 10
346.524261
 20
748.208191
 10
346.636597
 20
747.60199
 10
346.748718
 20
746.995728
 10
346.860687
 20
746.389465
 10
346.972443
 20
745.783142
 10
347.084015
 20
745.176819
 10
347.195435
 20
744.570496
 10
347.306671
 20
743.96405
 10
347.417725
 20
743.357666
 10
347.528595
 20
742.75116
 10
347.639282
 20
742.144714
 10
347.749786
 20
741.538147
 10
347.860138
 20
740.931641
 10
347.970306
 20
740.325012
 10
348.080292
 20
739.718445
 10
348.190094
 20
739.111755
 10
348.299744
 20
738.505127
 10
348.40921
 20
737.898376
 10
348.518494
 20
737.291687
 10
348.627625
 20
736.684875
 10
348.736572
 20
736.078125
 10
348.845367
 20
735.471313
 10
348.953979
 20
734.864441
 10
349.062408
 20
734.257568
 10
349.170685
 20
733.650635
 10
349.278809
 20
733.043701
 10
349.386749
 20
732.436768
 10
349.494507
 20
731.829773
 10
349.602112
 20
731.222778
 10
349.709564
 20
730.615723
 10
349.816833
 20
730.008606
 10
349.92395
 20
729.40155
 10
350.030884
 20
728.794373
 10
350.137665
 20
728.187256
 10
350.244293
 20
727.580078
 10
350.350739
 20
726.972839
 10
350.457031
 20
726.365601
 10
350.563171
 20
725.758362
 10
350.669159
 20
725.151062
 10
350.774963
 20
724.543762
 10
350.880615
 20
723.936401
 10
350.986115
 20
723.329041
 10
351.091461
 20
722.721619
 10
351.196625
 20
722.114197
 10
351.301636
 20
721.506775
 10
351.406525
 20
720.899292
 10
351.51123
 20
720.291809
 10
351.615784
 20
719.684265
 10
351.720184
 20
719.076721
 10
351.824402
 20
718.469177
 10
351.928497
 20
717.861572
 10
352.03244
 20
717.253906
 10
352.13623
 20
716.646301
 10
352.239838
 20
716.038635
 10
352.343323
 20
715.430908
 10
352.446655
 20
714.823181
 10
352.549835
 20
714.215454
 10
352.652832
 20
713.607666
 10
352.755707
 20
712.999878
 10
352.858429
 20
712.39209
 10
352.961029
 20
711.784241
 10
353.063446
 20
711.176392
 10
353.16571
 20
710.568481
 10
353.267853
 20
709.960571
 10
353.369843
 20
709.352661
 10
353.47168
 20
708.74469
 10
353.573364
 20
708.136719
 10
353.674896
 20
707.528748
 10
353.776306
 20
706.920715
 10
353.877563
 20
706.312622
 10
353.978699
 20
705.704529
 10
354.079651
 20
705.096375
 10
354.180481
 20
704.488281
 10
354.281128
 20
703.88031
 10
354.381653
 20
703.272278
 10
354.482086
 20
702.66394
 10
354.582428
 20
702.054993
 10
354.682587
 20
701.446594
 10
354.782318
 20
700.839966
 10
354.881805
 20
700.234131
 10
354.981689
 20
699.624451
 10
355.08252
 20
699.007446
 10
355.183136
 20
698.393372
 10
355.279877
 20
697.80011
 10
355.377655
 20
697.270264
 10
355.522858
 20
696.67572
 10
355.672119
 20
696.083862
 10
355.8255
 20
695.494629
 10
355.983154
 20
694.906982
 10
356.145172
 20
694.32074
 10
356.311584
 20
693.735901
 10
356.4823
 20
693.152527
 10
356.657715
 20
692.569214
  0
LINE
  5
130
330
10A
100
AcDbEntity
  8
0
  6
Continuous
 62
     0
370
    30
100
AcDbLine
 10
339.101417
 20
678.009204
 30
0.0
 11
338.336701
 21
677.986199
 31
0.0
  0
LINE
  5
131
330
10A
100
AcDbEntity
  8
0
  6
Continuous
 62
     0
370
     0
100
AcDbLine
 10
339.101417
 20
678.009204
 30
0.0
 11
337.937145
 21
692.215161
 31
0.0
  0
LINE
  5
132
330
10A
100
AcDbEntity
  8
0
  6
Continuous
 62
     0
370
     0
100
AcDbLine
 10
336.966775
 20
692.12183
 30
0.0
 11
337.935927
 21
692.215091
 31
0.0
  0
LINE
  5
133
330
10A
100
AcDbEntity
  8
0
  6
Continuous
 62
     0
370
    30
100
AcDbLine
 10
338.3367
 20
677.986211
 30
0.0
 11
336.966775
 21
692.12183
 31
0.0
  0
LWPOLYLINE
  5
134
330
10A
100
AcDbEntity
  8
0
  6
Continuous
 62
     0
370
    30
100
AcDbPolyline
 90
      185
 70
     0
 43
0.0
 10
338.3367
 20
677.986206
 10
338.338562
 20
677.910706
 10
338.340454
 20
677.835144
 10
338.342468
 20
677.75946
 10
338.344513
 20
677.683716
 10
338.346649
 20
677.608032
 10
338.348877
 20
677.53241
 10
338.351166
 20
677.456787
 10
338.353516
 20
677.381226
 10
338.355957
 20
677.305603
 10
338.358459
 20
677.229919
 10
338.361023
 20
677.154297
 10
338.363678
 20
677.078613
 10
338.366394
 20
677.002991
 10
338.369171
 20
676.927429
 10
338.372009
 20
676.851929
 10
338.374908
 20
676.776489
 10
338.377838
 20
676.70105
 10
338.380829
 20
676.625732
 10
338.383881
 20
676.550476
 10
338.387024
 20
676.474426
 10
338.390259
 20
676.397766
 10
338.393585
 20
676.323059
 10
338.397003
 20
676.245239
 10
338.400238
 20
676.178589
 10
338.403259
 20
676.107605
 10
338.405792
 20
676.038635
 10
338.407928
 20
675.969971
 10
338.409668
 20
675.901062
 10
338.411011
 20
675.832153
 10
338.411896
 20
675.763367
 10
338.412415
 20
675.694641
 10
338.412476
 20
675.625854
 10
338.41217
 20
675.557007
 10
338.411407
 20
675.48822
 10
338.410248
 20
675.419373
 10
338.408691
 20
675.350586
 10
338.406708
 20
675.281738
 10
338.404297
 20
675.212952
 10
338.401459
 20
675.144165
 10
338.398224
 20
675.075439
 10
338.394562
 20
675.006653
 10
338.390472
 20
674.937988
 10
338.385956
 20
674.869324
 10
338.381012
 20
674.80072
 10
338.375641
 20
674.732117
 10
338.369843
 20
674.663574
 10
338.363617
 20
674.595032
 10
338.356964
 20
674.52655
 10
338.349884
 20
674.45813
 10
338.342377
 20
674.389771
 10
338.334442
 20
674.321411
 10
338.32608
 20
674.253113
 10
338.317291
 20
674.184875
 10
338.308044
 20
674.116699
 10
338.298401
 20
674.048584
 10
338.2883
 20
673.98053
 10
338.277771
 20
673.912537
 10
338.266815
 20
673.844604
 10
338.255432
 20
673.776733
 10
338.243622
 20
673.708984
 10
338.231354
 20
673.641235
 10
338.218689
 20
673.573608
 10
338.205566
 20
673.506042
 10
338.191986
 20
673.438599
 10
338.178009
 20
673.371216
 10
338.163574
 20
673.303894
 10
338.148712
 20
673.236694
 10
338.133423
 20
673.169617
 10
338.117676
 20
673.1026
 10
338.101532
 20
673.035645
 10
338.08493
 20
672.968872
 10
338.067871
 20
672.902161
 10
338.050415
 20
672.835571
 10
338.032501
 20
672.769043
 10
338.01416
 20
672.702698
 10
337.995392
 20
672.636414
 10
337.976196
 20
672.570312
 10
337.956543
 20
672.504272
 10
337.936493
 20
672.438354
 10
337.915985
 20
672.37262
 10
337.89505
 20
672.306946
 10
337.873688
 20
672.241455
 10
337.851898
 20
672.176086
 10
337.829681
 20
672.11084
 10
337.807037
 20
672.045776
 10
337.783966
 20
671.980835
 10
337.760468
 20
671.916016
 10
337.736542
 20
671.851379
 10
337.712189
 20
671.786865
 10
337.687408
 20
671.722534
 10
337.662201
 20
671.658325
 10
337.636566
 20
671.594299
 10
337.610504
 20
671.530396
 10
337.584045
 20
671.466736
 10
337.557159
 20
671.403198
 10
337.529816
 20
671.339844
 10
337.502075
 20
671.276672
 10
337.473938
 20
671.213623
 10
337.445343
 20
671.150818
 10
337.416351
 20
671.088196
 10
337.386963
 20
671.025696
 10
337.357117
 20
670.96344
 10
337.326874
 20
670.901367
 10
337.296234
 20
670.839539
 10
337.265167
 20
670.777832
 10
337.233673
 20
670.71637
 10
337.201813
 20
670.65509
 10
337.169495
 20
670.593994
 10
337.13681
 20
670.533142
 10
337.103699
 20
670.472473
 10
337.07019
 20
670.411987
 10
337.036285
 20
670.351746
 10
337.001984
 20
670.291748
 10
336.967285
 20
670.231934
 10
336.93219
 20
670.172363
 10
336.896698
 20
670.113037
 10
336.860809
 20
670.053894
 10
336.824524
 20
669.994995
 10
336.787872
 20
669.93634
 10
336.750793
 20
669.877869
 10
336.713348
 20
669.819702
 10
336.675537
 20
669.761719
 10
336.637329
 20
669.703979
 10
336.598724
 20
669.646545
 10
336.559753
 20
669.589294
 10
336.520386
 20
669.532288
 10
336.480652
 20
669.475586
 10
336.440552
 20
669.419128
 10
336.400055
 20
669.362854
 10
336.359192
 20
669.306946
 10
336.317963
 20
669.251221
 10
336.276367
 20
669.19574
 10
336.234406
 20
669.140564
 10
336.192078
 20
669.085693
 10
336.149384
 20
669.031006
 10
336.106323
 20
668.976624
 10
336.062927
 20
668.922546
 10
336.019165
 20
668.868713
 10
335.975067
 20
668.815125
 10
335.930603
 20
668.761841
 10
335.885803
 20
668.708862
 10
335.840637
 20
668.656128
 10
335.795135
 20
668.603638
 10
335.749298
 20
668.551514
 10
335.703125
 20
668.499634
 10
335.656616
 20
668.448059
 10
335.609772
 20
668.396729
 10
335.562592
 20
668.345703
 10
335.515106
 20
668.294983
 10
335.467255
 20
668.244568
 10
335.419098
 20
668.194458
 10
335.370636
 20
668.144592
 10
335.321838
 20
668.095093
 10
335.272705
 20
668.045837
 10
335.223297
 20
667.996887
 10
335.173553
 20
667.948242
 10
335.123474
 20
667.899902
 10
335.07312
 20
667.851868
 10
335.022461
 20
667.804138
 10
334.971497
 20
667.756714
 10
334.920227
 20
667.709595
 10
334.868652
 20
667.662781
 10
334.816803
 20
667.616333
 10
334.764648
 20
667.570129
 10
334.712189
 20
667.524231
 10
334.659454
 20
667.478638
 10
334.606445
 20
667.43335
 10
334.553162
 20
667.388428
 10
334.499603
 20
667.34375
 10
334.44577
 20
667.299438
 10
334.391663
 20
667.255371
 10
334.33728
 20
667.21167
 10
334.282623
 20
667.168274
 10
334.227692
 20
667.125183
 10
334.172516
 20
667.082458
 10
334.117065
 20
667.040039
 10
334.061371
 20
666.997925
 10
334.005463
 20
666.956055
 10
333.949188
 20
666.914673
 10
333.892487
 20
666.873901
 10
333.835571
 20
666.833374
 10
333.778748
 20
666.792664
 10
333.722046
 20
666.75177
 10
333.664795
 20
666.711365
  0
LWPOLYLINE
  5
135
330
10A
100
AcDbEntity
  8
0
  6
Continuous
 62
     0
370
    30
100
AcDbPolyline
 90
       69
 70
     0
 43
0.0
 10
339.10141
 20
678.009216
 10
339.103516
 20
677.80542
 10
339.105927
 20
677.601624
 10
339.108643
 20
677.397888
 10
339.111664
 20
677.194153
 10
339.11499
 20
676.990417
 10
339.118591
 20
676.786682
 10
339.122406
 20
676.582947
 10
339.126526
 20
676.379028
 10
339.127228
 20
676.199646
 10
339.128876
 20
676.000732
 10
339.127197
 20
675.802063
 10
339.122131
 20
675.603394
 10
339.113708
 20
675.404907
 10
339.101868
 20
675.206665
 10
339.086609
 20
675.00885
 10
339.067902
 20
674.811401
 10
339.045746
 20
674.61438
 10
339.020142
 20
674.417847
 10
338.991058
 20
674.221924
 10
338.958527
 20
674.026611
 10
338.922516
 20
673.832031
 10
338.883026
 20
673.638184
 10
338.840088
 20
673.44519
 10
338.79364
 20
673.253113
 10
338.743744
 20
673.061951
 10
338.690369
 20
672.871887
 10
338.633545
 20
672.682861
 10
338.573242
 20
672.495056
 10
338.509521
 20
672.308472
 10
338.442383
 20
672.12323
 10
338.371826
 20
671.939331
 10
338.297913
 20
671.756897
 10
338.220581
 20
671.575989
 10
338.139954
 20
671.396667
 10
338.055969
 20
671.218994
 10
337.968658
 20
671.043091
 10
337.878082
 20
670.868958
 10
337.784241
 20
670.696655
 10
337.687195
 20
670.526367
 10
337.586914
 20
670.358032
 10
337.48349
 20
670.191833
 10
337.376923
 20
670.027771
 10
337.267242
 20
669.865906
 10
337.154541
 20
669.70636
 10
337.038788
 20
669.549194
 10
336.920074
 20
669.394409
 10
336.798431
 20
669.242126
 10
336.673859
 20
669.092407
 10
336.546478
 20
668.945312
 10
336.41626
 20
668.800964
 10
336.283325
 20
668.659302
 10
336.147705
 20
668.520508
 10
336.00943
 20
668.384583
 10
335.868591
 20
668.251526
 10
335.72525
 20
668.121521
 10
335.579437
 20
667.994446
 10
335.431213
 20
667.870483
 10
335.28067
 20
667.749634
 10
335.127869
 20
667.631897
 10
334.97287
 20
667.517334
 10
334.815796
 20
667.405884
 10
334.656708
 20
667.297546
 10
334.495728
 20
667.192322
 10
334.332855
 20
667.09021
 10
334.168182
 20
666.991211
 10
334.001892
 20
666.895142
 10
333.833344
 20
666.802551
 10
333.664917
 20
666.711121
  0
LWPOLYLINE
  5
136
330
10A
100
AcDbEntity
  8
0
  6
Continuous
 62
     0
370
    30
100
AcDbPolyline
 90
       89
 70
     0
 43
0.0
 10
336.966766
 20
692.121826
 10
336.798553
 20
693.668762
 10
336.626678
 20
695.215271
 10
336.451141
 20
696.761414
 10
336.271942
 20
698.307068
 10
336.08905
 20
699.852295
 10
335.902435
 20
701.397034
 10
335.712067
 20
702.941345
 10
335.517975
 20
704.485168
 10
335.320129
 20
706.028503
 10
335.1185
 20
707.57135
 10
334.913086
 20
709.113708
 10
334.703857
 20
710.655518
 10
334.490814
 20
712.196838
 10
334.273956
 20
713.73761
 10
334.053192
 20
715.277832
 10
333.828583
 20
716.817444
 10
333.600067
 20
718.356506
 10
333.367645
 20
719.89502
 10
333.131317
 20
721.432922
 10
332.891022
 20
722.970154
 10
332.646759
 20
724.506775
 10
332.398529
 20
726.042786
 10
332.146301
 20
727.578125
 10
331.890076
 20
729.112793
 10
331.629791
 20
730.646729
 10
331.365479
 20
732.180054
 10
331.097076
 20
733.712585
 10
330.824615
 20
735.244446
 10
330.548035
 20
736.775513
 10
330.267334
 20
738.305847
 10
329.982513
 20
739.835449
 10
329.693542
 20
741.364197
 10
329.40036
 20
742.892212
 10
329.103027
 20
744.419373
 10
328.801453
 20
745.945679
 10
328.495667
 20
747.47113
 10
328.185638
 20
748.995728
 10
327.871338
 20
750.51947
 10
327.552765
 20
752.042297
 10
327.229889
 20
753.564209
 10
326.902679
 20
755.085205
 10
326.571136
 20
756.605225
 10
326.23526
 20
758.124268
 10
325.894989
 20
759.642334
 10
325.550323
 20
761.159424
 10
325.201233
 20
762.675476
 10
324.847748
 20
764.19043
 10
324.489807
 20
765.704407
 10
324.12738
 20
767.217285
 10
323.760468
 20
768.729065
 10
323.389069
 20
770.239746
 10
323.013153
 20
771.749268
 10
322.63266
 20
773.257629
 10
322.24765
 20
774.764832
 10
321.857971
 20
776.271057
 10
321.46286
 20
777.776733
 10
321.140564
 20
779.387756
 10
320.903961
 20
780.976929
 10
320.744049
 20
782.575623
 10
320.661438
 20
784.180298
 10
320.656616
 20
785.787292
 10
320.729889
 20
787.392761
 10
320.881073
 20
788.992798
 10
321.109955
 20
790.583618
 10
321.416138
 20
792.161377
 10
321.798767
 20
793.722351
 10
322.256897
 20
795.262878
 10
322.789276
 20
796.779175
 10
323.394409
 20
798.267761
 10
324.070557
 20
799.725281
 10
324.81601
 20
801.148315
 10
325.628662
 20
802.533813
 10
326.506165
 20
803.878906
 10
327.446198
 20
805.180786
 10
328.44632
 20
806.436584
 10
329.503937
 20
807.644043
 10
330.616211
 20
808.800903
 10
331.780396
 20
809.904968
 10
332.993683
 20
810.954285
 10
334.253113
 20
811.947266
 10
335.555756
 20
812.882263
 10
336.898712
 20
813.757751
 10
338.278961
 20
814.57251
 10
339.693451
 20
815.325623
 10
341.13916
 20
816.01593
 10
342.61319
 20
816.642639
 10
344.112793
 20
817.205078
 10
345.651825
 20
817.70752
  0
LWPOLYLINE
  5
137
330
10A
100
AcDbEntity
  8
0
  6
Continuous
 62
     0
370
     0
100
AcDbPolyline
 90
       87
 70
     0
 43
0.0
 10
337.935913
 20
692.215149
 10
337.768188
 20
693.801453
 10
337.595795
 20
695.387268
 10
337.41861
 20
696.972534
 10
337.236725
 20
698.556824
 10
337.049866
 20
700.139343
 10
336.858063
 20
701.725037
 10
336.662659
 20
703.308716
 10
336.463287
 20
704.891846
 10
336.259979
 20
706.474548
 10
336.052734
 20
708.056702
 10
335.841461
 20
709.638367
 10
335.62619
 20
711.219482
 10
335.406891
 20
712.800049
 10
335.183563
 20
714.380066
 10
334.956146
 20
715.959534
 10
334.72467
 20
717.538391
 10
334.489105
 20
719.116699
 10
334.24939
 20
720.694336
 10
334.005554
 20
722.271362
 10
333.757568
 20
723.847778
 10
333.505402
 20
725.423523
 10
333.249023
 20
726.998596
 10
332.988434
 20
728.572998
 10
332.723633
 20
730.146729
 10
332.45459
 20
731.719727
 10
332.181244
 20
733.291992
 10
331.903625
 20
734.863525
 10
331.621704
 20
736.434265
 10
331.335449
 20
738.004272
 10
331.044861
 20
739.573486
 10
330.749878
 20
741.141907
 10
330.450531
 20
742.709473
 10
330.146759
 20
744.276184
 10
329.838593
 20
745.842102
 10
329.52594
 20
747.407104
 10
329.208862
 20
748.971191
 10
328.887268
 20
750.534424
 10
328.561188
 20
752.09668
 10
328.230591
 20
753.65802
 10
327.895447
 20
755.218384
 10
327.555725
 20
756.777771
 10
327.211426
 20
758.336182
 10
326.862549
 20
759.893555
 10
326.509033
 20
761.44989
 10
326.150848
 20
763.005188
 10
325.788025
 20
764.559387
 10
325.420532
 20
766.112488
 10
325.048309
 20
767.66449
 10
324.671387
 20
769.215332
 10
324.289703
 20
770.765015
 10
323.903259
 20
772.313538
 10
323.512024
 20
773.860901
 10
323.116028
 20
775.406982
 10
322.71524
 20
776.951904
 10
322.328552
 20
778.499573
 10
322.042236
 20
780.069092
 10
321.833252
 20
781.650818
 10
321.702454
 20
783.240845
 10
321.650452
 20
784.835449
 10
321.677704
 20
786.430664
 10
321.784332
 20
788.022583
 10
321.970032
 20
789.607178
 10
322.234528
 20
791.180542
 10
322.57724
 20
792.73877
 10
322.997162
 20
794.277954
 10
323.493195
 20
795.794312
 10
324.063904
 20
797.28418
 10
324.707611
 20
798.744019
 10
325.422516
 20
800.170349
 10
326.206635
 20
801.559814
 10
327.057709
 20
802.909302
 10
327.973236
 20
804.215942
 10
328.950836
 20
805.476746
 10
329.987823
 20
806.68927
 10
331.081329
 20
807.851074
 10
332.228516
 20
808.959839
 10
333.426544
 20
810.013489
 10
334.672333
 20
811.010254
 10
335.96283
 20
811.948425
 10
337.295013
 20
812.826355
 10
338.665802
 20
813.642761
 10
340.072021
 20
814.396423
 10
341.51062
 20
815.086426
 10
342.978455
 20
815.711731
 10
344.472504
 20
816.271484
 10
345.994385
 20
816.766357
  0
LINE
  5
138
330
10A
100
AcDbEntity
  8
0
  6
Continuous
 62
     0
370
    30
100
AcDbLine
 10
345.651816
 20
817.707524
 30
0.0
 11
345.994372
 21
816.76636
 31
0.0
  0
LINE
  5
139
330
10A
100
AcDbEntity
  8
0
  6
Continuous
 62
     0
370
    30
100
AcDbLine
 10
352.491254
 20
798.916322
 30
0.0
 11
345.994372
 21
816.76636
 31
0.0
  0
ARC
  5
13A
330
10A
100
AcDbEntity
  8
0
  6
Continuous
 62
     0
370
    30
100
AcDbCircle
 10
372.655508
 20
681.050203
 30
0.0
 40
10.47615554112658
100
AcDbArc
 50
250.738181
 51
267.216611
  0
LINE
  5
13B
330
10A
100
AcDbEntity
  8
0
  6
Continuous
 62
     0
370
    30
100
AcDbLine
 10
333.664926
 20
666.711106
 30
0.0
 11
333.045958
 21
666.25933
 31
0.0
  0
ARC
  5
13C
330
10A
100
AcDbEntity
  8
0
  6
Continuous
 62
     0
370
    30
100
AcDbCircle
 10
367.109288
 20
537.434774
 30
0.0
 40
133.2519705599337
100
AcDbArc
 50
89.238473
 51
104.810986
  0
LINE
  5
13D
330
10A
100
AcDbEntity
  8
0
  6
Continuous
 62
     0
370
    30
100
AcDbLine
 10
337.937145
 20
692.215161
 30
0.0
 11
355.674134
 21
692.346959
 31
0.0
  0
LINE
  5
13E
330
10A
100
AcDbEntity
  8
0
  6
Continuous
 62
     0
370
    30
100
AcDbLine
 10
333.664782
 20
666.711348
 30
0.0
 11
333.114601
 21
666.466244
 31
0.0
  0
LINE
  5
13F
330
10A
100
AcDbEntity
  8
0
  6
Continuous
 62
     0
370
    30
100
AcDbLine
 10
333.045937
 20
666.259367
 30
0.0
 11
332.396092
 21
666.069657
 31
0.0
  0
LINE
  5
140
330
10A
100
AcDbEntity
  8
0
  6
Continuous
 62
     0
370
    30
100
AcDbLine
 10
372.146784
 20
670.586406
 30
0.0
 11
368.880308
 21
670.674975
 31
0.0
  0
LWPOLYLINE
  5
141
330
10A
100
AcDbEntity
  8
0
  6
Continuous
 62
     0
370
    30
100
AcDbPolyline
 90
       47
 70
     0
 43
0.0
 10
443.403015
 20
678.340759
 10
441.716705
 20
678.340759
 10
440.53421
 20
677.589417
 10
439.425507
 20
676.690979
 10
438.27417
 20
675.819885
 10
437.083282
 20
674.975708
 10
435.855988
 20
674.157959
 10
434.595459
 20
673.365967
 10
433.304657
 20
672.598694
 10
431.985565
 20
671.855835
 10
430.637573
 20
671.139343
 10
429.259399
 20
670.452026
 10
427.849884
 20
669.797302
 10
426.407867
 20
669.178955
 10
424.932373
 20
668.601379
 10
423.42276
 20
668.069641
 10
421.878906
 20
667.589478
 10
420.30127
 20
667.167664
 10
418.691376
 20
666.811768
 10
417.053375
 20
666.527649
 10
415.393188
 20
666.317017
 10
413.717957
 20
666.175964
 10
412.033569
 20
666.099365
 10
410.345428
 20
666.081665
 10
408.658569
 20
666.11731
 10
406.975647
 20
666.200439
 10
405.297882
 20
666.325073
 10
403.626404
 20
666.485291
 10
401.961487
 20
666.675842
 10
400.302734
 20
666.891785
 10
398.649719
 20
667.128357
 10
397.001648
 20
667.381042
 10
395.357422
 20
667.645935
 10
393.715881
 20
667.918945
 10
392.075806
 20
668.196167
 10
390.435913
 20
668.473999
 10
388.794952
 20
668.748718
 10
387.151642
 20
669.016724
 10
385.504944
 20
669.27417
 10
383.853912
 20
669.516907
 10
382.197601
 20
669.740967
 10
380.535614
 20
669.942932
 10
378.868073
 20
670.1203
 10
377.195465
 20
670.272949
 10
375.518555
 20
670.401367
 10
373.838348
 20
670.505676
 10
372.14679
 20
670.586426
  0
LINE
  5
142
330
10A
100
AcDbEntity
  8
0
  6
Continuous
 62
     0
370
    30
100
AcDbLine
 10
443.403028
 20
624.340752
 30
0.0
 11
443.403028
 21
678.340752
 31
0.0
  0
LINE
  5
143
330
10A
100
AcDbEntity
  8
0
  6
Continuous
 62
     0
370
    30
100
AcDbLine
 10
443.403028
 20
623.340752
 30
0.0
 11
443.403028
 21
624.340752
 31
0.0
  0
LWPOLYLINE
  5
144
330
10A
100
AcDbEntity
  8
0
  6
Continuous
 62
     0
370
     0
100
AcDbPolyline
 90
       75
 70
     0
 43
0.0
 10
324.403015
 20
638.46637
 10
325.914276
 20
637.914429
 10
327.456055
 20
637.401001
 10
329.024811
 20
636.923767
 10
330.617004
 20
636.480286
 10
332.228851
 20
636.067688
 10
333.857025
 20
635.683533
 10
335.499084
 20
635.325684
 10
337.15274
 20
634.992432
 10
338.815826
 20
634.681824
 10
340.486725
 20
634.392456
 10
342.164307
 20
634.123047
 10
343.847412
 20
633.872253
 10
345.535126
 20
633.638733
 10
347.226654
 20
633.421204
 10
348.921204
 20
633.218445
 10
350.618835
 20
633.029602
 10
352.319977
 20
632.854736
 10
354.024597
 20
632.69458
 10
355.732544
 20
632.550171
 10
357.443695
 20
632.422546
 10
359.157806
 20
632.312622
 10
360.874512
 20
632.221191
 10
362.593414
 20
632.149109
 10
364.314209
 20
632.097229
 10
366.036469
 20
632.066406
 10
367.759644
 20
632.057312
 10
369.483032
 20
632.070679
 10
371.205994
 20
632.107056
 10
372.927795
 20
632.167236
 10
374.647766
 20
632.251709
 10
376.365234
 20
632.361267
 10
378.079468
 20
632.496277
 10
379.789673
 20
632.657288
 10
381.494293
 20
632.844421
 10
383.191437
 20
633.057129
 10
384.880463
 20
633.291748
 10
386.561829
 20
633.543579
 10
388.236725
 20
633.808594
 10
389.906403
 20
634.082764
 10
391.572113
 20
634.362122
 10
393.235077
 20
634.642639
 10
394.896515
 20
634.92041
 10
396.557678
 20
635.191345
 10
398.219757
 20
635.451599
 10
399.88385
 20
635.69696
 10
401.55072
 20
635.922852
 10
403.220947
 20
636.124573
 10
404.894531
 20
636.297058
 10
406.57132
 20
636.434875
 10
408.250336
 20
636.532532
 10
409.929993
 20
636.583923
 10
411.607605
 20
636.583069
 10
413.279755
 20
636.524048
 10
414.941589
 20
636.401123
 10
416.587646
 20
636.209351
 10
418.211273
 20
635.944946
 10
419.808441
 20
635.606384
 10
421.377197
 20
635.199524
 10
422.916016
 20
634.731628
 10
424.423889
 20
634.20929
 10
425.900269
 20
633.638733
 10
427.345093
 20
633.02533
 10
428.759155
 20
632.373718
 10
430.14325
 20
631.687927
 10
431.498291
 20
630.971436
 10
432.82547
 20
630.227295
 10
434.124908
 20
629.457947
 10
435.393799
 20
628.664001
 10
436.628815
 20
627.844482
 10
437.827026
 20
626.998474
 10
438.985443
 20
626.125549
 10
440.101044
 20
625.225281
 10
441.881653
 20
624.418945
 10
443.403015
 20
624.340759
  0
LWPOLYLINE
  5
145
330
10A
100
AcDbEntity
  8
0
  6
Continuous
 62
     0
370
     0
100
AcDbPolyline
 90
       74
 70
     0
 43
0.0
 10
324.403015
 20
638.46637
 10
325.93515
 20
637.780945
 10
327.498596
 20
637.138367
 10
329.089691
 20
636.540405
 10
330.704681
 20
635.987061
 10
332.339691
 20
635.476868
 10
333.991241
 20
635.007812
 10
335.656891
 20
634.577087
 10
337.334229
 20
634.181824
 10
339.021027
 20
633.819031
 10
340.715729
 20
633.486206
 10
342.417114
 20
633.180786
 10
344.124023
 20
632.900269
 10
345.835541
 20
632.642456
 10
347.550781
 20
632.405334
 10
349.269073
 20
632.18689
 10
350.990692
 20
631.985962
 10
352.715881
 20
631.802124
 10
354.444641
 20
631.636047
 10
356.176758
 20
631.488403
 10
357.91217
 20
631.359863
 10
359.650482
 20
631.251221
 10
361.391327
 20
631.163208
 10
363.134369
 20
631.096558
 10
364.879211
 20
631.05188
 10
366.625427
 20
631.030029
 10
368.372314
 20
631.031494
 10
370.119171
 20
631.056885
 10
371.865326
 20
631.106812
 10
373.610016
 20
631.181824
 10
375.35257
 20
631.282532
 10
377.092255
 20
631.409363
 10
378.828278
 20
631.562805
 10
380.559601
 20
631.743103
 10
382.284241
 20
631.94989
 10
384.000702
 20
632.181213
 10
385.708923
 20
632.432007
 10
387.409851
 20
632.697632
 10
389.104797
 20
632.973999
 10
390.795044
 20
633.256897
 10
392.481873
 20
633.542175
 10
394.166565
 20
633.825623
 10
395.850372
 20
634.103271
 10
397.534637
 20
634.370911
 10
399.220551
 20
634.624512
 10
400.909027
 20
634.859436
 10
402.600769
 20
635.070984
 10
404.296051
 20
635.254211
 10
405.994659
 20
635.403748
 10
407.696014
 20
635.51416
 10
409.398682
 20
635.57959
 10
411.100189
 20
635.594116
 10
412.797302
 20
635.551819
 10
414.485321
 20
635.447205
 10
416.158813
 20
635.275208
 10
417.810974
 20
635.032043
 10
419.436646
 20
634.714844
 10
421.033539
 20
634.327454
 10
422.600006
 20
633.876892
 10
424.134827
 20
633.36969
 10
425.63739
 20
632.812134
 10
427.107452
 20
632.2099
 10
428.545746
 20
631.567688
 10
429.953125
 20
630.889648
 10
431.330536
 20
630.179443
 10
432.679138
 20
629.440247
 10
433.999329
 20
628.674988
 10
435.288544
 20
627.88562
 10
436.543182
 20
627.071655
 10
437.760254
 20
626.232483
 10
438.936584
 20
625.367554
 10
440.069092
 20
624.476685
 10
441.83551
 20
623.340759
 10
443.403015
 20
623.340759
  0
LWPOLYLINE
  5
146
330
10A
100
AcDbEntity
  8
0
  6
Continuous
 62
     0
370
    30
100
AcDbPolyline
 90
        8
 70
     0
 43
0.0
 10
324.403015
 20
633.340759
 10
327.910645
 20
633.116699
 10
331.421204
 20
632.940857
 10
334.933563
 20
632.795227
 10
338.446503
 20
632.66156
 10
341.958984
 20
632.522888
 10
345.470612
 20
632.368225
 10
349.445099
 20
632.165588
  0
ARC
  5
147
330
10A
100
AcDbEntity
  8
0
  6
Continuous
 62
     0
370
    30
100
AcDbCircle
 10
326.85911
 20
684.193552
 30
0.0
 40
13.04860705804252
100
AcDbArc
 50
295.101913
 51
331.594472
  0
ARC
  5
148
330
10A
100
AcDbEntity
  8
0
  6
Continuous
 62
     0
370
    30
100
AcDbCircle
 10
366.478872
 20
594.967529
 30
0.0
 40
84.58135893499772
100
AcDbArc
 50
113.76428
 51
119.832098
  0
LINE
  5
149
330
10A
100
AcDbEntity
  8
0
  6
Continuous
 62
     0
370
    30
100
AcDbLine
 10
324.403027
 20
634.283774
 30
0.0
 11
322.354783
 21
634.882938
 31
0.0
  0
LINE
  5
14A
330
10A
100
AcDbEntity
  8
0
  6
Continuous
 62
     0
370
    30
100
AcDbLine
 10
322.313016
 20
666.784317
 30
0.0
 11
324.403027
 21
667.397728
 31
0.0
  0
LINE
  5
14B
330
10A
100
AcDbEntity
  8
0
  6
Continuous
 62
     0
370
    30
100
AcDbLine
 10
673.653028
 20
677.340752
 30
0.0
 11
673.653028
 21
624.340752
 31
0.0
  0
LINE
  5
14C
330
10A
100
AcDbEntity
  8
0
  6
Continuous
 62
     0
370
    30
100
AcDbLine
 10
673.653028
 20
623.340752
 30
0.0
 11
673.653028
 21
624.340752
 31
0.0
  0
LINE
  5
14D
330
10A
100
AcDbEntity
  8
0
  6
Continuous
 62
     0
370
    30
100
AcDbLine
 10
673.653028
 20
677.340752
 30
0.0
 11
673.653028
 21
678.340752
 31
0.0
  0
LINE
  5
14E
330
10A
100
AcDbEntity
  8
0
  6
Continuous
 62
     0
370
    30
100
AcDbLine
 10
443.653028
 20
677.340752
 30
0.0
 11
443.653028
 21
678.340752
 31
0.0
  0
LINE
  5
14F
330
10A
100
AcDbEntity
  8
0
  6
Continuous
 62
     0
370
    30
100
AcDbLine
 10
443.653028
 20
623.340752
 30
0.0
 11
443.653028
 21
624.340752
 31
0.0
  0
LINE
  5
150
330
10A
100
AcDbEntity
  8
0
  6
Continuous
 62
     0
370
    30
100
AcDbLine
 10
443.653028
 20
677.340752
 30
0.0
 11
443.653028
 21
624.340752
 31
0.0
  0
LINE
  5
151
330
10A
100
AcDbEntity
  8
0
  6
Continuous
 62
     0
370
    30
100
AcDbLine
 10
443.653028
 20
623.340752
 30
0.0
 11
673.653028
 21
623.340752
 31
0.0
  0
LINE
  5
152
330
10A
100
AcDbEntity
  8
0
  6
Continuous
 62
     0
370
     0
100
AcDbLine
 10
443.653028
 20
624.340752
 30
0.0
 11
673.653028
 21
624.340752
 31
0.0
  0
LINE
  5
153
330
10A
100
AcDbEntity
  8
0
  6
Continuous
 62
     0
370
     0
100
AcDbLine
 10
443.653028
 20
677.340752
 30
0.0
 11
673.653028
 21
677.340752
 31
0.0
  0
LINE
  5
154
330
10A
100
AcDbEntity
  8
0
  6
Continuous
 62
     0
370
    30
100
AcDbLine
 10
443.653028
 20
678.340752
 30
0.0
 11
673.653028
 21
678.340752
 31
0.0
  0
ENDBLK
  5
156
330
10A
100
AcDbEntity
  8
0
100
AcDbBlockEnd
  0
BLOCK
  5
1D6
330
158
100
AcDbEntity
  8
0
100
AcDbBlockBegin
  2
d
 70
     0
 10
15.948711
 20
90.780327
 30
0.0
  3
d
  1

  0
LWPOLYLINE
  5
159
330
158
100
AcDbEntity
  8
0
  6
Continuous
 62
     0
370
    30
100
AcDbPolyline
 90
       17
 70
     0
 43
0.0
 10
236.741501
 20
296.824677
 10
236.275101
 20
296.97345
 10
235.844223
 20
297.190765
 10
235.452713
 20
297.475006
 10
235.10376
 20
297.823486
 10
234.800476
 20
298.233276
 10
234.545502
 20
298.700958
 10
234.340866
 20
299.222321
 10
234.188461
 20
299.792969
 10
234.0896
 20
300.40802
 10
234.045135
 20
301.062164
 10
234.055542
 20
301.749817
 10
234.120422
 20
302.464905
 10
234.239334
 20
303.201294
 10
234.411499
 20
303.95282
 10
234.635223
 20
304.712891
 10
234.912491
 20
305.485077
  0
LINE
  5
15A
330
158
100
AcDbEntity
  8
0
  6
Continuous
 62
     0
370
    30
100
AcDbLine
 10
234.912529
 20
305.485087
 30
0.0
 11
235.754415
 21
307.276801
 31
0.0
  0
LINE
  5
15B
330
158
100
AcDbEntity
  8
0
  6
Continuous
 62
     0
370
    30
100
AcDbLine
 10
219.409576
 20
383.361893
 30
0.0
 11
230.723116
 21
389.822463
 31
0.0
  0
LWPOLYLINE
  5
15C
330
158
100
AcDbEntity
  8
0
  6
Continuous
 62
     0
370
    30
100
AcDbPolyline
 90
       14
 70
     0
 43
0.0
 10
235.75441
 20
307.276794
 10
236.053391
 20
307.831085
 10
236.284561
 20
308.409729
 10
236.463516
 20
309.0
 10
236.601105
 20
309.59552
 10
236.705856
 20
310.192963
 10
236.783676
 20
310.790527
 10
236.838898
 20
311.387177
 10
236.875214
 20
311.982391
 10
236.894882
 20
312.575775
 10
236.899918
 20
313.167267
 10
236.892105
 20
313.756683
 10
236.873016
 20
314.344147
 10
236.841949
 20
314.957184
  0
LWPOLYLINE
  5
15D
330
158
100
AcDbEntity
  8
0
  6
Continuous
 62
     0
370
    30
100
AcDbPolyline
 90
       55
 70
     0
 43
0.0
 10
236.841949
 20
314.957184
 10
236.740997
 20
316.276855
 10
236.599716
 20
317.586456
 10
236.424683
 20
318.886841
 10
236.220444
 20
320.178528
 10
235.990448
 20
321.461975
 10
235.71785
 20
322.722687
 10
235.423859
 20
323.969299
 10
235.123474
 20
325.216614
 10
234.8172
 20
326.464478
 10
234.505127
 20
327.712677
 10
234.187317
 20
328.961243
 10
233.863739
 20
330.210052
 10
233.534363
 20
331.459137
 10
233.199234
 20
332.708496
 10
232.858383
 20
333.958069
 10
232.511749
 20
335.207825
 10
232.159348
 20
336.457764
 10
231.801208
 20
337.707825
 10
231.437317
 20
338.957977
 10
231.067688
 20
340.208252
 10
230.692307
 20
341.458557
 10
230.311188
 20
342.708893
 10
229.924347
 20
343.959229
 10
229.531815
 20
345.209564
 10
229.133514
 20
346.459808
 10
228.729401
 20
347.709991
 10
228.319763
 20
348.960052
 10
227.904694
 20
350.210052
 10
227.483353
 20
351.459717
 10
227.056946
 20
352.709381
 10
226.634583
 20
353.960785
 10
226.223984
 20
355.215515
 10
225.824799
 20
356.473358
 10
225.435822
 20
357.733917
 10
225.056885
 20
358.997101
 10
224.687851
 20
360.262756
 10
224.328415
 20
361.530762
 10
223.97818
 20
362.800964
 10
223.63681
 20
364.073242
 10
223.30397
 20
365.347412
 10
222.979446
 20
366.623413
 10
222.662964
 20
367.901184
 10
222.354294
 20
369.180573
 10
222.053192
 20
370.461487
 10
221.759445
 20
371.743896
 10
221.472824
 20
373.027679
 10
221.1931
 20
374.312744
 10
220.92009
 20
375.59906
 10
220.653625
 20
376.886536
 10
220.393524
 20
378.175171
 10
220.139648
 20
379.464874
 10
219.8918
 20
380.755585
 10
219.649826
 20
382.047272
 10
219.409576
 20
383.361908
  0
LINE
  5
15E
330
158
100
AcDbEntity
  8
0
  6
Continuous
 62
     0
370
    30
100
AcDbLine
 10
230.723116
 20
389.822463
 30
0.0
 11
244.663804
 21
384.624901
 31
0.0
  0
LWPOLYLINE
  5
15F
330
158
100
AcDbEntity
  8
0
  6
Continuous
 62
     0
370
    30
100
AcDbPolyline
 90
       39
 70
     0
 43
0.0
 10
244.663803
 20
384.624908
 10
244.834381
 20
382.87027
 10
245.000412
 20
381.110504
 10
245.162018
 20
379.345734
 10
245.319275
 20
377.576141
 10
245.47229
 20
375.80188
 10
245.621155
 20
374.023102
 10
245.76593
 20
372.23999
 10
245.906708
 20
370.452637
 10
246.043594
 20
368.661285
 10
246.176651
 20
366.866028
 10
246.305954
 20
365.066925
 10
246.431595
 20
363.264099
 10
246.553619
 20
361.457611
 10
246.672134
 20
359.647614
 10
246.787186
 20
357.834167
 10
246.898849
 20
356.017365
 10
247.007187
 20
354.197327
 10
247.112228
 20
352.374084
 10
247.214081
 20
350.547791
 10
247.312881
 20
348.718567
 10
247.408417
 20
346.886322
 10
247.501144
 20
345.051361
 10
247.593796
 20
343.215729
 10
247.687485
 20
341.380219
 10
247.782761
 20
339.545166
 10
247.879837
 20
337.710632
 10
247.97879
 20
335.876556
 10
248.07988
 20
334.04306
 10
248.183487
 20
332.210205
 10
248.290024
 20
330.378143
 10
248.399948
 20
328.546997
 10
248.514053
 20
326.716949
 10
248.63327
 20
324.888306
 10
248.758972
 20
323.061401
 10
248.894714
 20
321.237427
 10
249.043213
 20
319.416992
 10
249.256607
 20
317.618744
 10
249.54303
 20
315.814117
  0
LINE
  5
160
330
158
100
AcDbEntity
  8
0
  6
Continuous
 62
     0
370
    30
100
AcDbLine
 10
233.350265
 20
378.164331
 30
0.0
 11
244.663804
 21
384.624901
 31
0.0
  0
LWPOLYLINE
  5
161
330
158
100
AcDbEntity
  8
0
  6
Continuous
 62
     0
370
    30
100
AcDbPolyline
 90
       34
 70
     0
 43
0.0
 10
243.867233
 20
312.572968
 10
243.608765
 20
314.651428
 10
243.293777
 20
316.679077
 10
242.944351
 20
318.672638
 10
242.587097
 20
320.657318
 10
242.224945
 20
322.636322
 10
241.859161
 20
324.611145
 10
241.490463
 20
326.582581
 10
241.119339
 20
328.551178
 10
240.746292
 20
330.517517
 10
240.37175
 20
332.482086
 10
239.995911
 20
334.445068
 10
239.618912
 20
336.406677
 10
239.240799
 20
338.367004
 10
238.861771
 20
340.326233
 10
238.485855
 20
342.286316
 10
238.118393
 20
344.249695
 10
237.759445
 20
346.2164
 10
237.409042
 20
348.186371
 10
237.06752
 20
350.159698
 10
236.735107
 20
352.136444
 10
236.412018
 20
354.116638
 10
236.098434
 20
356.100311
 10
235.794617
 20
358.087524
 10
235.500763
 20
360.078278
 10
235.217148
 20
362.072693
 10
234.944046
 20
364.07074
 10
234.681732
 20
366.072449
 10
234.430466
 20
368.077911
 10
234.190552
 20
370.087097
 10
233.962265
 20
372.100037
 10
233.745941
 20
374.116821
 10
233.541901
 20
376.137482
 10
233.350266
 20
378.164337
  0
LINE
  5
162
330
158
100
AcDbEntity
  8
0
  6
Continuous
 62
     0
370
     0
100
AcDbLine
 10
249.543025
 20
315.814128
 30
0.0
 11
243.867233
 21
312.572981
 31
0.0
  0
LINE
  5
163
330
158
100
AcDbEntity
  8
0
  6
Continuous
 62
     0
370
     0
100
AcDbLine
 10
243.867233
 20
312.572981
 30
0.0
 11
236.841957
 21
314.957187
 31
0.0
  0
LINE
  5
164
330
158
100
AcDbEntity
  8
0
  6
Continuous
 62
     0
370
    30
100
AcDbLine
 10
219.409576
 20
383.361893
 30
0.0
 11
233.350265
 21
378.164331
 31
0.0
  0
LINE
  5
165
330
158
100
AcDbEntity
  8
0
  6
Continuous
 62
     0
370
    30
100
AcDbLine
 10
249.543025
 20
315.814128
 30
0.0
 11
250.732638
 21
310.047963
 31
0.0
  0
LINE
  5
166
330
158
100
AcDbEntity
  8
0
  6
Continuous
 62
     0
370
    30
100
AcDbLine
 10
243.867233
 20
312.572981
 30
0.0
 11
244.488604
 21
306.482323
 31
0.0
  0
LINE
  5
167
330
158
100
AcDbEntity
  8
0
  6
Continuous
 62
     0
370
    30
100
AcDbLine
 10
244.488604
 20
306.482323
 30
0.0
 11
235.754415
 21
307.276801
 31
0.0
  0
LINE
  5
168
330
158
100
AcDbEntity
  8
0
  6
Continuous
 62
     0
370
    30
100
AcDbLine
 10
249.425665
 20
300.739292
 30
0.0
 11
248.8556
 21
299.814759
 31
0.0
  0
ARC
  5
169
330
158
100
AcDbEntity
  8
0
  6
Continuous
 62
     0
370
    30
100
AcDbCircle
 10
255.145136
 20
298.182254
 30
0.0
 40
6.017644440236169
100
AcDbArc
 50
106.578501
 51
132.878912
  0
LINE
  5
16A
330
158
100
AcDbEntity
  8
0
  6
Continuous
 62
     0
370
    30
100
AcDbLine
 10
255.608597
 20
303.671042
 30
0.0
 11
255.004443
 21
303.960201
 31
0.0
  0
ARC
  5
16B
330
158
100
AcDbEntity
  8
0
  6
Continuous
 62
     0
370
    30
100
AcDbCircle
 10
261.882925
 20
313.50101
 30
0.0
 40
11.67270206872442
100
AcDbArc
 50
197.206886
 51
234.205485
  0
ARC
  5
16C
330
158
100
AcDbEntity
  8
0
  6
Continuous
 62
     0
370
    30
100
AcDbCircle
 10
254.219188
 20
308.091555
 30
0.0
 40
9.862729022940947
100
AcDbArc
 50
189.39056
 51
237.055668
  0
LWPOLYLINE
  5
16D
330
158
100
AcDbEntity
  8
0
  6
Continuous
 62
     0
370
    30
100
AcDbPolyline
 90
       22
 70
     0
 43
0.0
 10
248.240143
 20
298.51886
 10
248.052521
 20
298.000488
 10
247.911575
 20
297.537354
 10
247.807343
 20
297.123901
 10
247.73143
 20
296.752228
 10
247.677429
 20
296.413086
 10
247.640839
 20
296.096863
 10
247.618912
 20
295.794159
 10
247.610687
 20
295.496124
 10
247.616837
 20
295.196869
 10
247.638748
 20
294.898163
 10
247.677536
 20
294.603607
 10
247.733871
 20
294.316772
 10
247.808014
 20
294.040955
 10
247.899765
 20
293.779175
 10
248.00856
 20
293.533905
 10
248.136703
 20
293.30191
 10
248.28598
 20
293.08374
 10
248.456497
 20
292.882965
 10
248.647873
 20
292.702881
 10
248.859161
 20
292.546387
 10
249.095474
 20
292.41275
  0
ARC
  5
16E
330
158
100
AcDbEntity
  8
0
  6
Continuous
 62
     0
370
     0
100
AcDbCircle
 10
117.316248
 20
64.269654
 30
0.0
 40
268.3537987899362
100
AcDbArc
 50
60.798801
 51
64.010047
  0
LINE
  5
16F
330
158
100
AcDbEntity
  8
0
  6
Continuous
 62
     0
370
    30
100
AcDbLine
 10
235.754415
 20
307.276801
 30
0.0
 11
248.857625
 21
299.81103
 31
0.0
  0
LINE
  5
170
330
158
100
AcDbEntity
  8
0
  6
Continuous
 62
     0
370
    30
100
AcDbLine
 10
248.630086
 20
299.381809
 30
0.0
 11
248.240142
 21
298.518871
 31
0.0
  0
LINE
  5
171
330
158
100
AcDbEntity
  8
0
  6
Continuous
 62
     0
370
    30
100
AcDbLine
 10
248.857625
 20
299.81103
 30
0.0
 11
248.630086
 21
299.381809
 31
0.0
  0
ARC
  5
172
330
158
100
AcDbEntity
  8
0
  6
Continuous
 62
     0
370
    30
100
AcDbCircle
 10
254.222862
 20
301.295656
 30
0.0
 40
2.770516156918399
100
AcDbArc
 50
68.540214
 51
106.669597
  0
LINE
  5
173
330
158
100
AcDbEntity
  8
0
  6
Continuous
 62
     0
370
    30
100
AcDbLine
 10
248.630105
 20
299.381798
 30
0.0
 11
248.247254
 21
298.518174
 31
0.0
  0
ARC
  5
174
330
158
100
AcDbEntity
  8
0
  6
Continuous
 62
     0
370
    30
100
AcDbCircle
 10
258.029181
 20
294.824412
 30
0.0
 40
10.44210364594757
100
AcDbArc
 50
131.938179
 51
151.460401
  0
ARC
  5
175
330
158
100
AcDbEntity
  8
0
  6
Continuous
 62
     0
370
    30
100
AcDbCircle
 10
297.098032
 20
272.19447
 30
0.0
 40
30.43645935356945
100
AcDbArc
 50
122.587159
 51
176.737654
  0
LWPOLYLINE
  5
176
330
158
100
AcDbEntity
  8
0
  6
Continuous
 62
     0
370
    30
100
AcDbPolyline
 90
       19
 70
     0
 43
0.0
 10
273.786987
 20
264.017181
 10
273.068604
 20
264.098267
 10
272.372986
 20
264.245819
 10
271.704498
 20
264.460144
 10
271.067322
 20
264.740814
 10
270.46524
 20
265.08667
 10
269.901733
 20
265.495758
 10
269.379822
 20
265.965454
 10
268.901947
 20
266.492462
 10
268.470154
 20
267.072876
 10
268.085785
 20
267.702332
 10
267.749695
 20
268.376038
 10
267.462158
 20
269.088959
 10
267.222931
 20
269.835815
 10
267.031281
 20
270.611267
 10
266.885986
 20
271.409943
 10
266.785461
 20
272.226685
 10
266.727814
 20
273.056427
 10
266.710907
 20
273.926544
  0
LINE
  5
177
330
158
100
AcDbEntity
  8
0
  6
Continuous
 62
     0
370
    30
100
AcDbLine
 10
248.855316
 20
299.812186
 30
0.0
 11
248.630105
 21
299.381798
 31
0.0
  0
LWPOLYLINE
  5
178
330
158
100
AcDbEntity
  8
0
  6
Continuous
 62
     0
370
     0
100
AcDbPolyline
 90
       27
 70
     0
 43
0.0
 10
280.947144
 20
295.066528
 10
280.115692
 20
294.589233
 10
279.286346
 20
294.042328
 10
278.463593
 20
293.428925
 10
277.651886
 20
292.752228
 10
276.855713
 20
292.01593
 10
276.079315
 20
291.224152
 10
275.326996
 20
290.381012
 10
274.602783
 20
289.491241
 10
273.910614
 20
288.559692
 10
273.254364
 20
287.591309
 10
272.637512
 20
286.591461
 10
272.063293
 20
285.565582
 10
271.535065
 20
284.519196
 10
271.055573
 20
283.458008
 10
270.627441
 20
282.387817
 10
270.253052
 20
281.314423
 10
269.934326
 20
280.243683
 10
269.673126
 20
279.181427
 10
269.470764
 20
278.133392
 10
269.3284
 20
277.105286
 10
269.246826
 20
276.102753
 10
269.22641
 20
275.131165
 10
269.267334
 20
274.195892
 10
269.369385
 20
273.302002
 10
269.531891
 20
272.454254
 10
269.755554
 20
271.652954
  0
LWPOLYLINE
  5
179
330
158
100
AcDbEntity
  8
0
  6
Continuous
 62
     0
370
    30
100
AcDbPolyline
 90
       54
 70
     0
 43
0.0
 10
280.458405
 20
300.674866
 10
279.954987
 20
300.744934
 10
279.45166
 20
300.813873
 10
278.948517
 20
300.881653
 10
278.445496
 20
300.948303
 10
277.942627
 20
301.013794
 10
277.439911
 20
301.078156
 10
276.937347
 20
301.141388
 10
276.434967
 20
301.203491
 10
275.932739
 20
301.264435
 10
275.430695
 20
301.324249
 10
274.928833
 20
301.382935
 10
274.427124
 20
301.44046
 10
273.925629
 20
301.496887
 10
273.424316
 20
301.552155
 10
272.923218
 20
301.606262
 10
272.422333
 20
301.659271
 10
271.921661
 20
301.711121
 10
271.421204
 20
301.761841
 10
270.920959
 20
301.811462
 10
270.42099
 20
301.859894
 10
269.921204
 20
301.907227
 10
269.421661
 20
301.95343
 10
268.922333
 20
301.998474
 10
268.423218
 20
302.042419
 10
267.924347
 20
302.085205
 10
267.425781
 20
302.126862
 10
266.927612
 20
302.167419
 10
266.42984
 20
302.206848
 10
265.932434
 20
302.245148
 10
265.43512
 20
302.282318
 10
264.937714
 20
302.318329
 10
264.440002
 20
302.35318
 10
263.942291
 20
302.386871
 10
263.445374
 20
302.419464
 10
262.950104
 20
302.45105
 10
262.457275
 20
302.481689
 10
261.964233
 20
302.511139
 10
261.463104
 20
302.538818
 10
260.962982
 20
302.564911
 10
260.50647
 20
302.59137
 10
260.113068
 20
302.621155
 10
259.739075
 20
302.659454
 10
259.345367
 20
302.71048
 10
258.937988
 20
302.773895
 10
258.529755
 20
302.848724
 10
258.12149
 20
302.93515
 10
257.711029
 20
303.033569
 10
257.298492
 20
303.144043
 10
256.884918
 20
303.266418
 10
256.471222
 20
303.400604
 10
256.058441
 20
303.546478
 10
255.647507
 20
303.703918
 10
255.23645
 20
303.874115
  0
LWPOLYLINE
  5
17A
330
158
100
AcDbEntity
  8
0
  6
Continuous
 62
     0
370
    30
100
AcDbPolyline
 90
       60
 70
     0
 43
0.0
 10
268.940979
 20
266.445312
 10
268.563232
 20
266.898895
 10
268.186859
 20
267.35318
 10
267.811798
 20
267.808167
 10
267.438141
 20
268.263794
 10
267.065796
 20
268.720123
 10
266.694855
 20
269.177094
 10
266.325256
 20
269.634735
 10
265.957062
 20
270.093048
 10
265.59021
 20
270.551971
 10
265.224762
 20
271.011536
 10
264.860687
 20
271.471741
 10
264.498016
 20
271.932556
 10
264.136719
 20
272.393982
 10
263.776825
 20
272.856049
 10
263.418335
 20
273.318695
 10
263.061249
 20
273.781921
 10
262.705597
 20
274.245758
 10
262.351318
 20
274.710144
 10
261.998474
 20
275.17514
 10
261.647034
 20
275.640686
 10
261.297028
 20
276.106812
 10
260.948456
 20
276.573456
 10
260.601288
 20
277.04068
 10
260.255554
 20
277.508453
 10
259.911255
 20
277.976746
 10
259.56839
 20
278.445557
 10
259.22699
 20
278.914856
 10
258.887024
 20
279.384705
 10
258.548523
 20
279.855011
 10
258.211456
 20
280.325836
 10
257.875885
 20
280.797119
 10
257.541718
 20
281.268921
 10
257.209015
 20
281.741211
 10
256.877777
 20
282.21405
 10
256.548004
 20
282.687317
 10
256.219727
 20
283.160919
 10
255.893021
 20
283.634827
 10
255.567841
 20
284.109009
 10
255.244095
 20
284.583771
 10
254.9216
 20
285.059418
 10
254.600281
 20
285.536163
 10
254.280365
 20
286.013458
 10
253.962448
 20
286.490143
 10
253.647049
 20
286.965027
 10
253.333618
 20
287.439331
 10
253.017532
 20
287.922729
 10
252.70491
 20
288.404144
 10
252.42453
 20
288.827728
 10
252.173004
 20
289.188354
 10
251.907227
 20
289.5448
 10
251.614426
 20
289.914154
 10
251.306107
 20
290.279602
 10
250.984589
 20
290.637238
 10
250.647797
 20
290.98941
 10
250.29599
 20
291.335724
 10
249.930069
 20
291.674957
 10
249.550934
 20
292.00589
 10
249.159485
 20
292.327332
 10
248.751511
 20
292.641846
  0
ARC
  5
17B
330
158
100
AcDbEntity
  8
0
  6
Continuous
 62
     0
370
    30
100
AcDbCircle
 10
222.860307
 20
238.452326
 30
0.0
 40
60.00002513818801
100
AcDbArc
 50
64.195525
 51
76.623924
  0
LWPOLYLINE
  5
17C
330
158
100
AcDbEntity
  8
0
  6
Continuous
 62
     0
370
    30
100
AcDbPolyline
 90
       12
 70
     0
 43
0.0
 10
300.67511
 20
407.295868
 10
301.240692
 20
407.170105
 10
301.789948
 20
406.973145
 10
302.318146
 20
406.706787
 10
302.82077
 20
406.373535
 10
303.293427
 20
405.976166
 10
303.731842
 20
405.518188
 10
304.131927
 20
405.003387
 10
304.49054
 20
404.436157
 10
304.805023
 20
403.82135
 10
305.072296
 20
403.164795
 10
305.297607
 20
402.441406
  0
LWPOLYLINE
  5
17D
330
158
100
AcDbEntity
  8
0
  6
Continuous
 62
     0
370
    30
100
AcDbPolyline
 90
       34
 70
     0
 43
0.0
 10
305.297607
 20
402.441406
 10
305.463135
 20
401.705536
 10
305.573578
 20
400.943634
 10
305.628143
 20
400.164551
 10
305.626373
 20
399.375916
 10
305.567993
 20
398.584229
 10
305.453308
 20
397.796295
 10
305.283722
 20
397.019318
 10
305.060791
 20
396.260468
 10
304.786621
 20
395.526611
 10
304.46347
 20
394.824402
 10
304.094238
 20
394.160126
 10
303.682373
 20
393.539795
 10
303.231567
 20
392.969055
 10
302.745941
 20
392.453003
 10
302.229797
 20
391.996399
 10
301.687866
 20
391.603241
 10
301.125061
 20
391.277222
 10
300.546387
 20
391.02121
 10
299.957153
 20
390.837494
 10
299.362671
 20
390.727875
 10
298.76828
 20
390.693146
 10
298.179413
 20
390.733826
 10
297.601318
 20
390.849365
 10
297.039307
 20
391.038788
 10
296.498413
 20
391.300415
 10
295.98349
 20
391.631805
 10
295.499268
 20
392.030182
 10
295.050049
 20
392.491608
 10
294.640045
 20
393.011932
 10
294.272827
 20
393.58667
 10
293.951508
 20
394.211151
 10
293.67926
 20
394.879364
 10
293.453583
 20
395.603271
  0
LWPOLYLINE
  5
17E
330
158
100
AcDbEntity
  8
0
  6
Continuous
 62
     0
370
    30
100
AcDbPolyline
 90
       34
 70
     0
 43
0.0
 10
293.442932
 20
395.475098
 10
293.668457
 20
394.74881
 10
293.947571
 20
394.059235
 10
294.277344
 20
393.41452
 10
294.654541
 20
392.820953
 10
295.075897
 20
392.283386
 10
295.53775
 20
391.806396
 10
296.035828
 20
391.394287
 10
296.565643
 20
391.051147
 10
297.122375
 20
390.779846
 10
297.700989
 20
390.582947
 10
298.296295
 20
390.462128
 10
298.902832
 20
390.418518
 10
299.515198
 20
390.452637
 10
300.127777
 20
390.563934
 10
300.735046
 20
390.751648
 10
301.331512
 20
391.013916
 10
301.911804
 20
391.348419
 10
302.470612
 20
391.752167
 10
303.00296
 20
392.221405
 10
303.503937
 20
392.752045
 10
303.969116
 20
393.339111
 10
304.394196
 20
393.977417
 10
304.775391
 20
394.661133
 10
305.109161
 20
395.384033
 10
305.392517
 20
396.139679
 10
305.623047
 20
396.921173
 10
305.798584
 20
397.721497
 10
305.917511
 20
398.533234
 10
305.978363
 20
399.348938
 10
305.980835
 20
400.161591
 10
305.925262
 20
400.964447
 10
305.812286
 20
401.749725
 10
305.640503
 20
402.517395
  0
LWPOLYLINE
  5
17F
330
158
100
AcDbEntity
  8
0
  6
Continuous
 62
     0
370
    30
100
AcDbPolyline
 90
       34
 70
     0
 43
0.0
 10
305.640503
 20
402.517395
 10
305.414703
 20
403.2435
 10
305.135223
 20
403.9328
 10
304.805481
 20
404.577637
 10
304.428619
 20
405.1716
 10
304.007507
 20
405.709442
 10
303.545624
 20
406.18634
 10
303.047424
 20
406.598236
 10
302.517548
 20
406.941345
 10
301.960876
 20
407.212708
 10
301.382294
 20
407.409637
 10
300.786987
 20
407.530396
 10
300.18042
 20
407.573975
 10
299.568085
 20
407.539825
 10
298.955505
 20
407.428528
 10
298.348236
 20
407.240784
 10
297.75174
 20
406.978516
 10
297.171478
 20
406.643982
 10
296.612671
 20
406.240204
 10
296.080322
 20
405.770935
 10
295.579376
 20
405.240295
 10
295.114197
 20
404.653229
 10
294.689148
 20
404.014893
 10
294.307983
 20
403.331177
 10
293.974182
 20
402.608276
 10
293.690765
 20
401.852661
 10
293.460266
 20
401.071167
 10
293.284912
 20
400.270844
 10
293.166046
 20
399.459076
 10
293.104889
 20
398.643341
 10
293.101959
 20
397.830658
 10
293.157471
 20
397.027832
 10
293.270874
 20
396.242737
 10
293.442932
 20
395.475098
  0
ELLIPSE
  5
180
330
158
100
AcDbEntity
  8
0
  6
Continuous
 62
     0
370
    30
100
AcDbEllipse
 10
297.348988
 20
399.340665
 30
0.0
 11
1.299558015427681
 21
8.273558724305865
 31
0.0
210
0.0
220
0.0
230
1.0
 40
0.739997
 41
5.251095309530749
 42
6.116889350265039
  0
ELLIPSE
  5
181
330
158
100
AcDbEntity
  8
0
  6
Continuous
 62
     0
370
    30
100
AcDbEllipse
 10
297.348988
 20
399.340665
 30
0.0
 11
1.299558015427681
 21
8.273558724305865
 31
0.0
210
0.0
220
0.0
230
1.0
 40
0.739997
 41
3.307877329718395
 42
5.251095309530749
  0
ARC
  5
182
330
158
100
AcDbEntity
  8
0
  6
Continuous
 62
     0
370
    30
100
AcDbCircle
 10
307.996133
 20
265.996107
 30
0.0
 40
35.91761557919342
100
AcDbArc
 50
137.908695
 51
150.098061
  0
ARC
  5
183
330
158
100
AcDbEntity
  8
0
  6
Continuous
 62
     0
370
    30
100
AcDbCircle
 10
296.116223
 20
273.195265
 30
0.0
 40
26.22676673880102
100
AcDbArc
 50
125.232158
 51
150.778126
  0
LINE
  5
184
330
158
100
AcDbEntity
  8
0
  6
Continuous
 62
     0
370
    30
100
AcDbLine
 10
276.860027
 20
283.901562
 30
0.0
 11
273.227184
 21
285.998985
 31
0.0
  0
LWPOLYLINE
  5
185
330
158
100
AcDbEntity
  8
0
  6
Continuous
 62
     0
370
    30
100
AcDbPolyline
 90
       21
 70
     0
 43
0.0
 10
273.227173
 20
285.998993
 10
272.667542
 20
284.985413
 10
272.148682
 20
283.954132
 10
271.672913
 20
282.909668
 10
271.242249
 20
281.856628
 10
270.858612
 20
280.799622
 10
270.523682
 20
279.743225
 10
270.238922
 20
278.692139
 10
270.005554
 20
277.650909
 10
269.824646
 20
276.624115
 10
269.69696
 20
275.616272
 10
269.623077
 20
274.631744
 10
269.603302
 20
273.674927
 10
269.637756
 20
272.749939
 10
269.726257
 20
271.86087
 10
269.868439
 20
271.011627
 10
270.06366
 20
270.205902
 10
270.311066
 20
269.447235
 10
270.609589
 20
268.738922
 10
270.957855
 20
268.084076
 10
271.369324
 20
267.465424
  0
ARC
  5
186
330
158
100
AcDbEntity
  8
0
  6
Continuous
 62
     0
370
     0
100
AcDbCircle
 10
315.403864
 20
308.304786
 30
0.0
 40
0.3140043147575354
100
AcDbArc
 50
273.123168
 51
84.616223
  0
LWPOLYLINE
  5
187
330
158
100
AcDbEntity
  8
0
  6
Continuous
 62
     0
370
     0
100
AcDbPolyline
 90
       25
 70
     0
 43
0.0
 10
315.420959
 20
307.991241
 10
315.717529
 20
307.040527
 10
316.028564
 20
306.091339
 10
316.354065
 20
305.144653
 10
316.694244
 20
304.200592
 10
317.049255
 20
303.259308
 10
317.419189
 20
302.321106
 10
317.80426
 20
301.386292
 10
318.20459
 20
300.455109
 10
318.620361
 20
299.527863
 10
319.051666
 20
298.604797
 10
319.498596
 20
297.686279
 10
319.961243
 20
296.772614
 10
320.439758
 20
295.864105
 10
320.934387
 20
294.96109
 10
321.444672
 20
294.063843
 10
321.972443
 20
293.173309
 10
322.506531
 20
292.315826
 10
323.065796
 20
291.472382
 10
323.653992
 20
290.643829
 10
324.272736
 20
289.835876
 10
324.921295
 20
289.056671
 10
325.598846
 20
288.314178
 10
326.304016
 20
287.617157
 10
327.048767
 20
286.984009
  0
ELLIPSE
  5
188
330
158
100
AcDbEntity
  8
0
  6
Continuous
 62
     0
370
     0
100
AcDbEllipse
 10
326.809896
 20
286.353416
 30
0.0
 11
-0.6110386348088398
 21
-0.7916007748675774
 31
0.0
210
0.0
220
0.0
230
-1.0
 40
0.256834
 41
2.271993603726343
 42
3.392570951971906
  0
ARC
  5
189
330
158
100
AcDbEntity
  8
0
  6
Continuous
 62
     0
370
    30
100
AcDbCircle
 10
312.333265
 20
396.792158
 30
0.0
 40
1.217388922895735
100
AcDbArc
 50
305.559846
 51
15.597733
  0
LWPOLYLINE
  5
18A
330
158
100
AcDbEntity
  8
0
  6
Continuous
 62
     0
370
     0
100
AcDbPolyline
 90
       81
 70
     0
 43
0.0
 10
315.420959
 20
307.991241
 10
315.134918
 20
309.01474
 10
314.872833
 20
310.043427
 10
314.634735
 20
311.076813
 10
314.418793
 20
312.125946
 10
314.280182
 20
313.091217
 10
314.156281
 20
314.133484
 10
314.031952
 20
315.175415
 10
313.907135
 20
316.217438
 10
313.781799
 20
317.259735
 10
313.655975
 20
318.302032
 10
313.529602
 20
319.344391
 10
313.40274
 20
320.386841
 10
313.275391
 20
321.429352
 10
313.147491
 20
322.471924
 10
313.019073
 20
323.514587
 10
312.890137
 20
324.557312
 10
312.760681
 20
325.600128
 10
312.630676
 20
326.643005
 10
312.500153
 20
327.685944
 10
312.36908
 20
328.728973
 10
312.237488
 20
329.772064
 10
312.105316
 20
330.815247
 10
311.972626
 20
331.85849
 10
311.839355
 20
332.901825
 10
311.705566
 20
333.945221
 10
311.571198
 20
334.988678
 10
311.436249
 20
336.032227
 10
311.300751
 20
337.075836
 10
311.164673
 20
338.119537
 10
311.028046
 20
339.1633
 10
310.890808
 20
340.207153
 10
310.752991
 20
341.251068
 10
310.614594
 20
342.295074
 10
310.475616
 20
343.339172
 10
310.336029
 20
344.383301
 10
310.195831
 20
345.427551
 10
310.055054
 20
346.471832
 10
309.913666
 20
347.516235
 10
309.771667
 20
348.560699
 10
309.629028
 20
349.605225
 10
309.485779
 20
350.649841
 10
309.341919
 20
351.69455
 10
309.197418
 20
352.739319
 10
309.052307
 20
353.784149
 10
308.906525
 20
354.829102
 10
308.760101
 20
355.874115
 10
308.613068
 20
356.919189
 10
308.465332
 20
357.964355
 10
308.316986
 20
359.009613
 10
308.167938
 20
360.054932
 10
308.01825
 20
361.100342
 10
307.867889
 20
362.145844
 10
307.716827
 20
363.191406
 10
307.565094
 20
364.237061
 10
307.412689
 20
365.282776
 10
307.259583
 20
366.328613
 10
307.105774
 20
367.374512
 10
306.951294
 20
368.420471
 10
306.796082
 20
369.466553
 10
306.640137
 20
370.512695
 10
306.483521
 20
371.558899
 10
306.326141
 20
372.605225
 10
306.16806
 20
373.651611
 10
306.009247
 20
374.69809
 10
305.849701
 20
375.744659
 10
305.689423
 20
376.791351
 10
305.528412
 20
377.838104
 10
305.366669
 20
378.884949
 10
305.204163
 20
379.931915
 10
305.040894
 20
380.978943
 10
304.876892
 20
382.026093
 10
304.712128
 20
383.073334
 10
304.5466
 20
384.120697
 10
304.38031
 20
385.16806
 10
304.213257
 20
386.215393
 10
304.067108
 20
387.20285
 10
303.995392
 20
388.134033
 10
303.995209
 20
389.02951
 10
304.063904
 20
389.88446
 10
304.199371
 20
390.69693
  0
LWPOLYLINE
  5
18B
330
158
100
AcDbEntity
  8
0
  6
Continuous
 62
     0
370
     0
100
AcDbPolyline
 90
       46
 70
     0
 43
0.0
 10
292.750458
 20
295.520874
 10
292.841736
 20
294.971039
 10
292.93399
 20
294.419983
 10
293.027252
 20
293.867737
 10
293.12146
 20
293.314362
 10
293.216644
 20
292.759827
 10
293.312775
 20
292.204193
 10
293.409821
 20
291.647461
 10
293.507782
 20
291.089691
 10
293.606689
 20
290.530884
 10
293.706512
 20
289.971039
 10
293.807251
 20
289.410248
 10
293.908966
 20
288.84848
 10
294.011597
 20
288.285767
 10
294.115173
 20
287.722168
 10
294.219696
 20
287.157684
 10
294.325165
 20
286.592377
 10
294.43158
 20
286.026245
 10
294.53891
 20
285.45932
 10
294.647217
 20
284.891693
 10
294.756409
 20
284.323334
 10
294.866577
 20
283.754303
 10
294.977661
 20
283.184631
 10
295.089691
 20
282.61441
 10
295.202637
 20
282.043518
 10
295.31662
 20
281.471649
 10
295.431427
 20
280.900391
 10
295.547241
 20
280.328308
 10
295.66153
 20
279.753723
 10
295.781921
 20
279.184601
 10
295.899963
 20
278.609222
 10
296.021851
 20
278.030334
 10
296.155396
 20
277.453644
 10
296.302155
 20
276.879395
 10
296.463013
 20
276.308502
 10
296.63916
 20
275.742188
 10
296.831635
 20
275.181732
 10
297.041412
 20
274.628815
 10
297.269257
 20
274.085297
 10
297.515747
 20
273.553375
 10
297.781311
 20
273.035675
 10
298.065948
 20
272.535126
 10
298.368835
 20
272.055115
 10
298.689148
 20
271.601624
 10
299.028046
 20
271.194
 10
299.402466
 20
270.886688
  0
ELLIPSE
  5
18C
330
158
100
AcDbEntity
  8
0
  6
Continuous
 62
     0
370
     0
100
AcDbEllipse
 10
300.01865
 20
270.885493
 30
0.0
 11
0.7919943142105944
 21
0.6105284647402477
 31
0.0
210
0.0
220
0.0
230
1.0
 40
0.431885
 41
0.9592038111432037
 42
2.079782488205622
  0
LWPOLYLINE
  5
18D
330
158
100
AcDbEntity
  8
0
  6
Continuous
 62
     0
370
     0
100
AcDbPolyline
 90
       26
 70
     0
 43
0.0
 10
294.148407
 20
295.709534
 10
294.306824
 20
294.725372
 10
294.468445
 20
293.736694
 10
294.632996
 20
292.744324
 10
294.800537
 20
291.748322
 10
294.9711
 20
290.748688
 10
295.144684
 20
289.745697
 10
295.32132
 20
288.739502
 10
295.500946
 20
287.730225
 10
295.683563
 20
286.718018
 10
295.869202
 20
285.703094
 10
296.057831
 20
284.685669
 10
296.249451
 20
283.665985
 10
296.444092
 20
282.644257
 10
296.641602
 20
281.620605
 10
296.842133
 20
280.595276
 10
297.045166
 20
279.569061
 10
297.249634
 20
278.54541
 10
297.468445
 20
277.55777
 10
297.725464
 20
276.586975
 10
298.025085
 20
275.640015
 10
298.371948
 20
274.723999
 10
298.768738
 20
273.848816
 10
299.21759
 20
273.022522
 10
299.715271
 20
272.252289
 10
300.257507
 20
271.516083
  0
ARC
  5
18E
330
158
100
AcDbEntity
  8
0
  6
Continuous
 62
     0
370
     0
100
AcDbCircle
 10
293.125602
 20
298.021481
 30
0.0
 40
2.528092260741698
100
AcDbArc
 50
261.464165
 51
293.864645
  0
ARC
  5
18F
330
158
100
AcDbEntity
  8
0
  6
Continuous
 62
     0
370
    30
100
AcDbCircle
 10
290.812915
 20
383.712748
 30
0.0
 40
0.6449475308105324
100
AcDbArc
 50
185.824307
 51
298.527611
  0
LWPOLYLINE
  5
190
330
158
100
AcDbEntity
  8
0
  6
Continuous
 62
     0
370
     0
100
AcDbPolyline
 90
      103
 70
     0
 43
0.0
 10
290.171295
 20
383.647308
 10
289.414062
 20
383.809235
 10
288.671936
 20
383.912292
 10
287.947357
 20
383.956085
 10
287.242584
 20
383.941071
 10
286.559692
 20
383.867889
 10
285.900879
 20
383.736816
 10
285.268341
 20
383.548096
 10
284.664459
 20
383.301758
 10
284.091614
 20
382.997833
 10
283.552338
 20
382.636505
 10
283.049164
 20
382.217987
 10
282.5849
 20
381.742523
 10
282.162476
 20
381.210266
 10
281.785065
 20
380.621826
 10
281.455811
 20
379.977875
 10
281.178131
 20
379.27948
 10
280.955536
 20
378.528198
 10
280.791443
 20
377.726166
 10
280.68924
 20
376.876251
 10
280.65213
 20
375.982147
 10
280.683472
 20
375.045624
 10
280.783478
 20
374.081329
 10
280.940826
 20
373.091949
 10
281.099243
 20
372.102356
 10
281.257355
 20
371.113007
 10
281.4151
 20
370.123901
 10
281.57251
 20
369.135101
 10
281.729584
 20
368.146545
 10
281.886322
 20
367.158295
 10
282.042725
 20
366.170258
 10
282.198822
 20
365.182495
 10
282.354553
 20
364.195038
 10
282.509979
 20
363.207855
 10
282.6651
 20
362.220825
 10
282.819916
 20
361.233978
 10
282.974426
 20
360.247253
 10
283.128845
 20
359.259033
 10
283.282288
 20
358.276367
 10
283.435852
 20
357.290619
 10
283.589203
 20
356.304413
 10
283.742126
 20
355.319275
 10
283.894714
 20
354.334747
 10
284.047028
 20
353.350311
 10
284.199066
 20
352.365967
 10
284.3508
 20
351.381927
 10
284.502228
 20
350.398163
 10
284.653381
 20
349.414642
 10
284.80426
 20
348.431366
 10
284.954834
 20
347.448364
 10
285.105103
 20
346.465607
 10
285.255127
 20
345.483093
 10
285.404846
 20
344.500854
 10
285.554291
 20
343.51886
 10
285.703461
 20
342.537079
 10
285.852356
 20
341.555573
 10
286.000977
 20
340.57431
 10
286.149323
 20
339.593292
 10
286.297394
 20
338.612518
 10
286.44519
 20
337.631989
 10
286.592743
 20
336.651703
 10
286.740021
 20
335.671631
 10
286.887024
 20
334.691803
 10
287.033783
 20
333.71225
 10
287.180267
 20
332.73288
 10
287.326508
 20
331.753784
 10
287.472504
 20
330.774902
 10
287.618225
 20
329.796234
 10
287.763702
 20
328.817841
 10
287.908905
 20
327.83963
 10
288.053894
 20
326.861664
 10
288.198608
 20
325.883942
 10
288.343079
 20
324.906433
 10
288.487305
 20
323.929138
 10
288.631287
 20
322.952087
 10
288.775055
 20
321.97525
 10
288.918549
 20
320.998627
 10
289.061829
 20
320.022217
 10
289.204834
 20
319.046021
 10
289.347626
 20
318.070068
 10
289.490204
 20
317.094299
 10
289.632507
 20
316.118774
 10
289.774597
 20
315.143463
 10
289.916473
 20
314.168335
 10
290.058105
 20
313.19342
 10
290.199493
 20
312.218719
 10
290.340698
 20
311.244232
 10
290.481628
 20
310.269989
 10
290.622375
 20
309.295929
 10
290.762878
 20
308.322083
 10
290.903168
 20
307.348358
 10
291.043213
 20
306.374878
 10
291.183136
 20
305.401947
 10
291.322662
 20
304.428314
 10
291.462036
 20
303.455292
 10
291.601959
 20
302.486694
 10
291.738922
 20
301.503021
 10
291.878754
 20
300.537384
 10
292.03891
 20
299.567474
 10
292.218475
 20
298.570648
 10
292.396301
 20
297.565216
 10
292.572357
 20
296.551453
 10
292.747742
 20
295.522491
  0
LWPOLYLINE
  5
191
330
158
100
AcDbEntity
  8
0
  6
Continuous
 62
     0
370
     0
100
AcDbPolyline
 90
       97
 70
     0
 43
0.0
 10
290.328247
 20
383.31662
 10
289.588959
 20
383.415833
 10
288.868073
 20
383.452911
 10
288.167908
 20
383.428345
 10
287.490997
 20
383.342743
 10
286.839966
 20
383.196442
 10
286.21759
 20
382.989716
 10
285.626556
 20
382.722687
 10
285.069672
 20
382.39563
 10
284.549683
 20
382.009003
 10
284.069611
 20
381.563232
 10
283.63269
 20
381.058868
 10
283.242157
 20
380.496796
 10
282.901428
 20
379.878021
 10
282.613983
 20
379.20401
 10
282.383362
 20
378.476898
 10
282.213104
 20
377.699158
 10
282.106476
 20
376.874298
 10
282.066467
 20
376.006348
 10
282.095703
 20
375.101471
 10
282.195526
 20
374.172852
 10
282.360748
 20
373.141022
 10
282.527313
 20
372.100922
 10
282.693695
 20
371.060028
 10
282.85965
 20
370.019318
 10
283.025238
 20
368.978973
 10
283.19046
 20
367.938904
 10
283.355286
 20
366.899139
 10
283.519714
 20
365.85968
 10
283.683777
 20
364.820526
 10
283.847473
 20
363.781677
 10
284.010803
 20
362.743103
 10
284.173798
 20
361.704865
 10
284.336395
 20
360.666901
 10
284.498657
 20
359.629242
 10
284.660583
 20
358.591888
 10
284.822144
 20
357.55484
 10
284.983398
 20
356.518066
 10
285.144318
 20
355.481628
 10
285.304901
 20
354.445435
 10
285.465149
 20
353.409576
 10
285.625092
 20
352.373993
 10
285.784698
 20
351.338684
 10
285.944
 20
350.30368
 10
286.102966
 20
349.268951
 10
286.261627
 20
348.234528
 10
286.419983
 20
347.200348
 10
286.578033
 20
346.166473
 10
286.735748
 20
345.132874
 10
286.893188
 20
344.099579
 10
287.050293
 20
343.066528
 10
287.207123
 20
342.033752
 10
287.363647
 20
341.001251
 10
287.519897
 20
339.969025
 10
287.675812
 20
338.937073
 10
287.831451
 20
337.905365
 10
287.986816
 20
336.873932
 10
288.141876
 20
335.842773
 10
288.296661
 20
334.81189
 10
288.451141
 20
333.78125
 10
288.605347
 20
332.750885
 10
288.759277
 20
331.720764
 10
288.912933
 20
330.690887
 10
289.066315
 20
329.661285
 10
289.219421
 20
328.631927
 10
289.372223
 20
327.602844
 10
289.52478
 20
326.574005
 10
289.677094
 20
325.54541
 10
289.829102
 20
324.517059
 10
289.980865
 20
323.488953
 10
290.132355
 20
322.46109
 10
290.283569
 20
321.433472
 10
290.43454
 20
320.406097
 10
290.585236
 20
319.378967
 10
290.735687
 20
318.352081
 10
290.885895
 20
317.325439
 10
291.035828
 20
316.299042
 10
291.185516
 20
315.272858
 10
291.334961
 20
314.246918
 10
291.484131
 20
313.221222
 10
291.633057
 20
312.19574
 10
291.781769
 20
311.170471
 10
291.930206
 20
310.145477
 10
292.0784
 20
309.120697
 10
292.226349
 20
308.09613
 10
292.374084
 20
307.071716
 10
292.521545
 20
306.047729
 10
292.668793
 20
305.023926
 10
292.815887
 20
303.999329
 10
292.962341
 20
302.978729
 10
293.109253
 20
301.951996
 10
293.256348
 20
300.921631
 10
293.404327
 20
299.953857
 10
293.59024
 20
298.916565
 10
293.777039
 20
297.859528
 10
293.962677
 20
296.792999
 10
294.148407
 20
295.709534
  0
LWPOLYLINE
  5
192
330
158
100
AcDbEntity
  8
0
  6
Continuous
 62
     0
370
     0
100
AcDbPolyline
 90
       12
 70
     0
 43
0.0
 10
307.962494
 20
414.846375
 10
306.8797
 20
415.063477
 10
305.813202
 20
415.217499
 10
304.764984
 20
415.307861
 10
303.73703
 20
415.334015
 10
302.731384
 20
415.29541
 10
301.750244
 20
415.19165
 10
300.795929
 20
415.022369
 10
299.870575
 20
414.787415
 10
298.976196
 20
414.486664
 10
298.114868
 20
414.120239
 10
297.260864
 20
413.672394
  0
ARC
  5
193
330
158
100
AcDbEntity
  8
0
  6
Continuous
 62
     0
370
    30
100
AcDbCircle
 10
308.270835
 20
414.280587
 30
0.0
 40
0.6443586994888088
100
AcDbArc
 50
5.855861
 51
118.58834
  0
ARC
  5
194
330
158
100
AcDbEntity
  8
0
  6
Continuous
 62
     0
370
    30
100
AcDbCircle
 10
281.646324
 20
291.10438
 30
0.0
 40
0.3525321892111095
100
AcDbArc
 50
134.66806
 51
234.138585
  0
LINE
  5
195
330
158
100
AcDbEntity
  8
0
  6
Continuous
 62
     0
370
     0
100
AcDbLine
 10
281.439801
 20
290.818675
 30
0.0
 11
280.514554
 21
302.834223
 31
0.0
  0
ARC
  5
196
330
158
100
AcDbEntity
  8
0
  6
Continuous
 62
     0
370
     0
100
AcDbCircle
 10
280.597354
 20
303.180595
 30
0.0
 40
0.3558862221130654
100
AcDbArc
 50
115.174632
 51
256.407423
  0
LWPOLYLINE
  5
197
330
158
100
AcDbEntity
  8
0
  6
Continuous
 62
     0
370
    30
100
AcDbPolyline
 90
       15
 70
     0
 43
0.0
 10
281.496368
 20
288.929901
 10
281.418304
 20
288.372772
 10
281.31131
 20
287.839264
 10
281.174805
 20
287.331604
 10
281.008514
 20
286.851898
 10
280.812317
 20
286.402069
 10
280.586395
 20
285.984039
 10
280.331085
 20
285.599518
 10
280.046997
 20
285.249786
 10
279.734894
 20
284.935974
 10
279.395569
 20
284.658844
 10
279.030121
 20
284.41861
 10
278.639557
 20
284.215179
 10
278.225037
 20
284.04776
 10
277.757935
 20
283.907288
  0
LWPOLYLINE
  5
198
330
158
100
AcDbEntity
  8
0
  6
Continuous
 62
     0
370
    30
100
AcDbPolyline
 90
       67
 70
     0
 43
0.0
 10
281.439789
 20
290.818665
 10
281.445862
 20
290.648987
 10
281.452179
 20
290.479187
 10
281.45874
 20
290.309265
 10
281.465546
 20
290.139252
 10
281.472565
 20
289.969116
 10
281.479797
 20
289.798889
 10
281.487183
 20
289.62854
 10
281.492737
 20
289.475708
 10
281.496429
 20
289.308014
 10
281.498047
 20
289.141144
 10
281.497101
 20
288.975769
 10
281.493591
 20
288.81192
 10
281.487549
 20
288.649719
 10
281.478912
 20
288.489258
 10
281.467682
 20
288.330627
 10
281.453857
 20
288.173798
 10
281.437439
 20
288.01889
 10
281.418427
 20
287.865936
 10
281.396759
 20
287.714996
 10
281.372498
 20
287.566132
 10
281.345612
 20
287.419434
 10
281.316101
 20
287.274902
 10
281.283997
 20
287.13266
 10
281.249237
 20
286.992706
 10
281.211914
 20
286.855164
 10
281.171936
 20
286.720032
 10
281.129395
 20
286.587402
 10
281.084259
 20
286.457336
 10
281.03656
 20
286.329895
 10
280.986267
 20
286.205078
 10
280.933472
 20
286.083008
 10
280.878143
 20
285.963715
 10
280.820312
 20
285.847229
 10
280.759979
 20
285.733673
 10
280.697174
 20
285.623016
 10
280.631958
 20
285.515381
 10
280.564301
 20
285.410797
 10
280.494263
 20
285.309326
 10
280.421844
 20
285.210999
 10
280.347107
 20
285.115875
 10
280.270081
 20
285.024048
 10
280.190796
 20
284.935516
 10
280.109283
 20
284.850342
 10
280.025604
 20
284.768585
 10
279.939758
 20
284.690277
 10
279.851868
 20
284.615479
 10
279.761902
 20
284.54422
 10
279.669952
 20
284.476593
 10
279.57608
 20
284.412598
 10
279.480347
 20
284.352325
 10
279.382812
 20
284.295746
 10
279.283508
 20
284.24295
 10
279.182556
 20
284.193939
 10
279.080017
 20
284.148743
 10
278.975952
 20
284.107452
 10
278.870483
 20
284.070038
 10
278.763672
 20
284.03653
 10
278.655609
 20
284.006958
 10
278.546448
 20
283.981262
 10
278.436218
 20
283.959473
 10
278.325073
 20
283.941498
 10
278.213104
 20
283.927338
 10
278.100433
 20
283.917053
 10
277.987122
 20
283.91037
 10
277.873505
 20
283.908447
 10
277.757904
 20
283.906952
  0
LWPOLYLINE
  5
199
330
158
100
AcDbEntity
  8
0
  6
Continuous
 62
     0
370
     0
100
AcDbPolyline
 90
       13
 70
     0
 43
0.0
 10
274.762634
 20
400.65921
 10
275.540588
 20
401.129761
 10
276.353577
 20
401.538269
 10
277.199707
 20
401.88446
 10
278.077026
 20
402.168213
 10
278.983521
 20
402.389404
 10
279.917297
 20
402.547974
 10
280.876312
 20
402.644196
 10
281.858521
 20
402.678497
 10
282.861969
 20
402.651184
 10
283.884644
 20
402.562775
 10
284.924744
 20
402.413757
 10
286.042206
 20
402.190704
  0
LWPOLYLINE
  5
19A
330
158
100
AcDbEntity
  8
0
  6
Continuous
 62
     0
370
     0
100
AcDbPolyline
 90
       86
 70
     0
 43
0.0
 10
280.513702
 20
302.834717
 10
280.374084
 20
304.203033
 10
280.230865
 20
305.572693
 10
280.083984
 20
306.943848
 10
279.93338
 20
308.316071
 10
279.778809
 20
309.688538
 10
279.620667
 20
311.065552
 10
279.460266
 20
312.442841
 10
279.297424
 20
313.821442
 10
279.132111
 20
315.201538
 10
278.964294
 20
316.583099
 10
278.793976
 20
317.966125
 10
278.621155
 20
319.350586
 10
278.445801
 20
320.736511
 10
278.267914
 20
322.123901
 10
278.087494
 20
323.512726
 10
277.90448
 20
324.902985
 10
277.718933
 20
326.294708
 10
277.530792
 20
327.687866
 10
277.340027
 20
329.082458
 10
277.146698
 20
330.478516
 10
276.950714
 20
331.875977
 10
276.752106
 20
333.274872
 10
276.550873
 20
334.675201
 10
276.346985
 20
336.076965
 10
276.140442
 20
337.480133
 10
275.931183
 20
338.884705
 10
275.719269
 20
340.29071
 10
275.504639
 20
341.69812
 10
275.287323
 20
343.106934
 10
275.067261
 20
344.51712
 10
274.844452
 20
345.928741
 10
274.618896
 20
347.341736
 10
274.390594
 20
348.756134
 10
274.159515
 20
350.171875
 10
273.925659
 20
351.58902
 10
273.688995
 20
353.007538
 10
273.449524
 20
354.427429
 10
273.207245
 20
355.848663
 10
272.962128
 20
357.271271
 10
272.714142
 20
358.695221
 10
272.463318
 20
360.120514
 10
272.209625
 20
361.54715
 10
271.953033
 20
362.975128
 10
271.693573
 20
364.404419
 10
271.431183
 20
365.835022
 10
271.165894
 20
367.266968
 10
270.897675
 20
368.700195
 10
270.626495
 20
370.134705
 10
270.352356
 20
371.570526
 10
270.075287
 20
373.007629
 10
269.795197
 20
374.446014
 10
269.512146
 20
375.885651
 10
269.226044
 20
377.326569
 10
268.936676
 20
378.768524
 10
268.707581
 20
380.191437
 10
268.53833
 20
381.592316
 10
268.425507
 20
382.96875
 10
268.369629
 20
384.317169
 10
268.371063
 20
385.634155
 10
268.429932
 20
386.916199
 10
268.546112
 20
388.160065
 10
268.719391
 20
389.362579
 10
268.949463
 20
390.520538
 10
269.235626
 20
391.631073
 10
269.577057
 20
392.691467
 10
269.97287
 20
393.699036
 10
270.421783
 20
394.65152
 10
270.922485
 20
395.546692
 10
271.473633
 20
396.382538
 10
272.073517
 20
397.157349
 10
272.720428
 20
397.869598
 10
273.412567
 20
398.517883
 10
274.147949
 20
399.101105
 10
274.924591
 20
399.618469
 10
275.740356
 20
400.069214
 10
276.59317
 20
400.452667
 10
277.480804
 20
400.768646
 10
278.401031
 20
401.016968
 10
279.351593
 20
401.197571
 10
280.330292
 20
401.310547
 10
281.334778
 20
401.356323
 10
282.362823
 20
401.335327
 10
283.412109
 20
401.247986
 10
284.480438
 20
401.094971
 10
285.577301
 20
400.874146
  0
ARC
  5
19B
330
158
100
AcDbEntity
  8
0
  6
Continuous
 62
     0
370
    30
100
AcDbCircle
 10
286.748928
 20
401.200783
 30
0.0
 40
1.216302754235419
100
AcDbArc
 50
125.524679
 51
195.578447
  0
LINE
  5
19C
330
158
100
AcDbEntity
  8
0
  6
Continuous
 62
     0
370
    30
100
AcDbLine
 10
313.505821
 20
397.119492
 30
0.0
 11
308.911831
 21
414.346329
 31
0.0
  0
LINE
  5
19D
330
158
100
AcDbEntity
  8
0
  6
Continuous
 62
     0
370
    30
100
AcDbLine
 10
286.042191
 20
402.190689
 30
0.0
 11
307.962501
 21
414.846386
 31
0.0
  0
LINE
  5
19E
330
158
100
AcDbEntity
  8
0
  6
Continuous
 62
     0
370
    30
100
AcDbLine
 10
290.171297
 20
383.6473
 30
0.0
 11
285.577308
 21
400.874135
 31
0.0
  0
LINE
  5
19F
330
158
100
AcDbEntity
  8
0
  6
Continuous
 62
     0
370
    30
100
AcDbLine
 10
313.041241
 20
395.801802
 30
0.0
 11
291.120931
 21
383.146105
 31
0.0
  0
LINE
  5
1A0
330
158
100
AcDbEntity
  8
0
  6
Continuous
 62
     0
370
     0
100
AcDbLine
 10
301.774831
 20
269.516993
 30
0.0
 11
329.699386
 21
285.639266
 31
0.0
  0
LINE
  5
1A1
330
158
100
AcDbEntity
  8
0
  6
Continuous
 62
     0
370
     0
100
AcDbLine
 10
329.699389
 20
285.639268
 30
0.0
 11
327.048754
 21
286.984013
 31
0.0
  0
LINE
  5
1A2
330
158
100
AcDbEntity
  8
0
  6
Continuous
 62
     0
370
     0
100
AcDbLine
 10
301.774831
 20
269.516993
 30
0.0
 11
300.257509
 21
271.516089
 31
0.0
  0
LINE
  5
1A3
330
158
100
AcDbEntity
  8
0
  6
Continuous
 62
     0
370
    30
100
AcDbLine
 10
277.757912
 20
283.906954
 30
0.0
 11
277.186077
 21
283.713317
 31
0.0
  0
LINE
  5
1A4
330
158
100
AcDbEntity
  8
0
  6
Continuous
 62
     0
370
    30
100
AcDbLine
 10
299.402456
 20
270.886684
 30
0.0
 11
277.186036
 21
283.71334
 31
0.0
  0
LINE
  5
1A5
330
158
100
AcDbEntity
  8
0
  6
Continuous
 62
     0
370
    30
100
AcDbLine
 10
280.514554
 20
302.834223
 30
0.0
 11
292.747751
 21
295.522484
 31
0.0
  0
LINE
  5
1A6
330
158
100
AcDbEntity
  8
0
  6
Continuous
 62
     0
370
    30
100
AcDbLine
 10
276.86077
 20
283.901568
 30
0.0
 11
277.41263
 21
283.957014
 31
0.0
  0
LINE
  5
1A7
330
158
100
AcDbEntity
  8
0
  6
Continuous
 62
     0
370
    30
100
AcDbLine
 10
277.757944
 20
283.907288
 30
0.0
 11
277.41263
 21
283.957014
 31
0.0
  0
ELLIPSE
  5
1A8
330
158
100
AcDbEntity
  8
0
  6
Continuous
 62
     0
370
    30
100
AcDbEllipse
 10
276.654659
 20
284.389288
 30
0.0
 11
0.3007825682744859
 21
0.9536927422338867
 31
0.0
210
0.0
220
0.0
230
1.0
 40
0.811939
 41
4.206223362121884
 42
4.526989491632754
  0
LINE
  5
1A9
330
158
100
AcDbEntity
  8
0
  6
Continuous
 62
     0
370
    30
100
AcDbLine
 10
277.186036
 20
283.71334
 30
0.0
 11
276.860671
 21
283.90119
 31
0.0
  0
LINE
  5
1AA
330
158
100
AcDbEntity
  8
0
  6
Continuous
 62
     0
370
    30
100
AcDbLine
 10
301.774831
 20
269.516993
 30
0.0
 11
299.402456
 21
270.886684
 31
0.0
  0
LINE
  5
1AB
330
158
100
AcDbEntity
  8
0
  6
Continuous
 62
     0
370
    30
100
AcDbLine
 10
328.256156
 20
286.582211
 30
0.0
 11
329.699404
 21
285.639252
 31
0.0
  0
LINE
  5
1AC
330
158
100
AcDbEntity
  8
0
  6
Continuous
 62
     0
370
    30
100
AcDbLine
 10
385.568327
 20
266.046107
 30
0.0
 11
346.677454
 21
243.592451
 31
0.0
  0
LWPOLYLINE
  5
1AD
330
158
100
AcDbEntity
  8
0
  6
Continuous
 62
     0
370
    30
100
AcDbPolyline
 90
       55
 70
     0
 43
0.0
 10
329.699402
 20
285.639252
 10
330.665649
 20
284.97226
 10
331.6185
 20
284.284637
 10
332.557495
 20
283.576538
 10
333.482117
 20
282.848083
 10
334.391815
 20
282.099365
 10
335.286041
 20
281.330048
 10
336.164886
 20
280.540649
 10
337.029388
 20
279.733185
 10
337.881134
 20
278.910065
 10
338.72226
 20
278.074066
 10
339.554962
 20
277.228027
 10
340.381409
 20
276.374725
 10
341.203735
 20
275.516815
 10
342.024109
 20
274.656708
 10
342.844696
 20
273.796814
 10
343.667603
 20
272.939575
 10
344.495056
 20
272.087555
 10
345.329315
 20
271.2435
 10
346.172638
 20
270.410126
 10
347.027283
 20
269.590271
 10
347.895508
 20
268.78714
 10
348.779663
 20
268.004333
 10
349.681976
 20
267.245361
 10
350.604767
 20
266.513947
 10
351.550079
 20
265.814697
 10
352.520081
 20
265.152496
 10
353.516785
 20
264.532135
 10
354.541595
 20
263.95874
 10
355.594666
 20
263.437775
 10
356.676056
 20
262.974854
 10
357.785828
 20
262.575409
 10
358.923065
 20
262.244751
 10
360.085999
 20
261.986908
 10
361.270813
 20
261.800903
 10
362.473053
 20
261.683319
 10
363.688751
 20
261.628845
 10
364.914459
 20
261.632202
 10
366.147491
 20
261.688843
 10
367.385651
 20
261.794586
 10
368.627136
 20
261.945557
 10
369.870453
 20
262.138153
 10
371.114532
 20
262.369232
 10
372.358337
 20
262.635925
 10
373.601074
 20
262.935699
 10
374.842194
 20
263.266174
 10
376.081085
 20
263.626678
 10
377.316986
 20
264.018463
 10
378.548981
 20
264.442993
 10
379.776031
 20
264.901642
 10
380.997009
 20
265.39563
 10
382.210693
 20
265.925995
 10
383.415771
 20
266.493652
 10
384.543396
 20
266.637848
 10
385.568329
 20
266.046112
  0
LINE
  5
1AE
330
158
100
AcDbEntity
  8
0
  6
Continuous
 62
     0
370
    30
100
AcDbLine
 10
346.677454
 20
243.592451
 30
0.0
 11
301.774831
 21
269.516993
 31
0.0
  0
LINE
  5
1AF
330
158
100
AcDbEntity
  8
0
  6
Continuous
 62
     0
370
    30
100
AcDbLine
 10
346.677454
 20
199.501636
 30
0.0
 11
346.677454
 21
243.592451
 31
0.0
  0
ARC
  5
1B0
330
158
100
AcDbEntity
  8
0
  6
Continuous
 62
     0
370
    30
100
AcDbCircle
 10
347.123152
 20
199.434285
 30
0.0
 40
0.4507582477484752
100
AcDbArc
 50
171.406877
 51
251.572213
  0
LINE
  5
1B1
330
158
100
AcDbEntity
  8
0
  6
Continuous
 62
     0
370
    30
100
AcDbLine
 10
385.568327
 20
266.046107
 30
0.0
 11
385.568327
 21
265.585326
 31
0.0
  0
LWPOLYLINE
  5
1B2
330
158
100
AcDbEntity
  8
0
  6
Continuous
 62
     0
370
     0
100
AcDbPolyline
 90
       82
 70
     0
 43
0.0
 10
275.424072
 20
261.396606
 10
276.080261
 20
260.328674
 10
276.768921
 20
259.286621
 10
277.48761
 20
258.26944
 10
278.233978
 20
257.276001
 10
279.005615
 20
256.305115
 10
279.800171
 20
255.355698
 10
280.61554
 20
254.426605
 10
281.450012
 20
253.5168
 10
282.301849
 20
252.625244
 10
283.169495
 20
251.750885
 10
284.051544
 20
250.8927
 10
284.946686
 20
250.049652
 10
285.853577
 20
249.220703
 10
286.771515
 20
248.405045
 10
287.700226
 20
247.602066
 10
288.639801
 20
246.812027
 10
289.590576
 20
246.03566
 10
290.552734
 20
245.273727
 10
291.52655
 20
244.527008
 10
292.512268
 20
243.796234
 10
293.51001
 20
243.082153
 10
294.519928
 20
242.385529
 10
295.542206
 20
241.707077
 10
296.576996
 20
241.047562
 10
297.62439
 20
240.407684
 10
298.684357
 20
239.788193
 10
299.756866
 20
239.189728
 10
300.841858
 20
238.613007
 10
301.93927
 20
238.058716
 10
303.049011
 20
237.527557
 10
304.171082
 20
237.020187
 10
305.305298
 20
236.537231
 10
306.451569
 20
236.079285
 10
307.609619
 20
235.646912
 10
308.778656
 20
235.24057
 10
309.957428
 20
234.860458
 10
311.143951
 20
234.504166
 10
312.335938
 20
234.167633
 10
313.53186
 20
233.847153
 10
314.730438
 20
233.539139
 10
315.930389
 20
233.240021
 10
317.130371
 20
232.946182
 10
318.329132
 20
232.654083
 10
319.525391
 20
232.360168
 10
320.717834
 20
232.060883
 10
321.905243
 20
231.752686
 10
323.086334
 20
231.431992
 10
324.259491
 20
231.095078
 10
325.422943
 20
230.738007
 10
326.574799
 20
230.356827
 10
327.712708
 20
229.947388
 10
328.834167
 20
229.505508
 10
329.936401
 20
229.026917
 10
331.016083
 20
228.507309
 10
332.06958
 20
227.942459
 10
333.092834
 20
227.328308
 10
334.081421
 20
226.661255
 10
335.03067
 20
225.938202
 10
335.935852
 20
225.156677
 10
336.792206
 20
224.315521
 10
337.595886
 20
223.413544
 10
338.347321
 20
222.454224
 10
339.048798
 20
221.443741
 10
339.702789
 20
220.388107
 10
340.311676
 20
219.292664
 10
340.878052
 20
218.162476
 10
341.404358
 20
217.001984
 10
341.893036
 20
215.814713
 10
342.346375
 20
214.603775
 10
342.766449
 20
213.371948
 10
343.155273
 20
212.121597
 10
343.514679
 20
210.854706
 10
343.845886
 20
209.57341
 10
344.14801
 20
208.279114
 10
344.419281
 20
206.97197
 10
344.657928
 20
205.65213
 10
344.862366
 20
204.319946
 10
345.031067
 20
202.975861
 10
345.162567
 20
201.620773
 10
345.797546
 20
200.089722
 10
346.67746
 20
199.501633
  0
ARC
  5
1B3
330
158
100
AcDbEntity
  8
0
  6
Continuous
 62
     0
370
    30
100
AcDbCircle
 10
215.927264
 20
226.034306
 30
0.0
 40
69.21242315332617
100
AcDbArc
 50
30.724773
 51
36.770266
  0
LINE
  5
1B4
330
158
100
AcDbEntity
  8
0
  6
Continuous
 62
     0
370
    30
100
AcDbLine
 10
275.426709
 20
261.392307
 30
0.0
 11
275.571157
 21
261.149811
 31
0.0
  0
LINE
  5
1B5
330
158
100
AcDbEntity
  8
0
  6
Continuous
 62
     0
370
    30
100
AcDbLine
 10
346.882882
 20
199.044835
 30
0.0
 11
345.574524
 21
199.7966
 31
0.0
  0
LINE
  5
1B6
330
158
100
AcDbEntity
  8
0
  6
Continuous
 62
     0
370
    30
100
AcDbLine
 10
327.418886
 20
287.146536
 30
0.0
 11
328.256156
 21
286.582211
 31
0.0
  0
LINE
  5
1B7
330
158
100
AcDbEntity
  8
0
  6
Continuous
 62
     0
370
    30
100
AcDbLine
 10
297.269181
 20
413.677203
 30
0.0
 11
275.348876
 21
401.021509
 31
0.0
  0
LINE
  5
1B8
330
158
100
AcDbEntity
  8
0
  6
Continuous
 62
     0
370
    30
100
AcDbLine
 10
280.800827
 20
286.378564
 30
0.0
 11
280.742426
 21
286.263176
 31
0.0
  0
LINE
  5
1B9
330
158
100
AcDbEntity
  8
0
  6
Continuous
 62
     0
370
    30
100
AcDbLine
 10
275.349161
 20
401.021631
 30
0.0
 11
274.728146
 21
400.637912
 31
0.0
  0
LWPOLYLINE
  5
1BA
330
158
100
AcDbEntity
  8
0
  6
Continuous
 62
     0
370
    30
100
AcDbPolyline
 90
       76
 70
     0
 43
0.0
 10
280.243317
 20
303.14389
 10
280.100922
 20
304.508789
 10
279.955627
 20
305.874878
 10
279.807465
 20
307.242157
 10
279.656433
 20
308.610687
 10
279.502594
 20
309.980469
 10
279.345947
 20
311.351532
 10
279.186554
 20
312.723877
 10
279.024414
 20
314.097504
 10
278.859558
 20
315.472473
 10
278.692017
 20
316.848785
 10
278.521851
 20
318.226471
 10
278.34903
 20
319.60553
 10
278.173645
 20
320.985992
 10
277.995697
 20
322.367859
 10
277.815186
 20
323.75119
 10
277.632202
 20
325.135956
 10
277.446716
 20
326.522186
 10
277.25882
 20
327.909943
 10
277.068451
 20
329.299164
 10
276.87558
 20
330.68988
 10
276.680206
 20
332.082062
 10
276.4823
 20
333.475677
 10
276.28183
 20
334.870758
 10
276.078735
 20
336.267273
 10
275.873016
 20
337.665192
 10
275.664642
 20
339.064484
 10
275.453552
 20
340.46521
 10
275.239777
 20
341.867279
 10
275.023254
 20
343.270721
 10
274.803986
 20
344.675568
 10
274.582001
 20
346.081787
 10
274.3573
 20
347.48941
 10
274.129883
 20
348.898407
 10
273.899719
 20
350.308807
 10
273.666809
 20
351.720551
 10
273.431091
 20
353.133667
 10
273.192596
 20
354.548096
 10
272.951233
 20
355.963837
 10
272.707092
 20
357.380859
 10
272.460083
 20
358.799255
 10
272.210297
 20
360.219055
 10
271.957703
 20
361.640289
 10
271.702362
 20
363.062988
 10
271.444244
 20
364.487183
 10
271.183258
 20
365.91272
 10
270.91925
 20
367.339355
 10
270.65213
 20
368.766937
 10
270.381805
 20
370.195251
 10
270.108154
 20
371.624176
 10
269.831421
 20
373.054169
 10
269.552032
 20
374.485901
 10
269.270325
 20
375.920074
 10
268.986755
 20
377.357422
 10
268.703369
 20
378.797943
 10
268.454865
 20
380.229431
 10
268.277344
 20
381.63736
 10
268.155334
 20
383.023499
 10
268.085846
 20
384.385864
 10
268.071747
 20
385.720612
 10
268.114899
 20
387.0242
 10
268.215302
 20
388.293762
 10
268.372925
 20
389.526367
 10
268.587585
 20
390.719177
 10
268.859222
 20
391.869354
 10
269.187164
 20
392.974365
 10
269.570496
 20
394.031799
 10
270.008362
 20
395.039307
 10
270.499847
 20
395.994537
 10
271.044067
 20
396.89505
 10
271.640106
 20
397.738495
 10
272.287109
 20
398.522491
 10
272.984039
 20
399.24472
 10
273.728546
 20
399.902954
 10
274.517029
 20
400.4953
 10
275.349152
 20
401.021637
  0
LINE
  5
1BB
330
158
100
AcDbEntity
  8
0
  6
Continuous
 62
     0
370
    30
100
AcDbLine
 10
280.742771
 20
286.263877
 30
0.0
 11
280.794079
 21
286.365721
 31
0.0
  0
ARC
  5
1BC
330
158
100
AcDbEntity
  8
0
  6
Continuous
 62
     0
370
    30
100
AcDbCircle
 10
272.67216
 20
289.629904
 30
0.0
 40
8.744421247958284
100
AcDbArc
 50
337.360341
 51
9.601177
  0
LINE
  5
1BD
330
158
100
AcDbEntity
  8
0
  6
Continuous
 62
     0
370
    30
100
AcDbLine
 10
281.294811
 20
291.076888
 30
0.0
 11
280.242913
 21
303.147813
 31
0.0
  0
LINE
  5
1BE
330
158
100
AcDbEntity
  8
0
  6
Continuous
 62
     0
370
    30
100
AcDbLine
 10
297.270485
 20
413.677599
 30
0.0
 11
297.914557
 21
414.024244
 31
0.0
  0
ARC
  5
1BF
330
158
100
AcDbEntity
  8
0
  6
Continuous
 62
     0
370
    30
100
AcDbCircle
 10
304.399826
 20
400.271822
 30
0.0
 40
15.18362181668645
100
AcDbArc
 50
74.741023
 51
118.004537
  0
ARC
  5
1C0
330
158
100
AcDbEntity
  8
0
  6
Continuous
 62
     0
370
    30
100
AcDbCircle
 10
288.620925
 20
376.388165
 30
0.0
 40
6.995734470127326
100
AcDbArc
 50
72.927915
 51
117.579504
  0
LWPOLYLINE
  5
1C1
330
158
100
AcDbEntity
  8
0
  6
Continuous
 62
     0
370
    30
100
AcDbPolyline
 90
       58
 70
     0
 43
0.0
 10
315.703827
 20
308.426239
 10
315.330566
 20
309.781464
 10
315.001862
 20
311.142944
 10
314.727448
 20
312.503143
 10
314.520752
 20
313.865021
 10
314.36499
 20
315.230438
 10
314.208191
 20
316.595917
 10
314.04126
 20
317.960785
 10
313.873199
 20
319.325775
 10
313.707367
 20
320.691132
 10
313.541595
 20
322.056671
 10
313.374268
 20
323.422272
 10
313.205475
 20
324.787964
 10
313.035553
 20
326.153748
 10
312.864746
 20
327.519653
 10
312.693176
 20
328.885681
 10
312.520782
 20
330.251862
 10
312.347565
 20
331.618164
 10
312.173431
 20
332.984619
 10
311.998413
 20
334.351166
 10
311.822418
 20
335.717865
 10
311.645447
 20
337.084656
 10
311.467438
 20
338.451599
 10
311.288422
 20
339.818665
 10
311.108368
 20
341.185822
 10
310.927307
 20
342.553131
 10
310.745239
 20
343.920563
 10
310.562195
 20
345.288116
 10
310.378113
 20
346.655823
 10
310.192993
 20
348.023621
 10
310.006836
 20
349.391571
 10
309.81958
 20
350.759644
 10
309.631287
 20
352.127838
 10
309.441864
 20
353.496155
 10
309.251312
 20
354.864624
 10
309.059662
 20
356.233215
 10
308.866852
 20
357.601929
 10
308.672882
 20
358.970764
 10
308.477753
 20
360.339722
 10
308.281464
 20
361.708832
 10
308.084015
 20
363.078064
 10
307.885406
 20
364.447449
 10
307.685608
 20
365.816956
 10
307.48465
 20
367.186584
 10
307.282501
 20
368.556366
 10
307.079163
 20
369.9263
 10
306.874634
 20
371.296356
 10
306.668915
 20
372.666565
 10
306.462006
 20
374.036926
 10
306.253906
 20
375.40741
 10
306.044586
 20
376.778046
 10
305.834045
 20
378.148834
 10
305.622284
 20
379.519775
 10
305.409332
 20
380.890839
 10
305.195129
 20
382.262085
 10
304.979706
 20
383.633453
 10
304.763062
 20
385.005005
 10
304.541626
 20
386.399078
  0
LWPOLYLINE
  5
1C2
330
158
100
AcDbEntity
  8
0
  6
Continuous
 62
     0
370
    30
100
AcDbPolyline
 90
       28
 70
     0
 43
0.0
 10
315.702911
 20
308.429321
 10
315.96109
 20
307.596466
 10
316.230408
 20
306.764771
 10
316.510986
 20
305.934418
 10
316.802887
 20
305.105652
 10
317.106201
 20
304.278656
 10
317.42099
 20
303.453674
 10
317.747406
 20
302.63089
 10
318.085449
 20
301.810516
 10
318.435272
 20
300.992767
 10
318.796906
 20
300.177887
 10
319.170471
 20
299.365997
 10
319.556152
 20
298.557281
 10
319.954071
 20
297.751801
 10
320.364349
 20
296.949707
 10
320.786621
 20
296.151825
 10
321.220551
 20
295.359009
 10
321.667267
 20
294.570251
 10
322.128326
 20
293.78418
 10
322.605469
 20
292.999481
 10
323.102753
 20
292.216858
 10
323.625458
 20
291.437897
 10
324.178711
 20
290.664307
 10
324.764893
 20
289.901184
 10
325.382812
 20
289.157532
 10
326.030579
 20
288.44281
 10
326.703827
 20
287.766968
 10
327.420776
 20
287.145142
  0
LINE
  5
1C3
330
158
100
AcDbEntity
  8
0
  6
Continuous
 62
     0
370
    30
100
AcDbLine
 10
509.48879
 20
148.776786
 30
0.0
 11
509.48879
 21
105.502467
 31
0.0
  0
ELLIPSE
  5
1C4
330
158
100
AcDbEntity
  8
0
  6
Continuous
 62
     0
370
    30
100
AcDbEllipse
 10
510.195897
 20
105.910716
 30
0.0
 11
-0.4999999999999982
 21
-0.8660254037844354
 31
0.0
210
0.0
220
0.0
230
-1.0
 40
0.57735
 41
5.497787143782152
 42
7.068583470577063
  0
LINE
  5
1C5
330
158
100
AcDbEntity
  8
0
  6
Continuous
 62
     0
370
    30
100
AcDbLine
 10
510.195897
 20
105.094219
 30
0.0
 11
547.672557
 21
126.731378
 31
0.0
  0
ELLIPSE
  5
1C6
330
158
100
AcDbEntity
  8
0
  6
Continuous
 62
     0
370
    30
100
AcDbEllipse
 10
547.672557
 20
127.547875
 30
0.0
 11
-0.5000000000000001
 21
-0.8660254037844387
 31
0.0
210
0.0
220
0.0
230
-1.0
 40
0.57735
 41
3.926990816987256
 42
5.497787143782124
  0
LINE
  5
1C7
330
158
100
AcDbEntity
  8
0
  6
Continuous
 62
     0
370
    30
100
AcDbLine
 10
548.379663
 20
127.956123
 30
0.0
 11
548.379663
 21
171.230442
 31
0.0
  0
ELLIPSE
  5
1C8
330
158
100
AcDbEntity
  8
0
  6
Continuous
 62
     0
370
    30
100
AcDbEllipse
 10
547.672557
 20
170.822194
 30
0.0
 11
-0.4999999999999982
 21
-0.8660254037844354
 31
0.0
210
0.0
220
0.0
230
-1.0
 40
0.57735
 41
2.356194490192331
 42
3.926990816987234
  0
LINE
  5
1C9
330
158
100
AcDbEntity
  8
0
  6
Continuous
 62
     0
370
    30
100
AcDbLine
 10
547.672557
 20
171.63869
 30
0.0
 11
510.195897
 21
150.001531
 31
0.0
  0
ELLIPSE
  5
1CA
330
158
100
AcDbEntity
  8
0
  6
Continuous
 62
     0
370
    30
100
AcDbEllipse
 10
510.195897
 20
149.185034
 30
0.0
 11
-0.4999999999999982
 21
-0.8660254037844354
 31
0.0
210
0.0
220
0.0
230
-1.0
 40
0.57735
 41
0.7853981633974341
 42
2.356194490192345
  0
LINE
  5
1CB
330
158
100
AcDbEntity
  8
0
  6
Continuous
 62
     0
370
     0
100
AcDbLine
 10
385.037997
 20
265.535797
 30
0.0
 11
547.672557
 21
171.63869
 31
0.0
  0
ELLIPSE
  5
1CC
330
158
100
AcDbEntity
  8
0
  6
Continuous
 62
     0
370
    30
100
AcDbEllipse
 10
385.037997
 20
264.7193
 30
0.0
 11
-0.4999999999999982
 21
-0.8660254037844354
 31
0.0
210
0.0
220
0.0
230
-1.0
 40
0.57735
 41
2.356194490192346
 42
3.141592676439943
  0
ELLIPSE
  5
1CD
330
158
100
AcDbEntity
  8
0
  6
Continuous
 62
     0
370
    30
100
AcDbEllipse
 10
347.561337
 20
243.082141
 30
0.0
 11
-0.4999999999999982
 21
-0.8660254037844354
 31
0.0
210
0.0
220
0.0
230
-1.0
 40
0.57735
 41
0.7853981633974484
 42
2.356194490192345
  0
LINE
  5
1CE
330
158
100
AcDbEntity
  8
0
  6
Continuous
 62
     0
370
    30
100
AcDbLine
 10
385.037997
 20
265.535797
 30
0.0
 11
347.561337
 21
243.898638
 31
0.0
  0
ELLIPSE
  5
1CF
330
158
100
AcDbEntity
  8
0
  6
Continuous
 62
     0
370
    30
100
AcDbEllipse
 10
347.561337
 20
199.807822
 30
0.0
 11
-0.4999999999999982
 21
-0.8660254037844354
 31
0.0
210
0.0
220
0.0
230
-1.0
 40
0.57735
 41
0.0000000228501632
 42
0.7853981633974488
  0
LINE
  5
1D0
330
158
100
AcDbEntity
  8
0
  6
Continuous
 62
     0
370
    30
100
AcDbLine
 10
346.854231
 20
242.673893
 30
0.0
 11
346.854231
 21
199.399574
 31
0.0
  0
LINE
  5
1D1
330
158
100
AcDbEntity
  8
0
  6
Continuous
 62
     0
370
     0
100
AcDbLine
 10
346.854231
 20
199.399574
 30
0.0
 11
509.48879
 21
105.502467
 31
0.0
  0
LINE
  5
1D2
330
158
100
AcDbEntity
  8
0
  6
Continuous
 62
     0
370
     0
100
AcDbLine
 10
346.854231
 20
242.673893
 30
0.0
 11
509.48879
 21
148.776786
 31
0.0
  0
LINE
  5
1D3
330
158
100
AcDbEntity
  8
0
  6
Continuous
 62
     0
370
     0
100
AcDbLine
 10
347.561337
 20
243.898638
 30
0.0
 11
510.195897
 21
150.001531
 31
0.0
  0
LINE
  5
1D4
330
158
100
AcDbEntity
  8
0
  6
Continuous
 62
     0
370
    30
100
AcDbLine
 10
509.695897
 20
105.04469
 30
0.0
 11
347.061337
 21
198.941797
 31
0.0
  0
LINE
  5
1D5
330
158
100
AcDbEntity
  8
0
  6
Continuous
 62
     0
370
    30
100
AcDbLine
 10
548.172557
 20
171.688219
 30
0.0
 11
385.537997
 21
265.585326
 31
0.0
  0
ENDBLK
  5
1D7
330
158
100
AcDbEntity
  8
0
100
AcDbBlockEnd
  0
BLOCK
  5
220
330
1D9
100
AcDbEntity
  8
0
100
AcDbBlockBegin
  2
e
 70
     0
 10
-11.642517
 20
0.0
 30
0.0
  3
e
  1

  0
LINE
  5
1DA
330
1D9
100
AcDbEntity
  8
0
  6
Continuous
 62
     0
370
    30
100
AcDbLine
 10
-75.929482
 20
655.298086
 30
0.0
 11
-75.929482
 21
656.910044
 31
0.0
  0
LWPOLYLINE
  5
1DB
330
1D9
100
AcDbEntity
  8
0
  6
Continuous
 62
     0
370
    30
100
AcDbPolyline
 90
       24
 70
     0
 43
0.0
 10
-75.929482
 20
641.84082
 10
-75.929482
 20
641.873657
 10
-75.929482
 20
641.980469
 10
-75.929482
 20
642.160339
 10
-75.929482
 20
642.411987
 10
-75.929482
 20
642.733215
 10
-75.929482
 20
643.121338
 10
-75.929482
 20
643.573425
 10
-75.929482
 20
644.085327
 10
-75.929482
 20
644.653076
 10
-75.929482
 20
645.271973
 10
-75.929482
 20
645.936829
 10
-75.929482
 20
646.642212
 10
-75.929482
 20
647.382263
 10
-75.929482
 20
648.150818
 10
-75.929482
 20
648.94165
 10
-75.929482
 20
649.748169
 10
-75.929482
 20
650.563721
 10
-75.929482
 20
651.381531
 10
-75.929482
 20
652.194885
 10
-75.929482
 20
652.99707
 10
-75.929482
 20
653.781372
 10
-75.929482
 20
654.541443
 10
-75.929482
 20
655.298096
  0
LWPOLYLINE
  5
1DC
330
1D9
100
AcDbEntity
  8
0
  6
Continuous
 62
     0
370
    30
100
AcDbPolyline
 90
       24
 70
     0
 43
0.0
 10
-53.751446
 20
739.459229
 10
-54.579556
 20
736.174072
 10
-55.429619
 20
732.894409
 10
-56.303047
 20
729.621094
 10
-57.201328
 20
726.355164
 10
-58.126003
 20
723.097778
 10
-59.079021
 20
719.849854
 10
-60.062542
 20
716.612793
 10
-61.078861
 20
713.388123
 10
-62.130768
 20
710.177795
 10
-63.22094
 20
706.984131
 10
-64.332825
 20
703.801208
 10
-65.41404
 20
700.606812
 10
-66.461609
 20
697.400208
 10
-67.475403
 20
694.181763
 10
-68.45536
 20
690.951782
 10
-69.401398
 20
687.710815
 10
-70.313469
 20
684.459229
 10
-71.191528
 20
681.197388
 10
-72.035561
 20
677.925781
 10
-72.845421
 20
674.644775
 10
-73.628258
 20
671.354065
 10
-74.378464
 20
668.050842
 10
-75.063248
 20
664.707092
  0
LWPOLYLINE
  5
1DD
330
1D9
100
AcDbEntity
  8
0
  6
Continuous
 62
     0
370
    30
100
AcDbPolyline
 90
       14
 70
     0
 43
0.0
 10
-75.063248
 20
664.707092
 10
-75.179565
 20
664.086548
 10
-75.291649
 20
663.46637
 10
-75.39904
 20
662.846924
 10
-75.501152
 20
662.228516
 10
-75.597023
 20
661.611633
 10
-75.685936
 20
660.996948
 10
-75.766685
 20
660.385376
 10
-75.837685
 20
659.778259
 10
-75.896797
 20
659.177734
 10
-75.941162
 20
658.587036
 10
-75.966553
 20
658.011475
 10
-75.967133
 20
657.460022
 10
-75.929482
 20
656.910034
  0
LINE
  5
1DE
330
1D9
100
AcDbEntity
  8
0
  6
Continuous
 62
     0
370
    30
100
AcDbLine
 10
-53.751445
 20
739.459231
 30
0.0
 11
-73.4476
 21
742.932143
 31
0.0
  0
LWPOLYLINE
  5
1DF
330
1D9
100
AcDbEntity
  8
0
  6
Continuous
 62
     0
370
    30
100
AcDbPolyline
 90
       21
 70
     0
 43
0.0
 10
-73.447601
 20
742.932129
 10
-73.922386
 20
739.097534
 10
-74.409637
 20
735.264648
 10
-74.908791
 20
731.433777
 10
-75.419304
 20
727.605286
 10
-75.940643
 20
723.779541
 10
-76.472328
 20
719.956726
 10
-77.013954
 20
716.136841
 10
-77.565102
 20
712.319946
 10
-78.125404
 20
708.506104
 10
-78.694504
 20
704.695435
 10
-79.272011
 20
700.887939
 10
-79.856796
 20
697.083313
 10
-80.444305
 20
693.278992
 10
-81.03376
 20
689.474426
 10
-81.625809
 20
685.669556
 10
-82.221283
 20
681.86438
 10
-82.821396
 20
678.058838
 10
-83.428497
 20
674.252747
 10
-84.048653
 20
670.446106
 10
-84.751602
 20
666.510376
  0
LINE
  5
1E0
330
1D9
100
AcDbEntity
  8
0
  6
Continuous
 62
     0
370
     0
100
AcDbLine
 10
-84.751601
 20
666.510373
 30
0.0
 11
-75.063248
 21
664.707097
 31
0.0
  0
LINE
  5
1E1
330
1D9
100
AcDbEntity
  8
0
  6
Continuous
 62
     0
370
    30
100
AcDbLine
 10
-84.751601
 20
666.510373
 30
0.0
 11
-86.068101
 21
659.923609
 31
0.0
  0
LINE
  5
1E2
330
1D9
100
AcDbEntity
  8
0
  6
Continuous
 62
     0
370
    30
100
AcDbLine
 10
-86.068101
 20
659.923609
 30
0.0
 11
-75.929482
 21
656.910043
 31
0.0
  0
ARC
  5
1E3
330
1D9
100
AcDbEntity
  8
0
  6
Continuous
 62
     0
370
    30
100
AcDbCircle
 10
-95.674087
 20
809.08835
 30
0.0
 40
155.0525519294944
100
AcDbArc
 50
271.12513
 51
277.315975
  0
LINE
  5
1E4
330
1D9
100
AcDbEntity
  8
0
  6
Continuous
 62
     0
370
    30
100
AcDbLine
 10
-92.629481
 20
654.065693
 30
0.0
 11
-92.629481
 21
644.329151
 31
0.0
  0
LINE
  5
1E5
330
1D9
100
AcDbEntity
  8
0
  6
Continuous
 62
     0
370
    30
100
AcDbLine
 10
-92.629481
 20
657.110225
 30
0.0
 11
-92.629481
 21
657.341075
 31
0.0
  0
ARC
  5
1E6
330
1D9
100
AcDbEntity
  8
0
  6
Continuous
 62
     0
370
    30
100
AcDbCircle
 10
-92.532642
 20
662.023334
 30
0.0
 40
6.796960160691444
100
AcDbArc
 50
269.183652
 51
342.005858
  0
LINE
  5
1E7
330
1D9
100
AcDbEntity
  8
0
  6
Continuous
 62
     0
370
    30
100
AcDbLine
 10
-92.629481
 20
654.065693
 30
0.0
 11
-92.629481
 21
655.227062
 31
0.0
  0
LINE
  5
1E8
330
1D9
100
AcDbEntity
  8
0
  6
Continuous
 62
     0
370
    30
100
AcDbLine
 10
-92.629487
 20
655.224113
 30
0.0
 11
-92.629486
 21
657.110225
 31
0.0
  0
LWPOLYLINE
  5
1E9
330
1D9
100
AcDbEntity
  8
0
  6
Continuous
 62
     0
370
    30
100
AcDbPolyline
 90
       26
 70
     0
 43
0.0
 10
-132.629486
 20
670.34082
 10
-132.629486
 20
670.308777
 10
-132.629486
 20
670.2099
 10
-132.629486
 20
670.040344
 10
-132.629486
 20
669.796753
 10
-132.629486
 20
669.476501
 10
-132.629486
 20
669.077759
 10
-132.629486
 20
668.599365
 10
-132.629486
 20
668.041504
 10
-132.629486
 20
667.405029
 10
-132.629486
 20
666.692139
 10
-132.629486
 20
665.906006
 10
-132.629486
 20
665.050781
 10
-132.629486
 20
664.131714
 10
-132.629486
 20
663.154846
 10
-132.629486
 20
662.127075
 10
-132.629486
 20
661.055603
 10
-132.629486
 20
659.948425
 10
-132.629486
 20
658.813416
 10
-132.629486
 20
657.658691
 10
-132.629486
 20
656.49231
 10
-132.629486
 20
655.321777
 10
-132.629486
 20
654.15448
 10
-132.629486
 20
652.997131
 10
-132.629486
 20
651.855835
 10
-132.629486
 20
650.734253
  0
LINE
  5
1EA
330
1D9
100
AcDbEntity
  8
0
  6
Continuous
 62
     0
370
    30
100
AcDbLine
 10
-132.629484
 20
650.734264
 30
0.0
 11
-132.629483
 21
631.340604
 31
0.0
  0
LWPOLYLINE
  5
1EB
330
1D9
100
AcDbEntity
  8
0
  6
Continuous
 62
     0
370
    30
100
AcDbPolyline
 90
       31
 70
     0
 43
0.0
 10
-132.629486
 20
670.34082
 10
-131.283813
 20
669.943665
 10
-129.939697
 20
669.54126
 10
-128.597153
 20
669.133545
 10
-127.256195
 20
668.72052
 10
-125.916855
 20
668.302307
 10
-124.579147
 20
667.878845
 10
-123.243103
 20
667.450134
 10
-121.908737
 20
667.016235
 10
-120.57608
 20
666.577209
 10
-119.245148
 20
666.132996
 10
-117.915962
 20
665.683594
 10
-116.58857
 20
665.228943
 10
-115.263
 20
664.769043
 10
-113.939285
 20
664.303711
 10
-112.617462
 20
663.832947
 10
-111.297546
 20
663.35675
 10
-109.979469
 20
662.875549
 10
-108.663147
 20
662.389771
 10
-107.348488
 20
661.900024
 10
-106.035568
 20
661.406006
 10
-104.724808
 20
660.905884
 10
-103.416679
 20
660.397766
 10
-102.111435
 20
659.880188
 10
-100.805313
 20
659.364563
 10
-99.491051
 20
658.873474
 10
-98.161278
 20
658.42981
 10
-96.810066
 20
658.053589
 10
-95.439827
 20
657.748535
 10
-94.055916
 20
657.512695
 10
-92.629486
 20
657.340698
  0
LWPOLYLINE
  5
1EC
330
1D9
100
AcDbEntity
  8
0
  6
Continuous
 62
     0
370
    30
100
AcDbPolyline
 90
       31
 70
     0
 43
0.0
 10
-132.629486
 20
631.340576
 10
-131.283813
 20
631.737732
 10
-129.939697
 20
632.140137
 10
-128.597153
 20
632.547852
 10
-127.256195
 20
632.960876
 10
-125.916855
 20
633.379089
 10
-124.579147
 20
633.802612
 10
-123.243103
 20
634.231262
 10
-121.908737
 20
634.665161
 10
-120.57608
 20
635.104187
 10
-119.245148
 20
635.548401
 10
-117.915962
 20
635.997803
 10
-116.58857
 20
636.452454
 10
-115.263
 20
636.912354
 10
-113.939285
 20
637.377686
 10
-112.617462
 20
637.84845
 10
-111.297546
 20
638.324646
 10
-109.979469
 20
638.805847
 10
-108.663147
 20
639.291626
 10
-107.348488
 20
639.781372
 10
-106.035568
 20
640.275391
 10
-104.724808
 20
640.775513
 10
-103.416679
 20
641.283691
 10
-102.111435
 20
641.801208
 10
-100.805313
 20
642.316833
 10
-99.491051
 20
642.807922
 10
-98.161278
 20
643.251587
 10
-96.810066
 20
643.627808
 10
-95.439827
 20
643.932861
 10
-94.055916
 20
644.168701
 10
-92.629486
 20
644.340698
  0
LWPOLYLINE
  5
1ED
330
1D9
100
AcDbEntity
  8
0
  6
Continuous
 62
     0
370
    30
100
AcDbPolyline
 90
       37
 70
     0
 43
0.0
 10
-84.925102
 20
665.644043
 10
-84.952332
 20
665.508667
 10
-84.992928
 20
665.309937
 10
-85.050194
 20
665.034363
 10
-85.119995
 20
664.704773
 10
-85.195915
 20
664.3526
 10
-85.27475
 20
663.993408
 10
-85.355324
 20
663.631409
 10
-85.436813
 20
663.268005
 10
-85.518517
 20
662.904358
 10
-85.600739
 20
662.540955
 10
-85.684456
 20
662.177795
 10
-85.770653
 20
661.814941
 10
-85.860367
 20
661.452576
 10
-85.9589
 20
661.092468
 10
-86.078758
 20
660.739563
 10
-86.22921
 20
660.398315
 10
-86.409355
 20
660.071167
 10
-86.616676
 20
659.760071
 10
-86.848671
 20
659.467285
 10
-87.102859
 20
659.194214
 10
-87.376938
 20
658.941345
 10
-87.668625
 20
658.708618
 10
-87.975616
 20
658.496216
 10
-88.295624
 20
658.304138
 10
-88.626381
 20
658.132568
 10
-88.966057
 20
657.981079
 10
-89.313553
 20
657.848694
 10
-89.667831
 20
657.734314
 10
-90.027855
 20
657.636963
 10
-90.392578
 20
657.555481
 10
-90.760963
 20
657.488831
 10
-91.131966
 20
657.435974
 10
-91.504547
 20
657.395874
 10
-91.87767
 20
657.367371
 10
-92.250282
 20
657.349487
 10
-92.629478
 20
657.341064
  0
ARC
  5
1EE
330
1D9
100
AcDbEntity
  8
0
  6
Continuous
 62
     0
370
    30
100
AcDbCircle
 10
-95.992917
 20
564.468888
 30
0.0
 40
79.9308364803079
100
AcDbArc
 50
75.462716
 51
87.58832
  0
LINE
  5
1EF
330
1D9
100
AcDbEntity
  8
0
  6
Continuous
 62
     0
370
    30
100
AcDbLine
 10
-142.711157
 20
666.069357
 30
0.0
 11
-142.711156
 21
672.377272
 31
0.0
  0
ARC
  5
1F0
330
1D9
100
AcDbEntity
  8
0
  6
Continuous
 62
     0
370
    30
100
AcDbCircle
 10
-163.882257
 20
594.173568
 30
0.0
 40
74.94796091468973
100
AcDbArc
 50
67.101043
 51
73.591948
  0
LINE
  5
1F1
330
1D9
100
AcDbEntity
  8
0
  6
Continuous
 62
     0
370
    30
100
AcDbLine
 10
-134.719468
 20
668.340697
 30
0.0
 11
-134.719469
 21
663.215067
 31
0.0
  0
LINE
  5
1F2
330
1D9
100
AcDbEntity
  8
0
  6
Continuous
 62
     0
370
    30
100
AcDbLine
 10
-134.719468
 20
638.46633
 30
0.0
 11
-134.719468
 21
663.215067
 31
0.0
  0
LINE
  5
1F3
330
1D9
100
AcDbEntity
  8
0
  6
Continuous
 62
     0
370
    30
100
AcDbLine
 10
-134.719467
 20
633.340698
 30
0.0
 11
-134.719468
 21
638.46633
 31
0.0
  0
LINE
  5
1F4
330
1D9
100
AcDbEntity
  8
0
  6
Continuous
 62
     0
370
     0
100
AcDbLine
 10
-165.994321
 20
692.347466
 30
0.0
 11
-166.974155
 21
692.569153
 31
0.0
  0
LWPOLYLINE
  5
1F5
330
1D9
100
AcDbEntity
  8
0
  6
Continuous
 62
     0
370
    30
100
AcDbPolyline
 90
       30
 70
     0
 43
0.0
 10
-166.974152
 20
692.569153
 10
-167.243362
 20
691.702393
 10
-167.521362
 20
690.838379
 10
-167.807831
 20
689.977905
 10
-168.102905
 20
689.121216
 10
-168.406723
 20
688.26825
 10
-168.719299
 20
687.41925
 10
-169.040695
 20
686.574463
 10
-169.370987
 20
685.734009
 10
-169.71022
 20
684.898132
 10
-170.058472
 20
684.066956
 10
-170.415771
 20
683.240723
 10
-170.782181
 20
682.419678
 10
-171.157715
 20
681.603882
 10
-171.542435
 20
680.793762
 10
-171.936356
 20
679.98938
 10
-172.339554
 20
679.190979
 10
-172.752045
 20
678.398743
 10
-173.173737
 20
677.612976
 10
-173.604919
 20
676.833862
 10
-174.040665
 20
676.075073
 10
-174.496277
 20
675.352905
 10
-174.986053
 20
674.659912
 10
-175.512344
 20
674.002808
 10
-176.078003
 20
673.387512
 10
-176.684219
 20
672.821045
 10
-177.331329
 20
672.31073
 10
-178.019943
 20
671.861267
 10
-178.745682
 20
671.478149
 10
-179.516022
 20
671.160461
  0
ELLIPSE
  5
1F6
330
1D9
100
AcDbEntity
  8
0
  6
Continuous
 62
     0
370
     0
100
AcDbEllipse
 10
-179.178232
 20
670.219218
 30
0.0
 11
-0.3377962702069676
 21
0.9412192517337613
 31
0.0
210
0.0
220
0.0
230
-1.0
 40
0.151599
 41
-0.0000000715117547
 42
1.120577276733763
  0
LWPOLYLINE
  5
1F7
330
1D9
100
AcDbEntity
  8
0
  6
Continuous
 62
     0
370
     0
100
AcDbPolyline
 90
       50
 70
     0
 43
0.0
 10
-165.994492
 20
692.346924
 10
-166.157166
 20
691.832092
 10
-166.322845
 20
691.31842
 10
-166.491547
 20
690.805969
 10
-166.663269
 20
690.294739
 10
-166.837997
 20
689.78479
 10
-167.015762
 20
689.276123
 10
-167.196518
 20
688.768738
 10
-167.38031
 20
688.262756
 10
-167.567108
 20
687.758118
 10
-167.756943
 20
687.254944
 10
-167.949829
 20
686.753235
 10
-168.145767
 20
686.252991
 10
-168.344803
 20
685.754272
 10
-168.546951
 20
685.257202
 10
-168.752228
 20
684.761658
 10
-168.960632
 20
684.267883
 10
-169.172165
 20
683.775696
 10
-169.386856
 20
683.285339
 10
-169.604706
 20
682.796692
 10
-169.825714
 20
682.309875
 10
-170.049896
 20
681.824951
 10
-170.277267
 20
681.34198
 10
-170.507828
 20
680.86084
 10
-170.741592
 20
680.381775
 10
-170.978561
 20
679.904785
 10
-171.218796
 20
679.429749
 10
-171.46228
 20
678.956787
 10
-171.70874
 20
678.486816
 10
-171.958572
 20
678.017822
 10
-172.212524
 20
677.552551
 10
-172.46846
 20
677.088196
 10
-172.729172
 20
676.629639
 10
-172.992432
 20
676.166626
 10
-173.263306
 20
675.706421
 10
-173.546829
 20
675.253601
 10
-173.843948
 20
674.809143
 10
-174.155472
 20
674.374084
 10
-174.482315
 20
673.950012
 10
-174.825348
 20
673.53833
 10
-175.185287
 20
673.140747
 10
-175.562622
 20
672.759094
 10
-175.957718
 20
672.395325
 10
-176.370728
 20
672.051636
 10
-176.801544
 20
671.730408
 10
-177.249481
 20
671.434082
 10
-177.713348
 20
671.165649
 10
-178.191772
 20
670.931152
 10
-178.683151
 20
670.751404
 10
-179.196762
 20
670.674927
  0
LWPOLYLINE
  5
1F8
330
1D9
100
AcDbEntity
  8
0
  6
Continuous
 62
     0
370
     0
100
AcDbPolyline
 90
      112
 70
     0
 43
0.0
 10
-165.99057
 20
692.346924
 10
-165.702408
 20
693.322144
 10
-165.425232
 20
694.30127
 10
-165.15918
 20
695.284058
 10
-164.904236
 20
696.270264
 10
-164.662949
 20
697.26001
 10
-164.495804
 20
698.261841
 10
-164.32962
 20
699.280457
 10
-164.163025
 20
700.298828
 10
-163.996048
 20
701.317139
 10
-163.828659
 20
702.335266
 10
-163.660873
 20
703.353333
 10
-163.492691
 20
704.371399
 10
-163.324097
 20
705.389343
 10
-163.155106
 20
706.407227
 10
-162.985703
 20
707.425049
 10
-162.815887
 20
708.442871
 10
-162.64566
 20
709.460571
 10
-162.475021
 20
710.47821
 10
-162.30397
 20
711.495728
 10
-162.132492
 20
712.513245
 10
-161.960587
 20
713.530701
 10
-161.788254
 20
714.548035
 10
-161.615509
 20
715.565369
 10
-161.442322
 20
716.582581
 10
-161.268707
 20
717.599731
 10
-161.09465
 20
718.616821
 10
-160.920166
 20
719.63385
 10
-160.745239
 20
720.650757
 10
-160.56987
 20
721.667603
 10
-160.394058
 20
722.684387
 10
-160.217789
 20
723.701111
 10
-160.041077
 20
724.717773
 10
-159.863907
 20
725.734314
 10
-159.686295
 20
726.750793
 10
-159.508209
 20
727.767212
 10
-159.329666
 20
728.783569
 10
-159.150665
 20
729.799805
 10
-158.971207
 20
730.815979
 10
-158.79126
 20
731.832092
 10
-158.610855
 20
732.848083
 10
-158.429962
 20
733.864014
 10
-158.248611
 20
734.879883
 10
-158.066757
 20
735.89563
 10
-157.88443
 20
736.911316
 10
-157.701614
 20
737.92688
 10
-157.518311
 20
738.942383
 10
-157.334518
 20
739.957825
 10
-157.150238
 20
740.973145
 10
-156.965439
 20
741.988403
 10
-156.780151
 20
743.00354
 10
-156.59436
 20
744.018616
 10
-156.408066
 20
745.03363
 10
-156.221252
 20
746.048523
 10
-156.03392
 20
747.063293
 10
-155.846085
 20
748.078003
 10
-155.657715
 20
749.09259
 10
-155.468826
 20
750.107117
 10
-155.279419
 20
751.121521
 10
-155.089478
 20
752.135864
 10
-154.899002
 20
753.150085
 10
-154.707977
 20
754.164185
 10
-154.516434
 20
755.178223
 10
-154.324341
 20
756.192139
 10
-154.131683
 20
757.205933
 10
-153.938492
 20
758.219727
 10
-153.744736
 20
759.233398
 10
-153.550415
 20
760.246887
 10
-153.355576
 20
761.260132
 10
-153.160156
 20
762.273315
 10
-152.964096
 20
763.286926
 10
-152.767685
 20
764.298828
 10
-152.569931
 20
765.315918
 10
-152.372589
 20
766.325928
 10
-152.174377
 20
767.338196
 10
-151.975449
 20
768.351135
 10
-151.776047
 20
769.363403
 10
-151.576035
 20
770.375732
 10
-151.375412
 20
771.388
 10
-151.174194
 20
772.400269
 10
-150.972397
 20
773.412354
 10
-150.770004
 20
774.424255
 10
-150.567032
 20
775.436096
 10
-150.363449
 20
776.447754
 10
-150.159241
 20
777.459351
 10
-149.954468
 20
778.470764
 10
-149.749023
 20
779.482117
 10
-149.5439
 20
780.493469
 10
-149.402817
 20
781.516846
 10
-149.346771
 20
782.545532
 10
-149.37207
 20
783.576721
 10
-149.476105
 20
784.603027
 10
-149.655533
 20
785.618896
 10
-149.906769
 20
786.619385
 10
-150.226028
 20
787.600342
 10
-150.609482
 20
788.557983
 10
-151.053329
 20
789.489258
 10
-151.553955
 20
790.391296
 10
-152.107773
 20
791.261658
 10
-152.711395
 20
792.098267
 10
-153.361618
 20
792.899231
 10
-154.055328
 20
793.662842
 10
-154.789673
 20
794.387451
 10
-155.561935
 20
795.071472
 10
-156.369431
 20
795.713623
 10
-157.209473
 20
796.312561
 10
-158.079636
 20
796.866821
 10
-158.97757
 20
797.374817
 10
-159.90094
 20
797.8349
 10
-160.847305
 20
798.245605
 10
-161.814102
 20
798.605591
 10
-162.807693
 20
798.91626
  0
LWPOLYLINE
  5
1F9
330
1D9
100
AcDbEntity
  8
0
  6
Continuous
 62
     0
370
    30
100
AcDbPolyline
 90
        7
 70
     0
 43
0.0
 10
-163.150681
 20
797.973938
 10
-163.139328
 20
798.005127
 10
-163.105942
 20
798.096802
 10
-163.052979
 20
798.242371
 10
-162.983826
 20
798.432373
 10
-162.903061
 20
798.654236
 10
-162.807693
 20
798.91626
  0
LWPOLYLINE
  5
1FA
330
1D9
100
AcDbEntity
  8
0
  6
Continuous
 62
     0
370
    30
100
AcDbPolyline
 90
      259
 70
     0
 43
0.0
 10
-166.974152
 20
692.569153
 10
-166.847595
 20
692.988403
 10
-166.723206
 20
693.408508
 10
-166.601059
 20
693.829407
 10
-166.481186
 20
694.251038
 10
-166.363571
 20
694.673401
 10
-166.24823
 20
695.096436
 10
-166.135117
 20
695.520386
 10
-166.024353
 20
695.94458
 10
-165.915588
 20
696.370972
 10
-165.810593
 20
696.790955
 10
-165.700745
 20
697.241821
 10
-165.633224
 20
697.572632
 10
-165.560181
 20
698.020874
 10
-165.488312
 20
698.46167
 10
-165.416763
 20
698.89917
 10
-165.344955
 20
699.338257
 10
-165.273117
 20
699.776978
 10
-165.201263
 20
700.215332
 10
-165.129333
 20
700.653625
 10
-165.057312
 20
701.092041
 10
-164.985214
 20
701.530579
 10
-164.913025
 20
701.969116
 10
-164.840775
 20
702.407654
 10
-164.768448
 20
702.84613
 10
-164.69606
 20
703.284546
 10
-164.623581
 20
703.723022
 10
-164.551041
 20
704.161438
 10
-164.478424
 20
704.599854
 10
-164.405731
 20
705.038269
 10
-164.332962
 20
705.476685
 10
-164.260132
 20
705.915039
 10
-164.18721
 20
706.353455
 10
-164.114212
 20
706.791809
 10
-164.041153
 20
707.230164
 10
-163.968018
 20
707.668518
 10
-163.894791
 20
708.106812
 10
-163.821503
 20
708.545166
 10
-163.748138
 20
708.983459
 10
-163.674683
 20
709.421753
 10
-163.601166
 20
709.860046
 10
-163.527573
 20
710.298279
 10
-163.453888
 20
710.736572
 10
-163.380142
 20
711.174805
 10
-163.30632
 20
711.613037
 10
-163.232407
 20
712.05127
 10
-163.158432
 20
712.489441
 10
-163.084366
 20
712.927673
 10
-163.010239
 20
713.365845
 10
-162.93602
 20
713.804016
 10
-162.861725
 20
714.242188
 10
-162.787354
 20
714.680298
 10
-162.712906
 20
715.118469
 10
-162.638367
 20
715.55658
 10
-162.563766
 20
715.99469
 10
-162.489075
 20
716.4328
 10
-162.414307
 20
716.87085
 10
-162.339462
 20
717.30896
 10
-162.264542
 20
717.747009
 10
-162.189529
 20
718.185059
 10
-162.114456
 20
718.623047
 10
-162.039291
 20
719.061096
 10
-161.964035
 20
719.499084
 10
-161.888718
 20
719.937073
 10
-161.813309
 20
720.375061
 10
-161.737823
 20
720.813049
 10
-161.662247
 20
721.250977
 10
-161.586609
 20
721.688904
 10
-161.510864
 20
722.126831
 10
-161.435059
 20
722.564758
 10
-161.359161
 20
723.002686
 10
-161.283188
 20
723.440552
 10
-161.207123
 20
723.878418
 10
-161.130981
 20
724.316284
 10
-161.054749
 20
724.75415
 10
-160.978439
 20
725.191956
 10
-160.902054
 20
725.629822
 10
-160.825577
 20
726.067627
 10
-160.749023
 20
726.505371
 10
-160.672379
 20
726.943176
 10
-160.595657
 20
727.38092
 10
-160.518845
 20
727.818665
 10
-160.44194
 20
728.256409
 10
-160.36496
 20
728.694153
 10
-160.287903
 20
729.131836
 10
-160.210754
 20
729.569519
 10
-160.133514
 20
730.007202
 10
-160.056198
 20
730.444885
 10
-159.97879
 20
730.882507
 10
-159.901291
 20
731.32019
 10
-159.823715
 20
731.757812
 10
-159.746048
 20
732.195374
 10
-159.668289
 20
732.632996
 10
-159.590454
 20
733.070557
 10
-159.512527
 20
733.508118
 10
-159.434525
 20
733.945679
 10
-159.356415
 20
734.383179
 10
-159.278229
 20
734.82074
 10
-159.199951
 20
735.25824
 10
-159.121582
 20
735.69574
 10
-159.043137
 20
736.133179
 10
-158.964584
 20
736.570679
 10
-158.885956
 20
737.008118
 10
-158.807236
 20
737.445496
 10
-158.728424
 20
737.882935
 10
-158.649536
 20
738.320312
 10
-158.570541
 20
738.75769
 10
-158.49147
 20
739.195068
 10
-158.412292
 20
739.632446
 10
-158.333038
 20
740.069763
 10
-158.253677
 20
740.50708
 10
-158.17424
 20
740.944397
 10
-158.094711
 20
741.381653
 10
-158.015091
 20
741.81897
 10
-157.935364
 20
742.256226
 10
-157.85556
 20
742.69342
 10
-157.775665
 20
743.130676
 10
-157.695663
 20
743.567871
 10
-157.615585
 20
744.005066
 10
-157.5354
 20
744.442261
 10
-157.455124
 20
744.879395
 10
-157.374771
 20
745.316528
 10
-157.294312
 20
745.753662
 10
-157.213745
 20
746.190796
 10
-157.133102
 20
746.627869
 10
-157.052368
 20
747.064941
 10
-156.971527
 20
747.502014
 10
-156.890594
 20
747.939087
 10
-156.80957
 20
748.376099
 10
-156.728439
 20
748.81311
 10
-156.647217
 20
749.250122
 10
-156.565903
 20
749.687073
 10
-156.484497
 20
750.124023
 10
-156.402985
 20
750.560974
 10
-156.321381
 20
750.997925
 10
-156.239685
 20
751.434814
 10
-156.157883
 20
751.871704
 10
-156.075989
 20
752.308594
 10
-155.993988
 20
752.745422
 10
-155.911896
 20
753.182251
 10
-155.829712
 20
753.61908
 10
-155.747421
 20
754.055908
 10
-155.665024
 20
754.492676
 10
-155.582535
 20
754.929443
 10
-155.499954
 20
755.36615
 10
-155.417267
 20
755.802917
 10
-155.334473
 20
756.239624
 10
-155.251587
 20
756.676331
 10
-155.168594
 20
757.112976
 10
-155.08551
 20
757.549622
 10
-155.002319
 20
757.986267
 10
-154.919022
 20
758.422913
 10
-154.835632
 20
758.859497
 10
-154.752136
 20
759.296082
 10
-154.668533
 20
759.732666
 10
-154.584824
 20
760.169189
 10
-154.501022
 20
760.605713
 10
-154.417114
 20
761.042236
 10
-154.333099
 20
761.478699
 10
-154.248978
 20
761.915222
 10
-154.164764
 20
762.351624
 10
-154.080444
 20
762.788086
 10
-153.996002
 20
763.224487
 10
-153.911469
 20
763.660889
 10
-153.826828
 20
764.097229
 10
-153.742081
 20
764.53363
 10
-153.657227
 20
764.96991
 10
-153.572281
 20
765.40625
 10
-153.487213
 20
765.842529
 10
-153.402039
 20
766.278809
 10
-153.316757
 20
766.715088
 10
-153.231369
 20
767.151306
 10
-153.145874
 20
767.587524
 10
-153.060272
 20
768.023682
 10
-152.974564
 20
768.4599
 10
-152.888733
 20
768.895996
 10
-152.802811
 20
769.332153
 10
-152.716766
 20
769.76825
 10
-152.630615
 20
770.204346
 10
-152.544357
 20
770.640442
 10
-152.457977
 20
771.076477
 10
-152.371506
 20
771.512512
 10
-152.284912
 20
771.948486
 10
-152.198196
 20
772.38446
 10
-152.111389
 20
772.820435
 10
-152.02446
 20
773.256409
 10
-151.937408
 20
773.692322
 10
-151.850266
 20
774.128174
 10
-151.762985
 20
774.564087
 10
-151.675613
 20
774.999939
 10
-151.58812
 20
775.43573
 10
-151.500504
 20
775.871582
 10
-151.412781
 20
776.307373
 10
-151.324951
 20
776.743103
 10
-151.237
 20
777.178894
 10
-151.148926
 20
777.614624
 10
-151.06073
 20
778.050293
 10
-150.972427
 20
778.485901
 10
-150.884018
 20
778.921509
 10
-150.795471
 20
779.3573
 10
-150.706757
 20
779.792908
 10
-150.61821
 20
780.228149
 10
-150.531631
 20
780.654114
 10
-150.466858
 20
781.044128
 10
-150.41507
 20
781.452209
 10
-150.377533
 20
781.859375
 10
-150.354462
 20
782.267761
 10
-150.345535
 20
782.677734
 10
-150.350494
 20
783.088379
 10
-150.369156
 20
783.499023
 10
-150.401398
 20
783.909241
 10
-150.447006
 20
784.318726
 10
-150.505753
 20
784.727112
 10
-150.577393
 20
785.13385
 10
-150.661682
 20
785.538696
 10
-150.758392
 20
785.941223
 10
-150.867279
 20
786.341125
 10
-150.988052
 20
786.738098
 10
-151.120483
 20
787.131836
 10
-151.264282
 20
787.521973
 10
-151.419174
 20
787.908386
 10
-151.584915
 20
788.290649
 10
-151.76123
 20
788.668579
 10
-151.947861
 20
789.041992
 10
-152.144531
 20
789.410645
 10
-152.350983
 20
789.774292
 10
-152.566956
 20
790.13269
 10
-152.792206
 20
790.485779
 10
-153.026489
 20
790.833252
 10
-153.269562
 20
791.174988
 10
-153.521179
 20
791.510864
 10
-153.781097
 20
791.840698
 10
-154.049088
 20
792.164368
 10
-154.32489
 20
792.481628
 10
-154.608292
 20
792.792419
 10
-154.899048
 20
793.096497
 10
-155.196945
 20
793.393799
 10
-155.501816
 20
793.684204
 10
-155.813416
 20
793.96759
 10
-156.131577
 20
794.243774
 10
-156.456055
 20
794.512695
 10
-156.786667
 20
794.77417
 10
-157.123199
 20
795.028198
 10
-157.465439
 20
795.274597
 10
-157.813171
 20
795.513245
 10
-158.166229
 20
795.74408
 10
-158.524384
 20
795.966919
 10
-158.887451
 20
796.181641
 10
-159.255234
 20
796.388184
 10
-159.627502
 20
796.586304
 10
-160.004074
 20
796.776001
 10
-160.384735
 20
796.957031
 10
-160.769333
 20
797.129333
 10
-161.1577
 20
797.292725
 10
-161.549698
 20
797.447144
 10
-161.945129
 20
797.592529
 10
-162.343781
 20
797.72876
 10
-162.745468
 20
797.855896
 10
-163.150681
 20
797.973938
  0
LINE
  5
1FB
330
1D9
100
AcDbEntity
  8
0
  6
Continuous
 62
     0
370
     0
100
AcDbLine
 10
-148.252367
 20
692.215038
 30
0.0
 11
-147.283215
 21
692.121776
 31
0.0
  0
LINE
  5
1FC
330
1D9
100
AcDbEntity
  8
0
  6
Continuous
 62
     0
370
     0
100
AcDbLine
 10
-148.253586
 20
692.215107
 30
0.0
 11
-149.417855
 21
678.009167
 31
0.0
  0
LINE
  5
1FD
330
1D9
100
AcDbEntity
  8
0
  6
Continuous
 62
     0
370
    30
100
AcDbLine
 10
-148.653142
 20
677.986146
 30
0.0
 11
-149.417855
 21
678.009165
 31
0.0
  0
LINE
  5
1FE
330
1D9
100
AcDbEntity
  8
0
  6
Continuous
 62
     0
370
    30
100
AcDbLine
 10
-147.283215
 20
692.121776
 30
0.0
 11
-148.653141
 21
677.986158
 31
0.0
  0
LWPOLYLINE
  5
1FF
330
1D9
100
AcDbEntity
  8
0
  6
Continuous
 62
     0
370
    30
100
AcDbPolyline
 90
       17
 70
     0
 43
0.0
 10
-143.981369
 20
666.71106
 10
-144.689621
 20
667.115051
 10
-145.366364
 20
667.573608
 10
-146.004562
 20
668.088623
 10
-146.598801
 20
668.658264
 10
-147.144501
 20
669.278625
 10
-147.637833
 20
669.944946
 10
-148.075668
 20
670.651978
 10
-148.455414
 20
671.394409
 10
-148.77504
 20
672.16687
 10
-149.033142
 20
672.963928
 10
-149.228806
 20
673.780334
 10
-149.361786
 20
674.610962
 10
-149.432388
 20
675.450806
 10
-149.441849
 20
676.295044
 10
-149.42897
 20
677.139038
 10
-149.417862
 20
678.009155
  0
LWPOLYLINE
  5
200
330
1D9
100
AcDbEntity
  8
0
  6
Continuous
 62
     0
370
    30
100
AcDbPolyline
 90
      279
 70
     0
 43
0.0
 10
-143.981232
 20
666.711304
 10
-144.019028
 20
666.737976
 10
-144.056519
 20
666.765137
 10
-144.093979
 20
666.792358
 10
-144.131668
 20
666.819153
 10
-144.169479
 20
666.845764
 10
-144.207275
 20
666.872437
 10
-144.244873
 20
666.899292
 10
-144.282272
 20
666.926514
 10
-144.319473
 20
666.953918
 10
-144.356522
 20
666.981567
 10
-144.393417
 20
667.00946
 10
-144.430206
 20
667.037415
 10
-144.466888
 20
667.065491
 10
-144.503494
 20
667.09375
 10
-144.539993
 20
667.12207
 10
-144.576401
 20
667.150513
 10
-144.612686
 20
667.179077
 10
-144.648865
 20
667.207764
 10
-144.684921
 20
667.236633
 10
-144.72084
 20
667.265625
 10
-144.756653
 20
667.2948
 10
-144.792328
 20
667.324097
 10
-144.827896
 20
667.353516
 10
-144.863327
 20
667.383057
 10
-144.898651
 20
667.412781
 10
-144.933853
 20
667.442627
 10
-144.968933
 20
667.472595
 10
-145.003876
 20
667.502747
 10
-145.038712
 20
667.532959
 10
-145.073425
 20
667.563354
 10
-145.108002
 20
667.593872
 10
-145.142456
 20
667.624512
 10
-145.176788
 20
667.655273
 10
-145.210983
 20
667.686218
 10
-145.245056
 20
667.717224
 10
-145.278992
 20
667.748413
 10
-145.312805
 20
667.779724
 10
-145.346466
 20
667.811218
 10
-145.38002
 20
667.842773
 10
-145.413422
 20
667.874512
 10
-145.446701
 20
667.906372
 10
-145.479828
 20
667.938354
 10
-145.512833
 20
667.970459
 10
-145.5457
 20
668.002747
 10
-145.57843
 20
668.035095
 10
-145.611008
 20
668.067627
 10
-145.643463
 20
668.100281
 10
-145.675766
 20
668.133057
 10
-145.707947
 20
668.165955
 10
-145.739975
 20
668.198975
 10
-145.771866
 20
668.232178
 10
-145.803604
 20
668.265442
 10
-145.835205
 20
668.298889
 10
-145.866669
 20
668.332397
 10
-145.897995
 20
668.366089
 10
-145.929169
 20
668.399902
 10
-145.96019
 20
668.433838
 10
-145.991074
 20
668.467896
 10
-146.021805
 20
668.502075
 10
-146.052399
 20
668.536377
 10
-146.08284
 20
668.570801
 10
-146.113129
 20
668.605408
 10
-146.143265
 20
668.640076
 10
-146.173264
 20
668.674866
 10
-146.20311
 20
668.709839
 10
-146.232803
 20
668.744873
 10
-146.262344
 20
668.780029
 10
-146.291733
 20
668.815369
 10
-146.320969
 20
668.850769
 10
-146.350037
 20
668.886292
 10
-146.378967
 20
668.921997
 10
-146.407745
 20
668.957764
 10
-146.436356
 20
668.993652
 10
-146.464813
 20
669.029663
 10
-146.493118
 20
669.065796
 10
-146.521255
 20
669.102051
 10
-146.54924
 20
669.138428
 10
-146.577072
 20
669.174927
 10
-146.604736
 20
669.211548
 10
-146.632233
 20
669.24823
 10
-146.659576
 20
669.285095
 10
-146.686752
 20
669.322021
 10
-146.713776
 20
669.35907
 10
-146.740631
 20
669.39624
 10
-146.767319
 20
669.433533
 10
-146.793854
 20
669.470947
 10
-146.820206
 20
669.508423
 10
-146.846405
 20
669.546082
 10
-146.872437
 20
669.583801
 10
-146.8983
 20
669.621643
 10
-146.924011
 20
669.659546
 10
-146.949539
 20
669.697632
 10
-146.974899
 20
669.735779
 10
-147.000107
 20
669.774048
 10
-147.025131
 20
669.812378
 10
-147.049988
 20
669.850891
 10
-147.074677
 20
669.889465
 10
-147.099197
 20
669.928101
 10
-147.12355
 20
669.966919
 10
-147.147736
 20
670.005798
 10
-147.171738
 20
670.0448
 10
-147.195587
 20
670.083862
 10
-147.219238
 20
670.123047
 10
-147.242737
 20
670.162354
 10
-147.266052
 20
670.201721
 10
-147.2892
 20
670.241211
 10
-147.31218
 20
670.280762
 10
-147.334976
 20
670.320435
 10
-147.35759
 20
670.360229
 10
-147.380035
 20
670.400085
 10
-147.402313
 20
670.440063
 10
-147.424408
 20
670.480103
 10
-147.44632
 20
670.520264
 10
-147.468063
 20
670.560486
 10
-147.489639
 20
670.60083
 10
-147.511017
 20
670.641235
 10
-147.532227
 20
670.681763
 10
-147.553253
 20
670.722351
 10
-147.574112
 20
670.763
 10
-147.594788
 20
670.803772
 10
-147.61528
 20
670.844666
 10
-147.63559
 20
670.88562
 10
-147.655716
 20
670.926636
 10
-147.675674
 20
670.967773
 10
-147.695435
 20
671.008972
 10
-147.715027
 20
671.050232
 10
-147.734421
 20
671.091614
 10
-147.753647
 20
671.133057
 10
-147.77269
 20
671.174622
 10
-147.79155
 20
671.216187
 10
-147.810211
 20
671.257874
 10
-147.828705
 20
671.299683
 10
-147.847015
 20
671.341492
 10
-147.865128
 20
671.383423
 10
-147.883072
 20
671.425415
 10
-147.900818
 20
671.467468
 10
-147.918396
 20
671.509644
 10
-147.935776
 20
671.55188
 10
-147.952972
 20
671.594177
 10
-147.969986
 20
671.636536
 10
-147.986816
 20
671.678955
 10
-148.003448
 20
671.721436
 10
-148.019913
 20
671.764038
 10
-148.036179
 20
671.806641
 10
-148.052261
 20
671.849365
 10
-148.068161
 20
671.892151
 10
-148.083862
 20
671.934998
 10
-148.099396
 20
671.977905
 10
-148.114731
 20
672.020874
 10
-148.129883
 20
672.063904
 10
-148.144836
 20
672.106995
 10
-148.159607
 20
672.150146
 10
-148.174194
 20
672.193359
 10
-148.188599
 20
672.236633
 10
-148.202805
 20
672.279968
 10
-148.216812
 20
672.323364
 10
-148.230652
 20
672.366821
 10
-148.244293
 20
672.410339
 10
-148.257736
 20
672.453918
 10
-148.271011
 20
672.497498
 10
-148.284073
 20
672.541199
 10
-148.296967
 20
672.5849
 10
-148.309647
 20
672.628723
 10
-148.322159
 20
672.672546
 10
-148.334473
 20
672.716431
 10
-148.346588
 20
672.760376
 10
-148.358521
 20
672.804321
 10
-148.37027
 20
672.848389
 10
-148.381821
 20
672.892456
 10
-148.393188
 20
672.936584
 10
-148.404358
 20
672.980774
 10
-148.415344
 20
673.024963
 10
-148.426132
 20
673.069214
 10
-148.436737
 20
673.113525
 10
-148.447159
 20
673.157898
 10
-148.457382
 20
673.202271
 10
-148.467407
 20
673.246704
 10
-148.477249
 20
673.291199
 10
-148.486908
 20
673.335693
 10
-148.496368
 20
673.380249
 10
-148.50563
 20
673.424866
 10
-148.514709
 20
673.469482
 10
-148.523605
 20
673.51416
 10
-148.532303
 20
673.558899
 10
-148.540817
 20
673.603638
 10
-148.549133
 20
673.648438
 10
-148.557266
 20
673.693237
 10
-148.565201
 20
673.738098
 10
-148.572952
 20
673.782959
 10
-148.580505
 20
673.827881
 10
-148.587875
 20
673.872803
 10
-148.595062
 20
673.917786
 10
-148.602051
 20
673.96283
 10
-148.608856
 20
674.007812
 10
-148.615463
 20
674.052917
 10
-148.621887
 20
674.097961
 10
-148.628128
 20
674.143066
 10
-148.634171
 20
674.188232
 10
-148.64003
 20
674.233398
 10
-148.645706
 20
674.278564
 10
-148.651184
 20
674.323792
 10
-148.656464
 20
674.369019
 10
-148.661575
 20
674.414246
 10
-148.666489
 20
674.459534
 10
-148.671219
 20
674.504822
 10
-148.675751
 20
674.55011
 10
-148.680099
 20
674.595398
 10
-148.684265
 20
674.640747
 10
-148.688248
 20
674.686157
 10
-148.692032
 20
674.731506
 10
-148.695633
 20
674.776917
 10
-148.699051
 20
674.822327
 10
-148.702286
 20
674.867737
 10
-148.705322
 20
674.913208
 10
-148.708176
 20
674.958618
 10
-148.710861
 20
675.004089
 10
-148.713348
 20
675.049561
 10
-148.715637
 20
675.095032
 10
-148.717758
 20
675.140564
 10
-148.719696
 20
675.186035
 10
-148.721436
 20
675.231567
 10
-148.723007
 20
675.2771
 10
-148.724396
 20
675.322632
 10
-148.725586
 20
675.368164
 10
-148.726608
 20
675.413696
 10
-148.727432
 20
675.459229
 10
-148.728088
 20
675.504761
 10
-148.728546
 20
675.550354
 10
-148.728836
 20
675.595886
 10
-148.728943
 20
675.641479
 10
-148.728867
 20
675.687073
 10
-148.728622
 20
675.732666
 10
-148.72818
 20
675.77832
 10
-148.72757
 20
675.823853
 10
-148.726776
 20
675.869324
 10
-148.7258
 20
675.914673
 10
-148.724655
 20
675.960083
 10
-148.723312
 20
676.005798
 10
-148.721786
 20
676.051819
 10
-148.720078
 20
676.0979
 10
-148.718246
 20
676.143188
 10
-148.716248
 20
676.187622
 10
-148.713928
 20
676.235474
 10
-148.711624
 20
676.288391
 10
-148.709518
 20
676.334229
 10
-148.707291
 20
676.384094
 10
-148.705109
 20
676.435059
 10
-148.702988
 20
676.485413
 10
-148.700928
 20
676.535522
 10
-148.698898
 20
676.58551
 10
-148.696899
 20
676.635376
 10
-148.694916
 20
676.685303
 10
-148.692947
 20
676.735168
 10
-148.69101
 20
676.785034
 10
-148.689087
 20
676.834961
 10
-148.687195
 20
676.884888
 10
-148.685333
 20
676.934875
 10
-148.683487
 20
676.984863
 10
-148.681671
 20
677.034912
 10
-148.679901
 20
677.084961
 10
-148.678146
 20
677.13501
 10
-148.676422
 20
677.185059
 10
-148.674728
 20
677.235168
 10
-148.673065
 20
677.285278
 10
-148.671432
 20
677.335388
 10
-148.66983
 20
677.385498
 10
-148.668259
 20
677.435608
 10
-148.666718
 20
677.485718
 10
-148.665222
 20
677.535828
 10
-148.663757
 20
677.585938
 10
-148.662308
 20
677.636047
 10
-148.660904
 20
677.686096
 10
-148.659531
 20
677.736206
 10
-148.658188
 20
677.786194
 10
-148.656876
 20
677.836243
 10
-148.655609
 20
677.88623
 10
-148.654358
 20
677.936218
 10
-148.653137
 20
677.986145
  0
LWPOLYLINE
  5
201
330
1D9
100
AcDbEntity
  8
0
  6
Continuous
 62
     0
370
     0
100
AcDbPolyline
 90
       87
 70
     0
 43
0.0
 10
-156.310806
 20
816.766296
 10
-154.793488
 20
816.27301
 10
-153.299332
 20
815.71344
 10
-151.831406
 20
815.088379
 10
-150.392746
 20
814.398621
 10
-148.986404
 20
813.644958
 10
-147.615509
 20
812.828613
 10
-146.283173
 20
811.950928
 10
-144.992508
 20
811.013184
 10
-143.746628
 20
810.016541
 10
-142.548569
 20
808.96283
 10
-141.401215
 20
807.854065
 10
-140.307495
 20
806.692566
 10
-139.270279
 20
805.480347
 10
-138.292496
 20
804.219727
 10
-137.376755
 20
802.913208
 10
-136.525513
 20
801.563782
 10
-135.741196
 20
800.174438
 10
-135.026047
 20
798.74823
 10
-134.382141
 20
797.288513
 10
-133.811188
 20
795.798706
 10
-133.314941
 20
794.282349
 10
-132.894791
 20
792.743225
 10
-132.551849
 20
791.185059
 10
-132.287125
 20
789.611755
 10
-132.101181
 20
788.027161
 10
-131.99437
 20
786.435242
 10
-131.966843
 20
784.840088
 10
-132.0186
 20
783.245483
 10
-132.149216
 20
781.655396
 10
-132.357956
 20
780.073669
 10
-132.644073
 20
778.504089
 10
-133.030502
 20
776.956299
 10
-133.431305
 20
775.411438
 10
-133.827347
 20
773.865295
 10
-134.218582
 20
772.317993
 10
-134.605042
 20
770.76947
 10
-134.986725
 20
769.219727
 10
-135.363678
 20
767.668884
 10
-135.735901
 20
766.116882
 10
-136.103424
 20
764.563782
 10
-136.466263
 20
763.009583
 10
-136.824448
 20
761.454285
 10
-137.177979
 20
759.897949
 10
-137.526886
 20
758.340576
 10
-137.871185
 20
756.782166
 10
-138.210922
 20
755.222778
 10
-138.546082
 20
753.662415
 10
-138.876694
 20
752.101074
 10
-139.202789
 20
750.538818
 10
-139.524384
 20
748.975586
 10
-139.841492
 20
747.411499
 10
-140.154129
 20
745.846497
 10
-140.462341
 20
744.280579
 10
-140.766113
 20
742.713867
 10
-141.065475
 20
741.146301
 10
-141.360458
 20
739.577881
 10
-141.651077
 20
738.008667
 10
-141.937347
 20
736.43866
 10
-142.219284
 20
734.86792
 10
-142.496918
 20
733.296387
 10
-142.770248
 20
731.724121
 10
-143.039322
 20
730.151123
 10
-143.304153
 20
728.577393
 10
-143.564743
 20
727.002991
 10
-143.821121
 20
725.427917
 10
-144.073303
 20
723.852173
 10
-144.321304
 20
722.275757
 10
-144.565155
 20
720.69873
 10
-144.804871
 20
719.121033
 10
-145.040466
 20
717.542786
 10
-145.271957
 20
715.963867
 10
-145.499374
 20
714.384399
 10
-145.722717
 20
712.804382
 10
-145.942032
 20
711.223816
 10
-146.157303
 20
709.6427
 10
-146.368576
 20
708.061035
 10
-146.575867
 20
706.478821
 10
-146.77916
 20
704.896301
 10
-146.978577
 20
703.312805
 10
-147.173935
 20
701.729492
 10
-147.365814
 20
700.143555
 10
-147.552612
 20
698.561279
 10
-147.734543
 20
696.976807
 10
-147.911743
 20
695.391541
 10
-148.084167
 20
693.805786
 10
-148.252365
 20
692.215088
  0
LWPOLYLINE
  5
202
330
1D9
100
AcDbEntity
  8
0
  6
Continuous
 62
     0
370
    30
100
AcDbPolyline
 90
       89
 70
     0
 43
0.0
 10
-155.968262
 20
817.707458
 10
-154.445618
 20
817.210754
 10
-152.945755
 20
816.649048
 10
-151.471405
 20
816.02301
 10
-150.025345
 20
815.333374
 10
-148.610382
 20
814.580933
 10
-147.22963
 20
813.766724
 10
-145.886276
 20
812.891846
 10
-144.583282
 20
811.957642
 10
-143.323471
 20
810.965332
 10
-142.109711
 20
809.916626
 10
-140.944931
 20
808.81311
 10
-139.832062
 20
807.65686
 10
-138.773865
 20
806.44989
 10
-137.773087
 20
805.194458
 10
-136.832336
 20
803.893127
 10
-135.954117
 20
802.548523
 10
-135.140808
 20
801.16333
 10
-134.394638
 20
799.740601
 10
-133.717682
 20
798.283508
 10
-133.111801
 20
796.795227
 10
-132.578644
 20
795.279236
 10
-132.119736
 20
793.739075
 10
-131.736282
 20
792.178223
 10
-131.429306
 20
790.600525
 10
-131.19957
 20
789.009827
 10
-131.047531
 20
787.409912
 10
-130.973419
 20
785.804504
 10
-130.977417
 20
784.197449
 10
-131.059189
 20
782.592712
 10
-131.218292
 20
780.993896
 10
-131.454056
 20
779.404663
 10
-131.773849
 20
777.797729
 10
-132.170212
 20
776.287109
 10
-132.559967
 20
774.780823
 10
-132.945007
 20
773.273682
 10
-133.325546
 20
771.76532
 10
-133.701523
 20
770.255798
 10
-134.072983
 20
768.745117
 10
-134.439926
 20
767.233337
 10
-134.802399
 20
765.720459
 10
-135.1604
 20
764.206543
 10
-135.513947
 20
762.691528
 10
-135.863068
 20
761.175476
 10
-136.207779
 20
759.658447
 10
-136.548096
 20
758.140381
 10
-136.884033
 20
756.621338
 10
-137.215622
 20
755.101318
 10
-137.542862
 20
753.580322
 10
-137.865799
 20
752.058411
 10
-138.184418
 20
750.535583
 10
-138.498764
 20
749.011902
 10
-138.808838
 20
747.487305
 10
-139.114685
 20
745.961792
 10
-139.41629
 20
744.435486
 10
-139.713684
 20
742.908325
 10
-140.006882
 20
741.380371
 10
-140.295914
 20
739.851562
 10
-140.580795
 20
738.322021
 10
-140.861526
 20
736.791687
 10
-141.138153
 20
735.260559
 10
-141.41066
 20
733.72876
 10
-141.679092
 20
732.196167
 10
-141.943466
 20
730.662903
 10
-142.203781
 20
729.128906
 10
-142.460052
 20
727.594238
 10
-142.712326
 20
726.05896
 10
-142.960602
 20
724.522949
 10
-143.204895
 20
722.986328
 10
-143.445236
 20
721.449036
 10
-143.681625
 20
719.911194
 10
-143.914093
 20
718.372681
 10
-144.142639
 20
716.833618
 10
-144.367294
 20
715.293945
 10
-144.588089
 20
713.753723
 10
-144.805008
 20
712.213013
 10
-145.018097
 20
710.671692
 10
-145.227356
 20
709.129822
 10
-145.432816
 20
707.587463
 10
-145.634476
 20
706.044617
 10
-145.832367
 20
704.501282
 10
-146.026489
 20
702.957458
 10
-146.216888
 20
701.413208
 10
-146.403534
 20
699.868408
 10
-146.586487
 20
698.323242
 10
-146.765717
 20
696.777527
 10
-146.941284
 20
695.231445
 10
-147.113205
 20
693.684875
 10
-147.283218
 20
692.121765
  0
LINE
  5
203
330
1D9
100
AcDbEntity
  8
0
  6
Continuous
 62
     0
370
    30
100
AcDbLine
 10
-155.968256
 20
817.707471
 30
0.0
 11
-156.310812
 21
816.766306
 31
0.0
  0
LINE
  5
204
330
1D9
100
AcDbEntity
  8
0
  6
Continuous
 62
     0
370
    30
100
AcDbLine
 10
-162.807695
 20
798.916267
 30
0.0
 11
-156.310812
 21
816.766306
 31
0.0
  0
LINE
  5
205
330
1D9
100
AcDbEntity
  8
0
  6
Continuous
 62
     0
370
    30
100
AcDbLine
 10
-148.253586
 20
692.215107
 30
0.0
 11
-165.990576
 21
692.346905
 31
0.0
  0
ARC
  5
206
330
1D9
100
AcDbEntity
  8
0
  6
Continuous
 62
     0
370
    30
100
AcDbCircle
 10
-182.971945
 20
681.050136
 30
0.0
 40
10.47613902636225
100
AcDbArc
 50
272.783509
 51
289.26177
  0
ARC
  5
207
330
1D9
100
AcDbEntity
  8
0
  6
Continuous
 62
     0
370
    30
100
AcDbCircle
 10
-177.425729
 20
537.434718
 30
0.0
 40
133.2519726578128
100
AcDbArc
 50
75.189015
 51
90.761531
  0
LINE
  5
208
330
1D9
100
AcDbEntity
  8
0
  6
Continuous
 62
     0
370
    30
100
AcDbLine
 10
-143.362398
 20
666.259277
 30
0.0
 11
-143.981368
 21
666.711054
 31
0.0
  0
LINE
  5
209
330
1D9
100
AcDbEntity
  8
0
  6
Continuous
 62
     0
370
    30
100
AcDbLine
 10
-143.431042
 20
666.466191
 30
0.0
 11
-143.981228
 21
666.711289
 31
0.0
  0
LINE
  5
20A
330
1D9
100
AcDbEntity
  8
0
  6
Continuous
 62
     0
370
    30
100
AcDbLine
 10
-142.712532
 20
666.069604
 30
0.0
 11
-143.362378
 21
666.259313
 31
0.0
  0
LINE
  5
20B
330
1D9
100
AcDbEntity
  8
0
  6
Continuous
 62
     0
370
    30
100
AcDbLine
 10
-179.196759
 20
670.674921
 30
0.0
 11
-182.463225
 21
670.586353
 31
0.0
  0
LWPOLYLINE
  5
20C
330
1D9
100
AcDbEntity
  8
0
  6
Continuous
 62
     0
370
    30
100
AcDbPolyline
 90
       47
 70
     0
 43
0.0
 10
-182.463226
 20
670.586365
 10
-184.145752
 20
670.506104
 10
-185.825958
 20
670.401978
 10
-187.502914
 20
670.273682
 10
-189.175537
 20
670.121155
 10
-190.843094
 20
669.943909
 10
-192.505112
 20
669.742065
 10
-194.161453
 20
669.518066
 10
-195.812515
 20
669.275452
 10
-197.459244
 20
669.018127
 10
-199.10257
 20
668.750122
 10
-200.743546
 20
668.475403
 10
-202.383423
 20
668.197632
 10
-204.023499
 20
667.920349
 10
-205.665039
 20
667.647339
 10
-207.30925
 20
667.382385
 10
-208.957275
 20
667.129578
 10
-210.610291
 20
666.892944
 10
-212.269012
 20
666.67688
 10
-213.933884
 20
666.486206
 10
-215.605316
 20
666.325806
 10
-217.283066
 20
666.200928
 10
-218.965973
 20
666.117554
 10
-220.652786
 20
666.081665
 10
-222.340958
 20
666.09906
 10
-224.025375
 20
666.175293
 10
-225.700668
 20
666.315979
 10
-227.360931
 20
666.526306
 10
-228.999084
 20
666.809998
 10
-230.609146
 20
667.165527
 10
-232.186951
 20
667.586975
 10
-233.730988
 20
668.066833
 10
-235.240799
 20
668.598328
 10
-236.716461
 20
669.175659
 10
-238.158646
 20
669.793823
 10
-239.568344
 20
670.448364
 10
-240.946686
 20
671.135498
 10
-242.294861
 20
671.851868
 10
-243.614075
 20
672.594543
 10
-244.905029
 20
673.361694
 10
-246.165756
 20
674.153564
 10
-247.393204
 20
674.971191
 10
-248.584305
 20
675.815186
 10
-249.735886
 20
676.686218
 10
-250.844803
 20
677.584412
 10
-252.024094
 20
678.340698
 10
-253.719467
 20
678.340698
  0
LINE
  5
20D
330
1D9
100
AcDbEntity
  8
0
  6
Continuous
 62
     0
370
    30
100
AcDbLine
 10
-253.719468
 20
623.340698
 30
0.0
 11
-253.719468
 21
624.340698
 31
0.0
  0
LINE
  5
20E
330
1D9
100
AcDbEntity
  8
0
  6
Continuous
 62
     0
370
    30
100
AcDbLine
 10
-253.719468
 20
678.340698
 30
0.0
 11
-253.719468
 21
624.340698
 31
0.0
  0
LWPOLYLINE
  5
20F
330
1D9
100
AcDbEntity
  8
0
  6
Continuous
 62
     0
370
     0
100
AcDbPolyline
 90
       74
 70
     0
 43
0.0
 10
-134.719467
 20
638.466309
 10
-136.251602
 20
637.780884
 10
-137.815033
 20
637.138306
 10
-139.406128
 20
636.540344
 10
-141.021118
 20
635.987061
 10
-142.656113
 20
635.476807
 10
-144.307678
 20
635.007751
 10
-145.973328
 20
634.577026
 10
-147.650681
 20
634.181763
 10
-149.337479
 20
633.819031
 10
-151.032181
 20
633.486206
 10
-152.733551
 20
633.180725
 10
-154.44046
 20
632.900208
 10
-156.151978
 20
632.642395
 10
-157.867233
 20
632.405273
 10
-159.585526
 20
632.18689
 10
-161.307129
 20
631.985901
 10
-163.032333
 20
631.802063
 10
-164.761063
 20
631.635986
 10
-166.49321
 20
631.488342
 10
-168.228592
 20
631.359802
 10
-169.966904
 20
631.25116
 10
-171.707779
 20
631.163147
 10
-173.450821
 20
631.096497
 10
-175.195663
 20
631.05188
 10
-176.941864
 20
631.029968
 10
-178.688751
 20
631.031433
 10
-180.435608
 20
631.056885
 10
-182.181747
 20
631.10675
 10
-183.926453
 20
631.181763
 10
-185.669022
 20
631.282471
 10
-187.408691
 20
631.409302
 10
-189.14473
 20
631.562744
 10
-190.876038
 20
631.743042
 10
-192.600693
 20
631.949829
 10
-194.317154
 20
632.181152
 10
-196.02536
 20
632.431946
 10
-197.726303
 20
632.697571
 10
-199.421234
 20
632.973938
 10
-201.111481
 20
633.256836
 10
-202.798294
 20
633.542114
 10
-204.482986
 20
633.825562
 10
-206.166824
 20
634.10321
 10
-207.851089
 20
634.370911
 10
-209.537003
 20
634.624451
 10
-211.225479
 20
634.859375
 10
-212.917221
 20
635.070923
 10
-214.612473
 20
635.25415
 10
-216.311096
 20
635.403687
 10
-218.012466
 20
635.514099
 10
-219.715103
 20
635.57959
 10
-221.416626
 20
635.594116
 10
-223.113724
 20
635.551819
 10
-224.801758
 20
635.447144
 10
-226.47525
 20
635.275146
 10
-228.127411
 20
635.031982
 10
-229.753082
 20
634.714783
 10
-231.349976
 20
634.327393
 10
-232.916443
 20
633.876831
 10
-234.451279
 20
633.369629
 10
-235.953827
 20
632.812073
 10
-237.423889
 20
632.209839
 10
-238.862198
 20
631.567627
 10
-240.269562
 20
630.889587
 10
-241.646973
 20
630.179443
 10
-242.99556
 20
629.440186
 10
-244.315781
 20
628.674927
 10
-245.60498
 20
627.885559
 10
-246.859634
 20
627.071594
 10
-248.076691
 20
626.232422
 10
-249.253021
 20
625.367493
 10
-250.385544
 20
624.476624
 10
-252.151947
 20
623.340698
 10
-253.719467
 20
623.340698
  0
LWPOLYLINE
  5
210
330
1D9
100
AcDbEntity
  8
0
  6
Continuous
 62
     0
370
     0
100
AcDbPolyline
 90
       75
 70
     0
 43
0.0
 10
-134.719467
 20
638.466309
 10
-136.230713
 20
637.914429
 10
-137.772476
 20
637.40094
 10
-139.341263
 20
636.923706
 10
-140.933441
 20
636.480225
 10
-142.545303
 20
636.067688
 10
-144.173462
 20
635.683472
 10
-145.815521
 20
635.325623
 10
-147.469193
 20
634.992371
 10
-149.132263
 20
634.681763
 10
-150.803177
 20
634.392456
 10
-152.480743
 20
634.122986
 10
-154.163849
 20
633.872192
 10
-155.851578
 20
633.638672
 10
-157.543091
 20
633.421143
 10
-159.237625
 20
633.218384
 10
-160.935287
 20
633.029541
 10
-162.636429
 20
632.854675
 10
-164.341034
 20
632.694519
 10
-166.048981
 20
632.55011
 10
-167.760147
 20
632.422485
 10
-169.474258
 20
632.312561
 10
-171.190948
 20
632.22113
 10
-172.909866
 20
632.149048
 10
-174.630661
 20
632.097168
 10
-176.352921
 20
632.066345
 10
-178.076096
 20
632.057251
 10
-179.799484
 20
632.070618
 10
-181.522415
 20
632.106995
 10
-183.244217
 20
632.167175
 10
-184.964203
 20
632.251709
 10
-186.681671
 20
632.361206
 10
-188.395905
 20
632.496216
 10
-190.106125
 20
632.657227
 10
-191.81073
 20
632.84436
 10
-193.507889
 20
633.057068
 10
-195.196899
 20
633.291687
 10
-196.878265
 20
633.543518
 10
-198.553162
 20
633.808533
 10
-200.222855
 20
634.082703
 10
-201.888565
 20
634.362061
 10
-203.551529
 20
634.642578
 10
-205.212967
 20
634.920349
 10
-206.874115
 20
635.191284
 10
-208.536179
 20
635.451538
 10
-210.200287
 20
635.696899
 10
-211.867157
 20
635.922791
 10
-213.537384
 20
636.124512
 10
-215.210983
 20
636.296997
 10
-216.887756
 20
636.434875
 10
-218.566788
 20
636.532471
 10
-220.246429
 20
636.583862
 10
-221.924057
 20
636.583069
 10
-223.596176
 20
636.523987
 10
-225.258041
 20
636.401062
 10
-226.904083
 20
636.209351
 10
-228.527725
 20
635.944885
 10
-230.124863
 20
635.606323
 10
-231.693619
 20
635.199463
 10
-233.232452
 20
634.731567
 10
-234.740341
 20
634.20929
 10
-236.216705
 20
633.638672
 10
-237.661545
 20
633.025269
 10
-239.075607
 20
632.373657
 10
-240.459686
 20
631.687866
 10
-241.814743
 20
630.971375
 10
-243.141907
 20
630.227234
 10
-244.441345
 20
629.457886
 10
-245.71022
 20
628.66394
 10
-246.945251
 20
627.844421
 10
-248.143463
 20
626.998413
 10
-249.30188
 20
626.125488
 10
-250.41748
 20
625.22522
 10
-252.198074
 20
624.418884
 10
-253.719467
 20
624.340698
  0
LWPOLYLINE
  5
211
330
1D9
100
AcDbEntity
  8
0
  6
Continuous
 62
     0
370
    30
100
AcDbPolyline
 90
        8
 70
     0
 43
0.0
 10
-134.719467
 20
633.340698
 10
-138.227097
 20
633.116638
 10
-141.737656
 20
632.940796
 10
-145.25
 20
632.795166
 10
-148.762939
 20
632.661499
 10
-152.275436
 20
632.522827
 10
-155.787064
 20
632.368164
 10
-159.761536
 20
632.165527
  0
ARC
  5
212
330
1D9
100
AcDbEntity
  8
0
  6
Continuous
 62
     0
370
    30
100
AcDbCircle
 10
-137.17555
 20
684.193499
 30
0.0
 40
13.04860705804339
100
AcDbArc
 50
208.405528
 51
244.898087
  0
ARC
  5
213
330
1D9
100
AcDbEntity
  8
0
  6
Continuous
 62
     0
370
    30
100
AcDbCircle
 10
-176.795313
 20
594.967476
 30
0.0
 40
84.58135893499457
100
AcDbArc
 50
60.167902
 51
66.23572
  0
LINE
  5
214
330
1D9
100
AcDbEntity
  8
0
  6
Continuous
 62
     0
370
    30
100
AcDbLine
 10
-134.719468
 20
634.283721
 30
0.0
 11
-132.671224
 21
634.882884
 31
0.0
  0
LINE
  5
215
330
1D9
100
AcDbEntity
  8
0
  6
Continuous
 62
     0
370
    30
100
AcDbLine
 10
-132.629456
 20
666.784264
 30
0.0
 11
-134.719468
 21
667.397675
 31
0.0
  0
LINE
  5
216
330
1D9
100
AcDbEntity
  8
0
  6
Continuous
 62
     0
370
    30
100
AcDbLine
 10
-483.969468
 20
624.340698
 30
0.0
 11
-483.969468
 21
623.340698
 31
0.0
  0
LINE
  5
217
330
1D9
100
AcDbEntity
  8
0
  6
Continuous
 62
     0
370
    30
100
AcDbLine
 10
-483.969468
 20
624.340698
 30
0.0
 11
-483.969468
 21
677.340698
 31
0.0
  0
LINE
  5
218
330
1D9
100
AcDbEntity
  8
0
  6
Continuous
 62
     0
370
    30
100
AcDbLine
 10
-483.969468
 20
678.340698
 30
0.0
 11
-483.969468
 21
677.340698
 31
0.0
  0
LINE
  5
219
330
1D9
100
AcDbEntity
  8
0
  6
Continuous
 62
     0
370
    30
100
AcDbLine
 10
-253.969468
 20
678.340698
 30
0.0
 11
-483.969468
 21
678.340698
 31
0.0
  0
LINE
  5
21A
330
1D9
100
AcDbEntity
  8
0
  6
Continuous
 62
     0
370
     0
100
AcDbLine
 10
-253.969468
 20
677.340698
 30
0.0
 11
-483.969468
 21
677.340698
 31
0.0
  0
LINE
  5
21B
330
1D9
100
AcDbEntity
  8
0
  6
Continuous
 62
     0
370
    30
100
AcDbLine
 10
-253.969468
 20
678.340698
 30
0.0
 11
-253.969468
 21
677.340698
 31
0.0
  0
LINE
  5
21C
330
1D9
100
AcDbEntity
  8
0
  6
Continuous
 62
     0
370
    30
100
AcDbLine
 10
-253.969468
 20
624.340698
 30
0.0
 11
-253.969468
 21
677.340698
 31
0.0
  0
LINE
  5
21D
330
1D9
100
AcDbEntity
  8
0
  6
Continuous
 62
     0
370
    30
100
AcDbLine
 10
-253.969468
 20
624.340698
 30
0.0
 11
-253.969468
 21
623.340698
 31
0.0
  0
LINE
  5
21E
330
1D9
100
AcDbEntity
  8
0
  6
Continuous
 62
     0
370
     0
100
AcDbLine
 10
-253.969468
 20
624.340698
 30
0.0
 11
-483.969468
 21
624.340698
 31
0.0
  0
LINE
  5
21F
330
1D9
100
AcDbEntity
  8
0
  6
Continuous
 62
     0
370
    30
100
AcDbLine
 10
-253.969468
 20
623.340698
 30
0.0
 11
-483.969468
 21
623.340698
 31
0.0
  0
ENDBLK
  5
221
330
1D9
100
AcDbEntity
  8
0
100
AcDbBlockEnd
  0
ENDSEC
  0
SECTION
  2
ENTITIES
  0
INSERT
  5
A1
330
1F
100
AcDbEntity
  8
0
  6
Continuous
 62
     7
420
 16250871
370
     0
100
AcDbBlockReference
  2
a
 10
15.948711
 20
90.780327
 30
0.0
  0
INSERT
  5
109
330
1F
100
AcDbEntity
  8
0
  6
Continuous
 62
     7
420
 16250871
370
     0
100
AcDbBlockReference
  2
b
 10
15.948711
 20
90.780327
 30
0.0
  0
INSERT
  5
157
330
1F
100
AcDbEntity
  8
0
  6
Continuous
 62
     7
420
 16250871
370
     0
100
AcDbBlockReference
  2
c
 10
15.948711
 20
90.780327
 30
0.0
  0
INSERT
  5
1D8
330
1F
100
AcDbEntity
  8
0
  6
Continuous
 62
     7
420
 16250871
370
     0
100
AcDbBlockReference
  2
d
 10
15.948711
 20
90.780327
 30
0.0
  0
INSERT
  5
222
330
1F
100
AcDbEntity
  8
0
  6
Continuous
 62
     7
420
 16250871
370
     0
100
AcDbBlockReference
  2
e
 10
-11.642517
 20
0.0
 30
0.0
  0
ENDSEC
  0
SECTION
  2
OBJECTS
  0
DICTIONARY
  5
C
330
0
100
AcDbDictionary
281
     1
  3
ACAD_DETAILVIEWSTYLE
350
25A
  3
ACAD_GROUP
350
D
  3
ACAD_LAYOUT
350
1A
  3
ACAD_MATERIAL
350
43
  3
ACAD_MLEADERSTYLE
350
6B
  3
ACAD_MLINESTYLE
350
17
  3
ACAD_PLOTSETTINGS
350
19
  3
ACAD_PLOTSTYLENAME
350
E
  3
ACAD_SCALELIST
350
47
  3
ACAD_SECTIONVIEWSTYLE
350
25B
  3
ACAD_TABLESTYLE
350
69
  3
ACAD_VISUALSTYLE
350
2A
  3
ACDB_RECOMPOSE_DATA
350
257
  3
AcDbVariableDictionary
350
223
  0
SUN
  5
6D
330
29
100
AcDbSun
 90
        1
290
     0
 63
     7
421
 16777215
 40
1.0
291
     1
 91
  2455826
 92
 54000000
292
     0
 70
     2
 71
   256
280
     1
  0
DICTIONARY
  5
25A
102
{ACAD_REACTORS
330
C
102
}
330
C
100
AcDbDictionary
281
     1
  0
DICTIONARY
  5
D
102
{ACAD_REACTORS
330
C
102
}
330
C
100
AcDbDictionary
281
     1
  0
DICTIONARY
  5
1A
102
{ACAD_REACTORS
330
C
102
}
330
C
100
AcDbDictionary
281
     1
  3
Layout1
350
1E
  3
Layout2
350
26
  3
Model
350
22
  0
DICTIONARY
  5
43
102
{ACAD_REACTORS
330
C
102
}
330
C
100
AcDbDictionary
281
     1
  3
ByBlock
350
45
  3
ByLayer
350
44
  3
Global
350
46
  0
DICTIONARY
  5
6B
102
{ACAD_REACTORS
330
C
102
}
330
C
100
AcDbDictionary
281
     1
  3
Standard
350
6C
  0
DICTIONARY
  5
17
102
{ACAD_REACTORS
330
C
102
}
330
C
100
AcDbDictionary
281
     1
  3
Standard
350
18
  0
DICTIONARY
  5
19
102
{ACAD_REACTORS
330
C
102
}
330
C
100
AcDbDictionary
281
     1
  0
ACDBDICTIONARYWDFLT
  5
E
102
{ACAD_REACTORS
330
C
102
}
330
C
100
AcDbDictionary
281
     1
  3
Normal
350
F
100
AcDbDictionaryWithDefault
340
F
  0
DICTIONARY
  5
47
102
{ACAD_REACTORS
330
C
102
}
330
C
100
AcDbDictionary
281
     1
  3
A0
350
48
  3
A1
350
49
  3
A2
350
4A
  3
A3
350
4B
  3
A4
350
4C
  3
A5
350
4D
  3
A6
350
4E
  3
A7
350
4F
  3
A8
350
50
  3
A9
350
51
  3
B0
350
52
  3
B1
350
53
  3
B2
350
54
  3
B3
350
55
  3
B4
350
56
  3
B5
350
57
  3
B6
350
58
  3
B7
350
59
  3
B8
350
5A
  3
B9
350
5B
  3
C0
350
5C
  3
C1
350
5D
  3
C2
350
5E
  3
C3
350
5F
  3
C4
350
60
  3
C5
350
61
  3
C6
350
62
  3
C7
350
63
  3
C8
350
64
  3
C9
350
65
  3
D0
350
66
  3
D1
350
67
  3
D2
350
68
  0
DICTIONARY
  5
25B
102
{ACAD_REACTORS
330
C
102
}
330
C
100
AcDbDictionary
281
     1
  0
DICTIONARY
  5
69
102
{ACAD_REACTORS
330
C
102
}
330
C
100
AcDbDictionary
281
     1
  3
Standard
350
6A
  0
DICTIONARY
  5
2A
102
{ACAD_REACTORS
330
C
102
}
330
C
100
AcDbDictionary
281
     1
  3
2dWireframe
350
2F
  3
Basic
350
32
  3
Brighten
350
36
  3
ColorChange
350
3A
  3
Conceptual
350
34
  3
Dim
350
35
  3
EdgeColorOff
350
3D
  3
Facepattern
350
39
  3
Flat
350
2B
  3
FlatWithEdges
350
2C
  3
Gouraud
350
2D
  3
GouraudWithEdges
350
2E
  3
Hidden
350
31
  3
JitterOff
350
3B
  3
Linepattern
350
38
  3
OverhangOff
350
3C
  3
Realistic
350
33
  3
Shaded
350
42
  3
Shaded with edges
350
41
  3
Shades of Gray
350
3E
  3
Sketchy
350
3F
  3
Thicken
350
37
  3
Wireframe
350
30
  3
X-Ray
350
40
  0
XRECORD
  5
257
102
{ACAD_REACTORS
330
C
102
}
330
C
100
AcDbXrecord
280
     1
 90
        1
330
6A
  0
DICTIONARY
  5
223
102
{ACAD_REACTORS
330
C
102
}
330
C
100
AcDbDictionary
281
     1
  3
CANNOSCALE
350
224
  3
CMLEADERSTYLE
350
259
  3
CTABLESTYLE
350
258
  0
LAYOUT
  5
1E
102
{ACAD_REACTORS
330
1A
102
}
330
1A
100
AcDbPlotSettings
  1

  2
none_device
  4

  6

 40
0.0
 41
0.0
 42
0.0
 43
0.0
 44
0.0
 45
0.0
 46
0.0
 47
0.0
 48
0.0
 49
0.0
140
0.0
141
0.0
142
1.0
143
1.0
 70
   688
 72
     1
 73
     0
 74
     5
  7

 75
    16
 76
     0
 77
     2
 78
   300
147
1.0
148
0.0
149
0.0
100
AcDbLayout
  1
Layout1
 70
     1
 71
     1
 10
0.0
 20
0.0
 11
420.0
 21
297.0
 12
0.0
 22
0.0
 32
0.0
 14
1.000000E+20
 24
1.000000E+20
 34
1.000000E+20
 15
-1.000000E+20
 25
-1.000000E+20
 35
-1.000000E+20
146
0.0
 13
0.0
 23
0.0
 33
0.0
 16
1.0
 26
0.0
 36
0.0
 17
0.0
 27
1.0
 37
0.0
 76
     0
330
1B
  0
LAYOUT
  5
26
102
{ACAD_REACTORS
330
1A
102
}
330
1A
100
AcDbPlotSettings
  1

  2
none_device
  4

  6

 40
0.0
 41
0.0
 42
0.0
 43
0.0
 44
0.0
 45
0.0
 46
0.0
 47
0.0
 48
0.0
 49
0.0
140
0.0
141
0.0
142
1.0
143
1.0
 70
   688
 72
     1
 73
     0
 74
     5
  7

 75
    16
 76
     0
 77
     2
 78
   300
147
1.0
148
0.0
149
0.0
100
AcDbLayout
  1
Layout2
 70
     1
 71
     2
 10
0.0
 20
0.0
 11
0.0
 21
0.0
 12
0.0
 22
0.0
 32
0.0
 14
0.0
 24
0.0
 34
0.0
 15
0.0
 25
0.0
 35
0.0
146
0.0
 13
0.0
 23
0.0
 33
0.0
 16
1.0
 26
0.0
 36
0.0
 17
0.0
 27
1.0
 37
0.0
 76
     0
330
23
  0
LAYOUT
  5
22
102
{ACAD_REACTORS
330
1A
102
}
330
1A
100
AcDbPlotSettings
  1

  2
none_device
  4
Letter_(8.50_x_11.00_Inches)
  6

 40
6.35
 41
6.35
 42
6.350005
 43
6.350005
 44
215.9
 45
279.4
 46
0.0
 47
0.0
 48
0.0
 49
0.0
140
0.0
141
0.0
142
1.0
143
1.0
 70
  1712
 72
     1
 73
     0
 74
     0
  7

 75
     0
 76
     0
 77
     2
 78
   300
147
1.0
148
0.0
149
0.0
100
AcDbLayout
  1
Model
 70
     1
 71
     0
 10
0.0
 20
0.0
 11
420.0
 21
297.0
 12
0.0
 22
0.0
 32
0.0
 14
1.000000E+20
 24
1.000000E+20
 34
1.000000E+20
 15
-1.000000E+20
 25
-1.000000E+20
 35
-1.000000E+20
146
0.0
 13
0.0
 23
0.0
 33
0.0
 16
1.0
 26
0.0
 36
0.0
 17
0.0
 27
1.0
 37
0.0
 76
     0
330
1F
331
29
  0
MATERIAL
  5
45
102
{ACAD_REACTORS
330
43
102
}
330
43
100
AcDbMaterial
  1
ByBlock
 72
     1
 94
      127
  0
MATERIAL
  5
44
102
{ACAD_REACTORS
330
43
102
}
330
43
100
AcDbMaterial
  1
ByLayer
 72
     1
 94
      127
  0
MATERIAL
  5
46
102
{ACAD_REACTORS
330
43
102
}
330
43
100
AcDbMaterial
  1
Global
 72
     1
 94
      127
  0
MLEADERSTYLE
  5
6C
102
{ACAD_REACTORS
330
6B
102
}
330
6B
100
AcDbMLeaderStyle
179
     2
170
     2
171
     1
172
     0
 90
        2
 40
0.0
 41
0.0
173
     1
 91
-1056964608
340
14
 92
       -2
290
     1
 42
2.0
291
     1
 43
8.0
  3
Standard
341
0
 44
4.0
300

342
11
174
     1
178
     6
175
     1
176
     0
 93
-1056964608
 45
4.0
292
     0
297
     0
 46
4.0
343
0
 94
-1056964608
 47
1.0
 49
1.0
140
1.0
293
     1
141
0.0
294
     1
177
     0
142
1.0
295
     0
296
     0
143
3.75
271
     0
272
     9
273
     9
  0
MLINESTYLE
  5
18
102
{ACAD_REACTORS
330
17
102
}
330
17
100
AcDbMlineStyle
  2
Standard
 70
     0
  3

 62
   256
 51
90.0
 52
90.0
 71
     2
 49
0.5
 62
   256
  6
BYLAYER
 49
-0.5
 62
   256
  6
BYLAYER
  0
ACDBPLACEHOLDER
  5
F
102
{ACAD_REACTORS
330
E
102
}
330
E
  0
SCALE
  5
48
102
{ACAD_REACTORS
330
47
102
}
330
47
100
AcDbScale
 70
     0
300
1:1
140
1.0
141
1.0
290
     1
  0
SCALE
  5
49
102
{ACAD_REACTORS
330
47
102
}
330
47
100
AcDbScale
 70
     0
300
1:2
140
1.0
141
2.0
290
     0
  0
SCALE
  5
4A
102
{ACAD_REACTORS
330
47
102
}
330
47
100
AcDbScale
 70
     0
300
1:4
140
1.0
141
4.0
290
     0
  0
SCALE
  5
4B
102
{ACAD_REACTORS
330
47
102
}
330
47
100
AcDbScale
 70
     0
300
1:5
140
1.0
141
5.0
290
     0
  0
SCALE
  5
4C
102
{ACAD_REACTORS
330
47
102
}
330
47
100
AcDbScale
 70
     0
300
1:8
140
1.0
141
8.0
290
     0
  0
SCALE
  5
4D
102
{ACAD_REACTORS
330
47
102
}
330
47
100
AcDbScale
 70
     0
300
1:10
140
1.0
141
10.0
290
     0
  0
SCALE
  5
4E
102
{ACAD_REACTORS
330
47
102
}
330
47
100
AcDbScale
 70
     0
300
1:16
140
1.0
141
16.0
290
     0
  0
SCALE
  5
4F
102
{ACAD_REACTORS
330
47
102
}
330
47
100
AcDbScale
 70
     0
300
1:20
140
1.0
141
20.0
290
     0
  0
SCALE
  5
50
102
{ACAD_REACTORS
330
47
102
}
330
47
100
AcDbScale
 70
     0
300
1:30
140
1.0
141
30.0
290
     0
  0
SCALE
  5
51
102
{ACAD_REACTORS
330
47
102
}
330
47
100
AcDbScale
 70
     0
300
1:40
140
1.0
141
40.0
290
     0
  0
SCALE
  5
52
102
{ACAD_REACTORS
330
47
102
}
330
47
100
AcDbScale
 70
     0
300
1:50
140
1.0
141
50.0
290
     0
  0
SCALE
  5
53
102
{ACAD_REACTORS
330
47
102
}
330
47
100
AcDbScale
 70
     0
300
1:100
140
1.0
141
100.0
290
     0
  0
SCALE
  5
54
102
{ACAD_REACTORS
330
47
102
}
330
47
100
AcDbScale
 70
     0
300
2:1
140
2.0
141
1.0
290
     0
  0
SCALE
  5
55
102
{ACAD_REACTORS
330
47
102
}
330
47
100
AcDbScale
 70
     0
300
4:1
140
4.0
141
1.0
290
     0
  0
SCALE
  5
56
102
{ACAD_REACTORS
330
47
102
}
330
47
100
AcDbScale
 70
     0
300
8:1
140
8.0
141
1.0
290
     0
  0
SCALE
  5
57
102
{ACAD_REACTORS
330
47
102
}
330
47
100
AcDbScale
 70
     0
300
10:1
140
10.0
141
1.0
290
     0
  0
SCALE
  5
58
102
{ACAD_REACTORS
330
47
102
}
330
47
100
AcDbScale
 70
     0
300
100:1
140
100.0
141
1.0
290
     0
  0
SCALE
  5
59
102
{ACAD_REACTORS
330
47
102
}
330
47
100
AcDbScale
 70
     0
300
1/128" = 1'-0"
140
0.007812
141
12.0
290
     0
  0
SCALE
  5
5A
102
{ACAD_REACTORS
330
47
102
}
330
47
100
AcDbScale
 70
     0
300
1/64" = 1'-0"
140
0.015625
141
12.0
290
     0
  0
SCALE
  5
5B
102
{ACAD_REACTORS
330
47
102
}
330
47
100
AcDbScale
 70
     0
300
1/32" = 1'-0"
140
0.03125
141
12.0
290
     0
  0
SCALE
  5
5C
102
{ACAD_REACTORS
330
47
102
}
330
47
100
AcDbScale
 70
     0
300
1/16" = 1'-0"
140
0.0625
141
12.0
290
     0
  0
SCALE
  5
5D
102
{ACAD_REACTORS
330
47
102
}
330
47
100
AcDbScale
 70
     0
300
3/32" = 1'-0"
140
0.09375
141
12.0
290
     0
  0
SCALE
  5
5E
102
{ACAD_REACTORS
330
47
102
}
330
47
100
AcDbScale
 70
     0
300
1/8" = 1'-0"
140
0.125
141
12.0
290
     0
  0
SCALE
  5
5F
102
{ACAD_REACTORS
330
47
102
}
330
47
100
AcDbScale
 70
     0
300
3/16" = 1'-0"
140
0.1875
141
12.0
290
     0
  0
SCALE
  5
60
102
{ACAD_REACTORS
330
47
102
}
330
47
100
AcDbScale
 70
     0
300
1/4" = 1'-0"
140
0.25
141
12.0
290
     0
  0
SCALE
  5
61
102
{ACAD_REACTORS
330
47
102
}
330
47
100
AcDbScale
 70
     0
300
3/8" = 1'-0"
140
0.375
141
12.0
290
     0
  0
SCALE
  5
62
102
{ACAD_REACTORS
330
47
102
}
330
47
100
AcDbScale
 70
     0
300
1/2" = 1'-0"
140
0.5
141
12.0
290
     0
  0
SCALE
  5
63
102
{ACAD_REACTORS
330
47
102
}
330
47
100
AcDbScale
 70
     0
300
3/4" = 1'-0"
140
0.75
141
12.0
290
     0
  0
SCALE
  5
64
102
{ACAD_REACTORS
330
47
102
}
330
47
100
AcDbScale
 70
     0
300
1" = 1'-0"
140
1.0
141
12.0
290
     0
  0
SCALE
  5
65
102
{ACAD_REACTORS
330
47
102
}
330
47
100
AcDbScale
 70
     0
300
1-1/2" = 1'-0"
140
1.5
141
12.0
290
     0
  0
SCALE
  5
66
102
{ACAD_REACTORS
330
47
102
}
330
47
100
AcDbScale
 70
     0
300
3" = 1'-0"
140
3.0
141
12.0
290
     0
  0
SCALE
  5
67
102
{ACAD_REACTORS
330
47
102
}
330
47
100
AcDbScale
 70
     0
300
6" = 1'-0"
140
6.0
141
12.0
290
     0
  0
SCALE
  5
68
102
{ACAD_REACTORS
330
47
102
}
330
47
100
AcDbScale
 70
     0
300
1'-0" = 1'-0"
140
12.0
141
12.0
290
     0
  0
TABLESTYLE
  5
6A
102
{ACAD_REACTORS
330
69
102
}
102
{ACAD_XDICTIONARY
360
255
102
}
330
69
100
AcDbTableStyle
  3
Standard
 70
     0
 71
     0
 40
0.06
 41
0.06
280
     0
281
     0
  7
Standard
140
4.5
170
     2
 62
     0
 63
   257
283
     0
 90
        4
 91
        0
  1

274
    -2
284
     1
 64
     0
275
    -2
285
     1
 65
     0
276
    -2
286
     1
 66
     0
277
    -2
287
     1
 67
     0
278
    -2
288
     1
 68
     0
279
    -2
289
     1
 69
     0
  7
Standard
140
6.0
170
     5
 62
     0
 63
   257
283
     0
 90
        4
 91
        0
  1

274
    -2
284
     1
 64
     0
275
    -2
285
     1
 65
     0
276
    -2
286
     1
 66
     0
277
    -2
287
     1
 67
     0
278
    -2
288
     1
 68
     0
279
    -2
289
     1
 69
     0
  7
Standard
140
4.5
170
     5
 62
     0
 63
   257
283
     0
 90
        4
 91
        0
  1

274
    -2
284
     1
 64
     0
275
    -2
285
     1
 65
     0
276
    -2
286
     1
 66
     0
277
    -2
287
     1
 67
     0
278
    -2
288
     1
 68
     0
279
    -2
289
     1
 69
     0
  0
VISUALSTYLE
  5
2F
102
{ACAD_REACTORS
330
2A
102
}
102
{ACAD_XDICTIONARY
360
22D
102
}
330
2A
100
AcDbVisualStyle
  2
2dWireframe
 70
     4
177
     2
291
     0
 71
     0
176
     1
 72
     2
176
     1
 73
     0
176
     1
 90
        0
176
     1
 40
0.6
176
     1
 41
30.0
176
     1
 62
     5
 63
     7
421
 16777215
176
     1
 74
     1
176
     1
 91
        4
176
     1
 64
     7
176
     1
 65
   257
176
     1
 75
     1
176
     1
175
     1
176
     1
 42
1.0
176
     1
 92
        0
176
     1
 66
   257
176
     1
 43
1.0
176
     1
 76
     1
176
     1
 77
     6
176
     1
 78
     2
176
     1
 67
     7
176
     1
 79
     5
176
     1
170
     0
176
     1
171
     0
176
     1
290
     0
176
     1
 93
        1
176
     1
 44
0.0
176
     1
173
     0
176
     1
  0
VISUALSTYLE
  5
32
102
{ACAD_REACTORS
330
2A
102
}
102
{ACAD_XDICTIONARY
360
233
102
}
330
2A
100
AcDbVisualStyle
  2
Basic
 70
     7
177
     2
291
     1
 71
     1
176
     1
 72
     0
176
     1
 73
     1
176
     1
 90
        0
176
     1
 40
0.6
176
     1
 41
30.0
176
     1
 62
     5
 63
     7
421
 16777215
176
     1
 74
     0
176
     1
 91
        4
176
     1
 64
     7
176
     1
 65
   257
176
     1
 75
     1
176
     1
175
     1
176
     1
 42
1.0
176
     1
 92
        8
176
     1
 66
     7
176
     1
 43
1.0
176
     1
 76
     1
176
     1
 77
     6
176
     1
 78
     2
176
     1
 67
     7
176
     1
 79
     5
176
     1
170
     0
176
     1
171
     0
176
     1
290
     0
176
     1
 93
        1
176
     1
 44
0.0
176
     1
173
     0
176
     1
  0
VISUALSTYLE
  5
36
102
{ACAD_REACTORS
330
2A
102
}
102
{ACAD_XDICTIONARY
360
23B
102
}
330
2A
100
AcDbVisualStyle
  2
Brighten
 70
    12
177
     2
291
     1
 71
     2
176
     1
 72
     2
176
     1
 73
     0
176
     1
 90
        0
176
     1
 40
0.6
176
     1
 41
30.0
176
     1
 62
     5
 63
     7
421
 16777215
176
     1
 74
     1
176
     1
 91
        4
176
     1
 64
     7
176
     1
 65
   257
176
     1
 75
     1
176
     1
175
     1
176
     1
 42
1.0
176
     1
 92
        8
176
     1
 66
     7
176
     1
 43
1.0
176
     1
 76
     1
176
     1
 77
     6
176
     1
 78
     2
176
     1
 67
     7
176
     1
 79
     5
176
     1
170
     0
176
     1
171
     0
176
     1
290
     0
176
     1
 93
        1
176
     1
 44
50.0
176
     1
173
     0
176
     1
  0
VISUALSTYLE
  5
3A
102
{ACAD_REACTORS
330
2A
102
}
102
{ACAD_XDICTIONARY
360
243
102
}
330
2A
100
AcDbVisualStyle
  2
ColorChange
 70
    16
177
     2
291
     1
 71
     2
176
     1
 72
     2
176
     1
 73
     3
176
     1
 90
        0
176
     1
 40
0.6
176
     1
 41
30.0
176
     1
 62
     5
 63
     8
421
  8421504
176
     1
 74
     1
176
     1
 91
        4
176
     1
 64
     7
176
     1
 65
   257
176
     1
 75
     1
176
     1
175
     1
176
     1
 42
1.0
176
     1
 92
        8
176
     1
 66
     8
424
  8421504
176
     1
 43
1.0
176
     1
 76
     1
176
     1
 77
     6
176
     1
 78
     2
176
     1
 67
     7
176
     1
 79
     5
176
     1
170
     0
176
     1
171
     0
176
     1
290
     0
176
     1
 93
        1
176
     1
 44
0.0
176
     1
173
     0
176
     1
  0
VISUALSTYLE
  5
34
102
{ACAD_REACTORS
330
2A
102
}
102
{ACAD_XDICTIONARY
360
237
102
}
330
2A
100
AcDbVisualStyle
  2
Conceptual
 70
     9
177
     2
291
     0
 71
     3
176
     1
 72
     2
176
     1
 73
     0
176
     1
 90
        0
176
     1
 40
0.6
176
     1
 41
30.0
176
     1
 62
     5
 63
     7
421
 16777215
176
     1
 74
     2
176
     1
 91
        2
176
     1
 64
     7
176
     1
 65
   257
176
     1
 75
     1
176
     1
175
     1
176
     1
 42
179.0
176
     1
 92
        8
176
     1
 66
     7
176
     1
 43
1.0
176
     1
 76
     1
176
     1
 77
     6
176
     1
 78
     2
176
     1
 67
     7
176
     1
 79
     3
176
     1
170
     0
176
     1
171
     0
176
     1
290
     0
176
     1
 93
        1
176
     1
 44
0.0
176
     1
173
     0
176
     1
  0
VISUALSTYLE
  5
35
102
{ACAD_REACTORS
330
2A
102
}
102
{ACAD_XDICTIONARY
360
239
102
}
330
2A
100
AcDbVisualStyle
  2
Dim
 70
    11
177
     2
291
     1
 71
     2
176
     1
 72
     2
176
     1
 73
     0
176
     1
 90
        0
176
     1
 40
0.6
176
     1
 41
30.0
176
     1
 62
     5
 63
     7
421
 16777215
176
     1
 74
     1
176
     1
 91
        4
176
     1
 64
     7
176
     1
 65
   257
176
     1
 75
     1
176
     1
175
     1
176
     1
 42
1.0
176
     1
 92
        8
176
     1
 66
     7
176
     1
 43
1.0
176
     1
 76
     1
176
     1
 77
     6
176
     1
 78
     2
176
     1
 67
     7
176
     1
 79
     5
176
     1
170
     0
176
     1
171
     0
176
     1
290
     0
176
     1
 93
        1
176
     1
 44
-50.0
176
     1
173
     0
176
     1
  0
VISUALSTYLE
  5
3D
102
{ACAD_REACTORS
330
2A
102
}
102
{ACAD_XDICTIONARY
360
249
102
}
330
2A
100
AcDbVisualStyle
  2
EdgeColorOff
 70
    22
177
     2
291
     1
 71
     2
176
     0
 72
     2
176
     0
 73
     0
176
     0
 90
        0
176
     0
 40
0.6
176
     0
 41
30.0
176
     0
 62
     5
 63
     7
421
 16777215
176
     0
 74
     1
176
     0
 91
        4
176
     0
 64
     7
176
     0
 65
   257
176
     0
 75
     1
176
     0
175
     1
176
     0
 42
1.0
176
     0
 92
        8
176
     2
 66
     7
176
     0
 43
1.0
176
     0
 76
     1
176
     0
 77
     6
176
     0
 78
     2
176
     0
 67
     7
176
     0
 79
     5
176
     0
170
     0
176
     0
171
     0
176
     0
290
     0
176
     0
 93
        1
176
     0
 44
0.0
176
     0
173
     0
176
     0
  0
VISUALSTYLE
  5
39
102
{ACAD_REACTORS
330
2A
102
}
102
{ACAD_XDICTIONARY
360
241
102
}
330
2A
100
AcDbVisualStyle
  2
Facepattern
 70
    15
177
     2
291
     1
 71
     2
176
     1
 72
     2
176
     1
 73
     0
176
     1
 90
        0
176
     1
 40
0.6
176
     1
 41
30.0
176
     1
 62
     5
 63
     7
421
 16777215
176
     1
 74
     1
176
     1
 91
        4
176
     1
 64
     7
176
     1
 65
   257
176
     1
 75
     1
176
     1
175
     1
176
     1
 42
1.0
176
     1
 92
        8
176
     1
 66
     7
176
     1
 43
1.0
176
     1
 76
     1
176
     1
 77
     6
176
     1
 78
     2
176
     1
 67
     7
176
     1
 79
     5
176
     1
170
     0
176
     1
171
     0
176
     1
290
     0
176
     1
 93
        1
176
     1
 44
0.0
176
     1
173
     0
176
     1
  0
VISUALSTYLE
  5
2B
102
{ACAD_REACTORS
330
2A
102
}
102
{ACAD_XDICTIONARY
360
225
102
}
330
2A
100
AcDbVisualStyle
  2
Flat
 70
     0
177
     2
291
     1
 71
     2
176
     1
 72
     1
176
     1
 73
     1
176
     1
 90
        2
176
     1
 40
0.6
176
     1
 41
30.0
176
     1
 62
     5
 63
     7
421
 16777215
176
     1
 74
     0
176
     1
 91
        0
176
     1
 64
     7
176
     1
 65
   257
176
     1
 75
     1
176
     1
175
     1
176
     1
 42
1.0
176
     1
 92
        8
176
     1
 66
     7
176
     1
 43
1.0
176
     1
 76
     1
176
     1
 77
     6
176
     1
 78
     2
176
     1
 67
     7
176
     1
 79
     5
176
     1
170
     0
176
     1
171
     0
176
     1
290
     0
176
     1
 93
       13
176
     1
 44
0.0
176
     1
173
     0
176
     1
  0
VISUALSTYLE
  5
2C
102
{ACAD_REACTORS
330
2A
102
}
102
{ACAD_XDICTIONARY
360
227
102
}
330
2A
100
AcDbVisualStyle
  2
FlatWithEdges
 70
     1
177
     2
291
     1
 71
     2
176
     1
 72
     1
176
     1
 73
     1
176
     1
 90
        2
176
     1
 40
0.6
176
     1
 41
30.0
176
     1
 62
     5
 63
     7
421
 16777215
176
     1
 74
     1
176
     1
 91
        0
176
     1
 64
     7
176
     1
 65
   257
176
     1
 75
     1
176
     1
175
     1
176
     1
 42
1.0
176
     1
 92
        0
176
     1
 66
   257
176
     1
 43
1.0
176
     1
 76
     1
176
     1
 77
     6
176
     1
 78
     2
176
     1
 67
     7
176
     1
 79
     5
176
     1
170
     0
176
     1
171
     0
176
     1
290
     0
176
     1
 93
       13
176
     1
 44
0.0
176
     1
173
     0
176
     1
  0
VISUALSTYLE
  5
2D
102
{ACAD_REACTORS
330
2A
102
}
102
{ACAD_XDICTIONARY
360
229
102
}
330
2A
100
AcDbVisualStyle
  2
Gouraud
 70
     2
177
     2
291
     1
 71
     2
176
     1
 72
     2
176
     1
 73
     1
176
     1
 90
        2
176
     1
 40
0.6
176
     1
 41
30.0
176
     1
 62
     5
 63
     7
421
 16777215
176
     1
 74
     0
176
     1
 91
        0
176
     1
 64
     7
176
     1
 65
   257
176
     1
 75
     1
176
     1
175
     1
176
     1
 42
1.0
176
     1
 92
        0
176
     1
 66
     7
176
     1
 43
1.0
176
     1
 76
     1
176
     1
 77
     6
176
     1
 78
     2
176
     1
 67
     7
176
     1
 79
     5
176
     1
170
     0
176
     1
171
     0
176
     1
290
     0
176
     1
 93
       13
176
     1
 44
0.0
176
     1
173
     0
176
     1
  0
VISUALSTYLE
  5
2E
102
{ACAD_REACTORS
330
2A
102
}
102
{ACAD_XDICTIONARY
360
22B
102
}
330
2A
100
AcDbVisualStyle
  2
GouraudWithEdges
 70
     3
177
     2
291
     1
 71
     2
176
     1
 72
     2
176
     1
 73
     1
176
     1
 90
        2
176
     1
 40
0.6
176
     1
 41
30.0
176
     1
 62
     5
 63
     7
421
 16777215
176
     1
 74
     1
176
     1
 91
        0
176
     1
 64
     7
176
     1
 65
   257
176
     1
 75
     1
176
     1
175
     1
176
     1
 42
1.0
176
     1
 92
        0
176
     1
 66
   257
176
     1
 43
1.0
176
     1
 76
     1
176
     1
 77
     6
176
     1
 78
     2
176
     1
 67
     7
176
     1
 79
     5
176
     1
170
     0
176
     1
171
     0
176
     1
290
     0
176
     1
 93
       13
176
     1
 44
0.0
176
     1
173
     0
176
     1
  0
VISUALSTYLE
  5
31
102
{ACAD_REACTORS
330
2A
102
}
102
{ACAD_XDICTIONARY
360
231
102
}
330
2A
100
AcDbVisualStyle
  2
Hidden
 70
     6
177
     2
291
     0
 71
     1
176
     1
 72
     2
176
     1
 73
     2
176
     1
 90
        0
176
     1
 40
0.6
176
     1
 41
30.0
176
     1
 62
     5
 63
     7
421
 16777215
176
     1
 74
     2
176
     1
 91
        2
176
     1
 64
     7
176
     1
 65
   257
176
     1
 75
     2
176
     1
175
     1
176
     1
 42
40.0
176
     1
 92
        0
176
     1
 66
   257
176
     1
 43
1.0
176
     1
 76
     1
176
     1
 77
     6
176
     1
 78
     2
176
     1
 67
     7
176
     1
 79
     3
176
     1
170
     0
176
     1
171
     0
176
     1
290
     0
176
     1
 93
        1
176
     1
 44
0.0
176
     1
173
     0
176
     1
  0
VISUALSTYLE
  5
3B
102
{ACAD_REACTORS
330
2A
102
}
102
{ACAD_XDICTIONARY
360
245
102
}
330
2A
100
AcDbVisualStyle
  2
JitterOff
 70
    20
177
     2
291
     1
 71
     2
176
     0
 72
     2
176
     0
 73
     0
176
     0
 90
        0
176
     0
 40
0.6
176
     0
 41
30.0
176
     0
 62
     5
 63
     7
421
 16777215
176
     0
 74
     1
176
     0
 91
        4
176
     0
 64
     7
176
     0
 65
   257
176
     0
 75
     1
176
     0
175
     1
176
     0
 42
1.0
176
     0
 92
       10
176
     2
 66
     7
176
     0
 43
1.0
176
     0
 76
     1
176
     0
 77
     6
176
     0
 78
     2
176
     0
 67
     7
176
     0
 79
     5
176
     0
170
     0
176
     0
171
     0
176
     0
290
     0
176
     0
 93
        1
176
     0
 44
0.0
176
     0
173
     0
176
     0
  0
VISUALSTYLE
  5
38
102
{ACAD_REACTORS
330
2A
102
}
102
{ACAD_XDICTIONARY
360
23F
102
}
330
2A
100
AcDbVisualStyle
  2
Linepattern
 70
    14
177
     2
291
     1
 71
     2
176
     1
 72
     2
176
     1
 73
     0
176
     1
 90
        0
176
     1
 40
0.6
176
     1
 41
30.0
176
     1
 62
     5
 63
     7
421
 16777215
176
     1
 74
     1
176
     1
 91
        4
176
     1
 64
     7
176
     1
 65
   257
176
     1
 75
     7
176
     1
175
     7
176
     1
 42
1.0
176
     1
 92
        8
176
     1
 66
     7
176
     1
 43
1.0
176
     1
 76
     1
176
     1
 77
     6
176
     1
 78
     2
176
     1
 67
     7
176
     1
 79
     5
176
     1
170
     0
176
     1
171
     0
176
     1
290
     0
176
     1
 93
        1
176
     1
 44
0.0
176
     1
173
     0
176
     1
  0
VISUALSTYLE
  5
3C
102
{ACAD_REACTORS
330
2A
102
}
102
{ACAD_XDICTIONARY
360
247
102
}
330
2A
100
AcDbVisualStyle
  2
OverhangOff
 70
    21
177
     2
291
     1
 71
     2
176
     0
 72
     2
176
     0
 73
     0
176
     0
 90
        0
176
     0
 40
0.6
176
     0
 41
30.0
176
     0
 62
     5
 63
     7
421
 16777215
176
     0
 74
     1
176
     0
 91
        4
176
     0
 64
     7
176
     0
 65
   257
176
     0
 75
     1
176
     0
175
     1
176
     0
 42
1.0
176
     0
 92
        9
176
     2
 66
     7
176
     0
 43
1.0
176
     0
 76
     1
176
     0
 77
     6
176
     0
 78
     2
176
     0
 67
     7
176
     0
 79
     5
176
     0
170
     0
176
     0
171
     0
176
     0
290
     0
176
     0
 93
        1
176
     0
 44
0.0
176
     0
173
     0
176
     0
  0
VISUALSTYLE
  5
33
102
{ACAD_REACTORS
330
2A
102
}
102
{ACAD_XDICTIONARY
360
235
102
}
330
2A
100
AcDbVisualStyle
  2
Realistic
 70
     8
177
     2
291
     0
 71
     2
176
     1
 72
     3
176
     1
 73
     0
176
     1
 90
        2
176
     1
 40
0.6
176
     1
 41
30.0
176
     1
 62
     5
 63
     7
421
 16777215
176
     1
 74
     0
176
     1
 91
        0
176
     1
 64
     7
176
     1
 65
   257
176
     1
 75
     1
176
     1
175
     1
176
     1
 42
1.0
176
     1
 92
        8
176
     1
 66
   257
176
     1
 43
1.0
176
     1
 76
     1
176
     1
 77
     6
176
     1
 78
     2
176
     1
 67
     7
176
     1
 79
     3
176
     1
170
     0
176
     1
171
     0
176
     1
290
     0
176
     1
 93
       13
176
     1
 44
0.0
176
     1
173
     0
176
     1
  0
VISUALSTYLE
  5
42
102
{ACAD_REACTORS
330
2A
102
}
102
{ACAD_XDICTIONARY
360
253
102
}
330
2A
100
AcDbVisualStyle
  2
Shaded
 70
    27
177
     2
291
     0
 71
     2
176
     1
 72
     2
176
     1
 73
     1
176
     1
 90
        2
176
     1
 40
0.6
176
     1
 41
30.0
176
     1
 62
     5
 63
     7
421
 16777215
176
     1
 74
     0
176
     1
 91
        4
176
     1
 64
     7
176
     1
 65
   257
176
     1
 75
     1
176
     1
175
     1
176
     1
 42
1.0
176
     1
 92
        8
176
     1
 66
   257
176
     1
 43
1.0
176
     1
 76
     1
176
     1
 77
     6
176
     1
 78
     2
176
     1
 67
     8
425
  7895160
176
     1
 79
     3
176
     1
170
     0
176
     1
171
     0
176
     1
290
     0
176
     1
 93
        5
176
     1
 44
0.0
176
     1
173
     0
176
     1
  0
VISUALSTYLE
  5
41
102
{ACAD_REACTORS
330
2A
102
}
102
{ACAD_XDICTIONARY
360
251
102
}
330
2A
100
AcDbVisualStyle
  2
Shaded with edges
 70
    26
177
     2
291
     0
 71
     2
176
     1
 72
     2
176
     1
 73
     1
176
     1
 90
        2
176
     1
 40
0.6
176
     1
 41
30.0
176
     1
 62
     5
 63
     7
421
 16777215
176
     1
 74
     1
176
     1
 91
       10
176
     1
 64
     7
176
     1
 65
   257
176
     1
 75
     2
176
     1
175
     1
176
     1
 42
1.0
176
     1
 92
        8
176
     1
 66
   257
176
     1
 43
1.0
176
     1
 76
     1
176
     1
 77
     6
176
     1
 78
     2
176
     1
 67
     7
176
     1
 79
     3
176
     1
170
     0
176
     1
171
     0
176
     1
290
     0
176
     1
 93
        5
176
     1
 44
0.0
176
     1
173
     0
176
     1
  0
VISUALSTYLE
  5
3E
102
{ACAD_REACTORS
330
2A
102
}
102
{ACAD_XDICTIONARY
360
24B
102
}
330
2A
100
AcDbVisualStyle
  2
Shades of Gray
 70
    23
177
     2
291
     0
 71
     2
176
     1
 72
     2
176
     1
 73
     3
176
     1
 90
        0
176
     1
 40
0.6
176
     1
 41
30.0
176
     1
 62
     5
 63
     7
421
 16777215
176
     1
 74
     2
176
     1
 91
        2
176
     1
 64
     7
176
     1
 65
     7
176
     1
 75
     1
176
     1
175
     1
176
     1
 42
40.0
176
     1
 92
        8
176
     1
 66
     7
176
     1
 43
1.0
176
     1
 76
     1
176
     1
 77
     6
176
     1
 78
     2
176
     1
 67
     7
176
     1
 79
     3
176
     1
170
     0
176
     1
171
     0
176
     1
290
     0
176
     1
 93
        1
176
     1
 44
0.0
176
     1
173
     0
176
     1
  0
VISUALSTYLE
  5
3F
102
{ACAD_REACTORS
330
2A
102
}
102
{ACAD_XDICTIONARY
360
24D
102
}
330
2A
100
AcDbVisualStyle
  2
Sketchy
 70
    24
177
     2
291
     0
 71
     1
176
     1
 72
     2
176
     1
 73
     2
176
     1
 90
        0
176
     1
 40
0.6
176
     1
 41
30.0
176
     1
 62
     5
 63
     7
421
 16777215
176
     1
 74
     2
176
     1
 91
        2
176
     1
 64
     7
176
     1
 65
     7
176
     1
 75
     1
176
     1
175
     1
176
     1
 42
40.0
176
     1
 92
       11
176
     1
 66
     7
176
     1
 43
1.0
176
     1
 76
     1
176
     1
 77
     6
176
     1
 78
     2
176
     1
 67
     7
176
     1
 79
     6
176
     1
170
     0
176
     1
171
     0
176
     1
290
     0
176
     1
 93
        1
176
     1
 44
0.0
176
     1
173
     0
176
     1
  0
VISUALSTYLE
  5
37
102
{ACAD_REACTORS
330
2A
102
}
102
{ACAD_XDICTIONARY
360
23D
102
}
330
2A
100
AcDbVisualStyle
  2
Thicken
 70
    13
177
     2
291
     1
 71
     2
176
     1
 72
     2
176
     1
 73
     0
176
     1
 90
        0
176
     1
 40
0.6
176
     1
 41
30.0
176
     1
 62
     5
 63
     7
421
 16777215
176
     1
 74
     1
176
     1
 91
        4
176
     1
 64
     7
176
     1
 65
   257
176
     1
 75
     1
176
     1
175
     1
176
     1
 42
1.0
176
     1
 92
       12
176
     1
 66
     7
176
     1
 43
1.0
176
     1
 76
     1
176
     1
 77
     6
176
     1
 78
     2
176
     1
 67
     7
176
     1
 79
     5
176
     1
170
     0
176
     1
171
     0
176
     1
290
     0
176
     1
 93
        1
176
     1
 44
0.0
176
     1
173
     0
176
     1
  0
VISUALSTYLE
  5
30
102
{ACAD_REACTORS
330
2A
102
}
102
{ACAD_XDICTIONARY
360
22F
102
}
330
2A
100
AcDbVisualStyle
  2
Wireframe
 70
     5
177
     2
291
     0
 71
     0
176
     1
 72
     2
176
     1
 73
     0
176
     1
 90
        0
176
     1
 40
0.6
176
     1
 41
30.0
176
     1
 62
     5
 63
     7
421
 16777215
176
     1
 74
     1
176
     1
 91
        4
176
     1
 64
     7
176
     1
 65
   257
176
     1
 75
     1
176
     1
175
     1
176
     1
 42
1.0
176
     1
 92
        0
176
     1
 66
   257
176
     1
 43
1.0
176
     1
 76
     1
176
     1
 77
     6
176
     1
 78
     2
176
     1
 67
     7
176
     1
 79
     3
176
     1
170
     0
176
     1
171
     0
176
     1
290
     0
176
     1
 93
        1
176
     1
 44
0.0
176
     1
173
     0
176
     1
  0
VISUALSTYLE
  5
40
102
{ACAD_REACTORS
330
2A
102
}
102
{ACAD_XDICTIONARY
360
24F
102
}
330
2A
100
AcDbVisualStyle
  2
X-Ray
 70
    25
177
     2
291
     0
 71
     2
176
     1
 72
     2
176
     1
 73
     1
176
     1
 90
        1
176
     1
 40
0.5
176
     1
 41
30.0
176
     1
 62
     5
 63
     7
421
 16777215
176
     1
 74
     1
176
     1
 91
        0
176
     1
 64
     7
176
     1
 65
   257
176
     1
 75
     1
176
     1
175
     1
176
     1
 42
1.0
176
     1
 92
        8
176
     1
 66
     7
176
     1
 43
1.0
176
     1
 76
     1
176
     1
 77
     6
176
     1
 78
     2
176
     1
 67
     7
176
     1
 79
     3
176
     1
170
     0
176
     1
171
     0
176
     1
290
     0
176
     1
 93
       13
176
     1
 44
0.0
176
     1
173
     0
176
     1
  0
DICTIONARYVAR
  5
224
102
{ACAD_REACTORS
330
223
102
}
330
223
100
DictionaryVariables
280
     0
  1
1:1
  0
DICTIONARYVAR
  5
259
102
{ACAD_REACTORS
330
223
102
}
330
223
100
DictionaryVariables
280
     0
  1
Standard
  0
DICTIONARYVAR
  5
258
102
{ACAD_REACTORS
330
223
102
}
330
223
100
DictionaryVariables
280
     0
  1
Standard
  0
DICTIONARY
  5
255
330
6A
100
AcDbDictionary
280
     1
281
     1
  3
ACAD_ROUNDTRIP_2008_TABLESTYLE_CELLSTYLEMAP
360
256
  0
DICTIONARY
  5
22D
330
2F
100
AcDbDictionary
280
     1
281
     1
  3
ACAD_XREC_ROUNDTRIP
360
22E
  0
DICTIONARY
  5
233
330
32
100
AcDbDictionary
280
     1
281
     1
  3
ACAD_XREC_ROUNDTRIP
360
234
  0
DICTIONARY
  5
23B
330
36
100
AcDbDictionary
280
     1
281
     1
  3
ACAD_XREC_ROUNDTRIP
360
23C
  0
DICTIONARY
  5
243
330
3A
100
AcDbDictionary
280
     1
281
     1
  3
ACAD_XREC_ROUNDTRIP
360
244
  0
DICTIONARY
  5
237
330
34
100
AcDbDictionary
280
     1
281
     1
  3
ACAD_XREC_ROUNDTRIP
360
238
  0
DICTIONARY
  5
239
330
35
100
AcDbDictionary
280
     1
281
     1
  3
ACAD_XREC_ROUNDTRIP
360
23A
  0
DICTIONARY
  5
249
330
3D
100
AcDbDictionary
280
     1
281
     1
  3
ACAD_XREC_ROUNDTRIP
360
24A
  0
DICTIONARY
  5
241
330
39
100
AcDbDictionary
280
     1
281
     1
  3
ACAD_XREC_ROUNDTRIP
360
242
  0
DICTIONARY
  5
225
330
2B
100
AcDbDictionary
280
     1
281
     1
  3
ACAD_XREC_ROUNDTRIP
360
226
  0
DICTIONARY
  5
227
330
2C
100
AcDbDictionary
280
     1
281
     1
  3
ACAD_XREC_ROUNDTRIP
360
228
  0
DICTIONARY
  5
229
330
2D
100
AcDbDictionary
280
     1
281
     1
  3
ACAD_XREC_ROUNDTRIP
360
22A
  0
DICTIONARY
  5
22B
330
2E
100
AcDbDictionary
280
     1
281
     1
  3
ACAD_XREC_ROUNDTRIP
360
22C
  0
DICTIONARY
  5
231
330
31
100
AcDbDictionary
280
     1
281
     1
  3
ACAD_XREC_ROUNDTRIP
360
232
  0
DICTIONARY
  5
245
330
3B
100
AcDbDictionary
280
     1
281
     1
  3
ACAD_XREC_ROUNDTRIP
360
246
  0
DICTIONARY
  5
23F
330
38
100
AcDbDictionary
280
     1
281
     1
  3
ACAD_XREC_ROUNDTRIP
360
240
  0
DICTIONARY
  5
247
330
3C
100
AcDbDictionary
280
     1
281
     1
  3
ACAD_XREC_ROUNDTRIP
360
248
  0
DICTIONARY
  5
235
330
33
100
AcDbDictionary
280
     1
281
     1
  3
ACAD_XREC_ROUNDTRIP
360
236
  0
DICTIONARY
  5
253
330
42
100
AcDbDictionary
280
     1
281
     1
  3
ACAD_XREC_ROUNDTRIP
360
254
  0
DICTIONARY
  5
251
330
41
100
AcDbDictionary
280
     1
281
     1
  3
ACAD_XREC_ROUNDTRIP
360
252
  0
DICTIONARY
  5
24B
330
3E
100
AcDbDictionary
280
     1
281
     1
  3
ACAD_XREC_ROUNDTRIP
360
24C
  0
DICTIONARY
  5
24D
330
3F
100
AcDbDictionary
280
     1
281
     1
  3
ACAD_XREC_ROUNDTRIP
360
24E
  0
DICTIONARY
  5
23D
330
37
100
AcDbDictionary
280
     1
281
     1
  3
ACAD_XREC_ROUNDTRIP
360
23E
  0
DICTIONARY
  5
22F
330
30
100
AcDbDictionary
280
     1
281
     1
  3
ACAD_XREC_ROUNDTRIP
360
230
  0
DICTIONARY
  5
24F
330
40
100
AcDbDictionary
280
     1
281
     1
  3
ACAD_XREC_ROUNDTRIP
360
250
  0
CELLSTYLEMAP
  5
256
102
{ACAD_REACTORS
330
255
102
}
330
255
100
AcDbCellStyleMap
 90
        3
300
CELLSTYLE
  1
TABLEFORMAT_BEGIN
 90
        5
170
     1
 91
        0
 92
    32768
 62
   257
 93
        1
300
CONTENTFORMAT
  1
CONTENTFORMAT_BEGIN
 90
        0
 91
        0
 92
        4
 93
        0
300

 40
0.0
140
1.0
 94
        5
 62
     0
340
11
144
6.0
309
CONTENTFORMAT_END
171
     1
301
MARGIN
  1
CELLMARGIN_BEGIN
 40
1.5
 40
1.5
 40
1.5
 40
1.5
 40
1.5
 40
1.5
309
CELLMARGIN_END
 94
        6
 95
        1
302
GRIDFORMAT
  1
GRIDFORMAT_BEGIN
 90
        0
 91
        1
 62
     0
 92
       -2
340
14
 93
        0
 40
0.045
309
GRIDFORMAT_END
 95
        2
302
GRIDFORMAT
  1
GRIDFORMAT_BEGIN
 90
        0
 91
        1
 62
     0
 92
       -2
340
14
 93
        0
 40
0.045
309
GRIDFORMAT_END
 95
        4
302
GRIDFORMAT
  1
GRIDFORMAT_BEGIN
 90
        0
 91
        1
 62
     0
 92
       -2
340
14
 93
        0
 40
0.045
309
GRIDFORMAT_END
 95
        8
302
GRIDFORMAT
  1
GRIDFORMAT_BEGIN
 90
        0
 91
        1
 62
     0
 92
       -2
340
14
 93
        0
 40
0.045
309
GRIDFORMAT_END
 95
       16
302
GRIDFORMAT
  1
GRIDFORMAT_BEGIN
 90
        0
 91
        1
 62
     0
 92
       -2
340
14
 93
        0
 40
0.045
309
GRIDFORMAT_END
 95
       32
302
GRIDFORMAT
  1
GRIDFORMAT_BEGIN
 90
        0
 91
        1
 62
     0
 92
       -2
340
14
 93
        0
 40
0.045
309
GRIDFORMAT_END
309
TABLEFORMAT_END
  1
CELLSTYLE_BEGIN
 90
        1
 91
        1
300
_TITLE
309
CELLSTYLE_END
300
CELLSTYLE
  1
TABLEFORMAT_BEGIN
 90
        5
170
     1
 91
        0
 92
        0
 62
   257
 93
        1
300
CONTENTFORMAT
  1
CONTENTFORMAT_BEGIN
 90
        0
 91
        0
 92
        4
 93
        0
300

 40
0.0
140
1.0
 94
        5
 62
     0
340
11
144
4.5
309
CONTENTFORMAT_END
171
     1
301
MARGIN
  1
CELLMARGIN_BEGIN
 40
1.5
 40
1.5
 40
1.5
 40
1.5
 40
1.5
 40
1.5
309
CELLMARGIN_END
 94
        6
 95
        1
302
GRIDFORMAT
  1
GRIDFORMAT_BEGIN
 90
        0
 91
        1
 62
     0
 92
       -2
340
14
 93
        0
 40
0.045
309
GRIDFORMAT_END
 95
        2
302
GRIDFORMAT
  1
GRIDFORMAT_BEGIN
 90
        0
 91
        1
 62
     0
 92
       -2
340
14
 93
        0
 40
0.045
309
GRIDFORMAT_END
 95
        4
302
GRIDFORMAT
  1
GRIDFORMAT_BEGIN
 90
        0
 91
        1
 62
     0
 92
       -2
340
14
 93
        0
 40
0.045
309
GRIDFORMAT_END
 95
        8
302
GRIDFORMAT
  1
GRIDFORMAT_BEGIN
 90
        0
 91
        1
 62
     0
 92
       -2
340
14
 93
        0
 40
0.045
309
GRIDFORMAT_END
 95
       16
302
GRIDFORMAT
  1
GRIDFORMAT_BEGIN
 90
        0
 91
        1
 62
     0
 92
       -2
340
14
 93
        0
 40
0.045
309
GRIDFORMAT_END
 95
       32
302
GRIDFORMAT
  1
GRIDFORMAT_BEGIN
 90
        0
 91
        1
 62
     0
 92
       -2
340
14
 93
        0
 40
0.045
309
GRIDFORMAT_END
309
TABLEFORMAT_END
  1
CELLSTYLE_BEGIN
 90
        2
 91
        1
300
_HEADER
309
CELLSTYLE_END
300
CELLSTYLE
  1
TABLEFORMAT_BEGIN
 90
        5
170
     1
 91
        0
 92
        0
 62
   257
 93
        1
300
CONTENTFORMAT
  1
CONTENTFORMAT_BEGIN
 90
        0
 91
        0
 92
        4
 93
        0
300

 40
0.0
140
1.0
 94
        2
 62
     0
340
11
144
4.5
309
CONTENTFORMAT_END
171
     1
301
MARGIN
  1
CELLMARGIN_BEGIN
 40
1.5
 40
1.5
 40
1.5
 40
1.5
 40
1.5
 40
1.5
309
CELLMARGIN_END
 94
        6
 95
        1
302
GRIDFORMAT
  1
GRIDFORMAT_BEGIN
 90
        0
 91
        1
 62
     0
 92
       -2
340
14
 93
        0
 40
0.045
309
GRIDFORMAT_END
 95
        2
302
GRIDFORMAT
  1
GRIDFORMAT_BEGIN
 90
        0
 91
        1
 62
     0
 92
       -2
340
14
 93
        0
 40
0.045
309
GRIDFORMAT_END
 95
        4
302
GRIDFORMAT
  1
GRIDFORMAT_BEGIN
 90
        0
 91
        1
 62
     0
 92
       -2
340
14
 93
        0
 40
0.045
309
GRIDFORMAT_END
 95
        8
302
GRIDFORMAT
  1
GRIDFORMAT_BEGIN
 90
        0
 91
        1
 62
     0
 92
       -2
340
14
 93
        0
 40
0.045
309
GRIDFORMAT_END
 95
       16
302
GRIDFORMAT
  1
GRIDFORMAT_BEGIN
 90
        0
 91
        1
 62
     0
 92
       -2
340
14
 93
        0
 40
0.045
309
GRIDFORMAT_END
 95
       32
302
GRIDFORMAT
  1
GRIDFORMAT_BEGIN
 90
        0
 91
        1
 62
     0
 92
       -2
340
14
 93
        0
 40
0.045
309
GRIDFORMAT_END
309
TABLEFORMAT_END
  1
CELLSTYLE_BEGIN
 90
        3
 91
        2
300
_DATA
309
CELLSTYLE_END
  0
XRECORD
  5
22E
102
{ACAD_REACTORS
330
22D
102
}
330
22D
100
AcDbXrecord
280
     1
102
RTVSPost2010Prop28
280
     1
102
RTVSPost2010PropOp28
 70
     1
102
RTVSPost2010Prop29
280
     1
102
RTVSPost2010PropOp29
 70
     1
102
RTVSPost2010Prop30
280
     0
102
RTVSPost2010PropOp30
 70
     1
102
RTVSPost2010Prop31
280
     0
102
RTVSPost2010PropOp31
 70
     1
102
RTVSPost2010Prop32
280
     0
102
RTVSPost2010PropOp32
 70
     1
102
RTVSPost2010Prop33
280
     0
102
RTVSPost2010PropOp33
 70
     1
102
RTVSPost2010Prop34
280
     0
102
RTVSPost2010PropOp34
 70
     1
102
RTVSPost2010Prop35
280
     0
102
RTVSPost2010PropOp35
 70
     1
102
RTVSPost2010Prop36
280
     0
102
RTVSPost2010PropOp36
 70
     1
102
RTVSPost2010Prop37
 90
       50
102
RTVSPost2010PropOp37
 70
     1
102
RTVSPost2010Prop38
140
0.0
102
RTVSPost2010PropOp38
 70
     1
102
RTVSPost2010Prop39
140
1.0
102
RTVSPost2010PropOp39
 70
     1
102
RTVSPost2010Prop40
 90
        0
102
RTVSPost2010PropOp40
 70
     1
102
RTVSPost2010Prop41ColorIndex
 90
       18
102
RTVSPost2010Prop41ColorRGB
 90
        0
102
RTVSPost2010PropOp41
 70
     1
102
RTVSPost2010Prop42
 90
       50
102
RTVSPost2010PropOp42
 70
     1
102
RTVSPost2010Prop43
 90
        3
102
RTVSPost2010PropOp43
 70
     1
102
RTVSPost2010Prop44ColorIndex
 90
        5
102
RTVSPost2010Prop44ColorRGB
 90
      255
102
RTVSPost2010PropOp44
 70
     1
102
RTVSPost2010Prop45
280
     0
102
RTVSPost2010PropOp45
 70
     1
102
RTVSPost2010Prop46
 90
       50
102
RTVSPost2010PropOp46
 70
     1
102
RTVSPost2010Prop47
 90
       50
102
RTVSPost2010PropOp47
 70
     1
102
RTVSPost2010Prop48
 90
       50
102
RTVSPost2010PropOp48
 70
     1
102
RTVSPost2010Prop49
280
     0
102
RTVSPost2010PropOp49
 70
     1
102
RTVSPost2010Prop50
 90
       50
102
RTVSPost2010PropOp50
 70
     1
102
RTVSPost2010Prop51ColorIndex
 90
      256
102
RTVSPost2010Prop51ColorRGB
 90
-16777216
102
RTVSPost2010PropOp51
 70
     0
102
RTVSPost2010Prop52
140
1.0
102
RTVSPost2010PropOp52
 70
     0
102
RTVSPost2010Prop53
 90
        2
102
RTVSPost2010PropOp53
 70
     1
102
RTVSPost2010Prop54
  1
strokes_ogs.tif
102
RTVSPost2010PropOp54
 70
     1
102
RTVSPost2010Prop55
280
     0
102
RTVSPost2010PropOp55
 70
     1
102
RTVSPost2010Prop56
140
1.0
102
RTVSPost2010PropOp56
 70
     1
102
RTVSPost2010Prop57
140
1.0
102
RTVSPost2010PropOp57
 70
     1
  0
XRECORD
  5
234
102
{ACAD_REACTORS
330
233
102
}
330
233
100
AcDbXrecord
280
     1
102
RTVSPost2010Prop28
280
     0
102
RTVSPost2010PropOp28
 70
     1
102
RTVSPost2010Prop29
280
     1
102
RTVSPost2010PropOp29
 70
     1
102
RTVSPost2010Prop30
280
     1
102
RTVSPost2010PropOp30
 70
     1
102
RTVSPost2010Prop31
280
     0
102
RTVSPost2010PropOp31
 70
     1
102
RTVSPost2010Prop32
280
     0
102
RTVSPost2010PropOp32
 70
     1
102
RTVSPost2010Prop33
280
     0
102
RTVSPost2010PropOp33
 70
     1
102
RTVSPost2010Prop34
280
     0
102
RTVSPost2010PropOp34
 70
     1
102
RTVSPost2010Prop35
280
     0
102
RTVSPost2010PropOp35
 70
     1
102
RTVSPost2010Prop36
280
     0
102
RTVSPost2010PropOp36
 70
     1
102
RTVSPost2010Prop37
 90
       50
102
RTVSPost2010PropOp37
 70
     1
102
RTVSPost2010Prop38
140
0.0
102
RTVSPost2010PropOp38
 70
     1
102
RTVSPost2010Prop39
140
1.0
102
RTVSPost2010PropOp39
 70
     1
102
RTVSPost2010Prop40
 90
        0
102
RTVSPost2010PropOp40
 70
     1
102
RTVSPost2010Prop41ColorIndex
 90
       18
102
RTVSPost2010Prop41ColorRGB
 90
        0
102
RTVSPost2010PropOp41
 70
     1
102
RTVSPost2010Prop42
 90
       50
102
RTVSPost2010PropOp42
 70
     1
102
RTVSPost2010Prop43
 90
        3
102
RTVSPost2010PropOp43
 70
     1
102
RTVSPost2010Prop44ColorIndex
 90
        5
102
RTVSPost2010Prop44ColorRGB
 90
      255
102
RTVSPost2010PropOp44
 70
     1
102
RTVSPost2010Prop45
280
     0
102
RTVSPost2010PropOp45
 70
     1
102
RTVSPost2010Prop46
 90
       50
102
RTVSPost2010PropOp46
 70
     1
102
RTVSPost2010Prop47
 90
       50
102
RTVSPost2010PropOp47
 70
     1
102
RTVSPost2010Prop48
 90
       50
102
RTVSPost2010PropOp48
 70
     1
102
RTVSPost2010Prop49
280
     0
102
RTVSPost2010PropOp49
 70
     1
102
RTVSPost2010Prop50
 90
       50
102
RTVSPost2010PropOp50
 70
     1
102
RTVSPost2010Prop51ColorIndex
 90
      256
102
RTVSPost2010Prop51ColorRGB
 90
-16777216
102
RTVSPost2010PropOp51
 70
     0
102
RTVSPost2010Prop52
140
1.0
102
RTVSPost2010PropOp52
 70
     0
102
RTVSPost2010Prop53
 90
        2
102
RTVSPost2010PropOp53
 70
     1
102
RTVSPost2010Prop54
  1
strokes_ogs.tif
102
RTVSPost2010PropOp54
 70
     1
102
RTVSPost2010Prop55
280
     0
102
RTVSPost2010PropOp55
 70
     1
102
RTVSPost2010Prop56
140
1.0
102
RTVSPost2010PropOp56
 70
     1
102
RTVSPost2010Prop57
140
1.0
102
RTVSPost2010PropOp57
 70
     1
  0
XRECORD
  5
23C
102
{ACAD_REACTORS
330
23B
102
}
330
23B
100
AcDbXrecord
280
     1
102
RTVSPost2010Prop28
280
     0
102
RTVSPost2010PropOp28
 70
     1
102
RTVSPost2010Prop29
280
     1
102
RTVSPost2010PropOp29
 70
     1
102
RTVSPost2010Prop30
280
     1
102
RTVSPost2010PropOp30
 70
     1
102
RTVSPost2010Prop31
280
     0
102
RTVSPost2010PropOp31
 70
     1
102
RTVSPost2010Prop32
280
     0
102
RTVSPost2010PropOp32
 70
     1
102
RTVSPost2010Prop33
280
     0
102
RTVSPost2010PropOp33
 70
     1
102
RTVSPost2010Prop34
280
     0
102
RTVSPost2010PropOp34
 70
     1
102
RTVSPost2010Prop35
280
     0
102
RTVSPost2010PropOp35
 70
     1
102
RTVSPost2010Prop36
280
     0
102
RTVSPost2010PropOp36
 70
     1
102
RTVSPost2010Prop37
 90
       50
102
RTVSPost2010PropOp37
 70
     1
102
RTVSPost2010Prop38
140
0.0
102
RTVSPost2010PropOp38
 70
     1
102
RTVSPost2010Prop39
140
1.0
102
RTVSPost2010PropOp39
 70
     1
102
RTVSPost2010Prop40
 90
        0
102
RTVSPost2010PropOp40
 70
     1
102
RTVSPost2010Prop41ColorIndex
 90
       18
102
RTVSPost2010Prop41ColorRGB
 90
        0
102
RTVSPost2010PropOp41
 70
     1
102
RTVSPost2010Prop42
 90
       50
102
RTVSPost2010PropOp42
 70
     1
102
RTVSPost2010Prop43
 90
        3
102
RTVSPost2010PropOp43
 70
     1
102
RTVSPost2010Prop44ColorIndex
 90
        5
102
RTVSPost2010Prop44ColorRGB
 90
      255
102
RTVSPost2010PropOp44
 70
     1
102
RTVSPost2010Prop45
280
     0
102
RTVSPost2010PropOp45
 70
     1
102
RTVSPost2010Prop46
 90
       50
102
RTVSPost2010PropOp46
 70
     1
102
RTVSPost2010Prop47
 90
       50
102
RTVSPost2010PropOp47
 70
     1
102
RTVSPost2010Prop48
 90
       50
102
RTVSPost2010PropOp48
 70
     1
102
RTVSPost2010Prop49
280
     0
102
RTVSPost2010PropOp49
 70
     1
102
RTVSPost2010Prop50
 90
       50
102
RTVSPost2010PropOp50
 70
     1
102
RTVSPost2010Prop51ColorIndex
 90
      256
102
RTVSPost2010Prop51ColorRGB
 90
-16777216
102
RTVSPost2010PropOp51
 70
     0
102
RTVSPost2010Prop52
140
1.0
102
RTVSPost2010PropOp52
 70
     0
102
RTVSPost2010Prop53
 90
        2
102
RTVSPost2010PropOp53
 70
     1
102
RTVSPost2010Prop54
  1
strokes_ogs.tif
102
RTVSPost2010PropOp54
 70
     1
102
RTVSPost2010Prop55
280
     0
102
RTVSPost2010PropOp55
 70
     1
102
RTVSPost2010Prop56
140
1.0
102
RTVSPost2010PropOp56
 70
     1
102
RTVSPost2010Prop57
140
1.0
102
RTVSPost2010PropOp57
 70
     1
  0
XRECORD
  5
244
102
{ACAD_REACTORS
330
243
102
}
330
243
100
AcDbXrecord
280
     1
102
RTVSPost2010Prop28
280
     0
102
RTVSPost2010PropOp28
 70
     1
102
RTVSPost2010Prop29
280
     1
102
RTVSPost2010PropOp29
 70
     1
102
RTVSPost2010Prop30
280
     1
102
RTVSPost2010PropOp30
 70
     1
102
RTVSPost2010Prop31
280
     0
102
RTVSPost2010PropOp31
 70
     1
102
RTVSPost2010Prop32
280
     0
102
RTVSPost2010PropOp32
 70
     1
102
RTVSPost2010Prop33
280
     0
102
RTVSPost2010PropOp33
 70
     1
102
RTVSPost2010Prop34
280
     0
102
RTVSPost2010PropOp34
 70
     1
102
RTVSPost2010Prop35
280
     0
102
RTVSPost2010PropOp35
 70
     1
102
RTVSPost2010Prop36
280
     0
102
RTVSPost2010PropOp36
 70
     1
102
RTVSPost2010Prop37
 90
       50
102
RTVSPost2010PropOp37
 70
     1
102
RTVSPost2010Prop38
140
0.0
102
RTVSPost2010PropOp38
 70
     1
102
RTVSPost2010Prop39
140
1.0
102
RTVSPost2010PropOp39
 70
     1
102
RTVSPost2010Prop40
 90
        0
102
RTVSPost2010PropOp40
 70
     1
102
RTVSPost2010Prop41ColorIndex
 90
       18
102
RTVSPost2010Prop41ColorRGB
 90
        0
102
RTVSPost2010PropOp41
 70
     1
102
RTVSPost2010Prop42
 90
       50
102
RTVSPost2010PropOp42
 70
     1
102
RTVSPost2010Prop43
 90
        3
102
RTVSPost2010PropOp43
 70
     1
102
RTVSPost2010Prop44ColorIndex
 90
        5
102
RTVSPost2010Prop44ColorRGB
 90
      255
102
RTVSPost2010PropOp44
 70
     1
102
RTVSPost2010Prop45
280
     0
102
RTVSPost2010PropOp45
 70
     1
102
RTVSPost2010Prop46
 90
       50
102
RTVSPost2010PropOp46
 70
     1
102
RTVSPost2010Prop47
 90
       50
102
RTVSPost2010PropOp47
 70
     1
102
RTVSPost2010Prop48
 90
       50
102
RTVSPost2010PropOp48
 70
     1
102
RTVSPost2010Prop49
280
     0
102
RTVSPost2010PropOp49
 70
     1
102
RTVSPost2010Prop50
 90
       50
102
RTVSPost2010PropOp50
 70
     1
102
RTVSPost2010Prop51ColorIndex
 90
      256
102
RTVSPost2010Prop51ColorRGB
 90
-16777216
102
RTVSPost2010PropOp51
 70
     0
102
RTVSPost2010Prop52
140
1.0
102
RTVSPost2010PropOp52
 70
     0
102
RTVSPost2010Prop53
 90
        2
102
RTVSPost2010PropOp53
 70
     1
102
RTVSPost2010Prop54
  1
strokes_ogs.tif
102
RTVSPost2010PropOp54
 70
     1
102
RTVSPost2010Prop55
280
     0
102
RTVSPost2010PropOp55
 70
     1
102
RTVSPost2010Prop56
140
1.0
102
RTVSPost2010PropOp56
 70
     1
102
RTVSPost2010Prop57
140
1.0
102
RTVSPost2010PropOp57
 70
     1
  0
XRECORD
  5
238
102
{ACAD_REACTORS
330
237
102
}
330
237
100
AcDbXrecord
280
     1
102
RTVSPost2010Prop28
280
     0
102
RTVSPost2010PropOp28
 70
     1
102
RTVSPost2010Prop29
280
     1
102
RTVSPost2010PropOp29
 70
     1
102
RTVSPost2010Prop30
280
     1
102
RTVSPost2010PropOp30
 70
     1
102
RTVSPost2010Prop31
280
     0
102
RTVSPost2010PropOp31
 70
     1
102
RTVSPost2010Prop32
280
     0
102
RTVSPost2010PropOp32
 70
     1
102
RTVSPost2010Prop33
280
     0
102
RTVSPost2010PropOp33
 70
     1
102
RTVSPost2010Prop34
280
     0
102
RTVSPost2010PropOp34
 70
     1
102
RTVSPost2010Prop35
280
     0
102
RTVSPost2010PropOp35
 70
     1
102
RTVSPost2010Prop36
280
     0
102
RTVSPost2010PropOp36
 70
     1
102
RTVSPost2010Prop37
 90
       50
102
RTVSPost2010PropOp37
 70
     1
102
RTVSPost2010Prop38
140
0.0
102
RTVSPost2010PropOp38
 70
     1
102
RTVSPost2010Prop39
140
1.0
102
RTVSPost2010PropOp39
 70
     1
102
RTVSPost2010Prop40
 90
        0
102
RTVSPost2010PropOp40
 70
     1
102
RTVSPost2010Prop41ColorIndex
 90
       18
102
RTVSPost2010Prop41ColorRGB
 90
        0
102
RTVSPost2010PropOp41
 70
     1
102
RTVSPost2010Prop42
 90
       50
102
RTVSPost2010PropOp42
 70
     1
102
RTVSPost2010Prop43
 90
        3
102
RTVSPost2010PropOp43
 70
     1
102
RTVSPost2010Prop44ColorIndex
 90
        5
102
RTVSPost2010Prop44ColorRGB
 90
      255
102
RTVSPost2010PropOp44
 70
     1
102
RTVSPost2010Prop45
280
     0
102
RTVSPost2010PropOp45
 70
     1
102
RTVSPost2010Prop46
 90
       50
102
RTVSPost2010PropOp46
 70
     1
102
RTVSPost2010Prop47
 90
       50
102
RTVSPost2010PropOp47
 70
     1
102
RTVSPost2010Prop48
 90
       50
102
RTVSPost2010PropOp48
 70
     1
102
RTVSPost2010Prop49
280
     0
102
RTVSPost2010PropOp49
 70
     1
102
RTVSPost2010Prop50
 90
       50
102
RTVSPost2010PropOp50
 70
     1
102
RTVSPost2010Prop51ColorIndex
 90
      256
102
RTVSPost2010Prop51ColorRGB
 90
-16777216
102
RTVSPost2010PropOp51
 70
     0
102
RTVSPost2010Prop52
140
1.0
102
RTVSPost2010PropOp52
 70
     0
102
RTVSPost2010Prop53
 90
        2
102
RTVSPost2010PropOp53
 70
     1
102
RTVSPost2010Prop54
  1
strokes_ogs.tif
102
RTVSPost2010PropOp54
 70
     1
102
RTVSPost2010Prop55
280
     0
102
RTVSPost2010PropOp55
 70
     1
102
RTVSPost2010Prop56
140
1.0
102
RTVSPost2010PropOp56
 70
     1
102
RTVSPost2010Prop57
140
1.0
102
RTVSPost2010PropOp57
 70
     1
  0
XRECORD
  5
23A
102
{ACAD_REACTORS
330
239
102
}
330
239
100
AcDbXrecord
280
     1
102
RTVSPost2010Prop28
280
     0
102
RTVSPost2010PropOp28
 70
     1
102
RTVSPost2010Prop29
280
     1
102
RTVSPost2010PropOp29
 70
     1
102
RTVSPost2010Prop30
280
     1
102
RTVSPost2010PropOp30
 70
     1
102
RTVSPost2010Prop31
280
     0
102
RTVSPost2010PropOp31
 70
     1
102
RTVSPost2010Prop32
280
     0
102
RTVSPost2010PropOp32
 70
     1
102
RTVSPost2010Prop33
280
     0
102
RTVSPost2010PropOp33
 70
     1
102
RTVSPost2010Prop34
280
     0
102
RTVSPost2010PropOp34
 70
     1
102
RTVSPost2010Prop35
280
     0
102
RTVSPost2010PropOp35
 70
     1
102
RTVSPost2010Prop36
280
     0
102
RTVSPost2010PropOp36
 70
     1
102
RTVSPost2010Prop37
 90
       50
102
RTVSPost2010PropOp37
 70
     1
102
RTVSPost2010Prop38
140
0.0
102
RTVSPost2010PropOp38
 70
     1
102
RTVSPost2010Prop39
140
1.0
102
RTVSPost2010PropOp39
 70
     1
102
RTVSPost2010Prop40
 90
        0
102
RTVSPost2010PropOp40
 70
     1
102
RTVSPost2010Prop41ColorIndex
 90
       18
102
RTVSPost2010Prop41ColorRGB
 90
        0
102
RTVSPost2010PropOp41
 70
     1
102
RTVSPost2010Prop42
 90
       50
102
RTVSPost2010PropOp42
 70
     1
102
RTVSPost2010Prop43
 90
        3
102
RTVSPost2010PropOp43
 70
     1
102
RTVSPost2010Prop44ColorIndex
 90
        5
102
RTVSPost2010Prop44ColorRGB
 90
      255
102
RTVSPost2010PropOp44
 70
     1
102
RTVSPost2010Prop45
280
     0
102
RTVSPost2010PropOp45
 70
     1
102
RTVSPost2010Prop46
 90
       50
102
RTVSPost2010PropOp46
 70
     1
102
RTVSPost2010Prop47
 90
       50
102
RTVSPost2010PropOp47
 70
     1
102
RTVSPost2010Prop48
 90
       50
102
RTVSPost2010PropOp48
 70
     1
102
RTVSPost2010Prop49
280
     0
102
RTVSPost2010PropOp49
 70
     1
102
RTVSPost2010Prop50
 90
       50
102
RTVSPost2010PropOp50
 70
     1
102
RTVSPost2010Prop51ColorIndex
 90
      256
102
RTVSPost2010Prop51ColorRGB
 90
-16777216
102
RTVSPost2010PropOp51
 70
     0
102
RTVSPost2010Prop52
140
1.0
102
RTVSPost2010PropOp52
 70
     0
102
RTVSPost2010Prop53
 90
        2
102
RTVSPost2010PropOp53
 70
     1
102
RTVSPost2010Prop54
  1
strokes_ogs.tif
102
RTVSPost2010PropOp54
 70
     1
102
RTVSPost2010Prop55
280
     0
102
RTVSPost2010PropOp55
 70
     1
102
RTVSPost2010Prop56
140
1.0
102
RTVSPost2010PropOp56
 70
     1
102
RTVSPost2010Prop57
140
1.0
102
RTVSPost2010PropOp57
 70
     1
  0
XRECORD
  5
24A
102
{ACAD_REACTORS
330
249
102
}
330
249
100
AcDbXrecord
280
     1
102
RTVSPost2010Prop28
280
     0
102
RTVSPost2010PropOp28
 70
     0
102
RTVSPost2010Prop29
280
     1
102
RTVSPost2010PropOp29
 70
     0
102
RTVSPost2010Prop30
280
     1
102
RTVSPost2010PropOp30
 70
     0
102
RTVSPost2010Prop31
280
     0
102
RTVSPost2010PropOp31
 70
     0
102
RTVSPost2010Prop32
280
     0
102
RTVSPost2010PropOp32
 70
     0
102
RTVSPost2010Prop33
280
     0
102
RTVSPost2010PropOp33
 70
     0
102
RTVSPost2010Prop34
280
     0
102
RTVSPost2010PropOp34
 70
     0
102
RTVSPost2010Prop35
280
     0
102
RTVSPost2010PropOp35
 70
     0
102
RTVSPost2010Prop36
280
     0
102
RTVSPost2010PropOp36
 70
     0
102
RTVSPost2010Prop37
 90
       50
102
RTVSPost2010PropOp37
 70
     0
102
RTVSPost2010Prop38
140
0.0
102
RTVSPost2010PropOp38
 70
     0
102
RTVSPost2010Prop39
140
1.0
102
RTVSPost2010PropOp39
 70
     0
102
RTVSPost2010Prop40
 90
        0
102
RTVSPost2010PropOp40
 70
     0
102
RTVSPost2010Prop41ColorIndex
 90
       18
102
RTVSPost2010Prop41ColorRGB
 90
        0
102
RTVSPost2010PropOp41
 70
     0
102
RTVSPost2010Prop42
 90
       50
102
RTVSPost2010PropOp42
 70
     0
102
RTVSPost2010Prop43
 90
        3
102
RTVSPost2010PropOp43
 70
     0
102
RTVSPost2010Prop44ColorIndex
 90
        5
102
RTVSPost2010Prop44ColorRGB
 90
      255
102
RTVSPost2010PropOp44
 70
     0
102
RTVSPost2010Prop45
280
     0
102
RTVSPost2010PropOp45
 70
     0
102
RTVSPost2010Prop46
 90
       50
102
RTVSPost2010PropOp46
 70
     0
102
RTVSPost2010Prop47
 90
       50
102
RTVSPost2010PropOp47
 70
     0
102
RTVSPost2010Prop48
 90
       50
102
RTVSPost2010PropOp48
 70
     0
102
RTVSPost2010Prop49
280
     0
102
RTVSPost2010PropOp49
 70
     0
102
RTVSPost2010Prop50
 90
       50
102
RTVSPost2010PropOp50
 70
     0
102
RTVSPost2010Prop51ColorIndex
 90
      256
102
RTVSPost2010Prop51ColorRGB
 90
-16777216
102
RTVSPost2010PropOp51
 70
     0
102
RTVSPost2010Prop52
140
1.0
102
RTVSPost2010PropOp52
 70
     0
102
RTVSPost2010Prop53
 90
        2
102
RTVSPost2010PropOp53
 70
     0
102
RTVSPost2010Prop54
  1
strokes_ogs.tif
102
RTVSPost2010PropOp54
 70
     0
102
RTVSPost2010Prop55
280
     0
102
RTVSPost2010PropOp55
 70
     0
102
RTVSPost2010Prop56
140
1.0
102
RTVSPost2010PropOp56
 70
     0
102
RTVSPost2010Prop57
140
1.0
102
RTVSPost2010PropOp57
 70
     0
  0
XRECORD
  5
242
102
{ACAD_REACTORS
330
241
102
}
330
241
100
AcDbXrecord
280
     1
102
RTVSPost2010Prop28
280
     0
102
RTVSPost2010PropOp28
 70
     1
102
RTVSPost2010Prop29
280
     1
102
RTVSPost2010PropOp29
 70
     1
102
RTVSPost2010Prop30
280
     1
102
RTVSPost2010PropOp30
 70
     1
102
RTVSPost2010Prop31
280
     0
102
RTVSPost2010PropOp31
 70
     1
102
RTVSPost2010Prop32
280
     0
102
RTVSPost2010PropOp32
 70
     1
102
RTVSPost2010Prop33
280
     0
102
RTVSPost2010PropOp33
 70
     1
102
RTVSPost2010Prop34
280
     0
102
RTVSPost2010PropOp34
 70
     1
102
RTVSPost2010Prop35
280
     0
102
RTVSPost2010PropOp35
 70
     1
102
RTVSPost2010Prop36
280
     0
102
RTVSPost2010PropOp36
 70
     1
102
RTVSPost2010Prop37
 90
       50
102
RTVSPost2010PropOp37
 70
     1
102
RTVSPost2010Prop38
140
0.0
102
RTVSPost2010PropOp38
 70
     1
102
RTVSPost2010Prop39
140
1.0
102
RTVSPost2010PropOp39
 70
     1
102
RTVSPost2010Prop40
 90
        0
102
RTVSPost2010PropOp40
 70
     1
102
RTVSPost2010Prop41ColorIndex
 90
       18
102
RTVSPost2010Prop41ColorRGB
 90
        0
102
RTVSPost2010PropOp41
 70
     1
102
RTVSPost2010Prop42
 90
       50
102
RTVSPost2010PropOp42
 70
     1
102
RTVSPost2010Prop43
 90
        3
102
RTVSPost2010PropOp43
 70
     1
102
RTVSPost2010Prop44ColorIndex
 90
        5
102
RTVSPost2010Prop44ColorRGB
 90
      255
102
RTVSPost2010PropOp44
 70
     1
102
RTVSPost2010Prop45
280
     0
102
RTVSPost2010PropOp45
 70
     1
102
RTVSPost2010Prop46
 90
       50
102
RTVSPost2010PropOp46
 70
     1
102
RTVSPost2010Prop47
 90
       50
102
RTVSPost2010PropOp47
 70
     1
102
RTVSPost2010Prop48
 90
       50
102
RTVSPost2010PropOp48
 70
     1
102
RTVSPost2010Prop49
280
     0
102
RTVSPost2010PropOp49
 70
     1
102
RTVSPost2010Prop50
 90
       50
102
RTVSPost2010PropOp50
 70
     1
102
RTVSPost2010Prop51ColorIndex
 90
      256
102
RTVSPost2010Prop51ColorRGB
 90
-16777216
102
RTVSPost2010PropOp51
 70
     0
102
RTVSPost2010Prop52
140
1.0
102
RTVSPost2010PropOp52
 70
     0
102
RTVSPost2010Prop53
 90
        2
102
RTVSPost2010PropOp53
 70
     1
102
RTVSPost2010Prop54
  1
strokes_ogs.tif
102
RTVSPost2010PropOp54
 70
     1
102
RTVSPost2010Prop55
280
     0
102
RTVSPost2010PropOp55
 70
     1
102
RTVSPost2010Prop56
140
1.0
102
RTVSPost2010PropOp56
 70
     1
102
RTVSPost2010Prop57
140
1.0
102
RTVSPost2010PropOp57
 70
     1
  0
XRECORD
  5
226
102
{ACAD_REACTORS
330
225
102
}
330
225
100
AcDbXrecord
280
     1
102
RTVSPost2010Prop28
280
     0
102
RTVSPost2010PropOp28
 70
     1
102
RTVSPost2010Prop29
280
     1
102
RTVSPost2010PropOp29
 70
     1
102
RTVSPost2010Prop30
280
     1
102
RTVSPost2010PropOp30
 70
     1
102
RTVSPost2010Prop31
280
     0
102
RTVSPost2010PropOp31
 70
     1
102
RTVSPost2010Prop32
280
     0
102
RTVSPost2010PropOp32
 70
     1
102
RTVSPost2010Prop33
280
     0
102
RTVSPost2010PropOp33
 70
     1
102
RTVSPost2010Prop34
280
     0
102
RTVSPost2010PropOp34
 70
     1
102
RTVSPost2010Prop35
280
     0
102
RTVSPost2010PropOp35
 70
     1
102
RTVSPost2010Prop36
280
     0
102
RTVSPost2010PropOp36
 70
     1
102
RTVSPost2010Prop37
 90
       50
102
RTVSPost2010PropOp37
 70
     1
102
RTVSPost2010Prop38
140
0.0
102
RTVSPost2010PropOp38
 70
     1
102
RTVSPost2010Prop39
140
1.0
102
RTVSPost2010PropOp39
 70
     1
102
RTVSPost2010Prop40
 90
        0
102
RTVSPost2010PropOp40
 70
     1
102
RTVSPost2010Prop41ColorIndex
 90
       18
102
RTVSPost2010Prop41ColorRGB
 90
        0
102
RTVSPost2010PropOp41
 70
     1
102
RTVSPost2010Prop42
 90
       50
102
RTVSPost2010PropOp42
 70
     1
102
RTVSPost2010Prop43
 90
        3
102
RTVSPost2010PropOp43
 70
     1
102
RTVSPost2010Prop44ColorIndex
 90
        5
102
RTVSPost2010Prop44ColorRGB
 90
      255
102
RTVSPost2010PropOp44
 70
     1
102
RTVSPost2010Prop45
280
     0
102
RTVSPost2010PropOp45
 70
     1
102
RTVSPost2010Prop46
 90
       50
102
RTVSPost2010PropOp46
 70
     1
102
RTVSPost2010Prop47
 90
       50
102
RTVSPost2010PropOp47
 70
     1
102
RTVSPost2010Prop48
 90
       50
102
RTVSPost2010PropOp48
 70
     1
102
RTVSPost2010Prop49
280
     0
102
RTVSPost2010PropOp49
 70
     1
102
RTVSPost2010Prop50
 90
       50
102
RTVSPost2010PropOp50
 70
     1
102
RTVSPost2010Prop51ColorIndex
 90
      256
102
RTVSPost2010Prop51ColorRGB
 90
-16777216
102
RTVSPost2010PropOp51
 70
     0
102
RTVSPost2010Prop52
140
1.0
102
RTVSPost2010PropOp52
 70
     0
102
RTVSPost2010Prop53
 90
        2
102
RTVSPost2010PropOp53
 70
     1
102
RTVSPost2010Prop54
  1
strokes_ogs.tif
102
RTVSPost2010PropOp54
 70
     1
102
RTVSPost2010Prop55
280
     0
102
RTVSPost2010PropOp55
 70
     1
102
RTVSPost2010Prop56
140
1.0
102
RTVSPost2010PropOp56
 70
     1
102
RTVSPost2010Prop57
140
1.0
102
RTVSPost2010PropOp57
 70
     1
  0
XRECORD
  5
228
102
{ACAD_REACTORS
330
227
102
}
330
227
100
AcDbXrecord
280
     1
102
RTVSPost2010Prop28
280
     0
102
RTVSPost2010PropOp28
 70
     1
102
RTVSPost2010Prop29
280
     1
102
RTVSPost2010PropOp29
 70
     1
102
RTVSPost2010Prop30
280
     1
102
RTVSPost2010PropOp30
 70
     1
102
RTVSPost2010Prop31
280
     0
102
RTVSPost2010PropOp31
 70
     1
102
RTVSPost2010Prop32
280
     0
102
RTVSPost2010PropOp32
 70
     1
102
RTVSPost2010Prop33
280
     0
102
RTVSPost2010PropOp33
 70
     1
102
RTVSPost2010Prop34
280
     0
102
RTVSPost2010PropOp34
 70
     1
102
RTVSPost2010Prop35
280
     0
102
RTVSPost2010PropOp35
 70
     1
102
RTVSPost2010Prop36
280
     0
102
RTVSPost2010PropOp36
 70
     1
102
RTVSPost2010Prop37
 90
       50
102
RTVSPost2010PropOp37
 70
     1
102
RTVSPost2010Prop38
140
0.0
102
RTVSPost2010PropOp38
 70
     1
102
RTVSPost2010Prop39
140
1.0
102
RTVSPost2010PropOp39
 70
     1
102
RTVSPost2010Prop40
 90
        0
102
RTVSPost2010PropOp40
 70
     1
102
RTVSPost2010Prop41ColorIndex
 90
       18
102
RTVSPost2010Prop41ColorRGB
 90
        0
102
RTVSPost2010PropOp41
 70
     1
102
RTVSPost2010Prop42
 90
       50
102
RTVSPost2010PropOp42
 70
     1
102
RTVSPost2010Prop43
 90
        3
102
RTVSPost2010PropOp43
 70
     1
102
RTVSPost2010Prop44ColorIndex
 90
        5
102
RTVSPost2010Prop44ColorRGB
 90
      255
102
RTVSPost2010PropOp44
 70
     1
102
RTVSPost2010Prop45
280
     0
102
RTVSPost2010PropOp45
 70
     1
102
RTVSPost2010Prop46
 90
       50
102
RTVSPost2010PropOp46
 70
     1
102
RTVSPost2010Prop47
 90
       50
102
RTVSPost2010PropOp47
 70
     1
102
RTVSPost2010Prop48
 90
       50
102
RTVSPost2010PropOp48
 70
     1
102
RTVSPost2010Prop49
280
     0
102
RTVSPost2010PropOp49
 70
     1
102
RTVSPost2010Prop50
 90
       50
102
RTVSPost2010PropOp50
 70
     1
102
RTVSPost2010Prop51ColorIndex
 90
      256
102
RTVSPost2010Prop51ColorRGB
 90
-16777216
102
RTVSPost2010PropOp51
 70
     0
102
RTVSPost2010Prop52
140
1.0
102
RTVSPost2010PropOp52
 70
     0
102
RTVSPost2010Prop53
 90
        2
102
RTVSPost2010PropOp53
 70
     1
102
RTVSPost2010Prop54
  1
strokes_ogs.tif
102
RTVSPost2010PropOp54
 70
     1
102
RTVSPost2010Prop55
280
     0
102
RTVSPost2010PropOp55
 70
     1
102
RTVSPost2010Prop56
140
1.0
102
RTVSPost2010PropOp56
 70
     1
102
RTVSPost2010Prop57
140
1.0
102
RTVSPost2010PropOp57
 70
     1
  0
XRECORD
  5
22A
102
{ACAD_REACTORS
330
229
102
}
330
229
100
AcDbXrecord
280
     1
102
RTVSPost2010Prop28
280
     0
102
RTVSPost2010PropOp28
 70
     1
102
RTVSPost2010Prop29
280
     1
102
RTVSPost2010PropOp29
 70
     1
102
RTVSPost2010Prop30
280
     1
102
RTVSPost2010PropOp30
 70
     1
102
RTVSPost2010Prop31
280
     0
102
RTVSPost2010PropOp31
 70
     1
102
RTVSPost2010Prop32
280
     0
102
RTVSPost2010PropOp32
 70
     1
102
RTVSPost2010Prop33
280
     0
102
RTVSPost2010PropOp33
 70
     1
102
RTVSPost2010Prop34
280
     0
102
RTVSPost2010PropOp34
 70
     1
102
RTVSPost2010Prop35
280
     0
102
RTVSPost2010PropOp35
 70
     1
102
RTVSPost2010Prop36
280
     0
102
RTVSPost2010PropOp36
 70
     1
102
RTVSPost2010Prop37
 90
       50
102
RTVSPost2010PropOp37
 70
     1
102
RTVSPost2010Prop38
140
0.0
102
RTVSPost2010PropOp38
 70
     1
102
RTVSPost2010Prop39
140
1.0
102
RTVSPost2010PropOp39
 70
     1
102
RTVSPost2010Prop40
 90
        0
102
RTVSPost2010PropOp40
 70
     1
102
RTVSPost2010Prop41ColorIndex
 90
       18
102
RTVSPost2010Prop41ColorRGB
 90
        0
102
RTVSPost2010PropOp41
 70
     1
102
RTVSPost2010Prop42
 90
       50
102
RTVSPost2010PropOp42
 70
     1
102
RTVSPost2010Prop43
 90
        3
102
RTVSPost2010PropOp43
 70
     1
102
RTVSPost2010Prop44ColorIndex
 90
        5
102
RTVSPost2010Prop44ColorRGB
 90
      255
102
RTVSPost2010PropOp44
 70
     1
102
RTVSPost2010Prop45
280
     0
102
RTVSPost2010PropOp45
 70
     1
102
RTVSPost2010Prop46
 90
       50
102
RTVSPost2010PropOp46
 70
     1
102
RTVSPost2010Prop47
 90
       50
102
RTVSPost2010PropOp47
 70
     1
102
RTVSPost2010Prop48
 90
       50
102
RTVSPost2010PropOp48
 70
     1
102
RTVSPost2010Prop49
280
     0
102
RTVSPost2010PropOp49
 70
     1
102
RTVSPost2010Prop50
 90
       50
102
RTVSPost2010PropOp50
 70
     1
102
RTVSPost2010Prop51ColorIndex
 90
      256
102
RTVSPost2010Prop51ColorRGB
 90
-16777216
102
RTVSPost2010PropOp51
 70
     0
102
RTVSPost2010Prop52
140
1.0
102
RTVSPost2010PropOp52
 70
     0
102
RTVSPost2010Prop53
 90
        2
102
RTVSPost2010PropOp53
 70
     1
102
RTVSPost2010Prop54
  1
strokes_ogs.tif
102
RTVSPost2010PropOp54
 70
     1
102
RTVSPost2010Prop55
280
     0
102
RTVSPost2010PropOp55
 70
     1
102
RTVSPost2010Prop56
140
1.0
102
RTVSPost2010PropOp56
 70
     1
102
RTVSPost2010Prop57
140
1.0
102
RTVSPost2010PropOp57
 70
     1
  0
XRECORD
  5
22C
102
{ACAD_REACTORS
330
22B
102
}
330
22B
100
AcDbXrecord
280
     1
102
RTVSPost2010Prop28
280
     0
102
RTVSPost2010PropOp28
 70
     1
102
RTVSPost2010Prop29
280
     1
102
RTVSPost2010PropOp29
 70
     1
102
RTVSPost2010Prop30
280
     1
102
RTVSPost2010PropOp30
 70
     1
102
RTVSPost2010Prop31
280
     0
102
RTVSPost2010PropOp31
 70
     1
102
RTVSPost2010Prop32
280
     0
102
RTVSPost2010PropOp32
 70
     1
102
RTVSPost2010Prop33
280
     0
102
RTVSPost2010PropOp33
 70
     1
102
RTVSPost2010Prop34
280
     0
102
RTVSPost2010PropOp34
 70
     1
102
RTVSPost2010Prop35
280
     0
102
RTVSPost2010PropOp35
 70
     1
102
RTVSPost2010Prop36
280
     0
102
RTVSPost2010PropOp36
 70
     1
102
RTVSPost2010Prop37
 90
       50
102
RTVSPost2010PropOp37
 70
     1
102
RTVSPost2010Prop38
140
0.0
102
RTVSPost2010PropOp38
 70
     1
102
RTVSPost2010Prop39
140
1.0
102
RTVSPost2010PropOp39
 70
     1
102
RTVSPost2010Prop40
 90
        0
102
RTVSPost2010PropOp40
 70
     1
102
RTVSPost2010Prop41ColorIndex
 90
       18
102
RTVSPost2010Prop41ColorRGB
 90
        0
102
RTVSPost2010PropOp41
 70
     1
102
RTVSPost2010Prop42
 90
       50
102
RTVSPost2010PropOp42
 70
     1
102
RTVSPost2010Prop43
 90
        3
102
RTVSPost2010PropOp43
 70
     1
102
RTVSPost2010Prop44ColorIndex
 90
        5
102
RTVSPost2010Prop44ColorRGB
 90
      255
102
RTVSPost2010PropOp44
 70
     1
102
RTVSPost2010Prop45
280
     0
102
RTVSPost2010PropOp45
 70
     1
102
RTVSPost2010Prop46
 90
       50
102
RTVSPost2010PropOp46
 70
     1
102
RTVSPost2010Prop47
 90
       50
102
RTVSPost2010PropOp47
 70
     1
102
RTVSPost2010Prop48
 90
       50
102
RTVSPost2010PropOp48
 70
     1
102
RTVSPost2010Prop49
280
     0
102
RTVSPost2010PropOp49
 70
     1
102
RTVSPost2010Prop50
 90
       50
102
RTVSPost2010PropOp50
 70
     1
102
RTVSPost2010Prop51ColorIndex
 90
      256
102
RTVSPost2010Prop51ColorRGB
 90
-16777216
102
RTVSPost2010PropOp51
 70
     0
102
RTVSPost2010Prop52
140
1.0
102
RTVSPost2010PropOp52
 70
     0
102
RTVSPost2010Prop53
 90
        2
102
RTVSPost2010PropOp53
 70
     1
102
RTVSPost2010Prop54
  1
strokes_ogs.tif
102
RTVSPost2010PropOp54
 70
     1
102
RTVSPost2010Prop55
280
     0
102
RTVSPost2010PropOp55
 70
     1
102
RTVSPost2010Prop56
140
1.0
102
RTVSPost2010PropOp56
 70
     1
102
RTVSPost2010Prop57
140
1.0
102
RTVSPost2010PropOp57
 70
     1
  0
XRECORD
  5
232
102
{ACAD_REACTORS
330
231
102
}
330
231
100
AcDbXrecord
280
     1
102
RTVSPost2010Prop28
280
     0
102
RTVSPost2010PropOp28
 70
     1
102
RTVSPost2010Prop29
280
     1
102
RTVSPost2010PropOp29
 70
     1
102
RTVSPost2010Prop30
280
     1
102
RTVSPost2010PropOp30
 70
     1
102
RTVSPost2010Prop31
280
     0
102
RTVSPost2010PropOp31
 70
     1
102
RTVSPost2010Prop32
280
     0
102
RTVSPost2010PropOp32
 70
     1
102
RTVSPost2010Prop33
280
     0
102
RTVSPost2010PropOp33
 70
     1
102
RTVSPost2010Prop34
280
     0
102
RTVSPost2010PropOp34
 70
     1
102
RTVSPost2010Prop35
280
     0
102
RTVSPost2010PropOp35
 70
     1
102
RTVSPost2010Prop36
280
     0
102
RTVSPost2010PropOp36
 70
     1
102
RTVSPost2010Prop37
 90
       50
102
RTVSPost2010PropOp37
 70
     1
102
RTVSPost2010Prop38
140
0.0
102
RTVSPost2010PropOp38
 70
     1
102
RTVSPost2010Prop39
140
1.0
102
RTVSPost2010PropOp39
 70
     1
102
RTVSPost2010Prop40
 90
        0
102
RTVSPost2010PropOp40
 70
     1
102
RTVSPost2010Prop41ColorIndex
 90
       18
102
RTVSPost2010Prop41ColorRGB
 90
        0
102
RTVSPost2010PropOp41
 70
     1
102
RTVSPost2010Prop42
 90
       50
102
RTVSPost2010PropOp42
 70
     1
102
RTVSPost2010Prop43
 90
        3
102
RTVSPost2010PropOp43
 70
     1
102
RTVSPost2010Prop44ColorIndex
 90
        5
102
RTVSPost2010Prop44ColorRGB
 90
      255
102
RTVSPost2010PropOp44
 70
     1
102
RTVSPost2010Prop45
280
     0
102
RTVSPost2010PropOp45
 70
     1
102
RTVSPost2010Prop46
 90
       50
102
RTVSPost2010PropOp46
 70
     1
102
RTVSPost2010Prop47
 90
       50
102
RTVSPost2010PropOp47
 70
     1
102
RTVSPost2010Prop48
 90
       50
102
RTVSPost2010PropOp48
 70
     1
102
RTVSPost2010Prop49
280
     0
102
RTVSPost2010PropOp49
 70
     1
102
RTVSPost2010Prop50
 90
       50
102
RTVSPost2010PropOp50
 70
     1
102
RTVSPost2010Prop51ColorIndex
 90
      256
102
RTVSPost2010Prop51ColorRGB
 90
-16777216
102
RTVSPost2010PropOp51
 70
     0
102
RTVSPost2010Prop52
140
1.0
102
RTVSPost2010PropOp52
 70
     0
102
RTVSPost2010Prop53
 90
        2
102
RTVSPost2010PropOp53
 70
     1
102
RTVSPost2010Prop54
  1
strokes_ogs.tif
102
RTVSPost2010PropOp54
 70
     1
102
RTVSPost2010Prop55
280
     0
102
RTVSPost2010PropOp55
 70
     1
102
RTVSPost2010Prop56
140
1.0
102
RTVSPost2010PropOp56
 70
     1
102
RTVSPost2010Prop57
140
1.0
102
RTVSPost2010PropOp57
 70
     1
  0
XRECORD
  5
246
102
{ACAD_REACTORS
330
245
102
}
330
245
100
AcDbXrecord
280
     1
102
RTVSPost2010Prop28
280
     0
102
RTVSPost2010PropOp28
 70
     0
102
RTVSPost2010Prop29
280
     1
102
RTVSPost2010PropOp29
 70
     0
102
RTVSPost2010Prop30
280
     1
102
RTVSPost2010PropOp30
 70
     0
102
RTVSPost2010Prop31
280
     0
102
RTVSPost2010PropOp31
 70
     0
102
RTVSPost2010Prop32
280
     0
102
RTVSPost2010PropOp32
 70
     0
102
RTVSPost2010Prop33
280
     0
102
RTVSPost2010PropOp33
 70
     0
102
RTVSPost2010Prop34
280
     0
102
RTVSPost2010PropOp34
 70
     0
102
RTVSPost2010Prop35
280
     0
102
RTVSPost2010PropOp35
 70
     0
102
RTVSPost2010Prop36
280
     0
102
RTVSPost2010PropOp36
 70
     0
102
RTVSPost2010Prop37
 90
       50
102
RTVSPost2010PropOp37
 70
     0
102
RTVSPost2010Prop38
140
0.0
102
RTVSPost2010PropOp38
 70
     0
102
RTVSPost2010Prop39
140
1.0
102
RTVSPost2010PropOp39
 70
     0
102
RTVSPost2010Prop40
 90
        0
102
RTVSPost2010PropOp40
 70
     0
102
RTVSPost2010Prop41ColorIndex
 90
       18
102
RTVSPost2010Prop41ColorRGB
 90
        0
102
RTVSPost2010PropOp41
 70
     0
102
RTVSPost2010Prop42
 90
       50
102
RTVSPost2010PropOp42
 70
     0
102
RTVSPost2010Prop43
 90
        3
102
RTVSPost2010PropOp43
 70
     0
102
RTVSPost2010Prop44ColorIndex
 90
        5
102
RTVSPost2010Prop44ColorRGB
 90
      255
102
RTVSPost2010PropOp44
 70
     0
102
RTVSPost2010Prop45
280
     0
102
RTVSPost2010PropOp45
 70
     0
102
RTVSPost2010Prop46
 90
       50
102
RTVSPost2010PropOp46
 70
     0
102
RTVSPost2010Prop47
 90
       50
102
RTVSPost2010PropOp47
 70
     0
102
RTVSPost2010Prop48
 90
       50
102
RTVSPost2010PropOp48
 70
     0
102
RTVSPost2010Prop49
280
     0
102
RTVSPost2010PropOp49
 70
     0
102
RTVSPost2010Prop50
 90
       50
102
RTVSPost2010PropOp50
 70
     0
102
RTVSPost2010Prop51ColorIndex
 90
      256
102
RTVSPost2010Prop51ColorRGB
 90
-16777216
102
RTVSPost2010PropOp51
 70
     0
102
RTVSPost2010Prop52
140
1.0
102
RTVSPost2010PropOp52
 70
     0
102
RTVSPost2010Prop53
 90
        2
102
RTVSPost2010PropOp53
 70
     0
102
RTVSPost2010Prop54
  1
strokes_ogs.tif
102
RTVSPost2010PropOp54
 70
     0
102
RTVSPost2010Prop55
280
     0
102
RTVSPost2010PropOp55
 70
     0
102
RTVSPost2010Prop56
140
1.0
102
RTVSPost2010PropOp56
 70
     0
102
RTVSPost2010Prop57
140
1.0
102
RTVSPost2010PropOp57
 70
     0
  0
XRECORD
  5
240
102
{ACAD_REACTORS
330
23F
102
}
330
23F
100
AcDbXrecord
280
     1
102
RTVSPost2010Prop28
280
     0
102
RTVSPost2010PropOp28
 70
     1
102
RTVSPost2010Prop29
280
     1
102
RTVSPost2010PropOp29
 70
     1
102
RTVSPost2010Prop30
280
     1
102
RTVSPost2010PropOp30
 70
     1
102
RTVSPost2010Prop31
280
     0
102
RTVSPost2010PropOp31
 70
     1
102
RTVSPost2010Prop32
280
     0
102
RTVSPost2010PropOp32
 70
     1
102
RTVSPost2010Prop33
280
     0
102
RTVSPost2010PropOp33
 70
     1
102
RTVSPost2010Prop34
280
     0
102
RTVSPost2010PropOp34
 70
     1
102
RTVSPost2010Prop35
280
     0
102
RTVSPost2010PropOp35
 70
     1
102
RTVSPost2010Prop36
280
     0
102
RTVSPost2010PropOp36
 70
     1
102
RTVSPost2010Prop37
 90
       50
102
RTVSPost2010PropOp37
 70
     1
102
RTVSPost2010Prop38
140
0.0
102
RTVSPost2010PropOp38
 70
     1
102
RTVSPost2010Prop39
140
1.0
102
RTVSPost2010PropOp39
 70
     1
102
RTVSPost2010Prop40
 90
        0
102
RTVSPost2010PropOp40
 70
     1
102
RTVSPost2010Prop41ColorIndex
 90
       18
102
RTVSPost2010Prop41ColorRGB
 90
        0
102
RTVSPost2010PropOp41
 70
     1
102
RTVSPost2010Prop42
 90
       50
102
RTVSPost2010PropOp42
 70
     1
102
RTVSPost2010Prop43
 90
        3
102
RTVSPost2010PropOp43
 70
     1
102
RTVSPost2010Prop44ColorIndex
 90
        5
102
RTVSPost2010Prop44ColorRGB
 90
      255
102
RTVSPost2010PropOp44
 70
     1
102
RTVSPost2010Prop45
280
     0
102
RTVSPost2010PropOp45
 70
     1
102
RTVSPost2010Prop46
 90
       50
102
RTVSPost2010PropOp46
 70
     1
102
RTVSPost2010Prop47
 90
       50
102
RTVSPost2010PropOp47
 70
     1
102
RTVSPost2010Prop48
 90
       50
102
RTVSPost2010PropOp48
 70
     1
102
RTVSPost2010Prop49
280
     0
102
RTVSPost2010PropOp49
 70
     1
102
RTVSPost2010Prop50
 90
       50
102
RTVSPost2010PropOp50
 70
     1
102
RTVSPost2010Prop51ColorIndex
 90
      256
102
RTVSPost2010Prop51ColorRGB
 90
-16777216
102
RTVSPost2010PropOp51
 70
     0
102
RTVSPost2010Prop52
140
1.0
102
RTVSPost2010PropOp52
 70
     0
102
RTVSPost2010Prop53
 90
        2
102
RTVSPost2010PropOp53
 70
     1
102
RTVSPost2010Prop54
  1
strokes_ogs.tif
102
RTVSPost2010PropOp54
 70
     1
102
RTVSPost2010Prop55
280
     0
102
RTVSPost2010PropOp55
 70
     1
102
RTVSPost2010Prop56
140
1.0
102
RTVSPost2010PropOp56
 70
     1
102
RTVSPost2010Prop57
140
1.0
102
RTVSPost2010PropOp57
 70
     1
  0
XRECORD
  5
248
102
{ACAD_REACTORS
330
247
102
}
330
247
100
AcDbXrecord
280
     1
102
RTVSPost2010Prop28
280
     0
102
RTVSPost2010PropOp28
 70
     0
102
RTVSPost2010Prop29
280
     1
102
RTVSPost2010PropOp29
 70
     0
102
RTVSPost2010Prop30
280
     1
102
RTVSPost2010PropOp30
 70
     0
102
RTVSPost2010Prop31
280
     0
102
RTVSPost2010PropOp31
 70
     0
102
RTVSPost2010Prop32
280
     0
102
RTVSPost2010PropOp32
 70
     0
102
RTVSPost2010Prop33
280
     0
102
RTVSPost2010PropOp33
 70
     0
102
RTVSPost2010Prop34
280
     0
102
RTVSPost2010PropOp34
 70
     0
102
RTVSPost2010Prop35
280
     0
102
RTVSPost2010PropOp35
 70
     0
102
RTVSPost2010Prop36
280
     0
102
RTVSPost2010PropOp36
 70
     0
102
RTVSPost2010Prop37
 90
       50
102
RTVSPost2010PropOp37
 70
     0
102
RTVSPost2010Prop38
140
0.0
102
RTVSPost2010PropOp38
 70
     0
102
RTVSPost2010Prop39
140
1.0
102
RTVSPost2010PropOp39
 70
     0
102
RTVSPost2010Prop40
 90
        0
102
RTVSPost2010PropOp40
 70
     0
102
RTVSPost2010Prop41ColorIndex
 90
       18
102
RTVSPost2010Prop41ColorRGB
 90
        0
102
RTVSPost2010PropOp41
 70
     0
102
RTVSPost2010Prop42
 90
       50
102
RTVSPost2010PropOp42
 70
     0
102
RTVSPost2010Prop43
 90
        3
102
RTVSPost2010PropOp43
 70
     0
102
RTVSPost2010Prop44ColorIndex
 90
        5
102
RTVSPost2010Prop44ColorRGB
 90
      255
102
RTVSPost2010PropOp44
 70
     0
102
RTVSPost2010Prop45
280
     0
102
RTVSPost2010PropOp45
 70
     0
102
RTVSPost2010Prop46
 90
       50
102
RTVSPost2010PropOp46
 70
     0
102
RTVSPost2010Prop47
 90
       50
102
RTVSPost2010PropOp47
 70
     0
102
RTVSPost2010Prop48
 90
       50
102
RTVSPost2010PropOp48
 70
     0
102
RTVSPost2010Prop49
280
     0
102
RTVSPost2010PropOp49
 70
     0
102
RTVSPost2010Prop50
 90
       50
102
RTVSPost2010PropOp50
 70
     0
102
RTVSPost2010Prop51ColorIndex
 90
      256
102
RTVSPost2010Prop51ColorRGB
 90
-16777216
102
RTVSPost2010PropOp51
 70
     0
102
RTVSPost2010Prop52
140
1.0
102
RTVSPost2010PropOp52
 70
     0
102
RTVSPost2010Prop53
 90
        2
102
RTVSPost2010PropOp53
 70
     0
102
RTVSPost2010Prop54
  1
strokes_ogs.tif
102
RTVSPost2010PropOp54
 70
     0
102
RTVSPost2010Prop55
280
     0
102
RTVSPost2010PropOp55
 70
     0
102
RTVSPost2010Prop56
140
1.0
102
RTVSPost2010PropOp56
 70
     0
102
RTVSPost2010Prop57
140
1.0
102
RTVSPost2010PropOp57
 70
     0
  0
XRECORD
  5
236
102
{ACAD_REACTORS
330
235
102
}
330
235
100
AcDbXrecord
280
     1
102
RTVSPost2010Prop28
280
     0
102
RTVSPost2010PropOp28
 70
     1
102
RTVSPost2010Prop29
280
     1
102
RTVSPost2010PropOp29
 70
     1
102
RTVSPost2010Prop30
280
     1
102
RTVSPost2010PropOp30
 70
     1
102
RTVSPost2010Prop31
280
     0
102
RTVSPost2010PropOp31
 70
     1
102
RTVSPost2010Prop32
280
     0
102
RTVSPost2010PropOp32
 70
     1
102
RTVSPost2010Prop33
280
     0
102
RTVSPost2010PropOp33
 70
     1
102
RTVSPost2010Prop34
280
     0
102
RTVSPost2010PropOp34
 70
     1
102
RTVSPost2010Prop35
280
     0
102
RTVSPost2010PropOp35
 70
     1
102
RTVSPost2010Prop36
280
     0
102
RTVSPost2010PropOp36
 70
     1
102
RTVSPost2010Prop37
 90
       50
102
RTVSPost2010PropOp37
 70
     1
102
RTVSPost2010Prop38
140
0.0
102
RTVSPost2010PropOp38
 70
     1
102
RTVSPost2010Prop39
140
1.0
102
RTVSPost2010PropOp39
 70
     1
102
RTVSPost2010Prop40
 90
        0
102
RTVSPost2010PropOp40
 70
     1
102
RTVSPost2010Prop41ColorIndex
 90
       18
102
RTVSPost2010Prop41ColorRGB
 90
        0
102
RTVSPost2010PropOp41
 70
     1
102
RTVSPost2010Prop42
 90
       50
102
RTVSPost2010PropOp42
 70
     1
102
RTVSPost2010Prop43
 90
        3
102
RTVSPost2010PropOp43
 70
     1
102
RTVSPost2010Prop44ColorIndex
 90
        5
102
RTVSPost2010Prop44ColorRGB
 90
      255
102
RTVSPost2010PropOp44
 70
     1
102
RTVSPost2010Prop45
280
     0
102
RTVSPost2010PropOp45
 70
     1
102
RTVSPost2010Prop46
 90
       50
102
RTVSPost2010PropOp46
 70
     1
102
RTVSPost2010Prop47
 90
       50
102
RTVSPost2010PropOp47
 70
     1
102
RTVSPost2010Prop48
 90
       50
102
RTVSPost2010PropOp48
 70
     1
102
RTVSPost2010Prop49
280
     0
102
RTVSPost2010PropOp49
 70
     1
102
RTVSPost2010Prop50
 90
       50
102
RTVSPost2010PropOp50
 70
     1
102
RTVSPost2010Prop51ColorIndex
 90
      256
102
RTVSPost2010Prop51ColorRGB
 90
-16777216
102
RTVSPost2010PropOp51
 70
     0
102
RTVSPost2010Prop52
140
1.0
102
RTVSPost2010PropOp52
 70
     0
102
RTVSPost2010Prop53
 90
        2
102
RTVSPost2010PropOp53
 70
     1
102
RTVSPost2010Prop54
  1
strokes_ogs.tif
102
RTVSPost2010PropOp54
 70
     1
102
RTVSPost2010Prop55
280
     0
102
RTVSPost2010PropOp55
 70
     1
102
RTVSPost2010Prop56
140
1.0
102
RTVSPost2010PropOp56
 70
     1
102
RTVSPost2010Prop57
140
1.0
102
RTVSPost2010PropOp57
 70
     1
  0
XRECORD
  5
254
102
{ACAD_REACTORS
330
253
102
}
330
253
100
AcDbXrecord
280
     1
102
RTVSPost2010Prop28
280
     0
102
RTVSPost2010PropOp28
 70
     1
102
RTVSPost2010Prop29
280
     1
102
RTVSPost2010PropOp29
 70
     1
102
RTVSPost2010Prop30
280
     1
102
RTVSPost2010PropOp30
 70
     1
102
RTVSPost2010Prop31
280
     0
102
RTVSPost2010PropOp31
 70
     1
102
RTVSPost2010Prop32
280
     0
102
RTVSPost2010PropOp32
 70
     1
102
RTVSPost2010Prop33
280
     0
102
RTVSPost2010PropOp33
 70
     1
102
RTVSPost2010Prop34
280
     0
102
RTVSPost2010PropOp34
 70
     1
102
RTVSPost2010Prop35
280
     0
102
RTVSPost2010PropOp35
 70
     1
102
RTVSPost2010Prop36
280
     0
102
RTVSPost2010PropOp36
 70
     1
102
RTVSPost2010Prop37
 90
       50
102
RTVSPost2010PropOp37
 70
     1
102
RTVSPost2010Prop38
140
0.0
102
RTVSPost2010PropOp38
 70
     1
102
RTVSPost2010Prop39
140
1.0
102
RTVSPost2010PropOp39
 70
     1
102
RTVSPost2010Prop40
 90
        0
102
RTVSPost2010PropOp40
 70
     1
102
RTVSPost2010Prop41ColorIndex
 90
       18
102
RTVSPost2010Prop41ColorRGB
 90
        0
102
RTVSPost2010PropOp41
 70
     1
102
RTVSPost2010Prop42
 90
       50
102
RTVSPost2010PropOp42
 70
     1
102
RTVSPost2010Prop43
 90
        3
102
RTVSPost2010PropOp43
 70
     1
102
RTVSPost2010Prop44ColorIndex
 90
        5
102
RTVSPost2010Prop44ColorRGB
 90
      255
102
RTVSPost2010PropOp44
 70
     1
102
RTVSPost2010Prop45
280
     0
102
RTVSPost2010PropOp45
 70
     1
102
RTVSPost2010Prop46
 90
       50
102
RTVSPost2010PropOp46
 70
     1
102
RTVSPost2010Prop47
 90
       50
102
RTVSPost2010PropOp47
 70
     1
102
RTVSPost2010Prop48
 90
       50
102
RTVSPost2010PropOp48
 70
     1
102
RTVSPost2010Prop49
280
     0
102
RTVSPost2010PropOp49
 70
     1
102
RTVSPost2010Prop50
 90
       50
102
RTVSPost2010PropOp50
 70
     1
102
RTVSPost2010Prop51ColorIndex
 90
      256
102
RTVSPost2010Prop51ColorRGB
 90
-16777216
102
RTVSPost2010PropOp51
 70
     0
102
RTVSPost2010Prop52
140
1.0
102
RTVSPost2010PropOp52
 70
     0
102
RTVSPost2010Prop53
 90
        2
102
RTVSPost2010PropOp53
 70
     1
102
RTVSPost2010Prop54
  1
strokes_ogs.tif
102
RTVSPost2010PropOp54
 70
     1
102
RTVSPost2010Prop55
280
     0
102
RTVSPost2010PropOp55
 70
     1
102
RTVSPost2010Prop56
140
1.0
102
RTVSPost2010PropOp56
 70
     1
102
RTVSPost2010Prop57
140
1.0
102
RTVSPost2010PropOp57
 70
     1
  0
XRECORD
  5
252
102
{ACAD_REACTORS
330
251
102
}
330
251
100
AcDbXrecord
280
     1
102
RTVSPost2010Prop28
280
     0
102
RTVSPost2010PropOp28
 70
     1
102
RTVSPost2010Prop29
280
     1
102
RTVSPost2010PropOp29
 70
     1
102
RTVSPost2010Prop30
280
     1
102
RTVSPost2010PropOp30
 70
     1
102
RTVSPost2010Prop31
280
     0
102
RTVSPost2010PropOp31
 70
     1
102
RTVSPost2010Prop32
280
     0
102
RTVSPost2010PropOp32
 70
     1
102
RTVSPost2010Prop33
280
     0
102
RTVSPost2010PropOp33
 70
     1
102
RTVSPost2010Prop34
280
     0
102
RTVSPost2010PropOp34
 70
     1
102
RTVSPost2010Prop35
280
     0
102
RTVSPost2010PropOp35
 70
     1
102
RTVSPost2010Prop36
280
     0
102
RTVSPost2010PropOp36
 70
     1
102
RTVSPost2010Prop37
 90
       50
102
RTVSPost2010PropOp37
 70
     1
102
RTVSPost2010Prop38
140
0.0
102
RTVSPost2010PropOp38
 70
     1
102
RTVSPost2010Prop39
140
1.0
102
RTVSPost2010PropOp39
 70
     1
102
RTVSPost2010Prop40
 90
        0
102
RTVSPost2010PropOp40
 70
     1
102
RTVSPost2010Prop41ColorIndex
 90
       18
102
RTVSPost2010Prop41ColorRGB
 90
        0
102
RTVSPost2010PropOp41
 70
     1
102
RTVSPost2010Prop42
 90
       50
102
RTVSPost2010PropOp42
 70
     1
102
RTVSPost2010Prop43
 90
        3
102
RTVSPost2010PropOp43
 70
     1
102
RTVSPost2010Prop44ColorIndex
 90
        5
102
RTVSPost2010Prop44ColorRGB
 90
      255
102
RTVSPost2010PropOp44
 70
     1
102
RTVSPost2010Prop45
280
     0
102
RTVSPost2010PropOp45
 70
     1
102
RTVSPost2010Prop46
 90
       50
102
RTVSPost2010PropOp46
 70
     1
102
RTVSPost2010Prop47
 90
       50
102
RTVSPost2010PropOp47
 70
     1
102
RTVSPost2010Prop48
 90
       50
102
RTVSPost2010PropOp48
 70
     1
102
RTVSPost2010Prop49
280
     0
102
RTVSPost2010PropOp49
 70
     1
102
RTVSPost2010Prop50
 90
       50
102
RTVSPost2010PropOp50
 70
     1
102
RTVSPost2010Prop51ColorIndex
 90
      256
102
RTVSPost2010Prop51ColorRGB
 90
-16777216
102
RTVSPost2010PropOp51
 70
     0
102
RTVSPost2010Prop52
140
1.0
102
RTVSPost2010PropOp52
 70
     0
102
RTVSPost2010Prop53
 90
        2
102
RTVSPost2010PropOp53
 70
     1
102
RTVSPost2010Prop54
  1
strokes_ogs.tif
102
RTVSPost2010PropOp54
 70
     1
102
RTVSPost2010Prop55
280
     0
102
RTVSPost2010PropOp55
 70
     1
102
RTVSPost2010Prop56
140
1.0
102
RTVSPost2010PropOp56
 70
     1
102
RTVSPost2010Prop57
140
1.0
102
RTVSPost2010PropOp57
 70
     1
  0
XRECORD
  5
24C
102
{ACAD_REACTORS
330
24B
102
}
330
24B
100
AcDbXrecord
280
     1
102
RTVSPost2010Prop28
280
     0
102
RTVSPost2010PropOp28
 70
     1
102
RTVSPost2010Prop29
280
     1
102
RTVSPost2010PropOp29
 70
     1
102
RTVSPost2010Prop30
280
     1
102
RTVSPost2010PropOp30
 70
     1
102
RTVSPost2010Prop31
280
     0
102
RTVSPost2010PropOp31
 70
     1
102
RTVSPost2010Prop32
280
     0
102
RTVSPost2010PropOp32
 70
     1
102
RTVSPost2010Prop33
280
     0
102
RTVSPost2010PropOp33
 70
     1
102
RTVSPost2010Prop34
280
     0
102
RTVSPost2010PropOp34
 70
     1
102
RTVSPost2010Prop35
280
     0
102
RTVSPost2010PropOp35
 70
     1
102
RTVSPost2010Prop36
280
     0
102
RTVSPost2010PropOp36
 70
     1
102
RTVSPost2010Prop37
 90
       50
102
RTVSPost2010PropOp37
 70
     1
102
RTVSPost2010Prop38
140
0.0
102
RTVSPost2010PropOp38
 70
     1
102
RTVSPost2010Prop39
140
1.0
102
RTVSPost2010PropOp39
 70
     1
102
RTVSPost2010Prop40
 90
        0
102
RTVSPost2010PropOp40
 70
     1
102
RTVSPost2010Prop41ColorIndex
 90
       18
102
RTVSPost2010Prop41ColorRGB
 90
        0
102
RTVSPost2010PropOp41
 70
     1
102
RTVSPost2010Prop42
 90
       50
102
RTVSPost2010PropOp42
 70
     1
102
RTVSPost2010Prop43
 90
        3
102
RTVSPost2010PropOp43
 70
     1
102
RTVSPost2010Prop44ColorIndex
 90
        5
102
RTVSPost2010Prop44ColorRGB
 90
      255
102
RTVSPost2010PropOp44
 70
     1
102
RTVSPost2010Prop45
280
     0
102
RTVSPost2010PropOp45
 70
     1
102
RTVSPost2010Prop46
 90
       50
102
RTVSPost2010PropOp46
 70
     1
102
RTVSPost2010Prop47
 90
       50
102
RTVSPost2010PropOp47
 70
     1
102
RTVSPost2010Prop48
 90
       50
102
RTVSPost2010PropOp48
 70
     1
102
RTVSPost2010Prop49
280
     0
102
RTVSPost2010PropOp49
 70
     1
102
RTVSPost2010Prop50
 90
       50
102
RTVSPost2010PropOp50
 70
     1
102
RTVSPost2010Prop51ColorIndex
 90
      256
102
RTVSPost2010Prop51ColorRGB
 90
-16777216
102
RTVSPost2010PropOp51
 70
     0
102
RTVSPost2010Prop52
140
1.0
102
RTVSPost2010PropOp52
 70
     0
102
RTVSPost2010Prop53
 90
        2
102
RTVSPost2010PropOp53
 70
     1
102
RTVSPost2010Prop54
  1
strokes_ogs.tif
102
RTVSPost2010PropOp54
 70
     1
102
RTVSPost2010Prop55
280
     0
102
RTVSPost2010PropOp55
 70
     1
102
RTVSPost2010Prop56
140
1.0
102
RTVSPost2010PropOp56
 70
     1
102
RTVSPost2010Prop57
140
1.0
102
RTVSPost2010PropOp57
 70
     1
  0
XRECORD
  5
24E
102
{ACAD_REACTORS
330
24D
102
}
330
24D
100
AcDbXrecord
280
     1
102
RTVSPost2010Prop28
280
     0
102
RTVSPost2010PropOp28
 70
     1
102
RTVSPost2010Prop29
280
     1
102
RTVSPost2010PropOp29
 70
     1
102
RTVSPost2010Prop30
280
     1
102
RTVSPost2010PropOp30
 70
     1
102
RTVSPost2010Prop31
280
     0
102
RTVSPost2010PropOp31
 70
     1
102
RTVSPost2010Prop32
280
     0
102
RTVSPost2010PropOp32
 70
     1
102
RTVSPost2010Prop33
280
     0
102
RTVSPost2010PropOp33
 70
     1
102
RTVSPost2010Prop34
280
     0
102
RTVSPost2010PropOp34
 70
     1
102
RTVSPost2010Prop35
280
     0
102
RTVSPost2010PropOp35
 70
     1
102
RTVSPost2010Prop36
280
     0
102
RTVSPost2010PropOp36
 70
     1
102
RTVSPost2010Prop37
 90
       50
102
RTVSPost2010PropOp37
 70
     1
102
RTVSPost2010Prop38
140
0.0
102
RTVSPost2010PropOp38
 70
     1
102
RTVSPost2010Prop39
140
1.0
102
RTVSPost2010PropOp39
 70
     1
102
RTVSPost2010Prop40
 90
        0
102
RTVSPost2010PropOp40
 70
     1
102
RTVSPost2010Prop41ColorIndex
 90
       18
102
RTVSPost2010Prop41ColorRGB
 90
        0
102
RTVSPost2010PropOp41
 70
     1
102
RTVSPost2010Prop42
 90
       50
102
RTVSPost2010PropOp42
 70
     1
102
RTVSPost2010Prop43
 90
        3
102
RTVSPost2010PropOp43
 70
     1
102
RTVSPost2010Prop44ColorIndex
 90
        5
102
RTVSPost2010Prop44ColorRGB
 90
      255
102
RTVSPost2010PropOp44
 70
     1
102
RTVSPost2010Prop45
280
     0
102
RTVSPost2010PropOp45
 70
     1
102
RTVSPost2010Prop46
 90
       50
102
RTVSPost2010PropOp46
 70
     1
102
RTVSPost2010Prop47
 90
       50
102
RTVSPost2010PropOp47
 70
     1
102
RTVSPost2010Prop48
 90
       50
102
RTVSPost2010PropOp48
 70
     1
102
RTVSPost2010Prop49
280
     0
102
RTVSPost2010PropOp49
 70
     1
102
RTVSPost2010Prop50
 90
       50
102
RTVSPost2010PropOp50
 70
     1
102
RTVSPost2010Prop51ColorIndex
 90
      256
102
RTVSPost2010Prop51ColorRGB
 90
-16777216
102
RTVSPost2010PropOp51
 70
     0
102
RTVSPost2010Prop52
140
1.0
102
RTVSPost2010PropOp52
 70
     0
102
RTVSPost2010Prop53
 90
        2
102
RTVSPost2010PropOp53
 70
     1
102
RTVSPost2010Prop54
  1
strokes_ogs.tif
102
RTVSPost2010PropOp54
 70
     1
102
RTVSPost2010Prop55
280
     0
102
RTVSPost2010PropOp55
 70
     1
102
RTVSPost2010Prop56
140
1.0
102
RTVSPost2010PropOp56
 70
     1
102
RTVSPost2010Prop57
140
1.0
102
RTVSPost2010PropOp57
 70
     1
  0
XRECORD
  5
23E
102
{ACAD_REACTORS
330
23D
102
}
330
23D
100
AcDbXrecord
280
     1
102
RTVSPost2010Prop28
280
     0
102
RTVSPost2010PropOp28
 70
     1
102
RTVSPost2010Prop29
280
     1
102
RTVSPost2010PropOp29
 70
     1
102
RTVSPost2010Prop30
280
     1
102
RTVSPost2010PropOp30
 70
     1
102
RTVSPost2010Prop31
280
     0
102
RTVSPost2010PropOp31
 70
     1
102
RTVSPost2010Prop32
280
     0
102
RTVSPost2010PropOp32
 70
     1
102
RTVSPost2010Prop33
280
     0
102
RTVSPost2010PropOp33
 70
     1
102
RTVSPost2010Prop34
280
     0
102
RTVSPost2010PropOp34
 70
     1
102
RTVSPost2010Prop35
280
     0
102
RTVSPost2010PropOp35
 70
     1
102
RTVSPost2010Prop36
280
     0
102
RTVSPost2010PropOp36
 70
     1
102
RTVSPost2010Prop37
 90
       50
102
RTVSPost2010PropOp37
 70
     1
102
RTVSPost2010Prop38
140
0.0
102
RTVSPost2010PropOp38
 70
     1
102
RTVSPost2010Prop39
140
1.0
102
RTVSPost2010PropOp39
 70
     1
102
RTVSPost2010Prop40
 90
        0
102
RTVSPost2010PropOp40
 70
     1
102
RTVSPost2010Prop41ColorIndex
 90
       18
102
RTVSPost2010Prop41ColorRGB
 90
        0
102
RTVSPost2010PropOp41
 70
     1
102
RTVSPost2010Prop42
 90
       50
102
RTVSPost2010PropOp42
 70
     1
102
RTVSPost2010Prop43
 90
        3
102
RTVSPost2010PropOp43
 70
     1
102
RTVSPost2010Prop44ColorIndex
 90
        5
102
RTVSPost2010Prop44ColorRGB
 90
      255
102
RTVSPost2010PropOp44
 70
     1
102
RTVSPost2010Prop45
280
     0
102
RTVSPost2010PropOp45
 70
     1
102
RTVSPost2010Prop46
 90
       50
102
RTVSPost2010PropOp46
 70
     1
102
RTVSPost2010Prop47
 90
       50
102
RTVSPost2010PropOp47
 70
     1
102
RTVSPost2010Prop48
 90
       50
102
RTVSPost2010PropOp48
 70
     1
102
RTVSPost2010Prop49
280
     0
102
RTVSPost2010PropOp49
 70
     1
102
RTVSPost2010Prop50
 90
       50
102
RTVSPost2010PropOp50
 70
     1
102
RTVSPost2010Prop51ColorIndex
 90
      256
102
RTVSPost2010Prop51ColorRGB
 90
-16777216
102
RTVSPost2010PropOp51
 70
     0
102
RTVSPost2010Prop52
140
1.0
102
RTVSPost2010PropOp52
 70
     0
102
RTVSPost2010Prop53
 90
        2
102
RTVSPost2010PropOp53
 70
     1
102
RTVSPost2010Prop54
  1
strokes_ogs.tif
102
RTVSPost2010PropOp54
 70
     1
102
RTVSPost2010Prop55
280
     0
102
RTVSPost2010PropOp55
 70
     1
102
RTVSPost2010Prop56
140
1.0
102
RTVSPost2010PropOp56
 70
     1
102
RTVSPost2010Prop57
140
1.0
102
RTVSPost2010PropOp57
 70
     1
  0
XRECORD
  5
230
102
{ACAD_REACTORS
330
22F
102
}
330
22F
100
AcDbXrecord
280
     1
102
RTVSPost2010Prop28
280
     0
102
RTVSPost2010PropOp28
 70
     1
102
RTVSPost2010Prop29
280
     1
102
RTVSPost2010PropOp29
 70
     1
102
RTVSPost2010Prop30
280
     1
102
RTVSPost2010PropOp30
 70
     1
102
RTVSPost2010Prop31
280
     0
102
RTVSPost2010PropOp31
 70
     1
102
RTVSPost2010Prop32
280
     0
102
RTVSPost2010PropOp32
 70
     1
102
RTVSPost2010Prop33
280
     0
102
RTVSPost2010PropOp33
 70
     1
102
RTVSPost2010Prop34
280
     0
102
RTVSPost2010PropOp34
 70
     1
102
RTVSPost2010Prop35
280
     0
102
RTVSPost2010PropOp35
 70
     1
102
RTVSPost2010Prop36
280
     0
102
RTVSPost2010PropOp36
 70
     1
102
RTVSPost2010Prop37
 90
       50
102
RTVSPost2010PropOp37
 70
     1
102
RTVSPost2010Prop38
140
0.0
102
RTVSPost2010PropOp38
 70
     1
102
RTVSPost2010Prop39
140
1.0
102
RTVSPost2010PropOp39
 70
     1
102
RTVSPost2010Prop40
 90
        0
102
RTVSPost2010PropOp40
 70
     1
102
RTVSPost2010Prop41ColorIndex
 90
       18
102
RTVSPost2010Prop41ColorRGB
 90
        0
102
RTVSPost2010PropOp41
 70
     1
102
RTVSPost2010Prop42
 90
       50
102
RTVSPost2010PropOp42
 70
     1
102
RTVSPost2010Prop43
 90
        3
102
RTVSPost2010PropOp43
 70
     1
102
RTVSPost2010Prop44ColorIndex
 90
        5
102
RTVSPost2010Prop44ColorRGB
 90
      255
102
RTVSPost2010PropOp44
 70
     1
102
RTVSPost2010Prop45
280
     0
102
RTVSPost2010PropOp45
 70
     1
102
RTVSPost2010Prop46
 90
       50
102
RTVSPost2010PropOp46
 70
     1
102
RTVSPost2010Prop47
 90
       50
102
RTVSPost2010PropOp47
 70
     1
102
RTVSPost2010Prop48
 90
       50
102
RTVSPost2010PropOp48
 70
     1
102
RTVSPost2010Prop49
280
     0
102
RTVSPost2010PropOp49
 70
     1
102
RTVSPost2010Prop50
 90
       50
102
RTVSPost2010PropOp50
 70
     1
102
RTVSPost2010Prop51ColorIndex
 90
      256
102
RTVSPost2010Prop51ColorRGB
 90
-16777216
102
RTVSPost2010PropOp51
 70
     0
102
RTVSPost2010Prop52
140
1.0
102
RTVSPost2010PropOp52
 70
     0
102
RTVSPost2010Prop53
 90
        2
102
RTVSPost2010PropOp53
 70
     1
102
RTVSPost2010Prop54
  1
strokes_ogs.tif
102
RTVSPost2010PropOp54
 70
     1
102
RTVSPost2010Prop55
280
     0
102
RTVSPost2010PropOp55
 70
     1
102
RTVSPost2010Prop56
140
1.0
102
RTVSPost2010PropOp56
 70
     1
102
RTVSPost2010Prop57
140
1.0
102
RTVSPost2010PropOp57
 70
     1
  0
XRECORD
  5
250
102
{ACAD_REACTORS
330
24F
102
}
330
24F
100
AcDbXrecord
280
     1
102
RTVSPost2010Prop28
280
     0
102
RTVSPost2010PropOp28
 70
     1
102
RTVSPost2010Prop29
280
     1
102
RTVSPost2010PropOp29
 70
     1
102
RTVSPost2010Prop30
280
     1
102
RTVSPost2010PropOp30
 70
     1
102
RTVSPost2010Prop31
280
     0
102
RTVSPost2010PropOp31
 70
     1
102
RTVSPost2010Prop32
280
     0
102
RTVSPost2010PropOp32
 70
     1
102
RTVSPost2010Prop33
280
     0
102
RTVSPost2010PropOp33
 70
     1
102
RTVSPost2010Prop34
280
     0
102
RTVSPost2010PropOp34
 70
     1
102
RTVSPost2010Prop35
280
     0
102
RTVSPost2010PropOp35
 70
     1
102
RTVSPost2010Prop36
280
     0
102
RTVSPost2010PropOp36
 70
     1
102
RTVSPost2010Prop37
 90
       50
102
RTVSPost2010PropOp37
 70
     1
102
RTVSPost2010Prop38
140
0.0
102
RTVSPost2010PropOp38
 70
     1
102
RTVSPost2010Prop39
140
1.0
102
RTVSPost2010PropOp39
 70
     1
102
RTVSPost2010Prop40
 90
        0
102
RTVSPost2010PropOp40
 70
     1
102
RTVSPost2010Prop41ColorIndex
 90
       18
102
RTVSPost2010Prop41ColorRGB
 90
        0
102
RTVSPost2010PropOp41
 70
     1
102
RTVSPost2010Prop42
 90
       50
102
RTVSPost2010PropOp42
 70
     1
102
RTVSPost2010Prop43
 90
        3
102
RTVSPost2010PropOp43
 70
     1
102
RTVSPost2010Prop44ColorIndex
 90
        5
102
RTVSPost2010Prop44ColorRGB
 90
      255
102
RTVSPost2010PropOp44
 70
     1
102
RTVSPost2010Prop45
280
     0
102
RTVSPost2010PropOp45
 70
     1
102
RTVSPost2010Prop46
 90
       50
102
RTVSPost2010PropOp46
 70
     1
102
RTVSPost2010Prop47
 90
       50
102
RTVSPost2010PropOp47
 70
     1
102
RTVSPost2010Prop48
 90
       50
102
RTVSPost2010PropOp48
 70
     1
102
RTVSPost2010Prop49
280
     0
102
RTVSPost2010PropOp49
 70
     1
102
RTVSPost2010Prop50
 90
       50
102
RTVSPost2010PropOp50
 70
     1
102
RTVSPost2010Prop51ColorIndex
 90
      256
102
RTVSPost2010Prop51ColorRGB
 90
-16777216
102
RTVSPost2010PropOp51
 70
     0
102
RTVSPost2010Prop52
140
1.0
102
RTVSPost2010PropOp52
 70
     0
102
RTVSPost2010Prop53
 90
        2
102
RTVSPost2010PropOp53
 70
     1
102
RTVSPost2010Prop54
  1
strokes_ogs.tif
102
RTVSPost2010PropOp54
 70
     1
102
RTVSPost2010Prop55
280
     0
102
RTVSPost2010PropOp55
 70
     1
102
RTVSPost2010Prop56
140
1.0
102
RTVSPost2010PropOp56
 70
     1
102
RTVSPost2010Prop57
140
1.0
102
RTVSPost2010PropOp57
 70
     1
  0
ENDSEC
  0
EOF
