  0
SECTION
  2
HEADER
  9
$ACADVER
  1
AC1024
  9
$ACADMAINTVER
 70
     6
  9
$DWGCODEPAGE
  3
ANSI_1252
  9
$INSBASE
 10
0.0
 20
0.0
 30
0.0
  9
$EXTMIN
 10
1.000000E+20
 20
1.000000E+20
 30
1.000000E+20
  9
$EXTMAX
 10
-1.000000E+20
 20
-1.000000E+20
 30
-1.000000E+20
  9
$LIMMIN
 10
0.0
 20
0.0
  9
$LIMMAX
 10
420.0
 20
297.0
  9
$ORTHOMODE
 70
     0
  9
$REGENMODE
 70
     1
  9
$FILLMODE
 70
     1
  9
$QTEXTMODE
 70
     0
  9
$MIRRTEXT
 70
     1
  9
$LTSCALE
 40
1.0
  9
$ATTMODE
 70
     1
  9
$TEXTSIZE
 40
2.5
  9
$TRACEWID
 40
1.0
  9
$TEXTSTYLE
  7
Standard
  9
$CLAYER
  8
0
  9
$CELTYPE
  6
ByLayer
  9
$CECOLOR
 62
   256
  9
$CELTSCALE
 40
1.0
  9
$DISPSILH
 70
     0
  9
$DIMSCALE
 40
1.0
  9
$DIMASZ
 40
2.5
  9
$DIMEXO
 40
0.625
  9
$DIMDLI
 40
3.75
  9
$DIMRND
 40
0.0
  9
$DIMDLE
 40
0.0
  9
$DIMEXE
 40
1.25
  9
$DIMTP
 40
0.0
  9
$DIMTM
 40
0.0
  9
$DIMTXT
 40
2.5
  9
$DIMCEN
 40
2.5
  9
$DIMTSZ
 40
0.0
  9
$DIMTOL
 70
     0
  9
$DIMLIM
 70
     0
  9
$DIMTIH
 70
     0
  9
$DIMTOH
 70
     0
  9
$DIMSE1
 70
     0
  9
$DIMSE2
 70
     0
  9
$DIMTAD
 70
     1
  9
$DIMZIN
 70
     8
  9
$DIMBLK
  1

  9
$DIMASO
 70
     1
  9
$DIMSHO
 70
     1
  9
$DIMPOST
  1

  9
$DIMAPOST
  1

  9
$DIMALT
 70
     0
  9
$DIMALTD
 70
     3
  9
$DIMALTF
 40
0.03937
  9
$DIMLFAC
 40
1.0
  9
$DIMTOFL
 70
     1
  9
$DIMTVP
 40
0.0
  9
$DIMTIX
 70
     0
  9
$DIMSOXD
 70
     0
  9
$DIMSAH
 70
     0
  9
$DIMBLK1
  1

  9
$DIMBLK2
  1

  9
$DIMSTYLE
  2
ISO-25
  9
$DIMCLRD
 70
     0
  9
$DIMCLRE
 70
     0
  9
$DIMCLRT
 70
     0
  9
$DIMTFAC
 40
1.0
  9
$DIMGAP
 40
0.625
  9
$DIMJUST
 70
     0
  9
$DIMSD1
 70
     0
  9
$DIMSD2
 70
     0
  9
$DIMTOLJ
 70
     0
  9
$DIMTZIN
 70
     8
  9
$DIMALTZ
 70
     0
  9
$DIMALTTZ
 70
     0
  9
$DIMUPT
 70
     0
  9
$DIMDEC
 70
     2
  9
$DIMTDEC
 70
     2
  9
$DIMALTU
 70
     2
  9
$DIMALTTD
 70
     3
  9
$DIMTXSTY
  7
Standard
  9
$DIMAUNIT
 70
     0
  9
$DIMADEC
 70
     0
  9
$DIMALTRND
 40
0.0
  9
$DIMAZIN
 70
     0
  9
$DIMDSEP
 70
    44
  9
$DIMATFIT
 70
     3
  9
$DIMFRAC
 70
     0
  9
$DIMLDRBLK
  1

  9
$DIMLUNIT
 70
     2
  9
$DIMLWD
 70
    -2
  9
$DIMLWE
 70
    -2
  9
$DIMTMOVE
 70
     0
  9
$DIMFXL
 40
1.0
  9
$DIMFXLON
 70
     0
  9
$DIMJOGANG
 40
0.785398
  9
$DIMTFILL
 70
     0
  9
$DIMTFILLCLR
 70
     0
  9
$DIMARCSYM
 70
     0
  9
$DIMLTYPE
  6

  9
$DIMLTEX1
  6

  9
$DIMLTEX2
  6

  9
$DIMTXTDIRECTION
 70
     0
  9
$LUNITS
 70
     2
  9
$LUPREC
 70
     4
  9
$SKETCHINC
 40
1.0
  9
$FILLETRAD
 40
10.0
  9
$AUNITS
 70
     0
  9
$AUPREC
 70
     0
  9
$MENU
  1
.
  9
$ELEVATION
 40
0.0
  9
$PELEVATION
 40
0.0
  9
$THICKNESS
 40
0.0
  9
$LIMCHECK
 70
     0
  9
$CHAMFERA
 40
0.0
  9
$CHAMFERB
 40
0.0
  9
$CHAMFERC
 40
0.0
  9
$CHAMFERD
 40
0.0
  9
$SKPOLY
 70
     0
  9
$TDCREATE
 40
2457819.64649684
  9
$TDUCREATE
 40
2457819.604830174
  9
$TDUPDATE
 40
2457819.646497558
  9
$TDUUPDATE
 40
2457819.604830891
  9
$TDINDWG
 40
0.0000000116
  9
$TDUSRTIMER
 40
0.0000000116
  9
$USRTIMER
 70
     1
  9
$ANGBASE
 50
0.0
  9
$ANGDIR
 70
     0
  9
$PDMODE
 70
     0
  9
$PDSIZE
 40
0.0
  9
$PLINEWID
 40
0.0
  9
$SPLFRAME
 70
     0
  9
$SPLINETYPE
 70
     6
  9
$SPLINESEGS
 70
     8
  9
$HANDSEED
  5
27E
  9
$SURFTAB1
 70
     6
  9
$SURFTAB2
 70
     6
  9
$SURFTYPE
 70
     6
  9
$SURFU
 70
     6
  9
$SURFV
 70
     6
  9
$UCSBASE
  2

  9
$UCSNAME
  2

  9
$UCSORG
 10
0.0
 20
0.0
 30
0.0
  9
$UCSXDIR
 10
1.0
 20
0.0
 30
0.0
  9
$UCSYDIR
 10
0.0
 20
1.0
 30
0.0
  9
$UCSORTHOREF
  2

  9
$UCSORTHOVIEW
 70
     0
  9
$UCSORGTOP
 10
0.0
 20
0.0
 30
0.0
  9
$UCSORGBOTTOM
 10
0.0
 20
0.0
 30
0.0
  9
$UCSORGLEFT
 10
0.0
 20
0.0
 30
0.0
  9
$UCSORGRIGHT
 10
0.0
 20
0.0
 30
0.0
  9
$UCSORGFRONT
 10
0.0
 20
0.0
 30
0.0
  9
$UCSORGBACK
 10
0.0
 20
0.0
 30
0.0
  9
$PUCSBASE
  2

  9
$PUCSNAME
  2

  9
$PUCSORG
 10
0.0
 20
0.0
 30
0.0
  9
$PUCSXDIR
 10
1.0
 20
0.0
 30
0.0
  9
$PUCSYDIR
 10
0.0
 20
1.0
 30
0.0
  9
$PUCSORTHOREF
  2

  9
$PUCSORTHOVIEW
 70
     0
  9
$PUCSORGTOP
 10
0.0
 20
0.0
 30
0.0
  9
$PUCSORGBOTTOM
 10
0.0
 20
0.0
 30
0.0
  9
$PUCSORGLEFT
 10
0.0
 20
0.0
 30
0.0
  9
$PUCSORGRIGHT
 10
0.0
 20
0.0
 30
0.0
  9
$PUCSORGFRONT
 10
0.0
 20
0.0
 30
0.0
  9
$PUCSORGBACK
 10
0.0
 20
0.0
 30
0.0
  9
$USERI1
 70
     0
  9
$USERI2
 70
     0
  9
$USERI3
 70
     0
  9
$USERI4
 70
     0
  9
$USERI5
 70
     0
  9
$USERR1
 40
0.0
  9
$USERR2
 40
0.0
  9
$USERR3
 40
0.0
  9
$USERR4
 40
0.0
  9
$USERR5
 40
0.0
  9
$WORLDVIEW
 70
     1
  9
$SHADEDGE
 70
     3
  9
$SHADEDIF
 70
    70
  9
$TILEMODE
 70
     1
  9
$MAXACTVP
 70
    64
  9
$PINSBASE
 10
0.0
 20
0.0
 30
0.0
  9
$PLIMCHECK
 70
     0
  9
$PEXTMIN
 10
1.000000E+20
 20
1.000000E+20
 30
1.000000E+20
  9
$PEXTMAX
 10
-1.000000E+20
 20
-1.000000E+20
 30
-1.000000E+20
  9
$PLIMMIN
 10
0.0
 20
0.0
  9
$PLIMMAX
 10
420.0
 20
297.0
  9
$UNITMODE
 70
     0
  9
$VISRETAIN
 70
     1
  9
$PLINEGEN
 70
     0
  9
$PSLTSCALE
 70
     1
  9
$TREEDEPTH
 70
  3020
  9
$CMLSTYLE
  2
Standard
  9
$CMLJUST
 70
     0
  9
$CMLSCALE
 40
20.0
  9
$PROXYGRAPHICS
 70
     1
  9
$MEASUREMENT
 70
     1
  9
$CELWEIGHT
370
    -1
  9
$ENDCAPS
280
     0
  9
$JOINSTYLE
280
     0
  9
$LWDISPLAY
290
     0
  9
$INSUNITS
 70
     4
  9
$HYPERLINKBASE
  1

  9
$STYLESHEET
  1

  9
$XEDIT
290
     1
  9
$CEPSNTYPE
380
     0
  9
$PSTYLEMODE
290
     1
  9
$FINGERPRINTGUID
  2
{F3C3E1F9-8E4B-4F8D-A367-341DBB995017}
  9
$VERSIONGUID
  2
{FAEB1C32-E019-11D5-929B-00C0DF256EC4}
  9
$EXTNAMES
290
     1
  9
$PSVPSCALE
 40
0.0
  9
$OLESTARTUP
290
     0
  9
$SORTENTS
280
   127
  9
$INDEXCTL
280
     0
  9
$HIDETEXT
280
     1
  9
$XCLIPFRAME
280
     2
  9
$HALOGAP
280
     0
  9
$OBSCOLOR
 70
   257
  9
$OBSLTYPE
280
     0
  9
$INTERSECTIONDISPLAY
280
     0
  9
$INTERSECTIONCOLOR
 70
   257
  9
$DIMASSOC
280
     2
  9
$PROJECTNAME
  1

  9
$CAMERADISPLAY
290
     0
  9
$LENSLENGTH
 40
50.0
  9
$CAMERAHEIGHT
 40
0.0
  9
$STEPSPERSEC
 40
2.0
  9
$STEPSIZE
 40
6.0
  9
$3DDWFPREC
 40
2.0
  9
$PSOLWIDTH
 40
5.0
  9
$PSOLHEIGHT
 40
80.0
  9
$LOFTANG1
 40
1.570796
  9
$LOFTANG2
 40
1.570796
  9
$LOFTMAG1
 40
0.0
  9
$LOFTMAG2
 40
0.0
  9
$LOFTPARAM
 70
     7
  9
$LOFTNORMALS
280
     1
  9
$LATITUDE
 40
37.795
  9
$LONGITUDE
 40
-122.394
  9
$NORTHDIRECTION
 40
0.0
  9
$TIMEZONE
 70
 -8000
  9
$LIGHTGLYPHDISPLAY
280
     1
  9
$TILEMODELIGHTSYNCH
280
     1
  9
$CMATERIAL
347
44
  9
$SOLIDHIST
280
     0
  9
$SHOWHIST
280
     1
  9
$DWFFRAME
280
     2
  9
$DGNFRAME
280
     2
  9
$REALWORLDSCALE
290
     1
  9
$INTERFERECOLOR
 62
   256
  9
$CSHADOW
280
     0
  9
$SHADOWPLANELOCATION
 40
0.0
  0
ENDSEC
  0
SECTION
  2
CLASSES
  0
CLASS
  1
ACDBDICTIONARYWDFLT
  2
AcDbDictionaryWithDefault
  3
ObjectDBX Classes
 90
        0
 91
        4
280
     0
281
     0
  0
CLASS
  1
VISUALSTYLE
  2
AcDbVisualStyle
  3
ObjectDBX Classes
 90
     4095
 91
        4
280
     0
281
     0
  0
CLASS
  1
MATERIAL
  2
AcDbMaterial
  3
ObjectDBX Classes
 90
     1153
 91
        4
280
     0
281
     0
  0
CLASS
  1
SCALE
  2
AcDbScale
  3
ObjectDBX Classes
 90
     1153
 91
        4
280
     0
281
     0
  0
CLASS
  1
TABLESTYLE
  2
AcDbTableStyle
  3
ObjectDBX Classes
 90
     4095
 91
        4
280
     0
281
     0
  0
CLASS
  1
MLEADERSTYLE
  2
AcDbMLeaderStyle
  3
ACDB_MLEADERSTYLE_CLASS
 90
     4095
 91
        4
280
     0
281
     0
  0
CLASS
  1
SUN
  2
AcDbSun
  3
SCENEOE
 90
     1153
 91
        4
280
     0
281
     0
  0
CLASS
  1
DICTIONARYVAR
  2
AcDbDictionaryVar
  3
ObjectDBX Classes
 90
        0
 91
        4
280
     0
281
     0
  0
CLASS
  1
CELLSTYLEMAP
  2
AcDbCellStyleMap
  3
ObjectDBX Classes
 90
     1152
 91
        4
280
     0
281
     0
  0
ENDSEC
  0
SECTION
  2
TABLES
  0
TABLE
  2
VPORT
  5
8
330
0
100
AcDbSymbolTable
 70
     1
  0
VPORT
  5
29
330
8
100
AcDbSymbolTableRecord
100
AcDbViewportTableRecord
  2
*Active
 70
     0
 10
0.0
 20
0.0
 11
1.0
 21
1.0
 12
344.186916
 22
148.5
 13
0.0
 23
0.0
 14
10.0
 24
10.0
 15
10.0
 25
10.0
 16
0.0
 26
0.0
 36
1.0
 17
0.0
 27
0.0
 37
0.0
 40
297.0
 41
1.972973
 42
50.0
 43
0.0
 44
0.0
 50
0.0
 51
0.0
 71
     0
 72
   100
 73
     1
 74
     3
 75
     0
 76
     0
 77
     0
 78
     0
281
     0
 65
     1
110
0.0
120
0.0
130
0.0
111
1.0
121
0.0
131
0.0
112
0.0
122
1.0
132
0.0
 79
     0
146
0.0
348
2F
 60
     3
 61
     5
292
     1
282
     1
141
0.0
142
0.0
 63
   250
361
6D
  0
ENDTAB
  0
TABLE
  2
LTYPE
  5
5
330
0
100
AcDbSymbolTable
 70
     1
  0
LTYPE
  5
14
330
5
100
AcDbSymbolTableRecord
100
AcDbLinetypeTableRecord
  2
ByBlock
 70
     0
  3

 72
    65
 73
     0
 40
0.0
  0
LTYPE
  5
15
330
5
100
AcDbSymbolTableRecord
100
AcDbLinetypeTableRecord
  2
ByLayer
 70
     0
  3

 72
    65
 73
     0
 40
0.0
  0
LTYPE
  5
16
330
5
100
AcDbSymbolTableRecord
100
AcDbLinetypeTableRecord
  2
Continuous
 70
     0
  3
Solid line
 72
    65
 73
     0
 40
0.0
  0
ENDTAB
  0
TABLE
  2
LAYER
  5
2
330
0
100
AcDbSymbolTable
 70
     1
  0
LAYER
  5
10
330
2
100
AcDbSymbolTableRecord
100
AcDbLayerTableRecord
  2
0
 70
     0
 62
   106
  6
Continuous
370
     0
390
F
347
46
  0
ENDTAB
  0
TABLE
  2
STYLE
  5
3
330
0
100
AcDbSymbolTable
 70
     4
  0
STYLE
  5
11
330
3
100
AcDbSymbolTableRecord
100
AcDbTextStyleTableRecord
  2
Standard
 70
     0
 40
0.0
 41
1.0
 50
0.0
 71
     0
 42
2.5
  3
txt
  4

  0
STYLE
  5
6E
330
3
100
AcDbSymbolTableRecord
100
AcDbTextStyleTableRecord
  2
Default
 70
     0
 40
0.0
 41
1.0
 50
0.0
 71
     0
 42
2.5
  3

  4

1001
ACAD
1000
txt
1071
        0
  0
STYLE
  5
6F
330
3
100
AcDbSymbolTableRecord
100
AcDbTextStyleTableRecord
  2
ISO
 70
     0
 40
0.0
 41
1.0
 50
0.0
 71
     0
 42
2.5
  3

  4

1001
ACAD
1000
txt
1071
        0
  0
STYLE
  5
70
330
3
100
AcDbSymbolTableRecord
100
AcDbTextStyleTableRecord
  2
zucchetti
 70
     0
 40
0.0
 41
1.0
 50
0.0
 71
     0
 42
2.5
  3

  4

1001
ACAD
1000
Arial
1071
        0
  0
ENDTAB
  0
TABLE
  2
VIEW
  5
6
330
0
100
AcDbSymbolTable
 70
     0
  0
ENDTAB
  0
TABLE
  2
UCS
  5
7
330
0
100
AcDbSymbolTable
 70
     0
  0
ENDTAB
  0
TABLE
  2
APPID
  5
9
330
0
100
AcDbSymbolTable
 70
     1
  0
APPID
  5
12
330
9
100
AcDbSymbolTableRecord
100
AcDbRegAppTableRecord
  2
ACAD
 70
     0
  0
ENDTAB
  0
TABLE
  2
DIMSTYLE
  5
A
330
0
100
AcDbSymbolTable
 70
     4
100
AcDbDimStyleTable
  0
DIMSTYLE
105
27
330
A
100
AcDbSymbolTableRecord
100
AcDbDimStyleTableRecord
  2
ISO-25
 70
     0
 41
2.5
 42
0.625
 43
3.75
 44
1.25
 73
     0
 74
     0
 77
     1
 78
     8
140
2.5
141
2.5
143
0.03937
147
0.625
171
     3
172
     1
178
     0
271
     2
272
     2
274
     3
278
    44
283
     0
284
     8
340
11
  0
DIMSTYLE
105
71
330
A
100
AcDbSymbolTableRecord
100
AcDbDimStyleTableRecord
  2
Default
 70
     0
  3
<>
 41
4.375
 42
1.05
 44
2.1
 49
10.01
 73
     0
 74
     0
 77
     1
 78
     8
140
3.5
146
0.4
147
1.75
172
     1
271
     2
178
     3
271
     2
272
     3
284
     8
340
6E
341
72
342
72
  0
DIMSTYLE
105
79
330
A
100
AcDbSymbolTableRecord
100
AcDbDimStyleTableRecord
  2
ISO
 70
     0
  3
<>
 41
4.375
 42
1.05
 44
2.1
 49
10.01
 73
     0
 74
     0
 77
     1
 78
     8
140
3.5
146
0.4
147
1.75
172
     1
271
     2
178
     3
271
     2
272
     3
284
     8
340
6F
341
72
342
72
  0
DIMSTYLE
105
7A
330
A
100
AcDbSymbolTableRecord
100
AcDbDimStyleTableRecord
  2
zucchetti
 70
     0
  3
<>
 41
3.0
 42
0.9
 44
1.8
 49
8.58
 73
     0
 74
     0
 77
     1
 78
     8
140
3.0
146
0.6
147
1.5
172
     1
176
     3
177
     3
271
     2
178
     3
271
     2
272
     2
284
     8
340
70
  0
ENDTAB
  0
TABLE
  2
BLOCK_RECORD
  5
1
330
0
100
AcDbSymbolTable
 70
     7
  0
BLOCK_RECORD
  5
1F
330
1
100
AcDbSymbolTableRecord
100
AcDbBlockTableRecord
  2
*Model_Space
340
22
 70
     0
280
     1
281
     0
  0
BLOCK_RECORD
  5
1B
330
1
100
AcDbSymbolTableRecord
100
AcDbBlockTableRecord
  2
*Paper_Space
340
1E
 70
     0
280
     1
281
     0
  0
BLOCK_RECORD
  5
23
330
1
100
AcDbSymbolTableRecord
100
AcDbBlockTableRecord
  2
*Paper_Space0
340
26
 70
     0
280
     1
281
     0
  0
BLOCK_RECORD
  5
72
330
1
100
AcDbSymbolTableRecord
100
AcDbBlockTableRecord
  2
_CLOSED
340
0
 70
     0
280
     1
281
     0
  0
BLOCK_RECORD
  5
7B
330
1
100
AcDbSymbolTableRecord
100
AcDbBlockTableRecord
  2
a
340
0
102
{BLKREFS
331
D4
102
}
 70
     0
280
     1
281
     0
  0
BLOCK_RECORD
  5
D5
330
1
100
AcDbSymbolTableRecord
100
AcDbBlockTableRecord
  2
b
340
0
102
{BLKREFS
331
114
102
}
 70
     0
280
     1
281
     0
  0
BLOCK_RECORD
  5
115
330
1
100
AcDbSymbolTableRecord
100
AcDbBlockTableRecord
  2
c
340
0
102
{BLKREFS
331
15D
102
}
 70
     0
280
     1
281
     0
  0
BLOCK_RECORD
  5
15E
330
1
100
AcDbSymbolTableRecord
100
AcDbBlockTableRecord
  2
d
340
0
102
{BLKREFS
331
1F8
102
}
 70
     0
280
     1
281
     0
  0
BLOCK_RECORD
  5
1F9
330
1
100
AcDbSymbolTableRecord
100
AcDbBlockTableRecord
  2
e
340
0
102
{BLKREFS
331
244
102
}
 70
     0
280
     1
281
     0
  0
ENDTAB
  0
ENDSEC
  0
SECTION
  2
BLOCKS
  0
BLOCK
  5
20
330
1F
100
AcDbEntity
  8
0
100
AcDbBlockBegin
  2
*Model_Space
 70
     0
 10
0.0
 20
0.0
 30
0.0
  3
*Model_Space
  1

  0
ENDBLK
  5
21
330
1F
100
AcDbEntity
  8
0
100
AcDbBlockEnd
  0
BLOCK
  5
1C
330
1B
100
AcDbEntity
 67
     1
  8
0
100
AcDbBlockBegin
  2
*Paper_Space
 70
     0
 10
0.0
 20
0.0
 30
0.0
  3
*Paper_Space
  1

  0
ENDBLK
  5
1D
330
1B
100
AcDbEntity
 67
     1
  8
0
100
AcDbBlockEnd
  0
BLOCK
  5
24
330
23
100
AcDbEntity
  8
0
100
AcDbBlockBegin
  2
*Paper_Space0
 70
     0
 10
0.0
 20
0.0
 30
0.0
  3
*Paper_Space0
  1

  0
ENDBLK
  5
25
330
23
100
AcDbEntity
  8
0
100
AcDbBlockEnd
  0
BLOCK
  5
73
330
72
100
AcDbEntity
  8
0
100
AcDbBlockBegin
  2
_CLOSED
 70
     0
 10
0.0
 20
0.0
 30
0.0
  3
_CLOSED
  1

  0
LINE
  5
75
330
72
100
AcDbEntity
  8
0
  6
ByBlock
 62
     0
370
    -2
100
AcDbLine
 10
-1.0
 20
0.166667
 30
0.0
 11
0.0
 21
0.0
 31
0.0
  0
LINE
  5
76
330
72
100
AcDbEntity
  8
0
  6
ByBlock
 62
     0
370
    -2
100
AcDbLine
 10
0.0
 20
0.0
 30
0.0
 11
-1.0
 21
-0.166667
 31
0.0
  0
LINE
  5
77
330
72
100
AcDbEntity
  8
0
  6
ByBlock
 62
     0
370
    -2
100
AcDbLine
 10
-1.0
 20
0.166667
 30
0.0
 11
-1.0
 21
-0.166667
 31
0.0
  0
LINE
  5
78
330
72
100
AcDbEntity
  8
0
  6
ByBlock
 62
     0
370
    -2
100
AcDbLine
 10
0.0
 20
0.0
 30
0.0
 11
-1.0
 21
0.0
 31
0.0
  0
ENDBLK
  5
74
330
72
100
AcDbEntity
  8
0
100
AcDbBlockEnd
  0
BLOCK
  5
D2
330
7B
100
AcDbEntity
  8
0
100
AcDbBlockBegin
  2
a
 70
     0
 10
208.764786
 20
87.984634
 30
0.0
  3
a
  1

  0
ARC
  5
7C
330
7B
100
AcDbEntity
  8
0
  6
Continuous
 62
     0
370
    30
100
AcDbCircle
 10
328.661728
 20
471.966652
 30
0.0
 40
8.25
100
AcDbArc
 50
339.498288
 51
134.327313
  0
ARC
  5
7D
330
7B
100
AcDbEntity
  8
0
  6
Continuous
 62
     0
370
    30
100
AcDbCircle
 10
328.661728
 20
471.966652
 30
0.0
 40
8.25
100
AcDbArc
 50
134.327313
 51
200.501726
  0
ARC
  5
7E
330
7B
100
AcDbEntity
  8
0
  6
Continuous
 62
     0
370
    30
100
AcDbCircle
 10
328.661728
 20
471.966652
 30
0.0
 40
8.75
100
AcDbArc
 50
336.773348
 51
134.327313
  0
ARC
  5
7F
330
7B
100
AcDbEntity
  8
0
  6
Continuous
 62
     0
370
    30
100
AcDbCircle
 10
328.661728
 20
471.966652
 30
0.0
 40
8.75
100
AcDbArc
 50
134.327313
 51
203.226666
  0
ARC
  5
80
330
7B
100
AcDbEntity
  8
0
  6
Continuous
 62
     0
370
     0
100
AcDbCircle
 10
328.661728
 20
471.966652
 30
0.0
 40
21.6
100
AcDbArc
 50
314.327313
 51
134.327313
  0
ARC
  5
81
330
7B
100
AcDbEntity
  8
0
  6
Continuous
 62
     0
370
     0
100
AcDbCircle
 10
328.661728
 20
471.966652
 30
0.0
 40
21.6
100
AcDbArc
 50
281.885896
 51
314.327313
  0
ARC
  5
82
330
7B
100
AcDbEntity
  8
0
  6
Continuous
 62
     0
370
     0
100
AcDbCircle
 10
328.661728
 20
471.966652
 30
0.0
 40
21.6
100
AcDbArc
 50
134.327313
 51
258.114109
  0
ARC
  5
83
330
7B
100
AcDbEntity
  8
0
  6
Continuous
 62
     0
370
    30
100
AcDbCircle
 10
328.661728
 20
471.966652
 30
0.0
 40
22.1
100
AcDbArc
 50
281.661653
 51
314.327313
  0
ARC
  5
84
330
7B
100
AcDbEntity
  8
0
  6
Continuous
 62
     0
370
    30
100
AcDbCircle
 10
328.661728
 20
471.966652
 30
0.0
 40
22.1
100
AcDbArc
 50
134.327313
 51
258.338351
  0
ARC
  5
85
330
7B
100
AcDbEntity
  8
0
  6
Continuous
 62
     0
370
    30
100
AcDbCircle
 10
328.661728
 20
471.966652
 30
0.0
 40
22.1
100
AcDbArc
 50
314.327313
 51
134.327313
  0
LWPOLYLINE
  5
86
330
7B
100
AcDbEntity
  8
0
  6
Continuous
 62
     0
370
     0
100
AcDbPolyline
 90
        6
 70
     0
 43
0.0
 10
334.565063
 20
457.861053
 10
334.55896
 20
457.841797
 10
334.527588
 20
457.852539
 10
334.477142
 20
457.88736
 10
334.408325
 20
457.947296
 10
334.302704
 20
458.057007
  0
ARC
  5
87
330
7B
100
AcDbEntity
  8
0
  6
Continuous
 62
     0
370
    30
100
AcDbCircle
 10
328.738111
 20
464.467172
 30
0.0
 40
8.92304589214016
100
AcDbArc
 50
359.809843
 51
90.490466
  0
ARC
  5
88
330
7B
100
AcDbEntity
  8
0
  6
Continuous
 62
     0
370
    30
100
AcDbCircle
 10
328.585347
 20
464.467171
 30
0.0
 40
8.923046862207958
100
AcDbArc
 50
89.509538
 51
180.189853
  0
LWPOLYLINE
  5
89
330
7B
100
AcDbEntity
  8
0
  6
Continuous
 62
     0
370
     0
100
AcDbPolyline
 90
        6
 70
     0
 43
0.0
 10
323.020782
 20
458.057007
 10
322.930634
 20
457.962158
 10
322.858093
 20
457.89682
 10
322.804199
 20
457.857422
 10
322.76889
 20
457.841827
 10
322.758392
 20
457.861053
  0
ARC
  5
8A
330
7B
100
AcDbEntity
  8
0
  6
Continuous
 62
     0
370
     0
100
AcDbCircle
 10
328.661729
 20
464.404121
 30
0.0
 40
8.491551050597423
100
AcDbArc
 50
311.628879
 51
228.37115
  0
LINE
  5
8B
330
7B
100
AcDbEntity
  8
0
  6
Continuous
 62
     0
370
     0
100
AcDbLine
 10
324.487491
 20
454.085203
 30
0.0
 11
324.129087
 21
454.271566
 31
0.0
  0
ARC
  5
8C
330
7B
100
AcDbEntity
  8
0
  6
Continuous
 62
     0
370
    30
100
AcDbCircle
 10
318.484694
 20
454.125177
 30
0.0
 40
6.002930031227612
100
AcDbArc
 50
359.618457
 51
40.918376
  0
ARC
  5
8D
330
7B
100
AcDbEntity
  8
0
  6
Continuous
 62
     0
370
    30
100
AcDbCircle
 10
338.838777
 20
454.125171
 30
0.0
 40
6.002943329815485
100
AcDbArc
 50
139.081621
 51
180.381486
  0
LINE
  5
8E
330
7B
100
AcDbEntity
  8
0
  6
Continuous
 62
     0
370
     0
100
AcDbLine
 10
333.194371
 20
454.271566
 30
0.0
 11
332.835966
 21
454.085203
 31
0.0
  0
LINE
  5
8F
330
7B
100
AcDbEntity
  8
0
  6
Continuous
 62
     0
370
     0
100
AcDbLine
 10
334.302692
 20
458.056998
 30
0.0
 11
323.020769
 21
458.056995
 31
0.0
  0
LINE
  5
90
330
7B
100
AcDbEntity
  8
0
  6
Continuous
 62
     0
370
     0
100
AcDbLine
 10
332.835966
 20
454.085203
 30
0.0
 11
324.487491
 21
454.085203
 31
0.0
  0
LINE
  5
91
330
7B
100
AcDbEntity
  8
0
  6
Continuous
 62
     0
370
     0
100
AcDbLine
 10
335.533399
 20
374.620249
 30
0.0
 11
335.670838
 21
374.622866
 31
0.0
  0
LINE
  5
92
330
7B
100
AcDbEntity
  8
0
  6
Continuous
 62
     0
370
     0
100
AcDbLine
 10
321.940838
 20
374.620249
 30
0.0
 11
335.533399
 21
374.620249
 31
0.0
  0
LWPOLYLINE
  5
93
330
7B
100
AcDbEntity
  8
0
  6
Continuous
 62
     0
370
     0
100
AcDbPolyline
 90
        5
 70
     0
 43
0.0
 10
321.652832
 20
374.624176
 10
321.665405
 20
374.623016
 10
321.705566
 20
374.621918
 10
321.77829
 20
374.620941
 10
321.940826
 20
374.620239
  0
LINE
  5
94
330
7B
100
AcDbEntity
  8
0
  6
Continuous
 62
     0
370
     0
100
AcDbLine
 10
321.556694
 20
377.348184
 30
0.0
 11
324.268481
 21
452.368188
 31
0.0
  0
LWPOLYLINE
  5
95
330
7B
100
AcDbEntity
  8
0
  6
Continuous
 62
     0
370
     0
100
AcDbPolyline
 90
       23
 70
     0
 43
0.0
 10
321.45282
 20
374.831543
 10
321.611298
 20
378.447418
 10
321.771729
 20
382.061279
 10
321.932587
 20
385.672729
 10
322.091736
 20
389.281891
 10
322.246674
 20
392.889587
 10
322.395294
 20
396.497192
 10
322.539825
 20
400.105042
 10
322.687073
 20
403.712128
 10
322.842651
 20
407.317627
 10
323.012543
 20
410.920471
 10
323.202515
 20
414.519287
 10
323.408844
 20
418.114624
 10
323.621796
 20
421.708405
 10
323.830994
 20
425.302948
 10
324.025818
 20
428.900421
 10
324.195557
 20
432.502747
 10
324.329254
 20
436.111084
 10
324.416016
 20
439.725525
 10
324.445068
 20
443.344879
 10
324.407257
 20
446.966278
 10
324.317108
 20
450.586792
 10
324.129089
 20
454.271576
  0
LWPOLYLINE
  5
96
330
7B
100
AcDbEntity
  8
0
  6
Continuous
 62
     0
370
     0
100
AcDbPolyline
 90
       23
 70
     0
 43
0.0
 10
324.487488
 20
454.085205
 10
324.65448
 20
450.479095
 10
324.743256
 20
446.868866
 10
324.784454
 20
443.257843
 10
324.755127
 20
439.649048
 10
324.666565
 20
436.045258
 10
324.531067
 20
432.447571
 10
324.360291
 20
428.855682
 10
324.165375
 20
425.268341
 10
323.956848
 20
421.683716
 10
323.744965
 20
418.099762
 10
323.539612
 20
414.514313
 10
323.350342
 20
410.925507
 10
323.180786
 20
407.332886
 10
323.025543
 20
403.737671
 10
322.878662
 20
400.140869
 10
322.734619
 20
396.543365
 10
322.586517
 20
392.946075
 10
322.432129
 20
389.348663
 10
322.273499
 20
385.749817
 10
322.113098
 20
382.148712
 10
321.953094
 20
378.545166
 10
321.790039
 20
374.826508
  0
LINE
  5
97
330
7B
100
AcDbEntity
  8
0
  6
Continuous
 62
     0
370
     0
100
AcDbLine
 10
321.790054
 20
374.826503
 30
0.0
 11
335.533404
 21
374.826503
 31
0.0
  0
LWPOLYLINE
  5
98
330
7B
100
AcDbEntity
  8
0
  6
Continuous
 62
     0
370
     0
100
AcDbPolyline
 90
       23
 70
     0
 43
0.0
 10
332.835968
 20
454.085205
 10
332.668976
 20
450.479095
 10
332.5802
 20
446.868866
 10
332.539001
 20
443.257843
 10
332.568359
 20
439.649048
 10
332.656891
 20
436.045258
 10
332.792389
 20
432.447571
 10
332.963165
 20
428.855682
 10
333.158081
 20
425.268341
 10
333.366608
 20
421.683716
 10
333.578491
 20
418.099762
 10
333.783844
 20
414.514313
 10
333.973145
 20
410.925507
 10
334.14267
 20
407.332886
 10
334.297913
 20
403.737671
 10
334.444794
 20
400.140869
 10
334.588837
 20
396.543365
 10
334.736938
 20
392.946075
 10
334.891327
 20
389.348663
 10
335.049957
 20
385.749817
 10
335.210358
 20
382.148682
 10
335.370361
 20
378.545166
 10
335.533417
 20
374.826508
  0
LINE
  5
99
330
7B
100
AcDbEntity
  8
0
  6
Continuous
 62
     0
370
     0
100
AcDbLine
 10
335.533404
 20
374.826503
 30
0.0
 11
335.87065
 21
374.831537
 31
0.0
  0
LWPOLYLINE
  5
9A
330
7B
100
AcDbEntity
  8
0
  6
Continuous
 62
     0
370
     0
100
AcDbPolyline
 90
       23
 70
     0
 43
0.0
 10
335.870636
 20
374.831543
 10
335.712158
 20
378.447418
 10
335.551727
 20
382.061279
 10
335.390869
 20
385.672729
 10
335.23172
 20
389.281891
 10
335.076782
 20
392.889618
 10
334.928162
 20
396.497192
 10
334.78363
 20
400.105042
 10
334.636383
 20
403.712128
 10
334.480804
 20
407.317657
 10
334.310913
 20
410.920471
 10
334.120941
 20
414.519318
 10
333.914612
 20
418.114655
 10
333.70166
 20
421.708435
 10
333.492462
 20
425.302948
 10
333.297607
 20
428.900452
 10
333.127899
 20
432.502777
 10
332.994202
 20
436.111115
 10
332.90744
 20
439.725555
 10
332.878387
 20
443.34491
 10
332.916199
 20
446.966309
 10
333.006348
 20
450.586823
 10
333.194366
 20
454.271576
  0
LINE
  5
9B
330
7B
100
AcDbEntity
  8
0
  6
Continuous
 62
     0
370
     0
100
AcDbLine
 10
333.054976
 20
452.368193
 30
0.0
 11
335.850166
 21
374.969338
 31
0.0
  0
ARC
  5
9C
330
7B
100
AcDbEntity
  8
0
  6
Continuous
 62
     0
370
     0
100
AcDbCircle
 10
335.670838
 20
374.822858
 30
0.0
 40
0.200000002980228
100
AcDbArc
 50
270.0
 51
2.486475
  0
LINE
  5
9D
330
7B
100
AcDbEntity
  8
0
  6
Continuous
 62
     0
370
     0
100
AcDbLine
 10
335.533399
 20
374.826503
 30
0.0
 11
335.533399
 21
374.620241
 31
0.0
  0
LINE
  5
9E
330
7B
100
AcDbEntity
  8
0
  6
Continuous
 62
     0
370
     0
100
AcDbLine
 10
321.940838
 20
374.620249
 30
0.0
 11
321.790054
 21
374.826503
 31
0.0
  0
LINE
  5
9F
330
7B
100
AcDbEntity
  8
0
  6
Continuous
 62
     0
370
     0
100
AcDbLine
 10
321.452807
 20
374.831537
 30
0.0
 11
321.652842
 21
374.624181
 31
0.0
  0
LINE
  5
A0
330
7B
100
AcDbEntity
  8
0
  6
Continuous
 62
     0
370
     0
100
AcDbLine
 10
321.790054
 20
374.826503
 30
0.0
 11
321.452807
 21
374.831537
 31
0.0
  0
ELLIPSE
  5
A1
330
7B
100
AcDbEntity
  8
0
  6
Continuous
 62
     0
370
     0
100
AcDbEllipse
 10
328.661729
 20
468.13162
 30
0.0
 11
6.677043075314439
 21
3.132709311094400E-7
 31
0.0
210
0.0
220
0.0
230
1.0
 40
0.983255
 41
1.570796276912615
 42
2.452201072628052
  0
ELLIPSE
  5
A2
330
7B
100
AcDbEntity
  8
0
  6
Continuous
 62
     0
370
     0
100
AcDbEllipse
 10
328.661729
 20
468.13162
 30
0.0
 11
6.677043075314439
 21
3.132709311094400E-7
 31
0.0
210
0.0
220
0.0
230
1.0
 40
0.983255
 41
0.6893915809617459
 42
1.570796276912614
  0
LINE
  5
A3
330
7B
100
AcDbEntity
  8
0
  6
Continuous
 62
     0
370
    30
100
AcDbLine
 10
333.766934
 20
472.355949
 30
0.0
 11
332.975868
 21
473.14578
 31
0.0
  0
LINE
  5
A4
330
7B
100
AcDbEntity
  8
0
  6
Continuous
 62
     0
370
    30
100
AcDbLine
 10
323.556523
 20
472.355949
 30
0.0
 11
324.347589
 21
473.14578
 31
0.0
  0
LINE
  5
A5
330
7B
100
AcDbEntity
  8
0
  6
Continuous
 62
     0
370
    30
100
AcDbLine
 10
321.717031
 20
470.169467
 30
0.0
 11
323.509501
 21
472.307555
 31
0.0
  0
LINE
  5
A6
330
7B
100
AcDbEntity
  8
0
  6
Continuous
 62
     0
370
    30
100
AcDbLine
 10
333.813956
 20
472.307555
 30
0.0
 11
335.606426
 21
470.169468
 31
0.0
  0
LINE
  5
A7
330
7B
100
AcDbEntity
  8
0
  6
Continuous
 62
     0
370
    30
100
AcDbLine
 10
321.452807
 20
374.831532
 30
0.0
 11
321.563014
 21
377.347963
 31
0.0
  0
LINE
  5
A8
330
7B
100
AcDbEntity
  8
0
  6
Continuous
 62
     0
370
    30
100
AcDbLine
 10
333.194129
 20
454.260542
 30
0.0
 11
333.217199
 21
454.459043
 31
0.0
  0
LINE
  5
A9
330
7B
100
AcDbEntity
  8
0
  6
Continuous
 62
     0
370
    30
100
AcDbLine
 10
324.129328
 20
454.260542
 30
0.0
 11
324.106258
 21
454.459043
 31
0.0
  0
ARC
  5
AA
330
7B
100
AcDbEntity
  8
0
  6
Continuous
 62
     0
370
    30
100
AcDbCircle
 10
328.474048
 20
464.552329
 30
0.0
 40
8.812446238175369
100
AcDbArc
 50
180.745926
 51
229.575913
  0
ARC
  5
AB
330
7B
100
AcDbEntity
  8
0
  6
Continuous
 62
     0
370
    30
100
AcDbCircle
 10
328.831157
 20
464.560903
 30
0.0
 40
8.830812573723637
100
AcDbArc
 50
310.47817
 51
359.199691
  0
LINE
  5
AC
330
7B
100
AcDbEntity
  8
0
  6
Continuous
 62
     0
370
    30
100
AcDbLine
 10
323.391896
 20
478.314201
 30
0.0
 11
333.93156
 21
478.314201
 31
0.0
  0
ARC
  5
AD
330
7B
100
AcDbEntity
  8
0
  6
Continuous
 62
     0
370
    30
100
AcDbCircle
 10
328.585708
 20
470.126126
 30
0.0
 40
8.129462960986348
100
AcDbArc
 50
95.01508
 51
174.919295
  0
ARC
  5
AE
330
7B
100
AcDbEntity
  8
0
  6
Continuous
 62
     0
370
    30
100
AcDbCircle
 10
328.737748
 20
470.126125
 30
0.0
 40
8.129463066675703
100
AcDbArc
 50
5.08074
 51
84.984921
  0
ARC
  5
AF
330
7B
100
AcDbEntity
  8
0
  6
Continuous
 62
     0
370
    30
100
AcDbCircle
 10
328.661883
 20
471.966815
 30
0.0
 40
89.99984467663884
100
AcDbArc
 50
359.999896
 51
265.586247
  0
ARC
  5
B0
330
7B
100
AcDbEntity
  8
0
  6
Continuous
 62
     0
370
    30
100
AcDbCircle
 10
328.662654
 20
471.966089
 30
0.0
 40
89.99907421003408
100
AcDbArc
 50
274.413102
 51
0.000358
  0
ARC
  5
B1
330
7B
100
AcDbEntity
  8
0
  6
Continuous
 62
     0
370
     0
100
AcDbCircle
 10
328.662646
 20
471.966094
 30
0.0
 40
88.99908167684117
100
AcDbArc
 50
274.439468
 51
0.000359
  0
ARC
  5
B2
330
7B
100
AcDbEntity
  8
0
  6
Continuous
 62
     0
370
     0
100
AcDbCircle
 10
328.661882
 20
471.966814
 30
0.0
 40
88.99984549987835
100
AcDbArc
 50
359.999896
 51
265.559879
  0
ARC
  5
B3
330
7B
100
AcDbEntity
  8
0
  6
Continuous
 62
     0
370
    30
100
AcDbCircle
 10
328.661728
 20
471.966652
 30
0.0
 40
22.4
100
AcDbArc
 50
281.531981
 51
360.0
  0
ARC
  5
B4
330
7B
100
AcDbEntity
  8
0
  6
Continuous
 62
     0
370
    30
100
AcDbCircle
 10
328.661728
 20
471.966652
 30
0.0
 40
22.4
100
AcDbArc
 50
0.0
 51
258.468023
  0
ARC
  5
B5
330
7B
100
AcDbEntity
  8
0
  6
Continuous
 62
     0
370
     0
100
AcDbCircle
 10
328.66175
 20
471.96683
 30
0.0
 40
22.89997813892175
100
AcDbArc
 50
359.999555
 51
258.676443
  0
ARC
  5
B6
330
7B
100
AcDbEntity
  8
0
  6
Continuous
 62
     0
370
     0
100
AcDbCircle
 10
328.662613
 20
471.966128
 30
0.0
 40
22.899114837587
100
AcDbArc
 50
281.32168
 51
0.001311
  0
LWPOLYLINE
  5
B7
330
7B
100
AcDbEntity
  8
0
  6
Continuous
 62
     0
370
    30
100
AcDbPolyline
 90
       25
 70
     0
 43
0.0
 10
321.990906
 20
389.301697
 10
321.882782
 20
389.351532
 10
321.78183
 20
389.416931
 10
321.689941
 20
389.495636
 10
321.60907
 20
389.585297
 10
321.54126
 20
389.683563
 10
321.488373
 20
389.788147
 10
321.452301
 20
389.896729
 10
321.432159
 20
390.007874
 10
321.424683
 20
390.120911
 10
321.426514
 20
390.235199
 10
321.434357
 20
390.350098
 10
321.444794
 20
390.464935
 10
321.454529
 20
390.579071
 10
321.460175
 20
390.691864
 10
321.458405
 20
390.802673
 10
321.446472
 20
390.91098
 10
321.428619
 20
391.018524
 10
321.414124
 20
391.128387
 10
321.412231
 20
391.243774
 10
321.43222
 20
391.367859
 10
321.472717
 20
391.499207
 10
321.509308
 20
391.626343
 10
321.514374
 20
391.736481
 10
321.457123
 20
391.81897
  0
LWPOLYLINE
  5
B8
330
7B
100
AcDbEntity
  8
0
  6
Continuous
 62
     0
370
    30
100
AcDbPolyline
 90
       27
 70
     0
 43
0.0
 10
321.457123
 20
391.81897
 10
321.309692
 20
391.797577
 10
321.166443
 20
391.758514
 10
321.061157
 20
391.687714
 10
321.017487
 20
391.576385
 10
321.020691
 20
391.435089
 10
321.047028
 20
391.279175
 10
321.07312
 20
391.123657
 10
321.087067
 20
390.976074
 10
321.090912
 20
390.834961
 10
321.087677
 20
390.698212
 10
321.080231
 20
390.563812
 10
321.071564
 20
390.429688
 10
321.064636
 20
390.293762
 10
321.062347
 20
390.154022
 10
321.067261
 20
390.009949
 10
321.081177
 20
389.86438
 10
321.105713
 20
389.720428
 10
321.142578
 20
389.581268
 10
321.19339
 20
389.450043
 10
321.259827
 20
389.329956
 10
321.343567
 20
389.224152
 10
321.444916
 20
389.134644
 10
321.561401
 20
389.061218
 10
321.690308
 20
389.003418
 10
321.828918
 20
388.960754
 10
321.977539
 20
388.932281
  0
LINE
  5
B9
330
7B
100
AcDbEntity
  8
0
  6
Continuous
 62
     0
370
    30
100
AcDbLine
 10
318.652006
 20
389.361689
 30
0.0
 11
318.652006
 21
388.966422
 31
0.0
  0
LINE
  5
BA
330
7B
100
AcDbEntity
  8
0
  6
Continuous
 62
     0
370
    30
100
AcDbLine
 10
318.652006
 20
388.966422
 30
0.0
 11
320.797152
 21
388.966422
 31
0.0
  0
LINE
  5
BB
330
7B
100
AcDbEntity
  8
0
  6
Continuous
 62
     0
370
    30
100
AcDbLine
 10
320.797152
 20
388.966422
 30
0.0
 11
320.797152
 21
389.314377
 31
0.0
  0
LINE
  5
BC
330
7B
100
AcDbEntity
  8
0
  6
Continuous
 62
     0
370
    30
100
AcDbLine
 10
320.797152
 20
389.314377
 30
0.0
 11
319.106299
 21
389.314377
 31
0.0
  0
LINE
  5
BD
330
7B
100
AcDbEntity
  8
0
  6
Continuous
 62
     0
370
    30
100
AcDbLine
 10
319.106299
 20
389.314377
 30
0.0
 11
320.769361
 21
391.427827
 31
0.0
  0
LINE
  5
BE
330
7B
100
AcDbEntity
  8
0
  6
Continuous
 62
     0
370
    30
100
AcDbLine
 10
320.769361
 20
391.427827
 30
0.0
 11
320.769361
 21
391.81896
 31
0.0
  0
LINE
  5
BF
330
7B
100
AcDbEntity
  8
0
  6
Continuous
 62
     0
370
    30
100
AcDbLine
 10
320.769361
 20
391.81896
 30
0.0
 11
318.695415
 21
391.81896
 31
0.0
  0
LINE
  5
C0
330
7B
100
AcDbEntity
  8
0
  6
Continuous
 62
     0
370
    30
100
AcDbLine
 10
318.695415
 20
391.81896
 30
0.0
 11
318.695415
 21
391.471235
 31
0.0
  0
LINE
  5
C1
330
7B
100
AcDbEntity
  8
0
  6
Continuous
 62
     0
370
    30
100
AcDbLine
 10
318.695415
 20
391.471235
 30
0.0
 11
320.299336
 21
391.471235
 31
0.0
  0
LINE
  5
C2
330
7B
100
AcDbEntity
  8
0
  6
Continuous
 62
     0
370
    30
100
AcDbLine
 10
320.299336
 20
391.471235
 30
0.0
 11
318.652006
 21
389.361689
 31
0.0
  0
LINE
  5
C3
330
7B
100
AcDbEntity
  8
0
  6
Continuous
 62
     0
370
    30
100
AcDbLine
 10
335.254223
 20
391.471006
 30
0.0
 11
335.896885
 21
391.471006
 31
0.0
  0
LINE
  5
C4
330
7B
100
AcDbEntity
  8
0
  6
Continuous
 62
     0
370
    30
100
AcDbLine
 10
335.896885
 20
391.471006
 30
0.0
 11
335.896885
 21
388.966652
 31
0.0
  0
LINE
  5
C5
330
7B
100
AcDbEntity
  8
0
  6
Continuous
 62
     0
370
    30
100
AcDbLine
 10
335.896885
 20
388.966652
 30
0.0
 11
336.287904
 21
388.966652
 31
0.0
  0
LINE
  5
C6
330
7B
100
AcDbEntity
  8
0
  6
Continuous
 62
     0
370
    30
100
AcDbLine
 10
336.287904
 20
388.966652
 30
0.0
 11
336.287904
 21
391.471006
 31
0.0
  0
LINE
  5
C7
330
7B
100
AcDbEntity
  8
0
  6
Continuous
 62
     0
370
    30
100
AcDbLine
 10
336.287904
 20
391.471006
 30
0.0
 11
337.243917
 21
391.471006
 31
0.0
  0
LINE
  5
C8
330
7B
100
AcDbEntity
  8
0
  6
Continuous
 62
     0
370
    30
100
AcDbLine
 10
337.243917
 20
391.471006
 30
0.0
 11
337.243917
 21
391.81896
 31
0.0
  0
LINE
  5
C9
330
7B
100
AcDbEntity
  8
0
  6
Continuous
 62
     0
370
    30
100
AcDbLine
 10
337.243917
 20
391.81896
 30
0.0
 11
335.241657
 21
391.81896
 31
0.0
  0
LINE
  5
CA
330
7B
100
AcDbEntity
  8
0
  6
Continuous
 62
     0
370
    30
100
AcDbLine
 10
337.54008
 20
391.81896
 30
0.0
 11
337.54008
 21
388.966652
 31
0.0
  0
LINE
  5
CB
330
7B
100
AcDbEntity
  8
0
  6
Continuous
 62
     0
370
    30
100
AcDbLine
 10
337.54008
 20
388.966652
 30
0.0
 11
337.935233
 21
388.966652
 31
0.0
  0
LINE
  5
CC
330
7B
100
AcDbEntity
  8
0
  6
Continuous
 62
     0
370
    30
100
AcDbLine
 10
337.935233
 20
388.966652
 30
0.0
 11
337.935233
 21
391.81896
 31
0.0
  0
LINE
  5
CD
330
7B
100
AcDbEntity
  8
0
  6
Continuous
 62
     0
370
    30
100
AcDbLine
 10
337.935233
 20
391.81896
 30
0.0
 11
337.54008
 21
391.81896
 31
0.0
  0
LINE
  5
CE
330
7B
100
AcDbEntity
  8
0
  6
Continuous
 62
     0
370
    30
100
AcDbLine
 10
338.254938
 20
388.966652
 30
0.0
 11
338.651927
 21
388.966652
 31
0.0
  0
LINE
  5
CF
330
7B
100
AcDbEntity
  8
0
  6
Continuous
 62
     0
370
    30
100
AcDbLine
 10
338.651927
 20
388.966652
 30
0.0
 11
338.651927
 21
389.717223
 31
0.0
  0
LINE
  5
D0
330
7B
100
AcDbEntity
  8
0
  6
Continuous
 62
     0
370
    30
100
AcDbLine
 10
338.651927
 20
389.717223
 30
0.0
 11
338.254938
 21
389.717223
 31
0.0
  0
LINE
  5
D1
330
7B
100
AcDbEntity
  8
0
  6
Continuous
 62
     0
370
    30
100
AcDbLine
 10
338.254938
 20
389.717223
 30
0.0
 11
338.254938
 21
388.966652
 31
0.0
  0
ENDBLK
  5
D3
330
7B
100
AcDbEntity
  8
0
100
AcDbBlockEnd
  0
BLOCK
  5
112
330
D5
100
AcDbEntity
  8
0
100
AcDbBlockBegin
  2
b
 70
     0
 10
208.764786
 20
87.984634
 30
0.0
  3
b
  1

  0
LINE
  5
D6
330
D5
100
AcDbEntity
  8
0
  6
Continuous
 62
     0
370
    30
100
AcDbLine
 10
306.561728
 20
128.723369
 30
0.0
 11
319.657225
 21
128.723369
 31
0.0
  0
LINE
  5
D7
330
D5
100
AcDbEntity
  8
0
  6
Continuous
 62
     0
370
    30
100
AcDbLine
 10
320.26839
 20
170.123369
 30
0.0
 11
349.261728
 21
170.123369
 31
0.0
  0
LINE
  5
D8
330
D5
100
AcDbEntity
  8
0
  6
Continuous
 62
     0
370
    30
100
AcDbLine
 10
308.061728
 20
170.123369
 30
0.0
 11
320.26839
 21
170.123369
 31
0.0
  0
LINE
  5
D9
330
D5
100
AcDbEntity
  8
0
  6
Continuous
 62
     0
370
    30
100
AcDbLine
 10
306.561728
 20
168.623369
 30
0.0
 11
319.657225
 21
168.623369
 31
0.0
  0
LINE
  5
DA
330
D5
100
AcDbEntity
  8
0
  6
Continuous
 62
     0
370
    30
100
AcDbLine
 10
319.657225
 20
168.623369
 30
0.0
 11
350.761728
 21
168.623369
 31
0.0
  0
LINE
  5
DB
330
D5
100
AcDbEntity
  8
0
  6
Continuous
 62
     0
370
    30
100
AcDbLine
 10
306.561747
 20
168.623369
 30
0.0
 11
308.061746
 21
170.123369
 31
0.0
  0
LINE
  5
DC
330
D5
100
AcDbEntity
  8
0
  6
Continuous
 62
     0
370
    30
100
AcDbLine
 10
350.761709
 20
168.623369
 30
0.0
 11
349.26171
 21
170.123369
 31
0.0
  0
LINE
  5
DD
330
D5
100
AcDbEntity
  8
0
  6
Continuous
 62
     0
370
    30
100
AcDbLine
 10
306.561728
 20
149.02256
 30
0.0
 11
306.561728
 21
168.623369
 31
0.0
  0
LINE
  5
DE
330
D5
100
AcDbEntity
  8
0
  6
Continuous
 62
     0
370
    30
100
AcDbLine
 10
306.561728
 20
128.723369
 30
0.0
 11
306.561728
 21
137.02256
 31
0.0
  0
LINE
  5
DF
330
D5
100
AcDbEntity
  8
0
  6
Continuous
 62
     0
370
    30
100
AcDbLine
 10
350.761728
 20
149.02256
 30
0.0
 11
350.761728
 21
168.623369
 31
0.0
  0
LINE
  5
E0
330
D5
100
AcDbEntity
  8
0
  6
Continuous
 62
     0
370
    30
100
AcDbLine
 10
350.761728
 20
128.723369
 30
0.0
 11
350.761728
 21
137.02256
 31
0.0
  0
LINE
  5
E1
330
D5
100
AcDbEntity
  8
0
  6
Continuous
 62
     0
370
    30
100
AcDbLine
 10
350.761728
 20
128.723369
 30
0.0
 11
319.657225
 21
128.723369
 31
0.0
  0
LINE
  5
E2
330
D5
100
AcDbEntity
  8
0
  6
Continuous
 62
     0
370
    30
100
AcDbLine
 10
350.261728
 20
115.223369
 30
0.0
 11
313.56859
 21
115.223369
 31
0.0
  0
LINE
  5
E3
330
D5
100
AcDbEntity
  8
0
  6
Continuous
 62
     0
370
    30
100
AcDbLine
 10
313.56859
 20
115.223369
 30
0.0
 11
307.061728
 21
115.223369
 31
0.0
  0
LINE
  5
E4
330
D5
100
AcDbEntity
  8
0
  6
Continuous
 62
     0
370
     0
100
AcDbLine
 10
313.219212
 20
115.723369
 30
0.0
 11
306.561728
 21
115.723369
 31
0.0
  0
LINE
  5
E5
330
D5
100
AcDbEntity
  8
0
  6
Continuous
 62
     0
370
     0
100
AcDbLine
 10
350.761728
 20
115.723369
 30
0.0
 11
313.219212
 21
115.723369
 31
0.0
  0
LINE
  5
E6
330
D5
100
AcDbEntity
  8
0
  6
Continuous
 62
     0
370
    30
100
AcDbLine
 10
306.561728
 20
128.723369
 30
0.0
 11
306.561728
 21
115.723369
 31
0.0
  0
LINE
  5
E7
330
D5
100
AcDbEntity
  8
0
  6
Continuous
 62
     0
370
    30
100
AcDbLine
 10
350.761728
 20
128.723369
 30
0.0
 11
350.761728
 21
115.723369
 31
0.0
  0
LWPOLYLINE
  5
E8
330
D5
100
AcDbEntity
  8
0
  6
Continuous
 62
     0
370
    30
100
AcDbPolyline
 90
       18
 70
     0
 43
0.0
 10
328.661743
 20
87.816475
 10
329.503326
 20
87.823654
 10
330.337524
 20
87.845146
 10
331.157074
 20
87.88076
 10
331.954712
 20
87.930176
 10
332.723541
 20
87.992973
 10
333.456757
 20
88.068596
 10
334.147949
 20
88.15638
 10
334.791046
 20
88.255569
 10
335.380432
 20
88.36528
 10
335.91095
 20
88.484566
 10
336.37796
 20
88.612358
 10
336.777313
 20
88.747559
 10
337.10556
 20
88.888962
 10
337.359833
 20
89.035347
 10
337.537872
 20
89.18541
 10
337.638123
 20
89.33786
 10
337.659576
 20
89.492409
  0
LWPOLYLINE
  5
E9
330
D5
100
AcDbEntity
  8
0
  6
Continuous
 62
     0
370
    30
100
AcDbPolyline
 90
       18
 70
     0
 43
0.0
 10
319.663879
 20
89.492409
 10
319.684937
 20
89.338921
 10
319.784637
 20
89.18647
 10
319.962128
 20
89.036377
 10
320.215851
 20
88.889969
 10
320.54361
 20
88.74852
 10
320.942474
 20
88.613281
 10
321.409027
 20
88.48542
 10
321.939117
 20
88.366081
 10
322.528107
 20
88.256294
 10
323.170868
 20
88.157036
 10
323.861755
 20
88.06916
 10
324.594696
 20
87.993454
 10
325.363281
 20
87.930565
 10
326.160767
 20
87.881058
 10
326.980164
 20
87.845345
 10
327.814301
 20
87.823761
 10
328.661743
 20
87.816475
  0
LINE
  5
EA
330
D5
100
AcDbEntity
  8
0
  6
Continuous
 62
     0
370
     0
100
AcDbLine
 10
321.456353
 20
88.045373
 30
0.0
 11
321.452807
 21
85.53343
 31
0.0
  0
ARC
  5
EB
330
D5
100
AcDbEntity
  8
0
  6
Continuous
 62
     0
370
     0
100
AcDbCircle
 10
316.108836
 20
90.391494
 30
0.0
 40
7.222105650677376
100
AcDbArc
 50
317.726856
 51
338.576124
  0
ARC
  5
EC
330
D5
100
AcDbEntity
  8
0
  6
Continuous
 62
     0
370
     0
100
AcDbCircle
 10
314.45575
 20
91.266652
 30
0.0
 40
9.625226009474515
100
AcDbArc
 50
319.639741
 51
338.045961
  0
LINE
  5
ED
330
D5
100
AcDbEntity
  8
0
  6
Continuous
 62
     0
370
     0
100
AcDbLine
 10
321.790054
 20
85.033437
 30
0.0
 11
335.533404
 21
85.033437
 31
0.0
  0
ARC
  5
EE
330
D5
100
AcDbEntity
  8
0
  6
Continuous
 62
     0
370
     0
100
AcDbCircle
 10
342.867707
 20
91.266652
 30
0.0
 40
9.625225785858765
100
AcDbArc
 50
201.954038
 51
220.360257
  0
LWPOLYLINE
  5
EF
330
D5
100
AcDbEntity
  8
0
  6
Continuous
 62
     0
370
     0
100
AcDbPolyline
 90
       26
 70
     0
 43
0.0
 10
335.533417
 20
85.03344
 10
335.65329
 20
85.070282
 10
335.68927
 20
85.097656
 10
335.711487
 20
85.119186
 10
335.728851
 20
85.138786
 10
335.743896
 20
85.157784
 10
335.756744
 20
85.175713
 10
335.76825
 20
85.19323
 10
335.778931
 20
85.210762
 10
335.788879
 20
85.228394
 10
335.798126
 20
85.246109
 10
335.806702
 20
85.263824
 10
335.814606
 20
85.281509
 10
335.82196
 20
85.299194
 10
335.828766
 20
85.316925
 10
335.835052
 20
85.334747
 10
335.840851
 20
85.352707
 10
335.846191
 20
85.370811
 10
335.851074
 20
85.389099
 10
335.85556
 20
85.407578
 10
335.85965
 20
85.4263
 10
335.863281
 20
85.445473
 10
335.866302
 20
85.465393
 10
335.868622
 20
85.486374
 10
335.870117
 20
85.50869
 10
335.870636
 20
85.533432
  0
ARC
  5
F0
330
D5
100
AcDbEntity
  8
0
  6
Continuous
 62
     0
370
     0
100
AcDbCircle
 10
341.214385
 20
90.391341
 30
0.0
 40
7.221827935957981
100
AcDbArc
 50
201.423434
 51
222.273506
  0
LINE
  5
F1
330
D5
100
AcDbEntity
  8
0
  6
Continuous
 62
     0
370
     0
100
AcDbLine
 10
335.87065
 20
85.533431
 30
0.0
 11
335.867107
 21
88.045373
 31
0.0
  0
ARC
  5
F2
330
D5
100
AcDbEntity
  8
0
  6
Continuous
 62
     0
370
     0
100
AcDbCircle
 10
321.940646
 20
85.498745
 30
0.0
 40
0.4890704623146875
100
AcDbArc
 50
175.933144
 51
252.066305
  0
ELLIPSE
  5
F3
330
D5
100
AcDbEntity
  8
0
  6
Continuous
 62
     0
370
     0
100
AcDbEllipse
 10
328.661729
 20
108.831358
 30
0.0
 11
6.677043075314447
 21
5.806133507496483E-8
 31
0.0
210
0.0
220
0.0
230
-1.0
 40
0.182236
 41
1.570796324629249
 42
3.177962469683985
  0
ELLIPSE
  5
F4
330
D5
100
AcDbEntity
  8
0
  6
Continuous
 62
     0
370
     0
100
AcDbEllipse
 10
328.661729
 20
108.831358
 30
0.0
 11
6.677043075314447
 21
5.806133507496483E-8
 31
0.0
210
0.0
220
0.0
230
-1.0
 40
0.182236
 41
6.246815491041466
 42
7.853981631808835
  0
ELLIPSE
  5
F5
330
D5
100
AcDbEntity
  8
0
  6
Continuous
 62
     0
370
     0
100
AcDbEllipse
 10
328.661729
 20
109.265427
 30
0.0
 11
6.180481682208104
 21
5.374340315431732E-8
 31
0.0
210
0.0
220
0.0
230
-1.0
 40
0.182236
 41
1.570796324629248
 42
4.712388978219041
  0
ELLIPSE
  5
F6
330
D5
100
AcDbEntity
  8
0
  6
Continuous
 62
     0
370
     0
100
AcDbEllipse
 10
328.661729
 20
109.265427
 30
0.0
 11
6.180481682208104
 21
5.374340315431732E-8
 31
0.0
210
0.0
220
0.0
230
-1.0
 40
0.182236
 41
4.712388978219041
 42
7.853981631808834
  0
LWPOLYLINE
  5
F7
330
D5
100
AcDbEntity
  8
0
  6
Continuous
 62
     0
370
    30
100
AcDbPolyline
 90
       19
 70
     0
 43
0.0
 10
324.96521
 20
109.823029
 10
324.611328
 20
109.734337
 10
324.321167
 20
109.638275
 10
324.099243
 20
109.536354
 10
323.949066
 20
109.430168
 10
323.872986
 20
109.321404
 10
323.872192
 20
109.211754
 10
323.946686
 20
109.102951
 10
324.095337
 20
108.996696
 10
324.315796
 20
108.894661
 10
324.604584
 20
108.798462
 10
324.957153
 20
108.709602
 10
325.368011
 20
108.629486
 10
325.830627
 20
108.559364
 10
326.337769
 20
108.500343
 10
326.88147
 20
108.453362
 10
327.453125
 20
108.419144
 10
328.043793
 20
108.398232
 10
328.661743
 20
108.390953
  0
LWPOLYLINE
  5
F8
330
D5
100
AcDbEntity
  8
0
  6
Continuous
 62
     0
370
    30
100
AcDbPolyline
 90
       19
 70
     0
 43
0.0
 10
328.661743
 20
108.390953
 10
329.262238
 20
108.397827
 10
329.853302
 20
108.418343
 10
330.425659
 20
108.452179
 10
330.970276
 20
108.498802
 10
331.478607
 20
108.55748
 10
331.942657
 20
108.627289
 10
332.355103
 20
108.70713
 10
332.709473
 20
108.795753
 10
333.000183
 20
108.891762
 10
333.222687
 20
108.993645
 10
333.373474
 20
109.0998
 10
333.450165
 20
109.208557
 10
333.451569
 20
109.318207
 10
333.377686
 20
109.427025
 10
333.229645
 20
109.533302
 10
333.009766
 20
109.635376
 10
332.721527
 20
109.731628
 10
332.358246
 20
109.823029
  0
LWPOLYLINE
  5
F9
330
D5
100
AcDbEntity
  8
0
  6
Continuous
 62
     0
370
    30
100
AcDbPolyline
 90
        9
 70
     0
 43
0.0
 10
328.661743
 20
109.790253
 10
328.082794
 20
109.78344
 10
327.513458
 20
109.7631
 10
326.963226
 20
109.729576
 10
326.441223
 20
109.683426
 10
325.956177
 20
109.62542
 10
325.516113
 20
109.556511
 10
325.128357
 20
109.477859
 10
324.764862
 20
109.380051
  0
LINE
  5
FA
330
D5
100
AcDbEntity
  8
0
  6
Continuous
 62
     0
370
    30
100
AcDbLine
 10
335.337309
 20
108.860265
 30
0.0
 11
335.316086
 21
108.966556
 31
0.0
  0
LINE
  5
FB
330
D5
100
AcDbEntity
  8
0
  6
Continuous
 62
     0
370
    30
100
AcDbLine
 10
321.986149
 20
108.860265
 30
0.0
 11
322.007371
 21
108.966555
 31
0.0
  0
LINE
  5
FC
330
D5
100
AcDbEntity
  8
0
  6
Continuous
 62
     0
370
    30
100
AcDbLine
 10
319.663878
 20
89.492412
 30
0.0
 11
321.98628
 21
108.857944
 31
0.0
  0
LINE
  5
FD
330
D5
100
AcDbEntity
  8
0
  6
Continuous
 62
     0
370
    30
100
AcDbLine
 10
335.337178
 20
108.857944
 30
0.0
 11
337.65958
 21
89.492412
 31
0.0
  0
LINE
  5
FE
330
D5
100
AcDbEntity
  8
0
  6
Continuous
 62
     0
370
    30
100
AcDbLine
 10
335.533404
 20
85.033341
 30
0.0
 11
335.630113
 21
85.059023
 31
0.0
  0
LINE
  5
FF
330
D5
100
AcDbEntity
  8
0
  6
Continuous
 62
     0
370
    30
100
AcDbLine
 10
335.870834
 20
85.533505
 30
0.0
 11
335.861403
 21
85.433863
 31
0.0
  0
LWPOLYLINE
  5
100
330
D5
100
AcDbEntity
  8
0
  6
Continuous
 62
     0
370
    30
100
AcDbPolyline
 90
       24
 70
     0
 43
0.0
 10
319.661743
 20
89.455338
 10
319.704163
 20
89.222641
 10
319.808441
 20
88.977638
 10
319.944
 20
88.786652
 10
320.090851
 20
88.645004
 10
320.244812
 20
88.529366
 10
320.411224
 20
88.431305
 10
320.595795
 20
88.342926
 10
320.803528
 20
88.257286
 10
321.035126
 20
88.173416
 10
321.289581
 20
88.092728
 10
321.566162
 20
88.015999
 10
321.864594
 20
87.943031
 10
322.184479
 20
87.873558
 10
322.524841
 20
87.80748
 10
322.884491
 20
87.744743
 10
323.262329
 20
87.685577
 10
323.657959
 20
87.631065
 10
324.070892
 20
87.582443
 10
324.499359
 20
87.538994
 10
324.939209
 20
87.496727
 10
325.386658
 20
87.452278
 10
325.845764
 20
87.414223
 10
326.330475
 20
87.399269
  0
LWPOLYLINE
  5
101
330
D5
100
AcDbEntity
  8
0
  6
Continuous
 62
     0
370
    30
100
AcDbPolyline
 90
       24
 70
     0
 43
0.0
 10
337.661713
 20
89.455338
 10
337.619293
 20
89.222641
 10
337.515015
 20
88.977631
 10
337.379456
 20
88.786652
 10
337.232605
 20
88.645004
 10
337.078644
 20
88.529366
 10
336.912231
 20
88.431305
 10
336.727661
 20
88.342926
 10
336.519928
 20
88.257278
 10
336.28833
 20
88.173416
 10
336.033875
 20
88.092728
 10
335.757294
 20
88.015999
 10
335.458862
 20
87.943031
 10
335.138977
 20
87.873558
 10
334.798615
 20
87.80748
 10
334.438965
 20
87.744743
 10
334.061096
 20
87.685577
 10
333.665497
 20
87.631065
 10
333.252563
 20
87.582443
 10
332.824097
 20
87.538994
 10
332.384247
 20
87.496719
 10
331.936798
 20
87.452278
 10
331.477692
 20
87.414223
 10
330.992981
 20
87.399269
  0
LWPOLYLINE
  5
102
330
D5
100
AcDbEntity
  8
0
  6
Continuous
 62
     0
370
    30
100
AcDbPolyline
 90
       47
 70
     0
 43
0.0
 10
324.661743
 20
109.544518
 10
324.69342
 20
109.636093
 10
324.793701
 20
109.730217
 10
324.968323
 20
109.824394
 10
325.219299
 20
109.915741
 10
325.54422
 20
110.001236
 10
325.935822
 20
110.077988
 10
326.382599
 20
110.143555
 10
326.86969
 20
110.196213
 10
327.380707
 20
110.235062
 10
327.899231
 20
110.260086
 10
328.410339
 20
110.272018
 10
328.907867
 20
110.272072
 10
329.418854
 20
110.260277
 10
329.937347
 20
110.235397
 10
330.448517
 20
110.196686
 10
330.935974
 20
110.144173
 10
331.38324
 20
110.078728
 10
331.775482
 20
110.002083
 10
332.101135
 20
109.916664
 10
332.352936
 20
109.825363
 10
332.52832
 20
109.731201
 10
332.629364
 20
109.637062
 10
332.661713
 20
109.545448
 10
332.630707
 20
109.453911
 10
332.531158
 20
109.359802
 10
332.357361
 20
109.26561
 10
332.107147
 20
109.174217
 10
331.78299
 20
109.088646
 10
331.391998
 20
109.011787
 10
330.94574
 20
108.946091
 10
330.458984
 20
108.893295
 10
329.94812
 20
108.854294
 10
329.429626
 20
108.829132
 10
328.918365
 20
108.817078
 10
328.420807
 20
108.816895
 10
327.909973
 20
108.82856
 10
327.391479
 20
108.853302
 10
326.880157
 20
108.891869
 10
326.392395
 20
108.944244
 10
325.944611
 20
109.00956
 10
325.551727
 20
109.086098
 10
325.225342
 20
109.17144
 10
324.972748
 20
109.262695
 10
324.79657
 20
109.356842
 10
324.694794
 20
109.450996
 10
324.661743
 20
109.544518
  0
LINE
  5
103
330
D5
100
AcDbEntity
  8
0
  6
Continuous
 62
     0
370
    30
100
AcDbLine
 10
324.225174
 20
108.984171
 30
0.0
 11
324.186728
 21
108.877504
 31
0.0
  0
ARC
  5
104
330
D5
100
AcDbEntity
  8
0
  6
Continuous
 62
     0
370
    30
100
AcDbCircle
 10
328.661728
 20
90.694031
 30
0.0
 40
18.99897692260659
100
AcDbArc
 50
78.494364
 51
101.505636
  0
ARC
  5
105
330
D5
100
AcDbEntity
  8
0
  6
Continuous
 62
     0
370
    30
100
AcDbCircle
 10
328.661728
 20
86.476057
 30
0.0
 40
22.6245115081175
100
AcDbArc
 50
83.791266
 51
96.208734
  0
LINE
  5
106
330
D5
100
AcDbEntity
  8
0
  6
Continuous
 62
     0
370
    30
100
AcDbLine
 10
238.661728
 20
138.02256
 30
0.0
 11
418.661728
 21
138.02256
 31
0.0
  0
ARC
  5
107
330
D5
100
AcDbEntity
  8
0
  6
Continuous
 62
     0
370
    30
100
AcDbCircle
 10
417.661728
 20
138.02256
 30
0.0
 40
0.999999999999849
100
AcDbArc
 50
270.0
 51
0.0
  0
LINE
  5
108
330
D5
100
AcDbEntity
  8
0
  6
Continuous
 62
     0
370
    30
100
AcDbLine
 10
417.661728
 20
137.02256
 30
0.0
 11
239.661728
 21
137.02256
 31
0.0
  0
LINE
  5
109
330
D5
100
AcDbEntity
  8
0
  6
Continuous
 62
     0
370
    30
100
AcDbLine
 10
418.661728
 20
149.02256
 30
0.0
 11
418.661728
 21
138.02256
 31
0.0
  0
LINE
  5
10A
330
D5
100
AcDbEntity
  8
0
  6
Continuous
 62
     0
370
    30
100
AcDbLine
 10
238.661728
 20
138.02256
 30
0.0
 11
418.661728
 21
138.02256
 31
0.0
  0
LINE
  5
10B
330
D5
100
AcDbEntity
  8
0
  6
Continuous
 62
     0
370
    30
100
AcDbLine
 10
418.661728
 20
149.02256
 30
0.0
 11
238.661728
 21
149.02256
 31
0.0
  0
LWPOLYLINE
  5
10C
330
D5
100
AcDbEntity
  8
0
  6
Continuous
 62
     0
370
    30
100
AcDbPolyline
 90
      107
 70
     0
 43
0.0
 10
418.661743
 20
149.022552
 10
418.622192
 20
149.022552
 10
418.50351
 20
149.022552
 10
418.305908
 20
149.022552
 10
418.029694
 20
149.022552
 10
417.675171
 20
149.022552
 10
417.242584
 20
149.022552
 10
416.732239
 20
149.022552
 10
416.144379
 20
149.022552
 10
415.479462
 20
149.022552
 10
414.73822
 20
149.022552
 10
413.921448
 20
149.022552
 10
413.029938
 20
149.022552
 10
412.064514
 20
149.022552
 10
411.02594
 20
149.022552
 10
409.915039
 20
149.022552
 10
408.732605
 20
149.022552
 10
407.479614
 20
149.022552
 10
406.157318
 20
149.022552
 10
404.767029
 20
149.022552
 10
403.310059
 20
149.022552
 10
401.787628
 20
149.022552
 10
400.20108
 20
149.022552
 10
398.551727
 20
149.022552
 10
396.84079
 20
149.022552
 10
395.069855
 20
149.022552
 10
393.240509
 20
149.022552
 10
391.354553
 20
149.022552
 10
389.413635
 20
149.022552
 10
387.419464
 20
149.022552
 10
385.373779
 20
149.022552
 10
383.278259
 20
149.022552
 10
381.134644
 20
149.022552
 10
378.944824
 20
149.022552
 10
376.710815
 20
149.022552
 10
374.434631
 20
149.022552
 10
372.118378
 20
149.022552
 10
369.764008
 20
149.022552
 10
367.373596
 20
149.022552
 10
364.949188
 20
149.022552
 10
362.492798
 20
149.022552
 10
360.006622
 20
149.022552
 10
357.49292
 20
149.022552
 10
354.953918
 20
149.022552
 10
352.391876
 20
149.022552
 10
349.809052
 20
149.022552
 10
347.207703
 20
149.022552
 10
344.590027
 20
149.022552
 10
341.958344
 20
149.022552
 10
339.314941
 20
149.022552
 10
336.662201
 20
149.022552
 10
334.002411
 20
149.022552
 10
331.337952
 20
149.022552
 10
328.671143
 20
149.022552
 10
326.004364
 20
149.022552
 10
323.339905
 20
149.022552
 10
320.680145
 20
149.022552
 10
318.027405
 20
149.022552
 10
315.383972
 20
149.022552
 10
312.752136
 20
149.022552
 10
310.134277
 20
149.022552
 10
307.532654
 20
149.022552
 10
304.949615
 20
149.022552
 10
302.387421
 20
149.022552
 10
299.848389
 20
149.022552
 10
297.334686
 20
149.022552
 10
294.84845
 20
149.022552
 10
292.391815
 20
149.022552
 10
289.96698
 20
149.022552
 10
287.57608
 20
149.022552
 10
285.221313
 20
149.022552
 10
282.904755
 20
149.022552
 10
280.62854
 20
149.022552
 10
278.394501
 20
149.022552
 10
276.204559
 20
149.022552
 10
274.060577
 20
149.022552
 10
271.964447
 20
149.022552
 10
269.91806
 20
149.022552
 10
267.923279
 20
149.022552
 10
265.982025
 20
149.022552
 10
264.095947
 20
149.022552
 10
262.266602
 20
149.022552
 10
260.495453
 20
149.022552
 10
258.784058
 20
149.022552
 10
257.133911
 20
149.022552
 10
255.546524
 20
149.022552
 10
254.023422
 20
149.022552
 10
252.566055
 20
149.022552
 10
251.17569
 20
149.022552
 10
249.853363
 20
149.022552
 10
248.600128
 20
149.022552
 10
247.417068
 20
149.022552
 10
246.305206
 20
149.022552
 10
245.26564
 20
149.022552
 10
244.299393
 20
149.022552
 10
243.407486
 20
149.022552
 10
242.590591
 20
149.022552
 10
241.849274
 20
149.022552
 10
241.184052
 20
149.022552
 10
240.59549
 20
149.022552
 10
240.084137
 20
149.022552
 10
239.650528
 20
149.022552
 10
239.295212
 20
149.022552
 10
239.018646
 20
149.022552
 10
238.820923
 20
149.022552
 10
238.702057
 20
149.022552
 10
238.662048
 20
149.022568
  0
LINE
  5
10D
330
D5
100
AcDbEntity
  8
0
  6
Continuous
 62
     0
370
    30
100
AcDbLine
 10
238.661728
 20
138.02256
 30
0.0
 11
238.661728
 21
149.02256
 31
0.0
  0
ARC
  5
10E
330
D5
100
AcDbEntity
  8
0
  6
Continuous
 62
     0
370
    30
100
AcDbCircle
 10
239.665185
 20
138.026017
 30
0.0
 40
1.003462686664214
100
AcDbArc
 50
180.197373
 51
269.802627
  0
LINE
  5
10F
330
D5
100
AcDbEntity
  8
0
  6
Continuous
 62
     0
370
    30
100
AcDbLine
 10
417.781845
 20
137.029894
 30
0.0
 11
417.661728
 21
137.02256
 31
0.0
  0
LINE
  5
110
330
D5
100
AcDbEntity
  8
0
  6
Continuous
 62
     0
370
    30
100
AcDbLine
 10
324.695555
 20
109.639114
 30
0.0
 11
324.224572
 21
108.983336
 31
0.0
  0
LINE
  5
111
330
D5
100
AcDbEntity
  8
0
  6
Continuous
 62
     0
370
    30
100
AcDbLine
 10
332.627902
 20
109.639114
 30
0.0
 11
333.098885
 21
108.983336
 31
0.0
  0
ENDBLK
  5
113
330
D5
100
AcDbEntity
  8
0
100
AcDbBlockEnd
  0
BLOCK
  5
15B
330
115
100
AcDbEntity
  8
0
100
AcDbBlockBegin
  2
c
 70
     0
 10
208.764786
 20
87.984634
 30
0.0
  3
c
  1

  0
LINE
  5
116
330
115
100
AcDbEntity
  8
0
  6
Continuous
 62
     0
370
    30
100
AcDbLine
 10
506.281562
 20
449.866652
 30
0.0
 11
506.281562
 21
492.149043
 31
0.0
  0
LINE
  5
117
330
115
100
AcDbEntity
  8
0
  6
Continuous
 62
     0
370
    30
100
AcDbLine
 10
464.881562
 20
490.779198
 30
0.0
 11
464.881562
 21
492.566652
 31
0.0
  0
LINE
  5
118
330
115
100
AcDbEntity
  8
0
  6
Continuous
 62
     0
370
    30
100
AcDbLine
 10
464.881562
 20
451.366652
 30
0.0
 11
464.881562
 21
490.779198
 31
0.0
  0
LINE
  5
119
330
115
100
AcDbEntity
  8
0
  6
Continuous
 62
     0
370
    30
100
AcDbLine
 10
466.381562
 20
449.866652
 30
0.0
 11
466.381562
 21
492.149043
 31
0.0
  0
LINE
  5
11A
330
115
100
AcDbEntity
  8
0
  6
Continuous
 62
     0
370
    30
100
AcDbLine
 10
466.381562
 20
492.149043
 30
0.0
 11
466.381562
 21
494.066652
 31
0.0
  0
LINE
  5
11B
330
115
100
AcDbEntity
  8
0
  6
Continuous
 62
     0
370
    30
100
AcDbLine
 10
466.381562
 20
449.866671
 30
0.0
 11
464.881562
 21
451.36667
 31
0.0
  0
LINE
  5
11C
330
115
100
AcDbEntity
  8
0
  6
Continuous
 62
     0
370
    30
100
AcDbLine
 10
466.381562
 20
494.066611
 30
0.0
 11
464.881562
 21
492.566614
 31
0.0
  0
LINE
  5
11D
330
115
100
AcDbEntity
  8
0
  6
Continuous
 62
     0
370
    30
100
AcDbLine
 10
485.982371
 20
449.866652
 30
0.0
 11
466.381562
 21
449.866652
 31
0.0
  0
LINE
  5
11E
330
115
100
AcDbEntity
  8
0
  6
Continuous
 62
     0
370
    30
100
AcDbLine
 10
506.281562
 20
449.866652
 30
0.0
 11
497.982371
 21
449.866652
 31
0.0
  0
LINE
  5
11F
330
115
100
AcDbEntity
  8
0
  6
Continuous
 62
     0
370
    30
100
AcDbLine
 10
485.982371
 20
494.066652
 30
0.0
 11
466.381562
 21
494.066652
 31
0.0
  0
LINE
  5
120
330
115
100
AcDbEntity
  8
0
  6
Continuous
 62
     0
370
    30
100
AcDbLine
 10
506.281562
 20
494.066652
 30
0.0
 11
497.982371
 21
494.066652
 31
0.0
  0
LINE
  5
121
330
115
100
AcDbEntity
  8
0
  6
Continuous
 62
     0
370
    30
100
AcDbLine
 10
506.281562
 20
494.066652
 30
0.0
 11
506.281562
 21
492.149043
 31
0.0
  0
LINE
  5
122
330
115
100
AcDbEntity
  8
0
  6
Continuous
 62
     0
370
    30
100
AcDbLine
 10
519.781562
 20
493.566652
 30
0.0
 11
519.781562
 21
487.418422
 31
0.0
  0
LINE
  5
123
330
115
100
AcDbEntity
  8
0
  6
Continuous
 62
     0
370
    30
100
AcDbLine
 10
519.781562
 20
487.418422
 30
0.0
 11
519.781562
 21
450.366652
 31
0.0
  0
LINE
  5
124
330
115
100
AcDbEntity
  8
0
  6
Continuous
 62
     0
370
     0
100
AcDbLine
 10
519.281562
 20
487.776102
 30
0.0
 11
519.281562
 21
449.866652
 31
0.0
  0
LINE
  5
125
330
115
100
AcDbEntity
  8
0
  6
Continuous
 62
     0
370
     0
100
AcDbLine
 10
519.281562
 20
494.066652
 30
0.0
 11
519.281562
 21
487.776102
 31
0.0
  0
LINE
  5
126
330
115
100
AcDbEntity
  8
0
  6
Continuous
 62
     0
370
    30
100
AcDbLine
 10
506.281562
 20
449.866652
 30
0.0
 11
519.281562
 21
449.866652
 31
0.0
  0
LINE
  5
127
330
115
100
AcDbEntity
  8
0
  6
Continuous
 62
     0
370
    30
100
AcDbLine
 10
506.281562
 20
494.066652
 30
0.0
 11
519.281562
 21
494.066652
 31
0.0
  0
LINE
  5
128
330
115
100
AcDbEntity
  8
0
  6
Continuous
 62
     0
370
    30
100
AcDbLine
 10
544.310357
 20
457.861045
 30
0.0
 11
547.188458
 21
473.389891
 31
0.0
  0
ARC
  5
129
330
115
100
AcDbEntity
  8
0
  6
Continuous
 62
     0
370
     0
100
AcDbCircle
 10
544.478535
 20
458.361653
 30
0.0
 40
0.5281027673724493
100
AcDbArc
 50
251.430374
 51
324.767798
  0
LINE
  5
12A
330
115
100
AcDbEntity
  8
0
  6
Continuous
 62
     0
370
    30
100
AcDbLine
 10
547.660086
 20
472.895672
 30
0.0
 11
544.9099
 21
458.056995
 31
0.0
  0
LINE
  5
12B
330
115
100
AcDbEntity
  8
0
  6
Continuous
 62
     0
370
     0
100
AcDbLine
 10
544.10168
 20
454.271566
 30
0.0
 11
544.310318
 21
457.860834
 31
0.0
  0
LWPOLYLINE
  5
12C
330
115
100
AcDbEntity
  8
0
  6
Continuous
 62
     0
370
     0
100
AcDbPolyline
 90
        7
 70
     0
 43
0.0
 10
544.597351
 20
454.085205
 10
544.570923
 20
454.095154
 10
544.505554
 20
454.11972
 10
544.420471
 20
454.151703
 10
544.325195
 20
454.187531
 10
544.223877
 20
454.225616
 10
544.101685
 20
454.271576
  0
LINE
  5
12D
330
115
100
AcDbEntity
  8
0
  6
Continuous
 62
     0
370
    30
100
AcDbLine
 10
544.9099
 20
458.056995
 30
0.0
 11
544.597377
 21
454.085203
 31
0.0
  0
LINE
  5
12E
330
115
100
AcDbEntity
  8
0
  6
Continuous
 62
     0
370
     0
100
AcDbLine
 10
534.569277
 20
460.578068
 30
0.0
 11
544.310357
 21
457.861045
 31
0.0
  0
LINE
  5
12F
330
115
100
AcDbEntity
  8
0
  6
Continuous
 62
     0
370
     0
100
AcDbLine
 10
534.783731
 20
457.774767
 30
0.0
 11
534.569277
 21
460.578068
 31
0.0
  0
LINE
  5
130
330
115
100
AcDbEntity
  8
0
  6
Continuous
 62
     0
370
     0
100
AcDbLine
 10
544.10168
 20
454.271566
 30
0.0
 11
534.783731
 21
457.774767
 31
0.0
  0
LWPOLYLINE
  5
131
330
115
100
AcDbEntity
  8
0
  6
Continuous
 62
     0
370
    30
100
AcDbPolyline
 90
       10
 70
     0
 43
0.0
 10
532.173157
 20
457.353882
 10
531.795654
 20
457.817688
 10
531.398132
 20
458.261688
 10
530.980591
 20
458.685333
 10
530.54071
 20
459.088623
 10
530.076355
 20
459.469574
 10
529.586182
 20
459.823578
 10
529.069946
 20
460.143188
 10
528.528564
 20
460.41803
 10
527.945374
 20
460.639923
  0
ARC
  5
132
330
115
100
AcDbEntity
  8
0
  6
Continuous
 62
     0
370
    30
100
AcDbCircle
 10
525.625884
 20
451.797016
 30
0.0
 40
8.587501992880885
100
AcDbArc
 50
4.448561
 51
40.322326
  0
LINE
  5
133
330
115
100
AcDbEntity
  8
0
  6
Continuous
 62
     0
370
     0
100
AcDbLine
 10
534.699609
 20
452.368193
 30
0.0
 11
534.187515
 21
452.463097
 31
0.0
  0
LINE
  5
134
330
115
100
AcDbEntity
  8
0
  6
Continuous
 62
     0
370
     0
100
AcDbLine
 10
534.699608
 20
452.368188
 30
0.0
 11
534.783731
 21
457.774767
 31
0.0
  0
ARC
  5
135
330
115
100
AcDbEntity
  8
0
  6
Continuous
 62
     0
370
     0
100
AcDbCircle
 10
533.794761
 20
455.60228
 30
0.0
 40
2.386998134576808
100
AcDbArc
 50
65.523788
 51
132.793504
  0
LWPOLYLINE
  5
136
330
115
100
AcDbEntity
  8
0
  6
Continuous
 62
     0
370
    30
100
AcDbPolyline
 90
       22
 70
     0
 43
0.0
 10
527.945374
 20
460.639923
 10
527.983765
 20
460.640472
 10
528.08667
 20
460.648865
 10
528.238525
 20
460.664459
 10
528.430603
 20
460.687042
 10
528.65802
 20
460.715759
 10
528.917725
 20
460.747467
 10
529.206543
 20
460.778992
 10
529.520447
 20
460.808136
 10
529.854553
 20
460.833862
 10
530.204407
 20
460.856537
 10
530.565674
 20
460.876709
 10
530.936035
 20
460.893616
 10
531.315308
 20
460.905212
 10
531.703125
 20
460.909363
 10
532.098389
 20
460.904297
 10
532.499512
 20
460.888245
 10
532.905212
 20
460.85968
 10
533.314636
 20
460.817352
 10
533.726624
 20
460.759338
 10
534.139832
 20
460.682739
 10
534.569275
 20
460.578064
  0
LINE
  5
137
330
115
100
AcDbEntity
  8
0
  6
Continuous
 62
     0
370
    30
100
AcDbLine
 10
534.187515
 20
452.463097
 30
0.0
 11
532.981728
 21
374.96813
 31
0.0
  0
LINE
  5
138
330
115
100
AcDbEntity
  8
0
  6
Continuous
 62
     0
370
    30
100
AcDbLine
 10
549.319207
 20
374.624181
 30
0.0
 11
549.769852
 21
374.620249
 31
0.0
  0
LINE
  5
139
330
115
100
AcDbEntity
  8
0
  6
Continuous
 62
     0
370
    30
100
AcDbLine
 10
533.644389
 20
374.760973
 30
0.0
 11
549.319207
 21
374.624181
 31
0.0
  0
LINE
  5
13A
330
115
100
AcDbEntity
  8
0
  6
Continuous
 62
     0
370
    30
100
AcDbLine
 10
533.179958
 20
374.765026
 30
0.0
 11
533.644389
 21
374.760973
 31
0.0
  0
LINE
  5
13B
330
115
100
AcDbEntity
  8
0
  6
Continuous
 62
     0
370
     0
100
AcDbLine
 10
533.495317
 20
374.969338
 30
0.0
 11
534.699608
 21
452.368188
 31
0.0
  0
LINE
  5
13C
330
115
100
AcDbEntity
  8
0
  6
Continuous
 62
     0
370
     0
100
AcDbLine
 10
533.495317
 20
374.969338
 30
0.0
 11
549.471506
 21
374.831537
 31
0.0
  0
LWPOLYLINE
  5
13D
330
115
100
AcDbEntity
  8
0
  6
Continuous
 62
     0
370
     0
100
AcDbPolyline
 90
       27
 70
     0
 43
0.0
 10
549.471497
 20
374.831543
 10
549.360291
 20
377.889954
 10
549.217468
 20
380.946991
 10
549.043152
 20
384.00235
 10
548.840149
 20
387.055969
 10
548.614746
 20
390.108093
 10
548.37616
 20
393.159363
 10
548.135071
 20
396.210663
 10
547.895691
 20
399.262207
 10
547.651367
 20
402.313324
 10
547.398926
 20
405.363617
 10
547.133118
 20
408.412415
 10
546.848755
 20
411.459015
 10
546.541687
 20
414.502625
 10
546.21637
 20
417.543701
 10
545.881714
 20
420.583435
 10
545.546936
 20
423.623199
 10
545.221497
 20
426.664337
 10
544.915039
 20
429.70813
 10
544.637329
 20
432.755676
 10
544.398132
 20
435.807556
 10
544.207397
 20
438.863861
 10
544.074951
 20
441.924011
 10
544.010193
 20
444.986572
 10
544.014221
 20
448.049438
 10
544.052979
 20
451.11145
 10
544.101685
 20
454.271576
  0
LWPOLYLINE
  5
13E
330
115
100
AcDbEntity
  8
0
  6
Continuous
 62
     0
370
    30
100
AcDbPolyline
 90
       27
 70
     0
 43
0.0
 10
544.597351
 20
454.085205
 10
544.552185
 20
451.032135
 10
544.514221
 20
447.975128
 10
544.510803
 20
444.91748
 10
544.579285
 20
441.860077
 10
544.716492
 20
438.805267
 10
544.911377
 20
435.754364
 10
545.153198
 20
432.707886
 10
545.431641
 20
429.665619
 10
545.737061
 20
426.626862
 10
546.059998
 20
423.590576
 10
546.391418
 20
420.555603
 10
546.722473
 20
417.520569
 10
547.044556
 20
414.484253
 10
547.349243
 20
411.445496
 10
547.632263
 20
408.4039
 10
547.897461
 20
405.360168
 10
548.14978
 20
402.315002
 10
548.394043
 20
399.268982
 10
548.633606
 20
396.222565
 10
548.874695
 20
393.176422
 10
549.113159
 20
390.130219
 10
549.33844
 20
387.083191
 10
549.541321
 20
384.034698
 10
549.715576
 20
380.984436
 10
549.858398
 20
377.932526
 10
549.971497
 20
374.826508
  0
LINE
  5
13F
330
115
100
AcDbEntity
  8
0
  6
Continuous
 62
     0
370
    30
100
AcDbLine
 10
549.769852
 20
374.620249
 30
0.0
 11
549.971499
 21
374.826503
 31
0.0
  0
LINE
  5
140
330
115
100
AcDbEntity
  8
0
  6
Continuous
 62
     0
370
     0
100
AcDbLine
 10
533.644389
 20
374.760973
 30
0.0
 11
533.495317
 21
374.969338
 31
0.0
  0
LINE
  5
141
330
115
100
AcDbEntity
  8
0
  6
Continuous
 62
     0
370
     0
100
AcDbLine
 10
549.471506
 20
374.831537
 30
0.0
 11
549.319207
 21
374.624181
 31
0.0
  0
LINE
  5
142
330
115
100
AcDbEntity
  8
0
  6
Continuous
 62
     0
370
    30
100
AcDbLine
 10
532.981728
 20
374.96813
 30
0.0
 11
533.179958
 21
374.765026
 31
0.0
  0
LINE
  5
143
330
115
100
AcDbEntity
  8
0
  6
Continuous
 62
     0
370
     0
100
AcDbLine
 10
549.971499
 20
374.826503
 30
0.0
 11
549.471506
 21
374.831537
 31
0.0
  0
LINE
  5
144
330
115
100
AcDbEntity
  8
0
  6
Continuous
 62
     0
370
    30
100
AcDbLine
 10
533.495317
 20
374.969338
 30
0.0
 11
532.981728
 21
374.96813
 31
0.0
  0
LINE
  5
145
330
115
100
AcDbEntity
  8
0
  6
Continuous
 62
     0
370
    30
100
AcDbLine
 10
547.18848
 20
473.39001
 30
0.0
 11
527.390368
 21
474.696855
 31
0.0
  0
LINE
  5
146
330
115
100
AcDbEntity
  8
0
  6
Continuous
 62
     0
370
     0
100
AcDbLine
 10
527.390368
 20
474.696855
 30
0.0
 11
524.956779
 21
461.566385
 31
0.0
  0
ARC
  5
147
330
115
100
AcDbEntity
  8
0
  6
Continuous
 62
     0
370
    30
100
AcDbCircle
 10
527.357435
 20
474.197941
 30
0.0
 40
0.499999999999999
100
AcDbArc
 50
86.223464
 51
169.5
  0
LINE
  5
148
330
115
100
AcDbEntity
  8
0
  6
Continuous
 62
     0
370
    30
100
AcDbLine
 10
526.865808
 20
474.289059
 30
0.0
 11
524.613201
 21
462.135081
 31
0.0
  0
LINE
  5
149
330
115
100
AcDbEntity
  8
0
  6
Continuous
 62
     0
370
    30
100
AcDbLine
 10
526.613979
 20
472.930314
 30
0.0
 11
526.865808
 21
474.289059
 31
0.0
  0
LINE
  5
14A
330
115
100
AcDbEntity
  8
0
  6
Continuous
 62
     0
370
    30
100
AcDbLine
 10
524.956779
 20
461.566385
 30
0.0
 11
527.945384
 21
460.639916
 31
0.0
  0
LINE
  5
14B
330
115
100
AcDbEntity
  8
0
  6
Continuous
 62
     0
370
    30
100
AcDbLine
 10
544.597377
 20
454.085203
 30
0.0
 11
544.560698
 21
451.706379
 31
0.0
  0
LWPOLYLINE
  5
14C
330
115
100
AcDbEntity
  8
0
  6
Continuous
 62
     0
370
    30
100
AcDbPolyline
 90
       13
 70
     0
 43
0.0
 10
526.189331
 20
472.196808
 10
526.184143
 20
472.168579
 10
526.167603
 20
472.079346
 10
526.138794
 20
471.924072
 10
526.097412
 20
471.700562
 10
526.043579
 20
471.410248
 10
525.978394
 20
471.058441
 10
525.903442
 20
470.654114
 10
525.820984
 20
470.209137
 10
525.733521
 20
469.737244
 10
525.643677
 20
469.252563
 10
525.553955
 20
468.768524
 10
525.460388
 20
468.263794
  0
LINE
  5
14D
330
115
100
AcDbEntity
  8
0
  6
Continuous
 62
     0
370
    30
100
AcDbLine
 10
525.460417
 20
468.263795
 30
0.0
 11
524.731475
 21
464.330775
 31
0.0
  0
LINE
  5
14E
330
115
100
AcDbEntity
  8
0
  6
Continuous
 62
     0
370
    30
100
AcDbLine
 10
496.982371
 20
381.966652
 30
0.0
 11
496.982371
 21
561.966652
 31
0.0
  0
LINE
  5
14F
330
115
100
AcDbEntity
  8
0
  6
Continuous
 62
     0
370
    30
100
AcDbLine
 10
497.982371
 20
560.966652
 30
0.0
 11
497.982371
 21
382.966652
 31
0.0
  0
LINE
  5
150
330
115
100
AcDbEntity
  8
0
  6
Continuous
 62
     0
370
    30
100
AcDbLine
 10
488.982371
 20
382.024727
 30
0.0
 11
488.241191
 21
382.06464
 31
0.0
  0
LINE
  5
151
330
115
100
AcDbEntity
  8
0
  6
Continuous
 62
     0
370
    30
100
AcDbLine
 10
485.982371
 20
561.966652
 30
0.0
 11
485.982372
 21
382.139251
 31
0.0
  0
LINE
  5
152
330
115
100
AcDbEntity
  8
0
  6
Continuous
 62
     0
370
    30
100
AcDbLine
 10
485.982372
 20
382.139251
 30
0.0
 11
486.723552
 21
382.084553
 31
0.0
  0
LINE
  5
153
330
115
100
AcDbEntity
  8
0
  6
Continuous
 62
     0
370
    30
100
AcDbLine
 10
486.723552
 20
382.084553
 30
0.0
 11
488.241191
 21
382.06464
 31
0.0
  0
LINE
  5
154
330
115
100
AcDbEntity
  8
0
  6
Continuous
 62
     0
370
    30
100
AcDbLine
 10
485.982371
 20
561.966645
 30
0.0
 11
485.982372
 21
382.139251
 31
0.0
  0
LINE
  5
155
330
115
100
AcDbEntity
  8
0
  6
Continuous
 62
     0
370
    30
100
AcDbLine
 10
496.982371
 20
381.966652
 30
0.0
 11
488.982371
 21
381.966652
 31
0.0
  0
LINE
  5
156
330
115
100
AcDbEntity
  8
0
  6
Continuous
 62
     0
370
    30
100
AcDbLine
 10
496.982371
 20
561.966652
 30
0.0
 11
485.982371
 21
561.966652
 31
0.0
  0
ARC
  5
157
330
115
100
AcDbEntity
  8
0
  6
Continuous
 62
     0
370
    30
100
AcDbCircle
 10
496.978915
 20
382.970109
 30
0.0
 40
1.003462686667948
100
AcDbArc
 50
270.197373
 51
359.802627
  0
ARC
  5
158
330
115
100
AcDbEntity
  8
0
  6
Continuous
 62
     0
370
    30
100
AcDbCircle
 10
496.978915
 20
560.963195
 30
0.0
 40
1.003462686668283
100
AcDbArc
 50
0.197373
 51
89.802627
  0
LINE
  5
159
330
115
100
AcDbEntity
  8
0
  6
Continuous
 62
     0
370
    30
100
AcDbLine
 10
524.731475
 20
464.330775
 30
0.0
 11
524.974343
 21
464.083631
 31
0.0
  0
LINE
  5
15A
330
115
100
AcDbEntity
  8
0
  6
Continuous
 62
     0
370
    30
100
AcDbLine
 10
526.189359
 20
472.196815
 30
0.0
 11
526.504665
 21
472.340508
 31
0.0
  0
ENDBLK
  5
15C
330
115
100
AcDbEntity
  8
0
100
AcDbBlockEnd
  0
BLOCK
  5
1F6
330
15E
100
AcDbEntity
  8
0
100
AcDbBlockBegin
  2
d
 70
     0
 10
208.764786
 20
87.984634
 30
0.0
  3
d
  1

  0
ELLIPSE
  5
15F
330
15E
100
AcDbEntity
  8
0
  6
Continuous
 62
     0
370
    30
100
AcDbEllipse
 10
543.981281
 20
206.65801
 30
0.0
 11
-11.05000000000001
 21
-19.1391614236361
 31
0.0
210
0.0
220
0.0
230
-1.0
 40
0.57735
 41
0.000000022850156
 42
1.936541513132598
  0
ELLIPSE
  5
160
330
15E
100
AcDbEntity
  8
0
  6
Continuous
 62
     0
370
    30
100
AcDbEllipse
 10
543.981281
 20
206.65801
 30
0.0
 11
-11.05000000000001
 21
-19.1391614236361
 31
0.0
210
0.0
220
0.0
230
-1.0
 40
0.57735
 41
1.936541513132599
 42
3.141592676439949
  0
ELLIPSE
  5
161
330
15E
100
AcDbEntity
  8
0
  6
Continuous
 62
     0
370
    30
100
AcDbEllipse
 10
543.981281
 20
206.65801
 30
0.0
 11
-9.312500354062376
 21
-16.12972375873919
 31
0.0
210
0.0
220
0.0
230
-1.0
 40
0.57735
 41
5.092532120254638
 42
5.161810182055956
  0
LINE
  5
162
330
15E
100
AcDbEntity
  8
0
  6
Continuous
 62
     0
370
    30
100
AcDbLine
 10
532.931281
 20
187.518849
 30
0.0
 11
524.882512
 21
192.165807
 31
0.0
  0
LINE
  5
163
330
15E
100
AcDbEntity
  8
0
  6
Continuous
 62
     0
370
    30
100
AcDbLine
 10
555.031281
 20
225.797171
 30
0.0
 11
546.982518
 21
230.444127
 31
0.0
  0
ELLIPSE
  5
164
330
15E
100
AcDbEntity
  8
0
  6
Continuous
 62
     0
370
    30
100
AcDbEllipse
 10
543.981281
 20
206.65801
 30
0.0
 11
-10.125
 21
-17.53701442663488
 31
0.0
210
0.0
220
0.0
230
-1.0
 40
0.57735
 41
5.13200238680469
 42
5.157141851281232
  0
ELLIPSE
  5
165
330
15E
100
AcDbEntity
  8
0
  6
Continuous
 62
     0
370
    30
100
AcDbEllipse
 10
543.981281
 20
206.65801
 30
0.0
 11
-10.125
 21
-17.53701442663488
 31
0.0
210
0.0
220
0.0
230
-1.0
 40
0.57735
 41
4.934032702761769
 42
5.123643872186303
  0
ELLIPSE
  5
166
330
15E
100
AcDbEntity
  8
0
  6
Continuous
 62
     0
370
    30
100
AcDbEllipse
 10
543.981281
 20
206.65801
 30
0.0
 11
-10.125
 21
-17.53701442663488
 31
0.0
210
0.0
220
0.0
230
-1.0
 40
0.57735
 41
4.301134134283389
 42
4.518157190947696
  0
ELLIPSE
  5
167
330
15E
100
AcDbEntity
  8
0
  6
Continuous
 62
     0
370
    30
100
AcDbEllipse
 10
543.981281
 20
206.65801
 30
0.0
 11
-10.125
 21
-17.53701442663488
 31
0.0
210
0.0
220
0.0
230
-1.0
 40
0.57735
 41
4.267636155188457
 42
4.292775619665002
  0
ELLIPSE
  5
168
330
15E
100
AcDbEntity
  8
0
  6
Continuous
 62
     0
370
    30
100
AcDbEllipse
 10
552.466562
 20
201.75903
 30
0.0
 11
4.125000000000001
 21
7.144709581221619
 31
0.0
210
0.0
220
0.0
230
1.0
 40
0.57735
 41
4.700648369246594
 42
6.397715373649786
  0
ELLIPSE
  5
169
330
15E
100
AcDbEntity
  8
0
  6
Continuous
 62
     0
370
    30
100
AcDbEllipse
 10
552.466562
 20
201.75903
 30
0.0
 11
4.125000000000001
 21
7.144709581221619
 31
0.0
210
0.0
220
0.0
230
1.0
 40
0.57735
 41
3.027062541419283
 42
4.700648369246594
  0
ELLIPSE
  5
16A
330
15E
100
AcDbEntity
  8
0
  6
Continuous
 62
     0
370
    30
100
AcDbEllipse
 10
553.173669
 20
201.350782
 30
0.0
 11
4.125000000000001
 21
7.144709581221619
 31
0.0
210
0.0
220
0.0
230
1.0
 40
0.57735
 41
4.80838985019645
 42
7.038721762782285
  0
ELLIPSE
  5
16B
330
15E
100
AcDbEntity
  8
0
  6
Continuous
 62
     0
370
    30
100
AcDbEllipse
 10
553.173669
 20
201.350782
 30
0.0
 11
4.125000000000001
 21
7.144709581221619
 31
0.0
210
0.0
220
0.0
230
1.0
 40
0.57735
 41
2.386056152286788
 42
4.068883386526723
  0
ELLIPSE
  5
16C
330
15E
100
AcDbEntity
  8
0
  6
Continuous
 62
     0
370
    30
100
AcDbEllipse
 10
553.527223
 20
201.146658
 30
0.0
 11
4.375000000000001
 21
7.577722283113839
 31
0.0
210
0.0
220
0.0
230
1.0
 40
0.57735
 41
4.9388808053506
 42
7.842241022836387
  0
ELLIPSE
  5
16D
330
15E
100
AcDbEntity
  8
0
  6
Continuous
 62
     0
370
    30
100
AcDbEllipse
 10
553.527223
 20
201.146658
 30
0.0
 11
4.375000000000001
 21
7.577722283113839
 31
0.0
210
0.0
220
0.0
230
1.0
 40
0.57735
 41
1.559055715656801
 42
3.923703757186718
  0
ELLIPSE
  5
16E
330
15E
100
AcDbEntity
  8
0
  6
Continuous
 62
     0
370
     0
100
AcDbEllipse
 10
553.527223
 20
201.146658
 30
0.0
 11
10.8
 21
18.70614872174388
 31
0.0
210
0.0
220
0.0
230
1.0
 40
0.57735
 41
4.891413813819048
 42
7.842241022836387
  0
ELLIPSE
  5
16F
330
15E
100
AcDbEntity
  8
0
  6
Continuous
 62
     0
370
     0
100
AcDbEllipse
 10
553.527223
 20
201.146658
 30
0.0
 11
10.8
 21
18.70614872174388
 31
0.0
210
0.0
220
0.0
230
1.0
 40
0.57735
 41
1.559055715656801
 42
4.190966616830615
  0
ELLIPSE
  5
170
330
15E
100
AcDbEntity
  8
0
  6
Continuous
 62
     0
370
     0
100
AcDbEllipse
 10
553.173669
 20
201.350782
 30
0.0
 11
11.05
 21
19.1391614236361
 31
0.0
210
0.0
220
0.0
230
1.0
 40
0.57735
 41
1.559055715656801
 42
3.938367936995836
  0
ELLIPSE
  5
171
330
15E
100
AcDbEntity
  8
0
  6
Continuous
 62
     0
370
     0
100
AcDbEllipse
 10
553.173669
 20
201.350782
 30
0.0
 11
11.05
 21
19.1391614236361
 31
0.0
210
0.0
220
0.0
230
1.0
 40
0.57735
 41
5.48640997807323
 42
7.842241022836387
  0
ELLIPSE
  5
172
330
15E
100
AcDbEntity
  8
0
  6
Continuous
 62
     0
370
    30
100
AcDbEllipse
 10
545.784403
 20
205.616977
 30
0.0
 11
9.750000000000002
 21
16.88749537379655
 31
0.0
210
0.0
220
0.0
230
1.0
 40
0.57735
 41
4.65425597321417
 42
4.700648369246594
  0
ELLIPSE
  5
173
330
15E
100
AcDbEntity
  8
0
  6
Continuous
 62
     0
370
    30
100
AcDbEllipse
 10
545.784403
 20
205.616977
 30
0.0
 11
9.750000000000002
 21
16.88749537379655
 31
0.0
210
0.0
220
0.0
230
1.0
 40
0.57735
 41
4.369072451027682
 42
4.651915502468822
  0
ELLIPSE
  5
174
330
15E
100
AcDbEntity
  8
0
  6
Continuous
 62
     0
370
    30
100
AcDbEllipse
 10
545.784403
 20
205.616977
 30
0.0
 11
9.750000000000002
 21
16.88749537379655
 31
0.0
210
0.0
220
0.0
230
1.0
 40
0.57735
 41
4.261159286302282
 42
4.31117553201913
  0
ELLIPSE
  5
175
330
15E
100
AcDbEntity
  8
0
  6
Continuous
 62
     0
370
    30
100
AcDbEllipse
 10
545.784403
 20
205.616977
 30
0.0
 11
9.750000000000002
 21
16.88749537379655
 31
0.0
210
0.0
220
0.0
230
1.0
 40
0.57735
 41
5.113602383049939
 42
5.163618628766786
  0
ELLIPSE
  5
176
330
15E
100
AcDbEntity
  8
0
  6
Continuous
 62
     0
370
    30
100
AcDbEllipse
 10
545.784403
 20
205.616977
 30
0.0
 11
9.750000000000002
 21
16.88749537379655
 31
0.0
210
0.0
220
0.0
230
1.0
 40
0.57735
 41
4.700648369246594
 42
5.055705464041385
  0
ELLIPSE
  5
177
330
15E
100
AcDbEntity
  8
0
  6
Continuous
 62
     0
370
    30
100
AcDbEllipse
 10
545.254073
 20
205.923163
 30
0.0
 11
10.125
 21
17.53701442663488
 31
0.0
210
0.0
220
0.0
230
1.0
 40
0.57735
 41
4.6767713760677
 42
4.700648369246593
  0
ELLIPSE
  5
178
330
15E
100
AcDbEntity
  8
0
  6
Continuous
 62
     0
370
    30
100
AcDbEllipse
 10
545.254073
 20
205.923163
 30
0.0
 11
10.125
 21
17.53701442663488
 31
0.0
210
0.0
220
0.0
230
1.0
 40
0.57735
 41
4.368873854853373
 42
4.640047417618886
  0
ELLIPSE
  5
179
330
15E
100
AcDbEntity
  8
0
  6
Continuous
 62
     0
370
    30
100
AcDbEllipse
 10
545.254073
 20
205.923163
 30
0.0
 11
10.125
 21
17.53701442663488
 31
0.0
210
0.0
220
0.0
230
1.0
 40
0.57735
 41
4.275846260581355
 42
4.320599419143509
  0
ELLIPSE
  5
17A
330
15E
100
AcDbEntity
  8
0
  6
Continuous
 62
     0
370
    30
100
AcDbEllipse
 10
545.254073
 20
205.923163
 30
0.0
 11
10.125
 21
17.53701442663488
 31
0.0
210
0.0
220
0.0
230
1.0
 40
0.57735
 41
5.104178495925559
 42
5.148931654487714
  0
ELLIPSE
  5
17B
330
15E
100
AcDbEntity
  8
0
  6
Continuous
 62
     0
370
    30
100
AcDbEllipse
 10
545.254073
 20
205.923163
 30
0.0
 11
10.125
 21
17.53701442663488
 31
0.0
210
0.0
220
0.0
230
1.0
 40
0.57735
 41
4.700648369246594
 42
5.055904060215695
  0
LINE
  5
17C
330
15E
100
AcDbEntity
  8
0
  6
Continuous
 62
     0
370
    30
100
AcDbLine
 10
542.123325
 20
182.211825
 30
0.0
 11
543.180608
 21
181.704245
 31
0.0
  0
LINE
  5
17D
330
15E
100
AcDbEntity
  8
0
  6
Continuous
 62
     0
370
    30
100
AcDbLine
 10
564.224015
 20
220.489739
 30
0.0
 11
565.192215
 21
219.827765
 31
0.0
  0
LWPOLYLINE
  5
17E
330
15E
100
AcDbEntity
  8
0
  6
Continuous
 62
     0
370
    30
100
AcDbPolyline
 90
       34
 70
     0
 43
0.0
 10
566.159058
 20
198.293549
 10
566.523132
 20
199.135315
 10
566.863586
 20
199.980789
 10
567.179932
 20
200.828491
 10
567.471741
 20
201.677002
 10
567.738525
 20
202.524826
 10
567.979858
 20
203.370529
 10
568.195251
 20
204.212646
 10
568.384338
 20
205.049728
 10
568.54657
 20
205.88031
 10
568.681519
 20
206.702942
 10
568.789001
 20
207.51622
 10
568.868896
 20
208.318802
 10
568.921082
 20
209.109314
 10
568.945312
 20
209.886383
 10
568.941528
 20
210.648636
 10
568.909668
 20
211.394791
 10
568.849792
 20
212.123611
 10
568.762024
 20
212.833893
 10
568.646362
 20
213.524399
 10
568.50293
 20
214.193939
 10
568.331787
 20
214.841278
 10
568.132935
 20
215.465195
 10
567.906677
 20
216.06459
 10
567.65332
 20
216.638519
 10
567.373352
 20
217.186066
 10
567.0672
 20
217.706329
 10
566.735229
 20
218.198364
 10
566.377319
 20
218.660233
 10
565.993042
 20
219.089355
 10
565.587524
 20
219.491333
 10
565.159851
 20
219.862411
 10
564.692322
 20
220.171661
 10
564.223999
 20
220.489746
  0
LWPOLYLINE
  5
17F
330
15E
100
AcDbEntity
  8
0
  6
Continuous
 62
     0
370
    30
100
AcDbPolyline
 90
       29
 70
     0
 43
0.0
 10
557.590088
 20
186.341766
 10
557.02063
 20
185.843521
 10
556.44574
 20
185.367126
 10
555.866089
 20
184.9133
 10
555.282532
 20
184.482635
 10
554.695862
 20
184.075684
 10
554.106812
 20
183.693008
 10
553.516235
 20
183.335159
 10
552.924927
 20
183.002686
 10
552.333618
 20
182.696106
 10
551.743164
 20
182.415833
 10
551.154236
 20
182.162216
 10
550.567688
 20
181.935654
 10
549.984253
 20
181.736496
 10
549.404785
 20
181.565109
 10
548.829956
 20
181.421875
 10
548.260559
 20
181.307175
 10
547.697388
 20
181.221313
 10
547.141174
 20
181.164337
 10
546.59259
 20
181.136276
 10
546.052307
 20
181.137146
 10
545.521179
 20
181.167068
 10
545.000305
 20
181.226791
 10
544.490906
 20
181.31723
 10
543.993591
 20
181.437943
 10
543.506226
 20
181.582932
 10
543.033081
 20
181.757874
 10
542.586975
 20
181.984558
 10
542.123352
 20
182.211823
  0
LINE
  5
180
330
15E
100
AcDbEntity
  8
0
  6
Continuous
 62
     0
370
    30
100
AcDbLine
 10
532.931281
 20
187.518849
 30
0.0
 11
542.123669
 21
182.211621
 31
0.0
  0
LINE
  5
181
330
15E
100
AcDbEntity
  8
0
  6
Continuous
 62
     0
370
    30
100
AcDbLine
 10
555.031281
 20
225.797171
 30
0.0
 11
564.223669
 21
220.489943
 31
0.0
  0
LINE
  5
182
330
15E
100
AcDbEntity
  8
0
  6
Continuous
 62
     0
370
    30
100
AcDbLine
 10
556.591562
 20
208.90374
 30
0.0
 11
557.298669
 21
208.495492
 31
0.0
  0
LINE
  5
183
330
15E
100
AcDbEntity
  8
0
  6
Continuous
 62
     0
370
    30
100
AcDbLine
 10
548.341562
 20
194.614321
 30
0.0
 11
549.048669
 21
194.206073
 31
0.0
  0
LWPOLYLINE
  5
184
330
15E
100
AcDbEntity
  8
0
  6
Continuous
 62
     0
370
    30
100
AcDbPolyline
 90
       15
 70
     0
 43
0.0
 10
572.906799
 20
191.119904
 10
573.492798
 20
191.432785
 10
574.06366
 20
191.68631
 10
574.614502
 20
191.878311
 10
575.140564
 20
192.007095
 10
575.637329
 20
192.071564
 10
576.100464
 20
192.071136
 10
576.526001
 20
192.005829
 10
576.910217
 20
191.876205
 10
577.249756
 20
191.683365
 10
577.541809
 20
191.428986
 10
577.783752
 20
191.115295
 10
577.973511
 20
190.74498
 10
578.109497
 20
190.321259
 10
578.191223
 20
189.840958
  0
LWPOLYLINE
  5
185
330
15E
100
AcDbEntity
  8
0
  6
Continuous
 62
     0
370
    30
100
AcDbPolyline
 90
       27
 70
     0
 43
0.0
 10
566.697388
 20
177.205612
 10
566.342773
 20
177.379807
 10
566.035156
 20
177.616455
 10
565.777222
 20
177.913513
 10
565.571106
 20
178.268387
 10
565.418762
 20
178.678009
 10
565.321411
 20
179.138794
 10
565.279907
 20
179.646744
 10
565.294678
 20
180.197464
 10
565.365479
 20
180.786133
 10
565.491821
 20
181.407654
 10
565.672546
 20
182.056625
 10
565.906067
 20
182.727386
 10
566.190369
 20
183.414124
 10
566.522949
 20
184.11087
 10
566.901001
 20
184.811569
 10
567.321167
 20
185.510117
 10
567.779785
 20
186.200439
 10
568.272949
 20
186.876526
 10
568.796265
 20
187.532486
 10
569.345276
 20
188.162643
 10
569.915161
 20
188.76149
 10
570.500977
 20
189.323837
 10
571.097595
 20
189.844818
 10
571.69989
 20
190.31987
 10
572.302551
 20
190.744904
 10
572.906799
 20
191.119904
  0
ARC
  5
186
330
15E
100
AcDbEntity
  8
0
  6
Continuous
 62
     0
370
     0
100
AcDbCircle
 10
566.990747
 20
177.527716
 30
0.0
 40
0.4356545095005161
100
AcDbArc
 50
227.676237
 51
316.522962
  0
LWPOLYLINE
  5
187
330
15E
100
AcDbEntity
  8
0
  6
Continuous
 62
     0
370
     0
100
AcDbPolyline
 90
       52
 70
     0
 43
0.0
 10
575.284424
 20
181.833786
 10
575.775146
 20
182.48671
 10
576.232971
 20
183.155655
 10
576.653687
 20
183.834564
 10
577.033508
 20
184.517334
 10
577.36908
 20
185.197769
 10
577.657288
 20
185.86972
 10
577.895508
 20
186.527115
 10
578.081665
 20
187.164001
 10
578.213989
 20
187.774628
 10
578.291382
 20
188.353485
 10
578.313049
 20
188.895325
 10
578.27887
 20
189.395248
 10
578.189087
 20
189.848755
 10
578.044556
 20
190.25174
 10
577.846619
 20
190.600555
 10
577.596985
 20
190.892044
 10
577.297913
 20
191.123566
 10
576.952148
 20
191.29303
 10
576.562866
 20
191.39888
 10
576.133484
 20
191.440155
 10
575.667908
 20
191.416519
 10
575.170349
 20
191.328171
 10
574.645386
 20
191.175919
 10
574.097656
 20
190.961151
 10
573.532166
 20
190.685806
 10
572.954041
 20
190.352371
 10
572.368469
 20
189.963867
 10
571.780762
 20
189.523819
 10
571.196228
 20
189.036163
 10
570.620178
 20
188.505341
 10
570.0578
 20
187.936111
 10
569.51416
 20
187.333649
 10
568.994202
 20
186.703369
 10
568.502563
 20
186.05098
 10
568.043762
 20
185.382385
 10
567.621948
 20
184.703629
 10
567.240845
 20
184.020874
 10
566.904053
 20
183.340271
 10
566.614441
 20
182.667984
 10
566.374756
 20
182.010101
 10
566.187134
 20
181.372559
 10
566.053284
 20
180.761108
 10
565.974304
 20
180.181274
 10
565.95105
 20
179.638336
 10
565.983704
 20
179.137146
 10
566.071899
 20
178.682281
 10
566.214905
 20
178.277847
 10
566.411377
 20
177.927475
 10
566.659607
 20
177.634354
 10
566.957275
 20
177.401123
 10
567.306885
 20
177.227951
  0
ARC
  5
188
330
15E
100
AcDbEntity
  8
0
  6
Continuous
 62
     0
370
     0
100
AcDbCircle
 10
563.661601
 20
175.06434
 30
0.0
 40
3.860195269562928
100
AcDbArc
 50
357.851042
 51
30.183436
  0
LINE
  5
189
330
15E
100
AcDbEntity
  8
0
  6
Continuous
 62
     0
370
     0
100
AcDbLine
 10
568.123022
 20
174.711377
 30
0.0
 11
567.519082
 21
174.919591
 31
0.0
  0
ARC
  5
18A
330
15E
100
AcDbEntity
  8
0
  6
Continuous
 62
     0
370
    30
100
AcDbCircle
 10
565.072813
 20
175.112807
 30
0.0
 40
3.076511235312259
100
AcDbArc
 50
352.502546
 51
43.43382
  0
ARC
  5
18B
330
15E
100
AcDbEntity
  8
0
  6
Continuous
 62
     0
370
    30
100
AcDbCircle
 10
581.128197
 20
177.784119
 30
0.0
 40
7.109831669889428
100
AcDbArc
 50
145.278574
 51
177.295243
  0
LINE
  5
18C
330
15E
100
AcDbEntity
  8
0
  6
Continuous
 62
     0
370
     0
100
AcDbLine
 10
574.099281
 20
178.240456
 30
0.0
 11
574.026286
 21
178.119628
 31
0.0
  0
LINE
  5
18D
330
15E
100
AcDbEntity
  8
0
  6
Continuous
 62
     0
370
     0
100
AcDbLine
 10
575.284405
 20
181.833786
 30
0.0
 11
567.30688
 21
177.227958
 31
0.0
  0
LINE
  5
18E
330
15E
100
AcDbEntity
  8
0
  6
Continuous
 62
     0
370
     0
100
AcDbLine
 10
574.026286
 20
178.119628
 30
0.0
 11
568.123022
 21
174.711377
 31
0.0
  0
LINE
  5
18F
330
15E
100
AcDbEntity
  8
0
  6
Continuous
 62
     0
370
     0
100
AcDbLine
 10
561.117982
 20
181.692339
 30
0.0
 11
560.933271
 21
182.886518
 31
0.0
  0
LINE
  5
190
330
15E
100
AcDbEntity
  8
0
  6
Continuous
 62
     0
370
     0
100
AcDbLine
 10
567.519082
 20
174.919591
 30
0.0
 11
561.117982
 21
181.692339
 31
0.0
  0
LINE
  5
191
330
15E
100
AcDbEntity
  8
0
  6
Continuous
 62
     0
370
     0
100
AcDbLine
 10
560.96938
 20
177.260781
 30
0.0
 11
560.831703
 21
177.676905
 31
0.0
  0
LINE
  5
192
330
15E
100
AcDbEntity
  8
0
  6
Continuous
 62
     0
370
     0
100
AcDbLine
 10
560.969379
 20
177.260777
 30
0.0
 11
561.117982
 21
181.692339
 31
0.0
  0
LINE
  5
193
330
15E
100
AcDbEntity
  8
0
  6
Continuous
 62
     0
370
     0
100
AcDbLine
 10
561.117982
 20
181.692339
 30
0.0
 11
560.670939
 21
182.478365
 31
0.0
  0
LINE
  5
194
330
15E
100
AcDbEntity
  8
0
  6
Continuous
 62
     0
370
     0
100
AcDbLine
 10
558.141319
 20
113.415399
 30
0.0
 11
560.969379
 21
177.260777
 31
0.0
  0
LINE
  5
195
330
15E
100
AcDbEntity
  8
0
  6
Continuous
 62
     0
370
     0
100
AcDbLine
 10
558.141319
 20
113.415399
 30
0.0
 11
569.423706
 21
106.772271
 31
0.0
  0
LWPOLYLINE
  5
196
330
15E
100
AcDbEntity
  8
0
  6
Continuous
 62
     0
370
     0
100
AcDbPolyline
 90
       23
 70
     0
 43
0.0
 10
569.423706
 20
106.77227
 10
569.44043
 20
109.842033
 10
569.427246
 20
112.929008
 10
569.383972
 20
116.031731
 10
569.31427
 20
119.146446
 10
569.226013
 20
122.267288
 10
569.1297
 20
125.387505
 10
569.031311
 20
128.505783
 10
568.929199
 20
131.627823
 10
568.82251
 20
134.757935
 10
568.709656
 20
137.901093
 10
568.58905
 20
141.061798
 10
568.462158
 20
144.236679
 10
568.332397
 20
147.417419
 10
568.203247
 20
150.595398
 10
568.078369
 20
153.761703
 10
567.961548
 20
156.906937
 10
567.856445
 20
160.020981
 10
567.766968
 20
163.09288
 10
567.696838
 20
166.110703
 10
567.649109
 20
169.062851
 10
567.613037
 20
171.964432
 10
567.519104
 20
174.919586
  0
LWPOLYLINE
  5
197
330
15E
100
AcDbEntity
  8
0
  6
Continuous
 62
     0
370
     0
100
AcDbPolyline
 90
       23
 70
     0
 43
0.0
 10
568.123047
 20
174.71138
 10
568.203918
 20
171.854843
 10
568.239502
 20
168.957184
 10
568.291687
 20
166.010422
 10
568.365479
 20
162.99527
 10
568.457275
 20
159.925491
 10
568.563171
 20
156.814209
 10
568.679504
 20
153.672836
 10
568.802795
 20
150.511444
 10
568.929688
 20
147.339111
 10
569.057068
 20
144.164307
 10
569.181824
 20
140.995209
 10
569.300964
 20
137.839783
 10
569.413147
 20
134.701385
 10
569.519714
 20
131.575745
 10
569.622009
 20
128.458115
 10
569.720764
 20
125.344185
 10
569.817261
 20
122.228386
 10
569.905762
 20
119.111977
 10
569.975647
 20
116.001694
 10
570.019043
 20
112.903374
 10
570.032532
 20
109.82074
 10
570.015747
 20
106.701721
  0
LINE
  5
198
330
15E
100
AcDbEntity
  8
0
  6
Continuous
 62
     0
370
     0
100
AcDbLine
 10
570.015724
 20
106.70172
 30
0.0
 11
579.73374
 21
112.312419
 31
0.0
  0
LWPOLYLINE
  5
199
330
15E
100
AcDbEntity
  8
0
  6
Continuous
 62
     0
370
     0
100
AcDbPolyline
 90
       30
 70
     0
 43
0.0
 10
574.026306
 20
178.119629
 10
573.895813
 20
175.84433
 10
573.820129
 20
173.592896
 10
573.76709
 20
171.338181
 10
573.776917
 20
169.076584
 10
573.8573
 20
166.808853
 10
573.99884
 20
164.537079
 10
574.192017
 20
162.262817
 10
574.427917
 20
159.987152
 10
574.697632
 20
157.710831
 10
574.99292
 20
155.434265
 10
575.305603
 20
153.1577
 10
575.627869
 20
150.881256
 10
575.952148
 20
148.604965
 10
576.270874
 20
146.328827
 10
576.576721
 20
144.052902
 10
576.863159
 20
141.777344
 10
577.129578
 20
139.502319
 10
577.380554
 20
137.227966
 10
577.6203
 20
134.9543
 10
577.85321
 20
132.681305
 10
578.082397
 20
130.40921
 10
578.313599
 20
128.137878
 10
578.547546
 20
125.868217
 10
578.778625
 20
123.602501
 10
579.000854
 20
121.342827
 10
579.209412
 20
119.090813
 10
579.401123
 20
116.847458
 10
579.57428
 20
114.613121
 10
579.733765
 20
112.312416
  0
LINE
  5
19A
330
15E
100
AcDbEntity
  8
0
  6
Continuous
 62
     0
370
     0
100
AcDbLine
 10
570.015724
 20
106.70172
 30
0.0
 11
569.423706
 21
106.772271
 31
0.0
  0
ARC
  5
19B
330
15E
100
AcDbEntity
  8
0
  6
Continuous
 62
     0
370
    30
100
AcDbCircle
 10
558.17472
 20
113.627214
 30
0.0
 40
0.2144322899754275
100
AcDbArc
 50
144.2109
 51
261.038978
  0
ELLIPSE
  5
19C
330
15E
100
AcDbEntity
  8
0
  6
Continuous
 62
     0
370
     0
100
AcDbEllipse
 10
558.047057
 20
195.40584
 30
0.0
 11
4.143477518066487
 21
5.235885625840406
 31
0.0
210
0.0
220
0.0
230
1.0
 40
0.462469
 41
0.8616715877413812
 42
3.080063385755647
  0
ELLIPSE
  5
19D
330
15E
100
AcDbEntity
  8
0
  6
Continuous
 62
     0
370
     0
100
AcDbEllipse
 10
558.047057
 20
195.40584
 30
0.0
 11
4.143477518066487
 21
5.235885625840406
 31
0.0
210
0.0
220
0.0
230
1.0
 40
0.462469
 41
0.0615292323976551
 42
0.8616715877413821
  0
LINE
  5
19E
330
15E
100
AcDbEntity
  8
0
  6
Continuous
 62
     0
370
    30
100
AcDbLine
 10
562.0145
 20
200.760552
 30
0.0
 11
561.911299
 21
200.817398
 31
0.0
  0
LINE
  5
19F
330
15E
100
AcDbEntity
  8
0
  6
Continuous
 62
     0
370
    30
100
AcDbLine
 10
553.770103
 20
190.291946
 30
0.0
 11
553.691513
 21
190.378493
 31
0.0
  0
LWPOLYLINE
  5
1A0
330
15E
100
AcDbEntity
  8
0
  6
Continuous
 62
     0
370
    30
100
AcDbPolyline
 90
       23
 70
     0
 43
0.0
 10
558.634216
 20
200.308685
 10
558.163635
 20
200.014999
 10
557.689209
 20
199.675766
 10
557.216187
 20
199.295212
 10
556.75
 20
198.877518
 10
556.296082
 20
198.426895
 10
555.85968
 20
197.947586
 10
555.44519
 20
197.444199
 10
555.055603
 20
196.92186
 10
554.693909
 20
196.385712
 10
554.362976
 20
195.840942
 10
554.065857
 20
195.292694
 10
553.805359
 20
194.746124
 10
553.584534
 20
194.206406
 10
553.406128
 20
193.678528
 10
553.272583
 20
193.166138
 10
553.185974
 20
192.672424
 10
553.148376
 20
192.2005
 10
553.161987
 20
191.753494
 10
553.22876
 20
191.334579
 10
553.350464
 20
190.948181
 10
553.527771
 20
190.601273
 10
553.770081
 20
190.291946
  0
ARC
  5
1A1
330
15E
100
AcDbEntity
  8
0
  6
Continuous
 62
     0
370
    30
100
AcDbCircle
 10
560.723749
 20
197.546876
 30
0.0
 40
3.463199246643548
100
AcDbArc
 50
68.11748
 51
127.110636
  0
LINE
  5
1A2
330
15E
100
AcDbEntity
  8
0
  6
Continuous
 62
     0
370
    30
100
AcDbLine
 10
565.971971
 20
177.678873
 30
0.0
 11
553.762526
 21
190.297692
 31
0.0
  0
LINE
  5
1A3
330
15E
100
AcDbEntity
  8
0
  6
Continuous
 62
     0
370
    30
100
AcDbLine
 10
562.033799
 20
200.749648
 30
0.0
 11
577.120831
 21
191.767089
 31
0.0
  0
LINE
  5
1A4
330
15E
100
AcDbEntity
  8
0
  6
Continuous
 62
     0
370
    30
100
AcDbLine
 10
560.774002
 20
177.585015
 30
0.0
 11
557.941782
 21
113.665881
 31
0.0
  0
LINE
  5
1A5
330
15E
100
AcDbEntity
  8
0
  6
Continuous
 62
     0
370
    30
100
AcDbLine
 10
560.274628
 20
183.567244
 30
0.0
 11
560.671564
 21
182.474082
 31
0.0
  0
ARC
  5
1A6
330
15E
100
AcDbEntity
  8
0
  6
Continuous
 62
     0
370
    30
100
AcDbCircle
 10
531.435602
 20
179.420602
 30
0.0
 40
29.39497031600862
100
AcDbArc
 50
356.412756
 51
5.962441
  0
LINE
  5
1A7
330
15E
100
AcDbEntity
  8
0
  6
Continuous
 62
     0
370
    30
100
AcDbLine
 10
566.827556
 20
177.123859
 30
0.0
 11
565.98871
 21
177.661782
 31
0.0
  0
LINE
  5
1A8
330
15E
100
AcDbEntity
  8
0
  6
Continuous
 62
     0
370
    30
100
AcDbLine
 10
575.746349
 20
182.398588
 30
0.0
 11
575.307707
 21
181.816352
 31
0.0
  0
LINE
  5
1A9
330
15E
100
AcDbEntity
  8
0
  6
Continuous
 62
     0
370
    30
100
AcDbLine
 10
556.658719
 20
208.764811
 30
0.0
 11
554.932198
 21
199.005035
 31
0.0
  0
LINE
  5
1AA
330
15E
100
AcDbEntity
  8
0
  6
Continuous
 62
     0
370
    30
100
AcDbLine
 10
556.719726
 20
209.109673
 30
0.0
 11
556.680513
 21
208.888004
 31
0.0
  0
LINE
  5
1AB
330
15E
100
AcDbEntity
  8
0
  6
Continuous
 62
     0
370
    30
100
AcDbLine
 10
548.577479
 20
195.336136
 30
0.0
 11
548.118095
 21
195.07091
 31
0.0
  0
LINE
  5
1AC
330
15E
100
AcDbEntity
  8
0
  6
Continuous
 62
     0
370
    30
100
AcDbLine
 10
554.932198
 20
199.005035
 30
0.0
 11
549.690013
 21
195.978458
 31
0.0
  0
LWPOLYLINE
  5
1AD
330
15E
100
AcDbEntity
  8
0
  6
Continuous
 62
     0
370
    30
100
AcDbPolyline
 90
       31
 70
     0
 43
0.0
 10
548.056824
 20
195.161575
 10
548.551697
 20
195.38092
 10
549.043396
 20
195.640366
 10
549.53949
 20
195.941513
 10
550.056152
 20
196.295624
 10
550.588623
 20
196.703094
 10
551.13092
 20
197.162766
 10
551.675964
 20
197.67186
 10
552.216248
 20
198.225937
 10
552.743652
 20
198.818985
 10
553.250244
 20
199.443558
 10
553.728271
 20
200.091034
 10
554.170837
 20
200.75209
 10
554.572083
 20
201.417068
 10
554.92749
 20
202.076477
 10
555.23407
 20
202.721405
 10
555.490173
 20
203.343872
 10
555.695801
 20
203.937164
 10
555.852173
 20
204.495895
 10
555.961609
 20
205.016159
 10
556.028931
 20
205.513229
 10
556.053406
 20
205.996521
 10
556.030701
 20
206.458206
 10
555.957214
 20
206.890091
 10
555.830566
 20
207.284042
 10
555.649597
 20
207.632278
 10
555.414612
 20
207.927872
 10
555.127625
 20
208.165115
 10
554.792114
 20
208.339798
 10
554.413025
 20
208.449524
 10
553.994568
 20
208.493805
  0
LWPOLYLINE
  5
1AE
330
15E
100
AcDbEntity
  8
0
  6
Continuous
 62
     0
370
     0
100
AcDbPolyline
 90
       31
 70
     0
 43
0.0
 10
573.762451
 20
170.744141
 10
575.417419
 20
173.059509
 10
577.033508
 20
175.413376
 10
578.609009
 20
177.802979
 10
580.142151
 20
180.225586
 10
581.631165
 20
182.678467
 10
583.074341
 20
185.158875
 10
584.470154
 20
187.664261
 10
585.817383
 20
190.192413
 10
587.115112
 20
192.74115
 10
588.362061
 20
195.30806
 10
589.556946
 20
197.890427
 10
590.698425
 20
200.485489
 10
591.785217
 20
203.090454
 10
592.816223
 20
205.702545
 10
593.790405
 20
208.31897
 10
594.706665
 20
210.937057
 10
595.56427
 20
213.554459
 10
596.362305
 20
216.168839
 10
597.099915
 20
218.777756
 10
597.776489
 20
221.378433
 10
598.391235
 20
223.968079
 10
598.943481
 20
226.543839
 10
599.432495
 20
229.102921
 10
599.857544
 20
231.642487
 10
600.218079
 20
234.159714
 10
600.513794
 20
236.651688
 10
600.744568
 20
239.115494
 10
600.910217
 20
241.548218
 10
601.010498
 20
243.94693
 10
601.045349
 20
246.380234
  0
LWPOLYLINE
  5
1AF
330
15E
100
AcDbEntity
  8
0
  6
Continuous
 62
     0
370
     0
100
AcDbPolyline
 90
      171
 70
     0
 43
0.0
 10
601.045349
 20
246.380234
 10
601.017395
 20
248.525757
 10
600.933594
 20
250.638535
 10
600.794128
 20
252.716446
 10
600.599121
 20
254.757339
 10
600.348694
 20
256.759094
 10
600.042969
 20
258.719574
 10
599.682068
 20
260.636658
 10
599.266418
 20
262.508423
 10
598.796509
 20
264.333282
 10
598.272827
 20
266.109711
 10
597.696045
 20
267.83609
 10
597.06665
 20
269.510864
 10
596.385254
 20
271.132446
 10
595.652344
 20
272.69931
 10
594.868652
 20
274.210266
 10
594.034729
 20
275.664246
 10
593.151306
 20
277.060181
 10
592.219177
 20
278.396912
 10
591.239136
 20
279.673279
 10
590.211975
 20
280.888
 10
589.138733
 20
282.039948
 10
588.020325
 20
283.128174
 10
586.85791
 20
284.151703
 10
585.652466
 20
285.109589
 10
584.404846
 20
286.001068
 10
583.115967
 20
286.825378
 10
581.786621
 20
287.581818
 10
580.418091
 20
288.269714
 10
579.011719
 20
288.888519
 10
577.568787
 20
289.437683
 10
576.09082
 20
289.916626
 10
574.579102
 20
290.324829
 10
573.035034
 20
290.661682
 10
571.460022
 20
290.926727
 10
569.855469
 20
291.119904
 10
568.2229
 20
291.241119
 10
566.563721
 20
291.290344
 10
564.879333
 20
291.267548
 10
563.171204
 20
291.172729
 10
561.440796
 20
291.005798
 10
559.689636
 20
290.766937
 10
557.919312
 20
290.456451
 10
556.131348
 20
290.074738
 10
554.327454
 20
289.622131
 10
552.509216
 20
289.098999
 10
550.678162
 20
288.505707
 10
548.835938
 20
287.842621
 10
546.984192
 20
287.110413
 10
545.124634
 20
286.309875
 10
543.258789
 20
285.441742
 10
541.388428
 20
284.506836
 10
539.515198
 20
283.505859
 10
537.640686
 20
282.439667
 10
535.766602
 20
281.309082
 10
533.894592
 20
280.115234
 10
532.026306
 20
278.859283
 10
530.163391
 20
277.542389
 10
528.307556
 20
276.165649
 10
526.460388
 20
274.730255
 10
524.623657
 20
273.237366
 10
522.798889
 20
271.688293
 10
520.987671
 20
270.084564
 10
519.191589
 20
268.427612
 10
517.412354
 20
266.718933
 10
515.651428
 20
264.960052
 10
513.910461
 20
263.152374
 10
512.19104
 20
261.297455
 10
510.494598
 20
259.397064
 10
508.822662
 20
257.452881
 10
507.176636
 20
255.466721
 10
505.558075
 20
253.440323
 10
503.968353
 20
251.375412
 10
502.409027
 20
249.273788
 10
500.881409
 20
247.137283
 10
499.386841
 20
244.967865
 10
497.926544
 20
242.767487
 10
496.501892
 20
240.538132
 10
495.114105
 20
238.281738
 10
493.764526
 20
236.000305
 10
492.454376
 20
233.695786
 10
491.184753
 20
231.370239
 10
489.956757
 20
229.025787
 10
488.771423
 20
226.66452
 10
487.629791
 20
224.288528
 10
486.532959
 20
221.899918
 10
485.481964
 20
219.500778
 10
484.477753
 20
217.093231
 10
483.521118
 20
214.679428
 10
482.612885
 20
212.261505
 10
481.753845
 20
209.841614
 10
480.944733
 20
207.421906
 10
480.18634
 20
205.004547
 10
479.479492
 20
202.591675
 10
478.824707
 20
200.18541
 10
478.222534
 20
197.787888
 10
477.673401
 20
195.40123
 10
477.177826
 20
193.027542
 10
476.736298
 20
190.668961
 10
476.349274
 20
188.327591
 10
476.017151
 20
186.005524
 10
475.740173
 20
183.704803
 10
475.518494
 20
181.427429
 10
475.352264
 20
179.1754
 10
475.241669
 20
176.950745
 10
475.186829
 20
174.755447
 10
475.187927
 20
172.591522
 10
475.244965
 20
170.460892
 10
475.357758
 20
168.365372
 10
475.526184
 20
166.306778
 10
475.750031
 20
164.286942
 10
476.029205
 20
162.307678
 10
476.363464
 20
160.370804
 10
476.752655
 20
158.478104
 10
477.19632
 20
156.631195
 10
477.694031
 20
154.831635
 10
478.245239
 20
153.081009
 10
478.849518
 20
151.380844
 10
479.506348
 20
149.732727
 10
480.21524
 20
148.138214
 10
480.975616
 20
146.598724
 10
481.786713
 20
145.115555
 10
482.647736
 20
143.689911
 10
483.557892
 20
142.323059
 10
484.516388
 20
141.016235
 10
485.522461
 20
139.770691
 10
486.575287
 20
138.587631
 10
487.673889
 20
137.468048
 10
488.817261
 20
136.412842
 10
490.004303
 20
135.422867
 10
491.233948
 20
134.499008
 10
492.505188
 20
133.642151
 10
493.816925
 20
132.853149
 10
495.16803
 20
132.132797
 10
496.557281
 20
131.481613
 10
497.983368
 20
130.90007
 10
499.445038
 20
130.388641
 10
500.940948
 20
129.9478
 10
502.469818
 20
129.578033
 10
504.030396
 20
129.2798
 10
505.621246
 20
129.05336
 10
507.240936
 20
128.898758
 10
508.888
 20
128.816071
 10
510.560944
 20
128.805328
 10
512.258301
 20
128.866623
 10
513.978577
 20
129.0
 10
515.720398
 20
129.205444
 10
517.482056
 20
129.482697
 10
519.262024
 20
129.83136
 10
521.058655
 20
130.251099
 10
522.870483
 20
130.741531
 10
524.69574
 20
131.302322
 10
526.532959
 20
131.93309
 10
528.380432
 20
132.633301
 10
530.236633
 20
133.402206
 10
532.099731
 20
134.239029
 10
533.968201
 20
135.143021
 10
535.840332
 20
136.113403
 10
537.714478
 20
137.149384
 10
539.588928
 20
138.250198
 10
541.462158
 20
139.414795
 10
543.332336
 20
140.642029
 10
545.197937
 20
141.930756
 10
547.057251
 20
143.279846
 10
548.90863
 20
144.688156
 10
550.750427
 20
146.154526
 10
552.581055
 20
147.677734
 10
554.398743
 20
149.256317
 10
556.202087
 20
150.888779
 10
557.989319
 20
152.573624
 10
559.769348
 20
154.319733
  0
LWPOLYLINE
  5
1B0
330
15E
100
AcDbEntity
  8
0
  6
Continuous
 62
     0
370
    30
100
AcDbPolyline
 90
      114
 70
     0
 43
0.0
 10
494.016754
 20
131.646317
 10
492.656525
 20
132.368927
 10
491.33548
 20
133.160156
 10
490.055298
 20
134.018936
 10
488.817657
 20
134.944031
 10
487.624054
 20
135.934006
 10
486.4758
 20
136.987289
 10
485.374176
 20
138.102158
 10
484.320312
 20
139.276718
 10
483.315186
 20
140.508972
 10
482.359589
 20
141.796753
 10
481.454285
 20
143.137817
 10
480.599792
 20
144.529785
 10
479.796539
 20
145.970245
 10
479.04483
 20
147.456635
 10
478.344788
 20
148.986389
 10
477.696472
 20
150.556824
 10
477.099701
 20
152.165283
 10
476.554291
 20
153.809021
 10
476.059875
 20
155.485336
 10
475.615936
 20
157.191452
 10
475.221954
 20
158.924683
 10
474.877167
 20
160.682281
 10
474.580872
 20
162.461563
 10
474.332153
 20
164.259888
 10
474.130066
 20
166.074646
 10
473.973602
 20
167.903305
 10
473.861633
 20
169.743332
 10
473.79303
 20
171.592361
 10
473.766571
 20
173.447998
 10
473.781281
 20
175.322479
 10
473.837769
 20
177.238861
 10
473.937317
 20
179.196609
 10
474.081024
 20
181.194702
 10
474.27005
 20
183.231918
 10
474.505402
 20
185.306961
 10
474.788086
 20
187.41835
 10
475.118988
 20
189.564484
 10
475.498932
 20
191.743607
 10
475.928619
 20
193.953857
 10
476.40863
 20
196.193207
 10
476.939514
 20
198.459488
 10
477.521667
 20
200.750443
 10
478.155304
 20
203.063644
 10
478.840637
 20
205.396591
 10
479.577698
 20
207.746628
 10
480.366302
 20
210.111023
 10
481.206268
 20
212.486938
 10
482.097198
 20
214.87146
 10
483.038574
 20
217.261612
 10
484.029724
 20
219.654327
 10
485.069824
 20
222.046509
 10
486.15799
 20
224.435028
 10
487.293091
 20
226.816727
 10
488.473969
 20
229.1884
 10
489.699249
 20
231.546906
 10
490.967468
 20
233.889099
 10
492.277069
 20
236.211838
 10
493.626373
 20
238.51207
 10
495.01355
 20
240.786758
 10
496.436707
 20
243.032974
 10
497.89386
 20
245.247864
 10
499.382965
 20
247.428635
 10
500.901917
 20
249.572662
 10
502.448456
 20
251.677399
 10
504.020416
 20
253.740433
 10
505.615448
 20
255.759506
 10
507.231293
 20
257.732483
 10
508.865601
 20
259.657379
 10
510.516083
 20
261.532379
 10
512.180359
 20
263.355835
 10
513.856079
 20
265.126221
 10
515.541077
 20
266.842255
 10
517.23291
 20
268.502716
 10
518.929504
 20
270.106659
 10
520.628601
 20
271.653198
 10
522.328064
 20
273.141724
 10
524.025818
 20
274.571686
 10
525.71991
 20
275.942749
 10
527.408386
 20
277.254669
 10
529.089355
 20
278.507477
 10
530.761169
 20
279.701172
 10
532.421997
 20
280.835999
 10
534.070251
 20
281.912323
 10
535.704529
 20
282.930634
 10
537.323364
 20
283.891418
 10
538.940552
 20
284.803802
 10
540.573242
 20
285.676758
 10
542.220215
 20
286.508118
 10
543.879822
 20
287.295654
 10
545.550537
 20
288.03717
 10
547.230652
 20
288.730499
 10
548.918457
 20
289.373505
 10
550.612061
 20
289.964081
 10
552.30957
 20
290.500244
 10
554.008911
 20
290.97998
 10
555.70813
 20
291.401428
 10
557.40509
 20
291.762756
 10
559.097534
 20
292.062317
 10
560.783325
 20
292.298492
 10
562.460083
 20
292.469788
 10
564.125671
 20
292.574921
 10
565.777649
 20
292.612671
 10
567.413696
 20
292.582001
 10
569.031555
 20
292.481964
 10
570.628845
 20
292.31192
 10
572.203247
 20
292.071259
 10
573.752502
 20
291.759613
 10
575.274353
 20
291.37677
 10
576.766663
 20
290.92276
 10
578.227173
 20
290.397736
 10
579.653931
 20
289.802032
 10
581.044861
 20
289.136261
 10
582.40979
 20
288.394318
  0
LWPOLYLINE
  5
1B1
330
15E
100
AcDbEntity
  8
0
  6
Continuous
 62
     0
370
    30
100
AcDbPolyline
 90
      113
 70
     0
 43
0.0
 10
578.349426
 20
290.349976
 10
577.116577
 20
291.282074
 10
575.842102
 20
292.147217
 10
574.527161
 20
292.944794
 10
573.172974
 20
293.674225
 10
571.780762
 20
294.334839
 10
570.351685
 20
294.926056
 10
568.886963
 20
295.447235
 10
567.387817
 20
295.897766
 10
565.855469
 20
296.277161
 10
564.291321
 20
296.585266
 10
562.696899
 20
296.82196
 10
561.073486
 20
296.987061
 10
559.422668
 20
297.080475
 10
557.745789
 20
297.102081
 10
556.044312
 20
297.051727
 10
554.31958
 20
296.929291
 10
552.573242
 20
296.734863
 10
550.806763
 20
296.468719
 10
549.021729
 20
296.131287
 10
547.219727
 20
295.7229
 10
545.402405
 20
295.243927
 10
543.571289
 20
294.694702
 10
541.727905
 20
294.075653
 10
539.873962
 20
293.387115
 10
538.011047
 20
292.6297
 10
536.140747
 20
291.804199
 10
534.264709
 20
290.911469
 10
532.384644
 20
289.952362
 10
530.502197
 20
288.927734
 10
528.618958
 20
287.838379
 10
526.736633
 20
286.68515
 10
524.856873
 20
285.468903
 10
522.981262
 20
284.190765
 10
521.11145
 20
282.851929
 10
519.249084
 20
281.453735
 10
517.395813
 20
279.997406
 10
515.553162
 20
278.484253
 10
513.7229
 20
276.915497
 10
511.906555
 20
275.292419
 10
510.105804
 20
273.616333
 10
508.322174
 20
271.888733
 10
506.557159
 20
270.111298
 10
504.812317
 20
268.285583
 10
503.089172
 20
266.413269
 10
501.389221
 20
264.495972
 10
499.713989
 20
262.535339
 10
498.065002
 20
260.532959
 10
496.443726
 20
258.49054
 10
494.851562
 20
256.409882
 10
493.289856
 20
254.292938
 10
491.759888
 20
252.141586
 10
490.263031
 20
249.957718
 10
488.800568
 20
247.743271
 10
487.37384
 20
245.500107
 10
485.984192
 20
243.230164
 10
484.632904
 20
240.935364
 10
483.321075
 20
238.617752
 10
482.049744
 20
236.279419
 10
480.820007
 20
233.922424
 10
479.632935
 20
231.548843
 10
478.489563
 20
229.160767
 10
477.390961
 20
226.760254
 10
476.338226
 20
224.34938
 10
475.332275
 20
221.930252
 10
474.373962
 20
219.50499
 10
473.463959
 20
217.075714
 10
472.603058
 20
214.644577
 10
471.791992
 20
212.213699
 10
471.031494
 20
209.785233
 10
470.322296
 20
207.361298
 10
469.665192
 20
204.944031
 10
469.06076
 20
202.535553
 10
468.509369
 20
200.137939
 10
468.011475
 20
197.75325
 10
467.567413
 20
195.383606
 10
467.177612
 20
193.031052
 10
466.842407
 20
190.697678
 10
466.562195
 20
188.385559
 10
466.337372
 20
186.096771
 10
466.168121
 20
183.833313
 10
466.054474
 20
181.597092
 10
465.996429
 20
179.39003
 10
465.993988
 20
177.21405
 10
466.04715
 20
175.07103
 10
466.155945
 20
172.962906
 10
466.320312
 20
170.891571
 10
466.540344
 20
168.858932
 10
466.815735
 20
166.86676
 10
467.146118
 20
164.916672
 10
467.531189
 20
163.010315
 10
467.97049
 20
161.149353
 10
468.463684
 20
159.335388
 10
469.010376
 20
157.570099
 10
469.610229
 20
155.855103
 10
470.262787
 20
154.192032
 10
470.967438
 20
152.58226
 10
471.72348
 20
151.027084
 10
472.530151
 20
149.527786
 10
473.386719
 20
148.085663
 10
474.292419
 20
146.701965
 10
475.246552
 20
145.378006
 10
476.248383
 20
144.115051
 10
477.297089
 20
142.914337
 10
478.391724
 20
141.776825
 10
479.531219
 20
140.703339
 10
480.714539
 20
139.694763
 10
481.940552
 20
138.751938
 10
483.208282
 20
137.875717
 10
484.516632
 20
137.066956
 10
485.864532
 20
136.326508
 10
487.250885
 20
135.655151
 10
488.684937
 20
135.049179
  0
LWPOLYLINE
  5
1B2
330
15E
100
AcDbEntity
  8
0
  6
Continuous
 62
     0
370
     0
100
AcDbPolyline
 90
       64
 70
     0
 43
0.0
 10
530.062561
 20
189.17511
 10
529.257874
 20
189.279205
 10
528.483337
 20
189.453918
 10
527.741699
 20
189.698914
 10
527.035217
 20
190.012985
 10
526.366211
 20
190.394836
 10
525.736938
 20
190.843155
 10
525.149658
 20
191.356613
 10
524.606689
 20
191.933838
 10
524.109558
 20
192.572708
 10
523.659912
 20
193.270767
 10
523.259094
 20
194.025543
 10
522.90863
 20
194.834564
 10
522.609985
 20
195.695358
 10
522.364136
 20
196.605103
 10
522.171692
 20
197.560455
 10
522.033203
 20
198.558044
 10
521.949097
 20
199.594482
 10
521.919922
 20
200.666382
 10
521.945984
 20
201.770294
 10
522.027039
 20
202.902374
 10
522.162476
 20
204.05864
 10
522.351868
 20
205.235153
 10
522.594666
 20
206.427948
 10
522.890381
 20
207.633072
 10
523.237976
 20
208.846436
 10
523.635986
 20
210.063904
 10
524.082947
 20
211.281311
 10
524.577332
 20
212.494522
 10
525.117798
 20
213.699371
 10
525.702637
 20
214.891769
 10
526.32959
 20
216.067749
 10
526.996399
 20
217.223373
 10
527.700867
 20
218.354706
 10
528.440613
 20
219.457809
 10
529.213318
 20
220.528778
 10
530.016357
 20
221.564133
 10
530.846802
 20
222.560501
 10
531.701843
 20
223.514542
 10
532.578552
 20
224.422928
 10
533.474121
 20
225.282318
 10
534.385498
 20
226.089783
 10
535.309509
 20
226.84285
 10
536.243042
 20
227.539124
 10
537.182861
 20
228.176193
 10
538.125854
 20
228.751648
 10
539.068726
 20
229.26326
 10
540.008484
 20
229.709595
 10
540.941772
 20
230.089417
 10
541.865479
 20
230.401443
 10
542.776489
 20
230.64444
 10
543.671509
 20
230.817184
 10
544.547668
 20
230.919205
 10
545.4021
 20
230.950516
 10
546.231812
 20
230.911133
 10
547.034058
 20
230.801117
 10
547.805908
 20
230.620468
 10
548.544739
 20
230.369644
 10
549.248169
 20
230.049835
 10
549.91394
 20
229.662354
 10
550.539795
 20
229.208527
 10
551.123413
 20
228.689651
 10
551.662598
 20
228.107147
 10
552.162476
 20
227.453461
  0
LWPOLYLINE
  5
1B3
330
15E
100
AcDbEntity
  8
0
  6
Continuous
 62
     0
370
    30
100
AcDbPolyline
 90
       17
 70
     0
 43
0.0
 10
537.925354
 20
228.634659
 10
538.852722
 20
229.12738
 10
539.776367
 20
229.555359
 10
540.693054
 20
229.917114
 10
541.59967
 20
230.211243
 10
542.493042
 20
230.436844
 10
543.370239
 20
230.593216
 10
544.228149
 20
230.679703
 10
545.063843
 20
230.695984
 10
545.874451
 20
230.642151
 10
546.657227
 20
230.518326
 10
547.409424
 20
230.324799
 10
548.128479
 20
230.062408
 10
548.812012
 20
229.732071
 10
549.45752
 20
229.334747
 10
550.062866
 20
228.871902
 10
550.636169
 20
228.334702
  0
LWPOLYLINE
  5
1B4
330
15E
100
AcDbEntity
  8
0
  6
Continuous
 62
     0
370
    30
100
AcDbPolyline
 90
       17
 70
     0
 43
0.0
 10
528.536133
 20
190.056396
 10
527.797791
 20
190.279465
 10
527.093628
 20
190.570999
 10
526.426025
 20
190.930099
 10
525.797424
 20
191.355637
 10
525.2099
 20
191.845978
 10
524.665405
 20
192.39946
 10
524.165894
 20
193.014313
 10
523.713074
 20
193.688339
 10
523.308411
 20
194.419159
 10
522.95343
 20
195.204376
 10
522.649292
 20
196.041306
 10
522.396973
 20
196.926941
 10
522.197388
 20
197.858322
 10
522.051331
 20
198.832306
 10
521.959167
 20
199.845474
 10
521.921021
 20
200.914261
  0
LINE
  5
1B5
330
15E
100
AcDbEntity
  8
0
  6
Continuous
 62
     0
370
    30
100
AcDbLine
 10
526.19432
 20
191.088776
 30
0.0
 11
527.653252
 21
190.56612
 31
0.0
  0
LINE
  5
1B6
330
15E
100
AcDbEntity
  8
0
  6
Continuous
 62
     0
370
    30
100
AcDbLine
 10
548.075405
 20
230.159266
 30
0.0
 11
546.28349
 21
230.906261
 31
0.0
  0
LINE
  5
1B7
330
15E
100
AcDbEntity
  8
0
  6
Continuous
 62
     0
370
    30
100
AcDbLine
 10
549.753316
 20
228.844406
 30
0.0
 11
548.507737
 21
229.889683
 31
0.0
  0
LWPOLYLINE
  5
1B8
330
15E
100
AcDbEntity
  8
0
  6
Continuous
 62
     0
370
    30
100
AcDbPolyline
 90
       93
 70
     0
 43
0.0
 10
533.018433
 20
141.664551
 10
532.908386
 20
141.582291
 10
532.80304
 20
141.485977
 10
532.730408
 20
141.378387
 10
532.705811
 20
141.262405
 10
532.713989
 20
141.14122
 10
532.735291
 20
141.018097
 10
532.751648
 20
140.895966
 10
532.758728
 20
140.775436
 10
532.75885
 20
140.65596
 10
532.754578
 20
140.536987
 10
532.74823
 20
140.417938
 10
532.74231
 20
140.298248
 10
532.739319
 20
140.177368
 10
532.741455
 20
140.055359
 10
532.750305
 20
139.935181
 10
532.767334
 20
139.820663
 10
532.793884
 20
139.715637
 10
532.831299
 20
139.623917
 10
532.881042
 20
139.549347
 10
532.944336
 20
139.495712
 10
533.021423
 20
139.464813
 10
533.110046
 20
139.45517
 10
533.208008
 20
139.464996
 10
533.313049
 20
139.492508
 10
533.422852
 20
139.535934
 10
533.535156
 20
139.593491
 10
533.647644
 20
139.663422
 10
533.75824
 20
139.744537
 10
533.864929
 20
139.836029
 10
533.965698
 20
139.937057
 10
534.058533
 20
140.046783
 10
534.141418
 20
140.164398
 10
534.212341
 20
140.289093
 10
534.269958
 20
140.419724
 10
534.314697
 20
140.554153
 10
534.347656
 20
140.690079
 10
534.369812
 20
140.825134
 10
534.382141
 20
140.956985
 10
534.385681
 20
141.083298
 10
534.381409
 20
141.201782
 10
534.371399
 20
141.31282
 10
534.359009
 20
141.42038
 10
534.347656
 20
141.528625
 10
534.34082
 20
141.641739
 10
534.34198
 20
141.763947
 10
534.354553
 20
141.899414
 10
534.381165
 20
142.051285
 10
534.408691
 20
142.203522
 10
534.410339
 20
142.323303
 10
534.358948
 20
142.37738
 10
534.251587
 20
142.35051
 10
534.139954
 20
142.268234
 10
534.078735
 20
142.160339
 10
534.072693
 20
142.041733
 10
534.094604
 20
141.917679
 10
534.116699
 20
141.793335
 10
534.122925
 20
141.67189
 10
534.119568
 20
141.552887
 10
534.115417
 20
141.435425
 10
534.118042
 20
141.318619
 10
534.126221
 20
141.201569
 10
534.135376
 20
141.083359
 10
534.140747
 20
140.963104
 10
534.137695
 20
140.839874
 10
534.121521
 20
140.712784
 10
534.087524
 20
140.580933
 10
534.032532
 20
140.444565
 10
533.959045
 20
140.308487
 10
533.870972
 20
140.17865
 10
533.772339
 20
140.060974
 10
533.667053
 20
139.96138
 10
533.559021
 20
139.885818
 10
533.452148
 20
139.83963
 10
533.349854
 20
139.823135
 10
533.255127
 20
139.833923
 10
533.171021
 20
139.869568
 10
533.100647
 20
139.927643
 10
533.046997
 20
140.005722
 10
533.013062
 20
140.101334
 10
532.997681
 20
140.211166
 10
532.995911
 20
140.331085
 10
533.00238
 20
140.456909
 10
533.012024
 20
140.584442
 10
533.019531
 20
140.709518
 10
533.019714
 20
140.827942
 10
533.008301
 20
140.936401
 10
532.992249
 20
141.042068
 10
532.985962
 20
141.15889
 10
533.003845
 20
141.300827
 10
533.041931
 20
141.462173
 10
533.061279
 20
141.59935
 10
533.018433
 20
141.664551
  0
LINE
  5
1B9
330
15E
100
AcDbEntity
  8
0
  6
Continuous
 62
     0
370
    30
100
AcDbLine
 10
531.034925
 20
138.513019
 30
0.0
 11
531.034925
 21
138.190285
 31
0.0
  0
LINE
  5
1BA
330
15E
100
AcDbEntity
  8
0
  6
Continuous
 62
     0
370
    30
100
AcDbLine
 10
531.034925
 20
138.190285
 30
0.0
 11
532.551772
 21
139.066037
 31
0.0
  0
LINE
  5
1BB
330
15E
100
AcDbEntity
  8
0
  6
Continuous
 62
     0
370
    30
100
AcDbLine
 10
532.551772
 20
139.066037
 30
0.0
 11
532.551772
 21
139.350141
 31
0.0
  0
LINE
  5
1BC
330
15E
100
AcDbEntity
  8
0
  6
Continuous
 62
     0
370
    30
100
AcDbLine
 10
532.551772
 20
139.350141
 30
0.0
 11
531.356159
 21
138.659853
 31
0.0
  0
LINE
  5
1BD
330
15E
100
AcDbEntity
  8
0
  6
Continuous
 62
     0
370
    30
100
AcDbLine
 10
531.356159
 20
138.659853
 30
0.0
 11
532.532121
 21
141.06442
 31
0.0
  0
LINE
  5
1BE
330
15E
100
AcDbEntity
  8
0
  6
Continuous
 62
     0
370
    30
100
AcDbLine
 10
532.532121
 20
141.06442
 30
0.0
 11
532.532121
 21
141.383779
 31
0.0
  0
LINE
  5
1BF
330
15E
100
AcDbEntity
  8
0
  6
Continuous
 62
     0
370
    30
100
AcDbLine
 10
532.532121
 20
141.383779
 30
0.0
 11
531.065619
 21
140.537094
 31
0.0
  0
LINE
  5
1C0
330
15E
100
AcDbEntity
  8
0
  6
Continuous
 62
     0
370
    30
100
AcDbLine
 10
531.065619
 20
140.537094
 30
0.0
 11
531.065619
 21
140.253178
 31
0.0
  0
LINE
  5
1C1
330
15E
100
AcDbEntity
  8
0
  6
Continuous
 62
     0
370
    30
100
AcDbLine
 10
531.065619
 20
140.253178
 30
0.0
 11
532.199763
 21
140.907976
 31
0.0
  0
LINE
  5
1C2
330
15E
100
AcDbEntity
  8
0
  6
Continuous
 62
     0
370
    30
100
AcDbLine
 10
532.199763
 20
140.907976
 30
0.0
 11
531.034925
 21
138.513019
 31
0.0
  0
LWPOLYLINE
  5
1C3
330
15E
100
AcDbEntity
  8
0
  6
Continuous
 62
     0
370
    30
100
AcDbPolyline
 90
      129
 70
     0
 43
0.0
 10
535.881104
 20
142.688354
 10
535.956055
 20
142.736801
 10
536.03656
 20
142.783279
 10
536.110413
 20
142.830688
 10
536.165527
 20
142.881943
 10
536.190674
 20
142.93959
 10
536.185486
 20
143.001984
 10
536.15686
 20
143.064636
 10
536.111877
 20
143.123032
 10
536.057434
 20
143.172638
 10
535.999817
 20
143.209641
 10
535.940491
 20
143.23381
 10
535.879578
 20
143.246078
 10
535.817139
 20
143.247375
 10
535.753296
 20
143.238647
 10
535.688049
 20
143.220795
 10
535.621521
 20
143.194763
 10
535.553772
 20
143.161484
 10
535.484985
 20
143.121872
 10
535.415161
 20
143.076828
 10
535.344849
 20
143.026825
 10
535.274658
 20
142.972061
 10
535.205261
 20
142.912766
 10
535.137451
 20
142.849167
 10
535.071777
 20
142.781464
 10
535.008972
 20
142.7099
 10
534.949707
 20
142.634659
 10
534.894653
 20
142.555984
 10
534.844482
 20
142.474091
 10
534.799438
 20
142.389343
 10
534.759277
 20
142.302277
 10
534.723694
 20
142.213394
 10
534.692505
 20
142.12326
 10
534.665405
 20
142.032394
 10
534.64209
 20
141.941315
 10
534.622375
 20
141.850555
 10
534.605896
 20
141.760666
 10
534.592529
 20
141.672165
 10
534.58197
 20
141.58548
 10
534.574402
 20
141.500763
 10
534.569885
 20
141.418091
 10
534.568604
 20
141.337601
 10
534.57074
 20
141.259338
 10
534.576355
 20
141.183441
 10
534.585632
 20
141.109985
 10
534.598694
 20
141.039062
 10
534.615662
 20
140.970779
 10
534.636719
 20
140.905258
 10
534.661865
 20
140.843018
 10
534.691162
 20
140.784836
 10
534.724548
 20
140.731491
 10
534.762146
 20
140.683716
 10
534.803894
 20
140.642319
 10
534.849731
 20
140.608032
 10
534.899841
 20
140.58165
 10
534.954102
 20
140.563934
 10
535.012512
 20
140.555649
 10
535.07489
 20
140.556885
 10
535.140381
 20
140.567062
 10
535.208435
 20
140.58548
 10
535.278259
 20
140.611496
 10
535.349182
 20
140.644424
 10
535.420471
 20
140.683609
 10
535.491516
 20
140.728394
 10
535.561523
 20
140.778091
 10
535.629822
 20
140.832062
 10
535.695862
 20
140.889877
 10
535.75946
 20
140.951889
 10
535.820557
 20
141.018585
 10
535.879089
 20
141.090424
 10
535.934937
 20
141.167908
 10
535.988037
 20
141.25148
 10
536.038391
 20
141.341614
 10
536.085754
 20
141.438812
 10
536.130188
 20
141.543549
 10
536.167603
 20
141.650604
 10
536.177673
 20
141.731842
 10
536.138916
 20
141.755951
 10
536.064453
 20
141.725632
 10
535.98999
 20
141.666245
 10
535.92981
 20
141.592453
 10
535.879089
 20
141.509293
 10
535.832458
 20
141.421478
 10
535.784546
 20
141.333755
 10
535.731567
 20
141.249893
 10
535.673645
 20
141.171509
 10
535.611328
 20
141.099899
 10
535.545349
 20
141.036346
 10
535.476257
 20
140.982162
 10
535.405518
 20
140.938492
 10
535.335205
 20
140.906342
 10
535.267273
 20
140.886749
 10
535.203857
 20
140.880737
 10
535.146606
 20
140.889008
 10
535.095764
 20
140.910645
 10
535.050964
 20
140.944107
 10
535.011719
 20
140.987946
 10
534.977722
 20
141.040634
 10
534.948547
 20
141.100693
 10
534.923889
 20
141.166626
 10
534.903381
 20
141.236938
 10
534.886536
 20
141.310135
 10
534.873108
 20
141.384857
 10
534.863281
 20
141.460876
 10
534.857239
 20
141.538345
 10
534.855408
 20
141.617477
 10
534.858032
 20
141.698441
 10
534.865479
 20
141.781448
 10
534.877991
 20
141.866653
 10
534.895874
 20
141.954269
 10
534.919556
 20
142.044479
 10
534.949219
 20
142.137451
 10
534.984985
 20
142.232468
 10
535.026489
 20
142.327713
 10
535.073303
 20
142.42128
 10
535.125244
 20
142.511246
 10
535.181824
 20
142.595734
 10
535.242737
 20
142.672821
 10
535.307617
 20
142.740616
 10
535.37616
 20
142.79718
 10
535.447937
 20
142.840683
 10
535.521545
 20
142.870178
 10
535.594543
 20
142.885681
 10
535.66449
 20
142.887283
 10
535.728882
 20
142.875015
 10
535.785217
 20
142.848969
 10
535.830994
 20
142.809189
 10
535.86377
 20
142.755768
 10
535.881104
 20
142.688354
  0
LWPOLYLINE
  5
1C4
330
15E
100
AcDbEntity
  8
0
  6
Continuous
 62
     0
370
    30
100
AcDbPolyline
 90
      129
 70
     0
 43
0.0
 10
537.632568
 20
143.699554
 10
537.70752
 20
143.748001
 10
537.787964
 20
143.794464
 10
537.861816
 20
143.841888
 10
537.916992
 20
143.893143
 10
537.942139
 20
143.95079
 10
537.936951
 20
144.013184
 10
537.908325
 20
144.075836
 10
537.863281
 20
144.134232
 10
537.808899
 20
144.183838
 10
537.751282
 20
144.22084
 10
537.691956
 20
144.24501
 10
537.631042
 20
144.257278
 10
537.568604
 20
144.258575
 10
537.5047
 20
144.249832
 10
537.439453
 20
144.231979
 10
537.372925
 20
144.205948
 10
537.305237
 20
144.172653
 10
537.236389
 20
144.133057
 10
537.166565
 20
144.088013
 10
537.096252
 20
144.037994
 10
537.026062
 20
143.983246
 10
536.956665
 20
143.92395
 10
536.888855
 20
143.860352
 10
536.823181
 20
143.792648
 10
536.760376
 20
143.721069
 10
536.701111
 20
143.645828
 10
536.646057
 20
143.567154
 10
536.595886
 20
143.48526
 10
536.550842
 20
143.400513
 10
536.510681
 20
143.313446
 10
536.475159
 20
143.224564
 10
536.443909
 20
143.13443
 10
536.416809
 20
143.043549
 10
536.393494
 20
142.952469
 10
536.373779
 20
142.861725
 10
536.357361
 20
142.77182
 10
536.343933
 20
142.683319
 10
536.333374
 20
142.596634
 10
536.325806
 20
142.511917
 10
536.321289
 20
142.42926
 10
536.320068
 20
142.348755
 10
536.322144
 20
142.270508
 10
536.327759
 20
142.194595
 10
536.337036
 20
142.12114
 10
536.350098
 20
142.050217
 10
536.367126
 20
141.981918
 10
536.388123
 20
141.916397
 10
536.41333
 20
141.854172
 10
536.442566
 20
141.79599
 10
536.476013
 20
141.74263
 10
536.51355
 20
141.694855
 10
536.555298
 20
141.653458
 10
536.601196
 20
141.619171
 10
536.651245
 20
141.592789
 10
536.705505
 20
141.575089
 10
536.763977
 20
141.566788
 10
536.826294
 20
141.568039
 10
536.891846
 20
141.578217
 10
536.9599
 20
141.596649
 10
537.029724
 20
141.622681
 10
537.100647
 20
141.655624
 10
537.171936
 20
141.694824
 10
537.242981
 20
141.739609
 10
537.312988
 20
141.789307
 10
537.381287
 20
141.843277
 10
537.447266
 20
141.901093
 10
537.510864
 20
141.963104
 10
537.57196
 20
142.0298
 10
537.630493
 20
142.101639
 10
537.686401
 20
142.179108
 10
537.739502
 20
142.26268
 10
537.789856
 20
142.352829
 10
537.837219
 20
142.450027
 10
537.881714
 20
142.554764
 10
537.919067
 20
142.661835
 10
537.929199
 20
142.743073
 10
537.890442
 20
142.767181
 10
537.815979
 20
142.736862
 10
537.741516
 20
142.677475
 10
537.681335
 20
142.603699
 10
537.630615
 20
142.520538
 10
537.583923
 20
142.432739
 10
537.536011
 20
142.345016
 10
537.483032
 20
142.261154
 10
537.42511
 20
142.18277
 10
537.362793
 20
142.111145
 10
537.296814
 20
142.047592
 10
537.227722
 20
141.993393
 10
537.156982
 20
141.949707
 10
537.08667
 20
141.917557
 10
537.018738
 20
141.897949
 10
536.955322
 20
141.891937
 10
536.898132
 20
141.900208
 10
536.84729
 20
141.921814
 10
536.802429
 20
141.955292
 10
536.763184
 20
141.999115
 10
536.729187
 20
142.051804
 10
536.700012
 20
142.111862
 10
536.675354
 20
142.177795
 10
536.654785
 20
142.248108
 10
536.638
 20
142.321289
 10
536.624573
 20
142.396027
 10
536.614685
 20
142.472031
 10
536.608704
 20
142.549515
 10
536.606812
 20
142.628632
 10
536.609436
 20
142.70961
 10
536.616882
 20
142.792603
 10
536.629395
 20
142.877823
 10
536.647339
 20
142.965439
 10
536.670959
 20
143.055649
 10
536.700684
 20
143.148621
 10
536.73645
 20
143.243637
 10
536.777893
 20
143.338882
 10
536.824768
 20
143.432449
 10
536.876648
 20
143.52243
 10
536.933228
 20
143.606918
 10
536.994141
 20
143.684021
 10
537.059082
 20
143.751801
 10
537.127563
 20
143.80838
 10
537.199341
 20
143.851868
 10
537.272949
 20
143.881363
 10
537.346008
 20
143.896866
 10
537.415894
 20
143.898453
 10
537.480286
 20
143.886185
 10
537.536621
 20
143.860138
 10
537.582397
 20
143.820374
 10
537.615234
 20
143.766953
 10
537.632568
 20
143.699554
  0
LINE
  5
1C5
330
15E
100
AcDbEntity
  8
0
  6
Continuous
 62
     0
370
    30
100
AcDbLine
 10
538.3922
 20
144.767098
 30
0.0
 11
538.112867
 21
144.605824
 31
0.0
  0
LINE
  5
1C6
330
15E
100
AcDbEntity
  8
0
  6
Continuous
 62
     0
370
    30
100
AcDbLine
 10
538.112867
 20
144.605824
 30
0.0
 11
538.112867
 21
142.276924
 31
0.0
  0
LINE
  5
1C7
330
15E
100
AcDbEntity
  8
0
  6
Continuous
 62
     0
370
    30
100
AcDbLine
 10
538.112867
 20
142.276924
 30
0.0
 11
538.3922
 21
142.438198
 31
0.0
  0
LINE
  5
1C8
330
15E
100
AcDbEntity
  8
0
  6
Continuous
 62
     0
370
    30
100
AcDbLine
 10
538.3922
 20
142.438198
 30
0.0
 11
538.3922
 21
143.48985
 31
0.0
  0
LINE
  5
1C9
330
15E
100
AcDbEntity
  8
0
  6
Continuous
 62
     0
370
    30
100
AcDbLine
 10
538.3922
 20
143.48985
 30
0.0
 11
539.35038
 21
144.043055
 31
0.0
  0
LINE
  5
1CA
330
15E
100
AcDbEntity
  8
0
  6
Continuous
 62
     0
370
    30
100
AcDbLine
 10
539.35038
 20
144.043055
 30
0.0
 11
539.35038
 21
142.991403
 31
0.0
  0
LINE
  5
1CB
330
15E
100
AcDbEntity
  8
0
  6
Continuous
 62
     0
370
    30
100
AcDbLine
 10
539.35038
 20
142.991403
 30
0.0
 11
539.629632
 21
143.152629
 31
0.0
  0
LINE
  5
1CC
330
15E
100
AcDbEntity
  8
0
  6
Continuous
 62
     0
370
    30
100
AcDbLine
 10
539.629632
 20
143.152629
 30
0.0
 11
539.629632
 21
145.481529
 31
0.0
  0
LINE
  5
1CD
330
15E
100
AcDbEntity
  8
0
  6
Continuous
 62
     0
370
    30
100
AcDbLine
 10
539.629632
 20
145.481529
 30
0.0
 11
539.35038
 21
145.320303
 31
0.0
  0
LINE
  5
1CE
330
15E
100
AcDbEntity
  8
0
  6
Continuous
 62
     0
370
    30
100
AcDbLine
 10
539.35038
 20
145.320303
 30
0.0
 11
539.35038
 21
144.320408
 31
0.0
  0
LINE
  5
1CF
330
15E
100
AcDbEntity
  8
0
  6
Continuous
 62
     0
370
    30
100
AcDbLine
 10
539.35038
 20
144.320408
 30
0.0
 11
538.3922
 21
143.767203
 31
0.0
  0
LINE
  5
1D0
330
15E
100
AcDbEntity
  8
0
  6
Continuous
 62
     0
370
    30
100
AcDbLine
 10
538.3922
 20
143.767203
 30
0.0
 11
538.3922
 21
144.767098
 31
0.0
  0
LINE
  5
1D1
330
15E
100
AcDbEntity
  8
0
  6
Continuous
 62
     0
370
    30
100
AcDbLine
 10
539.872669
 20
145.621847
 30
0.0
 11
539.872669
 21
143.292946
 31
0.0
  0
LINE
  5
1D2
330
15E
100
AcDbEntity
  8
0
  6
Continuous
 62
     0
370
    30
100
AcDbLine
 10
539.872669
 20
143.292946
 30
0.0
 11
541.160365
 21
144.036398
 31
0.0
  0
LINE
  5
1D3
330
15E
100
AcDbEntity
  8
0
  6
Continuous
 62
     0
370
    30
100
AcDbLine
 10
541.160365
 20
144.036398
 30
0.0
 11
541.160365
 21
144.320314
 31
0.0
  0
LINE
  5
1D4
330
15E
100
AcDbEntity
  8
0
  6
Continuous
 62
     0
370
    30
100
AcDbLine
 10
541.160365
 20
144.320314
 30
0.0
 11
540.152003
 21
143.738136
 31
0.0
  0
LINE
  5
1D5
330
15E
100
AcDbEntity
  8
0
  6
Continuous
 62
     0
370
    30
100
AcDbLine
 10
540.152003
 20
143.738136
 30
0.0
 11
540.152003
 21
144.505872
 31
0.0
  0
LINE
  5
1D6
330
15E
100
AcDbEntity
  8
0
  6
Continuous
 62
     0
370
    30
100
AcDbLine
 10
540.152003
 20
144.505872
 30
0.0
 11
541.090613
 21
145.047779
 31
0.0
  0
LINE
  5
1D7
330
15E
100
AcDbEntity
  8
0
  6
Continuous
 62
     0
370
    30
100
AcDbLine
 10
541.090613
 20
145.047779
 30
0.0
 11
541.090613
 21
145.325132
 31
0.0
  0
LINE
  5
1D8
330
15E
100
AcDbEntity
  8
0
  6
Continuous
 62
     0
370
    30
100
AcDbLine
 10
541.090613
 20
145.325132
 30
0.0
 11
540.152003
 21
144.783225
 31
0.0
  0
LINE
  5
1D9
330
15E
100
AcDbEntity
  8
0
  6
Continuous
 62
     0
370
    30
100
AcDbLine
 10
540.152003
 20
144.783225
 30
0.0
 11
540.152003
 21
145.499016
 31
0.0
  0
LINE
  5
1DA
330
15E
100
AcDbEntity
  8
0
  6
Continuous
 62
     0
370
    30
100
AcDbLine
 10
540.152003
 20
145.499016
 30
0.0
 11
541.990002
 21
146.560186
 31
0.0
  0
LINE
  5
1DB
330
15E
100
AcDbEntity
  8
0
  6
Continuous
 62
     0
370
    30
100
AcDbLine
 10
541.990002
 20
146.560186
 30
0.0
 11
541.990002
 21
144.515389
 31
0.0
  0
LINE
  5
1DC
330
15E
100
AcDbEntity
  8
0
  6
Continuous
 62
     0
370
    30
100
AcDbLine
 10
541.990002
 20
144.515389
 30
0.0
 11
542.266413
 21
144.674975
 31
0.0
  0
LINE
  5
1DD
330
15E
100
AcDbEntity
  8
0
  6
Continuous
 62
     0
370
    30
100
AcDbLine
 10
542.266413
 20
144.674975
 30
0.0
 11
542.266413
 21
146.719771
 31
0.0
  0
LINE
  5
1DE
330
15E
100
AcDbEntity
  8
0
  6
Continuous
 62
     0
370
    30
100
AcDbLine
 10
542.266413
 20
146.719771
 30
0.0
 11
543.228896
 21
147.275461
 31
0.0
  0
LINE
  5
1DF
330
15E
100
AcDbEntity
  8
0
  6
Continuous
 62
     0
370
    30
100
AcDbLine
 10
543.228896
 20
147.275461
 30
0.0
 11
543.228896
 21
145.230665
 31
0.0
  0
LINE
  5
1E0
330
15E
100
AcDbEntity
  8
0
  6
Continuous
 62
     0
370
    30
100
AcDbLine
 10
543.228896
 20
145.230665
 30
0.0
 11
543.505387
 21
145.390297
 31
0.0
  0
LINE
  5
1E1
330
15E
100
AcDbEntity
  8
0
  6
Continuous
 62
     0
370
    30
100
AcDbLine
 10
543.505387
 20
145.390297
 30
0.0
 11
543.505387
 21
147.435094
 31
0.0
  0
LINE
  5
1E2
330
15E
100
AcDbEntity
  8
0
  6
Continuous
 62
     0
370
    30
100
AcDbLine
 10
543.505387
 20
147.435094
 30
0.0
 11
544.181391
 21
147.825385
 31
0.0
  0
LINE
  5
1E3
330
15E
100
AcDbEntity
  8
0
  6
Continuous
 62
     0
370
    30
100
AcDbLine
 10
544.181391
 20
147.825385
 30
0.0
 11
544.181391
 21
148.109488
 31
0.0
  0
LINE
  5
1E4
330
15E
100
AcDbEntity
  8
0
  6
Continuous
 62
     0
370
    30
100
AcDbLine
 10
544.181391
 20
148.109488
 30
0.0
 11
539.872669
 21
145.621847
 31
0.0
  0
LINE
  5
1E5
330
15E
100
AcDbEntity
  8
0
  6
Continuous
 62
     0
370
    30
100
AcDbLine
 10
544.39081
 20
148.230397
 30
0.0
 11
544.39081
 21
145.901496
 31
0.0
  0
LINE
  5
1E6
330
15E
100
AcDbEntity
  8
0
  6
Continuous
 62
     0
370
    30
100
AcDbLine
 10
544.39081
 20
145.901496
 30
0.0
 11
544.670225
 21
146.062817
 31
0.0
  0
LINE
  5
1E7
330
15E
100
AcDbEntity
  8
0
  6
Continuous
 62
     0
370
    30
100
AcDbLine
 10
544.670225
 20
146.062817
 30
0.0
 11
544.670225
 21
148.391717
 31
0.0
  0
LINE
  5
1E8
330
15E
100
AcDbEntity
  8
0
  6
Continuous
 62
     0
370
    30
100
AcDbLine
 10
544.670225
 20
148.391717
 30
0.0
 11
544.39081
 21
148.230397
 31
0.0
  0
LINE
  5
1E9
330
15E
100
AcDbEntity
  8
0
  6
Continuous
 62
     0
370
    30
100
AcDbLine
 10
544.89629
 20
146.193336
 30
0.0
 11
545.177005
 21
146.355406
 31
0.0
  0
LINE
  5
1EA
330
15E
100
AcDbEntity
  8
0
  6
Continuous
 62
     0
370
    30
100
AcDbLine
 10
545.177005
 20
146.355406
 30
0.0
 11
545.177005
 21
146.968245
 31
0.0
  0
LINE
  5
1EB
330
15E
100
AcDbEntity
  8
0
  6
Continuous
 62
     0
370
    30
100
AcDbLine
 10
545.177005
 20
146.968245
 30
0.0
 11
544.89629
 21
146.806174
 31
0.0
  0
LINE
  5
1EC
330
15E
100
AcDbEntity
  8
0
  6
Continuous
 62
     0
370
    30
100
AcDbLine
 10
544.89629
 20
146.806174
 30
0.0
 11
544.89629
 21
146.193336
 31
0.0
  0
LINE
  5
1ED
330
15E
100
AcDbEntity
  8
0
  6
Continuous
 62
     0
370
    30
100
AcDbLine
 10
526.559313
 20
190.851296
 30
0.0
 11
526.190023
 21
191.079779
 31
0.0
  0
LINE
  5
1EE
330
15E
100
AcDbEntity
  8
0
  6
Continuous
 62
     0
370
    30
100
AcDbLine
 10
548.959379
 20
229.649196
 30
0.0
 11
548.576825
 21
229.854788
 31
0.0
  0
LINE
  5
1EF
330
15E
100
AcDbEntity
  8
0
  6
Continuous
 62
     0
370
    30
100
AcDbLine
 10
492.405759
 20
132.512103
 30
0.0
 11
484.627584
 21
137.002834
 31
0.0
  0
LINE
  5
1F0
330
15E
100
AcDbEntity
  8
0
  6
Continuous
 62
     0
370
    30
100
AcDbLine
 10
582.405761
 20
288.396674
 30
0.0
 11
574.627586
 21
292.887406
 31
0.0
  0
LINE
  5
1F1
330
15E
100
AcDbEntity
  8
0
  6
Continuous
 62
     0
370
    30
100
AcDbLine
 10
492.40576
 20
132.512102
 30
0.0
 11
494.048325
 21
131.62936
 31
0.0
  0
LINE
  5
1F2
330
15E
100
AcDbEntity
  8
0
  6
Continuous
 62
     0
370
    30
100
AcDbLine
 10
582.409799
 20
288.394344
 30
0.0
 11
583.995194
 21
287.413419
 31
0.0
  0
LWPOLYLINE
  5
1F3
330
15E
100
AcDbEntity
  8
0
  6
Continuous
 62
     0
370
    30
100
AcDbPolyline
 90
       28
 70
     0
 43
0.0
 10
601.338257
 20
246.788483
 10
601.311218
 20
248.912918
 10
601.230103
 20
251.006332
 10
601.095032
 20
253.066757
 10
600.906067
 20
255.092194
 10
600.663208
 20
257.080658
 10
600.366577
 20
259.030121
 10
600.016357
 20
260.938843
 10
599.612854
 20
262.805328
 10
599.156372
 20
264.628082
 10
598.647278
 20
266.40567
 10
598.085876
 20
268.136597
 10
597.472595
 20
269.819427
 10
596.807678
 20
271.452667
 10
596.091492
 20
273.034882
 10
595.324646
 20
274.564728
 10
594.50769
 20
276.040955
 10
593.641296
 20
277.46228
 10
592.726135
 20
278.827484
 10
591.762817
 20
280.135254
 10
590.752075
 20
281.384399
 10
589.694458
 20
282.573608
 10
588.59082
 20
283.70163
 10
587.442383
 20
284.767334
 10
586.25061
 20
285.769501
 10
585.016968
 20
286.706909
 10
583.742798
 20
287.578461
 10
582.40979
 20
288.394348
  0
LWPOLYLINE
  5
1F4
330
15E
100
AcDbEntity
  8
0
  6
Continuous
 62
     0
370
    30
100
AcDbPolyline
 90
       40
 70
     0
 43
0.0
 10
559.754578
 20
154.007263
 10
558.007141
 20
152.29187
 10
556.242249
 20
150.625961
 10
554.461365
 20
149.01088
 10
552.665955
 20
147.447784
 10
550.857605
 20
145.937851
 10
549.037842
 20
144.482224
 10
547.208069
 20
143.082062
 10
545.369995
 20
141.738541
 10
543.525024
 20
140.452805
 10
541.674683
 20
139.226028
 10
539.820496
 20
138.059357
 10
537.96405
 20
136.953964
 10
536.106873
 20
135.910995
 10
534.250427
 20
134.931503
 10
532.396179
 20
134.016144
 10
530.545715
 20
133.165466
 10
528.700439
 20
132.380066
 10
526.861938
 20
131.660507
 10
525.031677
 20
131.007339
 10
523.21106
 20
130.421143
 10
521.401733
 20
129.902496
 10
519.605042
 20
129.451965
 10
517.822571
 20
129.070114
 10
516.055847
 20
128.757507
 10
514.306213
 20
128.514725
 10
512.575317
 20
128.342255
 10
510.864502
 20
128.240219
 10
509.175171
 20
128.208694
 10
507.508759
 20
128.247681
 10
505.866638
 20
128.357254
 10
504.250214
 20
128.537445
 10
502.660919
 20
128.7883
 10
501.100159
 20
129.109848
 10
499.569397
 20
129.501999
 10
498.070312
 20
129.964218
 10
496.604645
 20
130.495834
 10
495.174133
 20
131.096222
 10
493.780518
 20
131.764725
 10
492.405762
 20
132.5121
  0
LWPOLYLINE
  5
1F5
330
15E
100
AcDbEntity
  8
0
  6
Continuous
 62
     0
370
    30
100
AcDbPolyline
 90
       31
 70
     0
 43
0.0
 10
601.338257
 20
246.788483
 10
601.305115
 20
244.398132
 10
601.205688
 20
241.971634
 10
601.0401
 20
239.511856
 10
600.808594
 20
237.021683
 10
600.511169
 20
234.503967
 10
600.148071
 20
231.961563
 10
599.719849
 20
229.397186
 10
599.227234
 20
226.813507
 10
598.670837
 20
224.213181
 10
598.051453
 20
221.598877
 10
597.369629
 20
218.973267
 10
596.626099
 20
216.338989
 10
595.821594
 20
213.698746
 10
594.956726
 20
211.055176
 10
594.032227
 20
208.41095
 10
593.048767
 20
205.768738
 10
592.007324
 20
203.131226
 10
590.909241
 20
200.501083
 10
589.755859
 20
197.881027
 10
588.548523
 20
195.273743
 10
587.288635
 20
192.681915
 10
585.977539
 20
190.108261
 10
584.616638
 20
187.555466
 10
583.207214
 20
185.026215
 10
581.750732
 20
182.523209
 10
580.248474
 20
180.049149
 10
578.701843
 20
177.606735
 10
577.112183
 20
175.198608
 10
575.481262
 20
172.827179
 10
573.762085
 20
170.427902
  0
ENDBLK
  5
1F7
330
15E
100
AcDbEntity
  8
0
100
AcDbBlockEnd
  0
BLOCK
  5
242
330
1F9
100
AcDbEntity
  8
0
100
AcDbBlockBegin
  2
e
 70
     0
 10
200.536682
 20
0.0
 30
0.0
  3
e
  1

  0
LINE
  5
1FA
330
1F9
100
AcDbEntity
  8
0
  6
Continuous
 62
     0
370
    30
100
AcDbLine
 10
126.364733
 20
494.066637
 30
0.0
 11
126.364733
 21
451.784245
 31
0.0
  0
LINE
  5
1FB
330
1F9
100
AcDbEntity
  8
0
  6
Continuous
 62
     0
370
    30
100
AcDbLine
 10
167.764733
 20
492.566637
 30
0.0
 11
167.764733
 21
453.154091
 31
0.0
  0
LINE
  5
1FC
330
1F9
100
AcDbEntity
  8
0
  6
Continuous
 62
     0
370
    30
100
AcDbLine
 10
167.764733
 20
453.154091
 30
0.0
 11
167.764733
 21
451.366637
 31
0.0
  0
LINE
  5
1FD
330
1F9
100
AcDbEntity
  8
0
  6
Continuous
 62
     0
370
    30
100
AcDbLine
 10
166.264733
 20
451.784245
 30
0.0
 11
166.264733
 21
449.866637
 31
0.0
  0
LINE
  5
1FE
330
1F9
100
AcDbEntity
  8
0
  6
Continuous
 62
     0
370
    30
100
AcDbLine
 10
166.264733
 20
494.066637
 30
0.0
 11
166.264733
 21
451.784245
 31
0.0
  0
LINE
  5
1FF
330
1F9
100
AcDbEntity
  8
0
  6
Continuous
 62
     0
370
    30
100
AcDbLine
 10
166.264733
 20
449.866656
 30
0.0
 11
167.764733
 21
451.366655
 31
0.0
  0
LINE
  5
200
330
1F9
100
AcDbEntity
  8
0
  6
Continuous
 62
     0
370
    30
100
AcDbLine
 10
166.264733
 20
494.066596
 30
0.0
 11
167.764733
 21
492.566599
 31
0.0
  0
LINE
  5
201
330
1F9
100
AcDbEntity
  8
0
  6
Continuous
 62
     0
370
    30
100
AcDbLine
 10
146.663923
 20
449.866637
 30
0.0
 11
166.264733
 21
449.866637
 31
0.0
  0
LINE
  5
202
330
1F9
100
AcDbEntity
  8
0
  6
Continuous
 62
     0
370
    30
100
AcDbLine
 10
126.364733
 20
449.866637
 30
0.0
 11
134.663923
 21
449.866637
 31
0.0
  0
LINE
  5
203
330
1F9
100
AcDbEntity
  8
0
  6
Continuous
 62
     0
370
    30
100
AcDbLine
 10
146.663923
 20
494.066637
 30
0.0
 11
166.264733
 21
494.066637
 31
0.0
  0
LINE
  5
204
330
1F9
100
AcDbEntity
  8
0
  6
Continuous
 62
     0
370
    30
100
AcDbLine
 10
126.364733
 20
494.066637
 30
0.0
 11
134.663923
 21
494.066637
 31
0.0
  0
LINE
  5
205
330
1F9
100
AcDbEntity
  8
0
  6
Continuous
 62
     0
370
    30
100
AcDbLine
 10
126.364732
 20
449.866637
 30
0.0
 11
126.364732
 21
451.784245
 31
0.0
  0
LINE
  5
206
330
1F9
100
AcDbEntity
  8
0
  6
Continuous
 62
     0
370
     0
100
AcDbLine
 10
113.364732
 20
449.866637
 30
0.0
 11
113.364732
 21
456.157187
 31
0.0
  0
LINE
  5
207
330
1F9
100
AcDbEntity
  8
0
  6
Continuous
 62
     0
370
     0
100
AcDbLine
 10
113.364732
 20
456.157187
 30
0.0
 11
113.364732
 21
494.066637
 31
0.0
  0
LINE
  5
208
330
1F9
100
AcDbEntity
  8
0
  6
Continuous
 62
     0
370
    30
100
AcDbLine
 10
126.364732
 20
449.866637
 30
0.0
 11
113.364732
 21
449.866637
 31
0.0
  0
LINE
  5
209
330
1F9
100
AcDbEntity
  8
0
  6
Continuous
 62
     0
370
    30
100
AcDbLine
 10
126.364732
 20
494.066637
 30
0.0
 11
113.364732
 21
494.066637
 31
0.0
  0
ARC
  5
20A
330
1F9
100
AcDbEntity
  8
0
  6
Continuous
 62
     0
370
     0
100
AcDbCircle
 10
88.167762
 20
458.36164
 30
0.0
 40
0.5281044166372469
100
AcDbArc
 50
215.232006
 51
288.569354
  0
LWPOLYLINE
  5
20B
330
1F9
100
AcDbEntity
  8
0
  6
Continuous
 62
     0
370
    30
100
AcDbPolyline
 90
       27
 70
     0
 43
0.0
 10
85.45784
 20
473.389862
 10
85.464966
 20
473.35141
 10
85.486282
 20
473.236389
 10
85.521606
 20
473.045807
 10
85.570633
 20
472.78125
 10
85.632942
 20
472.445099
 10
85.707985
 20
472.040192
 10
85.795113
 20
471.570099
 10
85.89357
 20
471.038879
 10
86.002502
 20
470.451141
 10
86.120956
 20
469.812012
 10
86.247902
 20
469.127045
 10
86.38224
 20
468.402222
 10
86.522797
 20
467.64386
 10
86.66835
 20
466.858521
 10
86.817635
 20
466.05304
 10
86.96936
 20
465.234406
 10
87.1222
 20
464.40976
 10
87.274834
 20
463.586243
 10
87.425926
 20
462.771027
 10
87.574165
 20
461.971191
 10
87.718269
 20
461.193665
 10
87.856979
 20
460.445282
 10
87.98909
 20
459.732483
 10
88.113449
 20
459.061462
 10
88.228989
 20
458.43808
 10
88.335938
 20
457.861023
  0
LINE
  5
20C
330
1F9
100
AcDbEntity
  8
0
  6
Continuous
 62
     0
370
    30
100
AcDbLine
 10
87.736394
 20
458.056983
 30
0.0
 11
84.986209
 21
472.895657
 31
0.0
  0
LINE
  5
20D
330
1F9
100
AcDbEntity
  8
0
  6
Continuous
 62
     0
370
    30
100
AcDbLine
 10
88.048918
 20
454.085187
 30
0.0
 11
87.736394
 21
458.056983
 31
0.0
  0
LINE
  5
20E
330
1F9
100
AcDbEntity
  8
0
  6
Continuous
 62
     0
370
     0
100
AcDbLine
 10
88.544615
 20
454.271551
 30
0.0
 11
88.048918
 21
454.085187
 31
0.0
  0
LINE
  5
20F
330
1F9
100
AcDbEntity
  8
0
  6
Continuous
 62
     0
370
     0
100
AcDbLine
 10
88.335977
 20
457.860818
 30
0.0
 11
88.544615
 21
454.271551
 31
0.0
  0
LINE
  5
210
330
1F9
100
AcDbEntity
  8
0
  6
Continuous
 62
     0
370
     0
100
AcDbLine
 10
88.544615
 20
454.271551
 30
0.0
 11
97.862563
 21
457.774752
 31
0.0
  0
LINE
  5
211
330
1F9
100
AcDbEntity
  8
0
  6
Continuous
 62
     0
370
     0
100
AcDbLine
 10
97.862563
 20
457.774752
 30
0.0
 11
98.077018
 21
460.578052
 31
0.0
  0
LINE
  5
212
330
1F9
100
AcDbEntity
  8
0
  6
Continuous
 62
     0
370
     0
100
AcDbLine
 10
98.077018
 20
460.578052
 30
0.0
 11
88.335938
 21
457.86103
 31
0.0
  0
LWPOLYLINE
  5
213
330
1F9
100
AcDbEntity
  8
0
  6
Continuous
 62
     0
370
    30
100
AcDbPolyline
 90
       10
 70
     0
 43
0.0
 10
100.47316
 20
457.353851
 10
100.85067
 20
457.817688
 10
101.248131
 20
458.261658
 10
101.665733
 20
458.685333
 10
102.105598
 20
459.088623
 10
102.569931
 20
459.469543
 10
103.060127
 20
459.823547
 10
103.576355
 20
460.143188
 10
104.117706
 20
460.417999
 10
104.700912
 20
460.639893
  0
LWPOLYLINE
  5
214
330
1F9
100
AcDbEntity
  8
0
  6
Continuous
 62
     0
370
    30
100
AcDbPolyline
 90
       22
 70
     0
 43
0.0
 10
104.700912
 20
460.639893
 10
104.662529
 20
460.640442
 10
104.559647
 20
460.648865
 10
104.407753
 20
460.664429
 10
104.215668
 20
460.687012
 10
103.988281
 20
460.715759
 10
103.728577
 20
460.747467
 10
103.439735
 20
460.778992
 10
103.12587
 20
460.808136
 10
102.79174
 20
460.833832
 10
102.441872
 20
460.856506
 10
102.080612
 20
460.876709
 10
101.710258
 20
460.893616
 10
101.331009
 20
460.905182
 10
100.943153
 20
460.909363
 10
100.547897
 20
460.904297
 10
100.146782
 20
460.888245
 10
99.741089
 20
460.85968
 10
99.33168
 20
460.817352
 10
98.919647
 20
460.759338
 10
98.506462
 20
460.682709
 10
98.077019
 20
460.578064
  0
LWPOLYLINE
  5
215
330
1F9
100
AcDbEntity
  8
0
  6
Continuous
 62
     0
370
     0
100
AcDbPolyline
 90
       14
 70
     0
 43
0.0
 10
97.862564
 20
457.77475
 10
98.254906
 20
457.894836
 10
98.631271
 20
457.957062
 10
98.968506
 20
457.966675
 10
99.260727
 20
457.937866
 10
99.511719
 20
457.883545
 10
99.726944
 20
457.813721
 10
99.911499
 20
457.734924
 10
100.069069
 20
457.652405
 10
100.201599
 20
457.570587
 10
100.309967
 20
457.493744
 10
100.393547
 20
457.426849
 10
100.449768
 20
457.37674
 10
100.47316
 20
457.353851
  0
LINE
  5
216
330
1F9
100
AcDbEntity
  8
0
  6
Continuous
 62
     0
370
     0
100
AcDbLine
 10
97.862563
 20
457.774752
 30
0.0
 11
97.946686
 21
452.368178
 31
0.0
  0
LINE
  5
217
330
1F9
100
AcDbEntity
  8
0
  6
Continuous
 62
     0
370
     0
100
AcDbLine
 10
98.45878
 20
452.463082
 30
0.0
 11
97.946686
 21
452.368178
 31
0.0
  0
ARC
  5
218
330
1F9
100
AcDbEntity
  8
0
  6
Continuous
 62
     0
370
    30
100
AcDbCircle
 10
107.020411
 20
451.797
 30
0.0
 40
8.587501992881124
100
AcDbArc
 50
139.677674
 51
175.551439
  0
LINE
  5
219
330
1F9
100
AcDbEntity
  8
0
  6
Continuous
 62
     0
370
    30
100
AcDbLine
 10
99.664567
 20
374.968115
 30
0.0
 11
98.45878
 21
452.463082
 31
0.0
  0
LINE
  5
21A
330
1F9
100
AcDbEntity
  8
0
  6
Continuous
 62
     0
370
    30
100
AcDbLine
 10
83.176313
 20
374.62285
 30
0.0
 11
99.152488
 21
374.762272
 31
0.0
  0
LINE
  5
21B
330
1F9
100
AcDbEntity
  8
0
  6
Continuous
 62
     0
370
    30
100
AcDbLine
 10
82.876443
 20
374.620233
 30
0.0
 11
83.176313
 21
374.62285
 31
0.0
  0
LINE
  5
21C
330
1F9
100
AcDbEntity
  8
0
  6
Continuous
 62
     0
370
    30
100
AcDbLine
 10
99.152488
 20
374.762272
 30
0.0
 11
99.466336
 21
374.765011
 31
0.0
  0
LWPOLYLINE
  5
21D
330
1F9
100
AcDbEntity
  8
0
  6
Continuous
 62
     0
370
    30
100
AcDbPolyline
 90
       27
 70
     0
 43
0.0
 10
88.04892
 20
454.085175
 10
88.094093
 20
451.032135
 10
88.13208
 20
447.975128
 10
88.135498
 20
444.91745
 10
88.067017
 20
441.860077
 10
87.929779
 20
438.805267
 10
87.734917
 20
435.754364
 10
87.493126
 20
432.707886
 10
87.21463
 20
429.665588
 10
86.909225
 20
426.626831
 10
86.586288
 20
423.590576
 10
86.25489
 20
420.555573
 10
85.923836
 20
417.520569
 10
85.601768
 20
414.484222
 10
85.297058
 20
411.445496
 10
85.01403
 20
408.4039
 10
84.748817
 20
405.360168
 10
84.496529
 20
402.315002
 10
84.252266
 20
399.268982
 10
84.012695
 20
396.222565
 10
83.771591
 20
393.176392
 10
83.533119
 20
390.130219
 10
83.307854
 20
387.083191
 10
83.104996
 20
384.034668
 10
82.930733
 20
380.984406
 10
82.787872
 20
377.932495
 10
82.674797
 20
374.826477
  0
LWPOLYLINE
  5
21E
330
1F9
100
AcDbEntity
  8
0
  6
Continuous
 62
     0
370
     0
100
AcDbPolyline
 90
       17
 70
     0
 43
0.0
 10
82.674797
 20
374.826477
 10
82.727028
 20
374.830536
 10
82.76297
 20
374.831055
 10
82.793312
 20
374.831268
 10
82.821434
 20
374.831421
 10
82.848793
 20
374.831543
 10
82.876343
 20
374.831635
 10
82.904022
 20
374.831726
 10
82.931648
 20
374.831787
 10
82.959328
 20
374.831848
 10
82.987228
 20
374.831909
 10
83.015495
 20
374.83194
 10
83.044197
 20
374.83197
 10
83.073471
 20
374.83197
 10
83.104088
 20
374.83194
 10
83.137161
 20
374.831787
 10
83.174789
 20
374.831512
  0
LWPOLYLINE
  5
21F
330
1F9
100
AcDbEntity
  8
0
  6
Continuous
 62
     0
370
     0
100
AcDbPolyline
 90
       27
 70
     0
 43
0.0
 10
83.174789
 20
374.831512
 10
83.28598
 20
377.889923
 10
83.428787
 20
380.94696
 10
83.603134
 20
384.002319
 10
83.806152
 20
387.055939
 10
84.031563
 20
390.108063
 10
84.270111
 20
393.159363
 10
84.5112
 20
396.210632
 10
84.750626
 20
399.262177
 10
84.994904
 20
402.313324
 10
85.247383
 20
405.363586
 10
85.513199
 20
408.412384
 10
85.797539
 20
411.458984
 10
86.104607
 20
414.502594
 10
86.429901
 20
417.543701
 10
86.764572
 20
420.583405
 10
87.099342
 20
423.623169
 10
87.424782
 20
426.664276
 10
87.731255
 20
429.708099
 10
88.008995
 20
432.755646
 10
88.248161
 20
435.807495
 10
88.438873
 20
438.863831
 10
88.571358
 20
441.923981
 10
88.636124
 20
444.986542
 10
88.63205
 20
448.049408
 10
88.593346
 20
451.11142
 10
88.544617
 20
454.271545
  0
LINE
  5
220
330
1F9
100
AcDbEntity
  8
0
  6
Continuous
 62
     0
370
     0
100
AcDbLine
 10
83.174789
 20
374.831522
 30
0.0
 11
99.150978
 21
374.969323
 31
0.0
  0
LINE
  5
221
330
1F9
100
AcDbEntity
  8
0
  6
Continuous
 62
     0
370
     0
100
AcDbLine
 10
97.946686
 20
452.368178
 30
0.0
 11
99.150978
 21
374.969323
 31
0.0
  0
LWPOLYLINE
  5
222
330
1F9
100
AcDbEntity
  8
0
  6
Continuous
 62
     0
370
    30
100
AcDbPolyline
 90
       21
 70
     0
 43
0.0
 10
99.150978
 20
374.96933
 10
99.177361
 20
374.969635
 10
99.202187
 20
374.969879
 10
99.225861
 20
374.970123
 10
99.248772
 20
374.970337
 10
99.271317
 20
374.97052
 10
99.293846
 20
374.970673
 10
99.316284
 20
374.970795
 10
99.338203
 20
374.970978
 10
99.359222
 20
374.971222
 10
99.37915
 20
374.971558
 10
99.399223
 20
374.971893
 10
99.421288
 20
374.972046
 10
99.446983
 20
374.971802
 10
99.476013
 20
374.971252
 10
99.502312
 20
374.970947
 10
99.519196
 20
374.97171
 10
99.5252
 20
374.973755
 10
99.562309
 20
374.972504
 10
99.644623
 20
374.964691
 10
99.664566
 20
374.968109
  0
ARC
  5
223
330
1F9
100
AcDbEntity
  8
0
  6
Continuous
 62
     0
370
    30
100
AcDbCircle
 10
99.464591
 20
374.965004
 30
0.0
 40
0.200000002980242
100
AcDbArc
 50
270.5
 51
0.891399
  0
LINE
  5
224
330
1F9
100
AcDbEntity
  8
0
  6
Continuous
 62
     0
370
     0
100
AcDbLine
 10
99.150695
 20
374.969321
 30
0.0
 11
99.152502
 21
374.762272
 31
0.0
  0
LINE
  5
225
330
1F9
100
AcDbEntity
  8
0
  6
Continuous
 62
     0
370
     0
100
AcDbLine
 10
83.174492
 20
374.831519
 30
0.0
 11
83.176313
 21
374.62285
 31
0.0
  0
ARC
  5
226
330
1F9
100
AcDbEntity
  8
0
  6
Continuous
 62
     0
370
    30
100
AcDbCircle
 10
82.874698
 20
374.820226
 30
0.0
 40
0.200000002980228
100
AcDbArc
 50
178.20572
 51
270.5
  0
LINE
  5
227
330
1F9
100
AcDbEntity
  8
0
  6
Continuous
 62
     0
370
    30
100
AcDbLine
 10
85.457815
 20
473.389994
 30
0.0
 11
105.255927
 21
474.69684
 31
0.0
  0
LINE
  5
228
330
1F9
100
AcDbEntity
  8
0
  6
Continuous
 62
     0
370
     0
100
AcDbLine
 10
107.689516
 20
461.566369
 30
0.0
 11
105.255927
 21
474.69684
 31
0.0
  0
ARC
  5
229
330
1F9
100
AcDbEntity
  8
0
  6
Continuous
 62
     0
370
    30
100
AcDbCircle
 10
105.288859
 20
474.197926
 30
0.0
 40
0.499999999999999
100
AcDbArc
 50
10.5
 51
93.776536
  0
LINE
  5
22A
330
1F9
100
AcDbEntity
  8
0
  6
Continuous
 62
     0
370
    30
100
AcDbLine
 10
105.780487
 20
474.289044
 30
0.0
 11
106.032315
 21
472.930298
 31
0.0
  0
LINE
  5
22B
330
1F9
100
AcDbEntity
  8
0
  6
Continuous
 62
     0
370
    30
100
AcDbLine
 10
108.033094
 20
462.135066
 30
0.0
 11
105.780487
 21
474.289044
 31
0.0
  0
LINE
  5
22C
330
1F9
100
AcDbEntity
  8
0
  6
Continuous
 62
     0
370
    30
100
AcDbLine
 10
107.689516
 20
461.566369
 30
0.0
 11
104.700911
 21
460.6399
 31
0.0
  0
LINE
  5
22D
330
1F9
100
AcDbEntity
  8
0
  6
Continuous
 62
     0
370
    30
100
AcDbLine
 10
88.048918
 20
454.085187
 30
0.0
 11
88.085596
 21
451.706458
 31
0.0
  0
LINE
  5
22E
330
1F9
100
AcDbEntity
  8
0
  6
Continuous
 62
     0
370
    30
100
AcDbLine
 10
107.91482
 20
464.33076
 30
0.0
 11
106.456935
 21
472.196799
 31
0.0
  0
LWPOLYLINE
  5
22F
330
1F9
100
AcDbEntity
  8
0
  6
Continuous
 62
     0
370
    30
100
AcDbPolyline
 90
       54
 70
     0
 43
0.0
 10
135.663925
 20
561.966614
 10
135.663925
 20
561.927002
 10
135.663925
 20
561.808289
 10
135.663925
 20
561.610657
 10
135.663925
 20
561.334412
 10
135.663925
 20
560.979675
 10
135.663925
 20
560.546814
 10
135.663925
 20
560.03595
 10
135.663925
 20
559.447571
 10
135.663925
 20
558.782288
 10
135.663925
 20
558.040833
 10
135.663925
 20
557.223877
 10
135.663925
 20
556.332092
 10
135.663925
 20
555.366272
 10
135.663925
 20
554.327026
 10
135.663925
 20
553.215393
 10
135.663925
 20
552.032349
 10
135.663925
 20
550.778992
 10
135.663925
 20
549.456421
 10
135.663925
 20
548.065613
 10
135.663925
 20
546.607727
 10
135.663925
 20
545.083862
 10
135.663925
 20
543.495728
 10
135.663925
 20
541.844849
 10
135.663925
 20
540.132996
 10
135.663925
 20
538.361816
 10
135.663925
 20
536.532898
 10
135.663925
 20
534.647888
 10
135.663925
 20
532.708435
 10
135.663925
 20
530.716064
 10
135.663925
 20
528.67218
 10
135.663925
 20
526.578491
 10
135.663925
 20
524.43689
 10
135.663925
 20
522.249146
 10
135.663925
 20
520.017334
 10
135.663925
 20
517.743469
 10
135.663925
 20
515.429626
 10
135.663925
 20
513.07782
 10
135.663925
 20
510.690033
 10
135.663925
 20
508.268005
 10
135.663925
 20
505.813507
 10
135.663925
 20
503.328461
 10
135.663925
 20
500.815186
 10
135.663925
 20
498.27594
 10
135.663925
 20
495.713074
 10
135.663925
 20
493.128876
 10
135.663925
 20
490.525665
 10
135.663925
 20
487.905792
 10
135.663925
 20
485.271759
 10
135.663925
 20
482.626312
 10
135.663925
 20
479.972137
 10
135.663925
 20
477.31189
 10
135.663925
 20
474.648346
 10
135.663925
 20
471.966644
  0
LINE
  5
230
330
1F9
100
AcDbEntity
  8
0
  6
Continuous
 62
     0
370
    30
100
AcDbLine
 10
135.663919
 20
471.966637
 30
0.0
 11
135.663923
 21
381.966637
 31
0.0
  0
LWPOLYLINE
  5
231
330
1F9
100
AcDbEntity
  8
0
  6
Continuous
 62
     0
370
    30
100
AcDbPolyline
 90
       54
 70
     0
 43
0.0
 10
134.663925
 20
382.966644
 10
134.663925
 20
383.005829
 10
134.663925
 20
383.123199
 10
134.663925
 20
383.318573
 10
134.663925
 20
383.591705
 10
134.663925
 20
383.942383
 10
134.663925
 20
384.370392
 10
134.663925
 20
384.875458
 10
134.663925
 20
385.457184
 10
134.663925
 20
386.114929
 10
134.663925
 20
386.847992
 10
134.663925
 20
387.655701
 10
134.663925
 20
388.537354
 10
134.663925
 20
389.492279
 10
134.663925
 20
390.519714
 10
134.663925
 20
391.618805
 10
134.663925
 20
392.788452
 10
134.663925
 20
394.027618
 10
134.663925
 20
395.335236
 10
134.663925
 20
396.710297
 10
134.663925
 20
398.151703
 10
134.663925
 20
399.658325
 10
134.663925
 20
401.228516
 10
134.663925
 20
402.860687
 10
134.663925
 20
404.553192
 10
134.663925
 20
406.304382
 10
134.663925
 20
408.11261
 10
134.663925
 20
409.976288
 10
134.663925
 20
411.893829
 10
134.663925
 20
413.863708
 10
134.663925
 20
415.88446
 10
134.663925
 20
417.954529
 10
134.663925
 20
420.071991
 10
134.663925
 20
422.234985
 10
134.663925
 20
424.441589
 10
134.663925
 20
426.689819
 10
134.663925
 20
428.97757
 10
134.663925
 20
431.302826
 10
134.663925
 20
433.663696
 10
134.663925
 20
436.058411
 10
134.663925
 20
438.48526
 10
134.663925
 20
440.942291
 10
134.663925
 20
443.427246
 10
134.663925
 20
445.937897
 10
134.663925
 20
448.471924
 10
134.663925
 20
451.027008
 10
134.663925
 20
453.600922
 10
134.663925
 20
456.191345
 10
134.663925
 20
458.795746
 10
134.663925
 20
461.411469
 10
134.663925
 20
464.035858
 10
134.663925
 20
466.666199
 10
134.663925
 20
469.299866
 10
134.663925
 20
471.966644
  0
LINE
  5
232
330
1F9
100
AcDbEntity
  8
0
  6
Continuous
 62
     0
370
    30
100
AcDbLine
 10
134.663919
 20
471.966637
 30
0.0
 11
134.663923
 21
560.966637
 31
0.0
  0
LINE
  5
233
330
1F9
100
AcDbEntity
  8
0
  6
Continuous
 62
     0
370
    30
100
AcDbLine
 10
146.663923
 20
382.139235
 30
0.0
 11
146.663919
 21
471.966637
 31
0.0
  0
LINE
  5
234
330
1F9
100
AcDbEntity
  8
0
  6
Continuous
 62
     0
370
    30
100
AcDbLine
 10
135.663923
 20
561.966637
 30
0.0
 11
135.663919
 21
471.966637
 31
0.0
  0
LINE
  5
235
330
1F9
100
AcDbEntity
  8
0
  6
Continuous
 62
     0
370
    30
100
AcDbLine
 10
135.663919
 20
471.966637
 30
0.0
 11
135.663923
 21
381.966637
 31
0.0
  0
LINE
  5
236
330
1F9
100
AcDbEntity
  8
0
  6
Continuous
 62
     0
370
    30
100
AcDbLine
 10
146.663919
 20
471.966637
 30
0.0
 11
146.663923
 21
561.966637
 31
0.0
  0
LINE
  5
237
330
1F9
100
AcDbEntity
  8
0
  6
Continuous
 62
     0
370
    30
100
AcDbLine
 10
143.663923
 20
382.024712
 30
0.0
 11
144.405104
 21
382.064625
 31
0.0
  0
LINE
  5
238
330
1F9
100
AcDbEntity
  8
0
  6
Continuous
 62
     0
370
    30
100
AcDbLine
 10
144.405104
 20
382.064625
 30
0.0
 11
145.922742
 21
382.084538
 31
0.0
  0
LINE
  5
239
330
1F9
100
AcDbEntity
  8
0
  6
Continuous
 62
     0
370
    30
100
AcDbLine
 10
145.922742
 20
382.084538
 30
0.0
 11
146.663923
 21
382.139235
 31
0.0
  0
LINE
  5
23A
330
1F9
100
AcDbEntity
  8
0
  6
Continuous
 62
     0
370
    30
100
AcDbLine
 10
146.663923
 20
382.139235
 30
0.0
 11
146.663919
 21
471.966637
 31
0.0
  0
LINE
  5
23B
330
1F9
100
AcDbEntity
  8
0
  6
Continuous
 62
     0
370
    30
100
AcDbLine
 10
146.663919
 20
471.966637
 30
0.0
 11
146.663923
 21
561.96663
 31
0.0
  0
LINE
  5
23C
330
1F9
100
AcDbEntity
  8
0
  6
Continuous
 62
     0
370
    30
100
AcDbLine
 10
135.663923
 20
381.966637
 30
0.0
 11
143.663923
 21
381.966637
 31
0.0
  0
LINE
  5
23D
330
1F9
100
AcDbEntity
  8
0
  6
Continuous
 62
     0
370
    30
100
AcDbLine
 10
135.663923
 20
561.966637
 30
0.0
 11
146.663923
 21
561.966637
 31
0.0
  0
ARC
  5
23E
330
1F9
100
AcDbEntity
  8
0
  6
Continuous
 62
     0
370
    30
100
AcDbCircle
 10
135.66738
 20
382.970093
 30
0.0
 40
1.003462686668453
100
AcDbArc
 50
180.197373
 51
269.802627
  0
ARC
  5
23F
330
1F9
100
AcDbEntity
  8
0
  6
Continuous
 62
     0
370
    30
100
AcDbCircle
 10
135.66738
 20
560.96318
 30
0.0
 40
1.003462686668894
100
AcDbArc
 50
90.197373
 51
179.802627
  0
LINE
  5
240
330
1F9
100
AcDbEntity
  8
0
  6
Continuous
 62
     0
370
    30
100
AcDbLine
 10
107.91482
 20
464.33076
 30
0.0
 11
107.671951
 21
464.083615
 31
0.0
  0
LINE
  5
241
330
1F9
100
AcDbEntity
  8
0
  6
Continuous
 62
     0
370
    30
100
AcDbLine
 10
106.456935
 20
472.196799
 30
0.0
 11
106.141629
 21
472.340493
 31
0.0
  0
ENDBLK
  5
243
330
1F9
100
AcDbEntity
  8
0
100
AcDbBlockEnd
  0
ENDSEC
  0
SECTION
  2
ENTITIES
  0
INSERT
  5
D4
330
1F
100
AcDbEntity
  8
0
  6
Continuous
 62
     7
420
 16250871
370
     0
100
AcDbBlockReference
  2
a
 10
208.764786
 20
87.984634
 30
0.0
  0
INSERT
  5
114
330
1F
100
AcDbEntity
  8
0
  6
Continuous
 62
     7
420
 16250871
370
     0
100
AcDbBlockReference
  2
b
 10
208.764786
 20
87.984634
 30
0.0
  0
INSERT
  5
15D
330
1F
100
AcDbEntity
  8
0
  6
Continuous
 62
     7
420
 16250871
370
     0
100
AcDbBlockReference
  2
c
 10
208.764786
 20
87.984634
 30
0.0
  0
INSERT
  5
1F8
330
1F
100
AcDbEntity
  8
0
  6
Continuous
 62
     7
420
 16250871
370
     0
100
AcDbBlockReference
  2
d
 10
208.764786
 20
87.984634
 30
0.0
  0
INSERT
  5
244
330
1F
100
AcDbEntity
  8
0
  6
Continuous
 62
     7
420
 16250871
370
     0
100
AcDbBlockReference
  2
e
 10
200.536682
 20
0.0
 30
0.0
  0
ENDSEC
  0
SECTION
  2
OBJECTS
  0
DICTIONARY
  5
C
330
0
100
AcDbDictionary
281
     1
  3
ACAD_DETAILVIEWSTYLE
350
27C
  3
ACAD_GROUP
350
D
  3
ACAD_LAYOUT
350
1A
  3
ACAD_MATERIAL
350
43
  3
ACAD_MLEADERSTYLE
350
6B
  3
ACAD_MLINESTYLE
350
17
  3
ACAD_PLOTSETTINGS
350
19
  3
ACAD_PLOTSTYLENAME
350
E
  3
ACAD_SCALELIST
350
47
  3
ACAD_SECTIONVIEWSTYLE
350
27D
  3
ACAD_TABLESTYLE
350
69
  3
ACAD_VISUALSTYLE
350
2A
  3
ACDB_RECOMPOSE_DATA
350
279
  3
AcDbVariableDictionary
350
245
  0
SUN
  5
6D
330
29
100
AcDbSun
 90
        1
290
     0
 63
     7
421
 16777215
 40
1.0
291
     1
 91
  2455826
 92
 54000000
292
     0
 70
     2
 71
   256
280
     1
  0
DICTIONARY
  5
27C
102
{ACAD_REACTORS
330
C
102
}
330
C
100
AcDbDictionary
281
     1
  0
DICTIONARY
  5
D
102
{ACAD_REACTORS
330
C
102
}
330
C
100
AcDbDictionary
281
     1
  0
DICTIONARY
  5
1A
102
{ACAD_REACTORS
330
C
102
}
330
C
100
AcDbDictionary
281
     1
  3
Layout1
350
1E
  3
Layout2
350
26
  3
Model
350
22
  0
DICTIONARY
  5
43
102
{ACAD_REACTORS
330
C
102
}
330
C
100
AcDbDictionary
281
     1
  3
ByBlock
350
45
  3
ByLayer
350
44
  3
Global
350
46
  0
DICTIONARY
  5
6B
102
{ACAD_REACTORS
330
C
102
}
330
C
100
AcDbDictionary
281
     1
  3
Standard
350
6C
  0
DICTIONARY
  5
17
102
{ACAD_REACTORS
330
C
102
}
330
C
100
AcDbDictionary
281
     1
  3
Standard
350
18
  0
DICTIONARY
  5
19
102
{ACAD_REACTORS
330
C
102
}
330
C
100
AcDbDictionary
281
     1
  0
ACDBDICTIONARYWDFLT
  5
E
102
{ACAD_REACTORS
330
C
102
}
330
C
100
AcDbDictionary
281
     1
  3
Normal
350
F
100
AcDbDictionaryWithDefault
340
F
  0
DICTIONARY
  5
47
102
{ACAD_REACTORS
330
C
102
}
330
C
100
AcDbDictionary
281
     1
  3
A0
350
48
  3
A1
350
49
  3
A2
350
4A
  3
A3
350
4B
  3
A4
350
4C
  3
A5
350
4D
  3
A6
350
4E
  3
A7
350
4F
  3
A8
350
50
  3
A9
350
51
  3
B0
350
52
  3
B1
350
53
  3
B2
350
54
  3
B3
350
55
  3
B4
350
56
  3
B5
350
57
  3
B6
350
58
  3
B7
350
59
  3
B8
350
5A
  3
B9
350
5B
  3
C0
350
5C
  3
C1
350
5D
  3
C2
350
5E
  3
C3
350
5F
  3
C4
350
60
  3
C5
350
61
  3
C6
350
62
  3
C7
350
63
  3
C8
350
64
  3
C9
350
65
  3
D0
350
66
  3
D1
350
67
  3
D2
350
68
  0
DICTIONARY
  5
27D
102
{ACAD_REACTORS
330
C
102
}
330
C
100
AcDbDictionary
281
     1
  0
DICTIONARY
  5
69
102
{ACAD_REACTORS
330
C
102
}
330
C
100
AcDbDictionary
281
     1
  3
Standard
350
6A
  0
DICTIONARY
  5
2A
102
{ACAD_REACTORS
330
C
102
}
330
C
100
AcDbDictionary
281
     1
  3
2dWireframe
350
2F
  3
Basic
350
32
  3
Brighten
350
36
  3
ColorChange
350
3A
  3
Conceptual
350
34
  3
Dim
350
35
  3
EdgeColorOff
350
3D
  3
Facepattern
350
39
  3
Flat
350
2B
  3
FlatWithEdges
350
2C
  3
Gouraud
350
2D
  3
GouraudWithEdges
350
2E
  3
Hidden
350
31
  3
JitterOff
350
3B
  3
Linepattern
350
38
  3
OverhangOff
350
3C
  3
Realistic
350
33
  3
Shaded
350
42
  3
Shaded with edges
350
41
  3
Shades of Gray
350
3E
  3
Sketchy
350
3F
  3
Thicken
350
37
  3
Wireframe
350
30
  3
X-Ray
350
40
  0
XRECORD
  5
279
102
{ACAD_REACTORS
330
C
102
}
330
C
100
AcDbXrecord
280
     1
 90
        1
330
6A
  0
DICTIONARY
  5
245
102
{ACAD_REACTORS
330
C
102
}
330
C
100
AcDbDictionary
281
     1
  3
CANNOSCALE
350
246
  3
CMLEADERSTYLE
350
27B
  3
CTABLESTYLE
350
27A
  0
LAYOUT
  5
1E
102
{ACAD_REACTORS
330
1A
102
}
330
1A
100
AcDbPlotSettings
  1

  2
none_device
  4

  6

 40
0.0
 41
0.0
 42
0.0
 43
0.0
 44
0.0
 45
0.0
 46
0.0
 47
0.0
 48
0.0
 49
0.0
140
0.0
141
0.0
142
1.0
143
1.0
 70
   688
 72
     1
 73
     0
 74
     5
  7

 75
    16
 76
     0
 77
     2
 78
   300
147
1.0
148
0.0
149
0.0
100
AcDbLayout
  1
Layout1
 70
     1
 71
     1
 10
0.0
 20
0.0
 11
420.0
 21
297.0
 12
0.0
 22
0.0
 32
0.0
 14
1.000000E+20
 24
1.000000E+20
 34
1.000000E+20
 15
-1.000000E+20
 25
-1.000000E+20
 35
-1.000000E+20
146
0.0
 13
0.0
 23
0.0
 33
0.0
 16
1.0
 26
0.0
 36
0.0
 17
0.0
 27
1.0
 37
0.0
 76
     0
330
1B
  0
LAYOUT
  5
26
102
{ACAD_REACTORS
330
1A
102
}
330
1A
100
AcDbPlotSettings
  1

  2
none_device
  4

  6

 40
0.0
 41
0.0
 42
0.0
 43
0.0
 44
0.0
 45
0.0
 46
0.0
 47
0.0
 48
0.0
 49
0.0
140
0.0
141
0.0
142
1.0
143
1.0
 70
   688
 72
     1
 73
     0
 74
     5
  7

 75
    16
 76
     0
 77
     2
 78
   300
147
1.0
148
0.0
149
0.0
100
AcDbLayout
  1
Layout2
 70
     1
 71
     2
 10
0.0
 20
0.0
 11
0.0
 21
0.0
 12
0.0
 22
0.0
 32
0.0
 14
0.0
 24
0.0
 34
0.0
 15
0.0
 25
0.0
 35
0.0
146
0.0
 13
0.0
 23
0.0
 33
0.0
 16
1.0
 26
0.0
 36
0.0
 17
0.0
 27
1.0
 37
0.0
 76
     0
330
23
  0
LAYOUT
  5
22
102
{ACAD_REACTORS
330
1A
102
}
330
1A
100
AcDbPlotSettings
  1

  2
none_device
  4
Letter_(8.50_x_11.00_Inches)
  6

 40
6.35
 41
6.35
 42
6.350005
 43
6.350005
 44
215.9
 45
279.4
 46
0.0
 47
0.0
 48
0.0
 49
0.0
140
0.0
141
0.0
142
1.0
143
1.0
 70
  1712
 72
     1
 73
     0
 74
     0
  7

 75
     0
 76
     0
 77
     2
 78
   300
147
1.0
148
0.0
149
0.0
100
AcDbLayout
  1
Model
 70
     1
 71
     0
 10
0.0
 20
0.0
 11
420.0
 21
297.0
 12
0.0
 22
0.0
 32
0.0
 14
1.000000E+20
 24
1.000000E+20
 34
1.000000E+20
 15
-1.000000E+20
 25
-1.000000E+20
 35
-1.000000E+20
146
0.0
 13
0.0
 23
0.0
 33
0.0
 16
1.0
 26
0.0
 36
0.0
 17
0.0
 27
1.0
 37
0.0
 76
     0
330
1F
331
29
  0
MATERIAL
  5
45
102
{ACAD_REACTORS
330
43
102
}
330
43
100
AcDbMaterial
  1
ByBlock
 72
     1
 94
      127
  0
MATERIAL
  5
44
102
{ACAD_REACTORS
330
43
102
}
330
43
100
AcDbMaterial
  1
ByLayer
 72
     1
 94
      127
  0
MATERIAL
  5
46
102
{ACAD_REACTORS
330
43
102
}
330
43
100
AcDbMaterial
  1
Global
 72
     1
 94
      127
  0
MLEADERSTYLE
  5
6C
102
{ACAD_REACTORS
330
6B
102
}
330
6B
100
AcDbMLeaderStyle
179
     2
170
     2
171
     1
172
     0
 90
        2
 40
0.0
 41
0.0
173
     1
 91
-1056964608
340
14
 92
       -2
290
     1
 42
2.0
291
     1
 43
8.0
  3
Standard
341
0
 44
4.0
300

342
11
174
     1
178
     6
175
     1
176
     0
 93
-1056964608
 45
4.0
292
     0
297
     0
 46
4.0
343
0
 94
-1056964608
 47
1.0
 49
1.0
140
1.0
293
     1
141
0.0
294
     1
177
     0
142
1.0
295
     0
296
     0
143
3.75
271
     0
272
     9
273
     9
  0
MLINESTYLE
  5
18
102
{ACAD_REACTORS
330
17
102
}
330
17
100
AcDbMlineStyle
  2
Standard
 70
     0
  3

 62
   256
 51
90.0
 52
90.0
 71
     2
 49
0.5
 62
   256
  6
BYLAYER
 49
-0.5
 62
   256
  6
BYLAYER
  0
ACDBPLACEHOLDER
  5
F
102
{ACAD_REACTORS
330
E
102
}
330
E
  0
SCALE
  5
48
102
{ACAD_REACTORS
330
47
102
}
330
47
100
AcDbScale
 70
     0
300
1:1
140
1.0
141
1.0
290
     1
  0
SCALE
  5
49
102
{ACAD_REACTORS
330
47
102
}
330
47
100
AcDbScale
 70
     0
300
1:2
140
1.0
141
2.0
290
     0
  0
SCALE
  5
4A
102
{ACAD_REACTORS
330
47
102
}
330
47
100
AcDbScale
 70
     0
300
1:4
140
1.0
141
4.0
290
     0
  0
SCALE
  5
4B
102
{ACAD_REACTORS
330
47
102
}
330
47
100
AcDbScale
 70
     0
300
1:5
140
1.0
141
5.0
290
     0
  0
SCALE
  5
4C
102
{ACAD_REACTORS
330
47
102
}
330
47
100
AcDbScale
 70
     0
300
1:8
140
1.0
141
8.0
290
     0
  0
SCALE
  5
4D
102
{ACAD_REACTORS
330
47
102
}
330
47
100
AcDbScale
 70
     0
300
1:10
140
1.0
141
10.0
290
     0
  0
SCALE
  5
4E
102
{ACAD_REACTORS
330
47
102
}
330
47
100
AcDbScale
 70
     0
300
1:16
140
1.0
141
16.0
290
     0
  0
SCALE
  5
4F
102
{ACAD_REACTORS
330
47
102
}
330
47
100
AcDbScale
 70
     0
300
1:20
140
1.0
141
20.0
290
     0
  0
SCALE
  5
50
102
{ACAD_REACTORS
330
47
102
}
330
47
100
AcDbScale
 70
     0
300
1:30
140
1.0
141
30.0
290
     0
  0
SCALE
  5
51
102
{ACAD_REACTORS
330
47
102
}
330
47
100
AcDbScale
 70
     0
300
1:40
140
1.0
141
40.0
290
     0
  0
SCALE
  5
52
102
{ACAD_REACTORS
330
47
102
}
330
47
100
AcDbScale
 70
     0
300
1:50
140
1.0
141
50.0
290
     0
  0
SCALE
  5
53
102
{ACAD_REACTORS
330
47
102
}
330
47
100
AcDbScale
 70
     0
300
1:100
140
1.0
141
100.0
290
     0
  0
SCALE
  5
54
102
{ACAD_REACTORS
330
47
102
}
330
47
100
AcDbScale
 70
     0
300
2:1
140
2.0
141
1.0
290
     0
  0
SCALE
  5
55
102
{ACAD_REACTORS
330
47
102
}
330
47
100
AcDbScale
 70
     0
300
4:1
140
4.0
141
1.0
290
     0
  0
SCALE
  5
56
102
{ACAD_REACTORS
330
47
102
}
330
47
100
AcDbScale
 70
     0
300
8:1
140
8.0
141
1.0
290
     0
  0
SCALE
  5
57
102
{ACAD_REACTORS
330
47
102
}
330
47
100
AcDbScale
 70
     0
300
10:1
140
10.0
141
1.0
290
     0
  0
SCALE
  5
58
102
{ACAD_REACTORS
330
47
102
}
330
47
100
AcDbScale
 70
     0
300
100:1
140
100.0
141
1.0
290
     0
  0
SCALE
  5
59
102
{ACAD_REACTORS
330
47
102
}
330
47
100
AcDbScale
 70
     0
300
1/128" = 1'-0"
140
0.007812
141
12.0
290
     0
  0
SCALE
  5
5A
102
{ACAD_REACTORS
330
47
102
}
330
47
100
AcDbScale
 70
     0
300
1/64" = 1'-0"
140
0.015625
141
12.0
290
     0
  0
SCALE
  5
5B
102
{ACAD_REACTORS
330
47
102
}
330
47
100
AcDbScale
 70
     0
300
1/32" = 1'-0"
140
0.03125
141
12.0
290
     0
  0
SCALE
  5
5C
102
{ACAD_REACTORS
330
47
102
}
330
47
100
AcDbScale
 70
     0
300
1/16" = 1'-0"
140
0.0625
141
12.0
290
     0
  0
SCALE
  5
5D
102
{ACAD_REACTORS
330
47
102
}
330
47
100
AcDbScale
 70
     0
300
3/32" = 1'-0"
140
0.09375
141
12.0
290
     0
  0
SCALE
  5
5E
102
{ACAD_REACTORS
330
47
102
}
330
47
100
AcDbScale
 70
     0
300
1/8" = 1'-0"
140
0.125
141
12.0
290
     0
  0
SCALE
  5
5F
102
{ACAD_REACTORS
330
47
102
}
330
47
100
AcDbScale
 70
     0
300
3/16" = 1'-0"
140
0.1875
141
12.0
290
     0
  0
SCALE
  5
60
102
{ACAD_REACTORS
330
47
102
}
330
47
100
AcDbScale
 70
     0
300
1/4" = 1'-0"
140
0.25
141
12.0
290
     0
  0
SCALE
  5
61
102
{ACAD_REACTORS
330
47
102
}
330
47
100
AcDbScale
 70
     0
300
3/8" = 1'-0"
140
0.375
141
12.0
290
     0
  0
SCALE
  5
62
102
{ACAD_REACTORS
330
47
102
}
330
47
100
AcDbScale
 70
     0
300
1/2" = 1'-0"
140
0.5
141
12.0
290
     0
  0
SCALE
  5
63
102
{ACAD_REACTORS
330
47
102
}
330
47
100
AcDbScale
 70
     0
300
3/4" = 1'-0"
140
0.75
141
12.0
290
     0
  0
SCALE
  5
64
102
{ACAD_REACTORS
330
47
102
}
330
47
100
AcDbScale
 70
     0
300
1" = 1'-0"
140
1.0
141
12.0
290
     0
  0
SCALE
  5
65
102
{ACAD_REACTORS
330
47
102
}
330
47
100
AcDbScale
 70
     0
300
1-1/2" = 1'-0"
140
1.5
141
12.0
290
     0
  0
SCALE
  5
66
102
{ACAD_REACTORS
330
47
102
}
330
47
100
AcDbScale
 70
     0
300
3" = 1'-0"
140
3.0
141
12.0
290
     0
  0
SCALE
  5
67
102
{ACAD_REACTORS
330
47
102
}
330
47
100
AcDbScale
 70
     0
300
6" = 1'-0"
140
6.0
141
12.0
290
     0
  0
SCALE
  5
68
102
{ACAD_REACTORS
330
47
102
}
330
47
100
AcDbScale
 70
     0
300
1'-0" = 1'-0"
140
12.0
141
12.0
290
     0
  0
TABLESTYLE
  5
6A
102
{ACAD_REACTORS
330
69
102
}
102
{ACAD_XDICTIONARY
360
277
102
}
330
69
100
AcDbTableStyle
  3
Standard
 70
     0
 71
     0
 40
0.06
 41
0.06
280
     0
281
     0
  7
Standard
140
4.5
170
     2
 62
     0
 63
   257
283
     0
 90
        4
 91
        0
  1

274
    -2
284
     1
 64
     0
275
    -2
285
     1
 65
     0
276
    -2
286
     1
 66
     0
277
    -2
287
     1
 67
     0
278
    -2
288
     1
 68
     0
279
    -2
289
     1
 69
     0
  7
Standard
140
6.0
170
     5
 62
     0
 63
   257
283
     0
 90
        4
 91
        0
  1

274
    -2
284
     1
 64
     0
275
    -2
285
     1
 65
     0
276
    -2
286
     1
 66
     0
277
    -2
287
     1
 67
     0
278
    -2
288
     1
 68
     0
279
    -2
289
     1
 69
     0
  7
Standard
140
4.5
170
     5
 62
     0
 63
   257
283
     0
 90
        4
 91
        0
  1

274
    -2
284
     1
 64
     0
275
    -2
285
     1
 65
     0
276
    -2
286
     1
 66
     0
277
    -2
287
     1
 67
     0
278
    -2
288
     1
 68
     0
279
    -2
289
     1
 69
     0
  0
VISUALSTYLE
  5
2F
102
{ACAD_REACTORS
330
2A
102
}
102
{ACAD_XDICTIONARY
360
24F
102
}
330
2A
100
AcDbVisualStyle
  2
2dWireframe
 70
     4
177
     2
291
     0
 71
     0
176
     1
 72
     2
176
     1
 73
     0
176
     1
 90
        0
176
     1
 40
0.6
176
     1
 41
30.0
176
     1
 62
     5
 63
     7
421
 16777215
176
     1
 74
     1
176
     1
 91
        4
176
     1
 64
     7
176
     1
 65
   257
176
     1
 75
     1
176
     1
175
     1
176
     1
 42
1.0
176
     1
 92
        0
176
     1
 66
   257
176
     1
 43
1.0
176
     1
 76
     1
176
     1
 77
     6
176
     1
 78
     2
176
     1
 67
     7
176
     1
 79
     5
176
     1
170
     0
176
     1
171
     0
176
     1
290
     0
176
     1
 93
        1
176
     1
 44
0.0
176
     1
173
     0
176
     1
  0
VISUALSTYLE
  5
32
102
{ACAD_REACTORS
330
2A
102
}
102
{ACAD_XDICTIONARY
360
255
102
}
330
2A
100
AcDbVisualStyle
  2
Basic
 70
     7
177
     2
291
     1
 71
     1
176
     1
 72
     0
176
     1
 73
     1
176
     1
 90
        0
176
     1
 40
0.6
176
     1
 41
30.0
176
     1
 62
     5
 63
     7
421
 16777215
176
     1
 74
     0
176
     1
 91
        4
176
     1
 64
     7
176
     1
 65
   257
176
     1
 75
     1
176
     1
175
     1
176
     1
 42
1.0
176
     1
 92
        8
176
     1
 66
     7
176
     1
 43
1.0
176
     1
 76
     1
176
     1
 77
     6
176
     1
 78
     2
176
     1
 67
     7
176
     1
 79
     5
176
     1
170
     0
176
     1
171
     0
176
     1
290
     0
176
     1
 93
        1
176
     1
 44
0.0
176
     1
173
     0
176
     1
  0
VISUALSTYLE
  5
36
102
{ACAD_REACTORS
330
2A
102
}
102
{ACAD_XDICTIONARY
360
25D
102
}
330
2A
100
AcDbVisualStyle
  2
Brighten
 70
    12
177
     2
291
     1
 71
     2
176
     1
 72
     2
176
     1
 73
     0
176
     1
 90
        0
176
     1
 40
0.6
176
     1
 41
30.0
176
     1
 62
     5
 63
     7
421
 16777215
176
     1
 74
     1
176
     1
 91
        4
176
     1
 64
     7
176
     1
 65
   257
176
     1
 75
     1
176
     1
175
     1
176
     1
 42
1.0
176
     1
 92
        8
176
     1
 66
     7
176
     1
 43
1.0
176
     1
 76
     1
176
     1
 77
     6
176
     1
 78
     2
176
     1
 67
     7
176
     1
 79
     5
176
     1
170
     0
176
     1
171
     0
176
     1
290
     0
176
     1
 93
        1
176
     1
 44
50.0
176
     1
173
     0
176
     1
  0
VISUALSTYLE
  5
3A
102
{ACAD_REACTORS
330
2A
102
}
102
{ACAD_XDICTIONARY
360
265
102
}
330
2A
100
AcDbVisualStyle
  2
ColorChange
 70
    16
177
     2
291
     1
 71
     2
176
     1
 72
     2
176
     1
 73
     3
176
     1
 90
        0
176
     1
 40
0.6
176
     1
 41
30.0
176
     1
 62
     5
 63
     8
421
  8421504
176
     1
 74
     1
176
     1
 91
        4
176
     1
 64
     7
176
     1
 65
   257
176
     1
 75
     1
176
     1
175
     1
176
     1
 42
1.0
176
     1
 92
        8
176
     1
 66
     8
424
  8421504
176
     1
 43
1.0
176
     1
 76
     1
176
     1
 77
     6
176
     1
 78
     2
176
     1
 67
     7
176
     1
 79
     5
176
     1
170
     0
176
     1
171
     0
176
     1
290
     0
176
     1
 93
        1
176
     1
 44
0.0
176
     1
173
     0
176
     1
  0
VISUALSTYLE
  5
34
102
{ACAD_REACTORS
330
2A
102
}
102
{ACAD_XDICTIONARY
360
259
102
}
330
2A
100
AcDbVisualStyle
  2
Conceptual
 70
     9
177
     2
291
     0
 71
     3
176
     1
 72
     2
176
     1
 73
     0
176
     1
 90
        0
176
     1
 40
0.6
176
     1
 41
30.0
176
     1
 62
     5
 63
     7
421
 16777215
176
     1
 74
     2
176
     1
 91
        2
176
     1
 64
     7
176
     1
 65
   257
176
     1
 75
     1
176
     1
175
     1
176
     1
 42
179.0
176
     1
 92
        8
176
     1
 66
     7
176
     1
 43
1.0
176
     1
 76
     1
176
     1
 77
     6
176
     1
 78
     2
176
     1
 67
     7
176
     1
 79
     3
176
     1
170
     0
176
     1
171
     0
176
     1
290
     0
176
     1
 93
        1
176
     1
 44
0.0
176
     1
173
     0
176
     1
  0
VISUALSTYLE
  5
35
102
{ACAD_REACTORS
330
2A
102
}
102
{ACAD_XDICTIONARY
360
25B
102
}
330
2A
100
AcDbVisualStyle
  2
Dim
 70
    11
177
     2
291
     1
 71
     2
176
     1
 72
     2
176
     1
 73
     0
176
     1
 90
        0
176
     1
 40
0.6
176
     1
 41
30.0
176
     1
 62
     5
 63
     7
421
 16777215
176
     1
 74
     1
176
     1
 91
        4
176
     1
 64
     7
176
     1
 65
   257
176
     1
 75
     1
176
     1
175
     1
176
     1
 42
1.0
176
     1
 92
        8
176
     1
 66
     7
176
     1
 43
1.0
176
     1
 76
     1
176
     1
 77
     6
176
     1
 78
     2
176
     1
 67
     7
176
     1
 79
     5
176
     1
170
     0
176
     1
171
     0
176
     1
290
     0
176
     1
 93
        1
176
     1
 44
-50.0
176
     1
173
     0
176
     1
  0
VISUALSTYLE
  5
3D
102
{ACAD_REACTORS
330
2A
102
}
102
{ACAD_XDICTIONARY
360
26B
102
}
330
2A
100
AcDbVisualStyle
  2
EdgeColorOff
 70
    22
177
     2
291
     1
 71
     2
176
     0
 72
     2
176
     0
 73
     0
176
     0
 90
        0
176
     0
 40
0.6
176
     0
 41
30.0
176
     0
 62
     5
 63
     7
421
 16777215
176
     0
 74
     1
176
     0
 91
        4
176
     0
 64
     7
176
     0
 65
   257
176
     0
 75
     1
176
     0
175
     1
176
     0
 42
1.0
176
     0
 92
        8
176
     2
 66
     7
176
     0
 43
1.0
176
     0
 76
     1
176
     0
 77
     6
176
     0
 78
     2
176
     0
 67
     7
176
     0
 79
     5
176
     0
170
     0
176
     0
171
     0
176
     0
290
     0
176
     0
 93
        1
176
     0
 44
0.0
176
     0
173
     0
176
     0
  0
VISUALSTYLE
  5
39
102
{ACAD_REACTORS
330
2A
102
}
102
{ACAD_XDICTIONARY
360
263
102
}
330
2A
100
AcDbVisualStyle
  2
Facepattern
 70
    15
177
     2
291
     1
 71
     2
176
     1
 72
     2
176
     1
 73
     0
176
     1
 90
        0
176
     1
 40
0.6
176
     1
 41
30.0
176
     1
 62
     5
 63
     7
421
 16777215
176
     1
 74
     1
176
     1
 91
        4
176
     1
 64
     7
176
     1
 65
   257
176
     1
 75
     1
176
     1
175
     1
176
     1
 42
1.0
176
     1
 92
        8
176
     1
 66
     7
176
     1
 43
1.0
176
     1
 76
     1
176
     1
 77
     6
176
     1
 78
     2
176
     1
 67
     7
176
     1
 79
     5
176
     1
170
     0
176
     1
171
     0
176
     1
290
     0
176
     1
 93
        1
176
     1
 44
0.0
176
     1
173
     0
176
     1
  0
VISUALSTYLE
  5
2B
102
{ACAD_REACTORS
330
2A
102
}
102
{ACAD_XDICTIONARY
360
247
102
}
330
2A
100
AcDbVisualStyle
  2
Flat
 70
     0
177
     2
291
     1
 71
     2
176
     1
 72
     1
176
     1
 73
     1
176
     1
 90
        2
176
     1
 40
0.6
176
     1
 41
30.0
176
     1
 62
     5
 63
     7
421
 16777215
176
     1
 74
     0
176
     1
 91
        0
176
     1
 64
     7
176
     1
 65
   257
176
     1
 75
     1
176
     1
175
     1
176
     1
 42
1.0
176
     1
 92
        8
176
     1
 66
     7
176
     1
 43
1.0
176
     1
 76
     1
176
     1
 77
     6
176
     1
 78
     2
176
     1
 67
     7
176
     1
 79
     5
176
     1
170
     0
176
     1
171
     0
176
     1
290
     0
176
     1
 93
       13
176
     1
 44
0.0
176
     1
173
     0
176
     1
  0
VISUALSTYLE
  5
2C
102
{ACAD_REACTORS
330
2A
102
}
102
{ACAD_XDICTIONARY
360
249
102
}
330
2A
100
AcDbVisualStyle
  2
FlatWithEdges
 70
     1
177
     2
291
     1
 71
     2
176
     1
 72
     1
176
     1
 73
     1
176
     1
 90
        2
176
     1
 40
0.6
176
     1
 41
30.0
176
     1
 62
     5
 63
     7
421
 16777215
176
     1
 74
     1
176
     1
 91
        0
176
     1
 64
     7
176
     1
 65
   257
176
     1
 75
     1
176
     1
175
     1
176
     1
 42
1.0
176
     1
 92
        0
176
     1
 66
   257
176
     1
 43
1.0
176
     1
 76
     1
176
     1
 77
     6
176
     1
 78
     2
176
     1
 67
     7
176
     1
 79
     5
176
     1
170
     0
176
     1
171
     0
176
     1
290
     0
176
     1
 93
       13
176
     1
 44
0.0
176
     1
173
     0
176
     1
  0
VISUALSTYLE
  5
2D
102
{ACAD_REACTORS
330
2A
102
}
102
{ACAD_XDICTIONARY
360
24B
102
}
330
2A
100
AcDbVisualStyle
  2
Gouraud
 70
     2
177
     2
291
     1
 71
     2
176
     1
 72
     2
176
     1
 73
     1
176
     1
 90
        2
176
     1
 40
0.6
176
     1
 41
30.0
176
     1
 62
     5
 63
     7
421
 16777215
176
     1
 74
     0
176
     1
 91
        0
176
     1
 64
     7
176
     1
 65
   257
176
     1
 75
     1
176
     1
175
     1
176
     1
 42
1.0
176
     1
 92
        0
176
     1
 66
     7
176
     1
 43
1.0
176
     1
 76
     1
176
     1
 77
     6
176
     1
 78
     2
176
     1
 67
     7
176
     1
 79
     5
176
     1
170
     0
176
     1
171
     0
176
     1
290
     0
176
     1
 93
       13
176
     1
 44
0.0
176
     1
173
     0
176
     1
  0
VISUALSTYLE
  5
2E
102
{ACAD_REACTORS
330
2A
102
}
102
{ACAD_XDICTIONARY
360
24D
102
}
330
2A
100
AcDbVisualStyle
  2
GouraudWithEdges
 70
     3
177
     2
291
     1
 71
     2
176
     1
 72
     2
176
     1
 73
     1
176
     1
 90
        2
176
     1
 40
0.6
176
     1
 41
30.0
176
     1
 62
     5
 63
     7
421
 16777215
176
     1
 74
     1
176
     1
 91
        0
176
     1
 64
     7
176
     1
 65
   257
176
     1
 75
     1
176
     1
175
     1
176
     1
 42
1.0
176
     1
 92
        0
176
     1
 66
   257
176
     1
 43
1.0
176
     1
 76
     1
176
     1
 77
     6
176
     1
 78
     2
176
     1
 67
     7
176
     1
 79
     5
176
     1
170
     0
176
     1
171
     0
176
     1
290
     0
176
     1
 93
       13
176
     1
 44
0.0
176
     1
173
     0
176
     1
  0
VISUALSTYLE
  5
31
102
{ACAD_REACTORS
330
2A
102
}
102
{ACAD_XDICTIONARY
360
253
102
}
330
2A
100
AcDbVisualStyle
  2
Hidden
 70
     6
177
     2
291
     0
 71
     1
176
     1
 72
     2
176
     1
 73
     2
176
     1
 90
        0
176
     1
 40
0.6
176
     1
 41
30.0
176
     1
 62
     5
 63
     7
421
 16777215
176
     1
 74
     2
176
     1
 91
        2
176
     1
 64
     7
176
     1
 65
   257
176
     1
 75
     2
176
     1
175
     1
176
     1
 42
40.0
176
     1
 92
        0
176
     1
 66
   257
176
     1
 43
1.0
176
     1
 76
     1
176
     1
 77
     6
176
     1
 78
     2
176
     1
 67
     7
176
     1
 79
     3
176
     1
170
     0
176
     1
171
     0
176
     1
290
     0
176
     1
 93
        1
176
     1
 44
0.0
176
     1
173
     0
176
     1
  0
VISUALSTYLE
  5
3B
102
{ACAD_REACTORS
330
2A
102
}
102
{ACAD_XDICTIONARY
360
267
102
}
330
2A
100
AcDbVisualStyle
  2
JitterOff
 70
    20
177
     2
291
     1
 71
     2
176
     0
 72
     2
176
     0
 73
     0
176
     0
 90
        0
176
     0
 40
0.6
176
     0
 41
30.0
176
     0
 62
     5
 63
     7
421
 16777215
176
     0
 74
     1
176
     0
 91
        4
176
     0
 64
     7
176
     0
 65
   257
176
     0
 75
     1
176
     0
175
     1
176
     0
 42
1.0
176
     0
 92
       10
176
     2
 66
     7
176
     0
 43
1.0
176
     0
 76
     1
176
     0
 77
     6
176
     0
 78
     2
176
     0
 67
     7
176
     0
 79
     5
176
     0
170
     0
176
     0
171
     0
176
     0
290
     0
176
     0
 93
        1
176
     0
 44
0.0
176
     0
173
     0
176
     0
  0
VISUALSTYLE
  5
38
102
{ACAD_REACTORS
330
2A
102
}
102
{ACAD_XDICTIONARY
360
261
102
}
330
2A
100
AcDbVisualStyle
  2
Linepattern
 70
    14
177
     2
291
     1
 71
     2
176
     1
 72
     2
176
     1
 73
     0
176
     1
 90
        0
176
     1
 40
0.6
176
     1
 41
30.0
176
     1
 62
     5
 63
     7
421
 16777215
176
     1
 74
     1
176
     1
 91
        4
176
     1
 64
     7
176
     1
 65
   257
176
     1
 75
     7
176
     1
175
     7
176
     1
 42
1.0
176
     1
 92
        8
176
     1
 66
     7
176
     1
 43
1.0
176
     1
 76
     1
176
     1
 77
     6
176
     1
 78
     2
176
     1
 67
     7
176
     1
 79
     5
176
     1
170
     0
176
     1
171
     0
176
     1
290
     0
176
     1
 93
        1
176
     1
 44
0.0
176
     1
173
     0
176
     1
  0
VISUALSTYLE
  5
3C
102
{ACAD_REACTORS
330
2A
102
}
102
{ACAD_XDICTIONARY
360
269
102
}
330
2A
100
AcDbVisualStyle
  2
OverhangOff
 70
    21
177
     2
291
     1
 71
     2
176
     0
 72
     2
176
     0
 73
     0
176
     0
 90
        0
176
     0
 40
0.6
176
     0
 41
30.0
176
     0
 62
     5
 63
     7
421
 16777215
176
     0
 74
     1
176
     0
 91
        4
176
     0
 64
     7
176
     0
 65
   257
176
     0
 75
     1
176
     0
175
     1
176
     0
 42
1.0
176
     0
 92
        9
176
     2
 66
     7
176
     0
 43
1.0
176
     0
 76
     1
176
     0
 77
     6
176
     0
 78
     2
176
     0
 67
     7
176
     0
 79
     5
176
     0
170
     0
176
     0
171
     0
176
     0
290
     0
176
     0
 93
        1
176
     0
 44
0.0
176
     0
173
     0
176
     0
  0
VISUALSTYLE
  5
33
102
{ACAD_REACTORS
330
2A
102
}
102
{ACAD_XDICTIONARY
360
257
102
}
330
2A
100
AcDbVisualStyle
  2
Realistic
 70
     8
177
     2
291
     0
 71
     2
176
     1
 72
     3
176
     1
 73
     0
176
     1
 90
        2
176
     1
 40
0.6
176
     1
 41
30.0
176
     1
 62
     5
 63
     7
421
 16777215
176
     1
 74
     0
176
     1
 91
        0
176
     1
 64
     7
176
     1
 65
   257
176
     1
 75
     1
176
     1
175
     1
176
     1
 42
1.0
176
     1
 92
        8
176
     1
 66
   257
176
     1
 43
1.0
176
     1
 76
     1
176
     1
 77
     6
176
     1
 78
     2
176
     1
 67
     7
176
     1
 79
     3
176
     1
170
     0
176
     1
171
     0
176
     1
290
     0
176
     1
 93
       13
176
     1
 44
0.0
176
     1
173
     0
176
     1
  0
VISUALSTYLE
  5
42
102
{ACAD_REACTORS
330
2A
102
}
102
{ACAD_XDICTIONARY
360
275
102
}
330
2A
100
AcDbVisualStyle
  2
Shaded
 70
    27
177
     2
291
     0
 71
     2
176
     1
 72
     2
176
     1
 73
     1
176
     1
 90
        2
176
     1
 40
0.6
176
     1
 41
30.0
176
     1
 62
     5
 63
     7
421
 16777215
176
     1
 74
     0
176
     1
 91
        4
176
     1
 64
     7
176
     1
 65
   257
176
     1
 75
     1
176
     1
175
     1
176
     1
 42
1.0
176
     1
 92
        8
176
     1
 66
   257
176
     1
 43
1.0
176
     1
 76
     1
176
     1
 77
     6
176
     1
 78
     2
176
     1
 67
     8
425
  7895160
176
     1
 79
     3
176
     1
170
     0
176
     1
171
     0
176
     1
290
     0
176
     1
 93
        5
176
     1
 44
0.0
176
     1
173
     0
176
     1
  0
VISUALSTYLE
  5
41
102
{ACAD_REACTORS
330
2A
102
}
102
{ACAD_XDICTIONARY
360
273
102
}
330
2A
100
AcDbVisualStyle
  2
Shaded with edges
 70
    26
177
     2
291
     0
 71
     2
176
     1
 72
     2
176
     1
 73
     1
176
     1
 90
        2
176
     1
 40
0.6
176
     1
 41
30.0
176
     1
 62
     5
 63
     7
421
 16777215
176
     1
 74
     1
176
     1
 91
       10
176
     1
 64
     7
176
     1
 65
   257
176
     1
 75
     2
176
     1
175
     1
176
     1
 42
1.0
176
     1
 92
        8
176
     1
 66
   257
176
     1
 43
1.0
176
     1
 76
     1
176
     1
 77
     6
176
     1
 78
     2
176
     1
 67
     7
176
     1
 79
     3
176
     1
170
     0
176
     1
171
     0
176
     1
290
     0
176
     1
 93
        5
176
     1
 44
0.0
176
     1
173
     0
176
     1
  0
VISUALSTYLE
  5
3E
102
{ACAD_REACTORS
330
2A
102
}
102
{ACAD_XDICTIONARY
360
26D
102
}
330
2A
100
AcDbVisualStyle
  2
Shades of Gray
 70
    23
177
     2
291
     0
 71
     2
176
     1
 72
     2
176
     1
 73
     3
176
     1
 90
        0
176
     1
 40
0.6
176
     1
 41
30.0
176
     1
 62
     5
 63
     7
421
 16777215
176
     1
 74
     2
176
     1
 91
        2
176
     1
 64
     7
176
     1
 65
     7
176
     1
 75
     1
176
     1
175
     1
176
     1
 42
40.0
176
     1
 92
        8
176
     1
 66
     7
176
     1
 43
1.0
176
     1
 76
     1
176
     1
 77
     6
176
     1
 78
     2
176
     1
 67
     7
176
     1
 79
     3
176
     1
170
     0
176
     1
171
     0
176
     1
290
     0
176
     1
 93
        1
176
     1
 44
0.0
176
     1
173
     0
176
     1
  0
VISUALSTYLE
  5
3F
102
{ACAD_REACTORS
330
2A
102
}
102
{ACAD_XDICTIONARY
360
26F
102
}
330
2A
100
AcDbVisualStyle
  2
Sketchy
 70
    24
177
     2
291
     0
 71
     1
176
     1
 72
     2
176
     1
 73
     2
176
     1
 90
        0
176
     1
 40
0.6
176
     1
 41
30.0
176
     1
 62
     5
 63
     7
421
 16777215
176
     1
 74
     2
176
     1
 91
        2
176
     1
 64
     7
176
     1
 65
     7
176
     1
 75
     1
176
     1
175
     1
176
     1
 42
40.0
176
     1
 92
       11
176
     1
 66
     7
176
     1
 43
1.0
176
     1
 76
     1
176
     1
 77
     6
176
     1
 78
     2
176
     1
 67
     7
176
     1
 79
     6
176
     1
170
     0
176
     1
171
     0
176
     1
290
     0
176
     1
 93
        1
176
     1
 44
0.0
176
     1
173
     0
176
     1
  0
VISUALSTYLE
  5
37
102
{ACAD_REACTORS
330
2A
102
}
102
{ACAD_XDICTIONARY
360
25F
102
}
330
2A
100
AcDbVisualStyle
  2
Thicken
 70
    13
177
     2
291
     1
 71
     2
176
     1
 72
     2
176
     1
 73
     0
176
     1
 90
        0
176
     1
 40
0.6
176
     1
 41
30.0
176
     1
 62
     5
 63
     7
421
 16777215
176
     1
 74
     1
176
     1
 91
        4
176
     1
 64
     7
176
     1
 65
   257
176
     1
 75
     1
176
     1
175
     1
176
     1
 42
1.0
176
     1
 92
       12
176
     1
 66
     7
176
     1
 43
1.0
176
     1
 76
     1
176
     1
 77
     6
176
     1
 78
     2
176
     1
 67
     7
176
     1
 79
     5
176
     1
170
     0
176
     1
171
     0
176
     1
290
     0
176
     1
 93
        1
176
     1
 44
0.0
176
     1
173
     0
176
     1
  0
VISUALSTYLE
  5
30
102
{ACAD_REACTORS
330
2A
102
}
102
{ACAD_XDICTIONARY
360
251
102
}
330
2A
100
AcDbVisualStyle
  2
Wireframe
 70
     5
177
     2
291
     0
 71
     0
176
     1
 72
     2
176
     1
 73
     0
176
     1
 90
        0
176
     1
 40
0.6
176
     1
 41
30.0
176
     1
 62
     5
 63
     7
421
 16777215
176
     1
 74
     1
176
     1
 91
        4
176
     1
 64
     7
176
     1
 65
   257
176
     1
 75
     1
176
     1
175
     1
176
     1
 42
1.0
176
     1
 92
        0
176
     1
 66
   257
176
     1
 43
1.0
176
     1
 76
     1
176
     1
 77
     6
176
     1
 78
     2
176
     1
 67
     7
176
     1
 79
     3
176
     1
170
     0
176
     1
171
     0
176
     1
290
     0
176
     1
 93
        1
176
     1
 44
0.0
176
     1
173
     0
176
     1
  0
VISUALSTYLE
  5
40
102
{ACAD_REACTORS
330
2A
102
}
102
{ACAD_XDICTIONARY
360
271
102
}
330
2A
100
AcDbVisualStyle
  2
X-Ray
 70
    25
177
     2
291
     0
 71
     2
176
     1
 72
     2
176
     1
 73
     1
176
     1
 90
        1
176
     1
 40
0.5
176
     1
 41
30.0
176
     1
 62
     5
 63
     7
421
 16777215
176
     1
 74
     1
176
     1
 91
        0
176
     1
 64
     7
176
     1
 65
   257
176
     1
 75
     1
176
     1
175
     1
176
     1
 42
1.0
176
     1
 92
        8
176
     1
 66
     7
176
     1
 43
1.0
176
     1
 76
     1
176
     1
 77
     6
176
     1
 78
     2
176
     1
 67
     7
176
     1
 79
     3
176
     1
170
     0
176
     1
171
     0
176
     1
290
     0
176
     1
 93
       13
176
     1
 44
0.0
176
     1
173
     0
176
     1
  0
DICTIONARYVAR
  5
246
102
{ACAD_REACTORS
330
245
102
}
330
245
100
DictionaryVariables
280
     0
  1
1:1
  0
DICTIONARYVAR
  5
27B
102
{ACAD_REACTORS
330
245
102
}
330
245
100
DictionaryVariables
280
     0
  1
Standard
  0
DICTIONARYVAR
  5
27A
102
{ACAD_REACTORS
330
245
102
}
330
245
100
DictionaryVariables
280
     0
  1
Standard
  0
DICTIONARY
  5
277
330
6A
100
AcDbDictionary
280
     1
281
     1
  3
ACAD_ROUNDTRIP_2008_TABLESTYLE_CELLSTYLEMAP
360
278
  0
DICTIONARY
  5
24F
330
2F
100
AcDbDictionary
280
     1
281
     1
  3
ACAD_XREC_ROUNDTRIP
360
250
  0
DICTIONARY
  5
255
330
32
100
AcDbDictionary
280
     1
281
     1
  3
ACAD_XREC_ROUNDTRIP
360
256
  0
DICTIONARY
  5
25D
330
36
100
AcDbDictionary
280
     1
281
     1
  3
ACAD_XREC_ROUNDTRIP
360
25E
  0
DICTIONARY
  5
265
330
3A
100
AcDbDictionary
280
     1
281
     1
  3
ACAD_XREC_ROUNDTRIP
360
266
  0
DICTIONARY
  5
259
330
34
100
AcDbDictionary
280
     1
281
     1
  3
ACAD_XREC_ROUNDTRIP
360
25A
  0
DICTIONARY
  5
25B
330
35
100
AcDbDictionary
280
     1
281
     1
  3
ACAD_XREC_ROUNDTRIP
360
25C
  0
DICTIONARY
  5
26B
330
3D
100
AcDbDictionary
280
     1
281
     1
  3
ACAD_XREC_ROUNDTRIP
360
26C
  0
DICTIONARY
  5
263
330
39
100
AcDbDictionary
280
     1
281
     1
  3
ACAD_XREC_ROUNDTRIP
360
264
  0
DICTIONARY
  5
247
330
2B
100
AcDbDictionary
280
     1
281
     1
  3
ACAD_XREC_ROUNDTRIP
360
248
  0
DICTIONARY
  5
249
330
2C
100
AcDbDictionary
280
     1
281
     1
  3
ACAD_XREC_ROUNDTRIP
360
24A
  0
DICTIONARY
  5
24B
330
2D
100
AcDbDictionary
280
     1
281
     1
  3
ACAD_XREC_ROUNDTRIP
360
24C
  0
DICTIONARY
  5
24D
330
2E
100
AcDbDictionary
280
     1
281
     1
  3
ACAD_XREC_ROUNDTRIP
360
24E
  0
DICTIONARY
  5
253
330
31
100
AcDbDictionary
280
     1
281
     1
  3
ACAD_XREC_ROUNDTRIP
360
254
  0
DICTIONARY
  5
267
330
3B
100
AcDbDictionary
280
     1
281
     1
  3
ACAD_XREC_ROUNDTRIP
360
268
  0
DICTIONARY
  5
261
330
38
100
AcDbDictionary
280
     1
281
     1
  3
ACAD_XREC_ROUNDTRIP
360
262
  0
DICTIONARY
  5
269
330
3C
100
AcDbDictionary
280
     1
281
     1
  3
ACAD_XREC_ROUNDTRIP
360
26A
  0
DICTIONARY
  5
257
330
33
100
AcDbDictionary
280
     1
281
     1
  3
ACAD_XREC_ROUNDTRIP
360
258
  0
DICTIONARY
  5
275
330
42
100
AcDbDictionary
280
     1
281
     1
  3
ACAD_XREC_ROUNDTRIP
360
276
  0
DICTIONARY
  5
273
330
41
100
AcDbDictionary
280
     1
281
     1
  3
ACAD_XREC_ROUNDTRIP
360
274
  0
DICTIONARY
  5
26D
330
3E
100
AcDbDictionary
280
     1
281
     1
  3
ACAD_XREC_ROUNDTRIP
360
26E
  0
DICTIONARY
  5
26F
330
3F
100
AcDbDictionary
280
     1
281
     1
  3
ACAD_XREC_ROUNDTRIP
360
270
  0
DICTIONARY
  5
25F
330
37
100
AcDbDictionary
280
     1
281
     1
  3
ACAD_XREC_ROUNDTRIP
360
260
  0
DICTIONARY
  5
251
330
30
100
AcDbDictionary
280
     1
281
     1
  3
ACAD_XREC_ROUNDTRIP
360
252
  0
DICTIONARY
  5
271
330
40
100
AcDbDictionary
280
     1
281
     1
  3
ACAD_XREC_ROUNDTRIP
360
272
  0
CELLSTYLEMAP
  5
278
102
{ACAD_REACTORS
330
277
102
}
330
277
100
AcDbCellStyleMap
 90
        3
300
CELLSTYLE
  1
TABLEFORMAT_BEGIN
 90
        5
170
     1
 91
        0
 92
    32768
 62
   257
 93
        1
300
CONTENTFORMAT
  1
CONTENTFORMAT_BEGIN
 90
        0
 91
        0
 92
        4
 93
        0
300

 40
0.0
140
1.0
 94
        5
 62
     0
340
11
144
6.0
309
CONTENTFORMAT_END
171
     1
301
MARGIN
  1
CELLMARGIN_BEGIN
 40
1.5
 40
1.5
 40
1.5
 40
1.5
 40
1.5
 40
1.5
309
CELLMARGIN_END
 94
        6
 95
        1
302
GRIDFORMAT
  1
GRIDFORMAT_BEGIN
 90
        0
 91
        1
 62
     0
 92
       -2
340
14
 93
        0
 40
0.045
309
GRIDFORMAT_END
 95
        2
302
GRIDFORMAT
  1
GRIDFORMAT_BEGIN
 90
        0
 91
        1
 62
     0
 92
       -2
340
14
 93
        0
 40
0.045
309
GRIDFORMAT_END
 95
        4
302
GRIDFORMAT
  1
GRIDFORMAT_BEGIN
 90
        0
 91
        1
 62
     0
 92
       -2
340
14
 93
        0
 40
0.045
309
GRIDFORMAT_END
 95
        8
302
GRIDFORMAT
  1
GRIDFORMAT_BEGIN
 90
        0
 91
        1
 62
     0
 92
       -2
340
14
 93
        0
 40
0.045
309
GRIDFORMAT_END
 95
       16
302
GRIDFORMAT
  1
GRIDFORMAT_BEGIN
 90
        0
 91
        1
 62
     0
 92
       -2
340
14
 93
        0
 40
0.045
309
GRIDFORMAT_END
 95
       32
302
GRIDFORMAT
  1
GRIDFORMAT_BEGIN
 90
        0
 91
        1
 62
     0
 92
       -2
340
14
 93
        0
 40
0.045
309
GRIDFORMAT_END
309
TABLEFORMAT_END
  1
CELLSTYLE_BEGIN
 90
        1
 91
        1
300
_TITLE
309
CELLSTYLE_END
300
CELLSTYLE
  1
TABLEFORMAT_BEGIN
 90
        5
170
     1
 91
        0
 92
        0
 62
   257
 93
        1
300
CONTENTFORMAT
  1
CONTENTFORMAT_BEGIN
 90
        0
 91
        0
 92
        4
 93
        0
300

 40
0.0
140
1.0
 94
        5
 62
     0
340
11
144
4.5
309
CONTENTFORMAT_END
171
     1
301
MARGIN
  1
CELLMARGIN_BEGIN
 40
1.5
 40
1.5
 40
1.5
 40
1.5
 40
1.5
 40
1.5
309
CELLMARGIN_END
 94
        6
 95
        1
302
GRIDFORMAT
  1
GRIDFORMAT_BEGIN
 90
        0
 91
        1
 62
     0
 92
       -2
340
14
 93
        0
 40
0.045
309
GRIDFORMAT_END
 95
        2
302
GRIDFORMAT
  1
GRIDFORMAT_BEGIN
 90
        0
 91
        1
 62
     0
 92
       -2
340
14
 93
        0
 40
0.045
309
GRIDFORMAT_END
 95
        4
302
GRIDFORMAT
  1
GRIDFORMAT_BEGIN
 90
        0
 91
        1
 62
     0
 92
       -2
340
14
 93
        0
 40
0.045
309
GRIDFORMAT_END
 95
        8
302
GRIDFORMAT
  1
GRIDFORMAT_BEGIN
 90
        0
 91
        1
 62
     0
 92
       -2
340
14
 93
        0
 40
0.045
309
GRIDFORMAT_END
 95
       16
302
GRIDFORMAT
  1
GRIDFORMAT_BEGIN
 90
        0
 91
        1
 62
     0
 92
       -2
340
14
 93
        0
 40
0.045
309
GRIDFORMAT_END
 95
       32
302
GRIDFORMAT
  1
GRIDFORMAT_BEGIN
 90
        0
 91
        1
 62
     0
 92
       -2
340
14
 93
        0
 40
0.045
309
GRIDFORMAT_END
309
TABLEFORMAT_END
  1
CELLSTYLE_BEGIN
 90
        2
 91
        1
300
_HEADER
309
CELLSTYLE_END
300
CELLSTYLE
  1
TABLEFORMAT_BEGIN
 90
        5
170
     1
 91
        0
 92
        0
 62
   257
 93
        1
300
CONTENTFORMAT
  1
CONTENTFORMAT_BEGIN
 90
        0
 91
        0
 92
        4
 93
        0
300

 40
0.0
140
1.0
 94
        2
 62
     0
340
11
144
4.5
309
CONTENTFORMAT_END
171
     1
301
MARGIN
  1
CELLMARGIN_BEGIN
 40
1.5
 40
1.5
 40
1.5
 40
1.5
 40
1.5
 40
1.5
309
CELLMARGIN_END
 94
        6
 95
        1
302
GRIDFORMAT
  1
GRIDFORMAT_BEGIN
 90
        0
 91
        1
 62
     0
 92
       -2
340
14
 93
        0
 40
0.045
309
GRIDFORMAT_END
 95
        2
302
GRIDFORMAT
  1
GRIDFORMAT_BEGIN
 90
        0
 91
        1
 62
     0
 92
       -2
340
14
 93
        0
 40
0.045
309
GRIDFORMAT_END
 95
        4
302
GRIDFORMAT
  1
GRIDFORMAT_BEGIN
 90
        0
 91
        1
 62
     0
 92
       -2
340
14
 93
        0
 40
0.045
309
GRIDFORMAT_END
 95
        8
302
GRIDFORMAT
  1
GRIDFORMAT_BEGIN
 90
        0
 91
        1
 62
     0
 92
       -2
340
14
 93
        0
 40
0.045
309
GRIDFORMAT_END
 95
       16
302
GRIDFORMAT
  1
GRIDFORMAT_BEGIN
 90
        0
 91
        1
 62
     0
 92
       -2
340
14
 93
        0
 40
0.045
309
GRIDFORMAT_END
 95
       32
302
GRIDFORMAT
  1
GRIDFORMAT_BEGIN
 90
        0
 91
        1
 62
     0
 92
       -2
340
14
 93
        0
 40
0.045
309
GRIDFORMAT_END
309
TABLEFORMAT_END
  1
CELLSTYLE_BEGIN
 90
        3
 91
        2
300
_DATA
309
CELLSTYLE_END
  0
XRECORD
  5
250
102
{ACAD_REACTORS
330
24F
102
}
330
24F
100
AcDbXrecord
280
     1
102
RTVSPost2010Prop28
280
     1
102
RTVSPost2010PropOp28
 70
     1
102
RTVSPost2010Prop29
280
     1
102
RTVSPost2010PropOp29
 70
     1
102
RTVSPost2010Prop30
280
     0
102
RTVSPost2010PropOp30
 70
     1
102
RTVSPost2010Prop31
280
     0
102
RTVSPost2010PropOp31
 70
     1
102
RTVSPost2010Prop32
280
     0
102
RTVSPost2010PropOp32
 70
     1
102
RTVSPost2010Prop33
280
     0
102
RTVSPost2010PropOp33
 70
     1
102
RTVSPost2010Prop34
280
     0
102
RTVSPost2010PropOp34
 70
     1
102
RTVSPost2010Prop35
280
     0
102
RTVSPost2010PropOp35
 70
     1
102
RTVSPost2010Prop36
280
     0
102
RTVSPost2010PropOp36
 70
     1
102
RTVSPost2010Prop37
 90
       50
102
RTVSPost2010PropOp37
 70
     1
102
RTVSPost2010Prop38
140
0.0
102
RTVSPost2010PropOp38
 70
     1
102
RTVSPost2010Prop39
140
1.0
102
RTVSPost2010PropOp39
 70
     1
102
RTVSPost2010Prop40
 90
        0
102
RTVSPost2010PropOp40
 70
     1
102
RTVSPost2010Prop41ColorIndex
 90
       18
102
RTVSPost2010Prop41ColorRGB
 90
        0
102
RTVSPost2010PropOp41
 70
     1
102
RTVSPost2010Prop42
 90
       50
102
RTVSPost2010PropOp42
 70
     1
102
RTVSPost2010Prop43
 90
        3
102
RTVSPost2010PropOp43
 70
     1
102
RTVSPost2010Prop44ColorIndex
 90
        5
102
RTVSPost2010Prop44ColorRGB
 90
      255
102
RTVSPost2010PropOp44
 70
     1
102
RTVSPost2010Prop45
280
     0
102
RTVSPost2010PropOp45
 70
     1
102
RTVSPost2010Prop46
 90
       50
102
RTVSPost2010PropOp46
 70
     1
102
RTVSPost2010Prop47
 90
       50
102
RTVSPost2010PropOp47
 70
     1
102
RTVSPost2010Prop48
 90
       50
102
RTVSPost2010PropOp48
 70
     1
102
RTVSPost2010Prop49
280
     0
102
RTVSPost2010PropOp49
 70
     1
102
RTVSPost2010Prop50
 90
       50
102
RTVSPost2010PropOp50
 70
     1
102
RTVSPost2010Prop51ColorIndex
 90
      256
102
RTVSPost2010Prop51ColorRGB
 90
-16777216
102
RTVSPost2010PropOp51
 70
     0
102
RTVSPost2010Prop52
140
1.0
102
RTVSPost2010PropOp52
 70
     0
102
RTVSPost2010Prop53
 90
        2
102
RTVSPost2010PropOp53
 70
     1
102
RTVSPost2010Prop54
  1
strokes_ogs.tif
102
RTVSPost2010PropOp54
 70
     1
102
RTVSPost2010Prop55
280
     0
102
RTVSPost2010PropOp55
 70
     1
102
RTVSPost2010Prop56
140
1.0
102
RTVSPost2010PropOp56
 70
     1
102
RTVSPost2010Prop57
140
1.0
102
RTVSPost2010PropOp57
 70
     1
  0
XRECORD
  5
256
102
{ACAD_REACTORS
330
255
102
}
330
255
100
AcDbXrecord
280
     1
102
RTVSPost2010Prop28
280
     0
102
RTVSPost2010PropOp28
 70
     1
102
RTVSPost2010Prop29
280
     1
102
RTVSPost2010PropOp29
 70
     1
102
RTVSPost2010Prop30
280
     1
102
RTVSPost2010PropOp30
 70
     1
102
RTVSPost2010Prop31
280
     0
102
RTVSPost2010PropOp31
 70
     1
102
RTVSPost2010Prop32
280
     0
102
RTVSPost2010PropOp32
 70
     1
102
RTVSPost2010Prop33
280
     0
102
RTVSPost2010PropOp33
 70
     1
102
RTVSPost2010Prop34
280
     0
102
RTVSPost2010PropOp34
 70
     1
102
RTVSPost2010Prop35
280
     0
102
RTVSPost2010PropOp35
 70
     1
102
RTVSPost2010Prop36
280
     0
102
RTVSPost2010PropOp36
 70
     1
102
RTVSPost2010Prop37
 90
       50
102
RTVSPost2010PropOp37
 70
     1
102
RTVSPost2010Prop38
140
0.0
102
RTVSPost2010PropOp38
 70
     1
102
RTVSPost2010Prop39
140
1.0
102
RTVSPost2010PropOp39
 70
     1
102
RTVSPost2010Prop40
 90
        0
102
RTVSPost2010PropOp40
 70
     1
102
RTVSPost2010Prop41ColorIndex
 90
       18
102
RTVSPost2010Prop41ColorRGB
 90
        0
102
RTVSPost2010PropOp41
 70
     1
102
RTVSPost2010Prop42
 90
       50
102
RTVSPost2010PropOp42
 70
     1
102
RTVSPost2010Prop43
 90
        3
102
RTVSPost2010PropOp43
 70
     1
102
RTVSPost2010Prop44ColorIndex
 90
        5
102
RTVSPost2010Prop44ColorRGB
 90
      255
102
RTVSPost2010PropOp44
 70
     1
102
RTVSPost2010Prop45
280
     0
102
RTVSPost2010PropOp45
 70
     1
102
RTVSPost2010Prop46
 90
       50
102
RTVSPost2010PropOp46
 70
     1
102
RTVSPost2010Prop47
 90
       50
102
RTVSPost2010PropOp47
 70
     1
102
RTVSPost2010Prop48
 90
       50
102
RTVSPost2010PropOp48
 70
     1
102
RTVSPost2010Prop49
280
     0
102
RTVSPost2010PropOp49
 70
     1
102
RTVSPost2010Prop50
 90
       50
102
RTVSPost2010PropOp50
 70
     1
102
RTVSPost2010Prop51ColorIndex
 90
      256
102
RTVSPost2010Prop51ColorRGB
 90
-16777216
102
RTVSPost2010PropOp51
 70
     0
102
RTVSPost2010Prop52
140
1.0
102
RTVSPost2010PropOp52
 70
     0
102
RTVSPost2010Prop53
 90
        2
102
RTVSPost2010PropOp53
 70
     1
102
RTVSPost2010Prop54
  1
strokes_ogs.tif
102
RTVSPost2010PropOp54
 70
     1
102
RTVSPost2010Prop55
280
     0
102
RTVSPost2010PropOp55
 70
     1
102
RTVSPost2010Prop56
140
1.0
102
RTVSPost2010PropOp56
 70
     1
102
RTVSPost2010Prop57
140
1.0
102
RTVSPost2010PropOp57
 70
     1
  0
XRECORD
  5
25E
102
{ACAD_REACTORS
330
25D
102
}
330
25D
100
AcDbXrecord
280
     1
102
RTVSPost2010Prop28
280
     0
102
RTVSPost2010PropOp28
 70
     1
102
RTVSPost2010Prop29
280
     1
102
RTVSPost2010PropOp29
 70
     1
102
RTVSPost2010Prop30
280
     1
102
RTVSPost2010PropOp30
 70
     1
102
RTVSPost2010Prop31
280
     0
102
RTVSPost2010PropOp31
 70
     1
102
RTVSPost2010Prop32
280
     0
102
RTVSPost2010PropOp32
 70
     1
102
RTVSPost2010Prop33
280
     0
102
RTVSPost2010PropOp33
 70
     1
102
RTVSPost2010Prop34
280
     0
102
RTVSPost2010PropOp34
 70
     1
102
RTVSPost2010Prop35
280
     0
102
RTVSPost2010PropOp35
 70
     1
102
RTVSPost2010Prop36
280
     0
102
RTVSPost2010PropOp36
 70
     1
102
RTVSPost2010Prop37
 90
       50
102
RTVSPost2010PropOp37
 70
     1
102
RTVSPost2010Prop38
140
0.0
102
RTVSPost2010PropOp38
 70
     1
102
RTVSPost2010Prop39
140
1.0
102
RTVSPost2010PropOp39
 70
     1
102
RTVSPost2010Prop40
 90
        0
102
RTVSPost2010PropOp40
 70
     1
102
RTVSPost2010Prop41ColorIndex
 90
       18
102
RTVSPost2010Prop41ColorRGB
 90
        0
102
RTVSPost2010PropOp41
 70
     1
102
RTVSPost2010Prop42
 90
       50
102
RTVSPost2010PropOp42
 70
     1
102
RTVSPost2010Prop43
 90
        3
102
RTVSPost2010PropOp43
 70
     1
102
RTVSPost2010Prop44ColorIndex
 90
        5
102
RTVSPost2010Prop44ColorRGB
 90
      255
102
RTVSPost2010PropOp44
 70
     1
102
RTVSPost2010Prop45
280
     0
102
RTVSPost2010PropOp45
 70
     1
102
RTVSPost2010Prop46
 90
       50
102
RTVSPost2010PropOp46
 70
     1
102
RTVSPost2010Prop47
 90
       50
102
RTVSPost2010PropOp47
 70
     1
102
RTVSPost2010Prop48
 90
       50
102
RTVSPost2010PropOp48
 70
     1
102
RTVSPost2010Prop49
280
     0
102
RTVSPost2010PropOp49
 70
     1
102
RTVSPost2010Prop50
 90
       50
102
RTVSPost2010PropOp50
 70
     1
102
RTVSPost2010Prop51ColorIndex
 90
      256
102
RTVSPost2010Prop51ColorRGB
 90
-16777216
102
RTVSPost2010PropOp51
 70
     0
102
RTVSPost2010Prop52
140
1.0
102
RTVSPost2010PropOp52
 70
     0
102
RTVSPost2010Prop53
 90
        2
102
RTVSPost2010PropOp53
 70
     1
102
RTVSPost2010Prop54
  1
strokes_ogs.tif
102
RTVSPost2010PropOp54
 70
     1
102
RTVSPost2010Prop55
280
     0
102
RTVSPost2010PropOp55
 70
     1
102
RTVSPost2010Prop56
140
1.0
102
RTVSPost2010PropOp56
 70
     1
102
RTVSPost2010Prop57
140
1.0
102
RTVSPost2010PropOp57
 70
     1
  0
XRECORD
  5
266
102
{ACAD_REACTORS
330
265
102
}
330
265
100
AcDbXrecord
280
     1
102
RTVSPost2010Prop28
280
     0
102
RTVSPost2010PropOp28
 70
     1
102
RTVSPost2010Prop29
280
     1
102
RTVSPost2010PropOp29
 70
     1
102
RTVSPost2010Prop30
280
     1
102
RTVSPost2010PropOp30
 70
     1
102
RTVSPost2010Prop31
280
     0
102
RTVSPost2010PropOp31
 70
     1
102
RTVSPost2010Prop32
280
     0
102
RTVSPost2010PropOp32
 70
     1
102
RTVSPost2010Prop33
280
     0
102
RTVSPost2010PropOp33
 70
     1
102
RTVSPost2010Prop34
280
     0
102
RTVSPost2010PropOp34
 70
     1
102
RTVSPost2010Prop35
280
     0
102
RTVSPost2010PropOp35
 70
     1
102
RTVSPost2010Prop36
280
     0
102
RTVSPost2010PropOp36
 70
     1
102
RTVSPost2010Prop37
 90
       50
102
RTVSPost2010PropOp37
 70
     1
102
RTVSPost2010Prop38
140
0.0
102
RTVSPost2010PropOp38
 70
     1
102
RTVSPost2010Prop39
140
1.0
102
RTVSPost2010PropOp39
 70
     1
102
RTVSPost2010Prop40
 90
        0
102
RTVSPost2010PropOp40
 70
     1
102
RTVSPost2010Prop41ColorIndex
 90
       18
102
RTVSPost2010Prop41ColorRGB
 90
        0
102
RTVSPost2010PropOp41
 70
     1
102
RTVSPost2010Prop42
 90
       50
102
RTVSPost2010PropOp42
 70
     1
102
RTVSPost2010Prop43
 90
        3
102
RTVSPost2010PropOp43
 70
     1
102
RTVSPost2010Prop44ColorIndex
 90
        5
102
RTVSPost2010Prop44ColorRGB
 90
      255
102
RTVSPost2010PropOp44
 70
     1
102
RTVSPost2010Prop45
280
     0
102
RTVSPost2010PropOp45
 70
     1
102
RTVSPost2010Prop46
 90
       50
102
RTVSPost2010PropOp46
 70
     1
102
RTVSPost2010Prop47
 90
       50
102
RTVSPost2010PropOp47
 70
     1
102
RTVSPost2010Prop48
 90
       50
102
RTVSPost2010PropOp48
 70
     1
102
RTVSPost2010Prop49
280
     0
102
RTVSPost2010PropOp49
 70
     1
102
RTVSPost2010Prop50
 90
       50
102
RTVSPost2010PropOp50
 70
     1
102
RTVSPost2010Prop51ColorIndex
 90
      256
102
RTVSPost2010Prop51ColorRGB
 90
-16777216
102
RTVSPost2010PropOp51
 70
     0
102
RTVSPost2010Prop52
140
1.0
102
RTVSPost2010PropOp52
 70
     0
102
RTVSPost2010Prop53
 90
        2
102
RTVSPost2010PropOp53
 70
     1
102
RTVSPost2010Prop54
  1
strokes_ogs.tif
102
RTVSPost2010PropOp54
 70
     1
102
RTVSPost2010Prop55
280
     0
102
RTVSPost2010PropOp55
 70
     1
102
RTVSPost2010Prop56
140
1.0
102
RTVSPost2010PropOp56
 70
     1
102
RTVSPost2010Prop57
140
1.0
102
RTVSPost2010PropOp57
 70
     1
  0
XRECORD
  5
25A
102
{ACAD_REACTORS
330
259
102
}
330
259
100
AcDbXrecord
280
     1
102
RTVSPost2010Prop28
280
     0
102
RTVSPost2010PropOp28
 70
     1
102
RTVSPost2010Prop29
280
     1
102
RTVSPost2010PropOp29
 70
     1
102
RTVSPost2010Prop30
280
     1
102
RTVSPost2010PropOp30
 70
     1
102
RTVSPost2010Prop31
280
     0
102
RTVSPost2010PropOp31
 70
     1
102
RTVSPost2010Prop32
280
     0
102
RTVSPost2010PropOp32
 70
     1
102
RTVSPost2010Prop33
280
     0
102
RTVSPost2010PropOp33
 70
     1
102
RTVSPost2010Prop34
280
     0
102
RTVSPost2010PropOp34
 70
     1
102
RTVSPost2010Prop35
280
     0
102
RTVSPost2010PropOp35
 70
     1
102
RTVSPost2010Prop36
280
     0
102
RTVSPost2010PropOp36
 70
     1
102
RTVSPost2010Prop37
 90
       50
102
RTVSPost2010PropOp37
 70
     1
102
RTVSPost2010Prop38
140
0.0
102
RTVSPost2010PropOp38
 70
     1
102
RTVSPost2010Prop39
140
1.0
102
RTVSPost2010PropOp39
 70
     1
102
RTVSPost2010Prop40
 90
        0
102
RTVSPost2010PropOp40
 70
     1
102
RTVSPost2010Prop41ColorIndex
 90
       18
102
RTVSPost2010Prop41ColorRGB
 90
        0
102
RTVSPost2010PropOp41
 70
     1
102
RTVSPost2010Prop42
 90
       50
102
RTVSPost2010PropOp42
 70
     1
102
RTVSPost2010Prop43
 90
        3
102
RTVSPost2010PropOp43
 70
     1
102
RTVSPost2010Prop44ColorIndex
 90
        5
102
RTVSPost2010Prop44ColorRGB
 90
      255
102
RTVSPost2010PropOp44
 70
     1
102
RTVSPost2010Prop45
280
     0
102
RTVSPost2010PropOp45
 70
     1
102
RTVSPost2010Prop46
 90
       50
102
RTVSPost2010PropOp46
 70
     1
102
RTVSPost2010Prop47
 90
       50
102
RTVSPost2010PropOp47
 70
     1
102
RTVSPost2010Prop48
 90
       50
102
RTVSPost2010PropOp48
 70
     1
102
RTVSPost2010Prop49
280
     0
102
RTVSPost2010PropOp49
 70
     1
102
RTVSPost2010Prop50
 90
       50
102
RTVSPost2010PropOp50
 70
     1
102
RTVSPost2010Prop51ColorIndex
 90
      256
102
RTVSPost2010Prop51ColorRGB
 90
-16777216
102
RTVSPost2010PropOp51
 70
     0
102
RTVSPost2010Prop52
140
1.0
102
RTVSPost2010PropOp52
 70
     0
102
RTVSPost2010Prop53
 90
        2
102
RTVSPost2010PropOp53
 70
     1
102
RTVSPost2010Prop54
  1
strokes_ogs.tif
102
RTVSPost2010PropOp54
 70
     1
102
RTVSPost2010Prop55
280
     0
102
RTVSPost2010PropOp55
 70
     1
102
RTVSPost2010Prop56
140
1.0
102
RTVSPost2010PropOp56
 70
     1
102
RTVSPost2010Prop57
140
1.0
102
RTVSPost2010PropOp57
 70
     1
  0
XRECORD
  5
25C
102
{ACAD_REACTORS
330
25B
102
}
330
25B
100
AcDbXrecord
280
     1
102
RTVSPost2010Prop28
280
     0
102
RTVSPost2010PropOp28
 70
     1
102
RTVSPost2010Prop29
280
     1
102
RTVSPost2010PropOp29
 70
     1
102
RTVSPost2010Prop30
280
     1
102
RTVSPost2010PropOp30
 70
     1
102
RTVSPost2010Prop31
280
     0
102
RTVSPost2010PropOp31
 70
     1
102
RTVSPost2010Prop32
280
     0
102
RTVSPost2010PropOp32
 70
     1
102
RTVSPost2010Prop33
280
     0
102
RTVSPost2010PropOp33
 70
     1
102
RTVSPost2010Prop34
280
     0
102
RTVSPost2010PropOp34
 70
     1
102
RTVSPost2010Prop35
280
     0
102
RTVSPost2010PropOp35
 70
     1
102
RTVSPost2010Prop36
280
     0
102
RTVSPost2010PropOp36
 70
     1
102
RTVSPost2010Prop37
 90
       50
102
RTVSPost2010PropOp37
 70
     1
102
RTVSPost2010Prop38
140
0.0
102
RTVSPost2010PropOp38
 70
     1
102
RTVSPost2010Prop39
140
1.0
102
RTVSPost2010PropOp39
 70
     1
102
RTVSPost2010Prop40
 90
        0
102
RTVSPost2010PropOp40
 70
     1
102
RTVSPost2010Prop41ColorIndex
 90
       18
102
RTVSPost2010Prop41ColorRGB
 90
        0
102
RTVSPost2010PropOp41
 70
     1
102
RTVSPost2010Prop42
 90
       50
102
RTVSPost2010PropOp42
 70
     1
102
RTVSPost2010Prop43
 90
        3
102
RTVSPost2010PropOp43
 70
     1
102
RTVSPost2010Prop44ColorIndex
 90
        5
102
RTVSPost2010Prop44ColorRGB
 90
      255
102
RTVSPost2010PropOp44
 70
     1
102
RTVSPost2010Prop45
280
     0
102
RTVSPost2010PropOp45
 70
     1
102
RTVSPost2010Prop46
 90
       50
102
RTVSPost2010PropOp46
 70
     1
102
RTVSPost2010Prop47
 90
       50
102
RTVSPost2010PropOp47
 70
     1
102
RTVSPost2010Prop48
 90
       50
102
RTVSPost2010PropOp48
 70
     1
102
RTVSPost2010Prop49
280
     0
102
RTVSPost2010PropOp49
 70
     1
102
RTVSPost2010Prop50
 90
       50
102
RTVSPost2010PropOp50
 70
     1
102
RTVSPost2010Prop51ColorIndex
 90
      256
102
RTVSPost2010Prop51ColorRGB
 90
-16777216
102
RTVSPost2010PropOp51
 70
     0
102
RTVSPost2010Prop52
140
1.0
102
RTVSPost2010PropOp52
 70
     0
102
RTVSPost2010Prop53
 90
        2
102
RTVSPost2010PropOp53
 70
     1
102
RTVSPost2010Prop54
  1
strokes_ogs.tif
102
RTVSPost2010PropOp54
 70
     1
102
RTVSPost2010Prop55
280
     0
102
RTVSPost2010PropOp55
 70
     1
102
RTVSPost2010Prop56
140
1.0
102
RTVSPost2010PropOp56
 70
     1
102
RTVSPost2010Prop57
140
1.0
102
RTVSPost2010PropOp57
 70
     1
  0
XRECORD
  5
26C
102
{ACAD_REACTORS
330
26B
102
}
330
26B
100
AcDbXrecord
280
     1
102
RTVSPost2010Prop28
280
     0
102
RTVSPost2010PropOp28
 70
     0
102
RTVSPost2010Prop29
280
     1
102
RTVSPost2010PropOp29
 70
     0
102
RTVSPost2010Prop30
280
     1
102
RTVSPost2010PropOp30
 70
     0
102
RTVSPost2010Prop31
280
     0
102
RTVSPost2010PropOp31
 70
     0
102
RTVSPost2010Prop32
280
     0
102
RTVSPost2010PropOp32
 70
     0
102
RTVSPost2010Prop33
280
     0
102
RTVSPost2010PropOp33
 70
     0
102
RTVSPost2010Prop34
280
     0
102
RTVSPost2010PropOp34
 70
     0
102
RTVSPost2010Prop35
280
     0
102
RTVSPost2010PropOp35
 70
     0
102
RTVSPost2010Prop36
280
     0
102
RTVSPost2010PropOp36
 70
     0
102
RTVSPost2010Prop37
 90
       50
102
RTVSPost2010PropOp37
 70
     0
102
RTVSPost2010Prop38
140
0.0
102
RTVSPost2010PropOp38
 70
     0
102
RTVSPost2010Prop39
140
1.0
102
RTVSPost2010PropOp39
 70
     0
102
RTVSPost2010Prop40
 90
        0
102
RTVSPost2010PropOp40
 70
     0
102
RTVSPost2010Prop41ColorIndex
 90
       18
102
RTVSPost2010Prop41ColorRGB
 90
        0
102
RTVSPost2010PropOp41
 70
     0
102
RTVSPost2010Prop42
 90
       50
102
RTVSPost2010PropOp42
 70
     0
102
RTVSPost2010Prop43
 90
        3
102
RTVSPost2010PropOp43
 70
     0
102
RTVSPost2010Prop44ColorIndex
 90
        5
102
RTVSPost2010Prop44ColorRGB
 90
      255
102
RTVSPost2010PropOp44
 70
     0
102
RTVSPost2010Prop45
280
     0
102
RTVSPost2010PropOp45
 70
     0
102
RTVSPost2010Prop46
 90
       50
102
RTVSPost2010PropOp46
 70
     0
102
RTVSPost2010Prop47
 90
       50
102
RTVSPost2010PropOp47
 70
     0
102
RTVSPost2010Prop48
 90
       50
102
RTVSPost2010PropOp48
 70
     0
102
RTVSPost2010Prop49
280
     0
102
RTVSPost2010PropOp49
 70
     0
102
RTVSPost2010Prop50
 90
       50
102
RTVSPost2010PropOp50
 70
     0
102
RTVSPost2010Prop51ColorIndex
 90
      256
102
RTVSPost2010Prop51ColorRGB
 90
-16777216
102
RTVSPost2010PropOp51
 70
     0
102
RTVSPost2010Prop52
140
1.0
102
RTVSPost2010PropOp52
 70
     0
102
RTVSPost2010Prop53
 90
        2
102
RTVSPost2010PropOp53
 70
     0
102
RTVSPost2010Prop54
  1
strokes_ogs.tif
102
RTVSPost2010PropOp54
 70
     0
102
RTVSPost2010Prop55
280
     0
102
RTVSPost2010PropOp55
 70
     0
102
RTVSPost2010Prop56
140
1.0
102
RTVSPost2010PropOp56
 70
     0
102
RTVSPost2010Prop57
140
1.0
102
RTVSPost2010PropOp57
 70
     0
  0
XRECORD
  5
264
102
{ACAD_REACTORS
330
263
102
}
330
263
100
AcDbXrecord
280
     1
102
RTVSPost2010Prop28
280
     0
102
RTVSPost2010PropOp28
 70
     1
102
RTVSPost2010Prop29
280
     1
102
RTVSPost2010PropOp29
 70
     1
102
RTVSPost2010Prop30
280
     1
102
RTVSPost2010PropOp30
 70
     1
102
RTVSPost2010Prop31
280
     0
102
RTVSPost2010PropOp31
 70
     1
102
RTVSPost2010Prop32
280
     0
102
RTVSPost2010PropOp32
 70
     1
102
RTVSPost2010Prop33
280
     0
102
RTVSPost2010PropOp33
 70
     1
102
RTVSPost2010Prop34
280
     0
102
RTVSPost2010PropOp34
 70
     1
102
RTVSPost2010Prop35
280
     0
102
RTVSPost2010PropOp35
 70
     1
102
RTVSPost2010Prop36
280
     0
102
RTVSPost2010PropOp36
 70
     1
102
RTVSPost2010Prop37
 90
       50
102
RTVSPost2010PropOp37
 70
     1
102
RTVSPost2010Prop38
140
0.0
102
RTVSPost2010PropOp38
 70
     1
102
RTVSPost2010Prop39
140
1.0
102
RTVSPost2010PropOp39
 70
     1
102
RTVSPost2010Prop40
 90
        0
102
RTVSPost2010PropOp40
 70
     1
102
RTVSPost2010Prop41ColorIndex
 90
       18
102
RTVSPost2010Prop41ColorRGB
 90
        0
102
RTVSPost2010PropOp41
 70
     1
102
RTVSPost2010Prop42
 90
       50
102
RTVSPost2010PropOp42
 70
     1
102
RTVSPost2010Prop43
 90
        3
102
RTVSPost2010PropOp43
 70
     1
102
RTVSPost2010Prop44ColorIndex
 90
        5
102
RTVSPost2010Prop44ColorRGB
 90
      255
102
RTVSPost2010PropOp44
 70
     1
102
RTVSPost2010Prop45
280
     0
102
RTVSPost2010PropOp45
 70
     1
102
RTVSPost2010Prop46
 90
       50
102
RTVSPost2010PropOp46
 70
     1
102
RTVSPost2010Prop47
 90
       50
102
RTVSPost2010PropOp47
 70
     1
102
RTVSPost2010Prop48
 90
       50
102
RTVSPost2010PropOp48
 70
     1
102
RTVSPost2010Prop49
280
     0
102
RTVSPost2010PropOp49
 70
     1
102
RTVSPost2010Prop50
 90
       50
102
RTVSPost2010PropOp50
 70
     1
102
RTVSPost2010Prop51ColorIndex
 90
      256
102
RTVSPost2010Prop51ColorRGB
 90
-16777216
102
RTVSPost2010PropOp51
 70
     0
102
RTVSPost2010Prop52
140
1.0
102
RTVSPost2010PropOp52
 70
     0
102
RTVSPost2010Prop53
 90
        2
102
RTVSPost2010PropOp53
 70
     1
102
RTVSPost2010Prop54
  1
strokes_ogs.tif
102
RTVSPost2010PropOp54
 70
     1
102
RTVSPost2010Prop55
280
     0
102
RTVSPost2010PropOp55
 70
     1
102
RTVSPost2010Prop56
140
1.0
102
RTVSPost2010PropOp56
 70
     1
102
RTVSPost2010Prop57
140
1.0
102
RTVSPost2010PropOp57
 70
     1
  0
XRECORD
  5
248
102
{ACAD_REACTORS
330
247
102
}
330
247
100
AcDbXrecord
280
     1
102
RTVSPost2010Prop28
280
     0
102
RTVSPost2010PropOp28
 70
     1
102
RTVSPost2010Prop29
280
     1
102
RTVSPost2010PropOp29
 70
     1
102
RTVSPost2010Prop30
280
     1
102
RTVSPost2010PropOp30
 70
     1
102
RTVSPost2010Prop31
280
     0
102
RTVSPost2010PropOp31
 70
     1
102
RTVSPost2010Prop32
280
     0
102
RTVSPost2010PropOp32
 70
     1
102
RTVSPost2010Prop33
280
     0
102
RTVSPost2010PropOp33
 70
     1
102
RTVSPost2010Prop34
280
     0
102
RTVSPost2010PropOp34
 70
     1
102
RTVSPost2010Prop35
280
     0
102
RTVSPost2010PropOp35
 70
     1
102
RTVSPost2010Prop36
280
     0
102
RTVSPost2010PropOp36
 70
     1
102
RTVSPost2010Prop37
 90
       50
102
RTVSPost2010PropOp37
 70
     1
102
RTVSPost2010Prop38
140
0.0
102
RTVSPost2010PropOp38
 70
     1
102
RTVSPost2010Prop39
140
1.0
102
RTVSPost2010PropOp39
 70
     1
102
RTVSPost2010Prop40
 90
        0
102
RTVSPost2010PropOp40
 70
     1
102
RTVSPost2010Prop41ColorIndex
 90
       18
102
RTVSPost2010Prop41ColorRGB
 90
        0
102
RTVSPost2010PropOp41
 70
     1
102
RTVSPost2010Prop42
 90
       50
102
RTVSPost2010PropOp42
 70
     1
102
RTVSPost2010Prop43
 90
        3
102
RTVSPost2010PropOp43
 70
     1
102
RTVSPost2010Prop44ColorIndex
 90
        5
102
RTVSPost2010Prop44ColorRGB
 90
      255
102
RTVSPost2010PropOp44
 70
     1
102
RTVSPost2010Prop45
280
     0
102
RTVSPost2010PropOp45
 70
     1
102
RTVSPost2010Prop46
 90
       50
102
RTVSPost2010PropOp46
 70
     1
102
RTVSPost2010Prop47
 90
       50
102
RTVSPost2010PropOp47
 70
     1
102
RTVSPost2010Prop48
 90
       50
102
RTVSPost2010PropOp48
 70
     1
102
RTVSPost2010Prop49
280
     0
102
RTVSPost2010PropOp49
 70
     1
102
RTVSPost2010Prop50
 90
       50
102
RTVSPost2010PropOp50
 70
     1
102
RTVSPost2010Prop51ColorIndex
 90
      256
102
RTVSPost2010Prop51ColorRGB
 90
-16777216
102
RTVSPost2010PropOp51
 70
     0
102
RTVSPost2010Prop52
140
1.0
102
RTVSPost2010PropOp52
 70
     0
102
RTVSPost2010Prop53
 90
        2
102
RTVSPost2010PropOp53
 70
     1
102
RTVSPost2010Prop54
  1
strokes_ogs.tif
102
RTVSPost2010PropOp54
 70
     1
102
RTVSPost2010Prop55
280
     0
102
RTVSPost2010PropOp55
 70
     1
102
RTVSPost2010Prop56
140
1.0
102
RTVSPost2010PropOp56
 70
     1
102
RTVSPost2010Prop57
140
1.0
102
RTVSPost2010PropOp57
 70
     1
  0
XRECORD
  5
24A
102
{ACAD_REACTORS
330
249
102
}
330
249
100
AcDbXrecord
280
     1
102
RTVSPost2010Prop28
280
     0
102
RTVSPost2010PropOp28
 70
     1
102
RTVSPost2010Prop29
280
     1
102
RTVSPost2010PropOp29
 70
     1
102
RTVSPost2010Prop30
280
     1
102
RTVSPost2010PropOp30
 70
     1
102
RTVSPost2010Prop31
280
     0
102
RTVSPost2010PropOp31
 70
     1
102
RTVSPost2010Prop32
280
     0
102
RTVSPost2010PropOp32
 70
     1
102
RTVSPost2010Prop33
280
     0
102
RTVSPost2010PropOp33
 70
     1
102
RTVSPost2010Prop34
280
     0
102
RTVSPost2010PropOp34
 70
     1
102
RTVSPost2010Prop35
280
     0
102
RTVSPost2010PropOp35
 70
     1
102
RTVSPost2010Prop36
280
     0
102
RTVSPost2010PropOp36
 70
     1
102
RTVSPost2010Prop37
 90
       50
102
RTVSPost2010PropOp37
 70
     1
102
RTVSPost2010Prop38
140
0.0
102
RTVSPost2010PropOp38
 70
     1
102
RTVSPost2010Prop39
140
1.0
102
RTVSPost2010PropOp39
 70
     1
102
RTVSPost2010Prop40
 90
        0
102
RTVSPost2010PropOp40
 70
     1
102
RTVSPost2010Prop41ColorIndex
 90
       18
102
RTVSPost2010Prop41ColorRGB
 90
        0
102
RTVSPost2010PropOp41
 70
     1
102
RTVSPost2010Prop42
 90
       50
102
RTVSPost2010PropOp42
 70
     1
102
RTVSPost2010Prop43
 90
        3
102
RTVSPost2010PropOp43
 70
     1
102
RTVSPost2010Prop44ColorIndex
 90
        5
102
RTVSPost2010Prop44ColorRGB
 90
      255
102
RTVSPost2010PropOp44
 70
     1
102
RTVSPost2010Prop45
280
     0
102
RTVSPost2010PropOp45
 70
     1
102
RTVSPost2010Prop46
 90
       50
102
RTVSPost2010PropOp46
 70
     1
102
RTVSPost2010Prop47
 90
       50
102
RTVSPost2010PropOp47
 70
     1
102
RTVSPost2010Prop48
 90
       50
102
RTVSPost2010PropOp48
 70
     1
102
RTVSPost2010Prop49
280
     0
102
RTVSPost2010PropOp49
 70
     1
102
RTVSPost2010Prop50
 90
       50
102
RTVSPost2010PropOp50
 70
     1
102
RTVSPost2010Prop51ColorIndex
 90
      256
102
RTVSPost2010Prop51ColorRGB
 90
-16777216
102
RTVSPost2010PropOp51
 70
     0
102
RTVSPost2010Prop52
140
1.0
102
RTVSPost2010PropOp52
 70
     0
102
RTVSPost2010Prop53
 90
        2
102
RTVSPost2010PropOp53
 70
     1
102
RTVSPost2010Prop54
  1
strokes_ogs.tif
102
RTVSPost2010PropOp54
 70
     1
102
RTVSPost2010Prop55
280
     0
102
RTVSPost2010PropOp55
 70
     1
102
RTVSPost2010Prop56
140
1.0
102
RTVSPost2010PropOp56
 70
     1
102
RTVSPost2010Prop57
140
1.0
102
RTVSPost2010PropOp57
 70
     1
  0
XRECORD
  5
24C
102
{ACAD_REACTORS
330
24B
102
}
330
24B
100
AcDbXrecord
280
     1
102
RTVSPost2010Prop28
280
     0
102
RTVSPost2010PropOp28
 70
     1
102
RTVSPost2010Prop29
280
     1
102
RTVSPost2010PropOp29
 70
     1
102
RTVSPost2010Prop30
280
     1
102
RTVSPost2010PropOp30
 70
     1
102
RTVSPost2010Prop31
280
     0
102
RTVSPost2010PropOp31
 70
     1
102
RTVSPost2010Prop32
280
     0
102
RTVSPost2010PropOp32
 70
     1
102
RTVSPost2010Prop33
280
     0
102
RTVSPost2010PropOp33
 70
     1
102
RTVSPost2010Prop34
280
     0
102
RTVSPost2010PropOp34
 70
     1
102
RTVSPost2010Prop35
280
     0
102
RTVSPost2010PropOp35
 70
     1
102
RTVSPost2010Prop36
280
     0
102
RTVSPost2010PropOp36
 70
     1
102
RTVSPost2010Prop37
 90
       50
102
RTVSPost2010PropOp37
 70
     1
102
RTVSPost2010Prop38
140
0.0
102
RTVSPost2010PropOp38
 70
     1
102
RTVSPost2010Prop39
140
1.0
102
RTVSPost2010PropOp39
 70
     1
102
RTVSPost2010Prop40
 90
        0
102
RTVSPost2010PropOp40
 70
     1
102
RTVSPost2010Prop41ColorIndex
 90
       18
102
RTVSPost2010Prop41ColorRGB
 90
        0
102
RTVSPost2010PropOp41
 70
     1
102
RTVSPost2010Prop42
 90
       50
102
RTVSPost2010PropOp42
 70
     1
102
RTVSPost2010Prop43
 90
        3
102
RTVSPost2010PropOp43
 70
     1
102
RTVSPost2010Prop44ColorIndex
 90
        5
102
RTVSPost2010Prop44ColorRGB
 90
      255
102
RTVSPost2010PropOp44
 70
     1
102
RTVSPost2010Prop45
280
     0
102
RTVSPost2010PropOp45
 70
     1
102
RTVSPost2010Prop46
 90
       50
102
RTVSPost2010PropOp46
 70
     1
102
RTVSPost2010Prop47
 90
       50
102
RTVSPost2010PropOp47
 70
     1
102
RTVSPost2010Prop48
 90
       50
102
RTVSPost2010PropOp48
 70
     1
102
RTVSPost2010Prop49
280
     0
102
RTVSPost2010PropOp49
 70
     1
102
RTVSPost2010Prop50
 90
       50
102
RTVSPost2010PropOp50
 70
     1
102
RTVSPost2010Prop51ColorIndex
 90
      256
102
RTVSPost2010Prop51ColorRGB
 90
-16777216
102
RTVSPost2010PropOp51
 70
     0
102
RTVSPost2010Prop52
140
1.0
102
RTVSPost2010PropOp52
 70
     0
102
RTVSPost2010Prop53
 90
        2
102
RTVSPost2010PropOp53
 70
     1
102
RTVSPost2010Prop54
  1
strokes_ogs.tif
102
RTVSPost2010PropOp54
 70
     1
102
RTVSPost2010Prop55
280
     0
102
RTVSPost2010PropOp55
 70
     1
102
RTVSPost2010Prop56
140
1.0
102
RTVSPost2010PropOp56
 70
     1
102
RTVSPost2010Prop57
140
1.0
102
RTVSPost2010PropOp57
 70
     1
  0
XRECORD
  5
24E
102
{ACAD_REACTORS
330
24D
102
}
330
24D
100
AcDbXrecord
280
     1
102
RTVSPost2010Prop28
280
     0
102
RTVSPost2010PropOp28
 70
     1
102
RTVSPost2010Prop29
280
     1
102
RTVSPost2010PropOp29
 70
     1
102
RTVSPost2010Prop30
280
     1
102
RTVSPost2010PropOp30
 70
     1
102
RTVSPost2010Prop31
280
     0
102
RTVSPost2010PropOp31
 70
     1
102
RTVSPost2010Prop32
280
     0
102
RTVSPost2010PropOp32
 70
     1
102
RTVSPost2010Prop33
280
     0
102
RTVSPost2010PropOp33
 70
     1
102
RTVSPost2010Prop34
280
     0
102
RTVSPost2010PropOp34
 70
     1
102
RTVSPost2010Prop35
280
     0
102
RTVSPost2010PropOp35
 70
     1
102
RTVSPost2010Prop36
280
     0
102
RTVSPost2010PropOp36
 70
     1
102
RTVSPost2010Prop37
 90
       50
102
RTVSPost2010PropOp37
 70
     1
102
RTVSPost2010Prop38
140
0.0
102
RTVSPost2010PropOp38
 70
     1
102
RTVSPost2010Prop39
140
1.0
102
RTVSPost2010PropOp39
 70
     1
102
RTVSPost2010Prop40
 90
        0
102
RTVSPost2010PropOp40
 70
     1
102
RTVSPost2010Prop41ColorIndex
 90
       18
102
RTVSPost2010Prop41ColorRGB
 90
        0
102
RTVSPost2010PropOp41
 70
     1
102
RTVSPost2010Prop42
 90
       50
102
RTVSPost2010PropOp42
 70
     1
102
RTVSPost2010Prop43
 90
        3
102
RTVSPost2010PropOp43
 70
     1
102
RTVSPost2010Prop44ColorIndex
 90
        5
102
RTVSPost2010Prop44ColorRGB
 90
      255
102
RTVSPost2010PropOp44
 70
     1
102
RTVSPost2010Prop45
280
     0
102
RTVSPost2010PropOp45
 70
     1
102
RTVSPost2010Prop46
 90
       50
102
RTVSPost2010PropOp46
 70
     1
102
RTVSPost2010Prop47
 90
       50
102
RTVSPost2010PropOp47
 70
     1
102
RTVSPost2010Prop48
 90
       50
102
RTVSPost2010PropOp48
 70
     1
102
RTVSPost2010Prop49
280
     0
102
RTVSPost2010PropOp49
 70
     1
102
RTVSPost2010Prop50
 90
       50
102
RTVSPost2010PropOp50
 70
     1
102
RTVSPost2010Prop51ColorIndex
 90
      256
102
RTVSPost2010Prop51ColorRGB
 90
-16777216
102
RTVSPost2010PropOp51
 70
     0
102
RTVSPost2010Prop52
140
1.0
102
RTVSPost2010PropOp52
 70
     0
102
RTVSPost2010Prop53
 90
        2
102
RTVSPost2010PropOp53
 70
     1
102
RTVSPost2010Prop54
  1
strokes_ogs.tif
102
RTVSPost2010PropOp54
 70
     1
102
RTVSPost2010Prop55
280
     0
102
RTVSPost2010PropOp55
 70
     1
102
RTVSPost2010Prop56
140
1.0
102
RTVSPost2010PropOp56
 70
     1
102
RTVSPost2010Prop57
140
1.0
102
RTVSPost2010PropOp57
 70
     1
  0
XRECORD
  5
254
102
{ACAD_REACTORS
330
253
102
}
330
253
100
AcDbXrecord
280
     1
102
RTVSPost2010Prop28
280
     0
102
RTVSPost2010PropOp28
 70
     1
102
RTVSPost2010Prop29
280
     1
102
RTVSPost2010PropOp29
 70
     1
102
RTVSPost2010Prop30
280
     1
102
RTVSPost2010PropOp30
 70
     1
102
RTVSPost2010Prop31
280
     0
102
RTVSPost2010PropOp31
 70
     1
102
RTVSPost2010Prop32
280
     0
102
RTVSPost2010PropOp32
 70
     1
102
RTVSPost2010Prop33
280
     0
102
RTVSPost2010PropOp33
 70
     1
102
RTVSPost2010Prop34
280
     0
102
RTVSPost2010PropOp34
 70
     1
102
RTVSPost2010Prop35
280
     0
102
RTVSPost2010PropOp35
 70
     1
102
RTVSPost2010Prop36
280
     0
102
RTVSPost2010PropOp36
 70
     1
102
RTVSPost2010Prop37
 90
       50
102
RTVSPost2010PropOp37
 70
     1
102
RTVSPost2010Prop38
140
0.0
102
RTVSPost2010PropOp38
 70
     1
102
RTVSPost2010Prop39
140
1.0
102
RTVSPost2010PropOp39
 70
     1
102
RTVSPost2010Prop40
 90
        0
102
RTVSPost2010PropOp40
 70
     1
102
RTVSPost2010Prop41ColorIndex
 90
       18
102
RTVSPost2010Prop41ColorRGB
 90
        0
102
RTVSPost2010PropOp41
 70
     1
102
RTVSPost2010Prop42
 90
       50
102
RTVSPost2010PropOp42
 70
     1
102
RTVSPost2010Prop43
 90
        3
102
RTVSPost2010PropOp43
 70
     1
102
RTVSPost2010Prop44ColorIndex
 90
        5
102
RTVSPost2010Prop44ColorRGB
 90
      255
102
RTVSPost2010PropOp44
 70
     1
102
RTVSPost2010Prop45
280
     0
102
RTVSPost2010PropOp45
 70
     1
102
RTVSPost2010Prop46
 90
       50
102
RTVSPost2010PropOp46
 70
     1
102
RTVSPost2010Prop47
 90
       50
102
RTVSPost2010PropOp47
 70
     1
102
RTVSPost2010Prop48
 90
       50
102
RTVSPost2010PropOp48
 70
     1
102
RTVSPost2010Prop49
280
     0
102
RTVSPost2010PropOp49
 70
     1
102
RTVSPost2010Prop50
 90
       50
102
RTVSPost2010PropOp50
 70
     1
102
RTVSPost2010Prop51ColorIndex
 90
      256
102
RTVSPost2010Prop51ColorRGB
 90
-16777216
102
RTVSPost2010PropOp51
 70
     0
102
RTVSPost2010Prop52
140
1.0
102
RTVSPost2010PropOp52
 70
     0
102
RTVSPost2010Prop53
 90
        2
102
RTVSPost2010PropOp53
 70
     1
102
RTVSPost2010Prop54
  1
strokes_ogs.tif
102
RTVSPost2010PropOp54
 70
     1
102
RTVSPost2010Prop55
280
     0
102
RTVSPost2010PropOp55
 70
     1
102
RTVSPost2010Prop56
140
1.0
102
RTVSPost2010PropOp56
 70
     1
102
RTVSPost2010Prop57
140
1.0
102
RTVSPost2010PropOp57
 70
     1
  0
XRECORD
  5
268
102
{ACAD_REACTORS
330
267
102
}
330
267
100
AcDbXrecord
280
     1
102
RTVSPost2010Prop28
280
     0
102
RTVSPost2010PropOp28
 70
     0
102
RTVSPost2010Prop29
280
     1
102
RTVSPost2010PropOp29
 70
     0
102
RTVSPost2010Prop30
280
     1
102
RTVSPost2010PropOp30
 70
     0
102
RTVSPost2010Prop31
280
     0
102
RTVSPost2010PropOp31
 70
     0
102
RTVSPost2010Prop32
280
     0
102
RTVSPost2010PropOp32
 70
     0
102
RTVSPost2010Prop33
280
     0
102
RTVSPost2010PropOp33
 70
     0
102
RTVSPost2010Prop34
280
     0
102
RTVSPost2010PropOp34
 70
     0
102
RTVSPost2010Prop35
280
     0
102
RTVSPost2010PropOp35
 70
     0
102
RTVSPost2010Prop36
280
     0
102
RTVSPost2010PropOp36
 70
     0
102
RTVSPost2010Prop37
 90
       50
102
RTVSPost2010PropOp37
 70
     0
102
RTVSPost2010Prop38
140
0.0
102
RTVSPost2010PropOp38
 70
     0
102
RTVSPost2010Prop39
140
1.0
102
RTVSPost2010PropOp39
 70
     0
102
RTVSPost2010Prop40
 90
        0
102
RTVSPost2010PropOp40
 70
     0
102
RTVSPost2010Prop41ColorIndex
 90
       18
102
RTVSPost2010Prop41ColorRGB
 90
        0
102
RTVSPost2010PropOp41
 70
     0
102
RTVSPost2010Prop42
 90
       50
102
RTVSPost2010PropOp42
 70
     0
102
RTVSPost2010Prop43
 90
        3
102
RTVSPost2010PropOp43
 70
     0
102
RTVSPost2010Prop44ColorIndex
 90
        5
102
RTVSPost2010Prop44ColorRGB
 90
      255
102
RTVSPost2010PropOp44
 70
     0
102
RTVSPost2010Prop45
280
     0
102
RTVSPost2010PropOp45
 70
     0
102
RTVSPost2010Prop46
 90
       50
102
RTVSPost2010PropOp46
 70
     0
102
RTVSPost2010Prop47
 90
       50
102
RTVSPost2010PropOp47
 70
     0
102
RTVSPost2010Prop48
 90
       50
102
RTVSPost2010PropOp48
 70
     0
102
RTVSPost2010Prop49
280
     0
102
RTVSPost2010PropOp49
 70
     0
102
RTVSPost2010Prop50
 90
       50
102
RTVSPost2010PropOp50
 70
     0
102
RTVSPost2010Prop51ColorIndex
 90
      256
102
RTVSPost2010Prop51ColorRGB
 90
-16777216
102
RTVSPost2010PropOp51
 70
     0
102
RTVSPost2010Prop52
140
1.0
102
RTVSPost2010PropOp52
 70
     0
102
RTVSPost2010Prop53
 90
        2
102
RTVSPost2010PropOp53
 70
     0
102
RTVSPost2010Prop54
  1
strokes_ogs.tif
102
RTVSPost2010PropOp54
 70
     0
102
RTVSPost2010Prop55
280
     0
102
RTVSPost2010PropOp55
 70
     0
102
RTVSPost2010Prop56
140
1.0
102
RTVSPost2010PropOp56
 70
     0
102
RTVSPost2010Prop57
140
1.0
102
RTVSPost2010PropOp57
 70
     0
  0
XRECORD
  5
262
102
{ACAD_REACTORS
330
261
102
}
330
261
100
AcDbXrecord
280
     1
102
RTVSPost2010Prop28
280
     0
102
RTVSPost2010PropOp28
 70
     1
102
RTVSPost2010Prop29
280
     1
102
RTVSPost2010PropOp29
 70
     1
102
RTVSPost2010Prop30
280
     1
102
RTVSPost2010PropOp30
 70
     1
102
RTVSPost2010Prop31
280
     0
102
RTVSPost2010PropOp31
 70
     1
102
RTVSPost2010Prop32
280
     0
102
RTVSPost2010PropOp32
 70
     1
102
RTVSPost2010Prop33
280
     0
102
RTVSPost2010PropOp33
 70
     1
102
RTVSPost2010Prop34
280
     0
102
RTVSPost2010PropOp34
 70
     1
102
RTVSPost2010Prop35
280
     0
102
RTVSPost2010PropOp35
 70
     1
102
RTVSPost2010Prop36
280
     0
102
RTVSPost2010PropOp36
 70
     1
102
RTVSPost2010Prop37
 90
       50
102
RTVSPost2010PropOp37
 70
     1
102
RTVSPost2010Prop38
140
0.0
102
RTVSPost2010PropOp38
 70
     1
102
RTVSPost2010Prop39
140
1.0
102
RTVSPost2010PropOp39
 70
     1
102
RTVSPost2010Prop40
 90
        0
102
RTVSPost2010PropOp40
 70
     1
102
RTVSPost2010Prop41ColorIndex
 90
       18
102
RTVSPost2010Prop41ColorRGB
 90
        0
102
RTVSPost2010PropOp41
 70
     1
102
RTVSPost2010Prop42
 90
       50
102
RTVSPost2010PropOp42
 70
     1
102
RTVSPost2010Prop43
 90
        3
102
RTVSPost2010PropOp43
 70
     1
102
RTVSPost2010Prop44ColorIndex
 90
        5
102
RTVSPost2010Prop44ColorRGB
 90
      255
102
RTVSPost2010PropOp44
 70
     1
102
RTVSPost2010Prop45
280
     0
102
RTVSPost2010PropOp45
 70
     1
102
RTVSPost2010Prop46
 90
       50
102
RTVSPost2010PropOp46
 70
     1
102
RTVSPost2010Prop47
 90
       50
102
RTVSPost2010PropOp47
 70
     1
102
RTVSPost2010Prop48
 90
       50
102
RTVSPost2010PropOp48
 70
     1
102
RTVSPost2010Prop49
280
     0
102
RTVSPost2010PropOp49
 70
     1
102
RTVSPost2010Prop50
 90
       50
102
RTVSPost2010PropOp50
 70
     1
102
RTVSPost2010Prop51ColorIndex
 90
      256
102
RTVSPost2010Prop51ColorRGB
 90
-16777216
102
RTVSPost2010PropOp51
 70
     0
102
RTVSPost2010Prop52
140
1.0
102
RTVSPost2010PropOp52
 70
     0
102
RTVSPost2010Prop53
 90
        2
102
RTVSPost2010PropOp53
 70
     1
102
RTVSPost2010Prop54
  1
strokes_ogs.tif
102
RTVSPost2010PropOp54
 70
     1
102
RTVSPost2010Prop55
280
     0
102
RTVSPost2010PropOp55
 70
     1
102
RTVSPost2010Prop56
140
1.0
102
RTVSPost2010PropOp56
 70
     1
102
RTVSPost2010Prop57
140
1.0
102
RTVSPost2010PropOp57
 70
     1
  0
XRECORD
  5
26A
102
{ACAD_REACTORS
330
269
102
}
330
269
100
AcDbXrecord
280
     1
102
RTVSPost2010Prop28
280
     0
102
RTVSPost2010PropOp28
 70
     0
102
RTVSPost2010Prop29
280
     1
102
RTVSPost2010PropOp29
 70
     0
102
RTVSPost2010Prop30
280
     1
102
RTVSPost2010PropOp30
 70
     0
102
RTVSPost2010Prop31
280
     0
102
RTVSPost2010PropOp31
 70
     0
102
RTVSPost2010Prop32
280
     0
102
RTVSPost2010PropOp32
 70
     0
102
RTVSPost2010Prop33
280
     0
102
RTVSPost2010PropOp33
 70
     0
102
RTVSPost2010Prop34
280
     0
102
RTVSPost2010PropOp34
 70
     0
102
RTVSPost2010Prop35
280
     0
102
RTVSPost2010PropOp35
 70
     0
102
RTVSPost2010Prop36
280
     0
102
RTVSPost2010PropOp36
 70
     0
102
RTVSPost2010Prop37
 90
       50
102
RTVSPost2010PropOp37
 70
     0
102
RTVSPost2010Prop38
140
0.0
102
RTVSPost2010PropOp38
 70
     0
102
RTVSPost2010Prop39
140
1.0
102
RTVSPost2010PropOp39
 70
     0
102
RTVSPost2010Prop40
 90
        0
102
RTVSPost2010PropOp40
 70
     0
102
RTVSPost2010Prop41ColorIndex
 90
       18
102
RTVSPost2010Prop41ColorRGB
 90
        0
102
RTVSPost2010PropOp41
 70
     0
102
RTVSPost2010Prop42
 90
       50
102
RTVSPost2010PropOp42
 70
     0
102
RTVSPost2010Prop43
 90
        3
102
RTVSPost2010PropOp43
 70
     0
102
RTVSPost2010Prop44ColorIndex
 90
        5
102
RTVSPost2010Prop44ColorRGB
 90
      255
102
RTVSPost2010PropOp44
 70
     0
102
RTVSPost2010Prop45
280
     0
102
RTVSPost2010PropOp45
 70
     0
102
RTVSPost2010Prop46
 90
       50
102
RTVSPost2010PropOp46
 70
     0
102
RTVSPost2010Prop47
 90
       50
102
RTVSPost2010PropOp47
 70
     0
102
RTVSPost2010Prop48
 90
       50
102
RTVSPost2010PropOp48
 70
     0
102
RTVSPost2010Prop49
280
     0
102
RTVSPost2010PropOp49
 70
     0
102
RTVSPost2010Prop50
 90
       50
102
RTVSPost2010PropOp50
 70
     0
102
RTVSPost2010Prop51ColorIndex
 90
      256
102
RTVSPost2010Prop51ColorRGB
 90
-16777216
102
RTVSPost2010PropOp51
 70
     0
102
RTVSPost2010Prop52
140
1.0
102
RTVSPost2010PropOp52
 70
     0
102
RTVSPost2010Prop53
 90
        2
102
RTVSPost2010PropOp53
 70
     0
102
RTVSPost2010Prop54
  1
strokes_ogs.tif
102
RTVSPost2010PropOp54
 70
     0
102
RTVSPost2010Prop55
280
     0
102
RTVSPost2010PropOp55
 70
     0
102
RTVSPost2010Prop56
140
1.0
102
RTVSPost2010PropOp56
 70
     0
102
RTVSPost2010Prop57
140
1.0
102
RTVSPost2010PropOp57
 70
     0
  0
XRECORD
  5
258
102
{ACAD_REACTORS
330
257
102
}
330
257
100
AcDbXrecord
280
     1
102
RTVSPost2010Prop28
280
     0
102
RTVSPost2010PropOp28
 70
     1
102
RTVSPost2010Prop29
280
     1
102
RTVSPost2010PropOp29
 70
     1
102
RTVSPost2010Prop30
280
     1
102
RTVSPost2010PropOp30
 70
     1
102
RTVSPost2010Prop31
280
     0
102
RTVSPost2010PropOp31
 70
     1
102
RTVSPost2010Prop32
280
     0
102
RTVSPost2010PropOp32
 70
     1
102
RTVSPost2010Prop33
280
     0
102
RTVSPost2010PropOp33
 70
     1
102
RTVSPost2010Prop34
280
     0
102
RTVSPost2010PropOp34
 70
     1
102
RTVSPost2010Prop35
280
     0
102
RTVSPost2010PropOp35
 70
     1
102
RTVSPost2010Prop36
280
     0
102
RTVSPost2010PropOp36
 70
     1
102
RTVSPost2010Prop37
 90
       50
102
RTVSPost2010PropOp37
 70
     1
102
RTVSPost2010Prop38
140
0.0
102
RTVSPost2010PropOp38
 70
     1
102
RTVSPost2010Prop39
140
1.0
102
RTVSPost2010PropOp39
 70
     1
102
RTVSPost2010Prop40
 90
        0
102
RTVSPost2010PropOp40
 70
     1
102
RTVSPost2010Prop41ColorIndex
 90
       18
102
RTVSPost2010Prop41ColorRGB
 90
        0
102
RTVSPost2010PropOp41
 70
     1
102
RTVSPost2010Prop42
 90
       50
102
RTVSPost2010PropOp42
 70
     1
102
RTVSPost2010Prop43
 90
        3
102
RTVSPost2010PropOp43
 70
     1
102
RTVSPost2010Prop44ColorIndex
 90
        5
102
RTVSPost2010Prop44ColorRGB
 90
      255
102
RTVSPost2010PropOp44
 70
     1
102
RTVSPost2010Prop45
280
     0
102
RTVSPost2010PropOp45
 70
     1
102
RTVSPost2010Prop46
 90
       50
102
RTVSPost2010PropOp46
 70
     1
102
RTVSPost2010Prop47
 90
       50
102
RTVSPost2010PropOp47
 70
     1
102
RTVSPost2010Prop48
 90
       50
102
RTVSPost2010PropOp48
 70
     1
102
RTVSPost2010Prop49
280
     0
102
RTVSPost2010PropOp49
 70
     1
102
RTVSPost2010Prop50
 90
       50
102
RTVSPost2010PropOp50
 70
     1
102
RTVSPost2010Prop51ColorIndex
 90
      256
102
RTVSPost2010Prop51ColorRGB
 90
-16777216
102
RTVSPost2010PropOp51
 70
     0
102
RTVSPost2010Prop52
140
1.0
102
RTVSPost2010PropOp52
 70
     0
102
RTVSPost2010Prop53
 90
        2
102
RTVSPost2010PropOp53
 70
     1
102
RTVSPost2010Prop54
  1
strokes_ogs.tif
102
RTVSPost2010PropOp54
 70
     1
102
RTVSPost2010Prop55
280
     0
102
RTVSPost2010PropOp55
 70
     1
102
RTVSPost2010Prop56
140
1.0
102
RTVSPost2010PropOp56
 70
     1
102
RTVSPost2010Prop57
140
1.0
102
RTVSPost2010PropOp57
 70
     1
  0
XRECORD
  5
276
102
{ACAD_REACTORS
330
275
102
}
330
275
100
AcDbXrecord
280
     1
102
RTVSPost2010Prop28
280
     0
102
RTVSPost2010PropOp28
 70
     1
102
RTVSPost2010Prop29
280
     1
102
RTVSPost2010PropOp29
 70
     1
102
RTVSPost2010Prop30
280
     1
102
RTVSPost2010PropOp30
 70
     1
102
RTVSPost2010Prop31
280
     0
102
RTVSPost2010PropOp31
 70
     1
102
RTVSPost2010Prop32
280
     0
102
RTVSPost2010PropOp32
 70
     1
102
RTVSPost2010Prop33
280
     0
102
RTVSPost2010PropOp33
 70
     1
102
RTVSPost2010Prop34
280
     0
102
RTVSPost2010PropOp34
 70
     1
102
RTVSPost2010Prop35
280
     0
102
RTVSPost2010PropOp35
 70
     1
102
RTVSPost2010Prop36
280
     0
102
RTVSPost2010PropOp36
 70
     1
102
RTVSPost2010Prop37
 90
       50
102
RTVSPost2010PropOp37
 70
     1
102
RTVSPost2010Prop38
140
0.0
102
RTVSPost2010PropOp38
 70
     1
102
RTVSPost2010Prop39
140
1.0
102
RTVSPost2010PropOp39
 70
     1
102
RTVSPost2010Prop40
 90
        0
102
RTVSPost2010PropOp40
 70
     1
102
RTVSPost2010Prop41ColorIndex
 90
       18
102
RTVSPost2010Prop41ColorRGB
 90
        0
102
RTVSPost2010PropOp41
 70
     1
102
RTVSPost2010Prop42
 90
       50
102
RTVSPost2010PropOp42
 70
     1
102
RTVSPost2010Prop43
 90
        3
102
RTVSPost2010PropOp43
 70
     1
102
RTVSPost2010Prop44ColorIndex
 90
        5
102
RTVSPost2010Prop44ColorRGB
 90
      255
102
RTVSPost2010PropOp44
 70
     1
102
RTVSPost2010Prop45
280
     0
102
RTVSPost2010PropOp45
 70
     1
102
RTVSPost2010Prop46
 90
       50
102
RTVSPost2010PropOp46
 70
     1
102
RTVSPost2010Prop47
 90
       50
102
RTVSPost2010PropOp47
 70
     1
102
RTVSPost2010Prop48
 90
       50
102
RTVSPost2010PropOp48
 70
     1
102
RTVSPost2010Prop49
280
     0
102
RTVSPost2010PropOp49
 70
     1
102
RTVSPost2010Prop50
 90
       50
102
RTVSPost2010PropOp50
 70
     1
102
RTVSPost2010Prop51ColorIndex
 90
      256
102
RTVSPost2010Prop51ColorRGB
 90
-16777216
102
RTVSPost2010PropOp51
 70
     0
102
RTVSPost2010Prop52
140
1.0
102
RTVSPost2010PropOp52
 70
     0
102
RTVSPost2010Prop53
 90
        2
102
RTVSPost2010PropOp53
 70
     1
102
RTVSPost2010Prop54
  1
strokes_ogs.tif
102
RTVSPost2010PropOp54
 70
     1
102
RTVSPost2010Prop55
280
     0
102
RTVSPost2010PropOp55
 70
     1
102
RTVSPost2010Prop56
140
1.0
102
RTVSPost2010PropOp56
 70
     1
102
RTVSPost2010Prop57
140
1.0
102
RTVSPost2010PropOp57
 70
     1
  0
XRECORD
  5
274
102
{ACAD_REACTORS
330
273
102
}
330
273
100
AcDbXrecord
280
     1
102
RTVSPost2010Prop28
280
     0
102
RTVSPost2010PropOp28
 70
     1
102
RTVSPost2010Prop29
280
     1
102
RTVSPost2010PropOp29
 70
     1
102
RTVSPost2010Prop30
280
     1
102
RTVSPost2010PropOp30
 70
     1
102
RTVSPost2010Prop31
280
     0
102
RTVSPost2010PropOp31
 70
     1
102
RTVSPost2010Prop32
280
     0
102
RTVSPost2010PropOp32
 70
     1
102
RTVSPost2010Prop33
280
     0
102
RTVSPost2010PropOp33
 70
     1
102
RTVSPost2010Prop34
280
     0
102
RTVSPost2010PropOp34
 70
     1
102
RTVSPost2010Prop35
280
     0
102
RTVSPost2010PropOp35
 70
     1
102
RTVSPost2010Prop36
280
     0
102
RTVSPost2010PropOp36
 70
     1
102
RTVSPost2010Prop37
 90
       50
102
RTVSPost2010PropOp37
 70
     1
102
RTVSPost2010Prop38
140
0.0
102
RTVSPost2010PropOp38
 70
     1
102
RTVSPost2010Prop39
140
1.0
102
RTVSPost2010PropOp39
 70
     1
102
RTVSPost2010Prop40
 90
        0
102
RTVSPost2010PropOp40
 70
     1
102
RTVSPost2010Prop41ColorIndex
 90
       18
102
RTVSPost2010Prop41ColorRGB
 90
        0
102
RTVSPost2010PropOp41
 70
     1
102
RTVSPost2010Prop42
 90
       50
102
RTVSPost2010PropOp42
 70
     1
102
RTVSPost2010Prop43
 90
        3
102
RTVSPost2010PropOp43
 70
     1
102
RTVSPost2010Prop44ColorIndex
 90
        5
102
RTVSPost2010Prop44ColorRGB
 90
      255
102
RTVSPost2010PropOp44
 70
     1
102
RTVSPost2010Prop45
280
     0
102
RTVSPost2010PropOp45
 70
     1
102
RTVSPost2010Prop46
 90
       50
102
RTVSPost2010PropOp46
 70
     1
102
RTVSPost2010Prop47
 90
       50
102
RTVSPost2010PropOp47
 70
     1
102
RTVSPost2010Prop48
 90
       50
102
RTVSPost2010PropOp48
 70
     1
102
RTVSPost2010Prop49
280
     0
102
RTVSPost2010PropOp49
 70
     1
102
RTVSPost2010Prop50
 90
       50
102
RTVSPost2010PropOp50
 70
     1
102
RTVSPost2010Prop51ColorIndex
 90
      256
102
RTVSPost2010Prop51ColorRGB
 90
-16777216
102
RTVSPost2010PropOp51
 70
     0
102
RTVSPost2010Prop52
140
1.0
102
RTVSPost2010PropOp52
 70
     0
102
RTVSPost2010Prop53
 90
        2
102
RTVSPost2010PropOp53
 70
     1
102
RTVSPost2010Prop54
  1
strokes_ogs.tif
102
RTVSPost2010PropOp54
 70
     1
102
RTVSPost2010Prop55
280
     0
102
RTVSPost2010PropOp55
 70
     1
102
RTVSPost2010Prop56
140
1.0
102
RTVSPost2010PropOp56
 70
     1
102
RTVSPost2010Prop57
140
1.0
102
RTVSPost2010PropOp57
 70
     1
  0
XRECORD
  5
26E
102
{ACAD_REACTORS
330
26D
102
}
330
26D
100
AcDbXrecord
280
     1
102
RTVSPost2010Prop28
280
     0
102
RTVSPost2010PropOp28
 70
     1
102
RTVSPost2010Prop29
280
     1
102
RTVSPost2010PropOp29
 70
     1
102
RTVSPost2010Prop30
280
     1
102
RTVSPost2010PropOp30
 70
     1
102
RTVSPost2010Prop31
280
     0
102
RTVSPost2010PropOp31
 70
     1
102
RTVSPost2010Prop32
280
     0
102
RTVSPost2010PropOp32
 70
     1
102
RTVSPost2010Prop33
280
     0
102
RTVSPost2010PropOp33
 70
     1
102
RTVSPost2010Prop34
280
     0
102
RTVSPost2010PropOp34
 70
     1
102
RTVSPost2010Prop35
280
     0
102
RTVSPost2010PropOp35
 70
     1
102
RTVSPost2010Prop36
280
     0
102
RTVSPost2010PropOp36
 70
     1
102
RTVSPost2010Prop37
 90
       50
102
RTVSPost2010PropOp37
 70
     1
102
RTVSPost2010Prop38
140
0.0
102
RTVSPost2010PropOp38
 70
     1
102
RTVSPost2010Prop39
140
1.0
102
RTVSPost2010PropOp39
 70
     1
102
RTVSPost2010Prop40
 90
        0
102
RTVSPost2010PropOp40
 70
     1
102
RTVSPost2010Prop41ColorIndex
 90
       18
102
RTVSPost2010Prop41ColorRGB
 90
        0
102
RTVSPost2010PropOp41
 70
     1
102
RTVSPost2010Prop42
 90
       50
102
RTVSPost2010PropOp42
 70
     1
102
RTVSPost2010Prop43
 90
        3
102
RTVSPost2010PropOp43
 70
     1
102
RTVSPost2010Prop44ColorIndex
 90
        5
102
RTVSPost2010Prop44ColorRGB
 90
      255
102
RTVSPost2010PropOp44
 70
     1
102
RTVSPost2010Prop45
280
     0
102
RTVSPost2010PropOp45
 70
     1
102
RTVSPost2010Prop46
 90
       50
102
RTVSPost2010PropOp46
 70
     1
102
RTVSPost2010Prop47
 90
       50
102
RTVSPost2010PropOp47
 70
     1
102
RTVSPost2010Prop48
 90
       50
102
RTVSPost2010PropOp48
 70
     1
102
RTVSPost2010Prop49
280
     0
102
RTVSPost2010PropOp49
 70
     1
102
RTVSPost2010Prop50
 90
       50
102
RTVSPost2010PropOp50
 70
     1
102
RTVSPost2010Prop51ColorIndex
 90
      256
102
RTVSPost2010Prop51ColorRGB
 90
-16777216
102
RTVSPost2010PropOp51
 70
     0
102
RTVSPost2010Prop52
140
1.0
102
RTVSPost2010PropOp52
 70
     0
102
RTVSPost2010Prop53
 90
        2
102
RTVSPost2010PropOp53
 70
     1
102
RTVSPost2010Prop54
  1
strokes_ogs.tif
102
RTVSPost2010PropOp54
 70
     1
102
RTVSPost2010Prop55
280
     0
102
RTVSPost2010PropOp55
 70
     1
102
RTVSPost2010Prop56
140
1.0
102
RTVSPost2010PropOp56
 70
     1
102
RTVSPost2010Prop57
140
1.0
102
RTVSPost2010PropOp57
 70
     1
  0
XRECORD
  5
270
102
{ACAD_REACTORS
330
26F
102
}
330
26F
100
AcDbXrecord
280
     1
102
RTVSPost2010Prop28
280
     0
102
RTVSPost2010PropOp28
 70
     1
102
RTVSPost2010Prop29
280
     1
102
RTVSPost2010PropOp29
 70
     1
102
RTVSPost2010Prop30
280
     1
102
RTVSPost2010PropOp30
 70
     1
102
RTVSPost2010Prop31
280
     0
102
RTVSPost2010PropOp31
 70
     1
102
RTVSPost2010Prop32
280
     0
102
RTVSPost2010PropOp32
 70
     1
102
RTVSPost2010Prop33
280
     0
102
RTVSPost2010PropOp33
 70
     1
102
RTVSPost2010Prop34
280
     0
102
RTVSPost2010PropOp34
 70
     1
102
RTVSPost2010Prop35
280
     0
102
RTVSPost2010PropOp35
 70
     1
102
RTVSPost2010Prop36
280
     0
102
RTVSPost2010PropOp36
 70
     1
102
RTVSPost2010Prop37
 90
       50
102
RTVSPost2010PropOp37
 70
     1
102
RTVSPost2010Prop38
140
0.0
102
RTVSPost2010PropOp38
 70
     1
102
RTVSPost2010Prop39
140
1.0
102
RTVSPost2010PropOp39
 70
     1
102
RTVSPost2010Prop40
 90
        0
102
RTVSPost2010PropOp40
 70
     1
102
RTVSPost2010Prop41ColorIndex
 90
       18
102
RTVSPost2010Prop41ColorRGB
 90
        0
102
RTVSPost2010PropOp41
 70
     1
102
RTVSPost2010Prop42
 90
       50
102
RTVSPost2010PropOp42
 70
     1
102
RTVSPost2010Prop43
 90
        3
102
RTVSPost2010PropOp43
 70
     1
102
RTVSPost2010Prop44ColorIndex
 90
        5
102
RTVSPost2010Prop44ColorRGB
 90
      255
102
RTVSPost2010PropOp44
 70
     1
102
RTVSPost2010Prop45
280
     0
102
RTVSPost2010PropOp45
 70
     1
102
RTVSPost2010Prop46
 90
       50
102
RTVSPost2010PropOp46
 70
     1
102
RTVSPost2010Prop47
 90
       50
102
RTVSPost2010PropOp47
 70
     1
102
RTVSPost2010Prop48
 90
       50
102
RTVSPost2010PropOp48
 70
     1
102
RTVSPost2010Prop49
280
     0
102
RTVSPost2010PropOp49
 70
     1
102
RTVSPost2010Prop50
 90
       50
102
RTVSPost2010PropOp50
 70
     1
102
RTVSPost2010Prop51ColorIndex
 90
      256
102
RTVSPost2010Prop51ColorRGB
 90
-16777216
102
RTVSPost2010PropOp51
 70
     0
102
RTVSPost2010Prop52
140
1.0
102
RTVSPost2010PropOp52
 70
     0
102
RTVSPost2010Prop53
 90
        2
102
RTVSPost2010PropOp53
 70
     1
102
RTVSPost2010Prop54
  1
strokes_ogs.tif
102
RTVSPost2010PropOp54
 70
     1
102
RTVSPost2010Prop55
280
     0
102
RTVSPost2010PropOp55
 70
     1
102
RTVSPost2010Prop56
140
1.0
102
RTVSPost2010PropOp56
 70
     1
102
RTVSPost2010Prop57
140
1.0
102
RTVSPost2010PropOp57
 70
     1
  0
XRECORD
  5
260
102
{ACAD_REACTORS
330
25F
102
}
330
25F
100
AcDbXrecord
280
     1
102
RTVSPost2010Prop28
280
     0
102
RTVSPost2010PropOp28
 70
     1
102
RTVSPost2010Prop29
280
     1
102
RTVSPost2010PropOp29
 70
     1
102
RTVSPost2010Prop30
280
     1
102
RTVSPost2010PropOp30
 70
     1
102
RTVSPost2010Prop31
280
     0
102
RTVSPost2010PropOp31
 70
     1
102
RTVSPost2010Prop32
280
     0
102
RTVSPost2010PropOp32
 70
     1
102
RTVSPost2010Prop33
280
     0
102
RTVSPost2010PropOp33
 70
     1
102
RTVSPost2010Prop34
280
     0
102
RTVSPost2010PropOp34
 70
     1
102
RTVSPost2010Prop35
280
     0
102
RTVSPost2010PropOp35
 70
     1
102
RTVSPost2010Prop36
280
     0
102
RTVSPost2010PropOp36
 70
     1
102
RTVSPost2010Prop37
 90
       50
102
RTVSPost2010PropOp37
 70
     1
102
RTVSPost2010Prop38
140
0.0
102
RTVSPost2010PropOp38
 70
     1
102
RTVSPost2010Prop39
140
1.0
102
RTVSPost2010PropOp39
 70
     1
102
RTVSPost2010Prop40
 90
        0
102
RTVSPost2010PropOp40
 70
     1
102
RTVSPost2010Prop41ColorIndex
 90
       18
102
RTVSPost2010Prop41ColorRGB
 90
        0
102
RTVSPost2010PropOp41
 70
     1
102
RTVSPost2010Prop42
 90
       50
102
RTVSPost2010PropOp42
 70
     1
102
RTVSPost2010Prop43
 90
        3
102
RTVSPost2010PropOp43
 70
     1
102
RTVSPost2010Prop44ColorIndex
 90
        5
102
RTVSPost2010Prop44ColorRGB
 90
      255
102
RTVSPost2010PropOp44
 70
     1
102
RTVSPost2010Prop45
280
     0
102
RTVSPost2010PropOp45
 70
     1
102
RTVSPost2010Prop46
 90
       50
102
RTVSPost2010PropOp46
 70
     1
102
RTVSPost2010Prop47
 90
       50
102
RTVSPost2010PropOp47
 70
     1
102
RTVSPost2010Prop48
 90
       50
102
RTVSPost2010PropOp48
 70
     1
102
RTVSPost2010Prop49
280
     0
102
RTVSPost2010PropOp49
 70
     1
102
RTVSPost2010Prop50
 90
       50
102
RTVSPost2010PropOp50
 70
     1
102
RTVSPost2010Prop51ColorIndex
 90
      256
102
RTVSPost2010Prop51ColorRGB
 90
-16777216
102
RTVSPost2010PropOp51
 70
     0
102
RTVSPost2010Prop52
140
1.0
102
RTVSPost2010PropOp52
 70
     0
102
RTVSPost2010Prop53
 90
        2
102
RTVSPost2010PropOp53
 70
     1
102
RTVSPost2010Prop54
  1
strokes_ogs.tif
102
RTVSPost2010PropOp54
 70
     1
102
RTVSPost2010Prop55
280
     0
102
RTVSPost2010PropOp55
 70
     1
102
RTVSPost2010Prop56
140
1.0
102
RTVSPost2010PropOp56
 70
     1
102
RTVSPost2010Prop57
140
1.0
102
RTVSPost2010PropOp57
 70
     1
  0
XRECORD
  5
252
102
{ACAD_REACTORS
330
251
102
}
330
251
100
AcDbXrecord
280
     1
102
RTVSPost2010Prop28
280
     0
102
RTVSPost2010PropOp28
 70
     1
102
RTVSPost2010Prop29
280
     1
102
RTVSPost2010PropOp29
 70
     1
102
RTVSPost2010Prop30
280
     1
102
RTVSPost2010PropOp30
 70
     1
102
RTVSPost2010Prop31
280
     0
102
RTVSPost2010PropOp31
 70
     1
102
RTVSPost2010Prop32
280
     0
102
RTVSPost2010PropOp32
 70
     1
102
RTVSPost2010Prop33
280
     0
102
RTVSPost2010PropOp33
 70
     1
102
RTVSPost2010Prop34
280
     0
102
RTVSPost2010PropOp34
 70
     1
102
RTVSPost2010Prop35
280
     0
102
RTVSPost2010PropOp35
 70
     1
102
RTVSPost2010Prop36
280
     0
102
RTVSPost2010PropOp36
 70
     1
102
RTVSPost2010Prop37
 90
       50
102
RTVSPost2010PropOp37
 70
     1
102
RTVSPost2010Prop38
140
0.0
102
RTVSPost2010PropOp38
 70
     1
102
RTVSPost2010Prop39
140
1.0
102
RTVSPost2010PropOp39
 70
     1
102
RTVSPost2010Prop40
 90
        0
102
RTVSPost2010PropOp40
 70
     1
102
RTVSPost2010Prop41ColorIndex
 90
       18
102
RTVSPost2010Prop41ColorRGB
 90
        0
102
RTVSPost2010PropOp41
 70
     1
102
RTVSPost2010Prop42
 90
       50
102
RTVSPost2010PropOp42
 70
     1
102
RTVSPost2010Prop43
 90
        3
102
RTVSPost2010PropOp43
 70
     1
102
RTVSPost2010Prop44ColorIndex
 90
        5
102
RTVSPost2010Prop44ColorRGB
 90
      255
102
RTVSPost2010PropOp44
 70
     1
102
RTVSPost2010Prop45
280
     0
102
RTVSPost2010PropOp45
 70
     1
102
RTVSPost2010Prop46
 90
       50
102
RTVSPost2010PropOp46
 70
     1
102
RTVSPost2010Prop47
 90
       50
102
RTVSPost2010PropOp47
 70
     1
102
RTVSPost2010Prop48
 90
       50
102
RTVSPost2010PropOp48
 70
     1
102
RTVSPost2010Prop49
280
     0
102
RTVSPost2010PropOp49
 70
     1
102
RTVSPost2010Prop50
 90
       50
102
RTVSPost2010PropOp50
 70
     1
102
RTVSPost2010Prop51ColorIndex
 90
      256
102
RTVSPost2010Prop51ColorRGB
 90
-16777216
102
RTVSPost2010PropOp51
 70
     0
102
RTVSPost2010Prop52
140
1.0
102
RTVSPost2010PropOp52
 70
     0
102
RTVSPost2010Prop53
 90
        2
102
RTVSPost2010PropOp53
 70
     1
102
RTVSPost2010Prop54
  1
strokes_ogs.tif
102
RTVSPost2010PropOp54
 70
     1
102
RTVSPost2010Prop55
280
     0
102
RTVSPost2010PropOp55
 70
     1
102
RTVSPost2010Prop56
140
1.0
102
RTVSPost2010PropOp56
 70
     1
102
RTVSPost2010Prop57
140
1.0
102
RTVSPost2010PropOp57
 70
     1
  0
XRECORD
  5
272
102
{ACAD_REACTORS
330
271
102
}
330
271
100
AcDbXrecord
280
     1
102
RTVSPost2010Prop28
280
     0
102
RTVSPost2010PropOp28
 70
     1
102
RTVSPost2010Prop29
280
     1
102
RTVSPost2010PropOp29
 70
     1
102
RTVSPost2010Prop30
280
     1
102
RTVSPost2010PropOp30
 70
     1
102
RTVSPost2010Prop31
280
     0
102
RTVSPost2010PropOp31
 70
     1
102
RTVSPost2010Prop32
280
     0
102
RTVSPost2010PropOp32
 70
     1
102
RTVSPost2010Prop33
280
     0
102
RTVSPost2010PropOp33
 70
     1
102
RTVSPost2010Prop34
280
     0
102
RTVSPost2010PropOp34
 70
     1
102
RTVSPost2010Prop35
280
     0
102
RTVSPost2010PropOp35
 70
     1
102
RTVSPost2010Prop36
280
     0
102
RTVSPost2010PropOp36
 70
     1
102
RTVSPost2010Prop37
 90
       50
102
RTVSPost2010PropOp37
 70
     1
102
RTVSPost2010Prop38
140
0.0
102
RTVSPost2010PropOp38
 70
     1
102
RTVSPost2010Prop39
140
1.0
102
RTVSPost2010PropOp39
 70
     1
102
RTVSPost2010Prop40
 90
        0
102
RTVSPost2010PropOp40
 70
     1
102
RTVSPost2010Prop41ColorIndex
 90
       18
102
RTVSPost2010Prop41ColorRGB
 90
        0
102
RTVSPost2010PropOp41
 70
     1
102
RTVSPost2010Prop42
 90
       50
102
RTVSPost2010PropOp42
 70
     1
102
RTVSPost2010Prop43
 90
        3
102
RTVSPost2010PropOp43
 70
     1
102
RTVSPost2010Prop44ColorIndex
 90
        5
102
RTVSPost2010Prop44ColorRGB
 90
      255
102
RTVSPost2010PropOp44
 70
     1
102
RTVSPost2010Prop45
280
     0
102
RTVSPost2010PropOp45
 70
     1
102
RTVSPost2010Prop46
 90
       50
102
RTVSPost2010PropOp46
 70
     1
102
RTVSPost2010Prop47
 90
       50
102
RTVSPost2010PropOp47
 70
     1
102
RTVSPost2010Prop48
 90
       50
102
RTVSPost2010PropOp48
 70
     1
102
RTVSPost2010Prop49
280
     0
102
RTVSPost2010PropOp49
 70
     1
102
RTVSPost2010Prop50
 90
       50
102
RTVSPost2010PropOp50
 70
     1
102
RTVSPost2010Prop51ColorIndex
 90
      256
102
RTVSPost2010Prop51ColorRGB
 90
-16777216
102
RTVSPost2010PropOp51
 70
     0
102
RTVSPost2010Prop52
140
1.0
102
RTVSPost2010PropOp52
 70
     0
102
RTVSPost2010Prop53
 90
        2
102
RTVSPost2010PropOp53
 70
     1
102
RTVSPost2010Prop54
  1
strokes_ogs.tif
102
RTVSPost2010PropOp54
 70
     1
102
RTVSPost2010Prop55
280
     0
102
RTVSPost2010PropOp55
 70
     1
102
RTVSPost2010Prop56
140
1.0
102
RTVSPost2010PropOp56
 70
     1
102
RTVSPost2010Prop57
140
1.0
102
RTVSPost2010PropOp57
 70
     1
  0
ENDSEC
  0
EOF
