  0
SECTION
  2
HEADER
  9
$ACADVER
  1
AC1015
  9
$ACADMAINTVER
 70
     6
  9
$DWGCODEPAGE
  3
ANSI_1252
  9
$INSBASE
 10
0.0
 20
0.0
 30
0.0
  9
$EXTMIN
 10
-104.350121
 20
-284.592682
 30
0.0
  9
$EXTMAX
 10
459.72641
 20
400.017731
 30
0.0
  9
$LIMMIN
 10
-104.350121
 20
-284.592682
  9
$LIMMAX
 10
459.72641
 20
400.017731
  9
$ORTHOMODE
 70
     0
  9
$REGENMODE
 70
     1
  9
$FILLMODE
 70
     1
  9
$QTEXTMODE
 70
     0
  9
$MIRRTEXT
 70
     1
  9
$LTSCALE
 40
1.0
  9
$ATTMODE
 70
     1
  9
$TEXTSIZE
 40
2.5
  9
$TRACEWID
 40
1.0
  9
$TEXTSTYLE
  7
Standard
  9
$CLAYER
  8
0
  9
$CELTYPE
  6
ByLayer
  9
$CECOLOR
 62
   256
  9
$CELTSCALE
 40
1.0
  9
$DISPSILH
 70
     0
  9
$DIMSCALE
 40
1.0
  9
$DIMASZ
 40
2.5
  9
$DIMEXO
 40
0.625
  9
$DIMDLI
 40
3.75
  9
$DIMRND
 40
0.0
  9
$DIMDLE
 40
0.0
  9
$DIMEXE
 40
1.25
  9
$DIMTP
 40
0.0
  9
$DIMTM
 40
0.0
  9
$DIMTXT
 40
2.5
  9
$DIMCEN
 40
2.5
  9
$DIMTSZ
 40
0.0
  9
$DIMTOL
 70
     0
  9
$DIMLIM
 70
     0
  9
$DIMTIH
 70
     0
  9
$DIMTOH
 70
     0
  9
$DIMSE1
 70
     0
  9
$DIMSE2
 70
     0
  9
$DIMTAD
 70
     1
  9
$DIMZIN
 70
     8
  9
$DIMBLK
  1

  9
$DIMASO
 70
     1
  9
$DIMSHO
 70
     1
  9
$DIMPOST
  1

  9
$DIMAPOST
  1

  9
$DIMALT
 70
     0
  9
$DIMALTD
 70
     3
  9
$DIMALTF
 40
0.03937
  9
$DIMLFAC
 40
1.0
  9
$DIMTOFL
 70
     1
  9
$DIMTVP
 40
0.0
  9
$DIMTIX
 70
     0
  9
$DIMSOXD
 70
     0
  9
$DIMSAH
 70
     0
  9
$DIMBLK1
  1

  9
$DIMBLK2
  1

  9
$DIMSTYLE
  2
ISO-25
  9
$DIMCLRD
 70
     0
  9
$DIMCLRE
 70
     0
  9
$DIMCLRT
 70
     0
  9
$DIMTFAC
 40
1.0
  9
$DIMGAP
 40
0.625
  9
$DIMJUST
 70
     0
  9
$DIMSD1
 70
     0
  9
$DIMSD2
 70
     0
  9
$DIMTOLJ
 70
     0
  9
$DIMTZIN
 70
     8
  9
$DIMALTZ
 70
     0
  9
$DIMALTTZ
 70
     0
  9
$DIMUPT
 70
     0
  9
$DIMDEC
 70
     2
  9
$DIMTDEC
 70
     2
  9
$DIMALTU
 70
     2
  9
$DIMALTTD
 70
     3
  9
$DIMTXSTY
  7
Standard
  9
$DIMAUNIT
 70
     0
  9
$DIMADEC
 70
     0
  9
$DIMALTRND
 40
0.0
  9
$DIMAZIN
 70
     0
  9
$DIMDSEP
 70
    44
  9
$DIMATFIT
 70
     3
  9
$DIMFRAC
 70
     0
  9
$DIMLDRBLK
  1

  9
$DIMLUNIT
 70
     2
  9
$DIMLWD
 70
    -2
  9
$DIMLWE
 70
    -2
  9
$DIMTMOVE
 70
     0
  9
$LUNITS
 70
     2
  9
$LUPREC
 70
     4
  9
$SKETCHINC
 40
1.0
  9
$FILLETRAD
 40
10.0
  9
$AUNITS
 70
     0
  9
$AUPREC
 70
     0
  9
$MENU
  1
.
  9
$ELEVATION
 40
0.0
  9
$PELEVATION
 40
0.0
  9
$THICKNESS
 40
0.0
  9
$LIMCHECK
 70
     0
  9
$CHAMFERA
 40
0.0
  9
$CHAMFERB
 40
0.0
  9
$CHAMFERC
 40
0.0
  9
$CHAMFERD
 40
0.0
  9
$SKPOLY
 70
     0
  9
$TDCREATE
 40
2459107.406802234
  9
$TDUCREATE
 40
2459107.3234689
  9
$TDUPDATE
 40
2459107.406802778
  9
$TDUUPDATE
 40
2459107.323469445
  9
$TDINDWG
 40
0.0000000116
  9
$TDUSRTIMER
 40
0.0000000116
  9
$USRTIMER
 70
     1
  9
$ANGBASE
 50
0.0
  9
$ANGDIR
 70
     0
  9
$PDMODE
 70
     0
  9
$PDSIZE
 40
0.0
  9
$PLINEWID
 40
0.0
  9
$SPLFRAME
 70
     0
  9
$SPLINETYPE
 70
     6
  9
$SPLINESEGS
 70
     8
  9
$HANDSEED
  5
2A0
  9
$SURFTAB1
 70
     6
  9
$SURFTAB2
 70
     6
  9
$SURFTYPE
 70
     6
  9
$SURFU
 70
     6
  9
$SURFV
 70
     6
  9
$UCSBASE
  2

  9
$UCSNAME
  2

  9
$UCSORG
 10
0.0
 20
0.0
 30
0.0
  9
$UCSXDIR
 10
1.0
 20
0.0
 30
0.0
  9
$UCSYDIR
 10
0.0
 20
1.0
 30
0.0
  9
$UCSORTHOREF
  2

  9
$UCSORTHOVIEW
 70
     0
  9
$UCSORGTOP
 10
0.0
 20
0.0
 30
0.0
  9
$UCSORGBOTTOM
 10
0.0
 20
0.0
 30
0.0
  9
$UCSORGLEFT
 10
0.0
 20
0.0
 30
0.0
  9
$UCSORGRIGHT
 10
0.0
 20
0.0
 30
0.0
  9
$UCSORGFRONT
 10
0.0
 20
0.0
 30
0.0
  9
$UCSORGBACK
 10
0.0
 20
0.0
 30
0.0
  9
$PUCSBASE
  2

  9
$PUCSNAME
  2

  9
$PUCSORG
 10
0.0
 20
0.0
 30
0.0
  9
$PUCSXDIR
 10
1.0
 20
0.0
 30
0.0
  9
$PUCSYDIR
 10
0.0
 20
1.0
 30
0.0
  9
$PUCSORTHOREF
  2

  9
$PUCSORTHOVIEW
 70
     0
  9
$PUCSORGTOP
 10
0.0
 20
0.0
 30
0.0
  9
$PUCSORGBOTTOM
 10
0.0
 20
0.0
 30
0.0
  9
$PUCSORGLEFT
 10
0.0
 20
0.0
 30
0.0
  9
$PUCSORGRIGHT
 10
0.0
 20
0.0
 30
0.0
  9
$PUCSORGFRONT
 10
0.0
 20
0.0
 30
0.0
  9
$PUCSORGBACK
 10
0.0
 20
0.0
 30
0.0
  9
$USERI1
 70
     0
  9
$USERI2
 70
     0
  9
$USERI3
 70
     0
  9
$USERI4
 70
     0
  9
$USERI5
 70
     0
  9
$USERR1
 40
0.0
  9
$USERR2
 40
0.0
  9
$USERR3
 40
0.0
  9
$USERR4
 40
0.0
  9
$USERR5
 40
0.0
  9
$WORLDVIEW
 70
     1
  9
$SHADEDGE
 70
     3
  9
$SHADEDIF
 70
    70
  9
$TILEMODE
 70
     1
  9
$MAXACTVP
 70
    64
  9
$PINSBASE
 10
0.0
 20
0.0
 30
0.0
  9
$PLIMCHECK
 70
     0
  9
$PEXTMIN
 10
1.000000E+20
 20
1.000000E+20
 30
1.000000E+20
  9
$PEXTMAX
 10
-1.000000E+20
 20
-1.000000E+20
 30
-1.000000E+20
  9
$PLIMMIN
 10
0.0
 20
0.0
  9
$PLIMMAX
 10
420.0
 20
297.0
  9
$UNITMODE
 70
     0
  9
$VISRETAIN
 70
     1
  9
$PLINEGEN
 70
     0
  9
$PSLTSCALE
 70
     1
  9
$TREEDEPTH
 70
  3020
  9
$CMLSTYLE
  2
Standard
  9
$CMLJUST
 70
     0
  9
$CMLSCALE
 40
20.0
  9
$PROXYGRAPHICS
 70
     1
  9
$MEASUREMENT
 70
     1
  9
$CELWEIGHT
370
    -1
  9
$ENDCAPS
280
     0
  9
$JOINSTYLE
280
     0
  9
$LWDISPLAY
290
     0
  9
$INSUNITS
 70
     4
  9
$HYPERLINKBASE
  1

  9
$STYLESHEET
  1

  9
$XEDIT
290
     1
  9
$CEPSNTYPE
380
     0
  9
$PSTYLEMODE
290
     1
  9
$FINGERPRINTGUID
  2
{69e978e3-7264-4569-93d9-54c8ecfac038}
  9
$VERSIONGUID
  2
{FAEB1C32-E019-11D5-929B-00C0DF256EC4}
  9
$EXTNAMES
290
     1
  9
$PSVPSCALE
 40
0.0
  9
$OLESTARTUP
290
     0
  0
ENDSEC
  0
SECTION
  2
CLASSES
  0
CLASS
  1
ACDBDICTIONARYWDFLT
  2
AcDbDictionaryWithDefault
  3
ObjectDBX Classes
 90
        0
280
     0
281
     0
  0
CLASS
  1
VISUALSTYLE
  2
AcDbVisualStyle
  3
ObjectDBX Classes
 90
     4095
280
     0
281
     0
  0
CLASS
  1
MATERIAL
  2
AcDbMaterial
  3
ObjectDBX Classes
 90
     1153
280
     0
281
     0
  0
CLASS
  1
SCALE
  2
AcDbScale
  3
ObjectDBX Classes
 90
     1153
280
     0
281
     0
  0
CLASS
  1
TABLESTYLE
  2
AcDbTableStyle
  3
ObjectDBX Classes
 90
     4095
280
     0
281
     0
  0
CLASS
  1
MLEADERSTYLE
  2
AcDbMLeaderStyle
  3
ACDB_MLEADERSTYLE_CLASS
 90
     4095
280
     0
281
     0
  0
CLASS
  1
SUN
  2
AcDbSun
  3
SCENEOE
 90
     1153
280
     0
281
     0
  0
CLASS
  1
DICTIONARYVAR
  2
AcDbDictionaryVar
  3
ObjectDBX Classes
 90
        0
280
     0
281
     0
  0
CLASS
  1
ACDBPLACEHOLDER
  2
AcDbPlaceHolder
  3
ObjectDBX Classes
 90
        0
280
     0
281
     0
  0
CLASS
  1
LAYOUT
  2
AcDbLayout
  3
ObjectDBX Classes
 90
        0
280
     0
281
     0
  0
ENDSEC
  0
SECTION
  2
TABLES
  0
TABLE
  2
VPORT
  5
8
102
{ACAD_XDICTIONARY
360
263
102
}
330
0
100
AcDbSymbolTable
 70
     1
  0
VPORT
  5
29
330
8
100
AcDbSymbolTableRecord
100
AcDbViewportTableRecord
  2
*Active
 70
     0
 10
0.0
 20
0.0
 11
1.0
 21
1.0
 12
344.186916
 22
148.5
 13
0.0
 23
0.0
 14
10.0
 24
10.0
 15
10.0
 25
10.0
 16
0.0
 26
0.0
 36
1.0
 17
0.0
 27
0.0
 37
0.0
 40
297.0
 41
1.972973
 42
50.0
 43
0.0
 44
0.0
 50
0.0
 51
0.0
 71
     0
 72
   100
 73
     1
 74
     3
 75
     0
 76
     0
 77
     0
 78
     0
281
     0
 65
     1
110
0.0
120
0.0
130
0.0
111
1.0
121
0.0
131
0.0
112
0.0
122
1.0
132
0.0
 79
     0
146
0.0
  0
ENDTAB
  0
TABLE
  2
LTYPE
  5
5
330
0
100
AcDbSymbolTable
 70
     1
  0
LTYPE
  5
14
330
5
100
AcDbSymbolTableRecord
100
AcDbLinetypeTableRecord
  2
ByBlock
 70
     0
  3

 72
    65
 73
     0
 40
0.0
  0
LTYPE
  5
15
330
5
100
AcDbSymbolTableRecord
100
AcDbLinetypeTableRecord
  2
ByLayer
 70
     0
  3

 72
    65
 73
     0
 40
0.0
  0
LTYPE
  5
16
330
5
100
AcDbSymbolTableRecord
100
AcDbLinetypeTableRecord
  2
Continuous
 70
     0
  3
Solid line
 72
    65
 73
     0
 40
0.0
  0
ENDTAB
  0
TABLE
  2
LAYER
  5
2
330
0
100
AcDbSymbolTable
 70
     1
  0
LAYER
  5
10
330
2
100
AcDbSymbolTableRecord
100
AcDbLayerTableRecord
  2
0
 70
     0
 62
   106
  6
Continuous
370
     0
390
F
  0
ENDTAB
  0
TABLE
  2
STYLE
  5
3
330
0
100
AcDbSymbolTable
 70
     4
  0
STYLE
  5
11
330
3
100
AcDbSymbolTableRecord
100
AcDbTextStyleTableRecord
  2
Standard
 70
     0
 40
0.0
 41
1.0
 50
0.0
 71
     0
 42
2.5
  3
txt
  4

  0
STYLE
  5
6E
330
3
100
AcDbSymbolTableRecord
100
AcDbTextStyleTableRecord
  2
Default
 70
     0
 40
0.0
 41
1.0
 50
0.0
 71
     0
 42
2.5
  3

  4

1001
ACAD
1000
txt
1071
        0
  0
STYLE
  5
6F
330
3
100
AcDbSymbolTableRecord
100
AcDbTextStyleTableRecord
  2
ISO
 70
     0
 40
0.0
 41
1.0
 50
0.0
 71
     0
 42
2.5
  3

  4

1001
ACAD
1000
txt
1071
        0
  0
STYLE
  5
70
330
3
100
AcDbSymbolTableRecord
100
AcDbTextStyleTableRecord
  2
zucchetti
 70
     0
 40
0.0
 41
1.0
 50
0.0
 71
     0
 42
2.5
  3

  4

1001
ACAD
1000
Arial
1071
        0
  0
ENDTAB
  0
TABLE
  2
VIEW
  5
6
330
0
100
AcDbSymbolTable
 70
     0
  0
ENDTAB
  0
TABLE
  2
UCS
  5
7
330
0
100
AcDbSymbolTable
 70
     0
  0
ENDTAB
  0
TABLE
  2
APPID
  5
9
330
0
100
AcDbSymbolTable
 70
     2
  0
APPID
  5
12
330
9
100
AcDbSymbolTableRecord
100
AcDbRegAppTableRecord
  2
ACAD
 70
     0
  0
APPID
  5
29D
330
9
100
AcDbSymbolTableRecord
100
AcDbRegAppTableRecord
  2
ACAD_MLEADERVER
 70
     0
  0
ENDTAB
  0
TABLE
  2
DIMSTYLE
  5
A
330
0
100
AcDbSymbolTable
 70
     4
100
AcDbDimStyleTable
  0
DIMSTYLE
105
27
330
A
100
AcDbSymbolTableRecord
100
AcDbDimStyleTableRecord
  2
ISO-25
 70
     0
 41
2.5
 42
0.625
 43
3.75
 44
1.25
 73
     0
 74
     0
 77
     1
 78
     8
140
2.5
141
2.5
143
0.03937
147
0.625
171
     3
172
     1
178
     0
271
     2
272
     2
274
     3
278
    44
283
     0
284
     8
340
11
  0
DIMSTYLE
105
71
330
A
100
AcDbSymbolTableRecord
100
AcDbDimStyleTableRecord
  2
Default
 70
     0
  3
<>
 41
4.375
 42
1.05
 44
2.1
 73
     0
 74
     0
 77
     1
 78
     8
140
3.5
146
0.4
147
1.75
172
     1
271
     2
178
     3
271
     2
272
     3
284
     8
340
6E
341
72
342
72
  0
DIMSTYLE
105
79
330
A
100
AcDbSymbolTableRecord
100
AcDbDimStyleTableRecord
  2
ISO
 70
     0
  3
<>
 41
4.375
 42
1.05
 44
2.1
 73
     0
 74
     0
 77
     1
 78
     8
140
3.5
146
0.4
147
1.75
172
     1
271
     2
178
     3
271
     2
272
     3
284
     8
340
6F
341
72
342
72
  0
DIMSTYLE
105
7A
330
A
100
AcDbSymbolTableRecord
100
AcDbDimStyleTableRecord
  2
zucchetti
 70
     0
  3
<>
 41
3.0
 42
0.9
 44
1.8
 73
     0
 74
     0
 77
     1
 78
     8
140
3.0
146
0.6
147
1.5
172
     1
176
     3
177
     3
271
     2
178
     3
271
     2
272
     2
284
     8
340
70
  0
ENDTAB
  0
TABLE
  2
BLOCK_RECORD
  5
1
330
0
100
AcDbSymbolTable
 70
     8
  0
BLOCK_RECORD
  5
1F
330
1
100
AcDbSymbolTableRecord
100
AcDbBlockTableRecord
  2
*Model_Space
340
22
  0
BLOCK_RECORD
  5
1B
330
1
100
AcDbSymbolTableRecord
100
AcDbBlockTableRecord
  2
*Paper_Space
340
1E
  0
BLOCK_RECORD
  5
23
330
1
100
AcDbSymbolTableRecord
100
AcDbBlockTableRecord
  2
*Paper_Space0
340
26
  0
BLOCK_RECORD
  5
72
330
1
100
AcDbSymbolTableRecord
100
AcDbBlockTableRecord
  2
_Closed
340
0
  0
BLOCK_RECORD
  5
7B
330
1
100
AcDbSymbolTableRecord
100
AcDbBlockTableRecord
  2
a
340
0
102
{BLKREFS
331
B1
102
}
  0
BLOCK_RECORD
  5
B2
330
1
100
AcDbSymbolTableRecord
100
AcDbBlockTableRecord
  2
b
340
0
102
{BLKREFS
331
11A
102
}
  0
BLOCK_RECORD
  5
11B
330
1
100
AcDbSymbolTableRecord
100
AcDbBlockTableRecord
  2
c
340
0
102
{BLKREFS
331
181
102
}
  0
BLOCK_RECORD
  5
182
330
1
100
AcDbSymbolTableRecord
100
AcDbBlockTableRecord
  2
d
340
0
102
{BLKREFS
331
1CE
102
}
  0
BLOCK_RECORD
  5
1CF
330
1
100
AcDbSymbolTableRecord
100
AcDbBlockTableRecord
  2
e
340
0
102
{BLKREFS
331
206
102
}
  0
BLOCK_RECORD
  5
207
330
1
100
AcDbSymbolTableRecord
100
AcDbBlockTableRecord
  2
f
340
0
102
{BLKREFS
331
257
102
}
  0
ENDTAB
  0
ENDSEC
  0
SECTION
  2
BLOCKS
  0
BLOCK
  5
20
330
1F
100
AcDbEntity
  8
0
100
AcDbBlockBegin
  2
*Model_Space
 70
     0
 10
0.0
 20
0.0
 30
0.0
  3
*Model_Space
  1

  0
ENDBLK
  5
21
330
1F
100
AcDbEntity
  8
0
100
AcDbBlockEnd
  0
BLOCK
  5
1C
330
1B
100
AcDbEntity
 67
     1
  8
0
100
AcDbBlockBegin
  2
*Paper_Space
 70
     0
 10
0.0
 20
0.0
 30
0.0
  3
*Paper_Space
  1

  0
ENDBLK
  5
1D
330
1B
100
AcDbEntity
 67
     1
  8
0
100
AcDbBlockEnd
  0
BLOCK
  5
24
330
23
100
AcDbEntity
  8
0
100
AcDbBlockBegin
  2
*Paper_Space0
 70
     0
 10
0.0
 20
0.0
 30
0.0
  3
*Paper_Space0
  1

  0
ENDBLK
  5
25
330
23
100
AcDbEntity
  8
0
100
AcDbBlockEnd
  0
BLOCK
  5
73
330
72
100
AcDbEntity
  8
0
100
AcDbBlockBegin
  2
_Closed
 70
     0
 10
0.0
 20
0.0
 30
0.0
  3
_Closed
  1

  0
LINE
  5
75
330
72
100
AcDbEntity
  8
0
  6
ByBlock
 62
     0
370
    -2
100
AcDbLine
 10
-1.0
 20
0.166667
 30
0.0
 11
0.0
 21
0.0
 31
0.0
  0
LINE
  5
76
330
72
100
AcDbEntity
  8
0
  6
ByBlock
 62
     0
370
    -2
100
AcDbLine
 10
0.0
 20
0.0
 30
0.0
 11
-1.0
 21
-0.166667
 31
0.0
  0
LINE
  5
77
330
72
100
AcDbEntity
  8
0
  6
ByBlock
 62
     0
370
    -2
100
AcDbLine
 10
-1.0
 20
0.166667
 30
0.0
 11
-1.0
 21
-0.166667
 31
0.0
  0
LINE
  5
78
330
72
100
AcDbEntity
  8
0
  6
ByBlock
 62
     0
370
    -2
100
AcDbLine
 10
0.0
 20
0.0
 30
0.0
 11
-1.0
 21
0.0
 31
0.0
  0
ENDBLK
  5
74
330
72
100
AcDbEntity
  8
0
100
AcDbBlockEnd
  0
BLOCK
  5
AF
330
7B
100
AcDbEntity
  8
0
100
AcDbBlockBegin
  2
a
 70
     0
 10
80.796021
 20
16.255959
 30
0.0
  3
a
  1

  0
LINE
  5
7C
330
7B
100
AcDbEntity
  8
0
  6
Continuous
 62
     0
370
     0
100
AcDbLine
 10
145.910181
 20
63.731021
 30
0.0
 11
143.627426
 21
63.731021
 31
0.0
  0
LINE
  5
7D
330
7B
100
AcDbEntity
  8
0
  6
Continuous
 62
     0
370
     0
100
AcDbLine
 10
153.218055
 20
63.731021
 30
0.0
 11
150.94425
 21
63.731021
 31
0.0
  0
LINE
  5
7E
330
7B
100
AcDbEntity
  8
0
  6
Continuous
 62
     0
370
    30
100
AcDbLine
 10
153.077365
 20
63.537411
 30
0.0
 11
153.068491
 21
63.537411
 31
0.0
  0
LINE
  5
7F
330
7B
100
AcDbEntity
  8
0
  6
Continuous
 62
     0
370
    30
100
AcDbLine
 10
153.068491
 20
63.537411
 30
0.0
 11
143.777066
 21
63.537411
 31
0.0
  0
LINE
  5
80
330
7B
100
AcDbEntity
  8
0
  6
Continuous
 62
     0
370
     0
100
AcDbLine
 10
153.227216
 20
63.987411
 30
0.0
 11
153.218055
 21
63.987411
 31
0.0
  0
LINE
  5
81
330
7B
100
AcDbEntity
  8
0
  6
Continuous
 62
     0
370
     0
100
AcDbLine
 10
144.246691
 20
63.987411
 30
0.0
 11
143.627216
 21
63.987411
 31
0.0
  0
LINE
  5
82
330
7B
100
AcDbEntity
  8
0
  6
Continuous
 62
     0
370
     0
100
AcDbLine
 10
153.218055
 20
63.987411
 30
0.0
 11
152.60774
 21
63.987411
 31
0.0
  0
ARC
  5
83
330
7B
100
AcDbEntity
  8
0
  6
Continuous
 62
     0
370
    30
100
AcDbCircle
 10
143.827216
 20
63.987411
 30
0.0
 40
0.2000000029802322
100
AcDbArc
 50
143.048462
 51
180.0
  0
ARC
  5
84
330
7B
100
AcDbEntity
  8
0
  6
Continuous
 62
     0
370
    30
100
AcDbCircle
 10
153.027216
 20
63.987411
 30
0.0
 40
0.200000002980218
100
AcDbArc
 50
0.0
 51
36.951589
  0
LINE
  5
85
330
7B
100
AcDbEntity
  8
0
  6
Continuous
 62
     0
370
    30
100
AcDbLine
 10
143.627216
 20
63.987411
 30
0.0
 11
143.627216
 21
63.731021
 31
0.0
  0
LINE
  5
86
330
7B
100
AcDbEntity
  8
0
  6
Continuous
 62
     0
370
    30
100
AcDbLine
 10
153.227216
 20
63.987411
 30
0.0
 11
153.227216
 21
63.731021
 31
0.0
  0
ARC
  5
87
330
7B
100
AcDbEntity
  8
0
  6
Continuous
 62
     0
370
    30
100
AcDbCircle
 10
148.431546
 20
77.575926
 30
0.0
 40
14.79000000000003
100
AcDbArc
 50
251.657025
 51
269.983226
  0
ARC
  5
88
330
7B
100
AcDbEntity
  8
0
  6
Continuous
 62
     0
370
    30
100
AcDbCircle
 10
148.422886
 20
77.575926
 30
0.0
 40
14.79000000000003
100
AcDbArc
 50
270.016774
 51
288.310336
  0
ARC
  5
89
330
7B
100
AcDbEntity
  8
0
  6
Continuous
 62
     0
370
    30
100
AcDbCircle
 10
153.026444
 20
63.731572
 30
0.0
 40
0.2007271151883001
100
AcDbArc
 50
284.695552
 51
359.842926
  0
ARC
  5
8A
330
7B
100
AcDbEntity
  8
0
  6
Continuous
 62
     0
370
    30
100
AcDbCircle
 10
143.82821
 20
63.731573
 30
0.0
 40
0.2007852265154028
100
AcDbArc
 50
180.157487
 51
255.243125
  0
ARC
  5
8B
330
7B
100
AcDbEntity
  8
0
  6
Continuous
 62
     0
370
    30
100
AcDbCircle
 10
148.427215
 20
205.586559
 30
0.0
 40
12.49999999999722
100
AcDbArc
 50
310.450604
 51
229.549434
  0
SPLINE
  5
8C
330
7B
100
AcDbEntity
  8
0
  6
Continuous
 62
     0
370
     0
100
AcDbSpline
210
0.0
220
0.0
230
1.0
 70
     8
 71
     3
 72
     9
 73
     5
 74
     0
 42
0.000000001
 43
0.0
 40
0.0
 40
0.0
 40
0.0
 40
0.0
 40
13.58255074094018
 40
40.81374876582646
 40
40.81374876582646
 40
40.81374876582646
 40
40.81374876582646
 10
150.6564178552374
 20
147.9313761393639
 30
0.0
 10
150.756303861081
 20
152.4578470550067
 30
0.0
 10
151.069267213585
 20
166.0590150289063
 30
0.0
 10
151.4019242878227
 20
179.6597361623227
 30
0.0
 10
151.6186404887409
 20
188.7343421741175
 30
0.0
  0
ELLIPSE
  5
8D
330
7B
100
AcDbEntity
  8
0
  6
Continuous
 62
     0
370
     0
100
AcDbEllipse
 10
151.534149
 20
188.734342
 30
0.0
 11
-1.499594770987193
 21
0.03486434895234575
 31
0.0
210
0.0
220
0.0
230
-1.0
 40
0.001311
 41
1.627138740925847
 42
3.16743970419002
  0
LINE
  5
8E
330
7B
100
AcDbEntity
  8
0
  6
Continuous
 62
     0
370
     0
100
AcDbLine
 10
148.427215
 20
141.133482
 30
0.0
 11
148.427215
 21
142.633482
 31
0.0
  0
SPLINE
  5
8F
330
7B
100
AcDbEntity
  8
0
  6
Continuous
 62
     0
370
     0
100
AcDbSpline
210
0.0
220
0.0
230
1.0
 70
     8
 71
     3
 72
    18
 73
    14
 74
     0
 42
0.000000001
 43
0.0
 40
0.0
 40
0.0
 40
0.0
 40
0.0
 40
0.7040270164530424
 40
1.295759034053318
 40
1.633227194692992
 40
1.882695714651265
 40
2.085978384419887
 40
2.399476426375227
 40
2.76062993912089
 40
3.281803497912946
 40
3.731036026613197
 40
4.746184634738002
 40
6.511452760270865
 40
6.511452760270865
 40
6.511452760270865
 40
6.511452760270865
 10
148.4271948743252
 20
142.6334822816064
 30
0.0
 10
148.6682538224636
 20
142.6334821881034
 30
0.0
 10
149.1132354215593
 20
142.6925486154804
 30
0.0
 10
149.6237757498129
 20
142.9282134327919
 30
0.0
 10
149.9435761195998
 20
143.1687841056701
 30
0.0
 10
150.1376380288031
 20
143.3542176654715
 30
0.0
 10
150.2740793104099
 20
143.5741548029113
 30
0.0
 10
150.3788489813392
 20
143.8494702892302
 30
0.0
 10
150.4677437971587
 20
144.2392261637963
 30
0.0
 10
150.5184029140939
 20
144.6807797819793
 30
0.0
 10
150.5609895985045
 20
145.3413193733145
 30
0.0
 10
150.6131212621883
 20
146.4167240323357
 30
0.0
 10
150.6434360828457
 20
147.3430893749012
 30
0.0
 10
150.6564178552374
 20
147.9313761393639
 30
0.0
  0
SPLINE
  5
90
330
7B
100
AcDbEntity
  8
0
  6
Continuous
 62
     0
370
     0
100
AcDbSpline
210
0.0
220
0.0
230
1.0
 70
     8
 71
     3
 72
    18
 73
    14
 74
     0
 42
0.000000001
 43
0.0
 40
0.0
 40
0.0
 40
0.0
 40
0.0
 40
0.7053013782976192
 40
1.296959495443253
 40
1.634382838388779
 40
1.883610187121511
 40
2.087346532206342
 40
2.401618726294815
 40
2.763513020913489
 40
3.286720618600657
 40
3.737699336988029
 40
4.753410594080074
 40
6.511446442014064
 40
6.511446442014064
 40
6.511446442014064
 40
6.511446442014064
 10
148.4271933640393
 20
142.6334822816072
 30
0.0
 10
148.1856980742287
 20
142.6334824429833
 30
0.0
 10
147.7402913671272
 20
142.692709889327
 30
0.0
 10
147.2295618876743
 20
142.928870911048
 30
0.0
 10
146.9099468378877
 20
143.1694838642323
 30
0.0
 10
146.7160076381811
 20
143.355120219393
 30
0.0
 10
146.5796541952718
 20
143.5755010961401
 30
0.0
 10
146.4749214602047
 20
143.851525598845
 30
0.0
 10
146.3860809569772
 20
144.2425068889214
 30
0.0
 10
146.3355791682963
 20
144.6855929597317
 30
0.0
 10
146.2931012022164
 20
145.3475879596054
 30
0.0
 10
146.2410786726189
 20
146.4213544100944
 30
0.0
 10
146.2109016325952
 20
147.345499715299
 30
0.0
 10
146.1979731418066
 20
147.9313762789176
 30
0.0
  0
ELLIPSE
  5
91
330
7B
100
AcDbEntity
  8
0
  6
Continuous
 62
     0
370
     0
100
AcDbEllipse
 10
146.257023
 20
147.931376
 30
0.0
 11
1.499653993623649
 21
0.03221644624480967
 31
0.0
210
0.0
220
0.0
230
1.0
 40
0.000846
 41
1.610164314990935
 42
3.159428810798237
  0
SPLINE
  5
92
330
7B
100
AcDbEntity
  8
0
  6
Continuous
 62
     0
370
     0
100
AcDbSpline
210
0.0
220
0.0
230
1.0
 70
     8
 71
     3
 72
    31
 73
    27
 74
     0
 42
0.000000001
 43
0.0
 40
0.0
 40
0.0
 40
0.0
 40
0.0
 40
1.944818689850858
 40
3.879518989130776
 40
5.805642800460687
 40
7.725571429675663
 40
9.642265420132297
 40
11.55909434387184
 40
13.4793174695907
 40
15.40586401667402
 40
17.34099563188875
 40
19.28673070470717
 40
23.18505413553117
 40
27.1036091078416
 40
31.02216571618501
 40
34.92075349536309
 40
36.86614307564447
 40
38.80138421432545
 40
40.72795329880143
 40
42.64816249845496
 40
44.56496741876284
 40
46.48166050162648
 40
48.40160928734618
 40
50.32774407353268
 40
52.26241633936342
 40
54.20721767921935
 40
54.20721767921935
 40
54.20721767921935
 40
54.20721767921935
 10
155.7603371515344
 20
197.2159379317881
 30
0.0
 10
156.2571448835719
 20
197.6271974234459
 30
0.0
 10
157.1788782969302
 20
198.5348793540056
 30
0.0
 10
158.3001146303943
 20
200.1119231318114
 30
0.0
 10
159.1255797157163
 20
201.8573787306825
 30
0.0
 10
159.6280692082268
 20
203.719475101118
 30
0.0
 10
159.7912836091552
 20
205.6408143354867
 30
0.0
 10
159.6088597778717
 20
207.5604291526368
 30
0.0
 10
159.0875745346273
 20
209.4175176690038
 30
0.0
 10
158.2446041444899
 20
211.1544652029565
 30
0.0
 10
157.1072607249674
 20
212.7216125359265
 30
0.0
 10
155.2444622608464
 20
214.5201647581318
 30
0.0
 10
152.3573883663643
 20
216.1394403071196
 30
0.0
 10
148.4271237765251
 20
216.81067045833
 30
0.0
 10
144.4970034634597
 20
216.1392338353878
 30
0.0
 10
141.6094350935075
 20
214.5205524158313
 30
0.0
 10
139.7474428662247
 20
212.7212058047411
 30
0.0
 10
138.6094285382092
 20
211.1546693917352
 30
0.0
 10
137.7669109131243
 20
209.4174010955448
 30
0.0
 10
137.2455379274467
 20
207.5603797919421
 30
0.0
 10
137.0631899652822
 20
205.640763772807
 30
0.0
 10
137.2262561548837
 20
203.7194154745065
 30
0.0
 10
137.72882597098
 20
201.8573277050618
 30
0.0
 10
138.5542367145095
 20
200.1118429288881
 30
0.0
 10
139.6756015147811
 20
198.5349124637684
 30
0.0
 10
140.5972604184091
 20
197.6271874474652
 30
0.0
 10
141.0940633888673
 20
197.2159331678659
 30
0.0
  0
SPLINE
  5
93
330
7B
100
AcDbEntity
  8
0
  6
Continuous
 62
     0
370
     0
100
AcDbSpline
210
0.0
220
0.0
230
1.0
 70
     8
 71
     3
 72
    14
 73
    10
 74
     0
 42
0.000000001
 43
0.0
 40
0.0
 40
0.0
 40
0.0
 40
0.0
 40
1.404286950246861
 40
2.80180824355739
 40
4.195347073104721
 40
5.585086099230739
 40
6.97156893468318
 40
8.355744518375094
 40
9.738631114212174
 40
9.738631114212174
 40
9.738631114212174
 40
9.738631114212174
 10
141.0940638318724
 20
197.2159328950154
 30
0.0
 10
141.4527917025099
 20
196.918977944406
 30
0.0
 10
142.1352444437485
 20
196.2825628163919
 30
0.0
 10
143.0327692735089
 20
195.2096767996168
 30
0.0
 10
143.7934107460329
 20
194.0397592054003
 30
0.0
 10
144.4051887440905
 20
192.7886723034068
 30
0.0
 10
144.8579361966018
 20
191.4744172503945
 30
0.0
 10
145.1455911551103
 20
190.1168129425724
 30
0.0
 10
145.2247593073364
 20
189.1950858682802
 30
0.0
 10
145.2357623298104
 20
188.7342554262399
 30
0.0
  0
SPLINE
  5
94
330
7B
100
AcDbEntity
  8
0
  6
Continuous
 62
     0
370
     0
100
AcDbSpline
210
0.0
220
0.0
230
1.0
 70
     8
 71
     3
 72
     8
 73
     4
 74
     0
 42
0.000000001
 43
0.0
 40
0.0
 40
0.0
 40
0.0
 40
0.0
 40
40.81424693084995
 40
40.81424693084995
 40
40.81424693084995
 40
40.81424693084995
 10
145.2357588521209
 20
188.734253262596
 30
0.0
 10
145.5605673517375
 20
175.1333945388232
 30
0.0
 10
145.8978314267482
 20
161.532808917696
 30
0.0
 10
146.1979731418066
 20
147.9313762789176
 30
0.0
  0
SPLINE
  5
95
330
7B
100
AcDbEntity
  8
0
  6
Continuous
 62
     0
370
     0
100
AcDbSpline
210
0.0
220
0.0
230
1.0
 70
     8
 71
     3
 72
    14
 73
    10
 74
     0
 42
0.000000001
 43
0.0
 40
0.0
 40
0.0
 40
0.0
 40
0.0
 40
1.382864170633273
 40
2.767013309008381
 40
4.153480982412725
 40
5.543211805218741
 40
6.936725925118182
 40
8.334218231834106
 40
9.738528679551933
 40
9.738528679551933
 40
9.738528679551933
 40
9.738528679551933
 10
151.6186666431904
 20
188.7343511740748
 30
0.0
 10
151.6296737213407
 20
189.1951740421148
 30
0.0
 10
151.7088589843409
 20
190.1168825095505
 30
0.0
 10
151.9964990534804
 20
191.4744686165695
 30
0.0
 10
152.4492612182444
 20
192.7886996965617
 30
0.0
 10
153.0609790867003
 20
194.039798091274
 30
0.0
 10
153.8216068881211
 20
195.2097019791029
 30
0.0
 10
154.7191130446666
 20
196.2825952031689
 30
0.0
 10
155.4015996262739
 20
196.9189728634235
 30
0.0
 10
155.7603331979689
 20
197.2159345640625
 30
0.0
  0
ARC
  5
96
330
7B
100
AcDbEntity
  8
0
  6
Continuous
 62
     0
370
     0
100
AcDbCircle
 10
150.619611
 20
-58.19672
 30
0.0
 40
246.9896605980796
100
AcDbArc
 50
91.249025
 51
91.577273
  0
ELLIPSE
  5
97
330
7B
100
AcDbEntity
  8
0
  6
Continuous
 62
     0
370
     0
100
AcDbEllipse
 10
141.290508
 20
197.215931
 30
0.0
 11
0.9731880264685872
 21
1.141448669515258
 31
0.0
210
0.0
220
0.0
230
1.0
 40
0.100021
 41
1.655866001264746
 42
3.141594748784254
  0
ELLIPSE
  5
98
330
7B
100
AcDbEntity
  8
0
  6
Continuous
 62
     0
370
     0
100
AcDbEllipse
 10
155.563927
 20
197.215935
 30
0.0
 11
0.9731887563310316
 21
-1.141448047241251
 31
0.0
210
0.0
220
0.0
230
1.0
 40
0.1
 41
0.0000003145765683
 42
1.485742282490653
  0
ELLIPSE
  5
99
330
7B
100
AcDbEntity
  8
0
  6
Continuous
 62
     0
370
     0
100
AcDbEllipse
 10
150.597407
 20
147.931376
 30
0.0
 11
1.499653989331366
 21
-0.03221664604702499
 31
0.0
210
0.0
220
0.0
230
1.0
 40
0.000846
 41
6.265351497995761
 42
7.814640147483889
  0
ARC
  5
9A
330
7B
100
AcDbEntity
  8
0
  6
Continuous
 62
     0
370
     0
100
AcDbCircle
 10
148.427215
 20
205.586559
 30
0.0
 40
29.7999999970217
100
AcDbArc
 50
278.319205
 51
90.0
  0
ARC
  5
9B
330
7B
100
AcDbEntity
  8
0
  6
Continuous
 62
     0
370
     0
100
AcDbCircle
 10
148.427215
 20
205.586559
 30
0.0
 40
29.7999999970217
100
AcDbArc
 50
90.0
 51
261.680801
  0
ARC
  5
9C
330
7B
100
AcDbEntity
  8
0
  6
Continuous
 62
     0
370
    30
100
AcDbCircle
 10
148.427215
 20
205.586559
 30
0.0
 40
30.0000000000019
100
AcDbArc
 50
278.254178
 51
90.0
  0
ARC
  5
9D
330
7B
100
AcDbEntity
  8
0
  6
Continuous
 62
     0
370
    30
100
AcDbCircle
 10
148.427215
 20
205.586559
 30
0.0
 40
30.0000000000019
100
AcDbArc
 50
90.0
 51
261.745828
  0
SPLINE
  5
9E
330
7B
100
AcDbEntity
  8
0
  6
Continuous
 62
     0
370
    30
100
AcDbSpline
210
0.0
220
0.0
230
1.0
 70
     8
 71
     3
 72
     9
 73
     5
 74
     0
 42
0.000000001
 43
0.0
 40
0.0
 40
0.0
 40
0.0
 40
0.0
 40
22.48973443371164
 40
40.81101124665862
 40
40.81101124665862
 40
40.81101124665862
 40
40.81101124665862
 10
144.7573695016744
 20
147.8991597245549
 30
0.0
 10
144.59636084479
 20
155.3940048564655
 30
0.0
 10
144.2838706182688
 20
168.9940863750384
 30
0.0
 10
143.9626398243018
 20
182.5939517872305
 30
0.0
 10
143.8206940164541
 20
188.6993889545734
 30
0.0
  0
ARC
  5
9F
330
7B
100
AcDbEntity
  8
0
  6
Continuous
 62
     0
370
    30
100
AcDbCircle
 10
148.411458
 20
205.585958
 30
0.0
 40
12.48421942265399
100
AcDbArc
 50
178.231675
 51
188.47131
  0
ARC
  5
A0
330
7B
100
AcDbEntity
  8
0
  6
Continuous
 62
     0
370
    30
100
AcDbCircle
 10
163.030187
 20
188.470477
 30
0.0
 40
9.999047270996293
100
AcDbArc
 50
130.494046
 51
178.68766
  0
ARC
  5
A1
330
7B
100
AcDbEntity
  8
0
  6
Continuous
 62
     0
370
    30
100
AcDbCircle
 10
133.824192
 20
188.470419
 30
0.0
 40
9.999124770136056
100
AcDbArc
 50
1.312181
 51
49.505906
  0
SPLINE
  5
A2
330
7B
100
AcDbEntity
  8
0
  6
Continuous
 62
     0
370
    30
100
AcDbSpline
210
0.0
220
0.0
230
1.0
 70
     8
 71
     3
 72
    19
 73
    15
 74
     0
 42
0.000000001
 43
0.0
 40
0.0
 40
0.0
 40
0.0
 40
0.0
 40
0.9766850519178333
 40
1.876268306899274
 40
2.427641092871496
 40
2.700897913865813
 40
3.132020499525947
 40
3.455922604977806
 40
4.027761480057125
 40
4.669074234774089
 40
5.299462336630296
 40
5.954221388683341
 40
6.762279532143944
 40
8.835054230195777
 40
8.835054230195777
 40
8.835054230195777
 40
8.835054230195777
 10
148.4272128382428
 20
141.1334821704698
 30
0.0
 10
148.1024958980074
 20
141.1334823935204
 30
0.0
 10
147.475251918632
 20
141.2087353353699
 30
0.0
 10
146.7165576401507
 20
141.507436053143
 30
0.0
 10
146.2341460977581
 20
141.8229534208152
 30
0.0
 10
145.909806198397
 20
142.0877710752039
 30
0.0
 10
145.6644430672304
 20
142.3284841882645
 30
0.0
 10
145.4001615853074
 20
142.6845785272625
 30
0.0
 10
145.1706893286736
 20
143.1456733166635
 30
0.0
 10
145.0030182944669
 20
143.7390590011627
 30
0.0
 10
144.9094475985837
 20
144.3751486624298
 30
0.0
 10
144.8624320862331
 20
145.0715192197591
 30
0.0
 10
144.8043058312126
 20
146.2485573629712
 30
0.0
 10
144.7722085819159
 20
147.2084104787556
 30
0.0
 10
144.7573695016744
 20
147.8991597245548
 30
0.0
  0
SPLINE
  5
A3
330
7B
100
AcDbEntity
  8
0
  6
Continuous
 62
     0
370
    30
100
AcDbSpline
210
0.0
220
0.0
230
1.0
 70
     8
 71
     3
 72
    19
 73
    15
 74
     0
 42
0.000000001
 43
0.0
 40
0.0
 40
0.0
 40
0.0
 40
0.0
 40
0.9766817290411555
 40
1.876316085351493
 40
2.427735252930188
 40
2.701035075161848
 40
3.132323090028859
 40
3.456258807031514
 40
4.02809470200289
 40
4.669483366421547
 40
5.300124526875712
 40
5.954902225386522
 40
6.762941278107866
 40
8.835062022314826
 40
8.835062022314826
 40
8.835062022314826
 40
8.835062022314826
 10
148.4272147418259
 20
141.1334821704687
 30
0.0
 10
148.7519305144592
 20
141.1334820412121
 30
0.0
 10
149.3791897511177
 20
141.2087392274846
 30
0.0
 10
150.1379142111554
 20
141.507450599774
 30
0.0
 10
150.6203589188399
 20
141.8230032287222
 30
0.0
 10
150.9447611885766
 20
142.0878793369736
 30
0.0
 10
151.19016205382
 20
142.3286708727168
 30
0.0
 10
151.4544412718754
 20
142.6848487544476
 30
0.0
 10
151.6838661230944
 20
143.1460057172583
 30
0.0
 10
151.8515202597908
 20
143.7395079812992
 30
0.0
 10
151.9450472978226
 20
144.3757220329815
 30
0.0
 10
151.9920326474933
 20
145.0721784288078
 30
0.0
 10
152.0501469855473
 20
146.2489989115767
 30
0.0
 10
152.0822267308576
 20
147.2086280503866
 30
0.0
 10
152.0970612217249
 20
147.8991593793314
 30
0.0
  0
SPLINE
  5
A4
330
7B
100
AcDbEntity
  8
0
  6
Continuous
 62
     0
370
    30
100
AcDbSpline
210
0.0
220
0.0
230
1.0
 70
     8
 71
     3
 72
     9
 73
     5
 74
     0
 42
0.000000001
 43
0.0
 40
0.0
 40
0.0
 40
0.0
 40
0.0
 40
22.48978317896232
 40
40.81110045381141
 40
40.81110045381141
 40
40.81110045381141
 40
40.81110045381141
 10
152.0970612217249
 20
147.8991593793314
 30
0.0
 10
152.2580712262213
 20
155.3940207380469
 30
0.0
 10
152.5705637753245
 20
168.9941319547707
 30
0.0
 10
152.8917967956441
 20
182.594027068549
 30
0.0
 10
153.0337435173863
 20
188.6994777102513
 30
0.0
  0
CIRCLE
  5
A5
330
7B
100
AcDbEntity
  8
0
  6
Continuous
 62
     0
370
    30
100
AcDbCircle
 10
148.427216
 20
85.586559
 30
0.0
 40
21.99999999999999
  0
CIRCLE
  5
A6
330
7B
100
AcDbEntity
  8
0
  6
Continuous
 62
     0
370
    30
100
AcDbCircle
 10
148.427216
 20
85.586559
 30
0.0
 40
21.5
  0
LINE
  5
A7
330
7B
100
AcDbEntity
  8
0
  6
Continuous
 62
     0
370
    30
100
AcDbLine
 10
144.977216
 20
115.416559
 30
0.0
 11
151.877216
 21
115.416559
 31
0.0
  0
LINE
  5
A8
330
7B
100
AcDbEntity
  8
0
  6
Continuous
 62
     0
370
    30
100
AcDbLine
 10
144.477216
 20
114.916559
 30
0.0
 11
152.377216
 21
114.916559
 31
0.0
  0
ARC
  5
A9
330
7B
100
AcDbEntity
  8
0
  6
Continuous
 62
     0
370
     0
100
AcDbCircle
 10
148.427216
 20
85.586559
 30
0.0
 40
64.51526627218948
100
AcDbArc
 50
93.301238
 51
86.698762
  0
ARC
  5
AA
330
7B
100
AcDbEntity
  8
0
  6
Continuous
 62
     0
370
    30
100
AcDbCircle
 10
148.427216
 20
85.586559
 30
0.0
 40
65.00000000000004
100
AcDbArc
 50
93.285918
 51
86.714082
  0
LINE
  5
AB
330
7B
100
AcDbEntity
  8
0
  6
Continuous
 62
     0
370
    30
100
AcDbLine
 10
144.477216
 20
114.916559
 30
0.0
 11
144.477216
 21
107.229176
 31
0.0
  0
LINE
  5
AC
330
7B
100
AcDbEntity
  8
0
  6
Continuous
 62
     0
370
    30
100
AcDbLine
 10
152.377216
 20
114.916559
 30
0.0
 11
152.377216
 21
107.229246
 31
0.0
  0
LINE
  5
AD
330
7B
100
AcDbEntity
  8
0
  6
Continuous
 62
     0
370
    30
100
AcDbLine
 10
144.977216
 20
115.416559
 30
0.0
 11
144.477216
 21
114.916559
 31
0.0
  0
LINE
  5
AE
330
7B
100
AcDbEntity
  8
0
  6
Continuous
 62
     0
370
    30
100
AcDbLine
 10
151.877216
 20
115.416559
 30
0.0
 11
152.377216
 21
114.916559
 31
0.0
  0
ENDBLK
  5
B0
330
7B
100
AcDbEntity
  8
0
100
AcDbBlockEnd
  0
BLOCK
  5
118
330
B2
100
AcDbEntity
  8
0
100
AcDbBlockBegin
  2
b
 70
     0
 10
-21.190895
 20
0.0
 30
0.0
  3
b
  1

  0
LINE
  5
B3
330
B2
100
AcDbEntity
  8
0
  6
Continuous
 62
     0
370
     0
100
AcDbLine
 10
-90.550126
 20
63.731021
 30
0.0
 11
-95.646528
 21
63.731021
 31
0.0
  0
LINE
  5
B4
330
B2
100
AcDbEntity
  8
0
  6
Continuous
 62
     0
370
     0
100
AcDbLine
 10
-95.646528
 20
63.731021
 30
0.0
 11
-100.149858
 21
63.731021
 31
0.0
  0
LINE
  5
B5
330
B2
100
AcDbEntity
  8
0
  6
Continuous
 62
     0
370
    30
100
AcDbLine
 10
-90.699969
 20
63.537411
 30
0.0
 11
-95.637274
 21
63.537411
 31
0.0
  0
LINE
  5
B6
330
B2
100
AcDbEntity
  8
0
  6
Continuous
 62
     0
370
    30
100
AcDbLine
 10
-95.637274
 20
63.537411
 30
0.0
 11
-100.000268
 21
63.537411
 31
0.0
  0
ARC
  5
B7
330
B2
100
AcDbEntity
  8
0
  6
Continuous
 62
     0
370
    30
100
AcDbCircle
 10
-95.345789
 20
77.575926
 30
0.0
 40
14.79000000000003
100
AcDbArc
 50
251.657025
 51
269.983226
  0
ARC
  5
B8
330
B2
100
AcDbEntity
  8
0
  6
Continuous
 62
     0
370
    30
100
AcDbCircle
 10
-95.354449
 20
77.575926
 30
0.0
 40
14.79000000000003
100
AcDbArc
 50
270.016774
 51
288.342975
  0
ARC
  5
B9
330
B2
100
AcDbEntity
  8
0
  6
Continuous
 62
     0
370
    30
100
AcDbCircle
 10
-90.752754
 20
63.734031
 30
0.0
 40
0.2035820887103841
100
AcDbArc
 50
285.027247
 51
313.582378
  0
ARC
  5
BA
330
B2
100
AcDbEntity
  8
0
  6
Continuous
 62
     0
370
    30
100
AcDbCircle
 10
-99.947148
 20
63.734015
 30
0.0
 40
0.2036542132195921
100
AcDbArc
 50
226.389811
 51
254.880172
  0
SPLINE
  5
BB
330
B2
100
AcDbEntity
  8
0
  6
Continuous
 62
     0
370
     0
100
AcDbSpline
210
0.0
220
0.0
230
1.0
 70
     8
 71
     3
 72
    14
 73
    10
 74
     0
 42
0.000000001
 43
0.0
 40
30.3536253005803
 40
30.3536253005803
 40
30.3536253005803
 40
30.3536253005803
 40
34.69137162723425
 40
39.02687277555464
 40
43.36148144101966
 40
47.69798630468826
 40
52.03606693161141
 40
56.37263841474423
 40
60.7072506011606
 40
60.7072506011606
 40
60.7072506011606
 40
60.7072506011606
 10
-78.51105055198468
 20
218.0865592956374
 30
0.0
 10
-78.5110744890662
 20
218.086560631344
 30
0.0
 10
-78.41813959379789
 20
217.5738176192683
 30
0.0
 10
-78.06794594432648
 20
215.3711529395588
 30
0.0
 10
-77.65431593251151
 20
212.0066785457487
 30
0.0
 10
-77.37783593468538
 20
207.8630163752463
 30
0.0
 10
-77.37389816461149
 20
203.4328229701236
 30
0.0
 10
-77.6435272414002
 20
199.2763973520219
 30
0.0
 10
-77.91951251282154
 20
197.008265293491
 30
0.0
 10
-78.04680588246839
 20
196.0744894276892
 30
0.0
  0
SPLINE
  5
BC
330
B2
100
AcDbEntity
  8
0
  6
Continuous
 62
     0
370
     0
100
AcDbSpline
210
0.0
220
0.0
230
1.0
 70
     8
 71
     3
 72
    14
 73
    10
 74
     0
 42
0.000000001
 43
0.0
 40
0.0
 40
0.0
 40
0.0
 40
0.0
 40
1.974027971177131
 40
3.936390186585609
 40
5.878649482336035
 40
7.790165265916714
 40
9.659696083105716
 40
11.4773290793628
 40
13.22973633779209
 40
13.22973633779209
 40
13.22973633779209
 40
13.22973633779209
 10
-78.04680719251922
 20
196.0744894451262
 30
0.0
 10
-77.38893629589802
 20
196.0657330550634
 30
0.0
 10
-76.07737988784044
 20
196.0322365187031
 30
0.0
 10
-74.12402486002645
 20
195.9275037548919
 30
0.0
 10
-72.20037416817837
 20
195.7723713405663
 30
0.0
 10
-70.32145833383947
 20
195.5674447224139
 30
0.0
 10
-68.50408023541962
 20
195.3160126024096
 30
0.0
 10
-66.76530941647115
 20
195.0288964919068
 30
0.0
 10
-65.64685790816725
 20
194.8164168417575
 30
0.0
 10
-65.10811625191218
 20
194.7053003493519
 30
0.0
  0
ARC
  5
BD
330
B2
100
AcDbEntity
  8
0
  6
Continuous
 62
     0
370
     0
100
AcDbCircle
 10
-77.044988
 20
137.103716
 30
0.0
 40
58.82543201142332
100
AcDbArc
 50
72.69067
 51
78.29222
  0
LINE
  5
BE
330
B2
100
AcDbEntity
  8
0
  6
Continuous
 62
     0
370
    30
100
AcDbLine
 10
-57.127084
 20
193.086559
 30
0.0
 11
-47.252084
 21
193.086559
 31
0.0
  0
LINE
  5
BF
330
B2
100
AcDbEntity
  8
0
  6
Continuous
 62
     0
370
    30
100
AcDbLine
 10
-47.252084
 20
193.086559
 30
0.0
 11
-47.252084
 21
218.086559
 31
0.0
  0
ARC
  5
C0
330
B2
100
AcDbEntity
  8
0
  6
Continuous
 62
     0
370
    30
100
AcDbCircle
 10
-58.979759
 20
183.086559
 30
0.0
 40
10.00000000000001
100
AcDbArc
 50
103.870751
 51
177.274228
  0
SPLINE
  5
C1
330
B2
100
AcDbEntity
  8
0
  6
Continuous
 62
     0
370
     0
100
AcDbSpline
210
0.0
220
0.0
230
1.0
 70
     8
 71
     3
 72
    13
 73
     9
 74
     0
 42
0.000000001
 43
0.0
 40
0.0
 40
0.0
 40
0.0
 40
0.0
 40
0.5473647493952614
 40
1.055149285041185
 40
2.027463515246973
 40
2.69558469592278
 40
3.554900930002945
 40
4.313303105046226
 40
4.313303105046226
 40
4.313303105046226
 40
4.313303105046226
 10
-68.9684450148784
 20
183.5621168287129
 30
0.0
 10
-68.9684449003995
 20
183.5621184452272
 30
0.0
 10
-68.98287808436442
 20
183.6011321895963
 30
0.0
 10
-69.06030403939116
 20
183.816062892659
 30
0.0
 10
-69.21508973280856
 20
184.2339023869518
 30
0.0
 10
-69.50695362176396
 20
184.8869851559988
 30
0.0
 10
-69.89369777325925
 20
185.5712117635045
 30
0.0
 10
-70.29458522268959
 20
186.0706721932245
 30
0.0
 10
-70.51679317642652
 20
186.2989697643975
 30
0.0
  0
ELLIPSE
  5
C2
330
B2
100
AcDbEntity
  8
0
  6
Continuous
 62
     0
370
     0
100
AcDbEllipse
 10
-65.108116
 20
186.000293
 30
0.0
 11
3.480422335468908
 21
9.374788550509777
 31
0.0
210
0.0
220
0.0
230
-1.0
 40
0.524222
 41
4.551450636358107
 42
5.666977543422749
  0
SPLINE
  5
C3
330
B2
100
AcDbEntity
  8
0
  6
Continuous
 62
     0
370
     0
100
AcDbSpline
210
0.0
220
0.0
230
1.0
 70
     8
 71
     3
 72
    10
 73
     6
 74
     0
 42
0.000000001
 43
0.0
 40
0.0
 40
0.0
 40
0.0
 40
0.0
 40
2.798270619055192
 40
5.595978195444554
 40
8.393884764184449
 40
8.393884764184449
 40
8.393884764184449
 40
8.393884764184449
 10
-78.04680726400852
 20
196.0744871293126
 30
0.0
 10
-78.14890929858808
 20
195.4729574732623
 30
0.0
 10
-78.29015451947078
 20
194.057677963314
 30
0.0
 10
-78.37818773647632
 20
191.5012363182916
 30
0.0
 10
-78.38769536026552
 20
189.6318195610833
 30
0.0
 10
-78.38492446582597
 20
188.6994425770513
 30
0.0
  0
SPLINE
  5
C4
330
B2
100
AcDbEntity
  8
0
  6
Continuous
 62
     0
370
     0
100
AcDbSpline
210
0.0
220
0.0
230
1.0
 70
     8
 71
     3
 72
    39
 73
    35
 74
     0
 42
0.000000001
 43
0.0
 40
0.9242651249458449
 40
0.9242651249458449
 40
0.9242651249458449
 40
0.9242651249458449
 40
1.095853179809037
 40
1.243779472733291
 40
1.397011119722972
 40
1.55336319157057
 40
1.709964074651579
 40
1.870272236443196
 40
2.190564059117389
 40
2.51612165308385
 40
2.844834989681557
 40
3.010170490642
 40
3.433741361106049
 40
3.795062718559564
 40
4.156384076013079
 40
4.517705433466594
 40
4.803096995319677
 40
5.088488557172762
 40
5.387077130908893
 40
5.685665704645024
 40
5.982327788684009
 40
6.278989872722995
 40
6.57565195676198
 40
6.872314040800966
 40
7.241517648492657
 40
7.610721256184348
 40
7.897011590779721
 40
8.183301925375094
 40
8.453921848578155
 40
8.724541771781217
 40
9.083876701511235
 40
9.43167664429852
 40
9.667430175905203
 40
10.02769626272259
 40
10.02769626272259
 40
10.02769626272259
 40
10.02769626272259
 10
-78.38492446582597
 20
188.6994425770513
 30
0.0
 10
-78.31680176168169
 20
188.6975202845967
 30
0.0
 10
-78.19576371733962
 20
188.6935076580683
 30
0.0
 10
-78.01384478099487
 20
188.6862253474907
 30
0.0
 10
-77.84690983250732
 20
188.6780659490095
 30
0.0
 10
-77.67964321376411
 20
188.6685065570697
 30
0.0
 10
-77.51013062492171
 20
188.6574741927656
 30
0.0
 10
-77.27941923799494
 20
188.6407564446705
 30
0.0
 10
-76.9865033902949
 20
188.6160342972273
 30
0.0
 10
-76.64159325199148
 20
188.5804317362443
 30
0.0
 10
-76.35386719045164
 20
188.5455185086798
 30
0.0
 10
-76.03439341051921
 20
188.5022388067744
 30
0.0
 10
-75.7063200240201
 20
188.4522543160288
 30
0.0
 10
-75.314653532595
 20
188.3837337490739
 30
0.0
 10
-74.95031764382486
 20
188.3119293923262
 30
0.0
 10
-74.61947571894217
 20
188.2387872163575
 30
0.0
 10
-74.32208649726118
 20
188.1660066175817
 30
0.0
 10
-74.05192042969719
 20
188.0939376476794
 30
0.0
 10
-73.78533174874826
 20
188.0164791211817
 30
0.0
 10
-73.5225400090751
 20
187.9335954130674
 30
0.0
 10
-73.26673034265417
 20
187.8464907859168
 30
0.0
 10
-73.0177728706953
 20
187.7552961666256
 30
0.0
 10
-72.77503361172967
 20
187.6599211263753
 30
0.0
 10
-72.51914598600928
 20
187.5523567175419
 30
0.0
 10
-72.25187670045983
 20
187.4314843889291
 30
0.0
 10
-71.99589167210263
 20
187.3064173108986
 30
0.0
 10
-71.76758367851761
 20
187.1873075756359
 30
0.0
 10
-71.5668898806249
 20
187.0775384170858
 30
0.0
 10
-71.37182023219862
 20
186.9669458327583
 30
0.0
 10
-71.16895162913329
 20
186.8439690858065
 30
0.0
 10
-70.96997123154301
 20
186.7076525822941
 30
0.0
 10
-70.80521004024672
 20
186.5739329933739
 30
0.0
 10
-70.65567919715232
 20
186.4383598260869
 30
0.0
 10
-70.56809910381645
 20
186.3516817326819
 30
0.0
 10
-70.51679317642652
 20
186.2989697643975
 30
0.0
  0
LINE
  5
C5
330
B2
100
AcDbEntity
  8
0
  6
Continuous
 62
     0
370
    30
100
AcDbLine
 10
-68.968445
 20
183.562117
 30
0.0
 11
-70.666345
 21
147.899148
 31
0.0
  0
LINE
  5
C6
330
B2
100
AcDbEntity
  8
0
  6
Continuous
 62
     0
370
     0
100
AcDbLine
 10
-72.030833
 20
147.899152
 30
0.0
 11
-70.516793
 21
186.29897
 31
0.0
  0
LINE
  5
C7
330
B2
100
AcDbEntity
  8
0
  6
Continuous
 62
     0
370
     0
100
AcDbLine
 10
-78.302561
 20
147.899143
 30
0.0
 11
-78.441656
 21
147.899142
 31
0.0
  0
ARC
  5
C8
330
B2
100
AcDbEntity
  8
0
  6
Continuous
 62
     0
370
     0
100
AcDbCircle
 10
-92533.552763
 20
297.194341
 30
0.0
 40
92455.23164685033
100
AcDbArc
 50
359.90748
 51
359.932764
  0
ARC
  5
C9
330
B2
100
AcDbEntity
  8
0
  6
Continuous
 62
     0
370
     0
100
AcDbCircle
 10
84041.546229
 20
73.322614
 30
0.0
 40
84121.54655918415
100
AcDbArc
 50
179.921392
 51
179.949183
  0
ELLIPSE
  5
CA
330
B2
100
AcDbEntity
  8
0
  6
Continuous
 62
     0
370
     0
100
AcDbEllipse
 10
-78.423541
 20
188.734342
 30
0.0
 11
-1.499998709516729
 21
0.001967599590440786
 31
0.0
210
0.0
220
0.0
230
1.0
 40
0.023243
 41
0.0563728589108443
 42
1.596673822175021
  0
ARC
  5
CB
330
B2
100
AcDbEntity
  8
0
  6
Continuous
 62
     0
370
    30
100
AcDbCircle
 10
-78.511095
 20
142.633482
 30
0.0
 40
1.500000000000002
100
AcDbArc
 50
179.999996
 51
272.069689
  0
SPLINE
  5
CC
330
B2
100
AcDbEntity
  8
0
  6
Continuous
 62
     0
370
     0
100
AcDbSpline
210
0.0
220
0.0
230
1.0
 70
     8
 71
     3
 72
    18
 73
    14
 74
     0
 42
0.000000001
 43
0.0
 40
0.0
 40
0.0
 40
0.0
 40
0.0
 40
0.7040270164530424
 40
1.295759034053318
 40
1.633227194692992
 40
1.882695714651265
 40
2.085978384419887
 40
2.399476426375227
 40
2.76062993912089
 40
3.281803497912946
 40
3.731036026613197
 40
4.746184634738002
 40
6.511452760270865
 40
6.511452760270865
 40
6.511452760270865
 40
6.511452760270865
 10
-80.01109514667849
 20
142.6334822816064
 30
0.0
 10
-80.01109844599563
 20
142.6334821881034
 30
0.0
 10
-80.00817072851885
 20
142.6925486154804
 30
0.0
 10
-79.99894190732073
 20
142.9282134327919
 30
0.0
 10
-79.99097038769713
 20
143.1687841056701
 30
0.0
 10
-79.98534950494809
 20
143.3542176654715
 30
0.0
 10
-79.98104520774336
 20
143.5741548029113
 30
0.0
 10
-79.97751759224604
 20
143.8494702892302
 30
0.0
 10
-79.97437458487451
 20
144.2392261637963
 30
0.0
 10
-79.97251282163762
 20
144.6807797819793
 30
0.0
 10
-79.97092685840283
 20
145.3413193733145
 30
0.0
 10
-79.96894257886436
 20
146.4167240323357
 30
0.0
 10
-79.96775522320036
 20
147.3430893749012
 30
0.0
 10
-79.9672440750499
 20
147.9313761393639
 30
0.0
  0
SPLINE
  5
CD
330
B2
100
AcDbEntity
  8
0
  6
Continuous
 62
     0
370
     0
100
AcDbSpline
210
0.0
220
0.0
230
1.0
 70
     8
 71
     3
 72
    30
 73
    26
 74
     0
 42
0.000000001
 43
0.0
 40
0.0
 40
0.0
 40
0.0
 40
0.0
 40
1.235145892692358
 40
2.006058848014206
 40
2.780214246370494
 40
3.168132528337276
 40
3.76883019244176
 40
4.181684194939619
 40
4.745873156081188
 40
5.08420702685574
 40
5.419789841509303
 40
5.717410124962531
 40
5.99869121836398
 40
6.188442537829291
 40
6.274239072090314
 40
6.358435919717284
 40
6.452677978863814
 40
6.61239143561952
 40
6.727729837536588
 40
6.845000371816663
 40
6.958969470560348
 40
7.179509089822062
 40
7.396680465335415
 40
7.99153302971622
 40
8.826216395009139
 40
8.826216395009139
 40
8.826216395009139
 40
8.826216395009139
 10
-78.44165605243131
 20
147.8991418863841
 30
0.0
 10
-78.44218046600008
 20
147.5904422115334
 30
0.0
 10
-78.43770123788192
 20
147.0887902563767
 30
0.0
 10
-78.42075060276801
 20
146.3933265723307
 30
0.0
 10
-78.40381163949411
 20
145.9096502219217
 30
0.0
 10
-78.38518376758077
 20
145.4681327923772
 30
0.0
 10
-78.36841433809803
 20
145.1176428553906
 30
0.0
 10
-78.34559177108463
 20
144.7055768254035
 30
0.0
 10
-78.32182382155099
 20
144.3283674611371
 30
0.0
 10
-78.29731161116632
 20
143.9325586000597
 30
0.0
 10
-78.27887370136222
 20
143.5986542460848
 30
0.0
 10
-78.26365671851153
 20
143.25129570876
 30
0.0
 10
-78.25542634064135
 20
142.9201231286085
 30
0.0
 10
-78.25735057817212
 20
142.6493056074927
 30
0.0
 10
-78.26419065203231
 20
142.467029529109
 30
0.0
 10
-78.27228448108258
 20
142.334444760885
 30
0.0
 10
-78.28437184437155
 20
142.1955690064173
 30
0.0
 10
-78.29657304023033
 20
142.0857329709912
 30
0.0
 10
-78.30873489099872
 20
141.984742979847
 30
0.0
 10
-78.31952688007277
 20
141.9003742326097
 30
0.0
 10
-78.33432761085828
 20
141.7910501926105
 30
0.0
 10
-78.35337480765907
 20
141.6631907289154
 30
0.0
 10
-78.38874740405828
 20
141.4508147941975
 30
0.0
 10
-78.43943775982268
 20
141.2010124537424
 30
0.0
 10
-78.45692581388403
 20
141.1344606264361
 30
0.0
 10
-78.45692260505086
 20
141.1344607110764
 30
0.0
  0
LINE
  5
CE
330
B2
100
AcDbEntity
  8
0
  6
Continuous
 62
     0
370
     0
100
AcDbLine
 10
-72.030833
 20
147.899152
 30
0.0
 11
-72.21644
 21
143.191573
 31
0.0
  0
SPLINE
  5
CF
330
B2
100
AcDbEntity
  8
0
  6
Continuous
 62
     0
370
    30
100
AcDbSpline
210
0.0
220
0.0
230
1.0
 70
     8
 71
     3
 72
    14
 73
    10
 74
     0
 42
0.000000001
 43
0.0
 40
0.0
 40
0.0
 40
0.0
 40
0.0
 40
0.959869858522463
 40
1.920209553095731
 40
2.881080345005874
 40
3.842023616642013
 40
4.803136771199672
 40
5.764136911794927
 40
6.725779570084066
 40
6.725779570084066
 40
6.725779570084066
 40
6.725779570084066
 10
-72.21644012597255
 20
143.1915729226796
 30
0.0
 10
-72.43762565631795
 20
142.9603820934416
 30
0.0
 10
-72.92953805948122
 20
142.5433895106495
 30
0.0
 10
-73.76362620767543
 20
142.0595528201509
 30
0.0
 10
-74.6590344435213
 20
141.7038086767171
 30
0.0
 10
-75.58801837109723
 20
141.4518609555194
 30
0.0
 10
-76.53533618945141
 20
141.284420619665
 30
0.0
 10
-77.49158608519116
 20
141.1813152681334
 30
0.0
 10
-78.1317531549368
 20
141.1462717755177
 30
0.0
 10
-78.45208944415856
 20
141.1346358230576
 30
0.0
  0
SPLINE
  5
D0
330
B2
100
AcDbEntity
  8
0
  6
Continuous
 62
     0
370
    30
100
AcDbSpline
210
0.0
220
0.0
230
1.0
 70
     8
 71
     3
 72
    14
 73
    10
 74
     0
 42
0.000000001
 43
0.0
 40
0.0
 40
0.0
 40
0.0
 40
0.0
 40
0.7294674980048472
 40
1.450373905297451
 40
2.163775695996503
 40
2.872397796944338
 40
3.581869314751405
 40
4.303289579881687
 40
5.058649601130069
 40
5.058649601130069
 40
5.058649601130069
 40
5.058649601130069
 10
-70.66634528570137
 20
147.8991483339916
 30
0.0
 10
-70.67790871107661
 20
147.6562680179333
 30
0.0
 10
-70.71122860625871
 20
147.1737448587489
 30
0.0
 10
-70.79950940510082
 20
146.4574954804513
 30
0.0
 10
-70.93374044750914
 20
145.7552557691313
 30
0.0
 10
-71.12405807227151
 20
145.0697226955212
 30
0.0
 10
-71.38461464477808
 20
144.4041433056515
 30
0.0
 10
-71.73631385757852
 20
143.7632549483451
 30
0.0
 10
-72.04238080445333
 20
143.3735060022203
 30
0.0
 10
-72.216440442953
 20
143.1915728235233
 30
0.0
  0
SPLINE
  5
D1
330
B2
100
AcDbEntity
  8
0
  6
Continuous
 62
     0
370
     0
100
AcDbSpline
210
0.0
220
0.0
230
1.0
 70
     8
 71
     3
 72
    19
 73
    15
 74
     0
 42
0.000000001
 43
0.0
 40
0.0
 40
0.0
 40
0.0
 40
0.0
 40
1.944818689850858
 40
3.879518989130776
 40
5.805642800460687
 40
7.725571429675663
 40
9.642265420132297
 40
11.55909434387184
 40
13.4793174695907
 40
15.40586401667402
 40
17.34099563188875
 40
19.28673070470717
 40
23.18505413553117
 40
27.10360883960967
 40
27.10360883960967
 40
27.10360883960967
 40
27.10360883960967
 10
-79.53389168046385
 20
197.2159379317881
 30
0.0
 10
-79.46827572548818
 20
197.6271974234459
 30
0.0
 10
-79.33177686333886
 20
198.5348793540056
 30
0.0
 10
-79.13808943774461
 20
200.1119231318114
 30
0.0
 10
-78.97998171851953
 20
201.8573787306825
 30
0.0
 10
-78.8773547563793
 20
203.719475101118
 30
0.0
 10
-78.84299139991435
 20
205.6408143354867
 30
0.0
 10
-78.88136675853002
 20
207.5604291526368
 30
0.0
 10
-78.98754512503274
 20
209.4175176690038
 30
0.0
 10
-79.14826223744274
 20
211.1544652029565
 30
0.0
 10
-79.34327723581288
 20
212.7216125359265
 30
0.0
 10
-79.61643421388885
 20
214.5201647581318
 30
0.0
 10
-79.91617122659996
 20
216.1394402626293
 30
0.0
 10
-80.01110526248586
 20
216.5865412545754
 30
0.0
 10
-80.01108966692307
 20
216.5865093858317
 30
0.0
  0
SPLINE
  5
D2
330
B2
100
AcDbEntity
  8
0
  6
Continuous
 62
     0
370
     0
100
AcDbSpline
210
0.0
220
0.0
230
1.0
 70
     8
 71
     3
 72
    14
 73
    10
 74
     0
 42
0.000000001
 43
0.0
 40
0.0
 40
0.0
 40
0.0
 40
0.0
 40
1.382864170633273
 40
2.767013309008381
 40
4.153480982412725
 40
5.543211805218741
 40
6.936725925118182
 40
8.334218231834106
 40
9.738528679551933
 40
9.738528679551933
 40
9.738528679551933
 40
9.738528679551933
 10
-79.92115806423641
 20
188.7343511740748
 30
0.0
 10
-79.92053703343788
 20
189.1951740421148
 30
0.0
 10
-79.91610583422266
 20
190.1168825095505
 30
0.0
 10
-79.89896868636208
 20
191.4744686165695
 30
0.0
 10
-79.86900349443266
 20
192.7886996965617
 30
0.0
 10
-79.82270405186
 20
194.039798091274
 30
0.0
 10
-79.75575493376056
 20
195.2097019791029
 30
0.0
 10
-79.66345398314695
 20
196.2825952031689
 30
0.0
 10
-79.58127196416774
 20
196.9189728634235
 30
0.0
 10
-79.53389220263136
 20
197.2159345640625
 30
0.0
  0
ELLIPSE
  5
D3
330
B2
100
AcDbEntity
  8
0
  6
Continuous
 62
     0
370
     0
100
AcDbEllipse
 10
-78.046807
 20
197.215935
 30
0.0
 11
1.482319950822036
 21
-0.2296248318343702
 31
0.0
210
0.0
220
0.0
230
-1.0
 40
0.757151
 41
1.454040551322593
 42
2.939782519236672
  0
LINE
  5
D4
330
B2
100
AcDbEntity
  8
0
  6
Continuous
 62
     0
370
     0
100
AcDbLine
 10
-72.030833
 20
147.899152
 30
0.0
 11
-78.302561
 21
147.899143
 31
0.0
  0
ELLIPSE
  5
D5
330
B2
100
AcDbEntity
  8
0
  6
Continuous
 62
     0
370
     0
100
AcDbEllipse
 10
-78.468405
 20
147.931376
 30
0.0
 11
1.499999463379547
 21
-0.001268803007687873
 31
0.0
210
0.0
220
0.0
230
-1.0
 40
0.021478
 41
1.552944393944632
 42
3.102233043432753
  0
SPLINE
  5
D6
330
B2
100
AcDbEntity
  8
0
  6
Continuous
 62
     0
370
     0
100
AcDbSpline
210
0.0
220
0.0
230
1.0
 70
     8
 71
     9
 72
    20
 73
    10
 74
     0
 42
0.000000001
 43
0.0
 40
0.0
 40
0.0
 40
0.0
 40
0.0
 40
0.0
 40
0.0
 40
0.0
 40
0.0
 40
0.0
 40
0.0
 40
0.2499999949532693
 40
0.2499999949532693
 40
0.2499999949532693
 40
0.2499999949532693
 40
0.2499999949532693
 40
0.2499999949532693
 40
0.2499999949532693
 40
0.2499999949532693
 40
0.2499999949532693
 40
0.2499999949532693
 10
-70.66634537565392
 20
147.899148345309
 30
0.0
 10
-70.66634528456859
 20
147.8991483310394
 30
0.0
 10
-70.69799504085097
 20
147.8991381509231
 30
0.0
 10
-70.76777928037734
 20
147.8991399029935
 30
0.0
 10
-70.88271842804005
 20
147.8991424824786
 30
0.0
 10
-71.05157394097898
 20
147.89914571744
 30
0.0
 10
-71.26145589360124
 20
147.8991486686168
 30
0.0
 10
-71.49980550259613
 20
147.8991509310718
 30
0.0
 10
-71.75822685167304
 20
147.8991522241258
 30
0.0
 10
-72.03083291597045
 20
147.8991523615771
 30
0.0
  0
ARC
  5
D7
330
B2
100
AcDbEntity
  8
0
  6
Continuous
 62
     0
370
     0
100
AcDbCircle
 10
-59.264284
 20
180.600064
 30
0.0
 40
12.66807715123961
100
AcDbArc
 50
80.287321
 51
91.259052
  0
SPLINE
  5
D8
330
B2
100
AcDbEntity
  8
0
  6
Continuous
 62
     0
370
     0
100
AcDbSpline
210
0.0
220
0.0
230
1.0
 70
     8
 71
     3
 72
    14
 73
    10
 74
     0
 42
0.000000001
 43
0.0
 40
0.0
 40
0.0
 40
0.0
 40
0.0
 40
0.440757904857497
 40
0.8809951498000718
 40
1.321542685411743
 40
1.762258113484925
 40
2.20286425169064
 40
2.643363622710561
 40
3.083672144984925
 40
3.083672144984925
 40
3.083672144984925
 40
3.083672144984925
 10
-59.5426489262955
 20
193.2650799178178
 30
0.0
 10
-59.68814863437973
 20
193.2616508055586
 30
0.0
 10
-59.97545650478503
 20
193.2430477150036
 30
0.0
 10
-60.37151840020402
 20
193.1808316318959
 30
0.0
 10
-60.71667330455131
 20
193.0914148833387
 30
0.0
 10
-60.99958085749955
 20
192.9880480194571
 30
0.0
 10
-61.21223052618268
 20
192.8884974407783
 30
0.0
 10
-61.34619466991842
 20
192.8138982656837
 30
0.0
 10
-61.37708652287205
 20
192.7949489295966
 30
0.0
 10
-61.37708387340354
 20
192.7949491846858
 30
0.0
  0
ARC
  5
D9
330
B2
100
AcDbEntity
  8
0
  6
Continuous
 62
     0
370
    30
100
AcDbCircle
 10
-46.602084
 20
216.086559
 30
0.0
 40
0.25
100
AcDbArc
 50
270.0
 51
360.0
  0
ARC
  5
DA
330
B2
100
AcDbEntity
  8
0
  6
Continuous
 62
     0
370
    30
100
AcDbCircle
 10
-46.152084
 20
235.386559
 30
0.0
 40
0.2000000029802322
100
AcDbArc
 50
90.0
 51
180.0
  0
LINE
  5
DB
330
B2
100
AcDbEntity
  8
0
  6
Continuous
 62
     0
370
    30
100
AcDbLine
 10
-46.152084
 20
235.586559
 30
0.0
 11
-40.652084
 21
235.586559
 31
0.0
  0
LINE
  5
DC
330
B2
100
AcDbEntity
  8
0
  6
Continuous
 62
     0
370
     0
100
AcDbLine
 10
-46.602084
 20
195.336559
 30
0.0
 11
-46.602084
 21
215.836559
 31
0.0
  0
LINE
  5
DD
330
B2
100
AcDbEntity
  8
0
  6
Continuous
 62
     0
370
    30
100
AcDbLine
 10
-46.352084
 20
175.786559
 30
0.0
 11
-46.352084
 21
235.386559
 31
0.0
  0
LINE
  5
DE
330
B2
100
AcDbEntity
  8
0
  6
Continuous
 62
     0
370
     0
100
AcDbLine
 10
-46.152084
 20
175.586559
 30
0.0
 11
-46.152084
 21
235.586559
 31
0.0
  0
LINE
  5
DF
330
B2
100
AcDbEntity
  8
0
  6
Continuous
 62
     0
370
    30
100
AcDbLine
 10
-40.652084
 20
175.586559
 30
0.0
 11
-40.652084
 21
235.586559
 31
0.0
  0
LINE
  5
E0
330
B2
100
AcDbEntity
  8
0
  6
Continuous
 62
     0
370
    30
100
AcDbLine
 10
-47.252084
 20
215.836559
 30
0.0
 11
-46.602084
 21
215.836559
 31
0.0
  0
SPLINE
  5
E1
330
B2
100
AcDbEntity
  8
0
  6
Continuous
 62
     0
370
    30
100
AcDbSpline
210
0.0
220
0.0
230
1.0
 70
     8
 71
     3
 72
    14
 73
    10
 74
     0
 42
0.000000001
 43
0.0
 40
0.0
 40
0.0
 40
0.0
 40
0.0
 40
1.513815793375246
 40
2.2444493141925
 40
2.983995229909195
 40
3.35606660294912
 40
3.728579967711822
 40
4.001904634258905
 40
4.274587389037798
 40
4.274587389037798
 40
4.274587389037798
 40
4.274587389037798
 10
-57.12708387383668
 20
193.0865592960043
 30
0.0
 10
-57.63168735303702
 20
193.0865592957084
 30
0.0
 10
-58.37977362357066
 20
193.1006514809434
 30
0.0
 10
-59.37453106867758
 20
193.0874624451483
 30
0.0
 10
-59.98758018665256
 20
193.0460264543505
 30
0.0
 10
-60.47843399047036
 20
192.9832383237097
 30
0.0
 10
-60.81276106915743
 20
192.9248550129799
 30
0.0
 10
-61.11218020978396
 20
192.8605555491076
 30
0.0
 10
-61.28866764031613
 20
192.8160284287175
 30
0.0
 10
-61.37708387355536
 20
192.794949184405
 30
0.0
  0
ARC
  5
E2
330
B2
100
AcDbEntity
  8
0
  6
Continuous
 62
     0
370
    30
100
AcDbCircle
 10
-78.51103
 20
216.586483
 30
0.0
 40
1.500016838989423
100
AcDbArc
 50
90.00079
 51
179.998999
  0
LINE
  5
E3
330
B2
100
AcDbEntity
  8
0
  6
Continuous
 62
     0
370
    30
100
AcDbLine
 10
-80.011095
 20
142.633482
 30
0.0
 11
-80.01109
 21
216.586509
 31
0.0
  0
LINE
  5
E4
330
B2
100
AcDbEntity
  8
0
  6
Continuous
 62
     0
370
    30
100
AcDbLine
 10
-80.011095
 20
142.633482
 30
0.0
 11
-80.009325
 21
142.560628
 31
0.0
  0
LINE
  5
E5
330
B2
100
AcDbEntity
  8
0
  6
Continuous
 62
     0
370
    30
100
AcDbLine
 10
-78.511051
 20
218.086559
 30
0.0
 11
-47.252084
 21
218.086559
 31
0.0
  0
LINE
  5
E6
330
B2
100
AcDbEntity
  8
0
  6
Continuous
 62
     0
370
    30
100
AcDbLine
 10
-46.152084
 20
175.586559
 30
0.0
 11
-40.652084
 21
175.586559
 31
0.0
  0
ARC
  5
E7
330
B2
100
AcDbEntity
  8
0
  6
Continuous
 62
     0
370
    30
100
AcDbCircle
 10
-46.152084
 20
175.786559
 30
0.0
 40
0.2000000029802322
100
AcDbArc
 50
180.0
 51
270.0
  0
ARC
  5
E8
330
B2
100
AcDbEntity
  8
0
  6
Continuous
 62
     0
370
    30
100
AcDbCircle
 10
-46.602084
 20
195.086559
 30
0.0
 40
0.25
100
AcDbArc
 50
0.0
 51
90.0
  0
LINE
  5
E9
330
B2
100
AcDbEntity
  8
0
  6
Continuous
 62
     0
370
    30
100
AcDbLine
 10
-47.252084
 20
195.336559
 30
0.0
 11
-46.602084
 21
195.336559
 31
0.0
  0
LINE
  5
EA
330
B2
100
AcDbEntity
  8
0
  6
Continuous
 62
     0
370
    30
100
AcDbLine
 10
-51.597089
 20
65.186559
 30
0.0
 11
-51.599565
 21
64.884104
 31
0.0
  0
ARC
  5
EB
330
B2
100
AcDbEntity
  8
0
  6
Continuous
 62
     0
370
    30
100
AcDbCircle
 10
-51.899555
 20
64.88656
 30
0.0
 40
0.3000007976201424
100
AcDbArc
 50
269.999886
 51
359.530913
  0
LINE
  5
EC
330
B2
100
AcDbEntity
  8
0
  6
Continuous
 62
     0
370
    30
100
AcDbLine
 10
-51.899556
 20
64.586559
 30
0.0
 11
-53.460683
 21
64.586559
 31
0.0
  0
ARC
  5
ED
330
B2
100
AcDbEntity
  8
0
  6
Continuous
 62
     0
370
    30
100
AcDbCircle
 10
-53.460683
 20
64.88656
 30
0.0
 40
0.3000007975586264
100
AcDbArc
 50
180.469087
 51
270.000114
  0
ARC
  5
EE
330
B2
100
AcDbEntity
  8
0
  6
Continuous
 62
     0
370
    30
100
AcDbCircle
 10
-54.061933
 20
65.036559
 30
0.0
 40
0.3000007634889668
100
AcDbArc
 50
0.469088
 51
90.00012
  0
LINE
  5
EF
330
B2
100
AcDbEntity
  8
0
  6
Continuous
 62
     0
370
    30
100
AcDbLine
 10
-54.061933
 20
65.336559
 30
0.0
 11
-54.350119
 21
65.336559
 31
0.0
  0
LINE
  5
F0
330
B2
100
AcDbEntity
  8
0
  6
Continuous
 62
     0
370
    30
100
AcDbLine
 10
-100.087618
 20
63.586559
 30
0.0
 11
-103.850119
 21
63.586559
 31
0.0
  0
LINE
  5
F1
330
B2
100
AcDbEntity
  8
0
  6
Continuous
 62
     0
370
    30
100
AcDbLine
 10
-54.350119
 20
63.586559
 30
0.0
 11
-90.612405
 21
63.586559
 31
0.0
  0
LINE
  5
F2
330
B2
100
AcDbEntity
  8
0
  6
Continuous
 62
     0
370
    30
100
AcDbLine
 10
-103.850119
 20
63.586559
 30
0.0
 11
-104.350119
 21
64.086559
 31
0.0
  0
LINE
  5
F3
330
B2
100
AcDbEntity
  8
0
  6
Continuous
 62
     0
370
     0
100
AcDbLine
 10
-51.599565
 20
64.884104
 30
0.0
 11
-51.599565
 21
106.289014
 31
0.0
  0
LINE
  5
F4
330
B2
100
AcDbEntity
  8
0
  6
Continuous
 62
     0
370
     0
100
AcDbLine
 10
-51.899556
 20
64.586559
 30
0.0
 11
-51.899556
 21
106.586559
 31
0.0
  0
LINE
  5
F5
330
B2
100
AcDbEntity
  8
0
  6
Continuous
 62
     0
370
     0
100
AcDbLine
 10
-53.460683
 20
64.58656
 30
0.0
 11
-53.460683
 21
106.586559
 31
0.0
  0
LINE
  5
F6
330
B2
100
AcDbEntity
  8
0
  6
Continuous
 62
     0
370
     0
100
AcDbLine
 10
-53.761942
 20
65.039015
 30
0.0
 11
-53.761942
 21
106.134104
 31
0.0
  0
LINE
  5
F7
330
B2
100
AcDbEntity
  8
0
  6
Continuous
 62
     0
370
     0
100
AcDbLine
 10
-54.061933
 20
65.336559
 30
0.0
 11
-54.061933
 21
105.836559
 31
0.0
  0
LINE
  5
F8
330
B2
100
AcDbEntity
  8
0
  6
Continuous
 62
     0
370
    30
100
AcDbLine
 10
-54.350119
 20
63.586559
 30
0.0
 11
-54.350119
 21
107.586559
 31
0.0
  0
LINE
  5
F9
330
B2
100
AcDbEntity
  8
0
  6
Continuous
 62
     0
370
    30
100
AcDbLine
 10
-103.850119
 20
63.586559
 30
0.0
 11
-103.850119
 21
107.586559
 31
0.0
  0
LINE
  5
FA
330
B2
100
AcDbEntity
  8
0
  6
Continuous
 62
     0
370
    30
100
AcDbLine
 10
-104.350119
 20
64.086559
 30
0.0
 11
-104.350119
 21
107.086559
 31
0.0
  0
LINE
  5
FB
330
B2
100
AcDbEntity
  8
0
  6
Continuous
 62
     0
370
    30
100
AcDbLine
 10
-91.900119
 20
115.416559
 30
0.0
 11
-91.400119
 21
114.916559
 31
0.0
  0
LINE
  5
FC
330
B2
100
AcDbEntity
  8
0
  6
Continuous
 62
     0
370
    30
100
AcDbLine
 10
-98.800119
 20
115.416559
 30
0.0
 11
-91.900119
 21
115.416559
 31
0.0
  0
LINE
  5
FD
330
B2
100
AcDbEntity
  8
0
  6
Continuous
 62
     0
370
    30
100
AcDbLine
 10
-99.300119
 20
114.916559
 30
0.0
 11
-91.400119
 21
114.916559
 31
0.0
  0
LINE
  5
FE
330
B2
100
AcDbEntity
  8
0
  6
Continuous
 62
     0
370
    30
100
AcDbLine
 10
-91.400119
 20
114.916559
 30
0.0
 11
-91.400119
 21
107.586559
 31
0.0
  0
SPLINE
  5
FF
330
B2
100
AcDbEntity
  8
0
  6
Continuous
 62
     0
370
    30
100
AcDbSpline
210
0.0
220
0.0
230
1.0
 70
     8
 71
     3
 72
    18
 73
    14
 74
     0
 42
0.000000001
 43
0.0
 40
12.43446715808202
 40
12.43446715808202
 40
12.43446715808202
 40
12.43446715808202
 40
13.13217674187914
 40
14.76638620431957
 40
16.39832183530182
 40
18.00830472342004
 40
19.54948411969339
 40
20.44116957214131
 40
21.18588139136671
 40
22.29953856557666
 40
22.81394826183236
 40
24.06217808093032
 40
24.86893431616404
 40
24.86893431616404
 40
24.86893431616404
 40
24.86893431616404
 10
-99.29974338655978
 20
107.5863163037648
 30
0.0
 10
-99.29980045796646
 20
107.5863531100046
 30
0.0
 10
-99.23189987816426
 20
107.5745107657074
 30
0.0
 10
-98.72740795673332
 20
107.4849655175229
 30
0.0
 10
-97.54772615683859
 20
107.3256844409794
 30
0.0
 10
-96.03107241742572
 20
107.2201052911899
 30
0.0
 10
-94.65747582462615
 20
107.2288732950806
 30
0.0
 10
-93.6542900946198
 20
107.2912744971594
 30
0.0
 10
-92.87028788793947
 20
107.3663038722317
 30
0.0
 10
-92.30552353825436
 20
107.4403604300704
 30
0.0
 10
-91.77708085808314
 20
107.5204248240276
 30
0.0
 10
-91.47023474273857
 20
107.5738867393163
 30
0.0
 10
-91.40011933546475
 20
107.5865592956543
 30
0.0
 10
-91.40011932373065
 20
107.5865592956543
 30
0.0
  0
ARC
  5
100
330
B2
100
AcDbEntity
  8
0
  6
Continuous
 62
     0
370
    30
100
AcDbCircle
 10
-50.145211
 20
150.086555
 30
0.0
 40
0.5000044378854371
100
AcDbArc
 50
90.000493
 51
178.249849
  0
LINE
  5
101
330
B2
100
AcDbEntity
  8
0
  6
Continuous
 62
     0
370
    30
100
AcDbLine
 10
-50.145215
 20
150.586559
 30
0.0
 11
-41.130119
 21
150.586559
 31
0.0
  0
LINE
  5
102
330
B2
100
AcDbEntity
  8
0
  6
Continuous
 62
     0
370
     0
100
AcDbLine
 10
-50.644982
 20
21.071293
 30
0.0
 11
-50.644982
 21
150.101826
 31
0.0
  0
LINE
  5
103
330
B2
100
AcDbEntity
  8
0
  6
Continuous
 62
     0
370
     0
100
AcDbLine
 10
-50.145215
 20
20.586559
 30
0.0
 11
-50.145215
 21
150.586559
 31
0.0
  0
LINE
  5
104
330
B2
100
AcDbEntity
  8
0
  6
Continuous
 62
     0
370
    30
100
AcDbLine
 10
-41.130119
 20
20.586559
 30
0.0
 11
-41.130119
 21
150.586559
 31
0.0
  0
LINE
  5
105
330
B2
100
AcDbEntity
  8
0
  6
Continuous
 62
     0
370
    30
100
AcDbLine
 10
-51.531641
 20
65.186559
 30
0.0
 11
-51.597089
 21
65.186559
 31
0.0
  0
ARC
  5
106
330
B2
100
AcDbEntity
  8
0
  6
Continuous
 62
     0
370
    30
100
AcDbCircle
 10
2061.370268
 20
85.586552
 30
0.0
 40
2113.00038687978
100
AcDbArc
 50
178.250342
 51
179.446828
  0
LINE
  5
107
330
B2
100
AcDbEntity
  8
0
  6
Continuous
 62
     0
370
    30
100
AcDbLine
 10
-51.531641
 20
65.186559
 30
0.0
 11
-51.531641
 21
105.986559
 31
0.0
  0
LINE
  5
108
330
B2
100
AcDbEntity
  8
0
  6
Continuous
 62
     0
370
    30
100
AcDbLine
 10
-50.145215
 20
20.586559
 30
0.0
 11
-41.130119
 21
20.586559
 31
0.0
  0
ARC
  5
109
330
B2
100
AcDbEntity
  8
0
  6
Continuous
 62
     0
370
    30
100
AcDbCircle
 10
-50.145211
 20
21.086564
 30
0.0
 40
0.5000044379216526
100
AcDbArc
 50
181.750151
 51
269.999507
  0
ARC
  5
10A
330
B2
100
AcDbEntity
  8
0
  6
Continuous
 62
     0
370
    30
100
AcDbCircle
 10
2061.370268
 20
85.586567
 30
0.0
 40
2113.000386879751
100
AcDbArc
 50
180.553172
 51
181.749658
  0
LINE
  5
10B
330
B2
100
AcDbEntity
  8
0
  6
Continuous
 62
     0
370
    30
100
AcDbLine
 10
-103.850119
 20
107.586559
 30
0.0
 11
-104.350119
 21
107.086559
 31
0.0
  0
LINE
  5
10C
330
B2
100
AcDbEntity
  8
0
  6
Continuous
 62
     0
370
    30
100
AcDbLine
 10
-54.350119
 20
107.586559
 30
0.0
 11
-91.400119
 21
107.586559
 31
0.0
  0
LINE
  5
10D
330
B2
100
AcDbEntity
  8
0
  6
Continuous
 62
     0
370
    30
100
AcDbLine
 10
-99.299743
 20
107.586559
 30
0.0
 11
-103.850119
 21
107.586559
 31
0.0
  0
LINE
  5
10E
330
B2
100
AcDbEntity
  8
0
  6
Continuous
 62
     0
370
    30
100
AcDbLine
 10
-54.061933
 20
105.836559
 30
0.0
 11
-54.350119
 21
105.836559
 31
0.0
  0
ARC
  5
10F
330
B2
100
AcDbEntity
  8
0
  6
Continuous
 62
     0
370
    30
100
AcDbCircle
 10
-54.061933
 20
106.13656
 30
0.0
 40
0.3000007634516371
100
AcDbArc
 50
269.99988
 51
359.530912
  0
LINE
  5
110
330
B2
100
AcDbEntity
  8
0
  6
Continuous
 62
     0
370
    30
100
AcDbLine
 10
-53.760644
 20
64.881653
 30
0.0
 11
-53.760644
 21
106.291465
 31
0.0
  0
ARC
  5
111
330
B2
100
AcDbEntity
  8
0
  6
Continuous
 62
     0
370
    30
100
AcDbCircle
 10
-53.460683
 20
106.286558
 30
0.0
 40
0.3000007975232173
100
AcDbArc
 50
89.999886
 51
179.530913
  0
LINE
  5
112
330
B2
100
AcDbEntity
  8
0
  6
Continuous
 62
     0
370
    30
100
AcDbLine
 10
-51.899556
 20
106.586559
 30
0.0
 11
-53.460683
 21
106.586559
 31
0.0
  0
ARC
  5
113
330
B2
100
AcDbEntity
  8
0
  6
Continuous
 62
     0
370
    30
100
AcDbCircle
 10
-51.899555
 20
106.286558
 30
0.0
 40
0.3000007975877204
100
AcDbArc
 50
0.469087
 51
90.000114
  0
LINE
  5
114
330
B2
100
AcDbEntity
  8
0
  6
Continuous
 62
     0
370
    30
100
AcDbLine
 10
-51.597089
 20
105.986559
 30
0.0
 11
-51.599565
 21
106.289014
 31
0.0
  0
LINE
  5
115
330
B2
100
AcDbEntity
  8
0
  6
Continuous
 62
     0
370
    30
100
AcDbLine
 10
-51.531641
 20
105.986559
 30
0.0
 11
-51.597089
 21
105.986559
 31
0.0
  0
LINE
  5
116
330
B2
100
AcDbEntity
  8
0
  6
Continuous
 62
     0
370
    30
100
AcDbLine
 10
-99.300119
 20
114.916559
 30
0.0
 11
-99.300119
 21
107.586316
 31
0.0
  0
LINE
  5
117
330
B2
100
AcDbEntity
  8
0
  6
Continuous
 62
     0
370
    30
100
AcDbLine
 10
-98.800119
 20
115.416559
 30
0.0
 11
-99.300119
 21
114.916559
 31
0.0
  0
ENDBLK
  5
119
330
B2
100
AcDbEntity
  8
0
100
AcDbBlockEnd
  0
BLOCK
  5
17F
330
11B
100
AcDbEntity
  8
0
100
AcDbBlockBegin
  2
c
 70
     0
 10
267.901489
 20
0.0
 30
0.0
  3
c
  1

  0
SPLINE
  5
11C
330
11B
100
AcDbEntity
  8
0
  6
Continuous
 62
     0
370
     0
100
AcDbSpline
210
0.0
220
0.0
230
1.0
 70
     8
 71
     3
 72
    16
 73
    12
 74
     0
 42
0.000000001
 43
0.0
 40
6.940369244570989
 40
6.940369244570989
 40
6.940369244570989
 40
6.940369244570989
 40
8.002277102100997
 40
9.899749305598602
 40
11.79722150909129
 40
13.69469371300167
 40
15.59216589815799
 40
17.48963808015112
 40
19.38711026719472
 40
21.28458246441454
 40
21.3915869229527
 40
21.3915869229527
 40
21.3915869229527
 40
21.3915869229527
 10
413.1066981154887
 20
63.7310214203828
 30
0.0
 10
413.1066981316545
 20
63.7310214193767
 30
0.0
 10
412.9885540422796
 20
63.73102141350578
 30
0.0
 10
412.2584772602165
 20
63.73102139033702
 30
0.0
 10
410.7397477129688
 20
63.73102134731245
 30
0.0
 10
408.8129433187428
 20
63.73102129565814
 30
0.0
 10
406.8012423871735
 20
63.73102124403295
 30
0.0
 10
405.0421504988162
 20
63.7310212011007
 30
0.0
 10
403.83071106854
 20
63.73102117405779
 30
0.0
 10
403.5151502279166
 20
63.73102116953647
 30
0.0
 10
403.5069662543719
 20
63.73102117120809
 30
0.0
 10
403.506966252666
 20
63.73102117130864
 30
0.0
  0
LINE
  5
11D
330
11B
100
AcDbEntity
  8
0
  6
Continuous
 62
     0
370
    30
100
AcDbLine
 10
412.957109
 20
63.537411
 30
0.0
 11
403.65681
 21
63.537411
 31
0.0
  0
LINE
  5
11E
330
11B
100
AcDbEntity
  8
0
  6
Continuous
 62
     0
370
     0
100
AcDbLine
 10
413.10696
 20
63.987411
 30
0.0
 11
403.50696
 21
63.987411
 31
0.0
  0
ARC
  5
11F
330
11B
100
AcDbEntity
  8
0
  6
Continuous
 62
     0
370
    30
100
AcDbCircle
 10
408.30263
 20
77.575926
 30
0.0
 40
14.79000000000003
100
AcDbArc
 50
270.016774
 51
288.342975
  0
ARC
  5
120
330
11B
100
AcDbEntity
  8
0
  6
Continuous
 62
     0
370
    30
100
AcDbCircle
 10
408.311289
 20
77.575926
 30
0.0
 40
14.79000000000003
100
AcDbArc
 50
251.657025
 51
269.983226
  0
ARC
  5
121
330
11B
100
AcDbEntity
  8
0
  6
Continuous
 62
     0
370
    30
100
AcDbCircle
 10
403.709594
 20
63.734031
 30
0.0
 40
0.2035820890870386
100
AcDbArc
 50
226.417622
 51
254.972753
  0
ARC
  5
122
330
11B
100
AcDbEntity
  8
0
  6
Continuous
 62
     0
370
    30
100
AcDbCircle
 10
412.903988
 20
63.734015
 30
0.0
 40
0.2036542135264635
100
AcDbArc
 50
285.119828
 51
313.610189
  0
SPLINE
  5
123
330
11B
100
AcDbEntity
  8
0
  6
Continuous
 62
     0
370
     0
100
AcDbSpline
210
0.0
220
0.0
230
1.0
 70
     8
 71
     3
 72
    14
 73
    10
 74
     0
 42
0.000000001
 43
0.0
 40
0.0
 40
0.0
 40
0.0
 40
0.0
 40
4.33464153288073
 40
8.671121330573097
 40
13.00920997969028
 40
17.34574091751642
 40
21.68030458132657
 40
26.0158598568891
 40
30.3536253005803
 40
30.3536253005803
 40
30.3536253005803
 40
30.3536253005803
 10
391.0034688358833
 20
196.0744840363281
 30
0.0
 10
390.8761510313238
 20
197.0082641431495
 30
0.0
 10
390.6005495357603
 20
199.2764065025714
 30
0.0
 10
390.3301889967954
 20
203.4327711738067
 30
0.0
 10
390.3345588137477
 20
207.8629526933105
 30
0.0
 10
390.6107645061225
 20
212.006626766212
 30
0.0
 10
391.0248027221652
 20
215.371100619018
 30
0.0
 10
391.3748349988034
 20
217.5737995573465
 30
0.0
 10
391.4678670567604
 20
218.0865568563769
 30
0.0
 10
391.4678910671228
 20
218.0865592956374
 30
0.0
  0
LINE
  5
124
330
11B
100
AcDbEntity
  8
0
  6
Continuous
 62
     0
370
    30
100
AcDbLine
 10
370.083924
 20
193.086559
 30
0.0
 11
360.208924
 21
193.086559
 31
0.0
  0
LINE
  5
125
330
11B
100
AcDbEntity
  8
0
  6
Continuous
 62
     0
370
    30
100
AcDbLine
 10
360.208924
 20
218.086559
 30
0.0
 11
360.208924
 21
193.086559
 31
0.0
  0
ARC
  5
126
330
11B
100
AcDbEntity
  8
0
  6
Continuous
 62
     0
370
     0
100
AcDbCircle
 10
390.001824
 20
137.103726
 30
0.0
 40
58.825421069293
100
AcDbArc
 50
101.707775
 51
107.309328
  0
SPLINE
  5
127
330
11B
100
AcDbEntity
  8
0
  6
Continuous
 62
     0
370
     0
100
AcDbSpline
210
0.0
220
0.0
230
1.0
 70
     8
 71
     3
 72
    14
 73
    10
 74
     0
 42
0.000000001
 43
0.0
 40
0.0
 40
0.0
 40
0.0
 40
0.0
 40
1.752369726229721
 40
3.569974643483515
 40
5.439505520164665
 40
7.350961146559897
 40
9.293212778696583
 40
11.25555797281267
 40
13.22955802806231
 40
13.22955802806231
 40
13.22955802806231
 40
13.22955802806231
 10
378.0649594162825
 20
194.7053006652482
 30
0.0
 10
378.6036895782469
 20
194.8164147359802
 30
0.0
 10
379.7221346771645
 20
195.0288656169862
 30
0.0
 10
381.4608490708711
 20
195.3160488926312
 30
0.0
 10
383.2782338671986
 20
195.5673873555452
 30
0.0
 10
385.1570889868989
 20
195.7724340825369
 30
0.0
 10
387.0807303483597
 20
195.9275008668081
 30
0.0
 10
389.0340667318644
 20
196.0321961939347
 30
0.0
 10
390.3456056294682
 20
196.0657789418298
 30
0.0
 10
391.0034688358833
 20
196.0744840363281
 30
0.0
  0
ELLIPSE
  5
128
330
11B
100
AcDbEntity
  8
0
  6
Continuous
 62
     0
370
     0
100
AcDbEllipse
 10
378.06496
 20
186.000294
 30
0.0
 11
-3.480420932768197
 21
9.374789071267092
 31
0.0
210
0.0
220
0.0
230
1.0
 40
0.524221
 41
4.551450713946166
 42
5.66697758086628
  0
ARC
  5
129
330
11B
100
AcDbEntity
  8
0
  6
Continuous
 62
     0
370
    30
100
AcDbCircle
 10
371.9366
 20
183.086559
 30
0.0
 40
10.00000000000001
100
AcDbArc
 50
2.725772
 51
76.129249
  0
SPLINE
  5
12A
330
11B
100
AcDbEntity
  8
0
  6
Continuous
 62
     0
370
     0
100
AcDbSpline
210
0.0
220
0.0
230
1.0
 70
     8
 71
     3
 72
    13
 73
     9
 74
     0
 42
0.000000001
 43
0.0
 40
0.0
 40
0.0
 40
0.0
 40
0.0
 40
0.5473648797081645
 40
1.055149537312475
 40
2.027463782078881
 40
2.695584700629958
 40
3.554900745899134
 40
4.313302770659927
 40
4.313302770659927
 40
4.313302770659927
 40
4.313302770659927
 10
381.9252855300309
 20
183.5621168287209
 30
0.0
 10
381.9252854447018
 20
183.5621184746177
 30
0.0
 10
381.939718691857
 20
183.6011322990028
 30
0.0
 10
382.0171447854566
 20
183.8160631989794
 30
0.0
 10
382.1719306201003
 20
184.2339028300116
 30
0.0
 10
382.4637946482616
 20
184.8869855452062
 30
0.0
 10
382.8505388726485
 20
185.5712119153525
 30
0.0
 10
383.2514263689533
 20
186.0706721253215
 30
0.0
 10
383.4736343406238
 20
186.2989695815062
 30
0.0
  0
SPLINE
  5
12B
330
11B
100
AcDbEntity
  8
0
  6
Continuous
 62
     0
370
     0
100
AcDbSpline
210
0.0
220
0.0
230
1.0
 70
     8
 71
     3
 72
    36
 73
    32
 74
     0
 42
0.000000001
 43
0.0
 40
-1.087005095078141
 40
-1.087005095078141
 40
-1.087005095078141
 40
-1.087005095078141
 40
-0.8269645513815309
 40
-0.4446453731535147
 40
-0.1943449961721786
 40
0.1896267875054107
 40
0.6661568886589784
 40
0.8975045027005226
 40
1.313253092444048
 40
1.720458109230586
 40
2.118150658090714
 40
2.434390072085357
 40
2.75062948608
 40
3.066868900074644
 40
3.383108314069286
 40
3.681142944660455
 40
3.979177575251624
 40
4.436810016986453
 40
4.800404698664082
 40
5.163999380341712
 40
5.527594062019341
 40
5.846451917814532
 40
6.165309773609723
 40
6.494200556314357
 40
6.819801096463626
 40
7.300981633533439
 40
7.614821179227128
 40
7.763356922273676
 40
7.906774530279353
 40
8.045943737362737
 40
8.062173617835343
 40
8.062173617835343
 40
8.062173617835343
 40
8.062173617835343
 10
383.4736343406238
 20
186.2989695815062
 30
0.0
 10
383.5104688278003
 20
186.3368134970915
 30
0.0
 10
383.6036383860451
 20
186.4298956352617
 30
0.0
 10
383.7424919940722
 20
186.5576104311002
 30
0.0
 10
383.9192163504642
 20
186.70103899728
 30
0.0
 10
384.1397496890165
 20
186.8554501069276
 30
0.0
 10
384.3909501889804
 20
187.0031602923996
 30
0.0
 10
384.6557260569193
 20
187.150438611191
 30
0.0
 10
384.9078295078681
 20
187.284379348729
 30
0.0
 10
385.2108687238679
 20
187.4327675788606
 30
0.0
 10
385.4992511827745
 20
187.5626788826954
 30
0.0
 10
385.7725845234374
 20
187.6765316097984
 30
0.0
 10
386.0312406984219
 20
187.7767709014985
 30
0.0
 10
386.2969542231868
 20
187.8722893438682
 30
0.0
 10
386.5646113075506
 20
187.9612372678681
 30
0.0
 10
386.8338522730144
 20
188.0438315065192
 30
0.0
 10
387.1533641750514
 20
188.1340468242235
 30
0.0
 10
387.5054705081627
 20
188.2228878626775
 30
0.0
 10
387.8918728579338
 20
188.3087172190037
 30
0.0
 10
388.2562320517292
 20
188.3808789275532
 30
0.0
 10
388.6115021728589
 20
188.4433550765344
 30
0.0
 10
388.9546665732323
 20
188.4969808303292
 30
0.0
 10
389.289009256946
 20
188.5431375832536
 30
0.0
 10
389.6291186589232
 20
188.583839948956
 30
0.0
 10
390.0295121317359
 20
188.6245234021486
 30
0.0
 10
390.4375795522499
 20
188.6565373514658
 30
0.0
 10
390.7710123973104
 20
188.6766236783786
 30
0.0
 10
390.9926980267749
 20
188.687160759729
 30
0.0
 10
391.1563448538031
 20
188.6936222403062
 30
0.0
 10
391.2747918993577
 20
188.6974454283671
 30
0.0
 10
391.3355268730082
 20
188.6991805926857
 30
0.0
 10
391.3418665673273
 20
188.6993592160012
 30
0.0
  0
SPLINE
  5
12C
330
11B
100
AcDbEntity
  8
0
  6
Continuous
 62
     0
370
     0
100
AcDbSpline
210
0.0
220
0.0
230
1.0
 70
     8
 71
     3
 72
    10
 73
     6
 74
     0
 42
0.000000001
 43
0.0
 40
0.0
 40
0.0
 40
0.0
 40
0.0
 40
2.797895864776244
 40
5.595877648008672
 40
8.393972488720298
 40
8.393972488720298
 40
8.393972488720298
 40
8.393972488720298
 10
391.3418665673273
 20
188.6993592160012
 30
0.0
 10
391.3447749447306
 20
189.6317323215297
 30
0.0
 10
391.3347493000225
 20
191.5012412577474
 30
0.0
 10
391.2465790405026
 20
194.0576961070331
 30
0.0
 10
391.1055196344468
 20
195.4729895983634
 30
0.0
 10
391.0034672068651
 20
196.074482594942
 30
0.0
  0
LINE
  5
12D
330
11B
100
AcDbEntity
  8
0
  6
Continuous
 62
     0
370
     0
100
AcDbLine
 10
383.473634
 20
186.29897
 30
0.0
 11
384.987674
 21
147.899153
 31
0.0
  0
LINE
  5
12E
330
11B
100
AcDbEntity
  8
0
  6
Continuous
 62
     0
370
     0
100
AcDbLine
 10
391.26129
 20
147.899144
 30
0.0
 11
391.398434
 21
147.899142
 31
0.0
  0
ARC
  5
12F
330
11B
100
AcDbEntity
  8
0
  6
Continuous
 62
     0
370
     0
100
AcDbCircle
 10
92907.865541
 20
297.3339
 30
0.0
 40
92516.5877917191
100
AcDbArc
 50
180.067278
 51
180.092545
  0
LINE
  5
130
330
11B
100
AcDbEntity
  8
0
  6
Continuous
 62
     0
370
    30
100
AcDbLine
 10
381.925286
 20
183.562117
 30
0.0
 11
383.623186
 21
147.899148
 31
0.0
  0
ARC
  5
131
330
11B
100
AcDbEntity
  8
0
  6
Continuous
 62
     0
370
    30
100
AcDbCircle
 10
391.467936
 20
142.633482
 30
0.0
 40
1.500000000000002
100
AcDbArc
 50
267.930311
 51
0.000004
  0
SPLINE
  5
132
330
11B
100
AcDbEntity
  8
0
  6
Continuous
 62
     0
370
    30
100
AcDbSpline
210
0.0
220
0.0
230
1.0
 70
     8
 71
     3
 72
    14
 73
    10
 74
     0
 42
0.000000001
 43
0.0
 40
0.0
 40
0.0
 40
0.0
 40
0.0
 40
0.959869858522463
 40
1.920209553095731
 40
2.881080345005874
 40
3.842023616642013
 40
4.803136771199672
 40
5.764136911794927
 40
6.725779570084066
 40
6.725779570084066
 40
6.725779570084066
 40
6.725779570084066
 10
385.1732806411052
 20
143.1915729226796
 30
0.0
 10
385.3944661714509
 20
142.9603820934416
 30
0.0
 10
385.8863785746146
 20
142.5433895106495
 30
0.0
 10
386.7204667228096
 20
142.0595528201509
 30
0.0
 10
387.6158749586563
 20
141.7038086767171
 30
0.0
 10
388.5448588862329
 20
141.4518609555194
 30
0.0
 10
389.4921767045876
 20
141.284420619665
 30
0.0
 10
390.4484266003277
 20
141.1813152681334
 30
0.0
 10
391.0885936700735
 20
141.1462717755177
 30
0.0
 10
391.4089299592953
 20
141.1346358230576
 30
0.0
  0
SPLINE
  5
133
330
11B
100
AcDbEntity
  8
0
  6
Continuous
 62
     0
370
     0
100
AcDbSpline
210
0.0
220
0.0
230
1.0
 70
     8
 71
     3
 72
    30
 73
    26
 74
     0
 42
0.000000001
 43
0.0
 40
0.0
 40
0.0
 40
0.0
 40
0.0
 40
1.225396231212392
 40
1.996266671498263
 40
2.770395256796587
 40
3.158307523348193
 40
3.75978293030952
 40
4.174201172882186
 40
4.740678397053912
 40
5.080281499007906
 40
5.416529076883819
 40
5.714817632142001
 40
5.996817551513167
 40
6.187015832822644
 40
6.272979870401431
 40
6.357223629495047
 40
6.451358841925963
 40
6.610804731879863
 40
6.726038347285362
 40
6.843308007724549
 40
6.957314821021946
 40
7.177853569120509
 40
7.395001920030518
 40
7.989756918548009
 40
8.826192243679458
 40
8.826192243679458
 40
8.826192243679458
 40
8.826192243679458
 10
391.3984343782996
 20
147.8991422149414
 30
0.0
 10
391.3989547702629
 20
147.592878302788
 30
0.0
 10
391.3945401501314
 20
147.0936753492566
 30
0.0
 10
391.3777484649132
 20
146.4006668475164
 30
0.0
 10
391.3608731623997
 20
145.9170165056124
 30
0.0
 10
391.3422883588834
 20
145.4753038085108
 30
0.0
 10
391.3255359848318
 20
145.1242960631531
 30
0.0
 10
391.3027311164464
 20
144.711516302802
 30
0.0
 10
391.2789311304044
 20
144.3334321223538
 30
0.0
 10
391.2543369688124
 20
143.9366641106085
 30
0.0
 10
391.2358350154014
 20
143.6021648346822
 30
0.0
 10
391.2205538350277
 20
143.2544141073523
 30
0.0
 10
391.2122439397563
 20
142.9228358503829
 30
0.0
 10
391.2140955044354
 20
142.651553072403
 30
0.0
 10
391.2208872242385
 20
142.4690161032781
 30
0.0
 10
391.2289473574483
 20
142.3362005647812
 30
0.0
 10
391.2410249589133
 20
142.1969592106001
 30
0.0
 10
391.2532268010797
 20
142.0869871169903
 30
0.0
 10
391.2653829865635
 20
141.9859662297249
 30
0.0
 10
391.2761701291924
 20
141.901585151893
 30
0.0
 10
391.290962245175
 20
141.7922429044356
 30
0.0
 10
391.3100117620987
 20
141.6642716716451
 30
0.0
 10
391.3453927629215
 20
141.451716665848
 30
0.0
 10
391.3962000653676
 20
141.2012363364062
 30
0.0
 10
391.4137604007881
 20
141.1344608725682
 30
0.0
 10
391.4137631201665
 20
141.1344607110773
 30
0.0
  0
SPLINE
  5
134
330
11B
100
AcDbEntity
  8
0
  6
Continuous
 62
     0
370
     0
100
AcDbSpline
210
0.0
220
0.0
230
1.0
 70
     8
 71
     3
 72
    18
 73
    14
 74
     0
 42
0.000000001
 43
0.0
 40
0.0
 40
0.0
 40
0.0
 40
0.0
 40
0.7053013782976192
 40
1.296959495443253
 40
1.634382838388779
 40
1.883610187121511
 40
2.087346532206342
 40
2.401618726294815
 40
2.763513020913489
 40
3.286720618600657
 40
3.737699336988029
 40
4.753410594080074
 40
6.511446442014064
 40
6.511446442014064
 40
6.511446442014064
 40
6.511446442014064
 10
392.9679356617964
 20
142.6334822816072
 30
0.0
 10
392.9679323711807
 20
142.6334824429833
 30
0.0
 10
392.9649837792063
 20
142.692709889327
 30
0.0
 10
392.9557271974592
 20
142.928870911048
 30
0.0
 10
392.9477461486402
 20
143.1694838642323
 30
0.0
 10
392.9421210054818
 20
143.355120219393
 30
0.0
 10
392.9378142081763
 20
143.5755010961401
 30
0.0
 10
392.9342838037426
 20
143.851525598845
 30
0.0
 10
392.9311394146637
 20
144.2425068889214
 30
0.0
 10
392.9292816189826
 20
144.6855929597317
 30
0.0
 10
392.9276983289213
 20
145.3475879596054
 30
0.0
 10
392.925716554751
 20
146.4213544100944
 30
0.0
 10
392.9245337487912
 20
147.345499715299
 30
0.0
 10
392.9240243576243
 20
147.9313762789176
 30
0.0
  0
ELLIPSE
  5
135
330
11B
100
AcDbEntity
  8
0
  6
Continuous
 62
     0
370
     0
100
AcDbEllipse
 10
391.425187
 20
147.931376
 30
0.0
 11
1.499999462667293
 21
0.001269644766666982
 31
0.0
210
0.0
220
0.0
230
-1.0
 40
0.021478
 41
0.0393861238024722
 42
1.588650619609775
  0
LINE
  5
136
330
11B
100
AcDbEntity
  8
0
  6
Continuous
 62
     0
370
     0
100
AcDbLine
 10
384.987674
 20
147.899153
 30
0.0
 11
385.173281
 21
143.191573
 31
0.0
  0
SPLINE
  5
137
330
11B
100
AcDbEntity
  8
0
  6
Continuous
 62
     0
370
    30
100
AcDbSpline
210
0.0
220
0.0
230
1.0
 70
     8
 71
     3
 72
    14
 73
    10
 74
     0
 42
0.000000001
 43
0.0
 40
0.0
 40
0.0
 40
0.0
 40
0.0
 40
0.7294674980048472
 40
1.450373905297451
 40
2.163775695996503
 40
2.872397796944338
 40
3.581869314751405
 40
4.303289579881687
 40
5.058649601130069
 40
5.058649601130069
 40
5.058649601130069
 40
5.058649601130069
 10
383.6231858008443
 20
147.8991483339916
 30
0.0
 10
383.6347492262585
 20
147.6562680179333
 30
0.0
 10
383.6680691213917
 20
147.1737448587489
 30
0.0
 10
383.7563499202602
 20
146.4574954804513
 30
0.0
 10
383.8905809626542
 20
145.7552557691313
 30
0.0
 10
384.0808985874098
 20
145.0697226955212
 30
0.0
 10
384.3414551599299
 20
144.4041433056515
 30
0.0
 10
384.6931543726938
 20
143.7632549483451
 30
0.0
 10
384.9992213196207
 20
143.3735060022203
 30
0.0
 10
385.1732809580942
 20
143.1915728235233
 30
0.0
  0
SPLINE
  5
138
330
11B
100
AcDbEntity
  8
0
  6
Continuous
 62
     0
370
     0
100
AcDbSpline
210
0.0
220
0.0
230
1.0
 70
     8
 71
     3
 72
    19
 73
    15
 74
     0
 42
0.000000001
 43
0.0
 40
27.10360883960967
 40
27.10360883960967
 40
27.10360883960967
 40
27.10360883960967
 40
31.02216571618501
 40
34.92075349536309
 40
36.86614307564447
 40
38.80138421432545
 40
40.72795329880143
 40
42.64816249845496
 40
44.56496741876284
 40
46.48166050162648
 40
48.40160928734618
 40
50.32774407353268
 40
52.26241633936342
 40
54.20721767921935
 40
54.20721767921935
 40
54.20721767921935
 40
54.20721767921935
 10
392.9679301820643
 20
216.5865093858317
 30
0.0
 10
392.9679146979588
 20
216.5864775017239
 30
0.0
 10
392.8729153700937
 20
216.1392338353878
 30
0.0
 10
392.5730349983102
 20
214.5205524158313
 30
0.0
 10
392.299949190299
 20
212.7212058047411
 30
0.0
 10
392.1047918541691
 20
211.1546693917352
 30
0.0
 10
391.9441294060886
 20
209.4174010955448
 30
0.0
 10
391.837921809832
 20
207.5603797919421
 30
0.0
 10
391.7995559727626
 20
205.640763772807
 30
0.0
 10
391.8338935798766
 20
203.7194154745065
 30
0.0
 10
391.9365512434553
 20
201.8573277050618
 30
0.0
 10
392.0946727594845
 20
200.1118429288881
 30
0.0
 10
392.2884120577736
 20
198.5349124637684
 30
0.0
 10
392.4249223521905
 20
197.6271874474652
 30
0.0
 10
392.4905498873568
 20
197.2159331678659
 30
0.0
  0
SPLINE
  5
139
330
11B
100
AcDbEntity
  8
0
  6
Continuous
 62
     0
370
     0
100
AcDbSpline
210
0.0
220
0.0
230
1.0
 70
     8
 71
     3
 72
    14
 73
    10
 74
     0
 42
0.000000001
 43
0.0
 40
0.0
 40
0.0
 40
0.0
 40
0.0
 40
1.404286950246861
 40
2.80180824355739
 40
4.195347073104721
 40
5.585086099230739
 40
6.97156893468318
 40
8.355744518375094
 40
9.738631114212174
 40
9.738631114212174
 40
9.738631114212174
 40
9.738631114212174
 10
392.4905499458776
 20
197.2159328950154
 30
0.0
 10
392.5379377953366
 20
196.918977944406
 30
0.0
 10
392.6201318232627
 20
196.2825628163919
 30
0.0
 10
392.7124547200021
 20
195.2096767996168
 30
0.0
 10
392.779423368792
 20
194.0397592054003
 30
0.0
 10
392.8257420147781
 20
192.7886723034068
 30
0.0
 10
392.8557170915286
 20
191.4744172503945
 30
0.0
 10
392.8728622675123
 20
190.1168129425724
 30
0.0
 10
392.8772944336267
 20
189.1950858682802
 30
0.0
 10
392.8779155087684
 20
188.7342554262399
 30
0.0
  0
ARC
  5
13A
330
11B
100
AcDbEntity
  8
0
  6
Continuous
 62
     0
370
     0
100
AcDbCircle
 10
-84867.586068
 20
71.984715
 30
0.0
 40
85260.54391780391
100
AcDbArc
 50
0.051037
 51
0.078457
  0
SPLINE
  5
13B
330
11B
100
AcDbEntity
  8
0
  6
Continuous
 62
     0
370
     0
100
AcDbSpline
210
0.0
220
0.0
230
1.0
 70
     8
 71
     3
 72
    10
 73
     6
 74
     0
 42
0.000000001
 43
0.0
 40
0.0
 40
0.0
 40
0.0
 40
0.0
 40
0.7616627004646315
 40
1.523278239126404
 40
2.284846615985306
 40
2.284846615985306
 40
2.284846615985306
 40
2.284846615985306
 10
391.3418665673273
 20
188.6993592160012
 30
0.0
 10
391.5956701433437
 20
188.6995393697384
 30
0.0
 10
392.1161266721256
 20
188.7030490875403
 30
0.0
 10
392.6997189706271
 20
188.7163076526784
 30
0.0
 10
392.8636429127904
 20
188.7283457874152
 30
0.0
 10
392.8779155087684
 20
188.7342554262399
 30
0.0
  0
ELLIPSE
  5
13C
330
11B
100
AcDbEntity
  8
0
  6
Continuous
 62
     0
370
     0
100
AcDbEllipse
 10
391.00347
 20
197.215931
 30
0.0
 11
1.482312672455943
 21
0.229671811671557
 31
0.0
210
0.0
220
0.0
230
-1.0
 40
0.75715
 41
0.2018498252361524
 42
1.687578572755665
  0
LINE
  5
13D
330
11B
100
AcDbEntity
  8
0
  6
Continuous
 62
     0
370
     0
100
AcDbLine
 10
384.987674
 20
147.899153
 30
0.0
 11
391.26129
 21
147.899144
 31
0.0
  0
SPLINE
  5
13E
330
11B
100
AcDbEntity
  8
0
  6
Continuous
 62
     0
370
     0
100
AcDbSpline
210
0.0
220
0.0
230
1.0
 70
     8
 71
     9
 72
    20
 73
    10
 74
     0
 42
0.000000001
 43
0.0
 40
0.0
 40
0.0
 40
0.0
 40
0.0
 40
0.0
 40
0.0
 40
0.0
 40
0.0
 40
0.0
 40
0.0
 40
0.2499999949532693
 40
0.2499999949532693
 40
0.2499999949532693
 40
0.2499999949532693
 40
0.2499999949532693
 40
0.2499999949532693
 40
0.2499999949532693
 40
0.2499999949532693
 40
0.2499999949532693
 40
0.2499999949532693
 10
383.6231858908073
 20
147.8991483453152
 30
0.0
 10
383.6231858731248
 20
147.8991483587141
 30
0.0
 10
383.6548357028102
 20
147.8991382062664
 30
0.0
 10
383.7246200148628
 20
147.8991399856746
 30
0.0
 10
383.8395592326708
 20
147.8991425916003
 30
0.0
 10
384.0084148107794
 20
147.8991458511267
 30
0.0
 10
384.2182968196518
 20
147.8991488235063
 30
0.0
 10
384.4566464768841
 20
147.8991511041439
 30
0.0
 10
384.7150678670166
 20
147.8991524126735
 30
0.0
 10
384.9876739661282
 20
147.8991525632475
 30
0.0
  0
ARC
  5
13F
330
11B
100
AcDbEntity
  8
0
  6
Continuous
 62
     0
370
     0
100
AcDbCircle
 10
372.221124
 20
180.600064
 30
0.0
 40
12.66807712857647
100
AcDbArc
 50
88.740947
 51
99.712679
  0
SPLINE
  5
140
330
11B
100
AcDbEntity
  8
0
  6
Continuous
 62
     0
370
     0
100
AcDbSpline
210
0.0
220
0.0
230
1.0
 70
     8
 71
     3
 72
    14
 73
    10
 74
     0
 42
0.000000001
 43
0.0
 40
0.0
 40
0.0
 40
0.0
 40
0.0
 40
0.4404961860839477
 40
0.8809940919391527
 40
1.321614608410815
 40
1.762239128125022
 40
2.202872996177828
 40
2.643370464042003
 40
3.083706790541679
 40
3.083706790541679
 40
3.083706790541679
 40
3.083706790541679
 10
372.4994895467585
 20
193.2650799150263
 30
0.0
 10
372.6449028571629
 20
193.2616528377217
 30
0.0
 10
372.932280507948
 20
193.2430970927062
 30
0.0
 10
373.3282704181399
 20
193.1808426242315
 30
0.0
 10
373.6734934865159
 20
193.0914190888793
 30
0.0
 10
373.9564373784232
 20
192.9880482987802
 30
0.0
 10
374.1690387801008
 20
192.8885071905653
 30
0.0
 10
374.3030817399645
 20
192.8138893222186
 30
0.0
 10
374.3339217518213
 20
192.794950261234
 30
0.0
 10
374.3339243886253
 20
192.7949491846716
 30
0.0
  0
ARC
  5
141
330
11B
100
AcDbEntity
  8
0
  6
Continuous
 62
     0
370
    30
100
AcDbCircle
 10
359.558924
 20
216.086559
 30
0.0
 40
0.25
100
AcDbArc
 50
180.0
 51
270.0
  0
ARC
  5
142
330
11B
100
AcDbEntity
  8
0
  6
Continuous
 62
     0
370
    30
100
AcDbCircle
 10
359.108924
 20
235.386559
 30
0.0
 40
0.2000000029802322
100
AcDbArc
 50
0.0
 51
90.0
  0
LINE
  5
143
330
11B
100
AcDbEntity
  8
0
  6
Continuous
 62
     0
370
    30
100
AcDbLine
 10
359.108924
 20
235.586559
 30
0.0
 11
353.608924
 21
235.586559
 31
0.0
  0
LINE
  5
144
330
11B
100
AcDbEntity
  8
0
  6
Continuous
 62
     0
370
     0
100
AcDbLine
 10
359.558924
 20
215.836559
 30
0.0
 11
359.558924
 21
195.336559
 31
0.0
  0
LINE
  5
145
330
11B
100
AcDbEntity
  8
0
  6
Continuous
 62
     0
370
    30
100
AcDbLine
 10
359.308924
 20
235.386559
 30
0.0
 11
359.308924
 21
175.786559
 31
0.0
  0
LINE
  5
146
330
11B
100
AcDbEntity
  8
0
  6
Continuous
 62
     0
370
     0
100
AcDbLine
 10
359.108924
 20
235.586559
 30
0.0
 11
359.108924
 21
175.586559
 31
0.0
  0
LINE
  5
147
330
11B
100
AcDbEntity
  8
0
  6
Continuous
 62
     0
370
    30
100
AcDbLine
 10
353.608924
 20
235.586559
 30
0.0
 11
353.608924
 21
175.586559
 31
0.0
  0
LINE
  5
148
330
11B
100
AcDbEntity
  8
0
  6
Continuous
 62
     0
370
    30
100
AcDbLine
 10
360.208924
 20
215.836559
 30
0.0
 11
359.558924
 21
215.836559
 31
0.0
  0
SPLINE
  5
149
330
11B
100
AcDbEntity
  8
0
  6
Continuous
 62
     0
370
    30
100
AcDbSpline
210
0.0
220
0.0
230
1.0
 70
     8
 71
     3
 72
    14
 73
    10
 74
     0
 42
0.000000001
 43
0.0
 40
0.0
 40
0.0
 40
0.0
 40
0.0
 40
1.513815793375246
 40
2.2444493141925
 40
2.983995229909195
 40
3.35606660294912
 40
3.728579967711822
 40
4.001904634258905
 40
4.274587389037798
 40
4.274587389037798
 40
4.274587389037798
 40
4.274587389037798
 10
370.0839243889734
 20
193.0865592960043
 30
0.0
 10
370.5885278681737
 20
193.0865592957084
 30
0.0
 10
371.3366141387076
 20
193.1006514809434
 30
0.0
 10
372.3313715838126
 20
193.0874624451483
 30
0.0
 10
372.9444207017883
 20
193.0460264543505
 30
0.0
 10
373.435274505607
 20
192.9832383237097
 30
0.0
 10
373.769601584294
 20
192.9248550129799
 30
0.0
 10
374.0690207249228
 20
192.8605555491076
 30
0.0
 10
374.2455081554552
 20
192.8160284287175
 30
0.0
 10
374.3339243886954
 20
192.794949184405
 30
0.0
  0
ARC
  5
14A
330
11B
100
AcDbEntity
  8
0
  6
Continuous
 62
     0
370
    30
100
AcDbCircle
 10
391.46787
 20
216.586483
 30
0.0
 40
1.500016838845089
100
AcDbArc
 50
0.001
 51
89.99921
  0
LINE
  5
14B
330
11B
100
AcDbEntity
  8
0
  6
Continuous
 62
     0
370
    30
100
AcDbLine
 10
392.967936
 20
142.633482
 30
0.0
 11
392.96793
 21
216.586509
 31
0.0
  0
LINE
  5
14C
330
11B
100
AcDbEntity
  8
0
  6
Continuous
 62
     0
370
    30
100
AcDbLine
 10
391.467891
 20
218.086559
 30
0.0
 11
360.208924
 21
218.086559
 31
0.0
  0
LINE
  5
14D
330
11B
100
AcDbEntity
  8
0
  6
Continuous
 62
     0
370
    30
100
AcDbLine
 10
359.108924
 20
175.586559
 30
0.0
 11
353.608924
 21
175.586559
 31
0.0
  0
ARC
  5
14E
330
11B
100
AcDbEntity
  8
0
  6
Continuous
 62
     0
370
    30
100
AcDbCircle
 10
359.108924
 20
175.786559
 30
0.0
 40
0.2000000029802322
100
AcDbArc
 50
270.0
 51
0.0
  0
ARC
  5
14F
330
11B
100
AcDbEntity
  8
0
  6
Continuous
 62
     0
370
    30
100
AcDbCircle
 10
359.558924
 20
195.086559
 30
0.0
 40
0.25
100
AcDbArc
 50
90.0
 51
180.0
  0
LINE
  5
150
330
11B
100
AcDbEntity
  8
0
  6
Continuous
 62
     0
370
    30
100
AcDbLine
 10
360.208924
 20
195.336559
 30
0.0
 11
359.558924
 21
195.336559
 31
0.0
  0
LINE
  5
151
330
11B
100
AcDbEntity
  8
0
  6
Continuous
 62
     0
370
    30
100
AcDbLine
 10
364.55393
 20
65.186559
 30
0.0
 11
364.556405
 21
64.884104
 31
0.0
  0
ARC
  5
152
330
11B
100
AcDbEntity
  8
0
  6
Continuous
 62
     0
370
    30
100
AcDbCircle
 10
364.856396
 20
64.88656
 30
0.0
 40
0.3000007976201424
100
AcDbArc
 50
180.469087
 51
270.000114
  0
LINE
  5
153
330
11B
100
AcDbEntity
  8
0
  6
Continuous
 62
     0
370
    30
100
AcDbLine
 10
364.856396
 20
64.586559
 30
0.0
 11
366.417523
 21
64.586559
 31
0.0
  0
ARC
  5
154
330
11B
100
AcDbEntity
  8
0
  6
Continuous
 62
     0
370
    30
100
AcDbCircle
 10
366.417524
 20
64.88656
 30
0.0
 40
0.3000007975586264
100
AcDbArc
 50
269.999886
 51
359.530913
  0
ARC
  5
155
330
11B
100
AcDbEntity
  8
0
  6
Continuous
 62
     0
370
    30
100
AcDbCircle
 10
367.018773
 20
65.036559
 30
0.0
 40
0.3000007634889668
100
AcDbArc
 50
89.99988
 51
179.530912
  0
LINE
  5
156
330
11B
100
AcDbEntity
  8
0
  6
Continuous
 62
     0
370
    30
100
AcDbLine
 10
367.018774
 20
65.336559
 30
0.0
 11
367.30696
 21
65.336559
 31
0.0
  0
LINE
  5
157
330
11B
100
AcDbEntity
  8
0
  6
Continuous
 62
     0
370
    30
100
AcDbLine
 10
413.044458
 20
63.586559
 30
0.0
 11
416.80696
 21
63.586559
 31
0.0
  0
LINE
  5
158
330
11B
100
AcDbEntity
  8
0
  6
Continuous
 62
     0
370
    30
100
AcDbLine
 10
367.30696
 20
63.586559
 30
0.0
 11
403.569245
 21
63.586559
 31
0.0
  0
LINE
  5
159
330
11B
100
AcDbEntity
  8
0
  6
Continuous
 62
     0
370
    30
100
AcDbLine
 10
416.80696
 20
63.586559
 30
0.0
 11
417.30696
 21
64.086559
 31
0.0
  0
LINE
  5
15A
330
11B
100
AcDbEntity
  8
0
  6
Continuous
 62
     0
370
     0
100
AcDbLine
 10
364.556405
 20
106.289014
 30
0.0
 11
364.556405
 21
64.884104
 31
0.0
  0
LINE
  5
15B
330
11B
100
AcDbEntity
  8
0
  6
Continuous
 62
     0
370
     0
100
AcDbLine
 10
364.856396
 20
106.586559
 30
0.0
 11
364.856396
 21
64.586559
 31
0.0
  0
LINE
  5
15C
330
11B
100
AcDbEntity
  8
0
  6
Continuous
 62
     0
370
     0
100
AcDbLine
 10
366.417523
 20
106.586559
 30
0.0
 11
366.417523
 21
64.58656
 31
0.0
  0
LINE
  5
15D
330
11B
100
AcDbEntity
  8
0
  6
Continuous
 62
     0
370
     0
100
AcDbLine
 10
366.718782
 20
106.134104
 30
0.0
 11
366.718782
 21
65.039015
 31
0.0
  0
LINE
  5
15E
330
11B
100
AcDbEntity
  8
0
  6
Continuous
 62
     0
370
     0
100
AcDbLine
 10
367.018774
 20
105.836559
 30
0.0
 11
367.018774
 21
65.336559
 31
0.0
  0
LINE
  5
15F
330
11B
100
AcDbEntity
  8
0
  6
Continuous
 62
     0
370
    30
100
AcDbLine
 10
367.30696
 20
107.586559
 30
0.0
 11
367.30696
 21
63.586559
 31
0.0
  0
LINE
  5
160
330
11B
100
AcDbEntity
  8
0
  6
Continuous
 62
     0
370
    30
100
AcDbLine
 10
416.80696
 20
107.586559
 30
0.0
 11
416.80696
 21
63.586559
 31
0.0
  0
LINE
  5
161
330
11B
100
AcDbEntity
  8
0
  6
Continuous
 62
     0
370
    30
100
AcDbLine
 10
417.30696
 20
107.086559
 30
0.0
 11
417.30696
 21
64.086559
 31
0.0
  0
LINE
  5
162
330
11B
100
AcDbEntity
  8
0
  6
Continuous
 62
     0
370
    30
100
AcDbLine
 10
404.85696
 20
115.416559
 30
0.0
 11
404.35696
 21
114.916559
 31
0.0
  0
LINE
  5
163
330
11B
100
AcDbEntity
  8
0
  6
Continuous
 62
     0
370
    30
100
AcDbLine
 10
404.85696
 20
115.416559
 30
0.0
 11
411.75696
 21
115.416559
 31
0.0
  0
LINE
  5
164
330
11B
100
AcDbEntity
  8
0
  6
Continuous
 62
     0
370
    30
100
AcDbLine
 10
404.35696
 20
114.916559
 30
0.0
 11
412.25696
 21
114.916559
 31
0.0
  0
LINE
  5
165
330
11B
100
AcDbEntity
  8
0
  6
Continuous
 62
     0
370
    30
100
AcDbLine
 10
404.35696
 20
114.916559
 30
0.0
 11
404.35696
 21
107.586559
 31
0.0
  0
SPLINE
  5
166
330
11B
100
AcDbEntity
  8
0
  6
Continuous
 62
     0
370
    30
100
AcDbSpline
210
0.0
220
0.0
230
1.0
 70
     8
 71
     3
 72
    17
 73
    13
 74
     0
 42
0.000000001
 43
0.0
 40
0.0
 40
0.0
 40
0.0
 40
0.0
 40
0.709189021646981
 40
1.851062693760694
 40
2.37232866768106
 40
3.487418805119132
 40
5.102690338481654
 40
6.638681989770951
 40
8.270744171017007
 40
9.905522128837482
 40
11.51907905334415
 40
12.43446715808202
 40
12.43446715808202
 40
12.43446715808202
 40
12.43446715808202
 10
404.3569598388674
 20
107.5865592956543
 30
0.0
 10
404.3569598491866
 20
107.5865592956543
 30
0.0
 10
404.4124371883502
 20
107.5765570843176
 30
0.0
 10
404.6665970753796
 20
107.5319225195362
 30
0.0
 10
405.1375685022322
 20
107.4583421267573
 30
0.0
 10
405.872440450381
 20
107.3572084076211
 30
0.0
 10
407.1517201932713
 20
107.2414051105542
 30
0.0
 10
408.7713754468737
 20
107.2138502641053
 30
0.0
 10
410.3250583034262
 20
107.3070153309527
 30
0.0
 10
411.5622185770491
 20
107.4655693243913
 30
0.0
 10
412.1594191026375
 20
107.5691097954809
 30
0.0
 10
412.256509051248
 20
107.5862680143405
 30
0.0
 10
412.2565839016937
 20
107.5863163037648
 30
0.0
  0
ARC
  5
167
330
11B
100
AcDbEntity
  8
0
  6
Continuous
 62
     0
370
    30
100
AcDbCircle
 10
363.102051
 20
150.086555
 30
0.0
 40
0.5000044378854371
100
AcDbArc
 50
1.750151
 51
89.999507
  0
LINE
  5
168
330
11B
100
AcDbEntity
  8
0
  6
Continuous
 62
     0
370
    30
100
AcDbLine
 10
363.102056
 20
150.586559
 30
0.0
 11
354.08696
 21
150.586559
 31
0.0
  0
LINE
  5
169
330
11B
100
AcDbEntity
  8
0
  6
Continuous
 62
     0
370
     0
100
AcDbLine
 10
363.601823
 20
150.101826
 30
0.0
 11
363.601823
 21
21.071293
 31
0.0
  0
LINE
  5
16A
330
11B
100
AcDbEntity
  8
0
  6
Continuous
 62
     0
370
     0
100
AcDbLine
 10
363.102056
 20
150.586559
 30
0.0
 11
363.102056
 21
20.586559
 31
0.0
  0
LINE
  5
16B
330
11B
100
AcDbEntity
  8
0
  6
Continuous
 62
     0
370
    30
100
AcDbLine
 10
354.08696
 20
150.586559
 30
0.0
 11
354.08696
 21
20.586559
 31
0.0
  0
LINE
  5
16C
330
11B
100
AcDbEntity
  8
0
  6
Continuous
 62
     0
370
    30
100
AcDbLine
 10
364.488481
 20
65.186559
 30
0.0
 11
364.55393
 21
65.186559
 31
0.0
  0
ARC
  5
16D
330
11B
100
AcDbEntity
  8
0
  6
Continuous
 62
     0
370
    30
100
AcDbCircle
 10
-1748.413427
 20
85.586552
 30
0.0
 40
2113.00038687978
100
AcDbArc
 50
0.553172
 51
1.749658
  0
LINE
  5
16E
330
11B
100
AcDbEntity
  8
0
  6
Continuous
 62
     0
370
    30
100
AcDbLine
 10
364.488481
 20
105.986559
 30
0.0
 11
364.488481
 21
65.186559
 31
0.0
  0
LINE
  5
16F
330
11B
100
AcDbEntity
  8
0
  6
Continuous
 62
     0
370
    30
100
AcDbLine
 10
363.102056
 20
20.586559
 30
0.0
 11
354.08696
 21
20.586559
 31
0.0
  0
ARC
  5
170
330
11B
100
AcDbEntity
  8
0
  6
Continuous
 62
     0
370
    30
100
AcDbCircle
 10
363.102051
 20
21.086564
 30
0.0
 40
0.5000044379216526
100
AcDbArc
 50
270.000493
 51
358.249849
  0
ARC
  5
171
330
11B
100
AcDbEntity
  8
0
  6
Continuous
 62
     0
370
    30
100
AcDbCircle
 10
-1748.413427
 20
85.586567
 30
0.0
 40
2113.000386879751
100
AcDbArc
 50
358.250342
 51
359.446828
  0
LINE
  5
172
330
11B
100
AcDbEntity
  8
0
  6
Continuous
 62
     0
370
    30
100
AcDbLine
 10
416.80696
 20
107.586559
 30
0.0
 11
417.30696
 21
107.086559
 31
0.0
  0
LINE
  5
173
330
11B
100
AcDbEntity
  8
0
  6
Continuous
 62
     0
370
    30
100
AcDbLine
 10
367.30696
 20
107.586559
 30
0.0
 11
404.35696
 21
107.586559
 31
0.0
  0
LINE
  5
174
330
11B
100
AcDbEntity
  8
0
  6
Continuous
 62
     0
370
    30
100
AcDbLine
 10
412.256584
 20
107.586559
 30
0.0
 11
416.80696
 21
107.586559
 31
0.0
  0
LINE
  5
175
330
11B
100
AcDbEntity
  8
0
  6
Continuous
 62
     0
370
    30
100
AcDbLine
 10
367.018774
 20
105.836559
 30
0.0
 11
367.30696
 21
105.836559
 31
0.0
  0
ARC
  5
176
330
11B
100
AcDbEntity
  8
0
  6
Continuous
 62
     0
370
    30
100
AcDbCircle
 10
367.018773
 20
106.13656
 30
0.0
 40
0.3000007634516371
100
AcDbArc
 50
180.469088
 51
270.00012
  0
LINE
  5
177
330
11B
100
AcDbEntity
  8
0
  6
Continuous
 62
     0
370
    30
100
AcDbLine
 10
366.717484
 20
106.291465
 30
0.0
 11
366.717484
 21
64.881653
 31
0.0
  0
ARC
  5
178
330
11B
100
AcDbEntity
  8
0
  6
Continuous
 62
     0
370
    30
100
AcDbCircle
 10
366.417524
 20
106.286558
 30
0.0
 40
0.3000007975232173
100
AcDbArc
 50
0.469087
 51
90.000114
  0
LINE
  5
179
330
11B
100
AcDbEntity
  8
0
  6
Continuous
 62
     0
370
    30
100
AcDbLine
 10
364.856396
 20
106.586559
 30
0.0
 11
366.417523
 21
106.586559
 31
0.0
  0
ARC
  5
17A
330
11B
100
AcDbEntity
  8
0
  6
Continuous
 62
     0
370
    30
100
AcDbCircle
 10
364.856396
 20
106.286558
 30
0.0
 40
0.3000007975877204
100
AcDbArc
 50
89.999886
 51
179.530913
  0
LINE
  5
17B
330
11B
100
AcDbEntity
  8
0
  6
Continuous
 62
     0
370
    30
100
AcDbLine
 10
364.55393
 20
105.986559
 30
0.0
 11
364.556405
 21
106.289014
 31
0.0
  0
LINE
  5
17C
330
11B
100
AcDbEntity
  8
0
  6
Continuous
 62
     0
370
    30
100
AcDbLine
 10
364.488481
 20
105.986559
 30
0.0
 11
364.55393
 21
105.986559
 31
0.0
  0
LINE
  5
17D
330
11B
100
AcDbEntity
  8
0
  6
Continuous
 62
     0
370
    30
100
AcDbLine
 10
412.25696
 20
114.916559
 30
0.0
 11
412.25696
 21
107.586316
 31
0.0
  0
LINE
  5
17E
330
11B
100
AcDbEntity
  8
0
  6
Continuous
 62
     0
370
    30
100
AcDbLine
 10
411.75696
 20
115.416559
 30
0.0
 11
412.25696
 21
114.916559
 31
0.0
  0
ENDBLK
  5
180
330
11B
100
AcDbEntity
  8
0
100
AcDbBlockEnd
  0
BLOCK
  5
1CC
330
182
100
AcDbEntity
  8
0
100
AcDbBlockBegin
  2
d
 70
     0
 10
0.0
 20
-78.642426
 30
0.0
  3
d
  1

  0
SPLINE
  5
183
330
182
100
AcDbEntity
  8
0
  6
Continuous
 62
     0
370
     0
100
AcDbSpline
210
0.0
220
0.0
230
1.0
 70
     8
 71
     3
 72
    17
 73
    13
 74
     0
 42
0.000000001
 43
0.0
 40
10.77936883426035
 40
10.77936883426035
 40
10.77936883426035
 40
10.77936883426035
 40
13.00920997969028
 40
17.34574091751642
 40
21.68030458132657
 40
26.0158598568891
 40
30.35360663391604
 40
34.69137162723425
 40
39.02687277555464
 40
43.36148144101966
 40
47.69798630468826
 40
49.92780254727324
 40
49.92780254727324
 40
49.92780254727324
 40
49.92780254727324
 10
135.9280561416442
 20
-134.8384306636284
 30
0.0
 10
135.9280506723174
 20
-134.8384609283668
 30
0.0
 10
136.123876085952
 20
-134.8740131880741
 30
0.0
 10
137.407097254692
 20
-135.1054576340212
 30
0.0
 10
140.2473290604288
 20
-135.5194961212802
 30
0.0
 10
144.0682091451214
 20
-135.8695286612174
 30
0.0
 10
148.4271847182614
 20
-136.0090886206478
 30
0.0
 10
152.7861553569805
 20
-135.8696742738908
 30
0.0
 10
156.6070405367138
 20
-135.5194798585832
 30
0.0
 10
159.4473074848105
 20
-135.1058495755504
 30
0.0
 10
160.7305348422852
 20
-134.8741755988556
 30
0.0
 10
160.926375021763
 20
-134.8387546511382
 30
0.0
 10
160.9263755347105
 20
-134.8387574567915
 30
0.0
  0
LINE
  5
184
330
182
100
AcDbEntity
  8
0
  6
Continuous
 62
     0
370
    30
100
AcDbLine
 10
160.927215
 20
-104.703618
 30
0.0
 11
135.927215
 21
-104.703618
 31
0.0
  0
SPLINE
  5
185
330
182
100
AcDbEntity
  8
0
  6
Continuous
 62
     0
370
    30
100
AcDbSpline
210
0.0
220
0.0
230
1.0
 70
     8
 71
     3
 72
    23
 73
    19
 74
     0
 42
0.000000001
 43
0.0
 40
9.589059798233244
 40
9.589059798233244
 40
9.589059798233244
 40
9.589059798233244
 40
9.642265420132297
 40
11.55909434387184
 40
13.4793174695907
 40
15.40586401667402
 40
17.34099563188875
 40
19.28673070470717
 40
23.18505413553117
 40
27.1036091078416
 40
31.02216571618501
 40
34.92075349536309
 40
36.86614307564447
 40
38.80138421432545
 40
40.72795329880143
 40
42.64816249845496
 40
44.56496741876284
 40
44.61841615640433
 40
44.61841615640433
 40
44.61841615640433
 40
44.61841615640433
 10
159.7338438365775
 20
-136.3066132220106
 30
0.0
 10
159.7338438103684
 20
-136.3066130980785
 30
0.0
 10
159.7322012851551
 20
-136.3069535578013
 30
0.0
 10
159.6088597778717
 20
-136.3329002001554
 30
0.0
 10
159.0875745346273
 20
-136.4390786706202
 30
0.0
 10
158.2446041444899
 20
-136.599795895802
 30
0.0
 10
157.1072607249674
 20
-136.7948110123892
 30
0.0
 10
155.2444622608464
 20
-137.0679681505079
 30
0.0
 10
152.3573883663643
 20
-137.3677053684331
 30
0.0
 10
148.4271237765251
 20
-137.5102294941956
 30
0.0
 10
144.4970034634597
 20
-137.367608988544
 30
0.0
 10
141.6094350935075
 20
-137.0677284197861
 30
0.0
 10
139.7474428662247
 20
-136.7946424517327
 30
0.0
 10
138.6094285382092
 20
-136.5994849973831
 30
0.0
 10
137.7669109131243
 20
-136.4388224365366
 30
0.0
 10
137.2455379274467
 20
-136.3326147363171
 30
0.0
 10
137.1222403822375
 20
-136.306672988447
 30
0.0
 10
137.1205911952182
 20
-136.3063310123873
 30
0.0
 10
137.1205911695562
 20
-136.3063311353318
 30
0.0
  0
LINE
  5
186
330
182
100
AcDbEntity
  8
0
  6
Continuous
 62
     0
370
     0
100
AcDbLine
 10
158.677215
 20
-104.053618
 30
0.0
 11
148.427215
 21
-104.053618
 31
0.0
  0
LINE
  5
187
330
182
100
AcDbEntity
  8
0
  6
Continuous
 62
     0
370
     0
100
AcDbLine
 10
148.427215
 20
-104.053618
 30
0.0
 11
138.177215
 21
-104.053618
 31
0.0
  0
LINE
  5
188
330
182
100
AcDbEntity
  8
0
  6
Continuous
 62
     0
370
    30
100
AcDbLine
 10
178.227215
 20
-103.803618
 30
0.0
 11
148.427215
 21
-103.803618
 31
0.0
  0
LINE
  5
189
330
182
100
AcDbEntity
  8
0
  6
Continuous
 62
     0
370
    30
100
AcDbLine
 10
148.427215
 20
-103.803618
 30
0.0
 11
118.627215
 21
-103.803618
 31
0.0
  0
LINE
  5
18A
330
182
100
AcDbEntity
  8
0
  6
Continuous
 62
     0
370
     0
100
AcDbLine
 10
178.427215
 20
-103.603618
 30
0.0
 11
148.427215
 21
-103.603618
 31
0.0
  0
LINE
  5
18B
330
182
100
AcDbEntity
  8
0
  6
Continuous
 62
     0
370
     0
100
AcDbLine
 10
148.427215
 20
-103.603618
 30
0.0
 11
118.427215
 21
-103.603618
 31
0.0
  0
LINE
  5
18C
330
182
100
AcDbEntity
  8
0
  6
Continuous
 62
     0
370
    30
100
AcDbLine
 10
178.427215
 20
-98.103618
 30
0.0
 11
148.427215
 21
-98.103618
 31
0.0
  0
LINE
  5
18D
330
182
100
AcDbEntity
  8
0
  6
Continuous
 62
     0
370
    30
100
AcDbLine
 10
148.427215
 20
-98.103618
 30
0.0
 11
118.427215
 21
-98.103618
 31
0.0
  0
ARC
  5
18E
330
182
100
AcDbEntity
  8
0
  6
Continuous
 62
     0
370
    30
100
AcDbCircle
 10
159.427198
 20
-134.838297
 30
0.0
 40
1.500001483426334
100
AcDbArc
 50
281.794957
 51
0.000099
  0
SPLINE
  5
18F
330
182
100
AcDbEntity
  8
0
  6
Continuous
 62
     0
370
    30
100
AcDbSpline
210
0.0
220
0.0
230
1.0
 70
     8
 71
     3
 72
    26
 73
    22
 74
     0
 42
0.000000001
 43
0.0
 40
0.0
 40
0.0
 40
0.0
 40
0.0
 40
0.1880443811064096
 40
0.5641334333735507
 40
0.8148596836012042
 40
1.065586107226488
 40
1.128267740538946
 40
1.190949384576188
 40
1.504357774715735
 40
1.62972140824253
 40
1.692403239651452
 40
1.817767508769044
 40
1.880449940384419
 40
1.943136813141285
 40
2.00589583286808
 40
2.016524165895733
 40
2.027151971532937
 40
2.033920648962336
 40
2.040688010197229
 40
2.055897510887903
 40
2.130097668157611
 40
2.130097668157611
 40
2.130097668157611
 40
2.130097668157611
 10
135.9272682464778
 20
-134.8380564916283
 30
0.0
 10
135.9272685960746
 20
-134.9007014666341
 30
0.0
 10
135.939055640179
 20
-135.0888441781187
 30
0.0
 10
136.0069877229193
 20
-135.3540064502307
 30
0.0
 10
136.137255321522
 20
-135.6170954936648
 30
0.0
 10
136.2479555333759
 20
-135.7699282547994
 30
0.0
 10
136.3317085901172
 20
-135.8632587508453
 30
0.0
 10
136.4338783895084
 20
-135.9679726631383
 30
0.0
 10
136.5653847855885
 20
-136.0726448227354
 30
0.0
 10
136.7100738164399
 20
-136.1566424693458
 30
0.0
 10
136.803567466909
 20
-136.2033505289781
 30
0.0
 10
136.8805354311299
 20
-136.2359630855549
 30
0.0
 10
136.9595534308078
 20
-136.2637153750611
 30
0.0
 10
137.0191063101042
 20
-136.2819224614178
 30
0.0
 10
137.0642029596035
 20
-136.2936066628664
 30
0.0
 10
137.0900661307826
 20
-136.299669638493
 30
0.0
 10
137.0998449550636
 20
-136.3018829512328
 30
0.0
 10
137.1052242225507
 20
-136.3030732961994
 30
0.0
 10
137.113322530236
 20
-136.3048348826534
 30
0.0
 10
137.1191495864146
 20
-136.3060546060781
 30
0.0
 10
137.124503389995
 20
-136.3072050034671
 30
0.0
 10
137.1245036203387
 20
-136.3072039333338
 30
0.0
  0
LINE
  5
190
330
182
100
AcDbEntity
  8
0
  6
Continuous
 62
     0
370
    30
100
AcDbLine
 10
135.927215
 20
-134.838056
 30
0.0
 11
135.927215
 21
-104.703618
 31
0.0
  0
LINE
  5
191
330
182
100
AcDbEntity
  8
0
  6
Continuous
 62
     0
370
    30
100
AcDbLine
 10
160.927215
 20
-134.838295
 30
0.0
 11
160.927215
 21
-104.703618
 31
0.0
  0
LINE
  5
192
330
182
100
AcDbEntity
  8
0
  6
Continuous
 62
     0
370
    30
100
AcDbLine
 10
118.427215
 20
-103.603618
 30
0.0
 11
118.427215
 21
-98.103618
 31
0.0
  0
LINE
  5
193
330
182
100
AcDbEntity
  8
0
  6
Continuous
 62
     0
370
    30
100
AcDbLine
 10
178.427215
 20
-103.603618
 30
0.0
 11
178.427215
 21
-98.103618
 31
0.0
  0
ARC
  5
194
330
182
100
AcDbEntity
  8
0
  6
Continuous
 62
     0
370
    30
100
AcDbCircle
 10
118.627215
 20
-103.603618
 30
0.0
 40
0.2000000029802322
100
AcDbArc
 50
180.0
 51
270.0
  0
ARC
  5
195
330
182
100
AcDbEntity
  8
0
  6
Continuous
 62
     0
370
    30
100
AcDbCircle
 10
178.227215
 20
-103.603618
 30
0.0
 40
0.2000000029802322
100
AcDbArc
 50
270.0
 51
360.0
  0
ARC
  5
196
330
182
100
AcDbEntity
  8
0
  6
Continuous
 62
     0
370
    30
100
AcDbCircle
 10
137.927215
 20
-104.053618
 30
0.0
 40
0.25
100
AcDbArc
 50
360.0
 51
90.0
  0
ARC
  5
197
330
182
100
AcDbEntity
  8
0
  6
Continuous
 62
     0
370
    30
100
AcDbCircle
 10
158.927215
 20
-104.053618
 30
0.0
 40
0.25
100
AcDbArc
 50
90.0
 51
180.0
  0
LINE
  5
198
330
182
100
AcDbEntity
  8
0
  6
Continuous
 62
     0
370
    30
100
AcDbLine
 10
138.177215
 20
-104.703618
 30
0.0
 11
138.177215
 21
-104.053618
 31
0.0
  0
LINE
  5
199
330
182
100
AcDbEntity
  8
0
  6
Continuous
 62
     0
370
    30
100
AcDbLine
 10
158.677215
 20
-104.703618
 30
0.0
 11
158.677215
 21
-104.053618
 31
0.0
  0
LINE
  5
19A
330
182
100
AcDbEntity
  8
0
  6
Continuous
 62
     0
370
     0
100
AcDbLine
 10
135.927215
 20
-109.051093
 30
0.0
 11
127.724761
 21
-109.051093
 31
0.0
  0
LINE
  5
19B
330
182
100
AcDbEntity
  8
0
  6
Continuous
 62
     0
370
     0
100
AcDbLine
 10
169.12967
 20
-109.051093
 30
0.0
 11
160.927215
 21
-109.051093
 31
0.0
  0
LINE
  5
19C
330
182
100
AcDbEntity
  8
0
  6
Continuous
 62
     0
370
     0
100
AcDbLine
 10
135.927215
 20
-109.351085
 30
0.0
 11
127.427216
 21
-109.351085
 31
0.0
  0
LINE
  5
19D
330
182
100
AcDbEntity
  8
0
  6
Continuous
 62
     0
370
     0
100
AcDbLine
 10
169.427216
 20
-109.351085
 30
0.0
 11
160.927215
 21
-109.351085
 31
0.0
  0
LINE
  5
19E
330
182
100
AcDbEntity
  8
0
  6
Continuous
 62
     0
370
     0
100
AcDbLine
 10
135.927215
 20
-110.912211
 30
0.0
 11
127.427216
 21
-110.912211
 31
0.0
  0
LINE
  5
19F
330
182
100
AcDbEntity
  8
0
  6
Continuous
 62
     0
370
     0
100
AcDbLine
 10
169.427215
 20
-110.912211
 30
0.0
 11
160.927215
 21
-110.912211
 31
0.0
  0
LINE
  5
1A0
330
182
100
AcDbEntity
  8
0
  6
Continuous
 62
     0
370
     0
100
AcDbLine
 10
135.927215
 20
-111.212203
 30
0.0
 11
127.724761
 21
-111.212203
 31
0.0
  0
LINE
  5
1A1
330
182
100
AcDbEntity
  8
0
  6
Continuous
 62
     0
370
     0
100
AcDbLine
 10
169.12967
 20
-111.212203
 30
0.0
 11
160.927215
 21
-111.212203
 31
0.0
  0
LINE
  5
1A2
330
182
100
AcDbEntity
  8
0
  6
Continuous
 62
     0
370
     0
100
AcDbLine
 10
135.927215
 20
-111.213471
 30
0.0
 11
127.879671
 21
-111.213471
 31
0.0
  0
LINE
  5
1A3
330
182
100
AcDbEntity
  8
0
  6
Continuous
 62
     0
370
     0
100
AcDbLine
 10
168.97476
 20
-111.213471
 30
0.0
 11
160.927215
 21
-111.213471
 31
0.0
  0
LINE
  5
1A4
330
182
100
AcDbEntity
  8
0
  6
Continuous
 62
     0
370
     0
100
AcDbLine
 10
135.927215
 20
-111.513462
 30
0.0
 11
128.177216
 21
-111.513462
 31
0.0
  0
LINE
  5
1A5
330
182
100
AcDbEntity
  8
0
  6
Continuous
 62
     0
370
     0
100
AcDbLine
 10
168.677216
 20
-111.513462
 30
0.0
 11
160.927215
 21
-111.513462
 31
0.0
  0
LINE
  5
1A6
330
182
100
AcDbEntity
  8
0
  6
Continuous
 62
     0
370
    30
100
AcDbLine
 10
135.927215
 20
-111.801648
 30
0.0
 11
126.427216
 21
-111.801648
 31
0.0
  0
LINE
  5
1A7
330
182
100
AcDbEntity
  8
0
  6
Continuous
 62
     0
370
    30
100
AcDbLine
 10
170.427216
 20
-111.801648
 30
0.0
 11
160.927215
 21
-111.801648
 31
0.0
  0
LINE
  5
1A8
330
182
100
AcDbEntity
  8
0
  6
Continuous
 62
     0
370
    30
100
AcDbLine
 10
170.427216
 20
-161.301648
 30
0.0
 11
126.427216
 21
-161.301648
 31
0.0
  0
LINE
  5
1A9
330
182
100
AcDbEntity
  8
0
  6
Continuous
 62
     0
370
    30
100
AcDbLine
 10
169.927216
 20
-161.801648
 30
0.0
 11
126.927216
 21
-161.801648
 31
0.0
  0
CIRCLE
  5
1AA
330
182
100
AcDbEntity
  8
0
  6
Continuous
 62
     0
370
    30
100
AcDbCircle
 10
148.427216
 20
-152.801649
 30
0.0
 40
3.450000000000003
  0
CIRCLE
  5
1AB
330
182
100
AcDbEntity
  8
0
  6
Continuous
 62
     0
370
    30
100
AcDbCircle
 10
148.427216
 20
-152.801649
 30
0.0
 40
3.950000000000003
  0
LINE
  5
1AC
330
182
100
AcDbEntity
  8
0
  6
Continuous
 62
     0
370
     0
100
AcDbLine
 10
212.942482
 20
-108.096511
 30
0.0
 11
160.927215
 21
-108.096511
 31
0.0
  0
LINE
  5
1AD
330
182
100
AcDbEntity
  8
0
  6
Continuous
 62
     0
370
     0
100
AcDbLine
 10
135.927215
 20
-108.096511
 30
0.0
 11
83.911949
 21
-108.096511
 31
0.0
  0
LINE
  5
1AE
330
182
100
AcDbEntity
  8
0
  6
Continuous
 62
     0
370
     0
100
AcDbLine
 10
213.427216
 20
-107.596744
 30
0.0
 11
160.927215
 21
-107.596744
 31
0.0
  0
LINE
  5
1AF
330
182
100
AcDbEntity
  8
0
  6
Continuous
 62
     0
370
     0
100
AcDbLine
 10
135.927215
 20
-107.596744
 30
0.0
 11
83.427216
 21
-107.596744
 31
0.0
  0
LINE
  5
1B0
330
182
100
AcDbEntity
  8
0
  6
Continuous
 62
     0
370
    30
100
AcDbLine
 10
213.427216
 20
-98.581648
 30
0.0
 11
178.427215
 21
-98.581648
 31
0.0
  0
LINE
  5
1B1
330
182
100
AcDbEntity
  8
0
  6
Continuous
 62
     0
370
    30
100
AcDbLine
 10
118.427215
 20
-98.581648
 30
0.0
 11
83.427216
 21
-98.581648
 31
0.0
  0
LINE
  5
1B2
330
182
100
AcDbEntity
  8
0
  6
Continuous
 62
     0
370
    30
100
AcDbLine
 10
168.827216
 20
-108.98317
 30
0.0
 11
160.927215
 21
-108.98317
 31
0.0
  0
LINE
  5
1B3
330
182
100
AcDbEntity
  8
0
  6
Continuous
 62
     0
370
    30
100
AcDbLine
 10
135.927215
 20
-108.98317
 30
0.0
 11
128.027216
 21
-108.98317
 31
0.0
  0
LINE
  5
1B4
330
182
100
AcDbEntity
  8
0
  6
Continuous
 62
     0
370
    30
100
AcDbLine
 10
83.427216
 20
-107.596744
 30
0.0
 11
83.427216
 21
-98.581648
 31
0.0
  0
LINE
  5
1B5
330
182
100
AcDbEntity
  8
0
  6
Continuous
 62
     0
370
    30
100
AcDbLine
 10
213.427216
 20
-107.596744
 30
0.0
 11
213.427216
 21
-98.581648
 31
0.0
  0
ARC
  5
1B6
330
182
100
AcDbEntity
  8
0
  6
Continuous
 62
     0
370
    30
100
AcDbCircle
 10
83.92722
 20
-107.596739
 30
0.0
 40
0.5000044379061799
100
AcDbArc
 50
180.000493
 51
268.249849
  0
ARC
  5
1B7
330
182
100
AcDbEntity
  8
0
  6
Continuous
 62
     0
370
    30
100
AcDbCircle
 10
212.927211
 20
-107.596739
 30
0.0
 40
0.500004437906114
100
AcDbArc
 50
271.750151
 51
359.999507
  0
ARC
  5
1B8
330
182
100
AcDbEntity
  8
0
  6
Continuous
 62
     0
370
    30
100
AcDbCircle
 10
148.427223
 20
2003.918739
 30
0.0
 40
2113.000386879761
100
AcDbArc
 50
268.250342
 51
269.446828
  0
ARC
  5
1B9
330
182
100
AcDbEntity
  8
0
  6
Continuous
 62
     0
370
    30
100
AcDbCircle
 10
148.427208
 20
2003.918739
 30
0.0
 40
2113.000386879761
100
AcDbArc
 50
270.553172
 51
271.749658
  0
LINE
  5
1BA
330
182
100
AcDbEntity
  8
0
  6
Continuous
 62
     0
370
    30
100
AcDbLine
 10
170.427216
 20
-161.301648
 30
0.0
 11
169.927216
 21
-161.801648
 31
0.0
  0
LINE
  5
1BB
330
182
100
AcDbEntity
  8
0
  6
Continuous
 62
     0
370
    30
100
AcDbLine
 10
126.427216
 20
-161.301648
 30
0.0
 11
126.927216
 21
-161.801648
 31
0.0
  0
LINE
  5
1BC
330
182
100
AcDbEntity
  8
0
  6
Continuous
 62
     0
370
    30
100
AcDbLine
 10
170.427216
 20
-111.801648
 30
0.0
 11
170.427216
 21
-161.301648
 31
0.0
  0
LINE
  5
1BD
330
182
100
AcDbEntity
  8
0
  6
Continuous
 62
     0
370
    30
100
AcDbLine
 10
126.427216
 20
-111.801648
 30
0.0
 11
126.427216
 21
-161.301648
 31
0.0
  0
LINE
  5
1BE
330
182
100
AcDbEntity
  8
0
  6
Continuous
 62
     0
370
    30
100
AcDbLine
 10
168.677216
 20
-111.513462
 30
0.0
 11
168.677216
 21
-111.801648
 31
0.0
  0
LINE
  5
1BF
330
182
100
AcDbEntity
  8
0
  6
Continuous
 62
     0
370
    30
100
AcDbLine
 10
128.177216
 20
-111.513462
 30
0.0
 11
128.177216
 21
-111.801648
 31
0.0
  0
ARC
  5
1C0
330
182
100
AcDbEntity
  8
0
  6
Continuous
 62
     0
370
    30
100
AcDbCircle
 10
168.977216
 20
-111.513461
 30
0.0
 40
0.3000007634447454
100
AcDbArc
 50
90.469088
 51
180.00012
  0
ARC
  5
1C1
330
182
100
AcDbEntity
  8
0
  6
Continuous
 62
     0
370
    30
100
AcDbCircle
 10
127.877215
 20
-111.513461
 30
0.0
 40
0.3000007634158517
100
AcDbArc
 50
359.99988
 51
89.530912
  0
ARC
  5
1C2
330
182
100
AcDbEntity
  8
0
  6
Continuous
 62
     0
370
    30
100
AcDbCircle
 10
169.127214
 20
-110.912212
 30
0.0
 40
0.3000007975450009
100
AcDbArc
 50
270.469087
 51
0.000114
  0
ARC
  5
1C3
330
182
100
AcDbEntity
  8
0
  6
Continuous
 62
     0
370
    30
100
AcDbCircle
 10
127.727217
 20
-110.912212
 30
0.0
 40
0.3000007975753227
100
AcDbArc
 50
179.999886
 51
269.530913
  0
LINE
  5
1C4
330
182
100
AcDbEntity
  8
0
  6
Continuous
 62
     0
370
    30
100
AcDbLine
 10
169.427216
 20
-109.351085
 30
0.0
 11
169.427216
 21
-110.912211
 31
0.0
  0
LINE
  5
1C5
330
182
100
AcDbEntity
  8
0
  6
Continuous
 62
     0
370
    30
100
AcDbLine
 10
127.427216
 20
-109.351085
 30
0.0
 11
127.427216
 21
-110.912211
 31
0.0
  0
ARC
  5
1C6
330
182
100
AcDbEntity
  8
0
  6
Continuous
 62
     0
370
    30
100
AcDbCircle
 10
169.127214
 20
-109.351084
 30
0.0
 40
0.300000797683088
100
AcDbArc
 50
359.999886
 51
89.530913
  0
ARC
  5
1C7
330
182
100
AcDbEntity
  8
0
  6
Continuous
 62
     0
370
    30
100
AcDbCircle
 10
127.727217
 20
-109.351084
 30
0.0
 40
0.3000007977128104
100
AcDbArc
 50
90.469087
 51
180.000114
  0
LINE
  5
1C8
330
182
100
AcDbEntity
  8
0
  6
Continuous
 62
     0
370
    30
100
AcDbLine
 10
168.827216
 20
-109.048618
 30
0.0
 11
169.12967
 21
-109.051093
 31
0.0
  0
LINE
  5
1C9
330
182
100
AcDbEntity
  8
0
  6
Continuous
 62
     0
370
    30
100
AcDbLine
 10
128.027216
 20
-109.048618
 30
0.0
 11
127.724761
 21
-109.051093
 31
0.0
  0
LINE
  5
1CA
330
182
100
AcDbEntity
  8
0
  6
Continuous
 62
     0
370
    30
100
AcDbLine
 10
168.827216
 20
-108.98317
 30
0.0
 11
168.827216
 21
-109.048618
 31
0.0
  0
LINE
  5
1CB
330
182
100
AcDbEntity
  8
0
  6
Continuous
 62
     0
370
    30
100
AcDbLine
 10
128.027216
 20
-108.98317
 30
0.0
 11
128.027216
 21
-109.048618
 31
0.0
  0
ENDBLK
  5
1CD
330
182
100
AcDbEntity
  8
0
100
AcDbBlockEnd
  0
BLOCK
  5
204
330
1CF
100
AcDbEntity
  8
0
100
AcDbBlockBegin
  2
e
 70
     0
 10
0.0
 20
250.612244
 30
0.0
  3
e
  1

  0
CIRCLE
  5
1D0
330
1CF
100
AcDbEntity
  8
0
  6
Continuous
 62
     0
370
    30
100
AcDbCircle
 10
148.427216
 20
391.017717
 30
0.0
 40
4.799999999999947
  0
CIRCLE
  5
1D1
330
1CF
100
AcDbEntity
  8
0
  6
Continuous
 62
     0
370
    30
100
AcDbCircle
 10
148.427216
 20
391.017717
 30
0.0
 40
4.650149520023739
  0
LINE
  5
1D2
330
1CF
100
AcDbEntity
  8
0
  6
Continuous
 62
     0
370
    30
100
AcDbLine
 10
118.427215
 20
336.319675
 30
0.0
 11
178.427215
 21
336.319675
 31
0.0
  0
LINE
  5
1D3
330
1CF
100
AcDbEntity
  8
0
  6
Continuous
 62
     0
370
    30
100
AcDbLine
 10
118.427215
 20
336.797711
 30
0.0
 11
118.427215
 21
336.319675
 31
0.0
  0
LINE
  5
1D4
330
1CF
100
AcDbEntity
  8
0
  6
Continuous
 62
     0
370
    30
100
AcDbLine
 10
178.427215
 20
336.797711
 30
0.0
 11
178.427215
 21
336.319675
 31
0.0
  0
LINE
  5
1D5
330
1CF
100
AcDbEntity
  8
0
  6
Continuous
 62
     0
370
     0
100
AcDbLine
 10
127.724761
 20
347.267161
 30
0.0
 11
148.427216
 21
347.267161
 31
0.0
  0
LINE
  5
1D6
330
1CF
100
AcDbEntity
  8
0
  6
Continuous
 62
     0
370
     0
100
AcDbLine
 10
148.427216
 20
347.267161
 30
0.0
 11
169.12967
 21
347.267161
 31
0.0
  0
LINE
  5
1D7
330
1CF
100
AcDbEntity
  8
0
  6
Continuous
 62
     0
370
     0
100
AcDbLine
 10
127.427216
 20
347.567153
 30
0.0
 11
148.427216
 21
347.567153
 31
0.0
  0
LINE
  5
1D8
330
1CF
100
AcDbEntity
  8
0
  6
Continuous
 62
     0
370
     0
100
AcDbLine
 10
148.427216
 20
347.567153
 30
0.0
 11
169.427216
 21
347.567153
 31
0.0
  0
LINE
  5
1D9
330
1CF
100
AcDbEntity
  8
0
  6
Continuous
 62
     0
370
     0
100
AcDbLine
 10
127.427216
 20
349.128279
 30
0.0
 11
148.427216
 21
349.128279
 31
0.0
  0
LINE
  5
1DA
330
1CF
100
AcDbEntity
  8
0
  6
Continuous
 62
     0
370
     0
100
AcDbLine
 10
148.427216
 20
349.128279
 30
0.0
 11
169.427215
 21
349.128279
 31
0.0
  0
LINE
  5
1DB
330
1CF
100
AcDbEntity
  8
0
  6
Continuous
 62
     0
370
     0
100
AcDbLine
 10
127.724761
 20
349.428271
 30
0.0
 11
148.427216
 21
349.428271
 31
0.0
  0
LINE
  5
1DC
330
1CF
100
AcDbEntity
  8
0
  6
Continuous
 62
     0
370
     0
100
AcDbLine
 10
148.427216
 20
349.428271
 30
0.0
 11
169.12967
 21
349.428271
 31
0.0
  0
LINE
  5
1DD
330
1CF
100
AcDbEntity
  8
0
  6
Continuous
 62
     0
370
     0
100
AcDbLine
 10
127.879671
 20
349.429539
 30
0.0
 11
148.427216
 21
349.429539
 31
0.0
  0
LINE
  5
1DE
330
1CF
100
AcDbEntity
  8
0
  6
Continuous
 62
     0
370
     0
100
AcDbLine
 10
148.427216
 20
349.429539
 30
0.0
 11
168.97476
 21
349.429539
 31
0.0
  0
LINE
  5
1DF
330
1CF
100
AcDbEntity
  8
0
  6
Continuous
 62
     0
370
     0
100
AcDbLine
 10
128.177216
 20
349.72953
 30
0.0
 11
148.427216
 21
349.72953
 31
0.0
  0
LINE
  5
1E0
330
1CF
100
AcDbEntity
  8
0
  6
Continuous
 62
     0
370
     0
100
AcDbLine
 10
148.427216
 20
349.72953
 30
0.0
 11
168.677216
 21
349.72953
 31
0.0
  0
LINE
  5
1E1
330
1CF
100
AcDbEntity
  8
0
  6
Continuous
 62
     0
370
    30
100
AcDbLine
 10
126.427216
 20
350.017716
 30
0.0
 11
148.427216
 21
350.017716
 31
0.0
  0
LINE
  5
1E2
330
1CF
100
AcDbEntity
  8
0
  6
Continuous
 62
     0
370
    30
100
AcDbLine
 10
148.427216
 20
350.017716
 30
0.0
 11
170.427216
 21
350.017716
 31
0.0
  0
LINE
  5
1E3
330
1CF
100
AcDbEntity
  8
0
  6
Continuous
 62
     0
370
    30
100
AcDbLine
 10
126.427216
 20
399.517716
 30
0.0
 11
148.427216
 21
399.517716
 31
0.0
  0
LINE
  5
1E4
330
1CF
100
AcDbEntity
  8
0
  6
Continuous
 62
     0
370
    30
100
AcDbLine
 10
148.427216
 20
399.517716
 30
0.0
 11
170.427216
 21
399.517716
 31
0.0
  0
LINE
  5
1E5
330
1CF
100
AcDbEntity
  8
0
  6
Continuous
 62
     0
370
    30
100
AcDbLine
 10
126.927216
 20
400.017716
 30
0.0
 11
148.427216
 21
400.017716
 31
0.0
  0
LINE
  5
1E6
330
1CF
100
AcDbEntity
  8
0
  6
Continuous
 62
     0
370
    30
100
AcDbLine
 10
148.427216
 20
400.017716
 30
0.0
 11
169.927216
 21
400.017716
 31
0.0
  0
LINE
  5
1E7
330
1CF
100
AcDbEntity
  8
0
  6
Continuous
 62
     0
370
     0
100
AcDbLine
 10
83.911949
 20
346.312579
 30
0.0
 11
212.942482
 21
346.312579
 31
0.0
  0
LINE
  5
1E8
330
1CF
100
AcDbEntity
  8
0
  6
Continuous
 62
     0
370
     0
100
AcDbLine
 10
83.427216
 20
345.812812
 30
0.0
 11
213.427216
 21
345.812812
 31
0.0
  0
LINE
  5
1E9
330
1CF
100
AcDbEntity
  8
0
  6
Continuous
 62
     0
370
    30
100
AcDbLine
 10
83.427216
 20
336.797716
 30
0.0
 11
213.427216
 21
336.797716
 31
0.0
  0
LINE
  5
1EA
330
1CF
100
AcDbEntity
  8
0
  6
Continuous
 62
     0
370
    30
100
AcDbLine
 10
148.427216
 20
347.199238
 30
0.0
 11
168.827216
 21
347.199238
 31
0.0
  0
LINE
  5
1EB
330
1CF
100
AcDbEntity
  8
0
  6
Continuous
 62
     0
370
    30
100
AcDbLine
 10
128.027216
 20
347.199238
 30
0.0
 11
148.427216
 21
347.199238
 31
0.0
  0
LINE
  5
1EC
330
1CF
100
AcDbEntity
  8
0
  6
Continuous
 62
     0
370
    30
100
AcDbLine
 10
83.427216
 20
345.812812
 30
0.0
 11
83.427216
 21
336.797716
 31
0.0
  0
LINE
  5
1ED
330
1CF
100
AcDbEntity
  8
0
  6
Continuous
 62
     0
370
    30
100
AcDbLine
 10
213.427216
 20
345.812812
 30
0.0
 11
213.427216
 21
336.797716
 31
0.0
  0
ARC
  5
1EE
330
1CF
100
AcDbEntity
  8
0
  6
Continuous
 62
     0
370
    30
100
AcDbCircle
 10
83.92722
 20
345.812808
 30
0.0
 40
0.5000044379024596
100
AcDbArc
 50
91.750151
 51
179.999507
  0
ARC
  5
1EF
330
1CF
100
AcDbEntity
  8
0
  6
Continuous
 62
     0
370
    30
100
AcDbCircle
 10
212.927211
 20
345.812808
 30
0.0
 40
0.5000044379023938
100
AcDbArc
 50
0.000493
 51
88.249849
  0
ARC
  5
1F0
330
1CF
100
AcDbEntity
  8
0
  6
Continuous
 62
     0
370
    30
100
AcDbCircle
 10
148.427223
 20
-1765.702671
 30
0.0
 40
2113.000386880297
100
AcDbArc
 50
90.553172
 51
91.749658
  0
ARC
  5
1F1
330
1CF
100
AcDbEntity
  8
0
  6
Continuous
 62
     0
370
    30
100
AcDbCircle
 10
148.427208
 20
-1765.702671
 30
0.0
 40
2113.000386880297
100
AcDbArc
 50
88.250342
 51
89.446828
  0
LINE
  5
1F2
330
1CF
100
AcDbEntity
  8
0
  6
Continuous
 62
     0
370
    30
100
AcDbLine
 10
170.427216
 20
399.517716
 30
0.0
 11
169.927216
 21
400.017716
 31
0.0
  0
LINE
  5
1F3
330
1CF
100
AcDbEntity
  8
0
  6
Continuous
 62
     0
370
    30
100
AcDbLine
 10
126.427216
 20
399.517716
 30
0.0
 11
126.927216
 21
400.017716
 31
0.0
  0
LINE
  5
1F4
330
1CF
100
AcDbEntity
  8
0
  6
Continuous
 62
     0
370
    30
100
AcDbLine
 10
170.427216
 20
350.017716
 30
0.0
 11
170.427216
 21
399.517716
 31
0.0
  0
LINE
  5
1F5
330
1CF
100
AcDbEntity
  8
0
  6
Continuous
 62
     0
370
    30
100
AcDbLine
 10
126.427216
 20
350.017716
 30
0.0
 11
126.427216
 21
399.517716
 31
0.0
  0
LINE
  5
1F6
330
1CF
100
AcDbEntity
  8
0
  6
Continuous
 62
     0
370
    30
100
AcDbLine
 10
168.677216
 20
349.72953
 30
0.0
 11
168.677216
 21
350.017716
 31
0.0
  0
LINE
  5
1F7
330
1CF
100
AcDbEntity
  8
0
  6
Continuous
 62
     0
370
    30
100
AcDbLine
 10
128.177216
 20
349.72953
 30
0.0
 11
128.177216
 21
350.017716
 31
0.0
  0
ARC
  5
1F8
330
1CF
100
AcDbEntity
  8
0
  6
Continuous
 62
     0
370
    30
100
AcDbCircle
 10
168.977216
 20
349.729529
 30
0.0
 40
0.3000007634533064
100
AcDbArc
 50
179.99988
 51
269.530912
  0
ARC
  5
1F9
330
1CF
100
AcDbEntity
  8
0
  6
Continuous
 62
     0
370
    30
100
AcDbCircle
 10
127.877215
 20
349.729529
 30
0.0
 40
0.300000763424327
100
AcDbArc
 50
270.469088
 51
0.00012
  0
ARC
  5
1FA
330
1CF
100
AcDbEntity
  8
0
  6
Continuous
 62
     0
370
    30
100
AcDbCircle
 10
169.127214
 20
349.12828
 30
0.0
 40
0.3000007975477625
100
AcDbArc
 50
359.999886
 51
89.530913
  0
ARC
  5
1FB
330
1CF
100
AcDbEntity
  8
0
  6
Continuous
 62
     0
370
    30
100
AcDbCircle
 10
127.727217
 20
349.12828
 30
0.0
 40
0.3000007975781128
100
AcDbArc
 50
90.469087
 51
180.000114
  0
LINE
  5
1FC
330
1CF
100
AcDbEntity
  8
0
  6
Continuous
 62
     0
370
    30
100
AcDbLine
 10
169.427216
 20
347.567153
 30
0.0
 11
169.427216
 21
349.12828
 31
0.0
  0
LINE
  5
1FD
330
1CF
100
AcDbEntity
  8
0
  6
Continuous
 62
     0
370
    30
100
AcDbLine
 10
127.427216
 20
347.567153
 30
0.0
 11
127.427216
 21
349.12828
 31
0.0
  0
ARC
  5
1FE
330
1CF
100
AcDbEntity
  8
0
  6
Continuous
 62
     0
370
    30
100
AcDbCircle
 10
169.127214
 20
347.567152
 30
0.0
 40
0.3000007976618052
100
AcDbArc
 50
270.469087
 51
0.000114
  0
ARC
  5
1FF
330
1CF
100
AcDbEntity
  8
0
  6
Continuous
 62
     0
370
    30
100
AcDbCircle
 10
127.727217
 20
347.567152
 30
0.0
 40
0.3000007976915562
100
AcDbArc
 50
179.999886
 51
269.530913
  0
LINE
  5
200
330
1CF
100
AcDbEntity
  8
0
  6
Continuous
 62
     0
370
    30
100
AcDbLine
 10
168.827216
 20
347.264686
 30
0.0
 11
169.12967
 21
347.267161
 31
0.0
  0
LINE
  5
201
330
1CF
100
AcDbEntity
  8
0
  6
Continuous
 62
     0
370
    30
100
AcDbLine
 10
128.027216
 20
347.264686
 30
0.0
 11
127.724761
 21
347.267161
 31
0.0
  0
LINE
  5
202
330
1CF
100
AcDbEntity
  8
0
  6
Continuous
 62
     0
370
    30
100
AcDbLine
 10
168.827216
 20
347.199238
 30
0.0
 11
168.827216
 21
347.264686
 31
0.0
  0
LINE
  5
203
330
1CF
100
AcDbEntity
  8
0
  6
Continuous
 62
     0
370
    30
100
AcDbLine
 10
128.027216
 20
347.199238
 30
0.0
 11
128.027216
 21
347.264686
 31
0.0
  0
ENDBLK
  5
205
330
1CF
100
AcDbEntity
  8
0
100
AcDbBlockEnd
  0
BLOCK
  5
255
330
207
100
AcDbEntity
  8
0
100
AcDbBlockBegin
  2
f
 70
     0
 10
345.726654
 20
-277.662689
 30
0.0
  3
f
  1

  0
SPLINE
  5
208
330
207
100
AcDbEntity
  8
0
  6
Continuous
 62
     0
370
     0
100
AcDbSpline
210
0.0
220
0.0
230
1.0
 70
     8
 71
     3
 72
    16
 73
    12
 74
     0
 42
0.000000001
 43
0.0
 40
24.51180135485005
 40
24.51180135485005
 40
24.51180135485005
 40
24.51180135485005
 40
26.0158598568891
 40
30.35360663391604
 40
34.69137162723425
 40
39.02687277555464
 40
43.36148144101966
 40
47.69798630468826
 40
52.03606693161141
 40
56.37263841474423
 40
60.7072506011606
 40
60.7072506011606
 40
60.7072506011606
 40
60.7072506011606
 10
376.6578370047318
 20
-82.1273614218066
 30
0.0
 10
376.9861600870951
 20
-81.9882182557199
 30
0.0
 10
378.3151991851807
 20
-81.55246775943314
 30
0.0
 10
380.9484639371644
 20
-81.52971236307664
 30
0.0
 10
384.5328607565066
 20
-82.89799983822701
 30
0.0
 10
387.8624097042938
 20
-85.49827540238408
 30
0.0
 10
390.4865720926821
 20
-89.0408066671597
 30
0.0
 10
392.0101887217033
 20
-93.16110196193503
 30
0.0
 10
392.1746987966806
 20
-97.39243472767095
 30
0.0
 10
390.9627972339753
 20
-101.2005265196211
 30
0.0
 10
389.3723141813461
 20
-103.1473872964694
 30
0.0
 10
388.4531057278028
 20
-103.9030259010903
 30
0.0
  0
SPLINE
  5
209
330
207
100
AcDbEntity
  8
0
  6
Continuous
 62
     0
370
     0
100
AcDbSpline
210
0.0
220
0.0
230
1.0
 70
     8
 71
     3
 72
    14
 73
    10
 74
     0
 42
0.000000001
 43
0.0
 40
0.0
 40
0.0
 40
0.0
 40
0.0
 40
1.974027971177131
 40
3.936390186585609
 40
5.878649482336035
 40
7.790165265916714
 40
9.659696083105716
 40
11.4773290793628
 40
13.22973633779209
 40
13.22973633779209
 40
13.22973633779209
 40
13.22973633779209
 10
388.4531049538596
 20
-103.9030262218759
 30
0.0
 10
388.8417575775995
 20
-103.7419366567436
 30
0.0
 10
389.6021298265923
 20
-103.4332061349259
 30
0.0
 10
390.6831785987624
 20
-103.0155050002882
 30
0.0
 10
391.694919236306
 20
-102.6432725086553
 30
0.0
 10
392.6224280586757
 20
-102.3186401004251
 30
0.0
 10
393.4492045061424
 20
-102.0415489906164
 30
0.0
 10
394.1636717117232
 20
-101.8058448549335
 30
0.0
 10
394.5647432716086
 20
-101.6693141627322
 30
0.0
 10
394.7364544170012
 20
-101.6077254165799
 30
0.0
  0
ARC
  5
20A
330
207
100
AcDbEntity
  8
0
  6
Continuous
 62
     0
370
     0
100
AcDbCircle
 10
392.570142
 20
-95.440215
 30
0.0
 40
6.536902114571858
100
AcDbArc
 50
289.35361
 51
292.838223
  0
ELLIPSE
  5
20B
330
207
100
AcDbEntity
  8
0
  6
Continuous
 62
     0
370
    30
100
AcDbEllipse
 10
400.237787
 20
-85.718896
 30
0.0
 11
4.872925507414127
 21
-11.51106411237436
 31
0.0
210
0.0
220
0.0
230
1.0
 40
0.756003
 41
-0.0000000047465019
 42
3.14159264884329
  0
ARC
  5
20C
330
207
100
AcDbEntity
  8
0
  6
Continuous
 62
     0
370
     0
100
AcDbCircle
 10
387.234273
 20
-110.711725
 30
0.0
 40
1.756052911813707
100
AcDbArc
 50
352.450676
 51
7.665614
  0
ELLIPSE
  5
20D
330
207
100
AcDbEntity
  8
0
  6
Continuous
 62
     0
370
     0
100
AcDbEllipse
 10
398.946027
 20
-110.673687
 30
0.0
 11
-0.1789066251816298
 21
9.998399492892158
 31
0.0
210
0.0
220
0.0
230
-1.0
 40
0.997329
 41
4.749854544823038
 42
5.865381451887679
  0
SPLINE
  5
20E
330
207
100
AcDbEntity
  8
0
  6
Continuous
 62
     0
370
     0
100
AcDbSpline
210
0.0
220
0.0
230
1.0
 70
     8
 71
     3
 72
    10
 73
     6
 74
     0
 42
0.000000001
 43
0.0
 40
0.0
 40
0.0
 40
0.0
 40
0.0
 40
2.798270619055192
 40
5.595978195444554
 40
8.393884764184449
 40
8.393884764184449
 40
8.393884764184449
 40
8.393884764184449
 10
388.4531029101576
 20
-103.9030280506918
 30
0.0
 10
387.8488421944635
 20
-104.3949327724283
 30
0.0
 10
386.8109587951087
 20
-105.5894891797833
 30
0.0
 10
385.8730043385091
 20
-107.8656912576382
 30
0.0
 10
385.6831936976236
 20
-109.6053927461355
 30
0.0
 10
385.6981168688212
 20
-110.4914006621155
 30
0.0
  0
SPLINE
  5
20F
330
207
100
AcDbEntity
  8
0
  6
Continuous
 62
     0
370
     0
100
AcDbSpline
210
0.0
220
0.0
230
1.0
 70
     8
 71
     3
 72
    39
 73
    35
 74
     0
 42
0.000000001
 43
0.0
 40
0.9242651249458449
 40
0.9242651249458449
 40
0.9242651249458449
 40
0.9242651249458449
 40
1.095853179809037
 40
1.243779472733291
 40
1.397011119722972
 40
1.55336319157057
 40
1.709964074651579
 40
1.870272236443196
 40
2.190564059117389
 40
2.51612165308385
 40
2.844834989681557
 40
3.010170490642
 40
3.433741361106049
 40
3.795062718559564
 40
4.156384076013079
 40
4.517705433466594
 40
4.803096995319677
 40
5.088488557172762
 40
5.387077130908893
 40
5.685665704645024
 40
5.982327788684009
 40
6.278989872722995
 40
6.57565195676198
 40
6.872314040800966
 40
7.241517648492657
 40
7.610721256184348
 40
7.897011590779721
 40
8.183301925375094
 40
8.453921848578155
 40
8.724541771781217
 40
9.083876701511235
 40
9.43167664429852
 40
9.667430175905203
 40
10.02769626272259
 40
10.02769626272259
 40
10.02769626272259
 40
10.02769626272259
 10
385.6981168688212
 20
-110.4914006621154
 30
0.0
 10
385.7378085084283
 20
-110.4755762050295
 30
0.0
 10
385.8080237133904
 20
-110.4479668921315
 30
0.0
 10
385.9128102545393
 20
-110.4075132629968
 30
0.0
 10
386.0081351242299
 20
-110.3716320999083
 30
0.0
 10
386.1027684090541
 20
-110.3368221210371
 30
0.0
 10
386.1977289932715
 20
-110.3026380373529
 30
0.0
 10
386.3256918087127
 20
-110.2574800309436
 30
0.0
 10
386.4857430509671
 20
-110.2029976991471
 30
0.0
 10
386.6702739331744
 20
-110.1442434754454
 30
0.0
 10
386.8207867661386
 20
-110.0995143938729
 30
0.0
 10
386.9849726132098
 20
-110.0535651650302
 30
0.0
 10
387.149948311364
 20
-110.0109329981227
 30
0.0
 10
387.3409770814449
 20
-109.9672850232739
 30
0.0
 10
387.5135312827728
 20
-109.9333396590646
 30
0.0
 10
387.665389161729
 20
-109.9091120442204
 30
0.0
 10
387.7977932565373
 20
-109.8932147574673
 30
0.0
 10
387.9146451811703
 20
-109.8837544745866
 30
0.0
 10
388.0263284147911
 20
-109.8797374731549
 30
0.0
 10
388.1326084497684
 20
-109.8812338751048
 30
0.0
 10
388.2322254134224
 20
-109.8880416369359
 30
0.0
 10
388.3253173553556
 20
-109.9000149756754
 30
0.0
 10
388.4121889205756
 20
-109.9170629344598
 30
0.0
 10
388.4995106438446
 20
-109.9408744198611
 30
0.0
 10
388.585528093484
 20
-109.9728281024972
 30
0.0
 10
388.662213130898
 20
-110.0111514742767
 30
0.0
 10
388.7259342501513
 20
-110.0516046517025
 30
0.0
 10
388.7781698835541
 20
-110.0912408918433
 30
0.0
 10
388.8252875557455
 20
-110.1327601853563
 30
0.0
 10
388.8706147333713
 20
-110.182782328222
 30
0.0
 10
388.9103329845505
 20
-110.2458174141899
 30
0.0
 10
388.9383930087192
 20
-110.3168497732591
 30
0.0
 10
388.9598655828431
 20
-110.3940258834543
 30
0.0
 10
388.9697878022021
 20
-110.4456133338885
 30
0.0
 10
388.9746332552137
 20
-110.477482209712
 30
0.0
  0
SPLINE
  5
210
330
207
100
AcDbEntity
  8
0
  6
Continuous
 62
     0
370
     0
100
AcDbSpline
210
0.0
220
0.0
230
1.0
 70
     8
 71
     3
 72
     8
 73
     4
 74
     0
 42
0.000000001
 43
0.0
 40
0.0
 40
0.0
 40
0.0
 40
0.0
 40
38.4318516319787
 40
38.4318516319787
 40
38.4318516319787
 40
38.4318516319787
 10
388.9953693285656
 20
-147.4577327940385
 30
0.0
 10
389.0056669771022
 20
-135.1345390105305
 30
0.0
 10
388.987068222312
 20
-122.8053617466023
 30
0.0
 10
388.9746332552137
 20
-110.477482209712
 30
0.0
  0
LINE
  5
211
330
207
100
AcDbEntity
  8
0
  6
Continuous
 62
     0
370
     0
100
AcDbLine
 10
386.338714
 20
-149.27466
 30
0.0
 11
386.257226
 21
-149.310609
 31
0.0
  0
SPLINE
  5
212
330
207
100
AcDbEntity
  8
0
  6
Continuous
 62
     0
370
     0
100
AcDbSpline
210
0.0
220
0.0
230
1.0
 70
     8
 71
     3
 72
     8
 73
     4
 74
     0
 42
0.000000001
 43
0.0
 40
0.0
 40
0.0
 40
0.0
 40
0.0
 40
40.811080881362
 40
40.811080881362
 40
40.811080881362
 40
40.811080881362
 10
386.2572262341284
 20
-149.3106087156654
 30
0.0
 10
386.0573485698339
 20
-136.3662534150659
 30
0.0
 10
385.8823393000447
 20
-123.4299534985783
 30
0.0
 10
385.6981838523079
 20
-110.4913618624811
 30
0.0
  0
SPLINE
  5
213
330
207
100
AcDbEntity
  8
0
  6
Continuous
 62
     0
370
     0
100
AcDbSpline
210
0.0
220
0.0
230
1.0
 70
     8
 71
     3
 72
     9
 73
     5
 74
     0
 42
0.000000001
 43
0.0
 40
0.0
 40
0.0
 40
0.0
 40
0.0
 40
13.58255074094018
 40
40.81374876582646
 40
40.81374876582646
 40
40.81374876582646
 40
40.81374876582646
 10
384.188237164906
 20
-149.4478621667234
 30
0.0
 10
384.121591902208
 20
-145.1411649788948
 30
0.0
 10
383.9323449510593
 20
-132.2020125041332
 30
0.0
 10
383.7610349835796
 20
-119.2653712096657
 30
0.0
 10
383.6431703800145
 20
-110.6327858161093
 30
0.0
  0
ELLIPSE
  5
214
330
207
100
AcDbEntity
  8
0
  6
Continuous
 62
     0
370
     0
100
AcDbEllipse
 10
384.478549
 20
-110.237655
 30
0.0
 11
-1.499848691584151
 21
-0.02130498423639549
 31
0.0
210
0.0
220
0.0
230
1.0
 40
0.308524
 41
0.9756810050708857
 42
2.5159819683351
  0
ELLIPSE
  5
215
330
207
100
AcDbEntity
  8
0
  6
Continuous
 62
     0
370
     0
100
AcDbEllipse
 10
383.462773
 20
-153.791308
 30
0.0
 11
-0.2838136912080231
 21
-1.472905220536231
 31
0.0
210
0.0
220
0.0
230
-1.0
 40
0.583815
 41
-0.0000000039437982
 42
1.197576376835394
  0
SPLINE
  5
216
330
207
100
AcDbEntity
  8
0
  6
Continuous
 62
     0
370
     0
100
AcDbSpline
210
0.0
220
0.0
230
1.0
 70
     8
 71
     3
 72
    18
 73
    14
 74
     0
 42
0.000000001
 43
0.0
 40
0.0
 40
0.0
 40
0.0
 40
0.0
 40
0.7040270164530424
 40
1.295759034053318
 40
1.633227194692992
 40
1.882695714651265
 40
2.085978384419887
 40
2.399476426375227
 40
2.76062993912089
 40
3.281803497912946
 40
3.731036026613197
 40
4.746184634738002
 40
6.511452760270865
 40
6.511452760270865
 40
6.511452760270865
 40
6.511452760270865
 10
382.5585831345564
 20
-154.1740645614155
 30
0.0
 10
382.7507605009885
 20
-154.2110951615855
 30
0.0
 10
383.1053380971216
 20
-154.2223171238137
 30
0.0
 10
383.5101798097619
 20
-154.073418370845
 30
0.0
 10
383.7620389771674
 20
-153.8908572007167
 30
0.0
 10
383.9140494752815
 20
-153.742215568717
 30
0.0
 10
384.0181963955715
 20
-153.5521210096736
 30
0.0
 10
384.0948069876151
 20
-153.3044944770106
 30
0.0
 10
384.1547716479199
 20
-152.9452809905285
 30
0.0
 10
384.1817803387593
 20
-152.5310740548438
 30
0.0
 10
384.194995760201
 20
-151.9066501593425
 30
0.0
 10
384.2024367658464
 20
-150.8875544070956
 30
0.0
 10
384.1968987749579
 20
-150.0075858458035
 30
0.0
 10
384.188237164906
 20
-149.4478621667235
 30
0.0
  0
SPLINE
  5
217
330
207
100
AcDbEntity
  8
0
  6
Continuous
 62
     0
370
     0
100
AcDbSpline
210
0.0
220
0.0
230
1.0
 70
     8
 71
     3
 72
    27
 73
    23
 74
     0
 42
0.000000001
 43
0.0
 40
0.0
 40
0.0
 40
0.0
 40
0.0
 40
1.235145892692358
 40
2.006058848014206
 40
2.780214246370494
 40
3.168132528337276
 40
3.76883019244176
 40
4.181684194939619
 40
4.745873156081188
 40
5.08420702685574
 40
5.419789841509303
 40
5.717410124962531
 40
5.99869121836398
 40
6.188442537829291
 40
6.274239072090314
 40
6.358435919717284
 40
6.452677978863814
 40
6.61239143561952
 40
6.727729837536588
 40
6.845000371816663
 40
6.958969470560348
 40
7.031579205307703
 40
7.031579205307703
 40
7.031579205307703
 40
7.031579205307703
 10
386.2572262341283
 20
-149.3106087156654
 30
0.0
 10
386.2617644890651
 20
-149.6044139015397
 30
0.0
 10
386.2702673718409
 20
-150.0800992764542
 30
0.0
 10
386.2834108938533
 20
-150.7358371787287
 30
0.0
 10
386.2927336590967
 20
-151.1900079570505
 30
0.0
 10
386.3008720127283
 20
-151.6033446218216
 30
0.0
 10
386.307159375958
 20
-151.9306944813081
 30
0.0
 10
386.3126814059555
 20
-152.3140410645054
 30
0.0
 10
386.3119263801401
 20
-152.6627729907605
 30
0.0
 10
386.291882356112
 20
-153.0251495682203
 30
0.0
 10
386.2568748626899
 20
-153.3281951784249
 30
0.0
 10
386.1947042321235
 20
-153.63996134098
 30
0.0
 10
386.1016507179156
 20
-153.9330222192696
 30
0.0
 10
385.9862880457629
 20
-154.1683211617288
 30
0.0
 10
385.8850789464042
 20
-154.3242098617141
 30
0.0
 10
385.7983415147752
 20
-154.4362309029013
 30
0.0
 10
385.6922175028104
 20
-154.5519650196611
 30
0.0
 10
385.5950742153409
 20
-154.6419338362033
 30
0.0
 10
385.4980168121431
 20
-154.7235159991191
 30
0.0
 10
385.4109988950963
 20
-154.7907622271613
 30
0.0
 10
385.329497780791
 20
-154.8484794859657
 30
0.0
 10
385.2772202542099
 20
-154.8825502262589
 30
0.0
 10
385.2565863967632
 20
-154.8955595384234
 30
0.0
  0
SPLINE
  5
218
330
207
100
AcDbEntity
  8
0
  6
Continuous
 62
     0
370
     0
100
AcDbSpline
210
0.0
220
0.0
230
1.0
 70
     8
 71
     9
 72
    25
 73
    15
 74
     0
 42
0.000000001
 43
0.0
 40
0.0
 40
0.0
 40
0.0
 40
0.0
 40
0.0
 40
0.0
 40
0.0
 40
0.0
 40
0.0
 40
0.0
 40
3.648402924025719
 40
3.648402924025719
 40
3.648402924025719
 40
3.648402924025719
 40
3.648402924025719
 40
3.983991665497118
 40
3.983991665497118
 40
3.983991665497118
 40
3.983991665497118
 40
3.983991665497118
 40
3.983991665497118
 40
3.983991665497118
 40
3.983991665497118
 40
3.983991665497118
 40
3.983991665497118
 10
388.9953693285656
 20
-147.4577327940384
 30
0.0
 10
388.9951086422204
 20
-147.7696960871501
 30
0.0
 10
388.9948348562084
 20
-148.0816566270778
 30
0.0
 10
388.9909161367496
 20
-148.3928603783084
 30
0.0
 10
388.9825836617983
 20
-148.7031468230687
 30
0.0
 10
388.9673200958181
 20
-149.0117104202048
 30
0.0
 10
388.9418418854673
 20
-149.3462704175964
 30
0.0
 10
388.9040494894858
 20
-149.6767771546217
 30
0.0
 10
388.8498623766304
 20
-150.0010376778113
 30
0.0
 10
388.7730516513879
 20
-150.3130690142251
 30
0.0
 10
388.7664171938349
 20
-150.3392622002965
 30
0.0
 10
388.7596144256947
 20
-150.3653608262965
 30
0.0
 10
388.7526392820629
 20
-150.3913606495057
 30
0.0
 10
388.7454875846412
 20
-150.4172571736876
 30
0.0
 10
388.7381550437327
 20
-150.4430456311303
 30
0.0
  0
SPLINE
  5
219
330
207
100
AcDbEntity
  8
0
  6
Continuous
 62
     0
370
     0
100
AcDbSpline
210
0.0
220
0.0
230
1.0
 70
     8
 71
     3
 72
    18
 73
    14
 74
     0
 42
0.000000001
 43
0.0
 40
0.0
 40
0.0
 40
0.0
 40
0.0
 40
0.7053013782976192
 40
1.296959495443253
 40
1.634382838388779
 40
1.883610187121511
 40
2.087346532206342
 40
2.401618726294815
 40
2.763513020913489
 40
3.286720618600657
 40
3.737699336988029
 40
4.753410594080074
 40
6.511446442014064
 40
6.511446442014064
 40
6.511446442014064
 40
6.511446442014064
 10
382.5585819305241
 20
-154.1740643294106
 30
0.0
 10
382.3660567048051
 20
-154.1369666337436
 30
0.0
 10
382.0107976199986
 20
-154.0112547696489
 30
0.0
 10
381.6014531787704
 20
-153.7049954233112
 30
0.0
 10
381.3435557575096
 20
-153.4241692483404
 30
0.0
 10
381.1862361677912
 20
-153.2157311108629
 30
0.0
 10
381.0728899744962
 20
-152.9833076294502
 30
0.0
 10
380.9824574296692
 20
-152.7028213555548
 30
0.0
 10
380.9006868107045
 20
-152.3151353467168
 30
0.0
 10
380.8469943091998
 20
-151.88392693977
 30
0.0
 10
380.792344260805
 20
-151.2450473764225
 30
0.0
 10
380.7168027413897
 20
-150.2115167342733
 30
0.0
 10
380.6631090072782
 20
-149.3243763081031
 30
0.0
 10
380.6338690579032
 20
-148.7629737506682
 30
0.0
  0
ELLIPSE
  5
21A
330
207
100
AcDbEntity
  8
0
  6
Continuous
 62
     0
370
     0
100
AcDbEllipse
 10
381.584418
 20
-148.389582
 30
0.0
 11
1.498005730693491
 21
0.07732289964468478
 31
0.0
210
0.0
220
0.0
230
-1.0
 40
0.28278
 41
2.272721301663048
 42
3.141594773633256
  0
SPLINE
  5
21B
330
207
100
AcDbEntity
  8
0
  6
Continuous
 62
     0
370
     0
100
AcDbSpline
210
0.0
220
0.0
230
1.0
 70
     8
 71
     3
 72
    31
 73
    27
 74
     0
 42
0.000000001
 43
0.0
 40
0.0
 40
0.0
 40
0.0
 40
0.0
 40
1.944818689850858
 40
3.879518989130776
 40
5.805642800460687
 40
7.725571429675663
 40
9.642265420132297
 40
11.55909434387184
 40
13.4793174695907
 40
15.40586401667402
 40
17.34099563188875
 40
19.28673070470717
 40
23.18505413553117
 40
27.1036091078416
 40
31.02216571618501
 40
34.92075349536309
 40
36.86614307564447
 40
38.80138421432545
 40
40.72795329880143
 40
42.64816249845496
 40
44.56496741876284
 40
46.48166050162648
 40
48.40160928734618
 40
50.32774407353268
 40
52.26241633936342
 40
54.20721767921935
 40
54.20721767921935
 40
54.20721767921935
 40
54.20721767921935
 10
386.8999588629298
 20
-103.0735227908013
 30
0.0
 10
387.3220752229362
 20
-102.7405007425456
 30
0.0
 10
388.1093795348286
 20
-101.9807728472929
 30
0.0
 10
389.0682240895149
 20
-100.5981152114749
 30
0.0
 10
389.7642936094447
 20
-99.01833393161172
 30
0.0
 10
390.1656041306567
 20
-97.29174971514215
 30
0.0
 10
390.2533408663328
 20
-95.47391350072161
 30
0.0
 10
390.0217355641593
 20
-93.62319004282779
 30
0.0
 10
389.4811627801631
 20
-91.79740328084279
 30
0.0
 10
388.6552034545201
 20
-90.05080686555041
 30
0.0
 10
387.5794632439671
 20
-88.429836797011
 30
0.0
 10
385.8706668592434
 20
-86.49646489103068
 30
0.0
 10
383.3351531031333
 20
-84.58367419312884
 30
0.0
 10
380.0938755546323
 20
-83.37553824315921
 30
0.0
 10
377.0686859140559
 20
-83.37639319324686
 30
0.0
 10
375.0005504191158
 20
-84.40152281554262
 30
0.0
 10
373.7398163359361
 20
-85.76349674543033
 30
0.0
 10
373.0016395755438
 20
-87.03432386975442
 30
0.0
 10
372.4838554293358
 20
-88.52232838245033
 30
0.0
 10
372.1932055490424
 20
-90.18787816884355
 30
0.0
 10
372.1339982545936
 20
-91.98257169059082
 30
0.0
 10
372.3063979054865
 20
-93.85053076970618
 30
0.0
 10
372.7063316969048
 20
-95.7315042995728
 30
0.0
 10
373.3263820116461
 20
-97.56491214397099
 30
0.0
 10
374.1553706306249
 20
-99.29196645046852
 30
0.0
 10
374.8376678918431
 20
-100.3349065263508
 30
0.0
 10
375.2076803132321
 20
-100.8205575947045
 30
0.0
  0
SPLINE
  5
21C
330
207
100
AcDbEntity
  8
0
  6
Continuous
 62
     0
370
     0
100
AcDbSpline
210
0.0
220
0.0
230
1.0
 70
     8
 71
     3
 72
    14
 73
    10
 74
     0
 42
0.000000001
 43
0.0
 40
0.0
 40
0.0
 40
0.0
 40
0.0
 40
1.404286950246861
 40
2.80180824355739
 40
4.195347073104721
 40
5.585086099230739
 40
6.97156893468318
 40
8.355744518375094
 40
9.738631114212174
 40
9.738631114212174
 40
9.738631114212174
 40
9.738631114212174
 10
375.2076806400939
 20
-100.8205579381558
 30
0.0
 10
375.4748564985168
 20
-101.1712328040494
 30
0.0
 10
375.9902826536335
 20
-101.9045712637082
 30
0.0
 10
376.6853987352388
 20
-103.0901937922271
 30
0.0
 10
377.2898569268594
 20
-104.3409474085259
 30
0.0
 10
377.7907497759938
 20
-105.6410498512417
 30
0.0
 10
378.176784797559
 20
-106.9728540409859
 30
0.0
 10
378.4403604025638
 20
-108.3174059629059
 30
0.0
 10
378.5310732330533
 20
-109.2105927070002
 30
0.0
 10
378.5546043406563
 20
-109.6523570750938
 30
0.0
  0
SPLINE
  5
21D
330
207
100
AcDbEntity
  8
0
  6
Continuous
 62
     0
370
     0
100
AcDbSpline
210
0.0
220
0.0
230
1.0
 70
     8
 71
     3
 72
     8
 73
     4
 74
     0
 42
0.000000001
 43
0.0
 40
0.0
 40
0.0
 40
0.0
 40
0.0
 40
40.81424693084995
 40
40.81424693084995
 40
40.81424693084995
 40
40.81424693084995
 10
378.5546017575132
 20
-109.652358556236
 30
0.0
 10
379.2491457017785
 20
-122.6905162765216
 30
0.0
 10
379.955048250741
 20
-135.7297180405709
 30
0.0
 10
380.6338690579032
 20
-148.7629737506682
 30
0.0
  0
SPLINE
  5
21E
330
207
100
AcDbEntity
  8
0
  6
Continuous
 62
     0
370
     0
100
AcDbSpline
210
0.0
220
0.0
230
1.0
 70
     8
 71
     3
 72
    14
 73
    10
 74
     0
 42
0.000000001
 43
0.0
 40
0.0
 40
0.0
 40
0.0
 40
0.0
 40
1.382864170633273
 40
2.767013309008381
 40
4.153480982412725
 40
5.543211805218741
 40
6.936725925118182
 40
8.334218231834106
 40
9.738528679551933
 40
9.738528679551933
 40
9.738528679551933
 40
9.738528679551933
 10
383.6431918250105
 20
-110.6327808657389
 30
0.0
 10
383.6372080446735
 20
-110.1944047661654
 30
0.0
 10
383.6727392834317
 20
-109.3255610978282
 30
0.0
 10
383.8678017022207
 20
-108.0694011162861
 30
0.0
 10
384.2036606432844
 20
-106.8767199451162
 30
0.0
 10
384.6781630476929
 20
-105.7645557107293
 30
0.0
 10
385.2864945353421
 20
-104.7475061642474
 30
0.0
 10
386.0224169499486
 20
-103.8376215830054
 30
0.0
 10
386.5951549129995
 20
-103.313993719553
 30
0.0
 10
386.8999555068718
 20
-103.0735255316089
 30
0.0
  0
SPLINE
  5
21F
330
207
100
AcDbEntity
  8
0
  6
Continuous
 62
     0
370
     0
100
AcDbSpline
210
0.0
220
0.0
230
1.0
 70
     8
 71
     3
 72
     9
 73
     5
 74
     0
 42
0.000000001
 43
0.0
 40
0.9985001154498024
 40
0.9985001154498024
 40
0.9985001154498024
 40
0.9985001154498024
 40
1.523278239126404
 40
2.284846615985306
 40
2.284846615985306
 40
2.284846615985306
 40
2.284846615985306
 10
378.0264174374679
 20
-109.3557370929126
 30
0.0
 10
378.0262986045223
 20
-109.4055570679821
 30
0.0
 10
378.1027708234906
 20
-109.5238376737178
 30
0.0
 10
378.3613951054722
 20
-109.6154333097292
 30
0.0
 10
378.5546043406563
 20
-109.6523570750938
 30
0.0
  0
ELLIPSE
  5
220
330
207
100
AcDbEntity
  8
0
  6
Continuous
 62
     0
370
     0
100
AcDbEllipse
 10
376.260677
 20
-100.471273
 30
0.0
 11
1.203057209554229
 21
0.8959092311945276
 31
0.0
210
0.0
220
0.0
230
1.0
 40
0.326547
 41
2.349150538539978
 42
3.142461739478534
  0
ELLIPSE
  5
221
330
207
100
AcDbEntity
  8
0
  6
Continuous
 62
     0
370
     0
100
AcDbEllipse
 10
387.639763
 20
-102.66389
 30
0.0
 11
0.9494289223819757
 21
-1.161285805193797
 31
0.0
210
0.0
220
0.0
230
-1.0
 40
0.557525
 41
0.1859774566017837
 42
1.671719424515857
  0
SPLINE
  5
222
330
207
100
AcDbEntity
  8
0
  6
Continuous
 62
     0
370
     0
100
AcDbSpline
210
0.0
220
0.0
230
1.0
 70
     8
 71
     9
 72
    35
 73
    25
 74
     0
 42
0.000000001
 43
0.0
 40
0.2499999949532693
 40
0.2499999949532693
 40
0.2499999949532693
 40
0.2499999949532693
 40
0.2499999949532693
 40
0.2499999949532693
 40
0.2499999949532693
 40
0.2499999949532693
 40
0.2499999949532693
 40
0.2499999949532693
 40
0.37499999475916
 40
0.37499999475916
 40
0.37499999475916
 40
0.37499999475916
 40
0.37499999475916
 40
0.499999995807328
 40
0.499999995807328
 40
0.499999995807328
 40
0.499999995807328
 40
0.499999995807328
 40
0.749999997903664
 40
0.749999997903664
 40
0.749999997903664
 40
0.749999997903664
 40
0.749999997903664
 40
0.8310317690527375
 40
0.8310317690527375
 40
0.8310317690527375
 40
0.8310317690527375
 40
0.8310317690527375
 40
0.8310317690527375
 40
0.8310317690527375
 40
0.8310317690527375
 40
0.8310317690527375
 40
0.8310317690527375
 10
388.9953693285656
 20
-147.4577327940384
 30
0.0
 10
388.9717502823103
 20
-147.5037936235238
 30
0.0
 10
388.9407460170111
 20
-147.5497484840957
 30
0.0
 10
388.9031954402836
 20
-147.5954857952371
 30
0.0
 10
388.8598659732006
 20
-147.6409384212861
 30
0.0
 10
388.821308304718
 20
-147.6864972505292
 30
0.0
 10
388.7387041497639
 20
-147.7774880408944
 30
0.0
 10
388.6499996648194
 20
-147.8681578169158
 30
0.0
 10
388.5545798429005
 20
-147.958421485004
 30
0.0
 10
388.45194995562
 20
-148.048183368399
 30
0.0
 10
388.3987800604926
 20
-148.0929264338526
 30
0.0
 10
388.2335815546317
 20
-148.2267041252833
 30
0.0
 10
388.0510554043722
 20
-148.359015161107
 30
0.0
 10
387.8507595797876
 20
-148.4895375148253
 30
0.0
 10
387.6332477436385
 20
-148.6180178150707
 30
0.0
 10
387.4857287528919
 20
-148.7032665188967
 30
0.0
 10
387.2836401510177
 20
-148.8153100518674
 30
0.0
 10
387.0726846534548
 20
-148.9260983545806
 30
0.0
 10
386.8529998590479
 20
-149.0355472252072
 30
0.0
 10
386.6248885459681
 20
-149.1436032025802
 30
0.0
 10
386.5688062554419
 20
-149.1700174557393
 30
0.0
 10
386.512275654099
 20
-149.1963558397914
 30
0.0
 10
386.4550749112616
 20
-149.2225752446039
 30
0.0
 10
386.3971799795378
 20
-149.2486694198557
 30
0.0
 10
386.3387141404178
 20
-149.2746598668945
 30
0.0
  0
ELLIPSE
  5
223
330
207
100
AcDbEntity
  8
0
  6
Continuous
 62
     0
370
     0
100
AcDbEllipse
 10
385.044666
 20
-149.056334
 30
0.0
 11
1.499808573669469
 21
0.02396335426342837
 31
0.0
210
0.0
220
0.0
230
-1.0
 40
0.307857
 41
0.6341720834236084
 42
2.18346073291168
  0
SPLINE
  5
224
330
207
100
AcDbEntity
  8
0
  6
Continuous
 62
     0
370
     0
100
AcDbSpline
210
0.0
220
0.0
230
1.0
 70
     8
 71
     9
 72
    20
 73
    10
 74
     0
 42
0.000000001
 43
0.0
 40
0.1658872403941158
 40
0.1658872403941158
 40
0.1658872403941158
 40
0.1658872403941158
 40
0.1658872403941158
 40
0.1658872403941158
 40
0.1658872403941158
 40
0.1658872403941158
 40
0.1658872403941158
 40
0.1658872403941158
 40
0.2499999949532693
 40
0.2499999949532693
 40
0.2499999949532693
 40
0.2499999949532693
 40
0.2499999949532693
 40
0.2499999949532693
 40
0.2499999949532693
 40
0.2499999949532693
 40
0.2499999949532693
 40
0.2499999949532693
 10
388.9955955147185
 20
-147.1812709318511
 30
0.0
 10
389.013812631583
 20
-147.2110792107896
 30
0.0
 10
389.0269776000217
 20
-147.2413130407606
 30
0.0
 10
389.0352249030508
 20
-147.2718737086609
 30
0.0
 10
389.0387594627399
 20
-147.3026676726688
 30
0.0
 10
389.0378414314962
 20
-147.3336122949674
 30
0.0
 10
389.0327616180052
 20
-147.3646395643753
 30
0.0
 10
389.0238119312581
 20
-147.3956959583092
 30
0.0
 10
389.011262633063
 20
-147.4267383672542
 30
0.0
 10
388.9953693285656
 20
-147.4577327940384
 30
0.0
  0
ELLIPSE
  5
225
330
207
100
AcDbEntity
  8
0
  6
Continuous
 62
     0
370
     0
100
AcDbEllipse
 10
400.780291
 20
-85.489241
 30
0.0
 11
11.61705440851406
 21
-27.44237684115787
 31
0.0
210
0.0
220
0.0
230
1.0
 40
0.756003
 41
5.277315393962811
 42
8.955495149776391
  0
ELLIPSE
  5
226
330
207
100
AcDbEntity
  8
0
  6
Continuous
 62
     0
370
     0
100
AcDbEllipse
 10
400.780291
 20
-85.489241
 30
0.0
 11
11.61705440851406
 21
-27.44237684115787
 31
0.0
210
0.0
220
0.0
230
1.0
 40
0.756003
 41
2.672309842596805
 42
4.279535198266405
  0
ELLIPSE
  5
227
330
207
100
AcDbEntity
  8
0
  6
Continuous
 62
     0
370
     0
100
AcDbEllipse
 10
400.900848
 20
-85.438206
 30
0.0
 11
11.69502121779447
 21
-27.62655386970028
 31
0.0
210
0.0
220
0.0
230
1.0
 40
0.756003
 41
-0.0000000047465027
 42
2.672309842596873
  0
ELLIPSE
  5
228
330
207
100
AcDbEntity
  8
0
  6
Continuous
 62
     0
370
     0
100
AcDbEllipse
 10
400.900848
 20
-85.438206
 30
0.0
 11
11.69502121779447
 21
-27.62655386970028
 31
0.0
210
0.0
220
0.0
230
1.0
 40
0.756003
 41
2.672309842596873
 42
3.141592648977613
  0
ELLIPSE
  5
229
330
207
100
AcDbEntity
  8
0
  6
Continuous
 62
     0
370
    30
100
AcDbEllipse
 10
404.21615
 20
-84.034754
 30
0.0
 11
11.69502121779446
 21
-27.62655386970025
 31
0.0
210
0.0
220
0.0
230
1.0
 40
0.756003
 41
-0.0000000047465019
 42
2.672309842596881
  0
ELLIPSE
  5
22A
330
207
100
AcDbEntity
  8
0
  6
Continuous
 62
     0
370
    30
100
AcDbEllipse
 10
404.21615
 20
-84.034754
 30
0.0
 11
11.69502121779446
 21
-27.62655386970025
 31
0.0
210
0.0
220
0.0
230
1.0
 40
0.756003
 41
2.672309842596881
 42
3.141592648843289
  0
SPLINE
  5
22B
330
207
100
AcDbEntity
  8
0
  6
Continuous
 62
     0
370
    30
100
AcDbSpline
210
0.0
220
0.0
230
1.0
 70
     8
 71
     3
 72
     9
 73
     5
 74
     0
 42
0.000000001
 43
0.0
 40
0.0
 40
0.0
 40
0.0
 40
0.0
 40
22.49052058444018
 40
40.81200179331422
 40
40.81200179331422
 40
40.81200179331422
 40
40.81200179331422
 10
380.0864124606568
 20
-148.4669048210556
 30
0.0
 10
379.7157386866053
 20
-141.2857018359263
 30
0.0
 10
379.0282151120036
 20
-128.2511423373597
 30
0.0
 10
378.3356519559233
 20
-115.2145261652427
 30
0.0
 10
378.0268123943113
 20
-109.3622411560421
 30
0.0
  0
SPLINE
  5
22C
330
207
100
AcDbEntity
  8
0
  6
Continuous
 62
     0
370
    30
100
AcDbSpline
210
0.0
220
0.0
230
1.0
 70
     8
 71
     3
 72
    18
 73
    14
 74
     0
 42
0.000000001
 43
0.0
 40
0.0
 40
0.0
 40
0.0
 40
0.0
 40
1.357537203428765
 40
3.717683030452442
 40
6.107621948397103
 40
8.71961806724184
 40
10.82245450329541
 40
12.72257824936059
 40
15.87461063113846
 40
18.43288362452117
 40
20.3241621167186
 40
22.38218005363847
 40
24.04416939655678
 40
24.04416939655678
 40
24.04416939655678
 40
24.04416939655678
 10
375.0576204492663
 20
-101.3671815858353
 30
0.0
 10
374.7994501050537
 20
-101.0205026301316
 30
0.0
 10
374.1298686013226
 20
-100.0289885230078
 30
0.0
 10
373.2085224762058
 20
-98.2417654636578
 30
0.0
 10
372.3905157066445
 20
-95.91982657552944
 30
0.0
 10
371.9148372434816
 20
-93.59707837055458
 30
0.0
 10
371.7592033487355
 20
-91.45108598664399
 30
0.0
 10
371.8606093174124
 20
-89.20786102933172
 30
0.0
 10
372.3347245749139
 20
-86.99506959039746
 30
0.0
 10
373.23250721765
 20
-85.08634600655796
 30
0.0
 10
374.2864025196576
 20
-83.708845680421
 30
0.0
 10
375.4052491806744
 20
-82.75621788439815
 30
0.0
 10
376.2591734258257
 20
-82.29579756187846
 30
0.0
 10
376.6577042061453
 20
-82.12704806689567
 30
0.0
  0
SPLINE
  5
22D
330
207
100
AcDbEntity
  8
0
  6
Continuous
 62
     0
370
    30
100
AcDbSpline
210
0.0
220
0.0
230
1.0
 70
     8
 71
     3
 72
    11
 73
     7
 74
     0
 42
0.000000001
 43
0.0
 40
0.0
 40
0.0
 40
0.0
 40
0.0
 40
1.866314206457861
 40
4.555323724829804
 40
6.992212733538127
 40
8.818359299874121
 40
8.818359299874121
 40
8.818359299874121
 40
8.818359299874121
 10
378.0267627520259
 20
-109.3622488309834
 30
0.0
 10
377.9956623754411
 20
-108.7728717176358
 30
0.0
 10
377.8160681034993
 20
-107.304291865287
 30
0.0
 10
377.1624890339203
 20
-105.0532745310094
 30
0.0
 10
376.1531089332922
 20
-102.9655573506395
 30
0.0
 10
375.396978510971
 20
-101.8228813187069
 30
0.0
 10
375.0576208745594
 20
-101.3671824299051
 30
0.0
  0
SPLINE
  5
22E
330
207
100
AcDbEntity
  8
0
  6
Continuous
 62
     0
370
    30
100
AcDbSpline
210
0.0
220
0.0
230
1.0
 70
     8
 71
     3
 72
    13
 73
     9
 74
     0
 42
0.000000001
 43
0.0
 40
0.0
 40
0.0
 40
0.0
 40
0.0
 40
0.604384973451098
 40
1.207952511348269
 40
1.851397244381443
 40
2.482437336584687
 40
2.958503506442655
 40
3.223112589372423
 40
3.223112589372423
 40
3.223112589372423
 40
3.223112589372423
 10
388.7381237161385
 20
-150.4431554690863
 30
0.0
 10
388.7929709812483
 20
-150.2502696277957
 30
0.0
 10
388.8853509167247
 20
-149.8563816670637
 30
0.0
 10
388.9735905295363
 20
-149.2519091345297
 30
0.0
 10
389.0188041576682
 20
-148.6410070396175
 30
0.0
 10
389.0319863608261
 20
-148.0773241066171
 30
0.0
 10
389.0338701674879
 20
-147.6365675839793
 30
0.0
 10
389.0337255993625
 20
-147.3979658994697
 30
0.0
 10
389.0340522321758
 20
-147.3133382470436
 30
0.0
  0
SPLINE
  5
22F
330
207
100
AcDbEntity
  8
0
  6
Continuous
 62
     0
370
    30
100
AcDbSpline
210
0.0
220
0.0
230
1.0
 70
     8
 71
     3
 72
    25
 73
    21
 74
     0
 42
0.000000001
 43
0.0
 40
0.0
 40
0.0
 40
0.0
 40
0.0
 40
0.5400392606363837
 40
1.106283256720246
 40
1.61148052273892
 40
1.980053174604431
 40
2.223170433671315
 40
2.455931750844287
 40
2.691325348842557
 40
2.826570668152273
 40
3.112984019900459
 40
3.391933582862875
 40
3.75169591842311
 40
4.276054179362549
 40
4.883278010042243
 40
5.52353406986296
 40
5.930058072416819
 40
6.332082923497628
 40
7.138585158552517
 40
8.42291809220064
 40
8.42291809220064
 40
8.42291809220064
 40
8.42291809220064
 10
383.1789574179576
 20
-155.2642131968665
 30
0.0
 10
383.0145326552187
 20
-155.2325301773961
 30
0.0
 10
382.6802476554512
 20
-155.1415701560244
 30
0.0
 10
382.2134744447768
 20
-154.9305414871926
 30
0.0
 10
381.8259916691085
 20
-154.6790889409968
 30
0.0
 10
381.5477136685382
 20
-154.4474284564884
 30
0.0
 10
381.35104191843
 20
-154.2552862832084
 30
0.0
 10
381.1945601803197
 20
-154.0834945539398
 30
0.0
 10
381.0686761486064
 20
-153.930772202142
 30
0.0
 10
380.9387527848748
 20
-153.75654731654
 30
0.0
 10
380.8123022730313
 20
-153.5604895864943
 30
0.0
 10
380.6733583203193
 20
-153.2849543131859
 30
0.0
 10
380.5345457204285
 20
-152.9222138825011
 30
0.0
 10
380.4108797660766
 20
-152.4408788551066
 30
0.0
 10
380.3214334011323
 20
-151.8635376412271
 30
0.0
 10
380.2732943450509
 20
-151.3287160336127
 30
0.0
 10
380.2373205611935
 20
-150.8636315767538
 30
0.0
 10
380.1994744784933
 20
-150.3454828036324
 30
0.0
 10
380.1459371320449
 20
-149.5464856366995
 30
0.0
 10
380.1076030955729
 20
-148.8774389928197
 30
0.0
 10
380.0864124604547
 20
-148.4669048171377
 30
0.0
  0
SPLINE
  5
230
330
207
100
AcDbEntity
  8
0
  6
Continuous
 62
     0
370
    30
100
AcDbSpline
210
0.0
220
0.0
230
1.0
 70
     8
 71
     3
 72
    27
 73
    23
 74
     0
 42
0.000000001
 43
0.0
 40
0.0
 40
0.0
 40
0.0
 40
0.0
 40
0.443792095471166
 40
0.693012039246454
 40
1.030748261772306
 40
1.247405495335355
 40
1.675111137903083
 40
1.886213054899579
 40
2.493102250531592
 40
2.794201842641729
 40
2.944010130240883
 40
3.092642986418001
 40
3.394986003056283
 40
3.994242307585735
 40
4.589698368834177
 40
5.183143231759496
 40
5.477944932842207
 40
5.776327019950529
 40
6.371597546139636
 40
6.668656045248675
 40
6.890623030085769
 40
7.112457123181988
 40
7.112457123181988
 40
7.112457123181988
 40
7.112457123181988
 10
388.7381550437328
 20
-150.4430456311303
 30
0.0
 10
388.6978515353608
 20
-150.5847925815675
 30
0.0
 10
388.6274161214861
 20
-150.8039248857009
 30
0.0
 10
388.509984119777
 20
-151.1153060998333
 30
0.0
 10
388.4139997580534
 20
-151.3444691141936
 30
0.0
 10
388.2910183414303
 20
-151.6152549947685
 30
0.0
 10
388.1762092186004
 20
-151.8449445872404
 30
0.0
 10
387.9993104670733
 20
-152.1673111655861
 30
0.0
 10
387.8288783992027
 20
-152.4443113238543
 30
0.0
 10
387.6558273635799
 20
-152.6937447228945
 30
0.0
 10
387.5544257379398
 20
-152.8316282475518
 30
0.0
 10
387.4523409665367
 20
-152.9654986678599
 30
0.0
 10
387.2681968684382
 20
-153.1945104005754
 30
0.0
 10
386.9939040280739
 20
-153.5015864451295
 30
0.0
 10
386.6592285399194
 20
-153.8316137578159
 30
0.0
 10
386.3809077221583
 20
-154.0767845858531
 30
0.0
 10
386.1603809653201
 20
-154.2571350767211
 30
0.0
 10
385.9378076551627
 20
-154.4306084606011
 30
0.0
 10
385.7160924946659
 20
-154.5910651782507
 30
0.0
 10
385.5116196820322
 20
-154.7305785037897
 30
0.0
 10
385.3792259569841
 20
-154.8168839066583
 30
0.0
 10
385.2926508095789
 20
-154.8742565302919
 30
0.0
 10
385.2565968231569
 20
-154.8955760755567
 30
0.0
  0
SPLINE
  5
231
330
207
100
AcDbEntity
  8
0
  6
Continuous
 62
     0
370
    30
100
AcDbSpline
210
0.0
220
0.0
230
1.0
 70
     8
 71
     3
 72
    13
 73
     9
 74
     0
 42
0.000000001
 43
0.0
 40
0.0
 40
0.0
 40
0.0
 40
0.0
 40
0.6285097302082896
 40
1.038869433467944
 40
1.359258225979399
 40
1.683929562825133
 40
1.989760469274184
 40
2.316206275304377
 40
2.316206275304377
 40
2.316206275304377
 40
2.316206275304377
 10
383.1789590956443
 20
-155.2642135201398
 30
0.0
 10
383.370248652162
 20
-155.3010730505981
 30
0.0
 10
383.6924298846334
 20
-155.3340708624032
 30
0.0
 10
384.1160675454244
 20
-155.3077946328378
 30
0.0
 10
384.4395385739572
 20
-155.2473780450711
 30
0.0
 10
384.723084582469
 20
-155.1622951015679
 30
0.0
 10
384.999384957486
 20
-155.0454684085831
 30
0.0
 10
385.1714144856713
 20
-154.9492964146052
 30
0.0
 10
385.2572320470104
 20
-154.8951523253347
 30
0.0
  0
SPLINE
  5
232
330
207
100
AcDbEntity
  8
0
  6
Continuous
 62
     0
370
    30
100
AcDbSpline
210
0.0
220
0.0
230
1.0
 70
     8
 71
     3
 72
     9
 73
     5
 74
     0
 42
0.000000001
 43
0.0
 40
0.0
 40
0.0
 40
0.0
 40
0.0
 40
21.93081783019936
 40
38.08036952997052
 40
38.08036952997052
 40
38.08036952997052
 40
38.08036952997052
 10
388.9903151036152
 20
-110.6955883464252
 30
0.0
 10
389.0023335993667
 20
-117.7191800500355
 30
0.0
 10
389.03224456367
 20
-129.9161703744735
 30
0.0
 10
389.0399320766097
 20
-142.12984829484
 30
0.0
 10
389.0340522401872
 20
-147.3134087492914
 30
0.0
  0
ARC
  5
233
330
207
100
AcDbEntity
  8
0
  6
Continuous
 62
     0
370
    30
100
AcDbCircle
 10
398.986777
 20
-110.677707
 30
0.0
 40
9.996485775413127
100
AcDbArc
 50
112.960118
 51
180.101376
  0
LINE
  5
234
330
207
100
AcDbEntity
  8
0
  6
Continuous
 62
     0
370
    30
100
AcDbLine
 10
376.66004
 20
-82.126058
 30
0.0
 11
395.364862
 21
-74.207832
 31
0.0
  0
LINE
  5
235
330
207
100
AcDbEntity
  8
0
  6
Continuous
 62
     0
370
    30
100
AcDbLine
 10
395.087116
 20
-101.473203
 30
0.0
 11
405.110713
 21
-97.22996
 31
0.0
  0
LINE
  5
236
330
207
100
AcDbEntity
  8
0
  6
Continuous
 62
     0
370
    30
100
AcDbLine
 10
389.205827
 20
-57.811652
 30
0.0
 11
392.521129
 21
-56.408201
 31
0.0
  0
LINE
  5
237
330
207
100
AcDbEntity
  8
0
  6
Continuous
 62
     0
370
    30
100
AcDbLine
 10
412.595869
 20
-113.06476
 30
0.0
 11
415.911171
 21
-111.661308
 31
0.0
  0
SPLINE
  5
238
330
207
100
AcDbEntity
  8
0
  6
Continuous
 62
     0
370
    30
100
AcDbSpline
210
0.0
220
0.0
230
1.0
 70
     8
 71
     3
 72
    14
 73
    10
 74
     0
 42
0.000000001
 43
0.0
 40
59.97434359073301
 40
59.97434359073301
 40
59.97434359073301
 40
59.97434359073301
 40
65.16518840221636
 40
71.63890185901714
 40
77.83019571949538
 40
82.05046765758489
 40
84.47393080193265
 40
90.37250940211753
 40
94.16319891621998
 40
94.16319891621998
 40
94.16319891621998
 40
94.16319891621998
 10
376.9998342833354
 20
-81.98221418260361
 30
0.0
 10
376.8895387895084
 20
-80.32070318173757
 30
0.0
 10
376.9097401670506
 20
-76.62557478439531
 30
0.0
 10
377.8656462786699
 20
-71.29189862498896
 30
0.0
 10
379.6797642028079
 20
-66.80787770086647
 30
0.0
 10
381.5789188423844
 20
-63.870707869786
 30
0.0
 10
383.7300170477823
 20
-61.33870887207502
 30
0.0
 10
386.1415379879739
 20
-59.33167537124058
 30
0.0
 10
388.3223503004608
 20
-58.18565003428654
 30
0.0
 10
389.2058266790755
 20
-57.81165207321845
 30
0.0
  0
SPLINE
  5
239
330
207
100
AcDbEntity
  8
0
  6
Continuous
 62
     0
370
    30
100
AcDbSpline
210
0.0
220
0.0
230
1.0
 70
     8
 71
     3
 72
    13
 73
     9
 74
     0
 42
0.000000001
 43
0.0
 40
0.0
 40
0.0
 40
0.0
 40
0.0
 40
3.602365700511393
 40
9.353529705951495
 40
14.12678294746166
 40
20.01543216859846
 40
26.61787512996485
 40
30.18133776669248
 40
30.18133776669248
 40
30.18133776669248
 40
30.18133776669248
 10
412.5958689192021
 20
-113.0647598953632
 30
0.0
 10
411.7562290712132
 20
-113.420200740898
 30
0.0
 10
409.5004885209677
 20
-114.1707078454276
 30
0.0
 10
405.8723357521368
 20
-114.6007311275692
 30
0.0
 10
401.5080218008931
 20
-114.1661939917327
 30
0.0
 10
396.8899462725608
 20
-112.7281006779637
 30
0.0
 10
392.7399029453499
 20
-110.3769561244892
 30
0.0
 10
390.2834117406727
 20
-108.4214187684277
 30
0.0
 10
389.449281508725
 20
-107.6837502898376
 30
0.0
  0
ELLIPSE
  5
23A
330
207
100
AcDbEntity
  8
0
  6
Continuous
 62
     0
370
     0
100
AcDbEllipse
 10
401.377141
 20
-201.458614
 30
0.0
 11
8.186514852455661
 21
-19.3385877087891
 31
0.0
210
0.0
220
0.0
230
1.0
 40
0.756003
 41
0.446719001515647
 42
2.694873642581137
  0
ELLIPSE
  5
23B
330
207
100
AcDbEntity
  8
0
  6
Continuous
 62
     0
370
    30
100
AcDbEllipse
 10
399.899985
 20
-202.083932
 30
0.0
 11
8.576348893048731
 21
-20.25947283777892
 31
0.0
210
0.0
220
0.0
230
1.0
 40
0.756003
 41
-0.0000000047465036
 42
3.14159264884329
  0
ELLIPSE
  5
23C
330
207
100
AcDbEntity
  8
0
  6
Continuous
 62
     0
370
    30
100
AcDbEllipse
 10
370.062265
 20
-214.714996
 30
0.0
 11
8.576348893048728
 21
-20.25947283777891
 31
0.0
210
0.0
220
0.0
230
1.0
 40
0.756003
 41
0.0
 42
6.283185307179586
  0
ELLIPSE
  5
23D
330
207
100
AcDbEntity
  8
0
  6
Continuous
 62
     0
370
    30
100
AcDbEllipse
 10
369.760874
 20
-214.842582
 30
0.0
 11
8.381431872752167
 21
-19.79903027328395
 31
0.0
210
0.0
220
0.0
230
1.0
 40
0.756003
 41
0.0
 42
6.283185307179586
  0
ELLIPSE
  5
23E
330
207
100
AcDbEntity
  8
0
  6
Continuous
 62
     0
370
    30
100
AcDbEllipse
 10
374.206305
 20
-184.069858
 30
0.0
 11
-3.447960393952
 21
-0.1186133286709
 31
0.0
210
0.0
220
0.0
230
1.0
 40
0.296026
 41
0.0
 42
6.283185307179586
  0
ELLIPSE
  5
23F
330
207
100
AcDbEntity
  8
0
  6
Continuous
 62
     0
370
    30
100
AcDbEllipse
 10
374.222725
 20
-184.547165
 30
0.0
 11
-3.94766479887258
 21
-0.1358036661594362
 31
0.0
210
0.0
220
0.0
230
1.0
 40
0.296026
 41
5.968079643364198
 42
9.739883624599752
  0
SPLINE
  5
240
330
207
100
AcDbEntity
  8
0
  6
Continuous
 62
     0
370
    30
100
AcDbSpline
210
0.0
220
0.0
230
1.0
 70
     8
 71
     3
 72
    17
 73
    13
 74
     0
 42
0.000000001
 43
0.0
 40
8.81760476408284
 40
8.81760476408284
 40
8.81760476408284
 40
8.81760476408284
 40
9.905522128837482
 40
11.51907905334415
 40
13.13217674187914
 40
14.76638620431957
 40
16.39832183530182
 40
18.00830472342004
 40
19.54948411969339
 40
20.44116957214131
 40
21.18588139136671
 40
21.2534147201779
 40
21.2534147201779
 40
21.2534147201779
 40
21.2534147201779
 10
370.5232519739688
 20
-191.8931466213434
 30
0.0
 10
370.5258868511634
 20
-191.9697392615515
 30
0.0
 10
370.6548226082655
 20
-192.1503392371858
 30
0.0
 10
371.3366354580153
 20
-192.4097553069367
 30
0.0
 10
372.6282523478962
 20
-192.6673384830654
 30
0.0
 10
374.2320339195583
 20
-192.8502964488063
 30
0.0
 10
375.8703813161372
 20
-192.8789841177725
 30
0.0
 10
377.2528827332092
 20
-192.6823257662705
 30
0.0
 10
378.0449899726266
 20
-192.3165944138261
 30
0.0
 10
378.3643069820535
 20
-191.9464453192561
 30
0.0
 10
378.419987727677
 20
-191.7327155699325
 30
0.0
 10
378.4187237191737
 20
-191.6303573343137
 30
0.0
 10
378.4184268721745
 20
-191.6218455838024
 30
0.0
  0
ELLIPSE
  5
241
330
207
100
AcDbEntity
  8
0
  6
Continuous
 62
     0
370
     0
100
AcDbEllipse
 10
402.133376
 20
-201.138481
 30
0.0
 11
25.15024693082892
 21
-59.41114930288624
 31
0.0
210
0.0
220
0.0
230
1.0
 40
0.756003
 41
4.932679733924624
 42
8.955495149776459
  0
ELLIPSE
  5
242
330
207
100
AcDbEntity
  8
0
  6
Continuous
 62
     0
370
     0
100
AcDbEllipse
 10
402.133376
 20
-201.138481
 30
0.0
 11
25.15024693082892
 21
-59.41114930288624
 31
0.0
210
0.0
220
0.0
230
1.0
 40
0.756003
 41
3.082426812241953
 42
4.492098217351748
  0
ELLIPSE
  5
243
330
207
100
AcDbEntity
  8
0
  6
Continuous
 62
     0
370
     0
100
AcDbEllipse
 10
402.133376
 20
-201.138481
 30
0.0
 11
25.15024693082892
 21
-59.41114930288624
 31
0.0
210
0.0
220
0.0
230
1.0
 40
0.756003
 41
2.672309842596873
 42
2.888392937587854
  0
ELLIPSE
  5
244
330
207
100
AcDbEntity
  8
0
  6
Continuous
 62
     0
370
     0
100
AcDbEllipse
 10
402.434626
 20
-201.010954
 30
0.0
 11
25.33921263855308
 21
-59.85753338434684
 31
0.0
210
0.0
220
0.0
230
1.0
 40
0.756003
 41
-0.0000000708687669
 42
2.672309842596873
  0
ELLIPSE
  5
245
330
207
100
AcDbEntity
  8
0
  6
Continuous
 62
     0
370
     0
100
AcDbEllipse
 10
402.434626
 20
-201.010954
 30
0.0
 11
25.33921263855308
 21
-59.85753338434684
 31
0.0
210
0.0
220
0.0
230
1.0
 40
0.756003
 41
3.085861841399801
 42
3.141593008848392
  0
ELLIPSE
  5
246
330
207
100
AcDbEntity
  8
0
  6
Continuous
 62
     0
370
     0
100
AcDbEllipse
 10
402.434626
 20
-201.010954
 30
0.0
 11
25.33921263855308
 21
-59.85753338434684
 31
0.0
210
0.0
220
0.0
230
1.0
 40
0.756003
 41
2.672309842596873
 42
2.892445529838424
  0
ELLIPSE
  5
247
330
207
100
AcDbEntity
  8
0
  6
Continuous
 62
     0
370
    30
100
AcDbEllipse
 10
407.868766
 20
-198.710545
 30
0.0
 11
25.33921263855308
 21
-59.85753338434684
 31
0.0
210
0.0
220
0.0
230
1.0
 40
0.756003
 41
-0.0000000047465036
 42
2.67230984259687
  0
ELLIPSE
  5
248
330
207
100
AcDbEntity
  8
0
  6
Continuous
 62
     0
370
    30
100
AcDbEllipse
 10
407.868766
 20
-198.710545
 30
0.0
 11
25.33921263855308
 21
-59.85753338434684
 31
0.0
210
0.0
220
0.0
230
1.0
 40
0.756003
 41
2.67230984259687
 42
3.002774619123854
  0
LINE
  5
249
330
207
100
AcDbEntity
  8
0
  6
Continuous
 62
     0
370
    30
100
AcDbLine
 10
377.095414
 20
-141.15342
 30
0.0
 11
379.649793
 21
-140.072087
 31
0.0
  0
LINE
  5
24A
330
207
100
AcDbEntity
  8
0
  6
Continuous
 62
     0
370
    30
100
AcDbLine
 10
427.773839
 20
-260.868487
 30
0.0
 11
433.207978
 21
-258.568078
 31
0.0
  0
SPLINE
  5
24B
330
207
100
AcDbEntity
  8
0
  6
Continuous
 62
     0
370
    30
100
AcDbSpline
210
0.0
220
0.0
230
1.0
 70
     8
 71
     3
 72
    13
 73
     9
 74
     0
 42
0.000000001
 43
0.0
 40
115.8203569027269
 40
115.8203569027269
 40
115.8203569027269
 40
115.8203569027269
 40
117.9429851089866
 40
135.017219767777
 40
154.5340556652955
 40
176.4840135454442
 40
193.1219876436875
 40
203.9828531784252
 40
203.9828531784252
 40
203.9828531784252
 40
203.9828531784252
 10
352.7417380935447
 20
-207.1425540707784
 30
0.0
 10
352.5762180919512
 20
-206.4615329228466
 30
0.0
 10
351.1593047282332
 20
-200.2925676280724
 30
0.0
 10
349.7814587119505
 20
-187.7307735893701
 30
0.0
 10
352.1169454453105
 20
-169.7803749835729
 30
0.0
 10
359.2119141369973
 20
-154.8344392926264
 30
0.0
 10
368.4407085038291
 20
-145.6551542206283
 30
0.0
 10
374.563626570055
 20
-142.2251899780355
 30
0.0
 10
377.0954139143934
 20
-141.153420175068
 30
0.0
  0
SPLINE
  5
24C
330
207
100
AcDbEntity
  8
0
  6
Continuous
 62
     0
370
    30
100
AcDbSpline
210
0.0
220
0.0
230
1.0
 70
     8
 71
     3
 72
    13
 73
     9
 74
     0
 42
0.000000001
 43
0.0
 40
0.0
 40
0.0
 40
0.0
 40
0.0
 40
8.596718452801461
 40
24.44645431943535
 40
42.71240587561943
 40
61.85639481479199
 40
78.92130677028766
 40
88.16031923650503
 40
88.16031923650503
 40
88.16031923650503
 40
88.16031923650503
 10
427.773838762556
 20
-260.8684871253444
 30
0.0
 10
425.7689753729665
 20
-261.7171966525215
 30
0.0
 10
419.8487408424279
 20
-263.6345660129976
 30
0.0
 10
408.7221778471006
 20
-264.408024926906
 30
0.0
 10
394.3675440790814
 20
-260.8324065363314
 30
0.0
 10
380.3277889215704
 20
-252.3844581733628
 30
0.0
 10
370.077782309474
 20
-242.0500471906477
 30
0.0
 10
365.0724722770896
 20
-235.0035338662144
 30
0.0
 10
363.445155387729
 20
-232.423255771893
 30
0.0
  0
LINE
  5
24D
330
207
100
AcDbEntity
  8
0
  6
Continuous
 62
     0
370
    30
100
AcDbLine
 10
408.476334
 20
-222.343405
 30
0.0
 11
378.638614
 21
-234.974468
 31
0.0
  0
LINE
  5
24E
330
207
100
AcDbEntity
  8
0
  6
Continuous
 62
     0
370
    30
100
AcDbLine
 10
370.480263
 20
-190.647988
 30
0.0
 11
361.485916
 21
-194.455523
 31
0.0
  0
LINE
  5
24F
330
207
100
AcDbEntity
  8
0
  6
Continuous
 62
     0
370
    30
100
AcDbLine
 10
391.323636
 20
-181.824459
 30
0.0
 11
378.271474
 21
-187.34977
 31
0.0
  0
SPLINE
  5
250
330
207
100
AcDbEntity
  8
0
  6
Continuous
 62
     0
370
    30
100
AcDbSpline
210
0.0
220
0.0
230
1.0
 70
     8
 71
     3
 72
    19
 73
    15
 74
     0
 42
0.000000001
 43
0.0
 40
9.078107282087812
 40
9.078107282087812
 40
9.078107282087812
 40
9.078107282087812
 40
9.52168994670377
 40
14.00581760966964
 40
18.23338264278156
 40
22.95455851821795
 40
27.68304286229581
 40
32.01965374958925
 40
36.35593896360692
 40
41.08697566320235
 40
45.81940902521722
 40
50.15800310314286
 40
54.888911158965
 40
56.7682580841647
 40
56.7682580841647
 40
56.7682580841647
 40
56.7682580841647
 10
400.1333178786409
 20
-181.2974998601881
 30
0.0
 10
400.2517887660184
 20
-181.315122104707
 30
0.0
 10
401.5687923847129
 20
-181.5276674738968
 30
0.0
 10
404.0286559673547
 20
-182.2682690577236
 30
0.0
 10
407.512892151375
 20
-184.2010275134027
 30
0.0
 10
410.7801001949664
 20
-186.967699752142
 30
0.0
 10
413.6111910424301
 20
-190.4662410208301
 30
0.0
 10
415.8006260462431
 20
-194.3642694386101
 30
0.0
 10
417.3598199666031
 20
-198.5731864853323
 30
0.0
 10
418.2146184412634
 20
-203.0483018072248
 30
0.0
 10
418.2420283491412
 20
-207.4470016555805
 30
0.0
 10
417.4739268462976
 20
-211.5599655083812
 30
0.0
 10
416.2586112046416
 20
-214.4515672915996
 30
0.0
 10
415.2829228172529
 20
-215.9719046008404
 30
0.0
 10
414.9871519476732
 20
-216.3842575796688
 30
0.0
  0
LINE
  5
251
330
207
100
AcDbEntity
  8
0
  6
Continuous
 62
     0
370
    30
100
AcDbLine
 10
370.27506
 20
-184.682969
 30
0.0
 11
370.523108
 21
-191.893455
 31
0.0
  0
LINE
  5
252
330
207
100
AcDbEntity
  8
0
  6
Continuous
 62
     0
370
    30
100
AcDbLine
 10
378.17039
 20
-184.411361
 30
0.0
 11
378.418437
 21
-191.621845
 31
0.0
  0
LINE
  5
253
330
207
100
AcDbEntity
  8
0
  6
Continuous
 62
     0
370
    30
100
AcDbLine
 10
370.917227
 20
-183.866302
 30
0.0
 11
370.456969
 21
-184.314109
 31
0.0
  0
LINE
  5
254
330
207
100
AcDbEntity
  8
0
  6
Continuous
 62
     0
370
    30
100
AcDbLine
 10
377.473618
 20
-183.640756
 30
0.0
 11
377.963562
 21
-184.055875
 31
0.0
  0
ENDBLK
  5
256
330
207
100
AcDbEntity
  8
0
100
AcDbBlockEnd
  0
ENDSEC
  0
SECTION
  2
ENTITIES
  0
INSERT
  5
B1
330
1F
100
AcDbEntity
  8
0
  6
Continuous
 62
     7
370
     0
100
AcDbBlockReference
  2
a
 10
80.796021
 20
16.255959
 30
0.0
  0
INSERT
  5
11A
330
1F
100
AcDbEntity
  8
0
  6
Continuous
 62
     7
370
     0
100
AcDbBlockReference
  2
b
 10
-21.190895
 20
0.0
 30
0.0
  0
INSERT
  5
181
330
1F
100
AcDbEntity
  8
0
  6
Continuous
 62
     7
370
     0
100
AcDbBlockReference
  2
c
 10
267.901489
 20
0.0
 30
0.0
  0
INSERT
  5
1CE
330
1F
100
AcDbEntity
  8
0
  6
Continuous
 62
     7
370
     0
100
AcDbBlockReference
  2
d
 10
0.0
 20
-78.642426
 30
0.0
  0
INSERT
  5
206
330
1F
100
AcDbEntity
  8
0
  6
Continuous
 62
     7
370
     0
100
AcDbBlockReference
  2
e
 10
0.0
 20
250.612244
 30
0.0
  0
INSERT
  5
257
330
1F
100
AcDbEntity
  8
0
  6
Continuous
 62
     7
370
     0
100
AcDbBlockReference
  2
f
 10
345.726654
 20
-277.662689
 30
0.0
  0
ENDSEC
  0
SECTION
  2
OBJECTS
  0
DICTIONARY
  5
C
330
0
100
AcDbDictionary
281
     1
  3
ACAD_GROUP
350
D
  3
ACAD_LAYOUT
350
1A
  3
ACAD_MATERIAL
350
43
  3
ACAD_MLEADERSTYLE
350
6B
  3
ACAD_MLINESTYLE
350
17
  3
ACAD_PLOTSETTINGS
350
19
  3
ACAD_PLOTSTYLENAME
350
E
  3
ACAD_SCALELIST
350
47
  3
ACAD_TABLESTYLE
350
69
  3
ACAD_VISUALSTYLE
350
2A
  3
AcDbVariableDictionary
350
258
  0
DICTIONARY
  5
263
330
8
100
AcDbDictionary
280
     1
281
     1
  3
ACAD_XREC_ROUNDTRIP
360
264
  0
DICTIONARY
  5
D
102
{ACAD_REACTORS
330
C
102
}
330
C
100
AcDbDictionary
281
     1
  0
DICTIONARY
  5
1A
102
{ACAD_REACTORS
330
C
102
}
330
C
100
AcDbDictionary
281
     1
  3
Layout1
350
1E
  3
Layout2
350
26
  3
Model
350
22
  0
DICTIONARY
  5
43
102
{ACAD_REACTORS
330
C
102
}
330
C
100
AcDbDictionary
281
     1
  3
ByBlock
350
45
  3
ByLayer
350
44
  3
Global
350
46
  0
DICTIONARY
  5
6B
102
{ACAD_REACTORS
330
C
102
}
330
C
100
AcDbDictionary
281
     1
  3
Standard
350
6C
  0
DICTIONARY
  5
17
102
{ACAD_REACTORS
330
C
102
}
330
C
100
AcDbDictionary
281
     1
  3
Standard
350
18
  0
DICTIONARY
  5
19
102
{ACAD_REACTORS
330
C
102
}
330
C
100
AcDbDictionary
281
     1
  0
ACDBDICTIONARYWDFLT
  5
E
102
{ACAD_REACTORS
330
C
102
}
330
C
100
AcDbDictionary
281
     1
  3
Normal
350
F
100
AcDbDictionaryWithDefault
340
F
  0
DICTIONARY
  5
47
102
{ACAD_REACTORS
330
C
102
}
330
C
100
AcDbDictionary
281
     1
  3
A0
350
48
  3
A1
350
49
  3
A2
350
4A
  3
A3
350
4B
  3
A4
350
4C
  3
A5
350
4D
  3
A6
350
4E
  3
A7
350
4F
  3
A8
350
50
  3
A9
350
51
  3
B0
350
52
  3
B1
350
53
  3
B2
350
54
  3
B3
350
55
  3
B4
350
56
  3
B5
350
57
  3
B6
350
58
  3
B7
350
59
  3
B8
350
5A
  3
B9
350
5B
  3
C0
350
5C
  3
C1
350
5D
  3
C2
350
5E
  3
C3
350
5F
  3
C4
350
60
  3
C5
350
61
  3
C6
350
62
  3
C7
350
63
  3
C8
350
64
  3
C9
350
65
  3
D0
350
66
  3
D1
350
67
  3
D2
350
68
  0
DICTIONARY
  5
69
102
{ACAD_REACTORS
330
C
102
}
330
C
100
AcDbDictionary
281
     1
  3
Standard
350
6A
  0
DICTIONARY
  5
2A
102
{ACAD_REACTORS
330
C
102
}
330
C
100
AcDbDictionary
281
     1
  3
2dWireframe
350
2F
  3
Basic
350
32
  3
Brighten
350
36
  3
ColorChange
350
3A
  3
Conceptual
350
34
  3
Dim
350
35
  3
EdgeColorOff
350
3D
  3
Facepattern
350
39
  3
Flat
350
2B
  3
FlatWithEdges
350
2C
  3
Gouraud
350
2D
  3
GouraudWithEdges
350
2E
  3
Hidden
350
31
  3
JitterOff
350
3B
  3
Linepattern
350
38
  3
OverhangOff
350
3C
  3
Realistic
350
33
  3
Shaded
350
42
  3
Shaded with edges
350
41
  3
Shades of Gray
350
3E
  3
Sketchy
350
3F
  3
Thicken
350
37
  3
Wireframe
350
30
  3
X-Ray
350
40
  0
DICTIONARY
  5
258
102
{ACAD_REACTORS
330
C
102
}
330
C
100
AcDbDictionary
281
     1
  3
CANNOSCALE
350
265
  3
CENTEREXE
350
25F
  3
CENTERLTYPEFILE
350
260
  3
CMLEADERSTYLE
350
25A
  3
CTABLESTYLE
350
259
  3
DIMASSOC
350
261
  3
HIDETEXT
350
262
  3
MSLTSCALE
350
266
  3
PSOLHEIGHT
350
25C
  3
PSOLWIDTH
350
25B
  0
XRECORD
  5
264
102
{ACAD_REACTORS
330
263
102
}
330
263
100
AcDbXrecord
280
     1
102
VTR_0.000_0.000_1.000_1.000_VISUALSTYLE
340
2F
102
VTR_0.000_0.000_1.000_1.000_GRIDDISPLAY
 70
     3
102
VTR_0.000_0.000_1.000_1.000_GRIDMAJOR
 70
     5
102
VTR_0.000_0.000_1.000_1.000_DEFAULTLIGHTING
280
     1
102
VTR_0.000_0.000_1.000_1.000_DEFAULTLIGHTINGTYPE
 70
     1
102
VTR_0.000_0.000_1.000_1.000_BRIGHTNESS
141
0.0
102
VTR_0.000_0.000_1.000_1.000_CONTRAST
142
0.0
  0
LAYOUT
  5
1E
102
{ACAD_REACTORS
330
1A
102
}
330
1A
100
AcDbPlotSettings
  1

  2
none_device
  4

  6

 40
0.0
 41
0.0
 42
0.0
 43
0.0
 44
0.0
 45
0.0
 46
0.0
 47
0.0
 48
0.0
 49
0.0
140
0.0
141
0.0
142
1.0
143
1.0
 70
   688
 72
     1
 73
     0
 74
     5
  7

 75
    16
147
1.0
148
0.0
149
0.0
100
AcDbLayout
  1
Layout1
 70
     1
 71
     1
 10
0.0
 20
0.0
 11
420.0
 21
297.0
 12
0.0
 22
0.0
 32
0.0
 14
1.000000E+20
 24
1.000000E+20
 34
1.000000E+20
 15
-1.000000E+20
 25
-1.000000E+20
 35
-1.000000E+20
146
0.0
 13
0.0
 23
0.0
 33
0.0
 16
1.0
 26
0.0
 36
0.0
 17
0.0
 27
1.0
 37
0.0
 76
     0
330
1B
  0
LAYOUT
  5
26
102
{ACAD_REACTORS
330
1A
102
}
330
1A
100
AcDbPlotSettings
  1

  2
none_device
  4

  6

 40
0.0
 41
0.0
 42
0.0
 43
0.0
 44
0.0
 45
0.0
 46
0.0
 47
0.0
 48
0.0
 49
0.0
140
0.0
141
0.0
142
1.0
143
1.0
 70
   688
 72
     1
 73
     0
 74
     5
  7

 75
    16
147
1.0
148
0.0
149
0.0
100
AcDbLayout
  1
Layout2
 70
     1
 71
     2
 10
0.0
 20
0.0
 11
0.0
 21
0.0
 12
0.0
 22
0.0
 32
0.0
 14
0.0
 24
0.0
 34
0.0
 15
0.0
 25
0.0
 35
0.0
146
0.0
 13
0.0
 23
0.0
 33
0.0
 16
1.0
 26
0.0
 36
0.0
 17
0.0
 27
1.0
 37
0.0
 76
     0
330
23
  0
LAYOUT
  5
22
102
{ACAD_REACTORS
330
1A
102
}
330
1A
100
AcDbPlotSettings
  1

  2
none_device
  4
Letter_(8.50_x_11.00_Inches)
  6

 40
6.35
 41
6.35
 42
6.350005
 43
6.350005
 44
215.9
 45
279.4
 46
0.0
 47
0.0
 48
0.0
 49
0.0
140
0.0
141
0.0
142
1.0
143
1.0
 70
  1712
 72
     1
 73
     0
 74
     0
  7

 75
     0
147
1.0
148
0.0
149
0.0
100
AcDbLayout
  1
Model
 70
     1
 71
     0
 10
-104.350121
 20
-284.592682
 11
459.72641
 21
400.017731
 12
0.0
 22
0.0
 32
0.0
 14
-104.350121
 24
-284.592682
 34
0.0
 15
459.72641
 25
400.017731
 35
0.0
146
0.0
 13
0.0
 23
0.0
 33
0.0
 16
1.0
 26
0.0
 36
0.0
 17
0.0
 27
1.0
 37
0.0
 76
     0
330
1F
331
29
  0
MATERIAL
  5
45
102
{ACAD_REACTORS
330
43
102
}
102
{ACAD_XDICTIONARY
360
299
102
}
330
43
100
AcDbMaterial
  1
ByBlock
  0
MATERIAL
  5
44
102
{ACAD_REACTORS
330
43
102
}
102
{ACAD_XDICTIONARY
360
297
102
}
330
43
100
AcDbMaterial
  1
ByLayer
  0
MATERIAL
  5
46
102
{ACAD_REACTORS
330
43
102
}
102
{ACAD_XDICTIONARY
360
29B
102
}
330
43
100
AcDbMaterial
  1
Global
  0
MLEADERSTYLE
  5
6C
102
{ACAD_REACTORS
330
6B
102
}
102
{ACAD_XDICTIONARY
360
29E
102
}
330
6B
100
AcDbMLeaderStyle
170
     2
171
     1
172
     0
 90
        2
 40
0.0
 41
0.0
173
     1
 91
-1056964608
340
14
 92
       -2
290
     1
 42
2.0
291
     1
 43
8.0
  3
Standard
341
0
 44
4.0
300

342
11
174
     1
178
     6
175
     1
176
     0
 93
-1056964608
 45
4.0
292
     0
297
     0
 46
4.0
343
0
 94
-1056964608
 47
1.0
 49
1.0
140
1.0
293
     1
141
0.0
294
     1
177
     0
142
1.0
295
     0
296
     0
143
3.75
1001
ACAD_MLEADERVER
1070
     2
  0
MLINESTYLE
  5
18
102
{ACAD_REACTORS
330
17
102
}
330
17
100
AcDbMlineStyle
  2
Standard
 70
     0
  3

 62
   256
 51
90.0
 52
90.0
 71
     2
 49
0.5
 62
   256
  6
BYLAYER
 49
-0.5
 62
   256
  6
BYLAYER
  0
ACDBPLACEHOLDER
  5
F
102
{ACAD_REACTORS
330
E
102
}
330
E
  0
SCALE
  5
48
102
{ACAD_REACTORS
330
47
102
}
330
47
100
AcDbScale
 70
     0
300
1:1
140
1.0
141
1.0
290
     1
  0
SCALE
  5
49
102
{ACAD_REACTORS
330
47
102
}
330
47
100
AcDbScale
 70
     0
300
1:2
140
1.0
141
2.0
290
     0
  0
SCALE
  5
4A
102
{ACAD_REACTORS
330
47
102
}
330
47
100
AcDbScale
 70
     0
300
1:4
140
1.0
141
4.0
290
     0
  0
SCALE
  5
4B
102
{ACAD_REACTORS
330
47
102
}
330
47
100
AcDbScale
 70
     0
300
1:5
140
1.0
141
5.0
290
     0
  0
SCALE
  5
4C
102
{ACAD_REACTORS
330
47
102
}
330
47
100
AcDbScale
 70
     0
300
1:8
140
1.0
141
8.0
290
     0
  0
SCALE
  5
4D
102
{ACAD_REACTORS
330
47
102
}
330
47
100
AcDbScale
 70
     0
300
1:10
140
1.0
141
10.0
290
     0
  0
SCALE
  5
4E
102
{ACAD_REACTORS
330
47
102
}
330
47
100
AcDbScale
 70
     0
300
1:16
140
1.0
141
16.0
290
     0
  0
SCALE
  5
4F
102
{ACAD_REACTORS
330
47
102
}
330
47
100
AcDbScale
 70
     0
300
1:20
140
1.0
141
20.0
290
     0
  0
SCALE
  5
50
102
{ACAD_REACTORS
330
47
102
}
330
47
100
AcDbScale
 70
     0
300
1:30
140
1.0
141
30.0
290
     0
  0
SCALE
  5
51
102
{ACAD_REACTORS
330
47
102
}
330
47
100
AcDbScale
 70
     0
300
1:40
140
1.0
141
40.0
290
     0
  0
SCALE
  5
52
102
{ACAD_REACTORS
330
47
102
}
330
47
100
AcDbScale
 70
     0
300
1:50
140
1.0
141
50.0
290
     0
  0
SCALE
  5
53
102
{ACAD_REACTORS
330
47
102
}
330
47
100
AcDbScale
 70
     0
300
1:100
140
1.0
141
100.0
290
     0
  0
SCALE
  5
54
102
{ACAD_REACTORS
330
47
102
}
330
47
100
AcDbScale
 70
     0
300
2:1
140
2.0
141
1.0
290
     0
  0
SCALE
  5
55
102
{ACAD_REACTORS
330
47
102
}
330
47
100
AcDbScale
 70
     0
300
4:1
140
4.0
141
1.0
290
     0
  0
SCALE
  5
56
102
{ACAD_REACTORS
330
47
102
}
330
47
100
AcDbScale
 70
     0
300
8:1
140
8.0
141
1.0
290
     0
  0
SCALE
  5
57
102
{ACAD_REACTORS
330
47
102
}
330
47
100
AcDbScale
 70
     0
300
10:1
140
10.0
141
1.0
290
     0
  0
SCALE
  5
58
102
{ACAD_REACTORS
330
47
102
}
330
47
100
AcDbScale
 70
     0
300
100:1
140
100.0
141
1.0
290
     0
  0
SCALE
  5
59
102
{ACAD_REACTORS
330
47
102
}
330
47
100
AcDbScale
 70
     0
300
1/128" = 1'-0"
140
0.007812
141
12.0
290
     0
  0
SCALE
  5
5A
102
{ACAD_REACTORS
330
47
102
}
330
47
100
AcDbScale
 70
     0
300
1/64" = 1'-0"
140
0.015625
141
12.0
290
     0
  0
SCALE
  5
5B
102
{ACAD_REACTORS
330
47
102
}
330
47
100
AcDbScale
 70
     0
300
1/32" = 1'-0"
140
0.03125
141
12.0
290
     0
  0
SCALE
  5
5C
102
{ACAD_REACTORS
330
47
102
}
330
47
100
AcDbScale
 70
     0
300
1/16" = 1'-0"
140
0.0625
141
12.0
290
     0
  0
SCALE
  5
5D
102
{ACAD_REACTORS
330
47
102
}
330
47
100
AcDbScale
 70
     0
300
3/32" = 1'-0"
140
0.09375
141
12.0
290
     0
  0
SCALE
  5
5E
102
{ACAD_REACTORS
330
47
102
}
330
47
100
AcDbScale
 70
     0
300
1/8" = 1'-0"
140
0.125
141
12.0
290
     0
  0
SCALE
  5
5F
102
{ACAD_REACTORS
330
47
102
}
330
47
100
AcDbScale
 70
     0
300
3/16" = 1'-0"
140
0.1875
141
12.0
290
     0
  0
SCALE
  5
60
102
{ACAD_REACTORS
330
47
102
}
330
47
100
AcDbScale
 70
     0
300
1/4" = 1'-0"
140
0.25
141
12.0
290
     0
  0
SCALE
  5
61
102
{ACAD_REACTORS
330
47
102
}
330
47
100
AcDbScale
 70
     0
300
3/8" = 1'-0"
140
0.375
141
12.0
290
     0
  0
SCALE
  5
62
102
{ACAD_REACTORS
330
47
102
}
330
47
100
AcDbScale
 70
     0
300
1/2" = 1'-0"
140
0.5
141
12.0
290
     0
  0
SCALE
  5
63
102
{ACAD_REACTORS
330
47
102
}
330
47
100
AcDbScale
 70
     0
300
3/4" = 1'-0"
140
0.75
141
12.0
290
     0
  0
SCALE
  5
64
102
{ACAD_REACTORS
330
47
102
}
330
47
100
AcDbScale
 70
     0
300
1" = 1'-0"
140
1.0
141
12.0
290
     0
  0
SCALE
  5
65
102
{ACAD_REACTORS
330
47
102
}
330
47
100
AcDbScale
 70
     0
300
1-1/2" = 1'-0"
140
1.5
141
12.0
290
     0
  0
SCALE
  5
66
102
{ACAD_REACTORS
330
47
102
}
330
47
100
AcDbScale
 70
     0
300
3" = 1'-0"
140
3.0
141
12.0
290
     0
  0
SCALE
  5
67
102
{ACAD_REACTORS
330
47
102
}
330
47
100
AcDbScale
 70
     0
300
6" = 1'-0"
140
6.0
141
12.0
290
     0
  0
SCALE
  5
68
102
{ACAD_REACTORS
330
47
102
}
330
47
100
AcDbScale
 70
     0
300
1'-0" = 1'-0"
140
12.0
141
12.0
290
     0
  0
TABLESTYLE
  5
6A
102
{ACAD_REACTORS
330
69
102
}
330
69
100
AcDbTableStyle
  3
Standard
 70
     0
 71
     0
 40
1.5
 41
1.5
280
     0
281
     0
  7
Standard
140
4.5
170
     2
 62
     0
 63
   257
283
     0
274
    -2
284
     1
 64
     0
275
    -2
285
     1
 65
     0
276
    -2
286
     1
 66
     0
277
    -2
287
     1
 67
     0
278
    -2
288
     1
 68
     0
279
    -2
289
     1
 69
     0
  7
Standard
140
6.0
170
     5
 62
     0
 63
   257
283
     0
274
    -2
284
     1
 64
     0
275
    -2
285
     1
 65
     0
276
    -2
286
     1
 66
     0
277
    -2
287
     1
 67
     0
278
    -2
288
     1
 68
     0
279
    -2
289
     1
 69
     0
  7
Standard
140
4.5
170
     5
 62
     0
 63
   257
283
     0
274
    -2
284
     1
 64
     0
275
    -2
285
     1
 65
     0
276
    -2
286
     1
 66
     0
277
    -2
287
     1
 67
     0
278
    -2
288
     1
 68
     0
279
    -2
289
     1
 69
     0
  0
VISUALSTYLE
  5
2F
102
{ACAD_REACTORS
330
2A
102
}
102
{ACAD_XDICTIONARY
360
26F
102
}
330
2A
100
AcDbVisualStyle
  2
2dWireframe
 70
     4
 71
     0
 72
     2
 73
     0
 90
        0
 40
0.6
 41
30.0
 62
     5
 63
     7
 74
     1
 91
        4
 64
     7
 65
   257
 75
     1
175
     1
 42
1.0
 92
        0
 66
   257
 43
1.0
 76
     1
 77
     6
 78
     2
 67
     7
 79
     5
170
     0
171
     0
290
     0
174
     0
 93
        1
 44
0.0
173
     0
291
     0
 45
0.0
1001
ACAD
1000
AcDbSavedByObjectVersion
1070
     0
  0
VISUALSTYLE
  5
32
102
{ACAD_REACTORS
330
2A
102
}
102
{ACAD_XDICTIONARY
360
275
102
}
330
2A
100
AcDbVisualStyle
  2
Basic
 70
     7
 71
     1
 72
     0
 73
     1
 90
        0
 40
0.6
 41
30.0
 62
     5
 63
     7
 74
     0
 91
        4
 64
     7
 65
   257
 75
     1
175
     1
 42
1.0
 92
        8
 66
     7
 43
1.0
 76
     1
 77
     6
 78
     2
 67
     7
 79
     5
170
     0
171
     0
290
     0
174
     0
 93
        1
 44
0.0
173
     0
291
     1
 45
0.0
1001
ACAD
1000
AcDbSavedByObjectVersion
1070
     0
  0
VISUALSTYLE
  5
36
102
{ACAD_REACTORS
330
2A
102
}
102
{ACAD_XDICTIONARY
360
27D
102
}
330
2A
100
AcDbVisualStyle
  2
Brighten
 70
    12
 71
     2
 72
     2
 73
     0
 90
        0
 40
0.6
 41
30.0
 62
     5
 63
     7
 74
     1
 91
        4
 64
     7
 65
   257
 75
     1
175
     1
 42
1.0
 92
        8
 66
     7
 43
1.0
 76
     1
 77
     6
 78
     2
 67
     7
 79
     5
170
     0
171
     0
290
     0
174
     0
 93
        1
 44
50.0
173
     0
291
     1
 45
0.0
1001
ACAD
1000
AcDbSavedByObjectVersion
1070
     0
  0
VISUALSTYLE
  5
3A
102
{ACAD_REACTORS
330
2A
102
}
102
{ACAD_XDICTIONARY
360
285
102
}
330
2A
100
AcDbVisualStyle
  2
ColorChange
 70
    16
 71
     2
 72
     2
 73
     3
 90
        0
 40
0.6
 41
30.0
 62
     5
 63
     8
 74
     1
 91
        4
 64
     7
 65
   257
 75
     1
175
     1
 42
1.0
 92
        8
 66
     8
 43
1.0
 76
     1
 77
     6
 78
     2
 67
     7
 79
     5
170
     0
171
     0
290
     0
174
     0
 93
        1
 44
0.0
173
     0
291
     1
 45
0.0
1001
ACAD
1000
AcDbSavedByObjectVersion
1070
     0
  0
VISUALSTYLE
  5
34
102
{ACAD_REACTORS
330
2A
102
}
102
{ACAD_XDICTIONARY
360
279
102
}
330
2A
100
AcDbVisualStyle
  2
Conceptual
 70
     9
 71
     3
 72
     2
 73
     0
 90
        0
 40
0.6
 41
30.0
 62
     5
 63
     7
 74
     2
 91
        2
 64
     7
 65
   257
 75
     1
175
     1
 42
179.0
 92
        8
 66
     7
 43
1.0
 76
     1
 77
     6
 78
     2
 67
     7
 79
     3
170
     0
171
     0
290
     0
174
     0
 93
        1
 44
0.0
173
     0
291
     0
 45
0.0
1001
ACAD
1000
AcDbSavedByObjectVersion
1070
     0
  0
VISUALSTYLE
  5
35
102
{ACAD_REACTORS
330
2A
102
}
102
{ACAD_XDICTIONARY
360
27B
102
}
330
2A
100
AcDbVisualStyle
  2
Dim
 70
    11
 71
     2
 72
     2
 73
     0
 90
        0
 40
0.6
 41
30.0
 62
     5
 63
     7
 74
     1
 91
        4
 64
     7
 65
   257
 75
     1
175
     1
 42
1.0
 92
        8
 66
     7
 43
1.0
 76
     1
 77
     6
 78
     2
 67
     7
 79
     5
170
     0
171
     0
290
     0
174
     0
 93
        1
 44
-50.0
173
     0
291
     1
 45
0.0
1001
ACAD
1000
AcDbSavedByObjectVersion
1070
     0
  0
VISUALSTYLE
  5
3D
102
{ACAD_REACTORS
330
2A
102
}
102
{ACAD_XDICTIONARY
360
28B
102
}
330
2A
100
AcDbVisualStyle
  2
EdgeColorOff
 70
    22
 71
     2
 72
     2
 73
     0
 90
        0
 40
0.6
 41
30.0
 62
     5
 63
     7
 74
     1
 91
        4
 64
     7
 65
   257
 75
     1
175
     1
 42
1.0
 92
        8
 66
     7
 43
1.0
 76
     1
 77
     6
 78
     2
 67
     7
 79
     5
170
     0
171
     0
290
     0
174
     0
 93
        1
 44
0.0
173
     0
291
     1
 45
0.0
1001
ACAD
1000
AcDbSavedByObjectVersion
1070
     0
  0
VISUALSTYLE
  5
39
102
{ACAD_REACTORS
330
2A
102
}
102
{ACAD_XDICTIONARY
360
283
102
}
330
2A
100
AcDbVisualStyle
  2
Facepattern
 70
    15
 71
     2
 72
     2
 73
     0
 90
        0
 40
0.6
 41
30.0
 62
     5
 63
     7
 74
     1
 91
        4
 64
     7
 65
   257
 75
     1
175
     1
 42
1.0
 92
        8
 66
     7
 43
1.0
 76
     1
 77
     6
 78
     2
 67
     7
 79
     5
170
     0
171
     0
290
     0
174
     0
 93
        1
 44
0.0
173
     0
291
     1
 45
0.0
1001
ACAD
1000
AcDbSavedByObjectVersion
1070
     0
  0
VISUALSTYLE
  5
2B
102
{ACAD_REACTORS
330
2A
102
}
102
{ACAD_XDICTIONARY
360
267
102
}
330
2A
100
AcDbVisualStyle
  2
Flat
 70
     0
 71
     2
 72
     1
 73
     1
 90
        2
 40
0.6
 41
30.0
 62
     5
 63
     7
 74
     0
 91
        0
 64
     7
 65
   257
 75
     1
175
     1
 42
1.0
 92
        8
 66
     7
 43
1.0
 76
     1
 77
     6
 78
     2
 67
     7
 79
     5
170
     0
171
     0
290
     0
174
     0
 93
       13
 44
0.0
173
     0
291
     1
 45
0.0
1001
ACAD
1000
AcDbSavedByObjectVersion
1070
     0
  0
VISUALSTYLE
  5
2C
102
{ACAD_REACTORS
330
2A
102
}
102
{ACAD_XDICTIONARY
360
269
102
}
330
2A
100
AcDbVisualStyle
  2
FlatWithEdges
 70
     1
 71
     2
 72
     1
 73
     1
 90
        2
 40
0.6
 41
30.0
 62
     5
 63
     7
 74
     1
 91
        0
 64
     7
 65
   257
 75
     1
175
     1
 42
1.0
 92
        0
 66
   257
 43
1.0
 76
     1
 77
     6
 78
     2
 67
     7
 79
     5
170
     0
171
     0
290
     0
174
     0
 93
       13
 44
0.0
173
     0
291
     1
 45
0.0
1001
ACAD
1000
AcDbSavedByObjectVersion
1070
     0
  0
VISUALSTYLE
  5
2D
102
{ACAD_REACTORS
330
2A
102
}
102
{ACAD_XDICTIONARY
360
26B
102
}
330
2A
100
AcDbVisualStyle
  2
Gouraud
 70
     2
 71
     2
 72
     2
 73
     1
 90
        2
 40
0.6
 41
30.0
 62
     5
 63
     7
 74
     0
 91
        0
 64
     7
 65
   257
 75
     1
175
     1
 42
1.0
 92
        0
 66
     7
 43
1.0
 76
     1
 77
     6
 78
     2
 67
     7
 79
     5
170
     0
171
     0
290
     0
174
     0
 93
       13
 44
0.0
173
     0
291
     1
 45
0.0
1001
ACAD
1000
AcDbSavedByObjectVersion
1070
     0
  0
VISUALSTYLE
  5
2E
102
{ACAD_REACTORS
330
2A
102
}
102
{ACAD_XDICTIONARY
360
26D
102
}
330
2A
100
AcDbVisualStyle
  2
GouraudWithEdges
 70
     3
 71
     2
 72
     2
 73
     1
 90
        2
 40
0.6
 41
30.0
 62
     5
 63
     7
 74
     1
 91
        0
 64
     7
 65
   257
 75
     1
175
     1
 42
1.0
 92
        0
 66
   257
 43
1.0
 76
     1
 77
     6
 78
     2
 67
     7
 79
     5
170
     0
171
     0
290
     0
174
     0
 93
       13
 44
0.0
173
     0
291
     1
 45
0.0
1001
ACAD
1000
AcDbSavedByObjectVersion
1070
     0
  0
VISUALSTYLE
  5
31
102
{ACAD_REACTORS
330
2A
102
}
102
{ACAD_XDICTIONARY
360
273
102
}
330
2A
100
AcDbVisualStyle
  2
Hidden
 70
     6
 71
     1
 72
     2
 73
     2
 90
        0
 40
0.6
 41
30.0
 62
     5
 63
     7
 74
     2
 91
        2
 64
     7
 65
   257
 75
     2
175
     1
 42
40.0
 92
        0
 66
   257
 43
1.0
 76
     1
 77
     6
 78
     2
 67
     7
 79
     3
170
     0
171
     0
290
     0
174
     0
 93
        1
 44
0.0
173
     0
291
     0
 45
0.0
1001
ACAD
1000
AcDbSavedByObjectVersion
1070
     0
  0
VISUALSTYLE
  5
3B
102
{ACAD_REACTORS
330
2A
102
}
102
{ACAD_XDICTIONARY
360
287
102
}
330
2A
100
AcDbVisualStyle
  2
JitterOff
 70
    20
 71
     2
 72
     2
 73
     0
 90
        0
 40
0.6
 41
30.0
 62
     5
 63
     7
 74
     1
 91
        4
 64
     7
 65
   257
 75
     1
175
     1
 42
1.0
 92
       10
 66
     7
 43
1.0
 76
     1
 77
     6
 78
     2
 67
     7
 79
     5
170
     0
171
     0
290
     0
174
     0
 93
        1
 44
0.0
173
     0
291
     1
 45
0.0
1001
ACAD
1000
AcDbSavedByObjectVersion
1070
     0
  0
VISUALSTYLE
  5
38
102
{ACAD_REACTORS
330
2A
102
}
102
{ACAD_XDICTIONARY
360
281
102
}
330
2A
100
AcDbVisualStyle
  2
Linepattern
 70
    14
 71
     2
 72
     2
 73
     0
 90
        0
 40
0.6
 41
30.0
 62
     5
 63
     7
 74
     1
 91
        4
 64
     7
 65
   257
 75
     7
175
     7
 42
1.0
 92
        8
 66
     7
 43
1.0
 76
     1
 77
     6
 78
     2
 67
     7
 79
     5
170
     0
171
     0
290
     0
174
     0
 93
        1
 44
0.0
173
     0
291
     1
 45
0.0
1001
ACAD
1000
AcDbSavedByObjectVersion
1070
     0
  0
VISUALSTYLE
  5
3C
102
{ACAD_REACTORS
330
2A
102
}
102
{ACAD_XDICTIONARY
360
289
102
}
330
2A
100
AcDbVisualStyle
  2
OverhangOff
 70
    21
 71
     2
 72
     2
 73
     0
 90
        0
 40
0.6
 41
30.0
 62
     5
 63
     7
 74
     1
 91
        4
 64
     7
 65
   257
 75
     1
175
     1
 42
1.0
 92
        9
 66
     7
 43
1.0
 76
     1
 77
     6
 78
     2
 67
     7
 79
     5
170
     0
171
     0
290
     0
174
     0
 93
        1
 44
0.0
173
     0
291
     1
 45
0.0
1001
ACAD
1000
AcDbSavedByObjectVersion
1070
     0
  0
VISUALSTYLE
  5
33
102
{ACAD_REACTORS
330
2A
102
}
102
{ACAD_XDICTIONARY
360
277
102
}
330
2A
100
AcDbVisualStyle
  2
Realistic
 70
     8
 71
     2
 72
     3
 73
     0
 90
        2
 40
0.6
 41
30.0
 62
     5
 63
     7
 74
     0
 91
        0
 64
     7
 65
   257
 75
     1
175
     1
 42
1.0
 92
        8
 66
   257
 43
1.0
 76
     1
 77
     6
 78
     2
 67
     7
 79
     3
170
     0
171
     0
290
     0
174
     0
 93
       13
 44
0.0
173
     0
291
     0
 45
0.0
1001
ACAD
1000
AcDbSavedByObjectVersion
1070
     0
  0
VISUALSTYLE
  5
42
102
{ACAD_REACTORS
330
2A
102
}
102
{ACAD_XDICTIONARY
360
295
102
}
330
2A
100
AcDbVisualStyle
  2
Shaded
 70
    27
 71
     2
 72
     2
 73
     1
 90
        2
 40
0.6
 41
30.0
 62
     5
 63
     7
 74
     0
 91
        4
 64
     7
 65
   257
 75
     1
175
     1
 42
1.0
 92
        8
 66
   257
 43
1.0
 76
     1
 77
     6
 78
     2
 67
     8
 79
     3
170
     0
171
     0
290
     0
174
     0
 93
        5
 44
0.0
173
     0
291
     0
 45
0.0
1001
ACAD
1000
AcDbSavedByObjectVersion
1070
     0
  0
VISUALSTYLE
  5
41
102
{ACAD_REACTORS
330
2A
102
}
102
{ACAD_XDICTIONARY
360
293
102
}
330
2A
100
AcDbVisualStyle
  2
Shaded with edges
 70
    26
 71
     2
 72
     2
 73
     1
 90
        2
 40
0.6
 41
30.0
 62
     5
 63
     7
 74
     1
 91
       10
 64
     7
 65
   257
 75
     2
175
     1
 42
1.0
 92
        8
 66
   257
 43
1.0
 76
     1
 77
     6
 78
     2
 67
     7
 79
     3
170
     0
171
     0
290
     0
174
     0
 93
        5
 44
0.0
173
     0
291
     0
 45
0.0
1001
ACAD
1000
AcDbSavedByObjectVersion
1070
     0
  0
VISUALSTYLE
  5
3E
102
{ACAD_REACTORS
330
2A
102
}
102
{ACAD_XDICTIONARY
360
28D
102
}
330
2A
100
AcDbVisualStyle
  2
Shades of Gray
 70
    23
 71
     2
 72
     2
 73
     3
 90
        0
 40
0.6
 41
30.0
 62
     5
 63
     7
 74
     2
 91
        2
 64
     7
 65
     7
 75
     1
175
     1
 42
40.0
 92
        8
 66
     7
 43
1.0
 76
     1
 77
     6
 78
     2
 67
     7
 79
     3
170
     0
171
     0
290
     0
174
     0
 93
        1
 44
0.0
173
     0
291
     0
 45
0.0
1001
ACAD
1000
AcDbSavedByObjectVersion
1070
     0
  0
VISUALSTYLE
  5
3F
102
{ACAD_REACTORS
330
2A
102
}
102
{ACAD_XDICTIONARY
360
28F
102
}
330
2A
100
AcDbVisualStyle
  2
Sketchy
 70
    24
 71
     1
 72
     2
 73
     2
 90
        0
 40
0.6
 41
30.0
 62
     5
 63
     7
 74
     2
 91
        2
 64
     7
 65
     7
 75
     1
175
     1
 42
40.0
 92
       11
 66
     7
 43
1.0
 76
     1
 77
     6
 78
     2
 67
     7
 79
     6
170
     0
171
     0
290
     0
174
     0
 93
        1
 44
0.0
173
     0
291
     0
 45
0.0
1001
ACAD
1000
AcDbSavedByObjectVersion
1070
     0
  0
VISUALSTYLE
  5
37
102
{ACAD_REACTORS
330
2A
102
}
102
{ACAD_XDICTIONARY
360
27F
102
}
330
2A
100
AcDbVisualStyle
  2
Thicken
 70
    13
 71
     2
 72
     2
 73
     0
 90
        0
 40
0.6
 41
30.0
 62
     5
 63
     7
 74
     1
 91
        4
 64
     7
 65
   257
 75
     1
175
     1
 42
1.0
 92
       12
 66
     7
 43
1.0
 76
     1
 77
     6
 78
     2
 67
     7
 79
     5
170
     0
171
     0
290
     0
174
     0
 93
        1
 44
0.0
173
     0
291
     1
 45
0.0
1001
ACAD
1000
AcDbSavedByObjectVersion
1070
     0
  0
VISUALSTYLE
  5
30
102
{ACAD_REACTORS
330
2A
102
}
102
{ACAD_XDICTIONARY
360
271
102
}
330
2A
100
AcDbVisualStyle
  2
Wireframe
 70
     5
 71
     0
 72
     2
 73
     0
 90
        0
 40
0.6
 41
30.0
 62
     5
 63
     7
 74
     1
 91
        4
 64
     7
 65
   257
 75
     1
175
     1
 42
1.0
 92
        0
 66
   257
 43
1.0
 76
     1
 77
     6
 78
     2
 67
     7
 79
     3
170
     0
171
     0
290
     0
174
     0
 93
        1
 44
0.0
173
     0
291
     0
 45
0.0
1001
ACAD
1000
AcDbSavedByObjectVersion
1070
     0
  0
VISUALSTYLE
  5
40
102
{ACAD_REACTORS
330
2A
102
}
102
{ACAD_XDICTIONARY
360
291
102
}
330
2A
100
AcDbVisualStyle
  2
X-Ray
 70
    25
 71
     2
 72
     2
 73
     1
 90
        1
 40
0.5
 41
30.0
 62
     5
 63
     7
 74
     1
 91
        0
 64
     7
 65
   257
 75
     1
175
     1
 42
1.0
 92
        8
 66
     7
 43
1.0
 76
     1
 77
     6
 78
     2
 67
     7
 79
     3
170
     0
171
     0
290
     0
174
     0
 93
       13
 44
0.0
173
     0
291
     0
 45
0.0
1001
ACAD
1000
AcDbSavedByObjectVersion
1070
     0
  0
DICTIONARYVAR
  5
265
102
{ACAD_REACTORS
330
258
102
}
330
258
100
DictionaryVariables
280
     0
  1
1:1
  0
DICTIONARYVAR
  5
25F
102
{ACAD_REACTORS
330
258
102
}
330
258
100
DictionaryVariables
280
     0
  1
3.500000
  0
DICTIONARYVAR
  5
260
102
{ACAD_REACTORS
330
258
102
}
330
258
100
DictionaryVariables
280
     0
  1
acadiso.lin
  0
DICTIONARYVAR
  5
25A
102
{ACAD_REACTORS
330
258
102
}
330
258
100
DictionaryVariables
280
     0
  1
Standard
  0
DICTIONARYVAR
  5
259
102
{ACAD_REACTORS
330
258
102
}
330
258
100
DictionaryVariables
280
     0
  1
Standard
  0
DICTIONARYVAR
  5
261
102
{ACAD_REACTORS
330
258
102
}
330
258
100
DictionaryVariables
280
     0
  1
2
  0
DICTIONARYVAR
  5
262
102
{ACAD_REACTORS
330
258
102
}
330
258
100
DictionaryVariables
280
     0
  1
1
  0
DICTIONARYVAR
  5
266
102
{ACAD_REACTORS
330
258
102
}
330
258
100
DictionaryVariables
280
     0
  1
1
  0
DICTIONARYVAR
  5
25C
102
{ACAD_REACTORS
330
258
102
}
330
258
100
DictionaryVariables
280
     0
  1
80.000000
  0
DICTIONARYVAR
  5
25B
102
{ACAD_REACTORS
330
258
102
}
330
258
100
DictionaryVariables
280
     0
  1
5.000000
  0
DICTIONARY
  5
299
330
45
100
AcDbDictionary
280
     1
281
     1
  3
ACAD_XREC_ROUNDTRIP
360
29A
  0
DICTIONARY
  5
297
330
44
100
AcDbDictionary
280
     1
281
     1
  3
ACAD_XREC_ROUNDTRIP
360
298
  0
DICTIONARY
  5
29B
330
46
100
AcDbDictionary
280
     1
281
     1
  3
ACAD_XREC_ROUNDTRIP
360
29C
  0
DICTIONARY
  5
29E
330
6C
100
AcDbDictionary
280
     1
281
     1
  3
ACAD_XREC_ROUNDTRIP
360
29F
  0
DICTIONARY
  5
26F
330
2F
100
AcDbDictionary
280
     1
281
     1
  3
ACAD_XREC_ROUNDTRIP
360
270
  0
DICTIONARY
  5
275
330
32
100
AcDbDictionary
280
     1
281
     1
  3
ACAD_XREC_ROUNDTRIP
360
276
  0
DICTIONARY
  5
27D
330
36
100
AcDbDictionary
280
     1
281
     1
  3
ACAD_XREC_ROUNDTRIP
360
27E
  0
DICTIONARY
  5
285
330
3A
100
AcDbDictionary
280
     1
281
     1
  3
ACAD_XREC_ROUNDTRIP
360
286
  0
DICTIONARY
  5
279
330
34
100
AcDbDictionary
280
     1
281
     1
  3
ACAD_XREC_ROUNDTRIP
360
27A
  0
DICTIONARY
  5
27B
330
35
100
AcDbDictionary
280
     1
281
     1
  3
ACAD_XREC_ROUNDTRIP
360
27C
  0
DICTIONARY
  5
28B
330
3D
100
AcDbDictionary
280
     1
281
     1
  3
ACAD_XREC_ROUNDTRIP
360
28C
  0
DICTIONARY
  5
283
330
39
100
AcDbDictionary
280
     1
281
     1
  3
ACAD_XREC_ROUNDTRIP
360
284
  0
DICTIONARY
  5
267
330
2B
100
AcDbDictionary
280
     1
281
     1
  3
ACAD_XREC_ROUNDTRIP
360
268
  0
DICTIONARY
  5
269
330
2C
100
AcDbDictionary
280
     1
281
     1
  3
ACAD_XREC_ROUNDTRIP
360
26A
  0
DICTIONARY
  5
26B
330
2D
100
AcDbDictionary
280
     1
281
     1
  3
ACAD_XREC_ROUNDTRIP
360
26C
  0
DICTIONARY
  5
26D
330
2E
100
AcDbDictionary
280
     1
281
     1
  3
ACAD_XREC_ROUNDTRIP
360
26E
  0
DICTIONARY
  5
273
330
31
100
AcDbDictionary
280
     1
281
     1
  3
ACAD_XREC_ROUNDTRIP
360
274
  0
DICTIONARY
  5
287
330
3B
100
AcDbDictionary
280
     1
281
     1
  3
ACAD_XREC_ROUNDTRIP
360
288
  0
DICTIONARY
  5
281
330
38
100
AcDbDictionary
280
     1
281
     1
  3
ACAD_XREC_ROUNDTRIP
360
282
  0
DICTIONARY
  5
289
330
3C
100
AcDbDictionary
280
     1
281
     1
  3
ACAD_XREC_ROUNDTRIP
360
28A
  0
DICTIONARY
  5
277
330
33
100
AcDbDictionary
280
     1
281
     1
  3
ACAD_XREC_ROUNDTRIP
360
278
  0
DICTIONARY
  5
295
330
42
100
AcDbDictionary
280
     1
281
     1
  3
ACAD_XREC_ROUNDTRIP
360
296
  0
DICTIONARY
  5
293
330
41
100
AcDbDictionary
280
     1
281
     1
  3
ACAD_XREC_ROUNDTRIP
360
294
  0
DICTIONARY
  5
28D
330
3E
100
AcDbDictionary
280
     1
281
     1
  3
ACAD_XREC_ROUNDTRIP
360
28E
  0
DICTIONARY
  5
28F
330
3F
100
AcDbDictionary
280
     1
281
     1
  3
ACAD_XREC_ROUNDTRIP
360
290
  0
DICTIONARY
  5
27F
330
37
100
AcDbDictionary
280
     1
281
     1
  3
ACAD_XREC_ROUNDTRIP
360
280
  0
DICTIONARY
  5
271
330
30
100
AcDbDictionary
280
     1
281
     1
  3
ACAD_XREC_ROUNDTRIP
360
272
  0
DICTIONARY
  5
291
330
40
100
AcDbDictionary
280
     1
281
     1
  3
ACAD_XREC_ROUNDTRIP
360
292
  0
XRECORD
  5
29A
102
{ACAD_REACTORS
330
299
102
}
330
299
100
AcDbXrecord
280
     1
102
MATERIAL
148
0.0
149
0.0
149
0.0
 93
        0
 94
      127
282
     0
 72
     1
 77
     1
171
     1
175
     1
179
     1
273
     0
  0
XRECORD
  5
298
102
{ACAD_REACTORS
330
297
102
}
330
297
100
AcDbXrecord
280
     1
102
MATERIAL
148
0.0
149
0.0
149
0.0
 93
        0
 94
      127
282
     0
 72
     1
 77
     1
171
     1
175
     1
179
     1
273
     0
  0
XRECORD
  5
29C
102
{ACAD_REACTORS
330
29B
102
}
330
29B
100
AcDbXrecord
280
     1
102
MATERIAL
148
0.0
149
0.0
149
0.0
 93
        0
 94
      127
282
     0
 72
     1
 77
     1
171
     1
175
     1
179
     1
273
     0
  0
XRECORD
  5
29F
102
{ACAD_REACTORS
330
29E
102
}
330
29E
100
AcDbXrecord
280
     1
102
ACAD_ROUNDTRIP_2010_MLEADER_STYLE
  0
XRECORD
  5
270
102
{ACAD_REACTORS
330
26F
102
}
330
26F
100
AcDbXrecord
280
     1
102
RTVSPropertyOp0
 70
     1
102
RTVSPropertyOp1
 70
     1
102
RTVSPropertyOp2
 70
     1
102
RTVSPropertyOp3
 70
     1
102
RTVSPropertyOp4
 70
     1
102
RTVSPropertyOp5
 70
     1
102
RTVSPropertyOp6
 70
     1
102
RTVSPropertyOp7
 70
     1
102
RTVSPropertyOp8
 70
     1
102
RTVSPropertyOp9
 70
     1
102
RTVSPropertyOp10
 70
     1
102
RTVSPropertyOp11
 70
     1
102
RTVSPropertyOp12
 70
     1
102
RTVSPropertyOp13
 70
     1
102
RTVSPropertyOp14
 70
     1
102
RTVSPropertyOp15
 70
     1
102
RTVSPropertyOp16
 70
     1
102
RTVSPropertyOp17
 70
     1
102
RTVSPropertyOp18
 70
     1
102
RTVSPropertyOp19
 70
     1
102
RTVSPropertyOp20
 70
     1
102
RTVSPropertyOp21
 70
     1
102
RTVSPropertyOp22
 70
     1
102
RTVSPropertyOp23
 70
     1
102
RTVSPropertyOp24
 70
     1
102
RTVSPropertyOp25
 70
     1
102
RTVSPropertyOp26
 70
     1
102
RTVSPropertyOp27
 70
     1
102
RTVSPropertyOp28
 70
     1
102
RTVSPropertyOp29
 70
     1
102
RTVSPropertyOp30
 70
     1
102
RTVSPropertyOp31
 70
     1
102
RTVSPropertyOp32
 70
     1
102
RTVSPropertyOp33
 70
     1
102
RTVSPropertyOp34
 70
     1
102
RTVSPropertyOp35
 70
     1
102
RTVSPropertyOp36
 70
     1
102
RTVSPropertyOp37
 70
     1
102
RTVSPropertyOp38
 70
     1
102
RTVSPropertyOp39
 70
     1
102
RTVSPropertyOp40
 70
     1
102
RTVSPropertyOp41
 70
     1
102
RTVSPropertyOp42
 70
     1
102
RTVSPropertyOp43
 70
     1
102
RTVSPropertyOp44
 70
     1
102
RTVSPropertyOp45
 70
     1
102
RTVSPropertyOp46
 70
     1
102
RTVSPropertyOp47
 70
     1
102
RTVSPropertyOp48
 70
     1
102
RTVSPropertyOp49
 70
     1
102
RTVSPropertyOp50
 70
     1
102
RTVSPropertyOp51
 70
     0
102
RTVSPropertyOp52
 70
     0
102
RTVSPropertyOp53
 70
     1
102
RTVSPropertyOp54
 70
     1
102
RTVSPropertyOp55
 70
     1
102
RTVSPropertyOp56
 70
     1
102
RTVSPropertyOp57
 70
     1
102
RTVSPost2010Prop28
280
     1
102
RTVSPost2010PropOp28
 70
     1
102
RTVSPost2010Prop29
280
     1
102
RTVSPost2010PropOp29
 70
     1
102
RTVSPost2010Prop30
280
     0
102
RTVSPost2010PropOp30
 70
     1
102
RTVSPost2010Prop31
280
     0
102
RTVSPost2010PropOp31
 70
     1
102
RTVSPost2010Prop32
280
     0
102
RTVSPost2010PropOp32
 70
     1
102
RTVSPost2010Prop33
280
     0
102
RTVSPost2010PropOp33
 70
     1
102
RTVSPost2010Prop34
280
     0
102
RTVSPost2010PropOp34
 70
     1
102
RTVSPost2010Prop35
280
     0
102
RTVSPost2010PropOp35
 70
     1
102
RTVSPost2010Prop36
280
     0
102
RTVSPost2010PropOp36
 70
     1
102
RTVSPost2010Prop37
 90
       50
102
RTVSPost2010PropOp37
 70
     1
102
RTVSPost2010Prop38
140
0.0
102
RTVSPost2010PropOp38
 70
     1
102
RTVSPost2010Prop39
140
1.0
102
RTVSPost2010PropOp39
 70
     1
102
RTVSPost2010Prop40
 90
        0
102
RTVSPost2010PropOp40
 70
     1
102
RTVSPost2010Prop41ColorIndex
 90
       18
102
RTVSPost2010Prop41ColorRGB
 90
        0
102
RTVSPost2010PropOp41
 70
     1
102
RTVSPost2010Prop42
 90
       50
102
RTVSPost2010PropOp42
 70
     1
102
RTVSPost2010Prop43
 90
        3
102
RTVSPost2010PropOp43
 70
     1
102
RTVSPost2010Prop44ColorIndex
 90
        5
102
RTVSPost2010Prop44ColorRGB
 90
      255
102
RTVSPost2010PropOp44
 70
     1
102
RTVSPost2010Prop45
280
     0
102
RTVSPost2010PropOp45
 70
     1
102
RTVSPost2010Prop46
 90
       50
102
RTVSPost2010PropOp46
 70
     1
102
RTVSPost2010Prop47
 90
       50
102
RTVSPost2010PropOp47
 70
     1
102
RTVSPost2010Prop48
 90
       50
102
RTVSPost2010PropOp48
 70
     1
102
RTVSPost2010Prop49
280
     0
102
RTVSPost2010PropOp49
 70
     1
102
RTVSPost2010Prop50
 90
       50
102
RTVSPost2010PropOp50
 70
     1
102
RTVSPost2010Prop51ColorIndex
 90
      256
102
RTVSPost2010Prop51ColorRGB
 90
-16777216
102
RTVSPost2010PropOp51
 70
     0
102
RTVSPost2010Prop52
140
1.0
102
RTVSPost2010PropOp52
 70
     0
102
RTVSPost2010Prop53
 90
        2
102
RTVSPost2010PropOp53
 70
     1
102
RTVSPost2010Prop54
  1
strokes_ogs.tif
102
RTVSPost2010PropOp54
 70
     1
102
RTVSPost2010Prop55
280
     0
102
RTVSPost2010PropOp55
 70
     1
102
RTVSPost2010Prop56
140
1.0
102
RTVSPost2010PropOp56
 70
     1
102
RTVSPost2010Prop57
140
1.0
102
RTVSPost2010PropOp57
 70
     1
  0
XRECORD
  5
276
102
{ACAD_REACTORS
330
275
102
}
330
275
100
AcDbXrecord
280
     1
102
RTVSPropertyOp0
 70
     1
102
RTVSPropertyOp1
 70
     1
102
RTVSPropertyOp2
 70
     1
102
RTVSPropertyOp3
 70
     1
102
RTVSPropertyOp4
 70
     1
102
RTVSPropertyOp5
 70
     1
102
RTVSPropertyOp6
 70
     1
102
RTVSPropertyOp7
 70
     1
102
RTVSPropertyOp8
 70
     1
102
RTVSPropertyOp9
 70
     1
102
RTVSPropertyOp10
 70
     1
102
RTVSPropertyOp11
 70
     1
102
RTVSPropertyOp12
 70
     1
102
RTVSPropertyOp13
 70
     1
102
RTVSPropertyOp14
 70
     1
102
RTVSPropertyOp15
 70
     1
102
RTVSPropertyOp16
 70
     1
102
RTVSPropertyOp17
 70
     1
102
RTVSPropertyOp18
 70
     1
102
RTVSPropertyOp19
 70
     1
102
RTVSPropertyOp20
 70
     1
102
RTVSPropertyOp21
 70
     1
102
RTVSPropertyOp22
 70
     1
102
RTVSPropertyOp23
 70
     1
102
RTVSPropertyOp24
 70
     1
102
RTVSPropertyOp25
 70
     1
102
RTVSPropertyOp26
 70
     1
102
RTVSPropertyOp27
 70
     1
102
RTVSPropertyOp28
 70
     1
102
RTVSPropertyOp29
 70
     1
102
RTVSPropertyOp30
 70
     1
102
RTVSPropertyOp31
 70
     1
102
RTVSPropertyOp32
 70
     1
102
RTVSPropertyOp33
 70
     1
102
RTVSPropertyOp34
 70
     1
102
RTVSPropertyOp35
 70
     1
102
RTVSPropertyOp36
 70
     1
102
RTVSPropertyOp37
 70
     1
102
RTVSPropertyOp38
 70
     1
102
RTVSPropertyOp39
 70
     1
102
RTVSPropertyOp40
 70
     1
102
RTVSPropertyOp41
 70
     1
102
RTVSPropertyOp42
 70
     1
102
RTVSPropertyOp43
 70
     1
102
RTVSPropertyOp44
 70
     1
102
RTVSPropertyOp45
 70
     1
102
RTVSPropertyOp46
 70
     1
102
RTVSPropertyOp47
 70
     1
102
RTVSPropertyOp48
 70
     1
102
RTVSPropertyOp49
 70
     1
102
RTVSPropertyOp50
 70
     1
102
RTVSPropertyOp51
 70
     0
102
RTVSPropertyOp52
 70
     0
102
RTVSPropertyOp53
 70
     1
102
RTVSPropertyOp54
 70
     1
102
RTVSPropertyOp55
 70
     1
102
RTVSPropertyOp56
 70
     1
102
RTVSPropertyOp57
 70
     1
102
RTVSPost2010Prop28
280
     0
102
RTVSPost2010PropOp28
 70
     1
102
RTVSPost2010Prop29
280
     1
102
RTVSPost2010PropOp29
 70
     1
102
RTVSPost2010Prop30
280
     1
102
RTVSPost2010PropOp30
 70
     1
102
RTVSPost2010Prop31
280
     0
102
RTVSPost2010PropOp31
 70
     1
102
RTVSPost2010Prop32
280
     0
102
RTVSPost2010PropOp32
 70
     1
102
RTVSPost2010Prop33
280
     0
102
RTVSPost2010PropOp33
 70
     1
102
RTVSPost2010Prop34
280
     0
102
RTVSPost2010PropOp34
 70
     1
102
RTVSPost2010Prop35
280
     0
102
RTVSPost2010PropOp35
 70
     1
102
RTVSPost2010Prop36
280
     0
102
RTVSPost2010PropOp36
 70
     1
102
RTVSPost2010Prop37
 90
       50
102
RTVSPost2010PropOp37
 70
     1
102
RTVSPost2010Prop38
140
0.0
102
RTVSPost2010PropOp38
 70
     1
102
RTVSPost2010Prop39
140
1.0
102
RTVSPost2010PropOp39
 70
     1
102
RTVSPost2010Prop40
 90
        0
102
RTVSPost2010PropOp40
 70
     1
102
RTVSPost2010Prop41ColorIndex
 90
       18
102
RTVSPost2010Prop41ColorRGB
 90
        0
102
RTVSPost2010PropOp41
 70
     1
102
RTVSPost2010Prop42
 90
       50
102
RTVSPost2010PropOp42
 70
     1
102
RTVSPost2010Prop43
 90
        3
102
RTVSPost2010PropOp43
 70
     1
102
RTVSPost2010Prop44ColorIndex
 90
        5
102
RTVSPost2010Prop44ColorRGB
 90
      255
102
RTVSPost2010PropOp44
 70
     1
102
RTVSPost2010Prop45
280
     0
102
RTVSPost2010PropOp45
 70
     1
102
RTVSPost2010Prop46
 90
       50
102
RTVSPost2010PropOp46
 70
     1
102
RTVSPost2010Prop47
 90
       50
102
RTVSPost2010PropOp47
 70
     1
102
RTVSPost2010Prop48
 90
       50
102
RTVSPost2010PropOp48
 70
     1
102
RTVSPost2010Prop49
280
     0
102
RTVSPost2010PropOp49
 70
     1
102
RTVSPost2010Prop50
 90
       50
102
RTVSPost2010PropOp50
 70
     1
102
RTVSPost2010Prop51ColorIndex
 90
      256
102
RTVSPost2010Prop51ColorRGB
 90
-16777216
102
RTVSPost2010PropOp51
 70
     0
102
RTVSPost2010Prop52
140
1.0
102
RTVSPost2010PropOp52
 70
     0
102
RTVSPost2010Prop53
 90
        2
102
RTVSPost2010PropOp53
 70
     1
102
RTVSPost2010Prop54
  1
strokes_ogs.tif
102
RTVSPost2010PropOp54
 70
     1
102
RTVSPost2010Prop55
280
     0
102
RTVSPost2010PropOp55
 70
     1
102
RTVSPost2010Prop56
140
1.0
102
RTVSPost2010PropOp56
 70
     1
102
RTVSPost2010Prop57
140
1.0
102
RTVSPost2010PropOp57
 70
     1
  0
XRECORD
  5
27E
102
{ACAD_REACTORS
330
27D
102
}
330
27D
100
AcDbXrecord
280
     1
102
RTVSPropertyOp0
 70
     1
102
RTVSPropertyOp1
 70
     1
102
RTVSPropertyOp2
 70
     1
102
RTVSPropertyOp3
 70
     1
102
RTVSPropertyOp4
 70
     1
102
RTVSPropertyOp5
 70
     1
102
RTVSPropertyOp6
 70
     1
102
RTVSPropertyOp7
 70
     1
102
RTVSPropertyOp8
 70
     1
102
RTVSPropertyOp9
 70
     1
102
RTVSPropertyOp10
 70
     1
102
RTVSPropertyOp11
 70
     1
102
RTVSPropertyOp12
 70
     1
102
RTVSPropertyOp13
 70
     1
102
RTVSPropertyOp14
 70
     1
102
RTVSPropertyOp15
 70
     1
102
RTVSPropertyOp16
 70
     1
102
RTVSPropertyOp17
 70
     1
102
RTVSPropertyOp18
 70
     1
102
RTVSPropertyOp19
 70
     1
102
RTVSPropertyOp20
 70
     1
102
RTVSPropertyOp21
 70
     1
102
RTVSPropertyOp22
 70
     1
102
RTVSPropertyOp23
 70
     1
102
RTVSPropertyOp24
 70
     1
102
RTVSPropertyOp25
 70
     1
102
RTVSPropertyOp26
 70
     1
102
RTVSPropertyOp27
 70
     1
102
RTVSPropertyOp28
 70
     1
102
RTVSPropertyOp29
 70
     1
102
RTVSPropertyOp30
 70
     1
102
RTVSPropertyOp31
 70
     1
102
RTVSPropertyOp32
 70
     1
102
RTVSPropertyOp33
 70
     1
102
RTVSPropertyOp34
 70
     1
102
RTVSPropertyOp35
 70
     1
102
RTVSPropertyOp36
 70
     1
102
RTVSPropertyOp37
 70
     1
102
RTVSPropertyOp38
 70
     1
102
RTVSPropertyOp39
 70
     1
102
RTVSPropertyOp40
 70
     1
102
RTVSPropertyOp41
 70
     1
102
RTVSPropertyOp42
 70
     1
102
RTVSPropertyOp43
 70
     1
102
RTVSPropertyOp44
 70
     1
102
RTVSPropertyOp45
 70
     1
102
RTVSPropertyOp46
 70
     1
102
RTVSPropertyOp47
 70
     1
102
RTVSPropertyOp48
 70
     1
102
RTVSPropertyOp49
 70
     1
102
RTVSPropertyOp50
 70
     1
102
RTVSPropertyOp51
 70
     0
102
RTVSPropertyOp52
 70
     0
102
RTVSPropertyOp53
 70
     1
102
RTVSPropertyOp54
 70
     1
102
RTVSPropertyOp55
 70
     1
102
RTVSPropertyOp56
 70
     1
102
RTVSPropertyOp57
 70
     1
102
RTVSPost2010Prop28
280
     0
102
RTVSPost2010PropOp28
 70
     1
102
RTVSPost2010Prop29
280
     1
102
RTVSPost2010PropOp29
 70
     1
102
RTVSPost2010Prop30
280
     1
102
RTVSPost2010PropOp30
 70
     1
102
RTVSPost2010Prop31
280
     0
102
RTVSPost2010PropOp31
 70
     1
102
RTVSPost2010Prop32
280
     0
102
RTVSPost2010PropOp32
 70
     1
102
RTVSPost2010Prop33
280
     0
102
RTVSPost2010PropOp33
 70
     1
102
RTVSPost2010Prop34
280
     0
102
RTVSPost2010PropOp34
 70
     1
102
RTVSPost2010Prop35
280
     0
102
RTVSPost2010PropOp35
 70
     1
102
RTVSPost2010Prop36
280
     0
102
RTVSPost2010PropOp36
 70
     1
102
RTVSPost2010Prop37
 90
       50
102
RTVSPost2010PropOp37
 70
     1
102
RTVSPost2010Prop38
140
0.0
102
RTVSPost2010PropOp38
 70
     1
102
RTVSPost2010Prop39
140
1.0
102
RTVSPost2010PropOp39
 70
     1
102
RTVSPost2010Prop40
 90
        0
102
RTVSPost2010PropOp40
 70
     1
102
RTVSPost2010Prop41ColorIndex
 90
       18
102
RTVSPost2010Prop41ColorRGB
 90
        0
102
RTVSPost2010PropOp41
 70
     1
102
RTVSPost2010Prop42
 90
       50
102
RTVSPost2010PropOp42
 70
     1
102
RTVSPost2010Prop43
 90
        3
102
RTVSPost2010PropOp43
 70
     1
102
RTVSPost2010Prop44ColorIndex
 90
        5
102
RTVSPost2010Prop44ColorRGB
 90
      255
102
RTVSPost2010PropOp44
 70
     1
102
RTVSPost2010Prop45
280
     0
102
RTVSPost2010PropOp45
 70
     1
102
RTVSPost2010Prop46
 90
       50
102
RTVSPost2010PropOp46
 70
     1
102
RTVSPost2010Prop47
 90
       50
102
RTVSPost2010PropOp47
 70
     1
102
RTVSPost2010Prop48
 90
       50
102
RTVSPost2010PropOp48
 70
     1
102
RTVSPost2010Prop49
280
     0
102
RTVSPost2010PropOp49
 70
     1
102
RTVSPost2010Prop50
 90
       50
102
RTVSPost2010PropOp50
 70
     1
102
RTVSPost2010Prop51ColorIndex
 90
      256
102
RTVSPost2010Prop51ColorRGB
 90
-16777216
102
RTVSPost2010PropOp51
 70
     0
102
RTVSPost2010Prop52
140
1.0
102
RTVSPost2010PropOp52
 70
     0
102
RTVSPost2010Prop53
 90
        2
102
RTVSPost2010PropOp53
 70
     1
102
RTVSPost2010Prop54
  1
strokes_ogs.tif
102
RTVSPost2010PropOp54
 70
     1
102
RTVSPost2010Prop55
280
     0
102
RTVSPost2010PropOp55
 70
     1
102
RTVSPost2010Prop56
140
1.0
102
RTVSPost2010PropOp56
 70
     1
102
RTVSPost2010Prop57
140
1.0
102
RTVSPost2010PropOp57
 70
     1
  0
XRECORD
  5
286
102
{ACAD_REACTORS
330
285
102
}
330
285
100
AcDbXrecord
280
     1
102
RTVSPropertyOp0
 70
     1
102
RTVSPropertyOp1
 70
     1
102
RTVSPropertyOp2
 70
     1
102
RTVSPropertyOp3
 70
     1
102
RTVSPropertyOp4
 70
     1
102
RTVSPropertyOp5
 70
     1
102
RTVSPropertyOp6
 70
     1
102
RTVSPropertyOp7
 70
     1
102
RTVSPropertyOp8
 70
     1
102
RTVSPropertyOp9
 70
     1
102
RTVSPropertyOp10
 70
     1
102
RTVSPropertyOp11
 70
     1
102
RTVSPropertyOp12
 70
     1
102
RTVSPropertyOp13
 70
     1
102
RTVSPropertyOp14
 70
     1
102
RTVSPropertyOp15
 70
     1
102
RTVSPropertyOp16
 70
     1
102
RTVSPropertyOp17
 70
     1
102
RTVSPropertyOp18
 70
     1
102
RTVSPropertyOp19
 70
     1
102
RTVSPropertyOp20
 70
     1
102
RTVSPropertyOp21
 70
     1
102
RTVSPropertyOp22
 70
     1
102
RTVSPropertyOp23
 70
     1
102
RTVSPropertyOp24
 70
     1
102
RTVSPropertyOp25
 70
     1
102
RTVSPropertyOp26
 70
     1
102
RTVSPropertyOp27
 70
     1
102
RTVSPropertyOp28
 70
     1
102
RTVSPropertyOp29
 70
     1
102
RTVSPropertyOp30
 70
     1
102
RTVSPropertyOp31
 70
     1
102
RTVSPropertyOp32
 70
     1
102
RTVSPropertyOp33
 70
     1
102
RTVSPropertyOp34
 70
     1
102
RTVSPropertyOp35
 70
     1
102
RTVSPropertyOp36
 70
     1
102
RTVSPropertyOp37
 70
     1
102
RTVSPropertyOp38
 70
     1
102
RTVSPropertyOp39
 70
     1
102
RTVSPropertyOp40
 70
     1
102
RTVSPropertyOp41
 70
     1
102
RTVSPropertyOp42
 70
     1
102
RTVSPropertyOp43
 70
     1
102
RTVSPropertyOp44
 70
     1
102
RTVSPropertyOp45
 70
     1
102
RTVSPropertyOp46
 70
     1
102
RTVSPropertyOp47
 70
     1
102
RTVSPropertyOp48
 70
     1
102
RTVSPropertyOp49
 70
     1
102
RTVSPropertyOp50
 70
     1
102
RTVSPropertyOp51
 70
     0
102
RTVSPropertyOp52
 70
     0
102
RTVSPropertyOp53
 70
     1
102
RTVSPropertyOp54
 70
     1
102
RTVSPropertyOp55
 70
     1
102
RTVSPropertyOp56
 70
     1
102
RTVSPropertyOp57
 70
     1
102
RTVSPost2010Prop28
280
     0
102
RTVSPost2010PropOp28
 70
     1
102
RTVSPost2010Prop29
280
     1
102
RTVSPost2010PropOp29
 70
     1
102
RTVSPost2010Prop30
280
     1
102
RTVSPost2010PropOp30
 70
     1
102
RTVSPost2010Prop31
280
     0
102
RTVSPost2010PropOp31
 70
     1
102
RTVSPost2010Prop32
280
     0
102
RTVSPost2010PropOp32
 70
     1
102
RTVSPost2010Prop33
280
     0
102
RTVSPost2010PropOp33
 70
     1
102
RTVSPost2010Prop34
280
     0
102
RTVSPost2010PropOp34
 70
     1
102
RTVSPost2010Prop35
280
     0
102
RTVSPost2010PropOp35
 70
     1
102
RTVSPost2010Prop36
280
     0
102
RTVSPost2010PropOp36
 70
     1
102
RTVSPost2010Prop37
 90
       50
102
RTVSPost2010PropOp37
 70
     1
102
RTVSPost2010Prop38
140
0.0
102
RTVSPost2010PropOp38
 70
     1
102
RTVSPost2010Prop39
140
1.0
102
RTVSPost2010PropOp39
 70
     1
102
RTVSPost2010Prop40
 90
        0
102
RTVSPost2010PropOp40
 70
     1
102
RTVSPost2010Prop41ColorIndex
 90
       18
102
RTVSPost2010Prop41ColorRGB
 90
        0
102
RTVSPost2010PropOp41
 70
     1
102
RTVSPost2010Prop42
 90
       50
102
RTVSPost2010PropOp42
 70
     1
102
RTVSPost2010Prop43
 90
        3
102
RTVSPost2010PropOp43
 70
     1
102
RTVSPost2010Prop44ColorIndex
 90
        5
102
RTVSPost2010Prop44ColorRGB
 90
      255
102
RTVSPost2010PropOp44
 70
     1
102
RTVSPost2010Prop45
280
     0
102
RTVSPost2010PropOp45
 70
     1
102
RTVSPost2010Prop46
 90
       50
102
RTVSPost2010PropOp46
 70
     1
102
RTVSPost2010Prop47
 90
       50
102
RTVSPost2010PropOp47
 70
     1
102
RTVSPost2010Prop48
 90
       50
102
RTVSPost2010PropOp48
 70
     1
102
RTVSPost2010Prop49
280
     0
102
RTVSPost2010PropOp49
 70
     1
102
RTVSPost2010Prop50
 90
       50
102
RTVSPost2010PropOp50
 70
     1
102
RTVSPost2010Prop51ColorIndex
 90
      256
102
RTVSPost2010Prop51ColorRGB
 90
-16777216
102
RTVSPost2010PropOp51
 70
     0
102
RTVSPost2010Prop52
140
1.0
102
RTVSPost2010PropOp52
 70
     0
102
RTVSPost2010Prop53
 90
        2
102
RTVSPost2010PropOp53
 70
     1
102
RTVSPost2010Prop54
  1
strokes_ogs.tif
102
RTVSPost2010PropOp54
 70
     1
102
RTVSPost2010Prop55
280
     0
102
RTVSPost2010PropOp55
 70
     1
102
RTVSPost2010Prop56
140
1.0
102
RTVSPost2010PropOp56
 70
     1
102
RTVSPost2010Prop57
140
1.0
102
RTVSPost2010PropOp57
 70
     1
  0
XRECORD
  5
27A
102
{ACAD_REACTORS
330
279
102
}
330
279
100
AcDbXrecord
280
     1
102
RTVSPropertyOp0
 70
     1
102
RTVSPropertyOp1
 70
     1
102
RTVSPropertyOp2
 70
     1
102
RTVSPropertyOp3
 70
     1
102
RTVSPropertyOp4
 70
     1
102
RTVSPropertyOp5
 70
     1
102
RTVSPropertyOp6
 70
     1
102
RTVSPropertyOp7
 70
     1
102
RTVSPropertyOp8
 70
     1
102
RTVSPropertyOp9
 70
     1
102
RTVSPropertyOp10
 70
     1
102
RTVSPropertyOp11
 70
     1
102
RTVSPropertyOp12
 70
     1
102
RTVSPropertyOp13
 70
     1
102
RTVSPropertyOp14
 70
     1
102
RTVSPropertyOp15
 70
     1
102
RTVSPropertyOp16
 70
     1
102
RTVSPropertyOp17
 70
     1
102
RTVSPropertyOp18
 70
     1
102
RTVSPropertyOp19
 70
     1
102
RTVSPropertyOp20
 70
     1
102
RTVSPropertyOp21
 70
     1
102
RTVSPropertyOp22
 70
     1
102
RTVSPropertyOp23
 70
     1
102
RTVSPropertyOp24
 70
     1
102
RTVSPropertyOp25
 70
     1
102
RTVSPropertyOp26
 70
     1
102
RTVSPropertyOp27
 70
     1
102
RTVSPropertyOp28
 70
     1
102
RTVSPropertyOp29
 70
     1
102
RTVSPropertyOp30
 70
     1
102
RTVSPropertyOp31
 70
     1
102
RTVSPropertyOp32
 70
     1
102
RTVSPropertyOp33
 70
     1
102
RTVSPropertyOp34
 70
     1
102
RTVSPropertyOp35
 70
     1
102
RTVSPropertyOp36
 70
     1
102
RTVSPropertyOp37
 70
     1
102
RTVSPropertyOp38
 70
     1
102
RTVSPropertyOp39
 70
     1
102
RTVSPropertyOp40
 70
     1
102
RTVSPropertyOp41
 70
     1
102
RTVSPropertyOp42
 70
     1
102
RTVSPropertyOp43
 70
     1
102
RTVSPropertyOp44
 70
     1
102
RTVSPropertyOp45
 70
     1
102
RTVSPropertyOp46
 70
     1
102
RTVSPropertyOp47
 70
     1
102
RTVSPropertyOp48
 70
     1
102
RTVSPropertyOp49
 70
     1
102
RTVSPropertyOp50
 70
     1
102
RTVSPropertyOp51
 70
     0
102
RTVSPropertyOp52
 70
     0
102
RTVSPropertyOp53
 70
     1
102
RTVSPropertyOp54
 70
     1
102
RTVSPropertyOp55
 70
     1
102
RTVSPropertyOp56
 70
     1
102
RTVSPropertyOp57
 70
     1
102
RTVSPost2010Prop28
280
     0
102
RTVSPost2010PropOp28
 70
     1
102
RTVSPost2010Prop29
280
     1
102
RTVSPost2010PropOp29
 70
     1
102
RTVSPost2010Prop30
280
     1
102
RTVSPost2010PropOp30
 70
     1
102
RTVSPost2010Prop31
280
     0
102
RTVSPost2010PropOp31
 70
     1
102
RTVSPost2010Prop32
280
     0
102
RTVSPost2010PropOp32
 70
     1
102
RTVSPost2010Prop33
280
     0
102
RTVSPost2010PropOp33
 70
     1
102
RTVSPost2010Prop34
280
     0
102
RTVSPost2010PropOp34
 70
     1
102
RTVSPost2010Prop35
280
     0
102
RTVSPost2010PropOp35
 70
     1
102
RTVSPost2010Prop36
280
     0
102
RTVSPost2010PropOp36
 70
     1
102
RTVSPost2010Prop37
 90
       50
102
RTVSPost2010PropOp37
 70
     1
102
RTVSPost2010Prop38
140
0.0
102
RTVSPost2010PropOp38
 70
     1
102
RTVSPost2010Prop39
140
1.0
102
RTVSPost2010PropOp39
 70
     1
102
RTVSPost2010Prop40
 90
        0
102
RTVSPost2010PropOp40
 70
     1
102
RTVSPost2010Prop41ColorIndex
 90
       18
102
RTVSPost2010Prop41ColorRGB
 90
        0
102
RTVSPost2010PropOp41
 70
     1
102
RTVSPost2010Prop42
 90
       50
102
RTVSPost2010PropOp42
 70
     1
102
RTVSPost2010Prop43
 90
        3
102
RTVSPost2010PropOp43
 70
     1
102
RTVSPost2010Prop44ColorIndex
 90
        5
102
RTVSPost2010Prop44ColorRGB
 90
      255
102
RTVSPost2010PropOp44
 70
     1
102
RTVSPost2010Prop45
280
     0
102
RTVSPost2010PropOp45
 70
     1
102
RTVSPost2010Prop46
 90
       50
102
RTVSPost2010PropOp46
 70
     1
102
RTVSPost2010Prop47
 90
       50
102
RTVSPost2010PropOp47
 70
     1
102
RTVSPost2010Prop48
 90
       50
102
RTVSPost2010PropOp48
 70
     1
102
RTVSPost2010Prop49
280
     0
102
RTVSPost2010PropOp49
 70
     1
102
RTVSPost2010Prop50
 90
       50
102
RTVSPost2010PropOp50
 70
     1
102
RTVSPost2010Prop51ColorIndex
 90
      256
102
RTVSPost2010Prop51ColorRGB
 90
-16777216
102
RTVSPost2010PropOp51
 70
     0
102
RTVSPost2010Prop52
140
1.0
102
RTVSPost2010PropOp52
 70
     0
102
RTVSPost2010Prop53
 90
        2
102
RTVSPost2010PropOp53
 70
     1
102
RTVSPost2010Prop54
  1
strokes_ogs.tif
102
RTVSPost2010PropOp54
 70
     1
102
RTVSPost2010Prop55
280
     0
102
RTVSPost2010PropOp55
 70
     1
102
RTVSPost2010Prop56
140
1.0
102
RTVSPost2010PropOp56
 70
     1
102
RTVSPost2010Prop57
140
1.0
102
RTVSPost2010PropOp57
 70
     1
  0
XRECORD
  5
27C
102
{ACAD_REACTORS
330
27B
102
}
330
27B
100
AcDbXrecord
280
     1
102
RTVSPropertyOp0
 70
     1
102
RTVSPropertyOp1
 70
     1
102
RTVSPropertyOp2
 70
     1
102
RTVSPropertyOp3
 70
     1
102
RTVSPropertyOp4
 70
     1
102
RTVSPropertyOp5
 70
     1
102
RTVSPropertyOp6
 70
     1
102
RTVSPropertyOp7
 70
     1
102
RTVSPropertyOp8
 70
     1
102
RTVSPropertyOp9
 70
     1
102
RTVSPropertyOp10
 70
     1
102
RTVSPropertyOp11
 70
     1
102
RTVSPropertyOp12
 70
     1
102
RTVSPropertyOp13
 70
     1
102
RTVSPropertyOp14
 70
     1
102
RTVSPropertyOp15
 70
     1
102
RTVSPropertyOp16
 70
     1
102
RTVSPropertyOp17
 70
     1
102
RTVSPropertyOp18
 70
     1
102
RTVSPropertyOp19
 70
     1
102
RTVSPropertyOp20
 70
     1
102
RTVSPropertyOp21
 70
     1
102
RTVSPropertyOp22
 70
     1
102
RTVSPropertyOp23
 70
     1
102
RTVSPropertyOp24
 70
     1
102
RTVSPropertyOp25
 70
     1
102
RTVSPropertyOp26
 70
     1
102
RTVSPropertyOp27
 70
     1
102
RTVSPropertyOp28
 70
     1
102
RTVSPropertyOp29
 70
     1
102
RTVSPropertyOp30
 70
     1
102
RTVSPropertyOp31
 70
     1
102
RTVSPropertyOp32
 70
     1
102
RTVSPropertyOp33
 70
     1
102
RTVSPropertyOp34
 70
     1
102
RTVSPropertyOp35
 70
     1
102
RTVSPropertyOp36
 70
     1
102
RTVSPropertyOp37
 70
     1
102
RTVSPropertyOp38
 70
     1
102
RTVSPropertyOp39
 70
     1
102
RTVSPropertyOp40
 70
     1
102
RTVSPropertyOp41
 70
     1
102
RTVSPropertyOp42
 70
     1
102
RTVSPropertyOp43
 70
     1
102
RTVSPropertyOp44
 70
     1
102
RTVSPropertyOp45
 70
     1
102
RTVSPropertyOp46
 70
     1
102
RTVSPropertyOp47
 70
     1
102
RTVSPropertyOp48
 70
     1
102
RTVSPropertyOp49
 70
     1
102
RTVSPropertyOp50
 70
     1
102
RTVSPropertyOp51
 70
     0
102
RTVSPropertyOp52
 70
     0
102
RTVSPropertyOp53
 70
     1
102
RTVSPropertyOp54
 70
     1
102
RTVSPropertyOp55
 70
     1
102
RTVSPropertyOp56
 70
     1
102
RTVSPropertyOp57
 70
     1
102
RTVSPost2010Prop28
280
     0
102
RTVSPost2010PropOp28
 70
     1
102
RTVSPost2010Prop29
280
     1
102
RTVSPost2010PropOp29
 70
     1
102
RTVSPost2010Prop30
280
     1
102
RTVSPost2010PropOp30
 70
     1
102
RTVSPost2010Prop31
280
     0
102
RTVSPost2010PropOp31
 70
     1
102
RTVSPost2010Prop32
280
     0
102
RTVSPost2010PropOp32
 70
     1
102
RTVSPost2010Prop33
280
     0
102
RTVSPost2010PropOp33
 70
     1
102
RTVSPost2010Prop34
280
     0
102
RTVSPost2010PropOp34
 70
     1
102
RTVSPost2010Prop35
280
     0
102
RTVSPost2010PropOp35
 70
     1
102
RTVSPost2010Prop36
280
     0
102
RTVSPost2010PropOp36
 70
     1
102
RTVSPost2010Prop37
 90
       50
102
RTVSPost2010PropOp37
 70
     1
102
RTVSPost2010Prop38
140
0.0
102
RTVSPost2010PropOp38
 70
     1
102
RTVSPost2010Prop39
140
1.0
102
RTVSPost2010PropOp39
 70
     1
102
RTVSPost2010Prop40
 90
        0
102
RTVSPost2010PropOp40
 70
     1
102
RTVSPost2010Prop41ColorIndex
 90
       18
102
RTVSPost2010Prop41ColorRGB
 90
        0
102
RTVSPost2010PropOp41
 70
     1
102
RTVSPost2010Prop42
 90
       50
102
RTVSPost2010PropOp42
 70
     1
102
RTVSPost2010Prop43
 90
        3
102
RTVSPost2010PropOp43
 70
     1
102
RTVSPost2010Prop44ColorIndex
 90
        5
102
RTVSPost2010Prop44ColorRGB
 90
      255
102
RTVSPost2010PropOp44
 70
     1
102
RTVSPost2010Prop45
280
     0
102
RTVSPost2010PropOp45
 70
     1
102
RTVSPost2010Prop46
 90
       50
102
RTVSPost2010PropOp46
 70
     1
102
RTVSPost2010Prop47
 90
       50
102
RTVSPost2010PropOp47
 70
     1
102
RTVSPost2010Prop48
 90
       50
102
RTVSPost2010PropOp48
 70
     1
102
RTVSPost2010Prop49
280
     0
102
RTVSPost2010PropOp49
 70
     1
102
RTVSPost2010Prop50
 90
       50
102
RTVSPost2010PropOp50
 70
     1
102
RTVSPost2010Prop51ColorIndex
 90
      256
102
RTVSPost2010Prop51ColorRGB
 90
-16777216
102
RTVSPost2010PropOp51
 70
     0
102
RTVSPost2010Prop52
140
1.0
102
RTVSPost2010PropOp52
 70
     0
102
RTVSPost2010Prop53
 90
        2
102
RTVSPost2010PropOp53
 70
     1
102
RTVSPost2010Prop54
  1
strokes_ogs.tif
102
RTVSPost2010PropOp54
 70
     1
102
RTVSPost2010Prop55
280
     0
102
RTVSPost2010PropOp55
 70
     1
102
RTVSPost2010Prop56
140
1.0
102
RTVSPost2010PropOp56
 70
     1
102
RTVSPost2010Prop57
140
1.0
102
RTVSPost2010PropOp57
 70
     1
  0
XRECORD
  5
28C
102
{ACAD_REACTORS
330
28B
102
}
330
28B
100
AcDbXrecord
280
     1
102
RTVSPropertyOp0
 70
     0
102
RTVSPropertyOp1
 70
     0
102
RTVSPropertyOp2
 70
     0
102
RTVSPropertyOp3
 70
     0
102
RTVSPropertyOp4
 70
     0
102
RTVSPropertyOp5
 70
     0
102
RTVSPropertyOp6
 70
     0
102
RTVSPropertyOp7
 70
     0
102
RTVSPropertyOp8
 70
     0
102
RTVSPropertyOp9
 70
     0
102
RTVSPropertyOp10
 70
     0
102
RTVSPropertyOp11
 70
     0
102
RTVSPropertyOp12
 70
     0
102
RTVSPropertyOp13
 70
     0
102
RTVSPropertyOp14
 70
     2
102
RTVSPropertyOp15
 70
     0
102
RTVSPropertyOp16
 70
     0
102
RTVSPropertyOp17
 70
     0
102
RTVSPropertyOp18
 70
     0
102
RTVSPropertyOp19
 70
     0
102
RTVSPropertyOp20
 70
     0
102
RTVSPropertyOp21
 70
     0
102
RTVSPropertyOp22
 70
     0
102
RTVSPropertyOp23
 70
     0
102
RTVSPropertyOp24
 70
     0
102
RTVSPropertyOp25
 70
     0
102
RTVSPropertyOp26
 70
     0
102
RTVSPropertyOp27
 70
     0
102
RTVSPropertyOp28
 70
     0
102
RTVSPropertyOp29
 70
     0
102
RTVSPropertyOp30
 70
     0
102
RTVSPropertyOp31
 70
     0
102
RTVSPropertyOp32
 70
     0
102
RTVSPropertyOp33
 70
     0
102
RTVSPropertyOp34
 70
     0
102
RTVSPropertyOp35
 70
     0
102
RTVSPropertyOp36
 70
     0
102
RTVSPropertyOp37
 70
     0
102
RTVSPropertyOp38
 70
     0
102
RTVSPropertyOp39
 70
     0
102
RTVSPropertyOp40
 70
     0
102
RTVSPropertyOp41
 70
     0
102
RTVSPropertyOp42
 70
     0
102
RTVSPropertyOp43
 70
     0
102
RTVSPropertyOp44
 70
     0
102
RTVSPropertyOp45
 70
     0
102
RTVSPropertyOp46
 70
     0
102
RTVSPropertyOp47
 70
     0
102
RTVSPropertyOp48
 70
     0
102
RTVSPropertyOp49
 70
     0
102
RTVSPropertyOp50
 70
     0
102
RTVSPropertyOp51
 70
     0
102
RTVSPropertyOp52
 70
     0
102
RTVSPropertyOp53
 70
     0
102
RTVSPropertyOp54
 70
     0
102
RTVSPropertyOp55
 70
     0
102
RTVSPropertyOp56
 70
     0
102
RTVSPropertyOp57
 70
     0
102
RTVSPost2010Prop28
280
     0
102
RTVSPost2010PropOp28
 70
     0
102
RTVSPost2010Prop29
280
     1
102
RTVSPost2010PropOp29
 70
     0
102
RTVSPost2010Prop30
280
     1
102
RTVSPost2010PropOp30
 70
     0
102
RTVSPost2010Prop31
280
     0
102
RTVSPost2010PropOp31
 70
     0
102
RTVSPost2010Prop32
280
     0
102
RTVSPost2010PropOp32
 70
     0
102
RTVSPost2010Prop33
280
     0
102
RTVSPost2010PropOp33
 70
     0
102
RTVSPost2010Prop34
280
     0
102
RTVSPost2010PropOp34
 70
     0
102
RTVSPost2010Prop35
280
     0
102
RTVSPost2010PropOp35
 70
     0
102
RTVSPost2010Prop36
280
     0
102
RTVSPost2010PropOp36
 70
     0
102
RTVSPost2010Prop37
 90
       50
102
RTVSPost2010PropOp37
 70
     0
102
RTVSPost2010Prop38
140
0.0
102
RTVSPost2010PropOp38
 70
     0
102
RTVSPost2010Prop39
140
1.0
102
RTVSPost2010PropOp39
 70
     0
102
RTVSPost2010Prop40
 90
        0
102
RTVSPost2010PropOp40
 70
     0
102
RTVSPost2010Prop41ColorIndex
 90
       18
102
RTVSPost2010Prop41ColorRGB
 90
        0
102
RTVSPost2010PropOp41
 70
     0
102
RTVSPost2010Prop42
 90
       50
102
RTVSPost2010PropOp42
 70
     0
102
RTVSPost2010Prop43
 90
        3
102
RTVSPost2010PropOp43
 70
     0
102
RTVSPost2010Prop44ColorIndex
 90
        5
102
RTVSPost2010Prop44ColorRGB
 90
      255
102
RTVSPost2010PropOp44
 70
     0
102
RTVSPost2010Prop45
280
     0
102
RTVSPost2010PropOp45
 70
     0
102
RTVSPost2010Prop46
 90
       50
102
RTVSPost2010PropOp46
 70
     0
102
RTVSPost2010Prop47
 90
       50
102
RTVSPost2010PropOp47
 70
     0
102
RTVSPost2010Prop48
 90
       50
102
RTVSPost2010PropOp48
 70
     0
102
RTVSPost2010Prop49
280
     0
102
RTVSPost2010PropOp49
 70
     0
102
RTVSPost2010Prop50
 90
       50
102
RTVSPost2010PropOp50
 70
     0
102
RTVSPost2010Prop51ColorIndex
 90
      256
102
RTVSPost2010Prop51ColorRGB
 90
-16777216
102
RTVSPost2010PropOp51
 70
     0
102
RTVSPost2010Prop52
140
1.0
102
RTVSPost2010PropOp52
 70
     0
102
RTVSPost2010Prop53
 90
        2
102
RTVSPost2010PropOp53
 70
     0
102
RTVSPost2010Prop54
  1
strokes_ogs.tif
102
RTVSPost2010PropOp54
 70
     0
102
RTVSPost2010Prop55
280
     0
102
RTVSPost2010PropOp55
 70
     0
102
RTVSPost2010Prop56
140
1.0
102
RTVSPost2010PropOp56
 70
     0
102
RTVSPost2010Prop57
140
1.0
102
RTVSPost2010PropOp57
 70
     0
  0
XRECORD
  5
284
102
{ACAD_REACTORS
330
283
102
}
330
283
100
AcDbXrecord
280
     1
102
RTVSPropertyOp0
 70
     1
102
RTVSPropertyOp1
 70
     1
102
RTVSPropertyOp2
 70
     1
102
RTVSPropertyOp3
 70
     1
102
RTVSPropertyOp4
 70
     1
102
RTVSPropertyOp5
 70
     1
102
RTVSPropertyOp6
 70
     1
102
RTVSPropertyOp7
 70
     1
102
RTVSPropertyOp8
 70
     1
102
RTVSPropertyOp9
 70
     1
102
RTVSPropertyOp10
 70
     1
102
RTVSPropertyOp11
 70
     1
102
RTVSPropertyOp12
 70
     1
102
RTVSPropertyOp13
 70
     1
102
RTVSPropertyOp14
 70
     1
102
RTVSPropertyOp15
 70
     1
102
RTVSPropertyOp16
 70
     1
102
RTVSPropertyOp17
 70
     1
102
RTVSPropertyOp18
 70
     1
102
RTVSPropertyOp19
 70
     1
102
RTVSPropertyOp20
 70
     1
102
RTVSPropertyOp21
 70
     1
102
RTVSPropertyOp22
 70
     1
102
RTVSPropertyOp23
 70
     1
102
RTVSPropertyOp24
 70
     1
102
RTVSPropertyOp25
 70
     1
102
RTVSPropertyOp26
 70
     1
102
RTVSPropertyOp27
 70
     1
102
RTVSPropertyOp28
 70
     1
102
RTVSPropertyOp29
 70
     1
102
RTVSPropertyOp30
 70
     1
102
RTVSPropertyOp31
 70
     1
102
RTVSPropertyOp32
 70
     1
102
RTVSPropertyOp33
 70
     1
102
RTVSPropertyOp34
 70
     1
102
RTVSPropertyOp35
 70
     1
102
RTVSPropertyOp36
 70
     1
102
RTVSPropertyOp37
 70
     1
102
RTVSPropertyOp38
 70
     1
102
RTVSPropertyOp39
 70
     1
102
RTVSPropertyOp40
 70
     1
102
RTVSPropertyOp41
 70
     1
102
RTVSPropertyOp42
 70
     1
102
RTVSPropertyOp43
 70
     1
102
RTVSPropertyOp44
 70
     1
102
RTVSPropertyOp45
 70
     1
102
RTVSPropertyOp46
 70
     1
102
RTVSPropertyOp47
 70
     1
102
RTVSPropertyOp48
 70
     1
102
RTVSPropertyOp49
 70
     1
102
RTVSPropertyOp50
 70
     1
102
RTVSPropertyOp51
 70
     0
102
RTVSPropertyOp52
 70
     0
102
RTVSPropertyOp53
 70
     1
102
RTVSPropertyOp54
 70
     1
102
RTVSPropertyOp55
 70
     1
102
RTVSPropertyOp56
 70
     1
102
RTVSPropertyOp57
 70
     1
102
RTVSPost2010Prop28
280
     0
102
RTVSPost2010PropOp28
 70
     1
102
RTVSPost2010Prop29
280
     1
102
RTVSPost2010PropOp29
 70
     1
102
RTVSPost2010Prop30
280
     1
102
RTVSPost2010PropOp30
 70
     1
102
RTVSPost2010Prop31
280
     0
102
RTVSPost2010PropOp31
 70
     1
102
RTVSPost2010Prop32
280
     0
102
RTVSPost2010PropOp32
 70
     1
102
RTVSPost2010Prop33
280
     0
102
RTVSPost2010PropOp33
 70
     1
102
RTVSPost2010Prop34
280
     0
102
RTVSPost2010PropOp34
 70
     1
102
RTVSPost2010Prop35
280
     0
102
RTVSPost2010PropOp35
 70
     1
102
RTVSPost2010Prop36
280
     0
102
RTVSPost2010PropOp36
 70
     1
102
RTVSPost2010Prop37
 90
       50
102
RTVSPost2010PropOp37
 70
     1
102
RTVSPost2010Prop38
140
0.0
102
RTVSPost2010PropOp38
 70
     1
102
RTVSPost2010Prop39
140
1.0
102
RTVSPost2010PropOp39
 70
     1
102
RTVSPost2010Prop40
 90
        0
102
RTVSPost2010PropOp40
 70
     1
102
RTVSPost2010Prop41ColorIndex
 90
       18
102
RTVSPost2010Prop41ColorRGB
 90
        0
102
RTVSPost2010PropOp41
 70
     1
102
RTVSPost2010Prop42
 90
       50
102
RTVSPost2010PropOp42
 70
     1
102
RTVSPost2010Prop43
 90
        3
102
RTVSPost2010PropOp43
 70
     1
102
RTVSPost2010Prop44ColorIndex
 90
        5
102
RTVSPost2010Prop44ColorRGB
 90
      255
102
RTVSPost2010PropOp44
 70
     1
102
RTVSPost2010Prop45
280
     0
102
RTVSPost2010PropOp45
 70
     1
102
RTVSPost2010Prop46
 90
       50
102
RTVSPost2010PropOp46
 70
     1
102
RTVSPost2010Prop47
 90
       50
102
RTVSPost2010PropOp47
 70
     1
102
RTVSPost2010Prop48
 90
       50
102
RTVSPost2010PropOp48
 70
     1
102
RTVSPost2010Prop49
280
     0
102
RTVSPost2010PropOp49
 70
     1
102
RTVSPost2010Prop50
 90
       50
102
RTVSPost2010PropOp50
 70
     1
102
RTVSPost2010Prop51ColorIndex
 90
      256
102
RTVSPost2010Prop51ColorRGB
 90
-16777216
102
RTVSPost2010PropOp51
 70
     0
102
RTVSPost2010Prop52
140
1.0
102
RTVSPost2010PropOp52
 70
     0
102
RTVSPost2010Prop53
 90
        2
102
RTVSPost2010PropOp53
 70
     1
102
RTVSPost2010Prop54
  1
strokes_ogs.tif
102
RTVSPost2010PropOp54
 70
     1
102
RTVSPost2010Prop55
280
     0
102
RTVSPost2010PropOp55
 70
     1
102
RTVSPost2010Prop56
140
1.0
102
RTVSPost2010PropOp56
 70
     1
102
RTVSPost2010Prop57
140
1.0
102
RTVSPost2010PropOp57
 70
     1
  0
XRECORD
  5
268
102
{ACAD_REACTORS
330
267
102
}
330
267
100
AcDbXrecord
280
     1
102
RTVSPropertyOp0
 70
     1
102
RTVSPropertyOp1
 70
     1
102
RTVSPropertyOp2
 70
     1
102
RTVSPropertyOp3
 70
     1
102
RTVSPropertyOp4
 70
     1
102
RTVSPropertyOp5
 70
     1
102
RTVSPropertyOp6
 70
     1
102
RTVSPropertyOp7
 70
     1
102
RTVSPropertyOp8
 70
     1
102
RTVSPropertyOp9
 70
     1
102
RTVSPropertyOp10
 70
     1
102
RTVSPropertyOp11
 70
     1
102
RTVSPropertyOp12
 70
     1
102
RTVSPropertyOp13
 70
     1
102
RTVSPropertyOp14
 70
     1
102
RTVSPropertyOp15
 70
     1
102
RTVSPropertyOp16
 70
     1
102
RTVSPropertyOp17
 70
     1
102
RTVSPropertyOp18
 70
     1
102
RTVSPropertyOp19
 70
     1
102
RTVSPropertyOp20
 70
     1
102
RTVSPropertyOp21
 70
     1
102
RTVSPropertyOp22
 70
     1
102
RTVSPropertyOp23
 70
     1
102
RTVSPropertyOp24
 70
     1
102
RTVSPropertyOp25
 70
     1
102
RTVSPropertyOp26
 70
     1
102
RTVSPropertyOp27
 70
     1
102
RTVSPropertyOp28
 70
     1
102
RTVSPropertyOp29
 70
     1
102
RTVSPropertyOp30
 70
     1
102
RTVSPropertyOp31
 70
     1
102
RTVSPropertyOp32
 70
     1
102
RTVSPropertyOp33
 70
     1
102
RTVSPropertyOp34
 70
     1
102
RTVSPropertyOp35
 70
     1
102
RTVSPropertyOp36
 70
     1
102
RTVSPropertyOp37
 70
     1
102
RTVSPropertyOp38
 70
     1
102
RTVSPropertyOp39
 70
     1
102
RTVSPropertyOp40
 70
     1
102
RTVSPropertyOp41
 70
     1
102
RTVSPropertyOp42
 70
     1
102
RTVSPropertyOp43
 70
     1
102
RTVSPropertyOp44
 70
     1
102
RTVSPropertyOp45
 70
     1
102
RTVSPropertyOp46
 70
     1
102
RTVSPropertyOp47
 70
     1
102
RTVSPropertyOp48
 70
     1
102
RTVSPropertyOp49
 70
     1
102
RTVSPropertyOp50
 70
     1
102
RTVSPropertyOp51
 70
     0
102
RTVSPropertyOp52
 70
     0
102
RTVSPropertyOp53
 70
     1
102
RTVSPropertyOp54
 70
     1
102
RTVSPropertyOp55
 70
     1
102
RTVSPropertyOp56
 70
     1
102
RTVSPropertyOp57
 70
     1
102
RTVSPost2010Prop28
280
     0
102
RTVSPost2010PropOp28
 70
     1
102
RTVSPost2010Prop29
280
     1
102
RTVSPost2010PropOp29
 70
     1
102
RTVSPost2010Prop30
280
     1
102
RTVSPost2010PropOp30
 70
     1
102
RTVSPost2010Prop31
280
     0
102
RTVSPost2010PropOp31
 70
     1
102
RTVSPost2010Prop32
280
     0
102
RTVSPost2010PropOp32
 70
     1
102
RTVSPost2010Prop33
280
     0
102
RTVSPost2010PropOp33
 70
     1
102
RTVSPost2010Prop34
280
     0
102
RTVSPost2010PropOp34
 70
     1
102
RTVSPost2010Prop35
280
     0
102
RTVSPost2010PropOp35
 70
     1
102
RTVSPost2010Prop36
280
     0
102
RTVSPost2010PropOp36
 70
     1
102
RTVSPost2010Prop37
 90
       50
102
RTVSPost2010PropOp37
 70
     1
102
RTVSPost2010Prop38
140
0.0
102
RTVSPost2010PropOp38
 70
     1
102
RTVSPost2010Prop39
140
1.0
102
RTVSPost2010PropOp39
 70
     1
102
RTVSPost2010Prop40
 90
        0
102
RTVSPost2010PropOp40
 70
     1
102
RTVSPost2010Prop41ColorIndex
 90
       18
102
RTVSPost2010Prop41ColorRGB
 90
        0
102
RTVSPost2010PropOp41
 70
     1
102
RTVSPost2010Prop42
 90
       50
102
RTVSPost2010PropOp42
 70
     1
102
RTVSPost2010Prop43
 90
        3
102
RTVSPost2010PropOp43
 70
     1
102
RTVSPost2010Prop44ColorIndex
 90
        5
102
RTVSPost2010Prop44ColorRGB
 90
      255
102
RTVSPost2010PropOp44
 70
     1
102
RTVSPost2010Prop45
280
     0
102
RTVSPost2010PropOp45
 70
     1
102
RTVSPost2010Prop46
 90
       50
102
RTVSPost2010PropOp46
 70
     1
102
RTVSPost2010Prop47
 90
       50
102
RTVSPost2010PropOp47
 70
     1
102
RTVSPost2010Prop48
 90
       50
102
RTVSPost2010PropOp48
 70
     1
102
RTVSPost2010Prop49
280
     0
102
RTVSPost2010PropOp49
 70
     1
102
RTVSPost2010Prop50
 90
       50
102
RTVSPost2010PropOp50
 70
     1
102
RTVSPost2010Prop51ColorIndex
 90
      256
102
RTVSPost2010Prop51ColorRGB
 90
-16777216
102
RTVSPost2010PropOp51
 70
     0
102
RTVSPost2010Prop52
140
1.0
102
RTVSPost2010PropOp52
 70
     0
102
RTVSPost2010Prop53
 90
        2
102
RTVSPost2010PropOp53
 70
     1
102
RTVSPost2010Prop54
  1
strokes_ogs.tif
102
RTVSPost2010PropOp54
 70
     1
102
RTVSPost2010Prop55
280
     0
102
RTVSPost2010PropOp55
 70
     1
102
RTVSPost2010Prop56
140
1.0
102
RTVSPost2010PropOp56
 70
     1
102
RTVSPost2010Prop57
140
1.0
102
RTVSPost2010PropOp57
 70
     1
  0
XRECORD
  5
26A
102
{ACAD_REACTORS
330
269
102
}
330
269
100
AcDbXrecord
280
     1
102
RTVSPropertyOp0
 70
     1
102
RTVSPropertyOp1
 70
     1
102
RTVSPropertyOp2
 70
     1
102
RTVSPropertyOp3
 70
     1
102
RTVSPropertyOp4
 70
     1
102
RTVSPropertyOp5
 70
     1
102
RTVSPropertyOp6
 70
     1
102
RTVSPropertyOp7
 70
     1
102
RTVSPropertyOp8
 70
     1
102
RTVSPropertyOp9
 70
     1
102
RTVSPropertyOp10
 70
     1
102
RTVSPropertyOp11
 70
     1
102
RTVSPropertyOp12
 70
     1
102
RTVSPropertyOp13
 70
     1
102
RTVSPropertyOp14
 70
     1
102
RTVSPropertyOp15
 70
     1
102
RTVSPropertyOp16
 70
     1
102
RTVSPropertyOp17
 70
     1
102
RTVSPropertyOp18
 70
     1
102
RTVSPropertyOp19
 70
     1
102
RTVSPropertyOp20
 70
     1
102
RTVSPropertyOp21
 70
     1
102
RTVSPropertyOp22
 70
     1
102
RTVSPropertyOp23
 70
     1
102
RTVSPropertyOp24
 70
     1
102
RTVSPropertyOp25
 70
     1
102
RTVSPropertyOp26
 70
     1
102
RTVSPropertyOp27
 70
     1
102
RTVSPropertyOp28
 70
     1
102
RTVSPropertyOp29
 70
     1
102
RTVSPropertyOp30
 70
     1
102
RTVSPropertyOp31
 70
     1
102
RTVSPropertyOp32
 70
     1
102
RTVSPropertyOp33
 70
     1
102
RTVSPropertyOp34
 70
     1
102
RTVSPropertyOp35
 70
     1
102
RTVSPropertyOp36
 70
     1
102
RTVSPropertyOp37
 70
     1
102
RTVSPropertyOp38
 70
     1
102
RTVSPropertyOp39
 70
     1
102
RTVSPropertyOp40
 70
     1
102
RTVSPropertyOp41
 70
     1
102
RTVSPropertyOp42
 70
     1
102
RTVSPropertyOp43
 70
     1
102
RTVSPropertyOp44
 70
     1
102
RTVSPropertyOp45
 70
     1
102
RTVSPropertyOp46
 70
     1
102
RTVSPropertyOp47
 70
     1
102
RTVSPropertyOp48
 70
     1
102
RTVSPropertyOp49
 70
     1
102
RTVSPropertyOp50
 70
     1
102
RTVSPropertyOp51
 70
     0
102
RTVSPropertyOp52
 70
     0
102
RTVSPropertyOp53
 70
     1
102
RTVSPropertyOp54
 70
     1
102
RTVSPropertyOp55
 70
     1
102
RTVSPropertyOp56
 70
     1
102
RTVSPropertyOp57
 70
     1
102
RTVSPost2010Prop28
280
     0
102
RTVSPost2010PropOp28
 70
     1
102
RTVSPost2010Prop29
280
     1
102
RTVSPost2010PropOp29
 70
     1
102
RTVSPost2010Prop30
280
     1
102
RTVSPost2010PropOp30
 70
     1
102
RTVSPost2010Prop31
280
     0
102
RTVSPost2010PropOp31
 70
     1
102
RTVSPost2010Prop32
280
     0
102
RTVSPost2010PropOp32
 70
     1
102
RTVSPost2010Prop33
280
     0
102
RTVSPost2010PropOp33
 70
     1
102
RTVSPost2010Prop34
280
     0
102
RTVSPost2010PropOp34
 70
     1
102
RTVSPost2010Prop35
280
     0
102
RTVSPost2010PropOp35
 70
     1
102
RTVSPost2010Prop36
280
     0
102
RTVSPost2010PropOp36
 70
     1
102
RTVSPost2010Prop37
 90
       50
102
RTVSPost2010PropOp37
 70
     1
102
RTVSPost2010Prop38
140
0.0
102
RTVSPost2010PropOp38
 70
     1
102
RTVSPost2010Prop39
140
1.0
102
RTVSPost2010PropOp39
 70
     1
102
RTVSPost2010Prop40
 90
        0
102
RTVSPost2010PropOp40
 70
     1
102
RTVSPost2010Prop41ColorIndex
 90
       18
102
RTVSPost2010Prop41ColorRGB
 90
        0
102
RTVSPost2010PropOp41
 70
     1
102
RTVSPost2010Prop42
 90
       50
102
RTVSPost2010PropOp42
 70
     1
102
RTVSPost2010Prop43
 90
        3
102
RTVSPost2010PropOp43
 70
     1
102
RTVSPost2010Prop44ColorIndex
 90
        5
102
RTVSPost2010Prop44ColorRGB
 90
      255
102
RTVSPost2010PropOp44
 70
     1
102
RTVSPost2010Prop45
280
     0
102
RTVSPost2010PropOp45
 70
     1
102
RTVSPost2010Prop46
 90
       50
102
RTVSPost2010PropOp46
 70
     1
102
RTVSPost2010Prop47
 90
       50
102
RTVSPost2010PropOp47
 70
     1
102
RTVSPost2010Prop48
 90
       50
102
RTVSPost2010PropOp48
 70
     1
102
RTVSPost2010Prop49
280
     0
102
RTVSPost2010PropOp49
 70
     1
102
RTVSPost2010Prop50
 90
       50
102
RTVSPost2010PropOp50
 70
     1
102
RTVSPost2010Prop51ColorIndex
 90
      256
102
RTVSPost2010Prop51ColorRGB
 90
-16777216
102
RTVSPost2010PropOp51
 70
     0
102
RTVSPost2010Prop52
140
1.0
102
RTVSPost2010PropOp52
 70
     0
102
RTVSPost2010Prop53
 90
        2
102
RTVSPost2010PropOp53
 70
     1
102
RTVSPost2010Prop54
  1
strokes_ogs.tif
102
RTVSPost2010PropOp54
 70
     1
102
RTVSPost2010Prop55
280
     0
102
RTVSPost2010PropOp55
 70
     1
102
RTVSPost2010Prop56
140
1.0
102
RTVSPost2010PropOp56
 70
     1
102
RTVSPost2010Prop57
140
1.0
102
RTVSPost2010PropOp57
 70
     1
  0
XRECORD
  5
26C
102
{ACAD_REACTORS
330
26B
102
}
330
26B
100
AcDbXrecord
280
     1
102
RTVSPropertyOp0
 70
     1
102
RTVSPropertyOp1
 70
     1
102
RTVSPropertyOp2
 70
     1
102
RTVSPropertyOp3
 70
     1
102
RTVSPropertyOp4
 70
     1
102
RTVSPropertyOp5
 70
     1
102
RTVSPropertyOp6
 70
     1
102
RTVSPropertyOp7
 70
     1
102
RTVSPropertyOp8
 70
     1
102
RTVSPropertyOp9
 70
     1
102
RTVSPropertyOp10
 70
     1
102
RTVSPropertyOp11
 70
     1
102
RTVSPropertyOp12
 70
     1
102
RTVSPropertyOp13
 70
     1
102
RTVSPropertyOp14
 70
     1
102
RTVSPropertyOp15
 70
     1
102
RTVSPropertyOp16
 70
     1
102
RTVSPropertyOp17
 70
     1
102
RTVSPropertyOp18
 70
     1
102
RTVSPropertyOp19
 70
     1
102
RTVSPropertyOp20
 70
     1
102
RTVSPropertyOp21
 70
     1
102
RTVSPropertyOp22
 70
     1
102
RTVSPropertyOp23
 70
     1
102
RTVSPropertyOp24
 70
     1
102
RTVSPropertyOp25
 70
     1
102
RTVSPropertyOp26
 70
     1
102
RTVSPropertyOp27
 70
     1
102
RTVSPropertyOp28
 70
     1
102
RTVSPropertyOp29
 70
     1
102
RTVSPropertyOp30
 70
     1
102
RTVSPropertyOp31
 70
     1
102
RTVSPropertyOp32
 70
     1
102
RTVSPropertyOp33
 70
     1
102
RTVSPropertyOp34
 70
     1
102
RTVSPropertyOp35
 70
     1
102
RTVSPropertyOp36
 70
     1
102
RTVSPropertyOp37
 70
     1
102
RTVSPropertyOp38
 70
     1
102
RTVSPropertyOp39
 70
     1
102
RTVSPropertyOp40
 70
     1
102
RTVSPropertyOp41
 70
     1
102
RTVSPropertyOp42
 70
     1
102
RTVSPropertyOp43
 70
     1
102
RTVSPropertyOp44
 70
     1
102
RTVSPropertyOp45
 70
     1
102
RTVSPropertyOp46
 70
     1
102
RTVSPropertyOp47
 70
     1
102
RTVSPropertyOp48
 70
     1
102
RTVSPropertyOp49
 70
     1
102
RTVSPropertyOp50
 70
     1
102
RTVSPropertyOp51
 70
     0
102
RTVSPropertyOp52
 70
     0
102
RTVSPropertyOp53
 70
     1
102
RTVSPropertyOp54
 70
     1
102
RTVSPropertyOp55
 70
     1
102
RTVSPropertyOp56
 70
     1
102
RTVSPropertyOp57
 70
     1
102
RTVSPost2010Prop28
280
     0
102
RTVSPost2010PropOp28
 70
     1
102
RTVSPost2010Prop29
280
     1
102
RTVSPost2010PropOp29
 70
     1
102
RTVSPost2010Prop30
280
     1
102
RTVSPost2010PropOp30
 70
     1
102
RTVSPost2010Prop31
280
     0
102
RTVSPost2010PropOp31
 70
     1
102
RTVSPost2010Prop32
280
     0
102
RTVSPost2010PropOp32
 70
     1
102
RTVSPost2010Prop33
280
     0
102
RTVSPost2010PropOp33
 70
     1
102
RTVSPost2010Prop34
280
     0
102
RTVSPost2010PropOp34
 70
     1
102
RTVSPost2010Prop35
280
     0
102
RTVSPost2010PropOp35
 70
     1
102
RTVSPost2010Prop36
280
     0
102
RTVSPost2010PropOp36
 70
     1
102
RTVSPost2010Prop37
 90
       50
102
RTVSPost2010PropOp37
 70
     1
102
RTVSPost2010Prop38
140
0.0
102
RTVSPost2010PropOp38
 70
     1
102
RTVSPost2010Prop39
140
1.0
102
RTVSPost2010PropOp39
 70
     1
102
RTVSPost2010Prop40
 90
        0
102
RTVSPost2010PropOp40
 70
     1
102
RTVSPost2010Prop41ColorIndex
 90
       18
102
RTVSPost2010Prop41ColorRGB
 90
        0
102
RTVSPost2010PropOp41
 70
     1
102
RTVSPost2010Prop42
 90
       50
102
RTVSPost2010PropOp42
 70
     1
102
RTVSPost2010Prop43
 90
        3
102
RTVSPost2010PropOp43
 70
     1
102
RTVSPost2010Prop44ColorIndex
 90
        5
102
RTVSPost2010Prop44ColorRGB
 90
      255
102
RTVSPost2010PropOp44
 70
     1
102
RTVSPost2010Prop45
280
     0
102
RTVSPost2010PropOp45
 70
     1
102
RTVSPost2010Prop46
 90
       50
102
RTVSPost2010PropOp46
 70
     1
102
RTVSPost2010Prop47
 90
       50
102
RTVSPost2010PropOp47
 70
     1
102
RTVSPost2010Prop48
 90
       50
102
RTVSPost2010PropOp48
 70
     1
102
RTVSPost2010Prop49
280
     0
102
RTVSPost2010PropOp49
 70
     1
102
RTVSPost2010Prop50
 90
       50
102
RTVSPost2010PropOp50
 70
     1
102
RTVSPost2010Prop51ColorIndex
 90
      256
102
RTVSPost2010Prop51ColorRGB
 90
-16777216
102
RTVSPost2010PropOp51
 70
     0
102
RTVSPost2010Prop52
140
1.0
102
RTVSPost2010PropOp52
 70
     0
102
RTVSPost2010Prop53
 90
        2
102
RTVSPost2010PropOp53
 70
     1
102
RTVSPost2010Prop54
  1
strokes_ogs.tif
102
RTVSPost2010PropOp54
 70
     1
102
RTVSPost2010Prop55
280
     0
102
RTVSPost2010PropOp55
 70
     1
102
RTVSPost2010Prop56
140
1.0
102
RTVSPost2010PropOp56
 70
     1
102
RTVSPost2010Prop57
140
1.0
102
RTVSPost2010PropOp57
 70
     1
  0
XRECORD
  5
26E
102
{ACAD_REACTORS
330
26D
102
}
330
26D
100
AcDbXrecord
280
     1
102
RTVSPropertyOp0
 70
     1
102
RTVSPropertyOp1
 70
     1
102
RTVSPropertyOp2
 70
     1
102
RTVSPropertyOp3
 70
     1
102
RTVSPropertyOp4
 70
     1
102
RTVSPropertyOp5
 70
     1
102
RTVSPropertyOp6
 70
     1
102
RTVSPropertyOp7
 70
     1
102
RTVSPropertyOp8
 70
     1
102
RTVSPropertyOp9
 70
     1
102
RTVSPropertyOp10
 70
     1
102
RTVSPropertyOp11
 70
     1
102
RTVSPropertyOp12
 70
     1
102
RTVSPropertyOp13
 70
     1
102
RTVSPropertyOp14
 70
     1
102
RTVSPropertyOp15
 70
     1
102
RTVSPropertyOp16
 70
     1
102
RTVSPropertyOp17
 70
     1
102
RTVSPropertyOp18
 70
     1
102
RTVSPropertyOp19
 70
     1
102
RTVSPropertyOp20
 70
     1
102
RTVSPropertyOp21
 70
     1
102
RTVSPropertyOp22
 70
     1
102
RTVSPropertyOp23
 70
     1
102
RTVSPropertyOp24
 70
     1
102
RTVSPropertyOp25
 70
     1
102
RTVSPropertyOp26
 70
     1
102
RTVSPropertyOp27
 70
     1
102
RTVSPropertyOp28
 70
     1
102
RTVSPropertyOp29
 70
     1
102
RTVSPropertyOp30
 70
     1
102
RTVSPropertyOp31
 70
     1
102
RTVSPropertyOp32
 70
     1
102
RTVSPropertyOp33
 70
     1
102
RTVSPropertyOp34
 70
     1
102
RTVSPropertyOp35
 70
     1
102
RTVSPropertyOp36
 70
     1
102
RTVSPropertyOp37
 70
     1
102
RTVSPropertyOp38
 70
     1
102
RTVSPropertyOp39
 70
     1
102
RTVSPropertyOp40
 70
     1
102
RTVSPropertyOp41
 70
     1
102
RTVSPropertyOp42
 70
     1
102
RTVSPropertyOp43
 70
     1
102
RTVSPropertyOp44
 70
     1
102
RTVSPropertyOp45
 70
     1
102
RTVSPropertyOp46
 70
     1
102
RTVSPropertyOp47
 70
     1
102
RTVSPropertyOp48
 70
     1
102
RTVSPropertyOp49
 70
     1
102
RTVSPropertyOp50
 70
     1
102
RTVSPropertyOp51
 70
     0
102
RTVSPropertyOp52
 70
     0
102
RTVSPropertyOp53
 70
     1
102
RTVSPropertyOp54
 70
     1
102
RTVSPropertyOp55
 70
     1
102
RTVSPropertyOp56
 70
     1
102
RTVSPropertyOp57
 70
     1
102
RTVSPost2010Prop28
280
     0
102
RTVSPost2010PropOp28
 70
     1
102
RTVSPost2010Prop29
280
     1
102
RTVSPost2010PropOp29
 70
     1
102
RTVSPost2010Prop30
280
     1
102
RTVSPost2010PropOp30
 70
     1
102
RTVSPost2010Prop31
280
     0
102
RTVSPost2010PropOp31
 70
     1
102
RTVSPost2010Prop32
280
     0
102
RTVSPost2010PropOp32
 70
     1
102
RTVSPost2010Prop33
280
     0
102
RTVSPost2010PropOp33
 70
     1
102
RTVSPost2010Prop34
280
     0
102
RTVSPost2010PropOp34
 70
     1
102
RTVSPost2010Prop35
280
     0
102
RTVSPost2010PropOp35
 70
     1
102
RTVSPost2010Prop36
280
     0
102
RTVSPost2010PropOp36
 70
     1
102
RTVSPost2010Prop37
 90
       50
102
RTVSPost2010PropOp37
 70
     1
102
RTVSPost2010Prop38
140
0.0
102
RTVSPost2010PropOp38
 70
     1
102
RTVSPost2010Prop39
140
1.0
102
RTVSPost2010PropOp39
 70
     1
102
RTVSPost2010Prop40
 90
        0
102
RTVSPost2010PropOp40
 70
     1
102
RTVSPost2010Prop41ColorIndex
 90
       18
102
RTVSPost2010Prop41ColorRGB
 90
        0
102
RTVSPost2010PropOp41
 70
     1
102
RTVSPost2010Prop42
 90
       50
102
RTVSPost2010PropOp42
 70
     1
102
RTVSPost2010Prop43
 90
        3
102
RTVSPost2010PropOp43
 70
     1
102
RTVSPost2010Prop44ColorIndex
 90
        5
102
RTVSPost2010Prop44ColorRGB
 90
      255
102
RTVSPost2010PropOp44
 70
     1
102
RTVSPost2010Prop45
280
     0
102
RTVSPost2010PropOp45
 70
     1
102
RTVSPost2010Prop46
 90
       50
102
RTVSPost2010PropOp46
 70
     1
102
RTVSPost2010Prop47
 90
       50
102
RTVSPost2010PropOp47
 70
     1
102
RTVSPost2010Prop48
 90
       50
102
RTVSPost2010PropOp48
 70
     1
102
RTVSPost2010Prop49
280
     0
102
RTVSPost2010PropOp49
 70
     1
102
RTVSPost2010Prop50
 90
       50
102
RTVSPost2010PropOp50
 70
     1
102
RTVSPost2010Prop51ColorIndex
 90
      256
102
RTVSPost2010Prop51ColorRGB
 90
-16777216
102
RTVSPost2010PropOp51
 70
     0
102
RTVSPost2010Prop52
140
1.0
102
RTVSPost2010PropOp52
 70
     0
102
RTVSPost2010Prop53
 90
        2
102
RTVSPost2010PropOp53
 70
     1
102
RTVSPost2010Prop54
  1
strokes_ogs.tif
102
RTVSPost2010PropOp54
 70
     1
102
RTVSPost2010Prop55
280
     0
102
RTVSPost2010PropOp55
 70
     1
102
RTVSPost2010Prop56
140
1.0
102
RTVSPost2010PropOp56
 70
     1
102
RTVSPost2010Prop57
140
1.0
102
RTVSPost2010PropOp57
 70
     1
  0
XRECORD
  5
274
102
{ACAD_REACTORS
330
273
102
}
330
273
100
AcDbXrecord
280
     1
102
RTVSPropertyOp0
 70
     1
102
RTVSPropertyOp1
 70
     1
102
RTVSPropertyOp2
 70
     1
102
RTVSPropertyOp3
 70
     1
102
RTVSPropertyOp4
 70
     1
102
RTVSPropertyOp5
 70
     1
102
RTVSPropertyOp6
 70
     1
102
RTVSPropertyOp7
 70
     1
102
RTVSPropertyOp8
 70
     1
102
RTVSPropertyOp9
 70
     1
102
RTVSPropertyOp10
 70
     1
102
RTVSPropertyOp11
 70
     1
102
RTVSPropertyOp12
 70
     1
102
RTVSPropertyOp13
 70
     1
102
RTVSPropertyOp14
 70
     1
102
RTVSPropertyOp15
 70
     1
102
RTVSPropertyOp16
 70
     1
102
RTVSPropertyOp17
 70
     1
102
RTVSPropertyOp18
 70
     1
102
RTVSPropertyOp19
 70
     1
102
RTVSPropertyOp20
 70
     1
102
RTVSPropertyOp21
 70
     1
102
RTVSPropertyOp22
 70
     1
102
RTVSPropertyOp23
 70
     1
102
RTVSPropertyOp24
 70
     1
102
RTVSPropertyOp25
 70
     1
102
RTVSPropertyOp26
 70
     1
102
RTVSPropertyOp27
 70
     1
102
RTVSPropertyOp28
 70
     1
102
RTVSPropertyOp29
 70
     1
102
RTVSPropertyOp30
 70
     1
102
RTVSPropertyOp31
 70
     1
102
RTVSPropertyOp32
 70
     1
102
RTVSPropertyOp33
 70
     1
102
RTVSPropertyOp34
 70
     1
102
RTVSPropertyOp35
 70
     1
102
RTVSPropertyOp36
 70
     1
102
RTVSPropertyOp37
 70
     1
102
RTVSPropertyOp38
 70
     1
102
RTVSPropertyOp39
 70
     1
102
RTVSPropertyOp40
 70
     1
102
RTVSPropertyOp41
 70
     1
102
RTVSPropertyOp42
 70
     1
102
RTVSPropertyOp43
 70
     1
102
RTVSPropertyOp44
 70
     1
102
RTVSPropertyOp45
 70
     1
102
RTVSPropertyOp46
 70
     1
102
RTVSPropertyOp47
 70
     1
102
RTVSPropertyOp48
 70
     1
102
RTVSPropertyOp49
 70
     1
102
RTVSPropertyOp50
 70
     1
102
RTVSPropertyOp51
 70
     0
102
RTVSPropertyOp52
 70
     0
102
RTVSPropertyOp53
 70
     1
102
RTVSPropertyOp54
 70
     1
102
RTVSPropertyOp55
 70
     1
102
RTVSPropertyOp56
 70
     1
102
RTVSPropertyOp57
 70
     1
102
RTVSPost2010Prop28
280
     0
102
RTVSPost2010PropOp28
 70
     1
102
RTVSPost2010Prop29
280
     1
102
RTVSPost2010PropOp29
 70
     1
102
RTVSPost2010Prop30
280
     1
102
RTVSPost2010PropOp30
 70
     1
102
RTVSPost2010Prop31
280
     0
102
RTVSPost2010PropOp31
 70
     1
102
RTVSPost2010Prop32
280
     0
102
RTVSPost2010PropOp32
 70
     1
102
RTVSPost2010Prop33
280
     0
102
RTVSPost2010PropOp33
 70
     1
102
RTVSPost2010Prop34
280
     0
102
RTVSPost2010PropOp34
 70
     1
102
RTVSPost2010Prop35
280
     0
102
RTVSPost2010PropOp35
 70
     1
102
RTVSPost2010Prop36
280
     0
102
RTVSPost2010PropOp36
 70
     1
102
RTVSPost2010Prop37
 90
       50
102
RTVSPost2010PropOp37
 70
     1
102
RTVSPost2010Prop38
140
0.0
102
RTVSPost2010PropOp38
 70
     1
102
RTVSPost2010Prop39
140
1.0
102
RTVSPost2010PropOp39
 70
     1
102
RTVSPost2010Prop40
 90
        0
102
RTVSPost2010PropOp40
 70
     1
102
RTVSPost2010Prop41ColorIndex
 90
       18
102
RTVSPost2010Prop41ColorRGB
 90
        0
102
RTVSPost2010PropOp41
 70
     1
102
RTVSPost2010Prop42
 90
       50
102
RTVSPost2010PropOp42
 70
     1
102
RTVSPost2010Prop43
 90
        3
102
RTVSPost2010PropOp43
 70
     1
102
RTVSPost2010Prop44ColorIndex
 90
        5
102
RTVSPost2010Prop44ColorRGB
 90
      255
102
RTVSPost2010PropOp44
 70
     1
102
RTVSPost2010Prop45
280
     0
102
RTVSPost2010PropOp45
 70
     1
102
RTVSPost2010Prop46
 90
       50
102
RTVSPost2010PropOp46
 70
     1
102
RTVSPost2010Prop47
 90
       50
102
RTVSPost2010PropOp47
 70
     1
102
RTVSPost2010Prop48
 90
       50
102
RTVSPost2010PropOp48
 70
     1
102
RTVSPost2010Prop49
280
     0
102
RTVSPost2010PropOp49
 70
     1
102
RTVSPost2010Prop50
 90
       50
102
RTVSPost2010PropOp50
 70
     1
102
RTVSPost2010Prop51ColorIndex
 90
      256
102
RTVSPost2010Prop51ColorRGB
 90
-16777216
102
RTVSPost2010PropOp51
 70
     0
102
RTVSPost2010Prop52
140
1.0
102
RTVSPost2010PropOp52
 70
     0
102
RTVSPost2010Prop53
 90
        2
102
RTVSPost2010PropOp53
 70
     1
102
RTVSPost2010Prop54
  1
strokes_ogs.tif
102
RTVSPost2010PropOp54
 70
     1
102
RTVSPost2010Prop55
280
     0
102
RTVSPost2010PropOp55
 70
     1
102
RTVSPost2010Prop56
140
1.0
102
RTVSPost2010PropOp56
 70
     1
102
RTVSPost2010Prop57
140
1.0
102
RTVSPost2010PropOp57
 70
     1
  0
XRECORD
  5
288
102
{ACAD_REACTORS
330
287
102
}
330
287
100
AcDbXrecord
280
     1
102
RTVSPropertyOp0
 70
     0
102
RTVSPropertyOp1
 70
     0
102
RTVSPropertyOp2
 70
     0
102
RTVSPropertyOp3
 70
     0
102
RTVSPropertyOp4
 70
     0
102
RTVSPropertyOp5
 70
     0
102
RTVSPropertyOp6
 70
     0
102
RTVSPropertyOp7
 70
     0
102
RTVSPropertyOp8
 70
     0
102
RTVSPropertyOp9
 70
     0
102
RTVSPropertyOp10
 70
     0
102
RTVSPropertyOp11
 70
     0
102
RTVSPropertyOp12
 70
     0
102
RTVSPropertyOp13
 70
     0
102
RTVSPropertyOp14
 70
     2
102
RTVSPropertyOp15
 70
     0
102
RTVSPropertyOp16
 70
     0
102
RTVSPropertyOp17
 70
     0
102
RTVSPropertyOp18
 70
     0
102
RTVSPropertyOp19
 70
     0
102
RTVSPropertyOp20
 70
     0
102
RTVSPropertyOp21
 70
     0
102
RTVSPropertyOp22
 70
     0
102
RTVSPropertyOp23
 70
     0
102
RTVSPropertyOp24
 70
     0
102
RTVSPropertyOp25
 70
     0
102
RTVSPropertyOp26
 70
     0
102
RTVSPropertyOp27
 70
     0
102
RTVSPropertyOp28
 70
     0
102
RTVSPropertyOp29
 70
     0
102
RTVSPropertyOp30
 70
     0
102
RTVSPropertyOp31
 70
     0
102
RTVSPropertyOp32
 70
     0
102
RTVSPropertyOp33
 70
     0
102
RTVSPropertyOp34
 70
     0
102
RTVSPropertyOp35
 70
     0
102
RTVSPropertyOp36
 70
     0
102
RTVSPropertyOp37
 70
     0
102
RTVSPropertyOp38
 70
     0
102
RTVSPropertyOp39
 70
     0
102
RTVSPropertyOp40
 70
     0
102
RTVSPropertyOp41
 70
     0
102
RTVSPropertyOp42
 70
     0
102
RTVSPropertyOp43
 70
     0
102
RTVSPropertyOp44
 70
     0
102
RTVSPropertyOp45
 70
     0
102
RTVSPropertyOp46
 70
     0
102
RTVSPropertyOp47
 70
     0
102
RTVSPropertyOp48
 70
     0
102
RTVSPropertyOp49
 70
     0
102
RTVSPropertyOp50
 70
     0
102
RTVSPropertyOp51
 70
     0
102
RTVSPropertyOp52
 70
     0
102
RTVSPropertyOp53
 70
     0
102
RTVSPropertyOp54
 70
     0
102
RTVSPropertyOp55
 70
     0
102
RTVSPropertyOp56
 70
     0
102
RTVSPropertyOp57
 70
     0
102
RTVSPost2010Prop28
280
     0
102
RTVSPost2010PropOp28
 70
     0
102
RTVSPost2010Prop29
280
     1
102
RTVSPost2010PropOp29
 70
     0
102
RTVSPost2010Prop30
280
     1
102
RTVSPost2010PropOp30
 70
     0
102
RTVSPost2010Prop31
280
     0
102
RTVSPost2010PropOp31
 70
     0
102
RTVSPost2010Prop32
280
     0
102
RTVSPost2010PropOp32
 70
     0
102
RTVSPost2010Prop33
280
     0
102
RTVSPost2010PropOp33
 70
     0
102
RTVSPost2010Prop34
280
     0
102
RTVSPost2010PropOp34
 70
     0
102
RTVSPost2010Prop35
280
     0
102
RTVSPost2010PropOp35
 70
     0
102
RTVSPost2010Prop36
280
     0
102
RTVSPost2010PropOp36
 70
     0
102
RTVSPost2010Prop37
 90
       50
102
RTVSPost2010PropOp37
 70
     0
102
RTVSPost2010Prop38
140
0.0
102
RTVSPost2010PropOp38
 70
     0
102
RTVSPost2010Prop39
140
1.0
102
RTVSPost2010PropOp39
 70
     0
102
RTVSPost2010Prop40
 90
        0
102
RTVSPost2010PropOp40
 70
     0
102
RTVSPost2010Prop41ColorIndex
 90
       18
102
RTVSPost2010Prop41ColorRGB
 90
        0
102
RTVSPost2010PropOp41
 70
     0
102
RTVSPost2010Prop42
 90
       50
102
RTVSPost2010PropOp42
 70
     0
102
RTVSPost2010Prop43
 90
        3
102
RTVSPost2010PropOp43
 70
     0
102
RTVSPost2010Prop44ColorIndex
 90
        5
102
RTVSPost2010Prop44ColorRGB
 90
      255
102
RTVSPost2010PropOp44
 70
     0
102
RTVSPost2010Prop45
280
     0
102
RTVSPost2010PropOp45
 70
     0
102
RTVSPost2010Prop46
 90
       50
102
RTVSPost2010PropOp46
 70
     0
102
RTVSPost2010Prop47
 90
       50
102
RTVSPost2010PropOp47
 70
     0
102
RTVSPost2010Prop48
 90
       50
102
RTVSPost2010PropOp48
 70
     0
102
RTVSPost2010Prop49
280
     0
102
RTVSPost2010PropOp49
 70
     0
102
RTVSPost2010Prop50
 90
       50
102
RTVSPost2010PropOp50
 70
     0
102
RTVSPost2010Prop51ColorIndex
 90
      256
102
RTVSPost2010Prop51ColorRGB
 90
-16777216
102
RTVSPost2010PropOp51
 70
     0
102
RTVSPost2010Prop52
140
1.0
102
RTVSPost2010PropOp52
 70
     0
102
RTVSPost2010Prop53
 90
        2
102
RTVSPost2010PropOp53
 70
     0
102
RTVSPost2010Prop54
  1
strokes_ogs.tif
102
RTVSPost2010PropOp54
 70
     0
102
RTVSPost2010Prop55
280
     0
102
RTVSPost2010PropOp55
 70
     0
102
RTVSPost2010Prop56
140
1.0
102
RTVSPost2010PropOp56
 70
     0
102
RTVSPost2010Prop57
140
1.0
102
RTVSPost2010PropOp57
 70
     0
  0
XRECORD
  5
282
102
{ACAD_REACTORS
330
281
102
}
330
281
100
AcDbXrecord
280
     1
102
RTVSPropertyOp0
 70
     1
102
RTVSPropertyOp1
 70
     1
102
RTVSPropertyOp2
 70
     1
102
RTVSPropertyOp3
 70
     1
102
RTVSPropertyOp4
 70
     1
102
RTVSPropertyOp5
 70
     1
102
RTVSPropertyOp6
 70
     1
102
RTVSPropertyOp7
 70
     1
102
RTVSPropertyOp8
 70
     1
102
RTVSPropertyOp9
 70
     1
102
RTVSPropertyOp10
 70
     1
102
RTVSPropertyOp11
 70
     1
102
RTVSPropertyOp12
 70
     1
102
RTVSPropertyOp13
 70
     1
102
RTVSPropertyOp14
 70
     1
102
RTVSPropertyOp15
 70
     1
102
RTVSPropertyOp16
 70
     1
102
RTVSPropertyOp17
 70
     1
102
RTVSPropertyOp18
 70
     1
102
RTVSPropertyOp19
 70
     1
102
RTVSPropertyOp20
 70
     1
102
RTVSPropertyOp21
 70
     1
102
RTVSPropertyOp22
 70
     1
102
RTVSPropertyOp23
 70
     1
102
RTVSPropertyOp24
 70
     1
102
RTVSPropertyOp25
 70
     1
102
RTVSPropertyOp26
 70
     1
102
RTVSPropertyOp27
 70
     1
102
RTVSPropertyOp28
 70
     1
102
RTVSPropertyOp29
 70
     1
102
RTVSPropertyOp30
 70
     1
102
RTVSPropertyOp31
 70
     1
102
RTVSPropertyOp32
 70
     1
102
RTVSPropertyOp33
 70
     1
102
RTVSPropertyOp34
 70
     1
102
RTVSPropertyOp35
 70
     1
102
RTVSPropertyOp36
 70
     1
102
RTVSPropertyOp37
 70
     1
102
RTVSPropertyOp38
 70
     1
102
RTVSPropertyOp39
 70
     1
102
RTVSPropertyOp40
 70
     1
102
RTVSPropertyOp41
 70
     1
102
RTVSPropertyOp42
 70
     1
102
RTVSPropertyOp43
 70
     1
102
RTVSPropertyOp44
 70
     1
102
RTVSPropertyOp45
 70
     1
102
RTVSPropertyOp46
 70
     1
102
RTVSPropertyOp47
 70
     1
102
RTVSPropertyOp48
 70
     1
102
RTVSPropertyOp49
 70
     1
102
RTVSPropertyOp50
 70
     1
102
RTVSPropertyOp51
 70
     0
102
RTVSPropertyOp52
 70
     0
102
RTVSPropertyOp53
 70
     1
102
RTVSPropertyOp54
 70
     1
102
RTVSPropertyOp55
 70
     1
102
RTVSPropertyOp56
 70
     1
102
RTVSPropertyOp57
 70
     1
102
RTVSPost2010Prop28
280
     0
102
RTVSPost2010PropOp28
 70
     1
102
RTVSPost2010Prop29
280
     1
102
RTVSPost2010PropOp29
 70
     1
102
RTVSPost2010Prop30
280
     1
102
RTVSPost2010PropOp30
 70
     1
102
RTVSPost2010Prop31
280
     0
102
RTVSPost2010PropOp31
 70
     1
102
RTVSPost2010Prop32
280
     0
102
RTVSPost2010PropOp32
 70
     1
102
RTVSPost2010Prop33
280
     0
102
RTVSPost2010PropOp33
 70
     1
102
RTVSPost2010Prop34
280
     0
102
RTVSPost2010PropOp34
 70
     1
102
RTVSPost2010Prop35
280
     0
102
RTVSPost2010PropOp35
 70
     1
102
RTVSPost2010Prop36
280
     0
102
RTVSPost2010PropOp36
 70
     1
102
RTVSPost2010Prop37
 90
       50
102
RTVSPost2010PropOp37
 70
     1
102
RTVSPost2010Prop38
140
0.0
102
RTVSPost2010PropOp38
 70
     1
102
RTVSPost2010Prop39
140
1.0
102
RTVSPost2010PropOp39
 70
     1
102
RTVSPost2010Prop40
 90
        0
102
RTVSPost2010PropOp40
 70
     1
102
RTVSPost2010Prop41ColorIndex
 90
       18
102
RTVSPost2010Prop41ColorRGB
 90
        0
102
RTVSPost2010PropOp41
 70
     1
102
RTVSPost2010Prop42
 90
       50
102
RTVSPost2010PropOp42
 70
     1
102
RTVSPost2010Prop43
 90
        3
102
RTVSPost2010PropOp43
 70
     1
102
RTVSPost2010Prop44ColorIndex
 90
        5
102
RTVSPost2010Prop44ColorRGB
 90
      255
102
RTVSPost2010PropOp44
 70
     1
102
RTVSPost2010Prop45
280
     0
102
RTVSPost2010PropOp45
 70
     1
102
RTVSPost2010Prop46
 90
       50
102
RTVSPost2010PropOp46
 70
     1
102
RTVSPost2010Prop47
 90
       50
102
RTVSPost2010PropOp47
 70
     1
102
RTVSPost2010Prop48
 90
       50
102
RTVSPost2010PropOp48
 70
     1
102
RTVSPost2010Prop49
280
     0
102
RTVSPost2010PropOp49
 70
     1
102
RTVSPost2010Prop50
 90
       50
102
RTVSPost2010PropOp50
 70
     1
102
RTVSPost2010Prop51ColorIndex
 90
      256
102
RTVSPost2010Prop51ColorRGB
 90
-16777216
102
RTVSPost2010PropOp51
 70
     0
102
RTVSPost2010Prop52
140
1.0
102
RTVSPost2010PropOp52
 70
     0
102
RTVSPost2010Prop53
 90
        2
102
RTVSPost2010PropOp53
 70
     1
102
RTVSPost2010Prop54
  1
strokes_ogs.tif
102
RTVSPost2010PropOp54
 70
     1
102
RTVSPost2010Prop55
280
     0
102
RTVSPost2010PropOp55
 70
     1
102
RTVSPost2010Prop56
140
1.0
102
RTVSPost2010PropOp56
 70
     1
102
RTVSPost2010Prop57
140
1.0
102
RTVSPost2010PropOp57
 70
     1
  0
XRECORD
  5
28A
102
{ACAD_REACTORS
330
289
102
}
330
289
100
AcDbXrecord
280
     1
102
RTVSPropertyOp0
 70
     0
102
RTVSPropertyOp1
 70
     0
102
RTVSPropertyOp2
 70
     0
102
RTVSPropertyOp3
 70
     0
102
RTVSPropertyOp4
 70
     0
102
RTVSPropertyOp5
 70
     0
102
RTVSPropertyOp6
 70
     0
102
RTVSPropertyOp7
 70
     0
102
RTVSPropertyOp8
 70
     0
102
RTVSPropertyOp9
 70
     0
102
RTVSPropertyOp10
 70
     0
102
RTVSPropertyOp11
 70
     0
102
RTVSPropertyOp12
 70
     0
102
RTVSPropertyOp13
 70
     0
102
RTVSPropertyOp14
 70
     2
102
RTVSPropertyOp15
 70
     0
102
RTVSPropertyOp16
 70
     0
102
RTVSPropertyOp17
 70
     0
102
RTVSPropertyOp18
 70
     0
102
RTVSPropertyOp19
 70
     0
102
RTVSPropertyOp20
 70
     0
102
RTVSPropertyOp21
 70
     0
102
RTVSPropertyOp22
 70
     0
102
RTVSPropertyOp23
 70
     0
102
RTVSPropertyOp24
 70
     0
102
RTVSPropertyOp25
 70
     0
102
RTVSPropertyOp26
 70
     0
102
RTVSPropertyOp27
 70
     0
102
RTVSPropertyOp28
 70
     0
102
RTVSPropertyOp29
 70
     0
102
RTVSPropertyOp30
 70
     0
102
RTVSPropertyOp31
 70
     0
102
RTVSPropertyOp32
 70
     0
102
RTVSPropertyOp33
 70
     0
102
RTVSPropertyOp34
 70
     0
102
RTVSPropertyOp35
 70
     0
102
RTVSPropertyOp36
 70
     0
102
RTVSPropertyOp37
 70
     0
102
RTVSPropertyOp38
 70
     0
102
RTVSPropertyOp39
 70
     0
102
RTVSPropertyOp40
 70
     0
102
RTVSPropertyOp41
 70
     0
102
RTVSPropertyOp42
 70
     0
102
RTVSPropertyOp43
 70
     0
102
RTVSPropertyOp44
 70
     0
102
RTVSPropertyOp45
 70
     0
102
RTVSPropertyOp46
 70
     0
102
RTVSPropertyOp47
 70
     0
102
RTVSPropertyOp48
 70
     0
102
RTVSPropertyOp49
 70
     0
102
RTVSPropertyOp50
 70
     0
102
RTVSPropertyOp51
 70
     0
102
RTVSPropertyOp52
 70
     0
102
RTVSPropertyOp53
 70
     0
102
RTVSPropertyOp54
 70
     0
102
RTVSPropertyOp55
 70
     0
102
RTVSPropertyOp56
 70
     0
102
RTVSPropertyOp57
 70
     0
102
RTVSPost2010Prop28
280
     0
102
RTVSPost2010PropOp28
 70
     0
102
RTVSPost2010Prop29
280
     1
102
RTVSPost2010PropOp29
 70
     0
102
RTVSPost2010Prop30
280
     1
102
RTVSPost2010PropOp30
 70
     0
102
RTVSPost2010Prop31
280
     0
102
RTVSPost2010PropOp31
 70
     0
102
RTVSPost2010Prop32
280
     0
102
RTVSPost2010PropOp32
 70
     0
102
RTVSPost2010Prop33
280
     0
102
RTVSPost2010PropOp33
 70
     0
102
RTVSPost2010Prop34
280
     0
102
RTVSPost2010PropOp34
 70
     0
102
RTVSPost2010Prop35
280
     0
102
RTVSPost2010PropOp35
 70
     0
102
RTVSPost2010Prop36
280
     0
102
RTVSPost2010PropOp36
 70
     0
102
RTVSPost2010Prop37
 90
       50
102
RTVSPost2010PropOp37
 70
     0
102
RTVSPost2010Prop38
140
0.0
102
RTVSPost2010PropOp38
 70
     0
102
RTVSPost2010Prop39
140
1.0
102
RTVSPost2010PropOp39
 70
     0
102
RTVSPost2010Prop40
 90
        0
102
RTVSPost2010PropOp40
 70
     0
102
RTVSPost2010Prop41ColorIndex
 90
       18
102
RTVSPost2010Prop41ColorRGB
 90
        0
102
RTVSPost2010PropOp41
 70
     0
102
RTVSPost2010Prop42
 90
       50
102
RTVSPost2010PropOp42
 70
     0
102
RTVSPost2010Prop43
 90
        3
102
RTVSPost2010PropOp43
 70
     0
102
RTVSPost2010Prop44ColorIndex
 90
        5
102
RTVSPost2010Prop44ColorRGB
 90
      255
102
RTVSPost2010PropOp44
 70
     0
102
RTVSPost2010Prop45
280
     0
102
RTVSPost2010PropOp45
 70
     0
102
RTVSPost2010Prop46
 90
       50
102
RTVSPost2010PropOp46
 70
     0
102
RTVSPost2010Prop47
 90
       50
102
RTVSPost2010PropOp47
 70
     0
102
RTVSPost2010Prop48
 90
       50
102
RTVSPost2010PropOp48
 70
     0
102
RTVSPost2010Prop49
280
     0
102
RTVSPost2010PropOp49
 70
     0
102
RTVSPost2010Prop50
 90
       50
102
RTVSPost2010PropOp50
 70
     0
102
RTVSPost2010Prop51ColorIndex
 90
      256
102
RTVSPost2010Prop51ColorRGB
 90
-16777216
102
RTVSPost2010PropOp51
 70
     0
102
RTVSPost2010Prop52
140
1.0
102
RTVSPost2010PropOp52
 70
     0
102
RTVSPost2010Prop53
 90
        2
102
RTVSPost2010PropOp53
 70
     0
102
RTVSPost2010Prop54
  1
strokes_ogs.tif
102
RTVSPost2010PropOp54
 70
     0
102
RTVSPost2010Prop55
280
     0
102
RTVSPost2010PropOp55
 70
     0
102
RTVSPost2010Prop56
140
1.0
102
RTVSPost2010PropOp56
 70
     0
102
RTVSPost2010Prop57
140
1.0
102
RTVSPost2010PropOp57
 70
     0
  0
XRECORD
  5
278
102
{ACAD_REACTORS
330
277
102
}
330
277
100
AcDbXrecord
280
     1
102
RTVSPropertyOp0
 70
     1
102
RTVSPropertyOp1
 70
     1
102
RTVSPropertyOp2
 70
     1
102
RTVSPropertyOp3
 70
     1
102
RTVSPropertyOp4
 70
     1
102
RTVSPropertyOp5
 70
     1
102
RTVSPropertyOp6
 70
     1
102
RTVSPropertyOp7
 70
     1
102
RTVSPropertyOp8
 70
     1
102
RTVSPropertyOp9
 70
     1
102
RTVSPropertyOp10
 70
     1
102
RTVSPropertyOp11
 70
     1
102
RTVSPropertyOp12
 70
     1
102
RTVSPropertyOp13
 70
     1
102
RTVSPropertyOp14
 70
     1
102
RTVSPropertyOp15
 70
     1
102
RTVSPropertyOp16
 70
     1
102
RTVSPropertyOp17
 70
     1
102
RTVSPropertyOp18
 70
     1
102
RTVSPropertyOp19
 70
     1
102
RTVSPropertyOp20
 70
     1
102
RTVSPropertyOp21
 70
     1
102
RTVSPropertyOp22
 70
     1
102
RTVSPropertyOp23
 70
     1
102
RTVSPropertyOp24
 70
     1
102
RTVSPropertyOp25
 70
     1
102
RTVSPropertyOp26
 70
     1
102
RTVSPropertyOp27
 70
     1
102
RTVSPropertyOp28
 70
     1
102
RTVSPropertyOp29
 70
     1
102
RTVSPropertyOp30
 70
     1
102
RTVSPropertyOp31
 70
     1
102
RTVSPropertyOp32
 70
     1
102
RTVSPropertyOp33
 70
     1
102
RTVSPropertyOp34
 70
     1
102
RTVSPropertyOp35
 70
     1
102
RTVSPropertyOp36
 70
     1
102
RTVSPropertyOp37
 70
     1
102
RTVSPropertyOp38
 70
     1
102
RTVSPropertyOp39
 70
     1
102
RTVSPropertyOp40
 70
     1
102
RTVSPropertyOp41
 70
     1
102
RTVSPropertyOp42
 70
     1
102
RTVSPropertyOp43
 70
     1
102
RTVSPropertyOp44
 70
     1
102
RTVSPropertyOp45
 70
     1
102
RTVSPropertyOp46
 70
     1
102
RTVSPropertyOp47
 70
     1
102
RTVSPropertyOp48
 70
     1
102
RTVSPropertyOp49
 70
     1
102
RTVSPropertyOp50
 70
     1
102
RTVSPropertyOp51
 70
     0
102
RTVSPropertyOp52
 70
     0
102
RTVSPropertyOp53
 70
     1
102
RTVSPropertyOp54
 70
     1
102
RTVSPropertyOp55
 70
     1
102
RTVSPropertyOp56
 70
     1
102
RTVSPropertyOp57
 70
     1
102
RTVSPost2010Prop28
280
     0
102
RTVSPost2010PropOp28
 70
     1
102
RTVSPost2010Prop29
280
     1
102
RTVSPost2010PropOp29
 70
     1
102
RTVSPost2010Prop30
280
     1
102
RTVSPost2010PropOp30
 70
     1
102
RTVSPost2010Prop31
280
     0
102
RTVSPost2010PropOp31
 70
     1
102
RTVSPost2010Prop32
280
     0
102
RTVSPost2010PropOp32
 70
     1
102
RTVSPost2010Prop33
280
     0
102
RTVSPost2010PropOp33
 70
     1
102
RTVSPost2010Prop34
280
     0
102
RTVSPost2010PropOp34
 70
     1
102
RTVSPost2010Prop35
280
     0
102
RTVSPost2010PropOp35
 70
     1
102
RTVSPost2010Prop36
280
     0
102
RTVSPost2010PropOp36
 70
     1
102
RTVSPost2010Prop37
 90
       50
102
RTVSPost2010PropOp37
 70
     1
102
RTVSPost2010Prop38
140
0.0
102
RTVSPost2010PropOp38
 70
     1
102
RTVSPost2010Prop39
140
1.0
102
RTVSPost2010PropOp39
 70
     1
102
RTVSPost2010Prop40
 90
        0
102
RTVSPost2010PropOp40
 70
     1
102
RTVSPost2010Prop41ColorIndex
 90
       18
102
RTVSPost2010Prop41ColorRGB
 90
        0
102
RTVSPost2010PropOp41
 70
     1
102
RTVSPost2010Prop42
 90
       50
102
RTVSPost2010PropOp42
 70
     1
102
RTVSPost2010Prop43
 90
        3
102
RTVSPost2010PropOp43
 70
     1
102
RTVSPost2010Prop44ColorIndex
 90
        5
102
RTVSPost2010Prop44ColorRGB
 90
      255
102
RTVSPost2010PropOp44
 70
     1
102
RTVSPost2010Prop45
280
     0
102
RTVSPost2010PropOp45
 70
     1
102
RTVSPost2010Prop46
 90
       50
102
RTVSPost2010PropOp46
 70
     1
102
RTVSPost2010Prop47
 90
       50
102
RTVSPost2010PropOp47
 70
     1
102
RTVSPost2010Prop48
 90
       50
102
RTVSPost2010PropOp48
 70
     1
102
RTVSPost2010Prop49
280
     0
102
RTVSPost2010PropOp49
 70
     1
102
RTVSPost2010Prop50
 90
       50
102
RTVSPost2010PropOp50
 70
     1
102
RTVSPost2010Prop51ColorIndex
 90
      256
102
RTVSPost2010Prop51ColorRGB
 90
-16777216
102
RTVSPost2010PropOp51
 70
     0
102
RTVSPost2010Prop52
140
1.0
102
RTVSPost2010PropOp52
 70
     0
102
RTVSPost2010Prop53
 90
        2
102
RTVSPost2010PropOp53
 70
     1
102
RTVSPost2010Prop54
  1
strokes_ogs.tif
102
RTVSPost2010PropOp54
 70
     1
102
RTVSPost2010Prop55
280
     0
102
RTVSPost2010PropOp55
 70
     1
102
RTVSPost2010Prop56
140
1.0
102
RTVSPost2010PropOp56
 70
     1
102
RTVSPost2010Prop57
140
1.0
102
RTVSPost2010PropOp57
 70
     1
  0
XRECORD
  5
296
102
{ACAD_REACTORS
330
295
102
}
330
295
100
AcDbXrecord
280
     1
102
RTVSPropertyOp0
 70
     1
102
RTVSPropertyOp1
 70
     1
102
RTVSPropertyOp2
 70
     1
102
RTVSPropertyOp3
 70
     1
102
RTVSPropertyOp4
 70
     1
102
RTVSPropertyOp5
 70
     1
102
RTVSPropertyOp6
 70
     1
102
RTVSPropertyOp7
 70
     1
102
RTVSPropertyOp8
 70
     1
102
RTVSPropertyOp9
 70
     1
102
RTVSPropertyOp10
 70
     1
102
RTVSPropertyOp11
 70
     1
102
RTVSPropertyOp12
 70
     1
102
RTVSPropertyOp13
 70
     1
102
RTVSPropertyOp14
 70
     1
102
RTVSPropertyOp15
 70
     1
102
RTVSPropertyOp16
 70
     1
102
RTVSPropertyOp17
 70
     1
102
RTVSPropertyOp18
 70
     1
102
RTVSPropertyOp19
 70
     1
102
RTVSPropertyOp20
 70
     1
102
RTVSPropertyOp21
 70
     1
102
RTVSPropertyOp22
 70
     1
102
RTVSPropertyOp23
 70
     1
102
RTVSPropertyOp24
 70
     1
102
RTVSPropertyOp25
 70
     1
102
RTVSPropertyOp26
 70
     1
102
RTVSPropertyOp27
 70
     1
102
RTVSPropertyOp28
 70
     1
102
RTVSPropertyOp29
 70
     1
102
RTVSPropertyOp30
 70
     1
102
RTVSPropertyOp31
 70
     1
102
RTVSPropertyOp32
 70
     1
102
RTVSPropertyOp33
 70
     1
102
RTVSPropertyOp34
 70
     1
102
RTVSPropertyOp35
 70
     1
102
RTVSPropertyOp36
 70
     1
102
RTVSPropertyOp37
 70
     1
102
RTVSPropertyOp38
 70
     1
102
RTVSPropertyOp39
 70
     1
102
RTVSPropertyOp40
 70
     1
102
RTVSPropertyOp41
 70
     1
102
RTVSPropertyOp42
 70
     1
102
RTVSPropertyOp43
 70
     1
102
RTVSPropertyOp44
 70
     1
102
RTVSPropertyOp45
 70
     1
102
RTVSPropertyOp46
 70
     1
102
RTVSPropertyOp47
 70
     1
102
RTVSPropertyOp48
 70
     1
102
RTVSPropertyOp49
 70
     1
102
RTVSPropertyOp50
 70
     1
102
RTVSPropertyOp51
 70
     0
102
RTVSPropertyOp52
 70
     0
102
RTVSPropertyOp53
 70
     1
102
RTVSPropertyOp54
 70
     1
102
RTVSPropertyOp55
 70
     1
102
RTVSPropertyOp56
 70
     1
102
RTVSPropertyOp57
 70
     1
102
RTVSPost2010Prop28
280
     0
102
RTVSPost2010PropOp28
 70
     1
102
RTVSPost2010Prop29
280
     1
102
RTVSPost2010PropOp29
 70
     1
102
RTVSPost2010Prop30
280
     1
102
RTVSPost2010PropOp30
 70
     1
102
RTVSPost2010Prop31
280
     0
102
RTVSPost2010PropOp31
 70
     1
102
RTVSPost2010Prop32
280
     0
102
RTVSPost2010PropOp32
 70
     1
102
RTVSPost2010Prop33
280
     0
102
RTVSPost2010PropOp33
 70
     1
102
RTVSPost2010Prop34
280
     0
102
RTVSPost2010PropOp34
 70
     1
102
RTVSPost2010Prop35
280
     0
102
RTVSPost2010PropOp35
 70
     1
102
RTVSPost2010Prop36
280
     0
102
RTVSPost2010PropOp36
 70
     1
102
RTVSPost2010Prop37
 90
       50
102
RTVSPost2010PropOp37
 70
     1
102
RTVSPost2010Prop38
140
0.0
102
RTVSPost2010PropOp38
 70
     1
102
RTVSPost2010Prop39
140
1.0
102
RTVSPost2010PropOp39
 70
     1
102
RTVSPost2010Prop40
 90
        0
102
RTVSPost2010PropOp40
 70
     1
102
RTVSPost2010Prop41ColorIndex
 90
       18
102
RTVSPost2010Prop41ColorRGB
 90
        0
102
RTVSPost2010PropOp41
 70
     1
102
RTVSPost2010Prop42
 90
       50
102
RTVSPost2010PropOp42
 70
     1
102
RTVSPost2010Prop43
 90
        3
102
RTVSPost2010PropOp43
 70
     1
102
RTVSPost2010Prop44ColorIndex
 90
        5
102
RTVSPost2010Prop44ColorRGB
 90
      255
102
RTVSPost2010PropOp44
 70
     1
102
RTVSPost2010Prop45
280
     0
102
RTVSPost2010PropOp45
 70
     1
102
RTVSPost2010Prop46
 90
       50
102
RTVSPost2010PropOp46
 70
     1
102
RTVSPost2010Prop47
 90
       50
102
RTVSPost2010PropOp47
 70
     1
102
RTVSPost2010Prop48
 90
       50
102
RTVSPost2010PropOp48
 70
     1
102
RTVSPost2010Prop49
280
     0
102
RTVSPost2010PropOp49
 70
     1
102
RTVSPost2010Prop50
 90
       50
102
RTVSPost2010PropOp50
 70
     1
102
RTVSPost2010Prop51ColorIndex
 90
      256
102
RTVSPost2010Prop51ColorRGB
 90
-16777216
102
RTVSPost2010PropOp51
 70
     0
102
RTVSPost2010Prop52
140
1.0
102
RTVSPost2010PropOp52
 70
     0
102
RTVSPost2010Prop53
 90
        2
102
RTVSPost2010PropOp53
 70
     1
102
RTVSPost2010Prop54
  1
strokes_ogs.tif
102
RTVSPost2010PropOp54
 70
     1
102
RTVSPost2010Prop55
280
     0
102
RTVSPost2010PropOp55
 70
     1
102
RTVSPost2010Prop56
140
1.0
102
RTVSPost2010PropOp56
 70
     1
102
RTVSPost2010Prop57
140
1.0
102
RTVSPost2010PropOp57
 70
     1
  0
XRECORD
  5
294
102
{ACAD_REACTORS
330
293
102
}
330
293
100
AcDbXrecord
280
     1
102
RTVSPropertyOp0
 70
     1
102
RTVSPropertyOp1
 70
     1
102
RTVSPropertyOp2
 70
     1
102
RTVSPropertyOp3
 70
     1
102
RTVSPropertyOp4
 70
     1
102
RTVSPropertyOp5
 70
     1
102
RTVSPropertyOp6
 70
     1
102
RTVSPropertyOp7
 70
     1
102
RTVSPropertyOp8
 70
     1
102
RTVSPropertyOp9
 70
     1
102
RTVSPropertyOp10
 70
     1
102
RTVSPropertyOp11
 70
     1
102
RTVSPropertyOp12
 70
     1
102
RTVSPropertyOp13
 70
     1
102
RTVSPropertyOp14
 70
     1
102
RTVSPropertyOp15
 70
     1
102
RTVSPropertyOp16
 70
     1
102
RTVSPropertyOp17
 70
     1
102
RTVSPropertyOp18
 70
     1
102
RTVSPropertyOp19
 70
     1
102
RTVSPropertyOp20
 70
     1
102
RTVSPropertyOp21
 70
     1
102
RTVSPropertyOp22
 70
     1
102
RTVSPropertyOp23
 70
     1
102
RTVSPropertyOp24
 70
     1
102
RTVSPropertyOp25
 70
     1
102
RTVSPropertyOp26
 70
     1
102
RTVSPropertyOp27
 70
     1
102
RTVSPropertyOp28
 70
     1
102
RTVSPropertyOp29
 70
     1
102
RTVSPropertyOp30
 70
     1
102
RTVSPropertyOp31
 70
     1
102
RTVSPropertyOp32
 70
     1
102
RTVSPropertyOp33
 70
     1
102
RTVSPropertyOp34
 70
     1
102
RTVSPropertyOp35
 70
     1
102
RTVSPropertyOp36
 70
     1
102
RTVSPropertyOp37
 70
     1
102
RTVSPropertyOp38
 70
     1
102
RTVSPropertyOp39
 70
     1
102
RTVSPropertyOp40
 70
     1
102
RTVSPropertyOp41
 70
     1
102
RTVSPropertyOp42
 70
     1
102
RTVSPropertyOp43
 70
     1
102
RTVSPropertyOp44
 70
     1
102
RTVSPropertyOp45
 70
     1
102
RTVSPropertyOp46
 70
     1
102
RTVSPropertyOp47
 70
     1
102
RTVSPropertyOp48
 70
     1
102
RTVSPropertyOp49
 70
     1
102
RTVSPropertyOp50
 70
     1
102
RTVSPropertyOp51
 70
     0
102
RTVSPropertyOp52
 70
     0
102
RTVSPropertyOp53
 70
     1
102
RTVSPropertyOp54
 70
     1
102
RTVSPropertyOp55
 70
     1
102
RTVSPropertyOp56
 70
     1
102
RTVSPropertyOp57
 70
     1
102
RTVSPost2010Prop28
280
     0
102
RTVSPost2010PropOp28
 70
     1
102
RTVSPost2010Prop29
280
     1
102
RTVSPost2010PropOp29
 70
     1
102
RTVSPost2010Prop30
280
     1
102
RTVSPost2010PropOp30
 70
     1
102
RTVSPost2010Prop31
280
     0
102
RTVSPost2010PropOp31
 70
     1
102
RTVSPost2010Prop32
280
     0
102
RTVSPost2010PropOp32
 70
     1
102
RTVSPost2010Prop33
280
     0
102
RTVSPost2010PropOp33
 70
     1
102
RTVSPost2010Prop34
280
     0
102
RTVSPost2010PropOp34
 70
     1
102
RTVSPost2010Prop35
280
     0
102
RTVSPost2010PropOp35
 70
     1
102
RTVSPost2010Prop36
280
     0
102
RTVSPost2010PropOp36
 70
     1
102
RTVSPost2010Prop37
 90
       50
102
RTVSPost2010PropOp37
 70
     1
102
RTVSPost2010Prop38
140
0.0
102
RTVSPost2010PropOp38
 70
     1
102
RTVSPost2010Prop39
140
1.0
102
RTVSPost2010PropOp39
 70
     1
102
RTVSPost2010Prop40
 90
        0
102
RTVSPost2010PropOp40
 70
     1
102
RTVSPost2010Prop41ColorIndex
 90
       18
102
RTVSPost2010Prop41ColorRGB
 90
        0
102
RTVSPost2010PropOp41
 70
     1
102
RTVSPost2010Prop42
 90
       50
102
RTVSPost2010PropOp42
 70
     1
102
RTVSPost2010Prop43
 90
        3
102
RTVSPost2010PropOp43
 70
     1
102
RTVSPost2010Prop44ColorIndex
 90
        5
102
RTVSPost2010Prop44ColorRGB
 90
      255
102
RTVSPost2010PropOp44
 70
     1
102
RTVSPost2010Prop45
280
     0
102
RTVSPost2010PropOp45
 70
     1
102
RTVSPost2010Prop46
 90
       50
102
RTVSPost2010PropOp46
 70
     1
102
RTVSPost2010Prop47
 90
       50
102
RTVSPost2010PropOp47
 70
     1
102
RTVSPost2010Prop48
 90
       50
102
RTVSPost2010PropOp48
 70
     1
102
RTVSPost2010Prop49
280
     0
102
RTVSPost2010PropOp49
 70
     1
102
RTVSPost2010Prop50
 90
       50
102
RTVSPost2010PropOp50
 70
     1
102
RTVSPost2010Prop51ColorIndex
 90
      256
102
RTVSPost2010Prop51ColorRGB
 90
-16777216
102
RTVSPost2010PropOp51
 70
     0
102
RTVSPost2010Prop52
140
1.0
102
RTVSPost2010PropOp52
 70
     0
102
RTVSPost2010Prop53
 90
        2
102
RTVSPost2010PropOp53
 70
     1
102
RTVSPost2010Prop54
  1
strokes_ogs.tif
102
RTVSPost2010PropOp54
 70
     1
102
RTVSPost2010Prop55
280
     0
102
RTVSPost2010PropOp55
 70
     1
102
RTVSPost2010Prop56
140
1.0
102
RTVSPost2010PropOp56
 70
     1
102
RTVSPost2010Prop57
140
1.0
102
RTVSPost2010PropOp57
 70
     1
  0
XRECORD
  5
28E
102
{ACAD_REACTORS
330
28D
102
}
330
28D
100
AcDbXrecord
280
     1
102
RTVSPropertyOp0
 70
     1
102
RTVSPropertyOp1
 70
     1
102
RTVSPropertyOp2
 70
     1
102
RTVSPropertyOp3
 70
     1
102
RTVSPropertyOp4
 70
     1
102
RTVSPropertyOp5
 70
     1
102
RTVSPropertyOp6
 70
     1
102
RTVSPropertyOp7
 70
     1
102
RTVSPropertyOp8
 70
     1
102
RTVSPropertyOp9
 70
     1
102
RTVSPropertyOp10
 70
     1
102
RTVSPropertyOp11
 70
     1
102
RTVSPropertyOp12
 70
     1
102
RTVSPropertyOp13
 70
     1
102
RTVSPropertyOp14
 70
     1
102
RTVSPropertyOp15
 70
     1
102
RTVSPropertyOp16
 70
     1
102
RTVSPropertyOp17
 70
     1
102
RTVSPropertyOp18
 70
     1
102
RTVSPropertyOp19
 70
     1
102
RTVSPropertyOp20
 70
     1
102
RTVSPropertyOp21
 70
     1
102
RTVSPropertyOp22
 70
     1
102
RTVSPropertyOp23
 70
     1
102
RTVSPropertyOp24
 70
     1
102
RTVSPropertyOp25
 70
     1
102
RTVSPropertyOp26
 70
     1
102
RTVSPropertyOp27
 70
     1
102
RTVSPropertyOp28
 70
     1
102
RTVSPropertyOp29
 70
     1
102
RTVSPropertyOp30
 70
     1
102
RTVSPropertyOp31
 70
     1
102
RTVSPropertyOp32
 70
     1
102
RTVSPropertyOp33
 70
     1
102
RTVSPropertyOp34
 70
     1
102
RTVSPropertyOp35
 70
     1
102
RTVSPropertyOp36
 70
     1
102
RTVSPropertyOp37
 70
     1
102
RTVSPropertyOp38
 70
     1
102
RTVSPropertyOp39
 70
     1
102
RTVSPropertyOp40
 70
     1
102
RTVSPropertyOp41
 70
     1
102
RTVSPropertyOp42
 70
     1
102
RTVSPropertyOp43
 70
     1
102
RTVSPropertyOp44
 70
     1
102
RTVSPropertyOp45
 70
     1
102
RTVSPropertyOp46
 70
     1
102
RTVSPropertyOp47
 70
     1
102
RTVSPropertyOp48
 70
     1
102
RTVSPropertyOp49
 70
     1
102
RTVSPropertyOp50
 70
     1
102
RTVSPropertyOp51
 70
     0
102
RTVSPropertyOp52
 70
     0
102
RTVSPropertyOp53
 70
     1
102
RTVSPropertyOp54
 70
     1
102
RTVSPropertyOp55
 70
     1
102
RTVSPropertyOp56
 70
     1
102
RTVSPropertyOp57
 70
     1
102
RTVSPost2010Prop28
280
     0
102
RTVSPost2010PropOp28
 70
     1
102
RTVSPost2010Prop29
280
     1
102
RTVSPost2010PropOp29
 70
     1
102
RTVSPost2010Prop30
280
     1
102
RTVSPost2010PropOp30
 70
     1
102
RTVSPost2010Prop31
280
     0
102
RTVSPost2010PropOp31
 70
     1
102
RTVSPost2010Prop32
280
     0
102
RTVSPost2010PropOp32
 70
     1
102
RTVSPost2010Prop33
280
     0
102
RTVSPost2010PropOp33
 70
     1
102
RTVSPost2010Prop34
280
     0
102
RTVSPost2010PropOp34
 70
     1
102
RTVSPost2010Prop35
280
     0
102
RTVSPost2010PropOp35
 70
     1
102
RTVSPost2010Prop36
280
     0
102
RTVSPost2010PropOp36
 70
     1
102
RTVSPost2010Prop37
 90
       50
102
RTVSPost2010PropOp37
 70
     1
102
RTVSPost2010Prop38
140
0.0
102
RTVSPost2010PropOp38
 70
     1
102
RTVSPost2010Prop39
140
1.0
102
RTVSPost2010PropOp39
 70
     1
102
RTVSPost2010Prop40
 90
        0
102
RTVSPost2010PropOp40
 70
     1
102
RTVSPost2010Prop41ColorIndex
 90
       18
102
RTVSPost2010Prop41ColorRGB
 90
        0
102
RTVSPost2010PropOp41
 70
     1
102
RTVSPost2010Prop42
 90
       50
102
RTVSPost2010PropOp42
 70
     1
102
RTVSPost2010Prop43
 90
        3
102
RTVSPost2010PropOp43
 70
     1
102
RTVSPost2010Prop44ColorIndex
 90
        5
102
RTVSPost2010Prop44ColorRGB
 90
      255
102
RTVSPost2010PropOp44
 70
     1
102
RTVSPost2010Prop45
280
     0
102
RTVSPost2010PropOp45
 70
     1
102
RTVSPost2010Prop46
 90
       50
102
RTVSPost2010PropOp46
 70
     1
102
RTVSPost2010Prop47
 90
       50
102
RTVSPost2010PropOp47
 70
     1
102
RTVSPost2010Prop48
 90
       50
102
RTVSPost2010PropOp48
 70
     1
102
RTVSPost2010Prop49
280
     0
102
RTVSPost2010PropOp49
 70
     1
102
RTVSPost2010Prop50
 90
       50
102
RTVSPost2010PropOp50
 70
     1
102
RTVSPost2010Prop51ColorIndex
 90
      256
102
RTVSPost2010Prop51ColorRGB
 90
-16777216
102
RTVSPost2010PropOp51
 70
     0
102
RTVSPost2010Prop52
140
1.0
102
RTVSPost2010PropOp52
 70
     0
102
RTVSPost2010Prop53
 90
        2
102
RTVSPost2010PropOp53
 70
     1
102
RTVSPost2010Prop54
  1
strokes_ogs.tif
102
RTVSPost2010PropOp54
 70
     1
102
RTVSPost2010Prop55
280
     0
102
RTVSPost2010PropOp55
 70
     1
102
RTVSPost2010Prop56
140
1.0
102
RTVSPost2010PropOp56
 70
     1
102
RTVSPost2010Prop57
140
1.0
102
RTVSPost2010PropOp57
 70
     1
  0
XRECORD
  5
290
102
{ACAD_REACTORS
330
28F
102
}
330
28F
100
AcDbXrecord
280
     1
102
RTVSPropertyOp0
 70
     1
102
RTVSPropertyOp1
 70
     1
102
RTVSPropertyOp2
 70
     1
102
RTVSPropertyOp3
 70
     1
102
RTVSPropertyOp4
 70
     1
102
RTVSPropertyOp5
 70
     1
102
RTVSPropertyOp6
 70
     1
102
RTVSPropertyOp7
 70
     1
102
RTVSPropertyOp8
 70
     1
102
RTVSPropertyOp9
 70
     1
102
RTVSPropertyOp10
 70
     1
102
RTVSPropertyOp11
 70
     1
102
RTVSPropertyOp12
 70
     1
102
RTVSPropertyOp13
 70
     1
102
RTVSPropertyOp14
 70
     1
102
RTVSPropertyOp15
 70
     1
102
RTVSPropertyOp16
 70
     1
102
RTVSPropertyOp17
 70
     1
102
RTVSPropertyOp18
 70
     1
102
RTVSPropertyOp19
 70
     1
102
RTVSPropertyOp20
 70
     1
102
RTVSPropertyOp21
 70
     1
102
RTVSPropertyOp22
 70
     1
102
RTVSPropertyOp23
 70
     1
102
RTVSPropertyOp24
 70
     1
102
RTVSPropertyOp25
 70
     1
102
RTVSPropertyOp26
 70
     1
102
RTVSPropertyOp27
 70
     1
102
RTVSPropertyOp28
 70
     1
102
RTVSPropertyOp29
 70
     1
102
RTVSPropertyOp30
 70
     1
102
RTVSPropertyOp31
 70
     1
102
RTVSPropertyOp32
 70
     1
102
RTVSPropertyOp33
 70
     1
102
RTVSPropertyOp34
 70
     1
102
RTVSPropertyOp35
 70
     1
102
RTVSPropertyOp36
 70
     1
102
RTVSPropertyOp37
 70
     1
102
RTVSPropertyOp38
 70
     1
102
RTVSPropertyOp39
 70
     1
102
RTVSPropertyOp40
 70
     1
102
RTVSPropertyOp41
 70
     1
102
RTVSPropertyOp42
 70
     1
102
RTVSPropertyOp43
 70
     1
102
RTVSPropertyOp44
 70
     1
102
RTVSPropertyOp45
 70
     1
102
RTVSPropertyOp46
 70
     1
102
RTVSPropertyOp47
 70
     1
102
RTVSPropertyOp48
 70
     1
102
RTVSPropertyOp49
 70
     1
102
RTVSPropertyOp50
 70
     1
102
RTVSPropertyOp51
 70
     0
102
RTVSPropertyOp52
 70
     0
102
RTVSPropertyOp53
 70
     1
102
RTVSPropertyOp54
 70
     1
102
RTVSPropertyOp55
 70
     1
102
RTVSPropertyOp56
 70
     1
102
RTVSPropertyOp57
 70
     1
102
RTVSPost2010Prop28
280
     0
102
RTVSPost2010PropOp28
 70
     1
102
RTVSPost2010Prop29
280
     1
102
RTVSPost2010PropOp29
 70
     1
102
RTVSPost2010Prop30
280
     1
102
RTVSPost2010PropOp30
 70
     1
102
RTVSPost2010Prop31
280
     0
102
RTVSPost2010PropOp31
 70
     1
102
RTVSPost2010Prop32
280
     0
102
RTVSPost2010PropOp32
 70
     1
102
RTVSPost2010Prop33
280
     0
102
RTVSPost2010PropOp33
 70
     1
102
RTVSPost2010Prop34
280
     0
102
RTVSPost2010PropOp34
 70
     1
102
RTVSPost2010Prop35
280
     0
102
RTVSPost2010PropOp35
 70
     1
102
RTVSPost2010Prop36
280
     0
102
RTVSPost2010PropOp36
 70
     1
102
RTVSPost2010Prop37
 90
       50
102
RTVSPost2010PropOp37
 70
     1
102
RTVSPost2010Prop38
140
0.0
102
RTVSPost2010PropOp38
 70
     1
102
RTVSPost2010Prop39
140
1.0
102
RTVSPost2010PropOp39
 70
     1
102
RTVSPost2010Prop40
 90
        0
102
RTVSPost2010PropOp40
 70
     1
102
RTVSPost2010Prop41ColorIndex
 90
       18
102
RTVSPost2010Prop41ColorRGB
 90
        0
102
RTVSPost2010PropOp41
 70
     1
102
RTVSPost2010Prop42
 90
       50
102
RTVSPost2010PropOp42
 70
     1
102
RTVSPost2010Prop43
 90
        3
102
RTVSPost2010PropOp43
 70
     1
102
RTVSPost2010Prop44ColorIndex
 90
        5
102
RTVSPost2010Prop44ColorRGB
 90
      255
102
RTVSPost2010PropOp44
 70
     1
102
RTVSPost2010Prop45
280
     0
102
RTVSPost2010PropOp45
 70
     1
102
RTVSPost2010Prop46
 90
       50
102
RTVSPost2010PropOp46
 70
     1
102
RTVSPost2010Prop47
 90
       50
102
RTVSPost2010PropOp47
 70
     1
102
RTVSPost2010Prop48
 90
       50
102
RTVSPost2010PropOp48
 70
     1
102
RTVSPost2010Prop49
280
     0
102
RTVSPost2010PropOp49
 70
     1
102
RTVSPost2010Prop50
 90
       50
102
RTVSPost2010PropOp50
 70
     1
102
RTVSPost2010Prop51ColorIndex
 90
      256
102
RTVSPost2010Prop51ColorRGB
 90
-16777216
102
RTVSPost2010PropOp51
 70
     0
102
RTVSPost2010Prop52
140
1.0
102
RTVSPost2010PropOp52
 70
     0
102
RTVSPost2010Prop53
 90
        2
102
RTVSPost2010PropOp53
 70
     1
102
RTVSPost2010Prop54
  1
strokes_ogs.tif
102
RTVSPost2010PropOp54
 70
     1
102
RTVSPost2010Prop55
280
     0
102
RTVSPost2010PropOp55
 70
     1
102
RTVSPost2010Prop56
140
1.0
102
RTVSPost2010PropOp56
 70
     1
102
RTVSPost2010Prop57
140
1.0
102
RTVSPost2010PropOp57
 70
     1
  0
XRECORD
  5
280
102
{ACAD_REACTORS
330
27F
102
}
330
27F
100
AcDbXrecord
280
     1
102
RTVSPropertyOp0
 70
     1
102
RTVSPropertyOp1
 70
     1
102
RTVSPropertyOp2
 70
     1
102
RTVSPropertyOp3
 70
     1
102
RTVSPropertyOp4
 70
     1
102
RTVSPropertyOp5
 70
     1
102
RTVSPropertyOp6
 70
     1
102
RTVSPropertyOp7
 70
     1
102
RTVSPropertyOp8
 70
     1
102
RTVSPropertyOp9
 70
     1
102
RTVSPropertyOp10
 70
     1
102
RTVSPropertyOp11
 70
     1
102
RTVSPropertyOp12
 70
     1
102
RTVSPropertyOp13
 70
     1
102
RTVSPropertyOp14
 70
     1
102
RTVSPropertyOp15
 70
     1
102
RTVSPropertyOp16
 70
     1
102
RTVSPropertyOp17
 70
     1
102
RTVSPropertyOp18
 70
     1
102
RTVSPropertyOp19
 70
     1
102
RTVSPropertyOp20
 70
     1
102
RTVSPropertyOp21
 70
     1
102
RTVSPropertyOp22
 70
     1
102
RTVSPropertyOp23
 70
     1
102
RTVSPropertyOp24
 70
     1
102
RTVSPropertyOp25
 70
     1
102
RTVSPropertyOp26
 70
     1
102
RTVSPropertyOp27
 70
     1
102
RTVSPropertyOp28
 70
     1
102
RTVSPropertyOp29
 70
     1
102
RTVSPropertyOp30
 70
     1
102
RTVSPropertyOp31
 70
     1
102
RTVSPropertyOp32
 70
     1
102
RTVSPropertyOp33
 70
     1
102
RTVSPropertyOp34
 70
     1
102
RTVSPropertyOp35
 70
     1
102
RTVSPropertyOp36
 70
     1
102
RTVSPropertyOp37
 70
     1
102
RTVSPropertyOp38
 70
     1
102
RTVSPropertyOp39
 70
     1
102
RTVSPropertyOp40
 70
     1
102
RTVSPropertyOp41
 70
     1
102
RTVSPropertyOp42
 70
     1
102
RTVSPropertyOp43
 70
     1
102
RTVSPropertyOp44
 70
     1
102
RTVSPropertyOp45
 70
     1
102
RTVSPropertyOp46
 70
     1
102
RTVSPropertyOp47
 70
     1
102
RTVSPropertyOp48
 70
     1
102
RTVSPropertyOp49
 70
     1
102
RTVSPropertyOp50
 70
     1
102
RTVSPropertyOp51
 70
     0
102
RTVSPropertyOp52
 70
     0
102
RTVSPropertyOp53
 70
     1
102
RTVSPropertyOp54
 70
     1
102
RTVSPropertyOp55
 70
     1
102
RTVSPropertyOp56
 70
     1
102
RTVSPropertyOp57
 70
     1
102
RTVSPost2010Prop28
280
     0
102
RTVSPost2010PropOp28
 70
     1
102
RTVSPost2010Prop29
280
     1
102
RTVSPost2010PropOp29
 70
     1
102
RTVSPost2010Prop30
280
     1
102
RTVSPost2010PropOp30
 70
     1
102
RTVSPost2010Prop31
280
     0
102
RTVSPost2010PropOp31
 70
     1
102
RTVSPost2010Prop32
280
     0
102
RTVSPost2010PropOp32
 70
     1
102
RTVSPost2010Prop33
280
     0
102
RTVSPost2010PropOp33
 70
     1
102
RTVSPost2010Prop34
280
     0
102
RTVSPost2010PropOp34
 70
     1
102
RTVSPost2010Prop35
280
     0
102
RTVSPost2010PropOp35
 70
     1
102
RTVSPost2010Prop36
280
     0
102
RTVSPost2010PropOp36
 70
     1
102
RTVSPost2010Prop37
 90
       50
102
RTVSPost2010PropOp37
 70
     1
102
RTVSPost2010Prop38
140
0.0
102
RTVSPost2010PropOp38
 70
     1
102
RTVSPost2010Prop39
140
1.0
102
RTVSPost2010PropOp39
 70
     1
102
RTVSPost2010Prop40
 90
        0
102
RTVSPost2010PropOp40
 70
     1
102
RTVSPost2010Prop41ColorIndex
 90
       18
102
RTVSPost2010Prop41ColorRGB
 90
        0
102
RTVSPost2010PropOp41
 70
     1
102
RTVSPost2010Prop42
 90
       50
102
RTVSPost2010PropOp42
 70
     1
102
RTVSPost2010Prop43
 90
        3
102
RTVSPost2010PropOp43
 70
     1
102
RTVSPost2010Prop44ColorIndex
 90
        5
102
RTVSPost2010Prop44ColorRGB
 90
      255
102
RTVSPost2010PropOp44
 70
     1
102
RTVSPost2010Prop45
280
     0
102
RTVSPost2010PropOp45
 70
     1
102
RTVSPost2010Prop46
 90
       50
102
RTVSPost2010PropOp46
 70
     1
102
RTVSPost2010Prop47
 90
       50
102
RTVSPost2010PropOp47
 70
     1
102
RTVSPost2010Prop48
 90
       50
102
RTVSPost2010PropOp48
 70
     1
102
RTVSPost2010Prop49
280
     0
102
RTVSPost2010PropOp49
 70
     1
102
RTVSPost2010Prop50
 90
       50
102
RTVSPost2010PropOp50
 70
     1
102
RTVSPost2010Prop51ColorIndex
 90
      256
102
RTVSPost2010Prop51ColorRGB
 90
-16777216
102
RTVSPost2010PropOp51
 70
     0
102
RTVSPost2010Prop52
140
1.0
102
RTVSPost2010PropOp52
 70
     0
102
RTVSPost2010Prop53
 90
        2
102
RTVSPost2010PropOp53
 70
     1
102
RTVSPost2010Prop54
  1
strokes_ogs.tif
102
RTVSPost2010PropOp54
 70
     1
102
RTVSPost2010Prop55
280
     0
102
RTVSPost2010PropOp55
 70
     1
102
RTVSPost2010Prop56
140
1.0
102
RTVSPost2010PropOp56
 70
     1
102
RTVSPost2010Prop57
140
1.0
102
RTVSPost2010PropOp57
 70
     1
  0
XRECORD
  5
272
102
{ACAD_REACTORS
330
271
102
}
330
271
100
AcDbXrecord
280
     1
102
RTVSPropertyOp0
 70
     1
102
RTVSPropertyOp1
 70
     1
102
RTVSPropertyOp2
 70
     1
102
RTVSPropertyOp3
 70
     1
102
RTVSPropertyOp4
 70
     1
102
RTVSPropertyOp5
 70
     1
102
RTVSPropertyOp6
 70
     1
102
RTVSPropertyOp7
 70
     1
102
RTVSPropertyOp8
 70
     1
102
RTVSPropertyOp9
 70
     1
102
RTVSPropertyOp10
 70
     1
102
RTVSPropertyOp11
 70
     1
102
RTVSPropertyOp12
 70
     1
102
RTVSPropertyOp13
 70
     1
102
RTVSPropertyOp14
 70
     1
102
RTVSPropertyOp15
 70
     1
102
RTVSPropertyOp16
 70
     1
102
RTVSPropertyOp17
 70
     1
102
RTVSPropertyOp18
 70
     1
102
RTVSPropertyOp19
 70
     1
102
RTVSPropertyOp20
 70
     1
102
RTVSPropertyOp21
 70
     1
102
RTVSPropertyOp22
 70
     1
102
RTVSPropertyOp23
 70
     1
102
RTVSPropertyOp24
 70
     1
102
RTVSPropertyOp25
 70
     1
102
RTVSPropertyOp26
 70
     1
102
RTVSPropertyOp27
 70
     1
102
RTVSPropertyOp28
 70
     1
102
RTVSPropertyOp29
 70
     1
102
RTVSPropertyOp30
 70
     1
102
RTVSPropertyOp31
 70
     1
102
RTVSPropertyOp32
 70
     1
102
RTVSPropertyOp33
 70
     1
102
RTVSPropertyOp34
 70
     1
102
RTVSPropertyOp35
 70
     1
102
RTVSPropertyOp36
 70
     1
102
RTVSPropertyOp37
 70
     1
102
RTVSPropertyOp38
 70
     1
102
RTVSPropertyOp39
 70
     1
102
RTVSPropertyOp40
 70
     1
102
RTVSPropertyOp41
 70
     1
102
RTVSPropertyOp42
 70
     1
102
RTVSPropertyOp43
 70
     1
102
RTVSPropertyOp44
 70
     1
102
RTVSPropertyOp45
 70
     1
102
RTVSPropertyOp46
 70
     1
102
RTVSPropertyOp47
 70
     1
102
RTVSPropertyOp48
 70
     1
102
RTVSPropertyOp49
 70
     1
102
RTVSPropertyOp50
 70
     1
102
RTVSPropertyOp51
 70
     0
102
RTVSPropertyOp52
 70
     0
102
RTVSPropertyOp53
 70
     1
102
RTVSPropertyOp54
 70
     1
102
RTVSPropertyOp55
 70
     1
102
RTVSPropertyOp56
 70
     1
102
RTVSPropertyOp57
 70
     1
102
RTVSPost2010Prop28
280
     0
102
RTVSPost2010PropOp28
 70
     1
102
RTVSPost2010Prop29
280
     1
102
RTVSPost2010PropOp29
 70
     1
102
RTVSPost2010Prop30
280
     1
102
RTVSPost2010PropOp30
 70
     1
102
RTVSPost2010Prop31
280
     0
102
RTVSPost2010PropOp31
 70
     1
102
RTVSPost2010Prop32
280
     0
102
RTVSPost2010PropOp32
 70
     1
102
RTVSPost2010Prop33
280
     0
102
RTVSPost2010PropOp33
 70
     1
102
RTVSPost2010Prop34
280
     0
102
RTVSPost2010PropOp34
 70
     1
102
RTVSPost2010Prop35
280
     0
102
RTVSPost2010PropOp35
 70
     1
102
RTVSPost2010Prop36
280
     0
102
RTVSPost2010PropOp36
 70
     1
102
RTVSPost2010Prop37
 90
       50
102
RTVSPost2010PropOp37
 70
     1
102
RTVSPost2010Prop38
140
0.0
102
RTVSPost2010PropOp38
 70
     1
102
RTVSPost2010Prop39
140
1.0
102
RTVSPost2010PropOp39
 70
     1
102
RTVSPost2010Prop40
 90
        0
102
RTVSPost2010PropOp40
 70
     1
102
RTVSPost2010Prop41ColorIndex
 90
       18
102
RTVSPost2010Prop41ColorRGB
 90
        0
102
RTVSPost2010PropOp41
 70
     1
102
RTVSPost2010Prop42
 90
       50
102
RTVSPost2010PropOp42
 70
     1
102
RTVSPost2010Prop43
 90
        3
102
RTVSPost2010PropOp43
 70
     1
102
RTVSPost2010Prop44ColorIndex
 90
        5
102
RTVSPost2010Prop44ColorRGB
 90
      255
102
RTVSPost2010PropOp44
 70
     1
102
RTVSPost2010Prop45
280
     0
102
RTVSPost2010PropOp45
 70
     1
102
RTVSPost2010Prop46
 90
       50
102
RTVSPost2010PropOp46
 70
     1
102
RTVSPost2010Prop47
 90
       50
102
RTVSPost2010PropOp47
 70
     1
102
RTVSPost2010Prop48
 90
       50
102
RTVSPost2010PropOp48
 70
     1
102
RTVSPost2010Prop49
280
     0
102
RTVSPost2010PropOp49
 70
     1
102
RTVSPost2010Prop50
 90
       50
102
RTVSPost2010PropOp50
 70
     1
102
RTVSPost2010Prop51ColorIndex
 90
      256
102
RTVSPost2010Prop51ColorRGB
 90
-16777216
102
RTVSPost2010PropOp51
 70
     0
102
RTVSPost2010Prop52
140
1.0
102
RTVSPost2010PropOp52
 70
     0
102
RTVSPost2010Prop53
 90
        2
102
RTVSPost2010PropOp53
 70
     1
102
RTVSPost2010Prop54
  1
strokes_ogs.tif
102
RTVSPost2010PropOp54
 70
     1
102
RTVSPost2010Prop55
280
     0
102
RTVSPost2010PropOp55
 70
     1
102
RTVSPost2010Prop56
140
1.0
102
RTVSPost2010PropOp56
 70
     1
102
RTVSPost2010Prop57
140
1.0
102
RTVSPost2010PropOp57
 70
     1
  0
XRECORD
  5
292
102
{ACAD_REACTORS
330
291
102
}
330
291
100
AcDbXrecord
280
     1
102
RTVSPropertyOp0
 70
     1
102
RTVSPropertyOp1
 70
     1
102
RTVSPropertyOp2
 70
     1
102
RTVSPropertyOp3
 70
     1
102
RTVSPropertyOp4
 70
     1
102
RTVSPropertyOp5
 70
     1
102
RTVSPropertyOp6
 70
     1
102
RTVSPropertyOp7
 70
     1
102
RTVSPropertyOp8
 70
     1
102
RTVSPropertyOp9
 70
     1
102
RTVSPropertyOp10
 70
     1
102
RTVSPropertyOp11
 70
     1
102
RTVSPropertyOp12
 70
     1
102
RTVSPropertyOp13
 70
     1
102
RTVSPropertyOp14
 70
     1
102
RTVSPropertyOp15
 70
     1
102
RTVSPropertyOp16
 70
     1
102
RTVSPropertyOp17
 70
     1
102
RTVSPropertyOp18
 70
     1
102
RTVSPropertyOp19
 70
     1
102
RTVSPropertyOp20
 70
     1
102
RTVSPropertyOp21
 70
     1
102
RTVSPropertyOp22
 70
     1
102
RTVSPropertyOp23
 70
     1
102
RTVSPropertyOp24
 70
     1
102
RTVSPropertyOp25
 70
     1
102
RTVSPropertyOp26
 70
     1
102
RTVSPropertyOp27
 70
     1
102
RTVSPropertyOp28
 70
     1
102
RTVSPropertyOp29
 70
     1
102
RTVSPropertyOp30
 70
     1
102
RTVSPropertyOp31
 70
     1
102
RTVSPropertyOp32
 70
     1
102
RTVSPropertyOp33
 70
     1
102
RTVSPropertyOp34
 70
     1
102
RTVSPropertyOp35
 70
     1
102
RTVSPropertyOp36
 70
     1
102
RTVSPropertyOp37
 70
     1
102
RTVSPropertyOp38
 70
     1
102
RTVSPropertyOp39
 70
     1
102
RTVSPropertyOp40
 70
     1
102
RTVSPropertyOp41
 70
     1
102
RTVSPropertyOp42
 70
     1
102
RTVSPropertyOp43
 70
     1
102
RTVSPropertyOp44
 70
     1
102
RTVSPropertyOp45
 70
     1
102
RTVSPropertyOp46
 70
     1
102
RTVSPropertyOp47
 70
     1
102
RTVSPropertyOp48
 70
     1
102
RTVSPropertyOp49
 70
     1
102
RTVSPropertyOp50
 70
     1
102
RTVSPropertyOp51
 70
     0
102
RTVSPropertyOp52
 70
     0
102
RTVSPropertyOp53
 70
     1
102
RTVSPropertyOp54
 70
     1
102
RTVSPropertyOp55
 70
     1
102
RTVSPropertyOp56
 70
     1
102
RTVSPropertyOp57
 70
     1
102
RTVSPost2010Prop28
280
     0
102
RTVSPost2010PropOp28
 70
     1
102
RTVSPost2010Prop29
280
     1
102
RTVSPost2010PropOp29
 70
     1
102
RTVSPost2010Prop30
280
     1
102
RTVSPost2010PropOp30
 70
     1
102
RTVSPost2010Prop31
280
     0
102
RTVSPost2010PropOp31
 70
     1
102
RTVSPost2010Prop32
280
     0
102
RTVSPost2010PropOp32
 70
     1
102
RTVSPost2010Prop33
280
     0
102
RTVSPost2010PropOp33
 70
     1
102
RTVSPost2010Prop34
280
     0
102
RTVSPost2010PropOp34
 70
     1
102
RTVSPost2010Prop35
280
     0
102
RTVSPost2010PropOp35
 70
     1
102
RTVSPost2010Prop36
280
     0
102
RTVSPost2010PropOp36
 70
     1
102
RTVSPost2010Prop37
 90
       50
102
RTVSPost2010PropOp37
 70
     1
102
RTVSPost2010Prop38
140
0.0
102
RTVSPost2010PropOp38
 70
     1
102
RTVSPost2010Prop39
140
1.0
102
RTVSPost2010PropOp39
 70
     1
102
RTVSPost2010Prop40
 90
        0
102
RTVSPost2010PropOp40
 70
     1
102
RTVSPost2010Prop41ColorIndex
 90
       18
102
RTVSPost2010Prop41ColorRGB
 90
        0
102
RTVSPost2010PropOp41
 70
     1
102
RTVSPost2010Prop42
 90
       50
102
RTVSPost2010PropOp42
 70
     1
102
RTVSPost2010Prop43
 90
        3
102
RTVSPost2010PropOp43
 70
     1
102
RTVSPost2010Prop44ColorIndex
 90
        5
102
RTVSPost2010Prop44ColorRGB
 90
      255
102
RTVSPost2010PropOp44
 70
     1
102
RTVSPost2010Prop45
280
     0
102
RTVSPost2010PropOp45
 70
     1
102
RTVSPost2010Prop46
 90
       50
102
RTVSPost2010PropOp46
 70
     1
102
RTVSPost2010Prop47
 90
       50
102
RTVSPost2010PropOp47
 70
     1
102
RTVSPost2010Prop48
 90
       50
102
RTVSPost2010PropOp48
 70
     1
102
RTVSPost2010Prop49
280
     0
102
RTVSPost2010PropOp49
 70
     1
102
RTVSPost2010Prop50
 90
       50
102
RTVSPost2010PropOp50
 70
     1
102
RTVSPost2010Prop51ColorIndex
 90
      256
102
RTVSPost2010Prop51ColorRGB
 90
-16777216
102
RTVSPost2010PropOp51
 70
     0
102
RTVSPost2010Prop52
140
1.0
102
RTVSPost2010PropOp52
 70
     0
102
RTVSPost2010Prop53
 90
        2
102
RTVSPost2010PropOp53
 70
     1
102
RTVSPost2010Prop54
  1
strokes_ogs.tif
102
RTVSPost2010PropOp54
 70
     1
102
RTVSPost2010Prop55
280
     0
102
RTVSPost2010PropOp55
 70
     1
102
RTVSPost2010Prop56
140
1.0
102
RTVSPost2010PropOp56
 70
     1
102
RTVSPost2010Prop57
140
1.0
102
RTVSPost2010PropOp57
 70
     1
  0
ENDSEC
  0
EOF
