  0
SECTION
  2
HEADER
  9
$ACADVER
  1
AC1015
  9
$ACADMAINTVER
 70
     6
  9
$DWGCODEPAGE
  3
ANSI_1252
  9
$INSBASE
 10
0.0
 20
0.0
 30
0.0
  9
$EXTMIN
 10
-138.118256
 20
-239.605911
 30
0.0
  9
$EXTMAX
 10
445.748718
 20
425.703217
 30
0.0
  9
$LIMMIN
 10
-138.118256
 20
-239.605911
  9
$LIMMAX
 10
445.748718
 20
425.703217
  9
$ORTHOMODE
 70
     0
  9
$REGENMODE
 70
     1
  9
$FILLMODE
 70
     1
  9
$QTEXTMODE
 70
     0
  9
$MIRRTEXT
 70
     1
  9
$LTSCALE
 40
1.0
  9
$ATTMODE
 70
     1
  9
$TEXTSIZE
 40
2.5
  9
$TRACEWID
 40
1.0
  9
$TEXTSTYLE
  7
Standard
  9
$CLAYER
  8
0
  9
$CELTYPE
  6
ByLayer
  9
$CECOLOR
 62
   256
  9
$CELTSCALE
 40
1.0
  9
$DISPSILH
 70
     0
  9
$DIMSCALE
 40
1.0
  9
$DIMASZ
 40
2.5
  9
$DIMEXO
 40
0.625
  9
$DIMDLI
 40
3.75
  9
$DIMRND
 40
0.0
  9
$DIMDLE
 40
0.0
  9
$DIMEXE
 40
1.25
  9
$DIMTP
 40
0.0
  9
$DIMTM
 40
0.0
  9
$DIMTXT
 40
2.5
  9
$DIMCEN
 40
2.5
  9
$DIMTSZ
 40
0.0
  9
$DIMTOL
 70
     0
  9
$DIMLIM
 70
     0
  9
$DIMTIH
 70
     0
  9
$DIMTOH
 70
     0
  9
$DIMSE1
 70
     0
  9
$DIMSE2
 70
     0
  9
$DIMTAD
 70
     1
  9
$DIMZIN
 70
     8
  9
$DIMBLK
  1

  9
$DIMASO
 70
     1
  9
$DIMSHO
 70
     1
  9
$DIMPOST
  1

  9
$DIMAPOST
  1

  9
$DIMALT
 70
     0
  9
$DIMALTD
 70
     3
  9
$DIMALTF
 40
0.03937
  9
$DIMLFAC
 40
1.0
  9
$DIMTOFL
 70
     1
  9
$DIMTVP
 40
0.0
  9
$DIMTIX
 70
     0
  9
$DIMSOXD
 70
     0
  9
$DIMSAH
 70
     0
  9
$DIMBLK1
  1

  9
$DIMBLK2
  1

  9
$DIMSTYLE
  2
ISO-25
  9
$DIMCLRD
 70
     0
  9
$DIMCLRE
 70
     0
  9
$DIMCLRT
 70
     0
  9
$DIMTFAC
 40
1.0
  9
$DIMGAP
 40
0.625
  9
$DIMJUST
 70
     0
  9
$DIMSD1
 70
     0
  9
$DIMSD2
 70
     0
  9
$DIMTOLJ
 70
     0
  9
$DIMTZIN
 70
     8
  9
$DIMALTZ
 70
     0
  9
$DIMALTTZ
 70
     0
  9
$DIMUPT
 70
     0
  9
$DIMDEC
 70
     2
  9
$DIMTDEC
 70
     2
  9
$DIMALTU
 70
     2
  9
$DIMALTTD
 70
     3
  9
$DIMTXSTY
  7
Standard
  9
$DIMAUNIT
 70
     0
  9
$DIMADEC
 70
     0
  9
$DIMALTRND
 40
0.0
  9
$DIMAZIN
 70
     0
  9
$DIMDSEP
 70
    44
  9
$DIMATFIT
 70
     3
  9
$DIMFRAC
 70
     0
  9
$DIMLDRBLK
  1

  9
$DIMLUNIT
 70
     2
  9
$DIMLWD
 70
    -2
  9
$DIMLWE
 70
    -2
  9
$DIMTMOVE
 70
     0
  9
$LUNITS
 70
     2
  9
$LUPREC
 70
     4
  9
$SKETCHINC
 40
1.0
  9
$FILLETRAD
 40
10.0
  9
$AUNITS
 70
     0
  9
$AUPREC
 70
     0
  9
$MENU
  1
.
  9
$ELEVATION
 40
0.0
  9
$PELEVATION
 40
0.0
  9
$THICKNESS
 40
0.0
  9
$LIMCHECK
 70
     0
  9
$CHAMFERA
 40
0.0
  9
$CHAMFERB
 40
0.0
  9
$CHAMFERC
 40
0.0
  9
$CHAMFERD
 40
0.0
  9
$SKPOLY
 70
     0
  9
$TDCREATE
 40
2459107.402911852
  9
$TDUCREATE
 40
2459107.319578519
  9
$TDUPDATE
 40
2459107.402912569
  9
$TDUUPDATE
 40
2459107.319579236
  9
$TDINDWG
 40
0.0000000116
  9
$TDUSRTIMER
 40
0.0000000116
  9
$USRTIMER
 70
     1
  9
$ANGBASE
 50
0.0
  9
$ANGDIR
 70
     0
  9
$PDMODE
 70
     0
  9
$PDSIZE
 40
0.0
  9
$PLINEWID
 40
0.0
  9
$SPLFRAME
 70
     0
  9
$SPLINETYPE
 70
     6
  9
$SPLINESEGS
 70
     8
  9
$HANDSEED
  5
2A0
  9
$SURFTAB1
 70
     6
  9
$SURFTAB2
 70
     6
  9
$SURFTYPE
 70
     6
  9
$SURFU
 70
     6
  9
$SURFV
 70
     6
  9
$UCSBASE
  2

  9
$UCSNAME
  2

  9
$UCSORG
 10
0.0
 20
0.0
 30
0.0
  9
$UCSXDIR
 10
1.0
 20
0.0
 30
0.0
  9
$UCSYDIR
 10
0.0
 20
1.0
 30
0.0
  9
$UCSORTHOREF
  2

  9
$UCSORTHOVIEW
 70
     0
  9
$UCSORGTOP
 10
0.0
 20
0.0
 30
0.0
  9
$UCSORGBOTTOM
 10
0.0
 20
0.0
 30
0.0
  9
$UCSORGLEFT
 10
0.0
 20
0.0
 30
0.0
  9
$UCSORGRIGHT
 10
0.0
 20
0.0
 30
0.0
  9
$UCSORGFRONT
 10
0.0
 20
0.0
 30
0.0
  9
$UCSORGBACK
 10
0.0
 20
0.0
 30
0.0
  9
$PUCSBASE
  2

  9
$PUCSNAME
  2

  9
$PUCSORG
 10
0.0
 20
0.0
 30
0.0
  9
$PUCSXDIR
 10
1.0
 20
0.0
 30
0.0
  9
$PUCSYDIR
 10
0.0
 20
1.0
 30
0.0
  9
$PUCSORTHOREF
  2

  9
$PUCSORTHOVIEW
 70
     0
  9
$PUCSORGTOP
 10
0.0
 20
0.0
 30
0.0
  9
$PUCSORGBOTTOM
 10
0.0
 20
0.0
 30
0.0
  9
$PUCSORGLEFT
 10
0.0
 20
0.0
 30
0.0
  9
$PUCSORGRIGHT
 10
0.0
 20
0.0
 30
0.0
  9
$PUCSORGFRONT
 10
0.0
 20
0.0
 30
0.0
  9
$PUCSORGBACK
 10
0.0
 20
0.0
 30
0.0
  9
$USERI1
 70
     0
  9
$USERI2
 70
     0
  9
$USERI3
 70
     0
  9
$USERI4
 70
     0
  9
$USERI5
 70
     0
  9
$USERR1
 40
0.0
  9
$USERR2
 40
0.0
  9
$USERR3
 40
0.0
  9
$USERR4
 40
0.0
  9
$USERR5
 40
0.0
  9
$WORLDVIEW
 70
     1
  9
$SHADEDGE
 70
     3
  9
$SHADEDIF
 70
    70
  9
$TILEMODE
 70
     1
  9
$MAXACTVP
 70
    64
  9
$PINSBASE
 10
0.0
 20
0.0
 30
0.0
  9
$PLIMCHECK
 70
     0
  9
$PEXTMIN
 10
1.000000E+20
 20
1.000000E+20
 30
1.000000E+20
  9
$PEXTMAX
 10
-1.000000E+20
 20
-1.000000E+20
 30
-1.000000E+20
  9
$PLIMMIN
 10
0.0
 20
0.0
  9
$PLIMMAX
 10
420.0
 20
297.0
  9
$UNITMODE
 70
     0
  9
$VISRETAIN
 70
     1
  9
$PLINEGEN
 70
     0
  9
$PSLTSCALE
 70
     1
  9
$TREEDEPTH
 70
  3020
  9
$CMLSTYLE
  2
Standard
  9
$CMLJUST
 70
     0
  9
$CMLSCALE
 40
20.0
  9
$PROXYGRAPHICS
 70
     1
  9
$MEASUREMENT
 70
     1
  9
$CELWEIGHT
370
    -1
  9
$ENDCAPS
280
     0
  9
$JOINSTYLE
280
     0
  9
$LWDISPLAY
290
     0
  9
$INSUNITS
 70
     4
  9
$HYPERLINKBASE
  1

  9
$STYLESHEET
  1

  9
$XEDIT
290
     1
  9
$CEPSNTYPE
380
     0
  9
$PSTYLEMODE
290
     1
  9
$FINGERPRINTGUID
  2
{7b5fc41f-e23d-4996-bb64-b1131056da76}
  9
$VERSIONGUID
  2
{FAEB1C32-E019-11D5-929B-00C0DF256EC4}
  9
$EXTNAMES
290
     1
  9
$PSVPSCALE
 40
0.0
  9
$OLESTARTUP
290
     0
  0
ENDSEC
  0
SECTION
  2
CLASSES
  0
CLASS
  1
ACDBDICTIONARYWDFLT
  2
AcDbDictionaryWithDefault
  3
ObjectDBX Classes
 90
        0
280
     0
281
     0
  0
CLASS
  1
VISUALSTYLE
  2
AcDbVisualStyle
  3
ObjectDBX Classes
 90
     4095
280
     0
281
     0
  0
CLASS
  1
MATERIAL
  2
AcDbMaterial
  3
ObjectDBX Classes
 90
     1153
280
     0
281
     0
  0
CLASS
  1
SCALE
  2
AcDbScale
  3
ObjectDBX Classes
 90
     1153
280
     0
281
     0
  0
CLASS
  1
TABLESTYLE
  2
AcDbTableStyle
  3
ObjectDBX Classes
 90
     4095
280
     0
281
     0
  0
CLASS
  1
MLEADERSTYLE
  2
AcDbMLeaderStyle
  3
ACDB_MLEADERSTYLE_CLASS
 90
     4095
280
     0
281
     0
  0
CLASS
  1
SUN
  2
AcDbSun
  3
SCENEOE
 90
     1153
280
     0
281
     0
  0
CLASS
  1
DICTIONARYVAR
  2
AcDbDictionaryVar
  3
ObjectDBX Classes
 90
        0
280
     0
281
     0
  0
CLASS
  1
ACDBPLACEHOLDER
  2
AcDbPlaceHolder
  3
ObjectDBX Classes
 90
        0
280
     0
281
     0
  0
CLASS
  1
LAYOUT
  2
AcDbLayout
  3
ObjectDBX Classes
 90
        0
280
     0
281
     0
  0
ENDSEC
  0
SECTION
  2
TABLES
  0
TABLE
  2
VPORT
  5
8
102
{ACAD_XDICTIONARY
360
263
102
}
330
0
100
AcDbSymbolTable
 70
     1
  0
VPORT
  5
29
330
8
100
AcDbSymbolTableRecord
100
AcDbViewportTableRecord
  2
*Active
 70
     0
 10
0.0
 20
0.0
 11
1.0
 21
1.0
 12
344.186916
 22
148.5
 13
0.0
 23
0.0
 14
10.0
 24
10.0
 15
10.0
 25
10.0
 16
0.0
 26
0.0
 36
1.0
 17
0.0
 27
0.0
 37
0.0
 40
297.0
 41
1.972973
 42
50.0
 43
0.0
 44
0.0
 50
0.0
 51
0.0
 71
     0
 72
   100
 73
     1
 74
     3
 75
     0
 76
     0
 77
     0
 78
     0
281
     0
 65
     1
110
0.0
120
0.0
130
0.0
111
1.0
121
0.0
131
0.0
112
0.0
122
1.0
132
0.0
 79
     0
146
0.0
  0
ENDTAB
  0
TABLE
  2
LTYPE
  5
5
330
0
100
AcDbSymbolTable
 70
     1
  0
LTYPE
  5
14
330
5
100
AcDbSymbolTableRecord
100
AcDbLinetypeTableRecord
  2
ByBlock
 70
     0
  3

 72
    65
 73
     0
 40
0.0
  0
LTYPE
  5
15
330
5
100
AcDbSymbolTableRecord
100
AcDbLinetypeTableRecord
  2
ByLayer
 70
     0
  3

 72
    65
 73
     0
 40
0.0
  0
LTYPE
  5
16
330
5
100
AcDbSymbolTableRecord
100
AcDbLinetypeTableRecord
  2
Continuous
 70
     0
  3
Solid line
 72
    65
 73
     0
 40
0.0
  0
ENDTAB
  0
TABLE
  2
LAYER
  5
2
330
0
100
AcDbSymbolTable
 70
     1
  0
LAYER
  5
10
330
2
100
AcDbSymbolTableRecord
100
AcDbLayerTableRecord
  2
0
 70
     0
 62
   106
  6
Continuous
370
     0
390
F
  0
ENDTAB
  0
TABLE
  2
STYLE
  5
3
330
0
100
AcDbSymbolTable
 70
     4
  0
STYLE
  5
11
330
3
100
AcDbSymbolTableRecord
100
AcDbTextStyleTableRecord
  2
Standard
 70
     0
 40
0.0
 41
1.0
 50
0.0
 71
     0
 42
2.5
  3
txt
  4

  0
STYLE
  5
6E
330
3
100
AcDbSymbolTableRecord
100
AcDbTextStyleTableRecord
  2
Default
 70
     0
 40
0.0
 41
1.0
 50
0.0
 71
     0
 42
2.5
  3

  4

1001
ACAD
1000
txt
1071
        0
  0
STYLE
  5
6F
330
3
100
AcDbSymbolTableRecord
100
AcDbTextStyleTableRecord
  2
ISO
 70
     0
 40
0.0
 41
1.0
 50
0.0
 71
     0
 42
2.5
  3

  4

1001
ACAD
1000
txt
1071
        0
  0
STYLE
  5
70
330
3
100
AcDbSymbolTableRecord
100
AcDbTextStyleTableRecord
  2
zucchetti
 70
     0
 40
0.0
 41
1.0
 50
0.0
 71
     0
 42
2.5
  3

  4

1001
ACAD
1000
Arial
1071
        0
  0
ENDTAB
  0
TABLE
  2
VIEW
  5
6
330
0
100
AcDbSymbolTable
 70
     0
  0
ENDTAB
  0
TABLE
  2
UCS
  5
7
330
0
100
AcDbSymbolTable
 70
     0
  0
ENDTAB
  0
TABLE
  2
APPID
  5
9
330
0
100
AcDbSymbolTable
 70
     2
  0
APPID
  5
12
330
9
100
AcDbSymbolTableRecord
100
AcDbRegAppTableRecord
  2
ACAD
 70
     0
  0
APPID
  5
29D
330
9
100
AcDbSymbolTableRecord
100
AcDbRegAppTableRecord
  2
ACAD_MLEADERVER
 70
     0
  0
ENDTAB
  0
TABLE
  2
DIMSTYLE
  5
A
330
0
100
AcDbSymbolTable
 70
     4
100
AcDbDimStyleTable
  0
DIMSTYLE
105
27
330
A
100
AcDbSymbolTableRecord
100
AcDbDimStyleTableRecord
  2
ISO-25
 70
     0
 41
2.5
 42
0.625
 43
3.75
 44
1.25
 73
     0
 74
     0
 77
     1
 78
     8
140
2.5
141
2.5
143
0.03937
147
0.625
171
     3
172
     1
178
     0
271
     2
272
     2
274
     3
278
    44
283
     0
284
     8
340
11
  0
DIMSTYLE
105
71
330
A
100
AcDbSymbolTableRecord
100
AcDbDimStyleTableRecord
  2
Default
 70
     0
  3
<>
 41
4.375
 42
1.05
 44
2.1
 73
     0
 74
     0
 77
     1
 78
     8
140
3.5
146
0.4
147
1.75
172
     1
271
     2
178
     3
271
     2
272
     3
284
     8
340
6E
341
72
342
72
  0
DIMSTYLE
105
79
330
A
100
AcDbSymbolTableRecord
100
AcDbDimStyleTableRecord
  2
ISO
 70
     0
  3
<>
 41
4.375
 42
1.05
 44
2.1
 73
     0
 74
     0
 77
     1
 78
     8
140
3.5
146
0.4
147
1.75
172
     1
271
     2
178
     3
271
     2
272
     3
284
     8
340
6F
341
72
342
72
  0
DIMSTYLE
105
7A
330
A
100
AcDbSymbolTableRecord
100
AcDbDimStyleTableRecord
  2
zucchetti
 70
     0
  3
<>
 41
3.0
 42
0.9
 44
1.8
 73
     0
 74
     0
 77
     1
 78
     8
140
3.0
146
0.6
147
1.5
172
     1
176
     3
177
     3
271
     2
178
     3
271
     2
272
     2
284
     8
340
70
  0
ENDTAB
  0
TABLE
  2
BLOCK_RECORD
  5
1
330
0
100
AcDbSymbolTable
 70
     8
  0
BLOCK_RECORD
  5
1F
330
1
100
AcDbSymbolTableRecord
100
AcDbBlockTableRecord
  2
*Model_Space
340
22
  0
BLOCK_RECORD
  5
1B
330
1
100
AcDbSymbolTableRecord
100
AcDbBlockTableRecord
  2
*Paper_Space
340
1E
  0
BLOCK_RECORD
  5
23
330
1
100
AcDbSymbolTableRecord
100
AcDbBlockTableRecord
  2
*Paper_Space0
340
26
  0
BLOCK_RECORD
  5
72
330
1
100
AcDbSymbolTableRecord
100
AcDbBlockTableRecord
  2
_Closed
340
0
  0
BLOCK_RECORD
  5
7B
330
1
100
AcDbSymbolTableRecord
100
AcDbBlockTableRecord
  2
a
340
0
102
{BLKREFS
331
B1
102
}
  0
BLOCK_RECORD
  5
B2
330
1
100
AcDbSymbolTableRecord
100
AcDbBlockTableRecord
  2
b
340
0
102
{BLKREFS
331
11A
102
}
  0
BLOCK_RECORD
  5
11B
330
1
100
AcDbSymbolTableRecord
100
AcDbBlockTableRecord
  2
c
340
0
102
{BLKREFS
331
181
102
}
  0
BLOCK_RECORD
  5
182
330
1
100
AcDbSymbolTableRecord
100
AcDbBlockTableRecord
  2
d
340
0
102
{BLKREFS
331
1CE
102
}
  0
BLOCK_RECORD
  5
1CF
330
1
100
AcDbSymbolTableRecord
100
AcDbBlockTableRecord
  2
e
340
0
102
{BLKREFS
331
206
102
}
  0
BLOCK_RECORD
  5
207
330
1
100
AcDbSymbolTableRecord
100
AcDbBlockTableRecord
  2
f
340
0
102
{BLKREFS
331
257
102
}
  0
ENDTAB
  0
ENDSEC
  0
SECTION
  2
BLOCKS
  0
BLOCK
  5
20
330
1F
100
AcDbEntity
  8
0
100
AcDbBlockBegin
  2
*Model_Space
 70
     0
 10
0.0
 20
0.0
 30
0.0
  3
*Model_Space
  1

  0
ENDBLK
  5
21
330
1F
100
AcDbEntity
  8
0
100
AcDbBlockEnd
  0
BLOCK
  5
1C
330
1B
100
AcDbEntity
 67
     1
  8
0
100
AcDbBlockBegin
  2
*Paper_Space
 70
     0
 10
0.0
 20
0.0
 30
0.0
  3
*Paper_Space
  1

  0
ENDBLK
  5
1D
330
1B
100
AcDbEntity
 67
     1
  8
0
100
AcDbBlockEnd
  0
BLOCK
  5
24
330
23
100
AcDbEntity
  8
0
100
AcDbBlockBegin
  2
*Paper_Space0
 70
     0
 10
0.0
 20
0.0
 30
0.0
  3
*Paper_Space0
  1

  0
ENDBLK
  5
25
330
23
100
AcDbEntity
  8
0
100
AcDbBlockEnd
  0
BLOCK
  5
73
330
72
100
AcDbEntity
  8
0
100
AcDbBlockBegin
  2
_Closed
 70
     0
 10
0.0
 20
0.0
 30
0.0
  3
_Closed
  1

  0
LINE
  5
75
330
72
100
AcDbEntity
  8
0
  6
ByBlock
 62
     0
370
    -2
100
AcDbLine
 10
-1.0
 20
0.166667
 30
0.0
 11
0.0
 21
0.0
 31
0.0
  0
LINE
  5
76
330
72
100
AcDbEntity
  8
0
  6
ByBlock
 62
     0
370
    -2
100
AcDbLine
 10
0.0
 20
0.0
 30
0.0
 11
-1.0
 21
-0.166667
 31
0.0
  0
LINE
  5
77
330
72
100
AcDbEntity
  8
0
  6
ByBlock
 62
     0
370
    -2
100
AcDbLine
 10
-1.0
 20
0.166667
 30
0.0
 11
-1.0
 21
-0.166667
 31
0.0
  0
LINE
  5
78
330
72
100
AcDbEntity
  8
0
  6
ByBlock
 62
     0
370
    -2
100
AcDbLine
 10
0.0
 20
0.0
 30
0.0
 11
-1.0
 21
0.0
 31
0.0
  0
ENDBLK
  5
74
330
72
100
AcDbEntity
  8
0
100
AcDbBlockEnd
  0
BLOCK
  5
AF
330
7B
100
AcDbEntity
  8
0
100
AcDbBlockBegin
  2
a
 70
     0
 10
73.361572
 20
40.96563
 30
0.0
  3
a
  1

  0
LINE
  5
7C
330
7B
100
AcDbEntity
  8
0
  6
Continuous
 62
     0
370
     0
100
AcDbLine
 10
138.475733
 20
88.440692
 30
0.0
 11
136.192977
 21
88.440692
 31
0.0
  0
LINE
  5
7D
330
7B
100
AcDbEntity
  8
0
  6
Continuous
 62
     0
370
     0
100
AcDbLine
 10
145.783607
 20
88.440692
 30
0.0
 11
143.509802
 21
88.440692
 31
0.0
  0
LINE
  5
7E
330
7B
100
AcDbEntity
  8
0
  6
Continuous
 62
     0
370
    30
100
AcDbLine
 10
145.642917
 20
88.247082
 30
0.0
 11
145.634043
 21
88.247082
 31
0.0
  0
LINE
  5
7F
330
7B
100
AcDbEntity
  8
0
  6
Continuous
 62
     0
370
    30
100
AcDbLine
 10
145.634043
 20
88.247082
 30
0.0
 11
136.342618
 21
88.247082
 31
0.0
  0
LINE
  5
80
330
7B
100
AcDbEntity
  8
0
  6
Continuous
 62
     0
370
     0
100
AcDbLine
 10
145.792768
 20
88.697082
 30
0.0
 11
145.783607
 21
88.697082
 31
0.0
  0
LINE
  5
81
330
7B
100
AcDbEntity
  8
0
  6
Continuous
 62
     0
370
     0
100
AcDbLine
 10
136.812243
 20
88.697082
 30
0.0
 11
136.192768
 21
88.697082
 31
0.0
  0
LINE
  5
82
330
7B
100
AcDbEntity
  8
0
  6
Continuous
 62
     0
370
     0
100
AcDbLine
 10
145.783607
 20
88.697082
 30
0.0
 11
145.173292
 21
88.697082
 31
0.0
  0
ARC
  5
83
330
7B
100
AcDbEntity
  8
0
  6
Continuous
 62
     0
370
    30
100
AcDbCircle
 10
136.392768
 20
88.697082
 30
0.0
 40
0.2000000029802322
100
AcDbArc
 50
143.048462
 51
180.0
  0
ARC
  5
84
330
7B
100
AcDbEntity
  8
0
  6
Continuous
 62
     0
370
    30
100
AcDbCircle
 10
145.592768
 20
88.697082
 30
0.0
 40
0.200000002980218
100
AcDbArc
 50
0.0
 51
36.951589
  0
LINE
  5
85
330
7B
100
AcDbEntity
  8
0
  6
Continuous
 62
     0
370
    30
100
AcDbLine
 10
136.192768
 20
88.697082
 30
0.0
 11
136.192768
 21
88.440692
 31
0.0
  0
LINE
  5
86
330
7B
100
AcDbEntity
  8
0
  6
Continuous
 62
     0
370
    30
100
AcDbLine
 10
145.792768
 20
88.697082
 30
0.0
 11
145.792768
 21
88.440692
 31
0.0
  0
ARC
  5
87
330
7B
100
AcDbEntity
  8
0
  6
Continuous
 62
     0
370
    30
100
AcDbCircle
 10
140.997098
 20
102.285597
 30
0.0
 40
14.79000000000003
100
AcDbArc
 50
251.657025
 51
269.983226
  0
ARC
  5
88
330
7B
100
AcDbEntity
  8
0
  6
Continuous
 62
     0
370
    30
100
AcDbCircle
 10
140.988438
 20
102.285597
 30
0.0
 40
14.79000000000003
100
AcDbArc
 50
270.016774
 51
288.310336
  0
ARC
  5
89
330
7B
100
AcDbEntity
  8
0
  6
Continuous
 62
     0
370
    30
100
AcDbCircle
 10
145.591996
 20
88.441243
 30
0.0
 40
0.2007271151883001
100
AcDbArc
 50
284.695552
 51
359.842926
  0
ARC
  5
8A
330
7B
100
AcDbEntity
  8
0
  6
Continuous
 62
     0
370
    30
100
AcDbCircle
 10
136.393762
 20
88.441244
 30
0.0
 40
0.2007852265154028
100
AcDbArc
 50
180.157487
 51
255.243125
  0
ARC
  5
8B
330
7B
100
AcDbEntity
  8
0
  6
Continuous
 62
     0
370
    30
100
AcDbCircle
 10
140.992767
 20
230.29623
 30
0.0
 40
12.49999999999722
100
AcDbArc
 50
310.450604
 51
229.549434
  0
SPLINE
  5
8C
330
7B
100
AcDbEntity
  8
0
  6
Continuous
 62
     0
370
     0
100
AcDbSpline
210
0.0
220
0.0
230
1.0
 70
     8
 71
     3
 72
     9
 73
     5
 74
     0
 42
0.000000001
 43
0.0
 40
0.0
 40
0.0
 40
0.0
 40
0.0
 40
13.58255074094018
 40
40.81374876582646
 40
40.81374876582646
 40
40.81374876582646
 40
40.81374876582646
 10
143.2219696130499
 20
172.6410471598717
 30
0.0
 10
143.3218556188935
 20
177.1675180755145
 30
0.0
 10
143.6348189713975
 20
190.7686860494141
 30
0.0
 10
143.9674760456352
 20
204.3694071828305
 30
0.0
 10
144.1841922465534
 20
213.4440131946253
 30
0.0
  0
ELLIPSE
  5
8D
330
7B
100
AcDbEntity
  8
0
  6
Continuous
 62
     0
370
     0
100
AcDbEllipse
 10
144.099701
 20
213.444013
 30
0.0
 11
-1.499594770987193
 21
0.03486434895234575
 31
0.0
210
0.0
220
0.0
230
-1.0
 40
0.001311
 41
1.627138740925847
 42
3.16743970419002
  0
LINE
  5
8E
330
7B
100
AcDbEntity
  8
0
  6
Continuous
 62
     0
370
     0
100
AcDbLine
 10
140.992766
 20
165.843153
 30
0.0
 11
140.992767
 21
167.343153
 31
0.0
  0
SPLINE
  5
8F
330
7B
100
AcDbEntity
  8
0
  6
Continuous
 62
     0
370
     0
100
AcDbSpline
210
0.0
220
0.0
230
1.0
 70
     8
 71
     3
 72
    18
 73
    14
 74
     0
 42
0.000000001
 43
0.0
 40
0.0
 40
0.0
 40
0.0
 40
0.0
 40
0.7040270164530424
 40
1.295759034053318
 40
1.633227194692992
 40
1.882695714651265
 40
2.085978384419887
 40
2.399476426375227
 40
2.76062993912089
 40
3.281803497912946
 40
3.731036026613197
 40
4.746184634738002
 40
6.511452760270865
 40
6.511452760270865
 40
6.511452760270865
 40
6.511452760270865
 10
140.9927466321377
 20
167.3431533021142
 30
0.0
 10
141.2338055802761
 20
167.3431532086112
 30
0.0
 10
141.6787871793718
 20
167.4022196359882
 30
0.0
 10
142.1893275076254
 20
167.6378844532997
 30
0.0
 10
142.5091278774123
 20
167.8784551261779
 30
0.0
 10
142.7031897866156
 20
168.0638886859793
 30
0.0
 10
142.8396310682224
 20
168.2838258234191
 30
0.0
 10
142.9444007391517
 20
168.559141309738
 30
0.0
 10
143.0332955549712
 20
168.9488971843041
 30
0.0
 10
143.0839546719064
 20
169.3904508024871
 30
0.0
 10
143.126541356317
 20
170.0509903938224
 30
0.0
 10
143.1786730200008
 20
171.1263950528435
 30
0.0
 10
143.2089878406582
 20
172.0527603954091
 30
0.0
 10
143.2219696130499
 20
172.6410471598717
 30
0.0
  0
SPLINE
  5
90
330
7B
100
AcDbEntity
  8
0
  6
Continuous
 62
     0
370
     0
100
AcDbSpline
210
0.0
220
0.0
230
1.0
 70
     8
 71
     3
 72
    18
 73
    14
 74
     0
 42
0.000000001
 43
0.0
 40
0.0
 40
0.0
 40
0.0
 40
0.0
 40
0.7053013782976192
 40
1.296959495443253
 40
1.634382838388779
 40
1.883610187121511
 40
2.087346532206342
 40
2.401618726294815
 40
2.763513020913489
 40
3.286720618600657
 40
3.737699336988029
 40
4.753410594080074
 40
6.511446442014064
 40
6.511446442014064
 40
6.511446442014064
 40
6.511446442014064
 10
140.9927451218518
 20
167.343153302115
 30
0.0
 10
140.7512498320412
 20
167.3431534634911
 30
0.0
 10
140.3058431249397
 20
167.4023809098348
 30
0.0
 10
139.7951136454868
 20
167.6385419315558
 30
0.0
 10
139.4754985957002
 20
167.8791548847401
 30
0.0
 10
139.2815593959936
 20
168.0647912399008
 30
0.0
 10
139.1452059530843
 20
168.2851721166479
 30
0.0
 10
139.0404732180172
 20
168.5611966193528
 30
0.0
 10
138.9516327147897
 20
168.9521779094292
 30
0.0
 10
138.9011309261088
 20
169.3952639802395
 30
0.0
 10
138.8586529600289
 20
170.0572589801132
 30
0.0
 10
138.8066304304314
 20
171.1310254306022
 30
0.0
 10
138.7764533904077
 20
172.0551707358068
 30
0.0
 10
138.7635248996191
 20
172.6410472994255
 30
0.0
  0
ELLIPSE
  5
91
330
7B
100
AcDbEntity
  8
0
  6
Continuous
 62
     0
370
     0
100
AcDbEllipse
 10
138.822575
 20
172.641047
 30
0.0
 11
1.499653993623649
 21
0.03221644624480967
 31
0.0
210
0.0
220
0.0
230
1.0
 40
0.000846
 41
1.610164314990935
 42
3.159428810798237
  0
SPLINE
  5
92
330
7B
100
AcDbEntity
  8
0
  6
Continuous
 62
     0
370
     0
100
AcDbSpline
210
0.0
220
0.0
230
1.0
 70
     8
 71
     3
 72
    31
 73
    27
 74
     0
 42
0.000000001
 43
0.0
 40
0.0
 40
0.0
 40
0.0
 40
0.0
 40
1.944818689850858
 40
3.879518989130776
 40
5.805642800460687
 40
7.725571429675663
 40
9.642265420132297
 40
11.55909434387184
 40
13.4793174695907
 40
15.40586401667402
 40
17.34099563188875
 40
19.28673070470717
 40
23.18505413553117
 40
27.1036091078416
 40
31.02216571618501
 40
34.92075349536309
 40
36.86614307564447
 40
38.80138421432545
 40
40.72795329880143
 40
42.64816249845496
 40
44.56496741876284
 40
46.48166050162648
 40
48.40160928734618
 40
50.32774407353268
 40
52.26241633936342
 40
54.20721767921935
 40
54.20721767921935
 40
54.20721767921935
 40
54.20721767921935
 10
148.3258889093469
 20
221.9256089522959
 30
0.0
 10
148.8226966413844
 20
222.3368684439537
 30
0.0
 10
149.7444300547427
 20
223.2445503745134
 30
0.0
 10
150.8656663882068
 20
224.8215941523192
 30
0.0
 10
151.6911314735288
 20
226.5670497511903
 30
0.0
 10
152.1936209660393
 20
228.4291461216258
 30
0.0
 10
152.3568353669677
 20
230.3504853559945
 30
0.0
 10
152.1744115356842
 20
232.2701001731446
 30
0.0
 10
151.6531262924398
 20
234.1271886895116
 30
0.0
 10
150.8101559023024
 20
235.8641362234643
 30
0.0
 10
149.6728124827799
 20
237.4312835564343
 30
0.0
 10
147.8100140186589
 20
239.2298357786397
 30
0.0
 10
144.9229401241768
 20
240.8491113276274
 30
0.0
 10
140.9926755343376
 20
241.5203414788378
 30
0.0
 10
137.0625552212722
 20
240.8489048558956
 30
0.0
 10
134.17498685132
 20
239.2302234363391
 30
0.0
 10
132.3129946240372
 20
237.430876825249
 30
0.0
 10
131.1749802960217
 20
235.864340412243
 30
0.0
 10
130.3324626709368
 20
234.1270721160526
 30
0.0
 10
129.8110896852592
 20
232.2700508124499
 30
0.0
 10
129.6287417230947
 20
230.3504347933148
 30
0.0
 10
129.7918079126962
 20
228.4290864950143
 30
0.0
 10
130.2943777287925
 20
226.5669987255696
 30
0.0
 10
131.119788472322
 20
224.8215139493959
 30
0.0
 10
132.2411532725936
 20
223.2445834842763
 30
0.0
 10
133.1628121762216
 20
222.3368584679731
 30
0.0
 10
133.6596151466798
 20
221.9256041883737
 30
0.0
  0
SPLINE
  5
93
330
7B
100
AcDbEntity
  8
0
  6
Continuous
 62
     0
370
     0
100
AcDbSpline
210
0.0
220
0.0
230
1.0
 70
     8
 71
     3
 72
    14
 73
    10
 74
     0
 42
0.000000001
 43
0.0
 40
0.0
 40
0.0
 40
0.0
 40
0.0
 40
1.404286950246861
 40
2.80180824355739
 40
4.195347073104721
 40
5.585086099230739
 40
6.97156893468318
 40
8.355744518375094
 40
9.738631114212174
 40
9.738631114212174
 40
9.738631114212174
 40
9.738631114212174
 10
133.6596155896849
 20
221.9256039155232
 30
0.0
 10
134.0183434603224
 20
221.6286489649139
 30
0.0
 10
134.700796201561
 20
220.9922338368997
 30
0.0
 10
135.5983210313214
 20
219.9193478201246
 30
0.0
 10
136.3589625038454
 20
218.7494302259081
 30
0.0
 10
136.970740501903
 20
217.4983433239146
 30
0.0
 10
137.4234879544143
 20
216.1840882709023
 30
0.0
 10
137.7111429129228
 20
214.8264839630802
 30
0.0
 10
137.7903110651489
 20
213.904756888788
 30
0.0
 10
137.8013140876229
 20
213.4439264467477
 30
0.0
  0
SPLINE
  5
94
330
7B
100
AcDbEntity
  8
0
  6
Continuous
 62
     0
370
     0
100
AcDbSpline
210
0.0
220
0.0
230
1.0
 70
     8
 71
     3
 72
     8
 73
     4
 74
     0
 42
0.000000001
 43
0.0
 40
0.0
 40
0.0
 40
0.0
 40
0.0
 40
40.81424693084995
 40
40.81424693084995
 40
40.81424693084995
 40
40.81424693084995
 10
137.8013106099334
 20
213.4439242831038
 30
0.0
 10
138.12611910955
 20
199.8430655593311
 30
0.0
 10
138.4633831845607
 20
186.2424799382038
 30
0.0
 10
138.7635248996191
 20
172.6410472994254
 30
0.0
  0
SPLINE
  5
95
330
7B
100
AcDbEntity
  8
0
  6
Continuous
 62
     0
370
     0
100
AcDbSpline
210
0.0
220
0.0
230
1.0
 70
     8
 71
     3
 72
    14
 73
    10
 74
     0
 42
0.000000001
 43
0.0
 40
0.0
 40
0.0
 40
0.0
 40
0.0
 40
1.382864170633273
 40
2.767013309008381
 40
4.153480982412725
 40
5.543211805218741
 40
6.936725925118182
 40
8.334218231834106
 40
9.738528679551933
 40
9.738528679551933
 40
9.738528679551933
 40
9.738528679551933
 10
144.1842184010029
 20
213.4440221945826
 30
0.0
 10
144.1952254791532
 20
213.9048450626227
 30
0.0
 10
144.2744107421534
 20
214.8265535300583
 30
0.0
 10
144.5620508112929
 20
216.1841396370774
 30
0.0
 10
145.0148129760569
 20
217.4983707170695
 30
0.0
 10
145.6265308445128
 20
218.7494691117818
 30
0.0
 10
146.3871586459336
 20
219.9193729996107
 30
0.0
 10
147.2846648024791
 20
220.9922662236767
 30
0.0
 10
147.9671513840864
 20
221.6286438839313
 30
0.0
 10
148.3258849557814
 20
221.9256055845703
 30
0.0
  0
ARC
  5
96
330
7B
100
AcDbEntity
  8
0
  6
Continuous
 62
     0
370
     0
100
AcDbCircle
 10
143.185163
 20
-33.487049
 30
0.0
 40
246.9896605980796
100
AcDbArc
 50
91.249025
 51
91.577273
  0
ELLIPSE
  5
97
330
7B
100
AcDbEntity
  8
0
  6
Continuous
 62
     0
370
     0
100
AcDbEllipse
 10
133.85606
 20
221.925602
 30
0.0
 11
0.9731880264685872
 21
1.141448669515258
 31
0.0
210
0.0
220
0.0
230
1.0
 40
0.100021
 41
1.655866001264746
 42
3.141594748784254
  0
ELLIPSE
  5
98
330
7B
100
AcDbEntity
  8
0
  6
Continuous
 62
     0
370
     0
100
AcDbEllipse
 10
148.129479
 20
221.925606
 30
0.0
 11
0.9731887563310316
 21
-1.141448047241251
 31
0.0
210
0.0
220
0.0
230
1.0
 40
0.1
 41
0.0000003145765683
 42
1.485742282490653
  0
ELLIPSE
  5
99
330
7B
100
AcDbEntity
  8
0
  6
Continuous
 62
     0
370
     0
100
AcDbEllipse
 10
143.162959
 20
172.641047
 30
0.0
 11
1.499653989331366
 21
-0.03221664604702499
 31
0.0
210
0.0
220
0.0
230
1.0
 40
0.000846
 41
6.265351497995761
 42
7.814640147483889
  0
ARC
  5
9A
330
7B
100
AcDbEntity
  8
0
  6
Continuous
 62
     0
370
     0
100
AcDbCircle
 10
140.992767
 20
230.29623
 30
0.0
 40
29.7999999970217
100
AcDbArc
 50
278.319205
 51
90.0
  0
ARC
  5
9B
330
7B
100
AcDbEntity
  8
0
  6
Continuous
 62
     0
370
     0
100
AcDbCircle
 10
140.992767
 20
230.29623
 30
0.0
 40
29.7999999970217
100
AcDbArc
 50
90.0
 51
261.680801
  0
ARC
  5
9C
330
7B
100
AcDbEntity
  8
0
  6
Continuous
 62
     0
370
    30
100
AcDbCircle
 10
140.992767
 20
230.29623
 30
0.0
 40
30.0000000000019
100
AcDbArc
 50
278.254178
 51
90.0
  0
ARC
  5
9D
330
7B
100
AcDbEntity
  8
0
  6
Continuous
 62
     0
370
    30
100
AcDbCircle
 10
140.992767
 20
230.29623
 30
0.0
 40
30.0000000000019
100
AcDbArc
 50
90.0
 51
261.745828
  0
SPLINE
  5
9E
330
7B
100
AcDbEntity
  8
0
  6
Continuous
 62
     0
370
    30
100
AcDbSpline
210
0.0
220
0.0
230
1.0
 70
     8
 71
     3
 72
     9
 73
     5
 74
     0
 42
0.000000001
 43
0.0
 40
0.0
 40
0.0
 40
0.0
 40
0.0
 40
22.48973443371164
 40
40.81101124665862
 40
40.81101124665862
 40
40.81101124665862
 40
40.81101124665862
 10
137.3229212594869
 20
172.6088307450627
 30
0.0
 10
137.1619126026025
 20
180.1036758769733
 30
0.0
 10
136.8494223760813
 20
193.7037573955462
 30
0.0
 10
136.5281915821143
 20
207.3036228077383
 30
0.0
 10
136.3862457742666
 20
213.4090599750812
 30
0.0
  0
ARC
  5
9F
330
7B
100
AcDbEntity
  8
0
  6
Continuous
 62
     0
370
    30
100
AcDbCircle
 10
140.977009
 20
230.295629
 30
0.0
 40
12.48421942265399
100
AcDbArc
 50
178.231675
 51
188.47131
  0
ARC
  5
A0
330
7B
100
AcDbEntity
  8
0
  6
Continuous
 62
     0
370
    30
100
AcDbCircle
 10
155.595739
 20
213.180148
 30
0.0
 40
9.999047270996293
100
AcDbArc
 50
130.494046
 51
178.68766
  0
ARC
  5
A1
330
7B
100
AcDbEntity
  8
0
  6
Continuous
 62
     0
370
    30
100
AcDbCircle
 10
126.389744
 20
213.18009
 30
0.0
 40
9.999124770136056
100
AcDbArc
 50
1.312181
 51
49.505906
  0
SPLINE
  5
A2
330
7B
100
AcDbEntity
  8
0
  6
Continuous
 62
     0
370
    30
100
AcDbSpline
210
0.0
220
0.0
230
1.0
 70
     8
 71
     3
 72
    19
 73
    15
 74
     0
 42
0.000000001
 43
0.0
 40
0.0
 40
0.0
 40
0.0
 40
0.0
 40
0.9766850519178333
 40
1.876268306899274
 40
2.427641092871496
 40
2.700897913865813
 40
3.132020499525947
 40
3.455922604977806
 40
4.027761480057125
 40
4.669074234774089
 40
5.299462336630296
 40
5.954221388683341
 40
6.762279532143944
 40
8.835054230195777
 40
8.835054230195777
 40
8.835054230195777
 40
8.835054230195777
 10
140.9927645960553
 20
165.8431531909776
 30
0.0
 10
140.6680476558199
 20
165.8431534140282
 30
0.0
 10
140.0408036764445
 20
165.9184063558777
 30
0.0
 10
139.2821093979632
 20
166.2171070736508
 30
0.0
 10
138.7996978555706
 20
166.532624441323
 30
0.0
 10
138.4753579562095
 20
166.7974420957117
 30
0.0
 10
138.2299948250429
 20
167.0381552087723
 30
0.0
 10
137.9657133431199
 20
167.3942495477703
 30
0.0
 10
137.7362410864861
 20
167.8553443371713
 30
0.0
 10
137.5685700522794
 20
168.4487300216705
 30
0.0
 10
137.4749993563962
 20
169.0848196829376
 30
0.0
 10
137.4279838440456
 20
169.7811902402669
 30
0.0
 10
137.3698575890251
 20
170.958228383479
 30
0.0
 10
137.3377603397284
 20
171.9180814992635
 30
0.0
 10
137.3229212594869
 20
172.6088307450626
 30
0.0
  0
SPLINE
  5
A3
330
7B
100
AcDbEntity
  8
0
  6
Continuous
 62
     0
370
    30
100
AcDbSpline
210
0.0
220
0.0
230
1.0
 70
     8
 71
     3
 72
    19
 73
    15
 74
     0
 42
0.000000001
 43
0.0
 40
0.0
 40
0.0
 40
0.0
 40
0.0
 40
0.9766817290411555
 40
1.876316085351493
 40
2.427735252930188
 40
2.701035075161848
 40
3.132323090028859
 40
3.456258807031514
 40
4.02809470200289
 40
4.669483366421547
 40
5.300124526875712
 40
5.954902225386522
 40
6.762941278107866
 40
8.835062022314826
 40
8.835062022314826
 40
8.835062022314826
 40
8.835062022314826
 10
140.9927664996384
 20
165.8431531909765
 30
0.0
 10
141.3174822722717
 20
165.8431530617199
 30
0.0
 10
141.9447415089302
 20
165.9184102479924
 30
0.0
 10
142.7034659689679
 20
166.2171216202818
 30
0.0
 10
143.1859106766524
 20
166.53267424923
 30
0.0
 10
143.5103129463891
 20
166.7975503574814
 30
0.0
 10
143.7557138116325
 20
167.0383418932246
 30
0.0
 10
144.0199930296879
 20
167.3945197749554
 30
0.0
 10
144.2494178809069
 20
167.8556767377661
 30
0.0
 10
144.4170720176033
 20
168.449179001807
 30
0.0
 10
144.5105990556351
 20
169.0853930534893
 30
0.0
 10
144.5575844053058
 20
169.7818494493156
 30
0.0
 10
144.6156987433598
 20
170.9586699320845
 30
0.0
 10
144.6477784886701
 20
171.9182990708944
 30
0.0
 10
144.6626129795374
 20
172.6088303998392
 30
0.0
  0
SPLINE
  5
A4
330
7B
100
AcDbEntity
  8
0
  6
Continuous
 62
     0
370
    30
100
AcDbSpline
210
0.0
220
0.0
230
1.0
 70
     8
 71
     3
 72
     9
 73
     5
 74
     0
 42
0.000000001
 43
0.0
 40
0.0
 40
0.0
 40
0.0
 40
0.0
 40
22.48978317896232
 40
40.81110045381141
 40
40.81110045381141
 40
40.81110045381141
 40
40.81110045381141
 10
144.6626129795374
 20
172.6088303998392
 30
0.0
 10
144.8236229840338
 20
180.1036917585547
 30
0.0
 10
145.136115533137
 20
193.7038029752785
 30
0.0
 10
145.4573485534566
 20
207.3036980890568
 30
0.0
 10
145.5992952751988
 20
213.4091487307591
 30
0.0
  0
CIRCLE
  5
A5
330
7B
100
AcDbEntity
  8
0
  6
Continuous
 62
     0
370
    30
100
AcDbCircle
 10
140.992767
 20
110.29623
 30
0.0
 40
21.99999999999999
  0
CIRCLE
  5
A6
330
7B
100
AcDbEntity
  8
0
  6
Continuous
 62
     0
370
    30
100
AcDbCircle
 10
140.992767
 20
110.29623
 30
0.0
 40
21.5
  0
LINE
  5
A7
330
7B
100
AcDbEntity
  8
0
  6
Continuous
 62
     0
370
    30
100
AcDbLine
 10
137.542767
 20
140.12623
 30
0.0
 11
144.442767
 21
140.12623
 31
0.0
  0
LINE
  5
A8
330
7B
100
AcDbEntity
  8
0
  6
Continuous
 62
     0
370
    30
100
AcDbLine
 10
137.042767
 20
139.62623
 30
0.0
 11
144.942767
 21
139.62623
 31
0.0
  0
ARC
  5
A9
330
7B
100
AcDbEntity
  8
0
  6
Continuous
 62
     0
370
     0
100
AcDbCircle
 10
140.992767
 20
110.29623
 30
0.0
 40
64.51526627218948
100
AcDbArc
 50
93.301238
 51
86.698762
  0
ARC
  5
AA
330
7B
100
AcDbEntity
  8
0
  6
Continuous
 62
     0
370
    30
100
AcDbCircle
 10
140.992767
 20
110.29623
 30
0.0
 40
65.00000000000004
100
AcDbArc
 50
93.285918
 51
86.714082
  0
LINE
  5
AB
330
7B
100
AcDbEntity
  8
0
  6
Continuous
 62
     0
370
    30
100
AcDbLine
 10
137.042767
 20
139.62623
 30
0.0
 11
137.042767
 21
131.938847
 31
0.0
  0
LINE
  5
AC
330
7B
100
AcDbEntity
  8
0
  6
Continuous
 62
     0
370
    30
100
AcDbLine
 10
144.942767
 20
139.62623
 30
0.0
 11
144.942767
 21
131.938917
 31
0.0
  0
LINE
  5
AD
330
7B
100
AcDbEntity
  8
0
  6
Continuous
 62
     0
370
    30
100
AcDbLine
 10
137.542767
 20
140.12623
 30
0.0
 11
137.042767
 21
139.62623
 31
0.0
  0
LINE
  5
AE
330
7B
100
AcDbEntity
  8
0
  6
Continuous
 62
     0
370
    30
100
AcDbLine
 10
144.442767
 20
140.12623
 30
0.0
 11
144.942767
 21
139.62623
 31
0.0
  0
ENDBLK
  5
B0
330
7B
100
AcDbEntity
  8
0
100
AcDbBlockEnd
  0
BLOCK
  5
118
330
B2
100
AcDbEntity
  8
0
100
AcDbBlockBegin
  2
b
 70
     0
 10
-54.95903
 20
-0.000015
 30
0.0
  3
b
  1

  0
LINE
  5
B3
330
B2
100
AcDbEntity
  8
0
  6
Continuous
 62
     0
370
     0
100
AcDbLine
 10
-124.318261
 20
88.440677
 30
0.0
 11
-129.414663
 21
88.440677
 31
0.0
  0
LINE
  5
B4
330
B2
100
AcDbEntity
  8
0
  6
Continuous
 62
     0
370
     0
100
AcDbLine
 10
-129.414663
 20
88.440677
 30
0.0
 11
-133.917993
 21
88.440677
 31
0.0
  0
LINE
  5
B5
330
B2
100
AcDbEntity
  8
0
  6
Continuous
 62
     0
370
    30
100
AcDbLine
 10
-124.468104
 20
88.247067
 30
0.0
 11
-129.405409
 21
88.247067
 31
0.0
  0
LINE
  5
B6
330
B2
100
AcDbEntity
  8
0
  6
Continuous
 62
     0
370
    30
100
AcDbLine
 10
-129.40541
 20
88.247067
 30
0.0
 11
-133.768403
 21
88.247067
 31
0.0
  0
ARC
  5
B7
330
B2
100
AcDbEntity
  8
0
  6
Continuous
 62
     0
370
    30
100
AcDbCircle
 10
-129.113924
 20
102.285582
 30
0.0
 40
14.79000000000003
100
AcDbArc
 50
251.657025
 51
269.983226
  0
ARC
  5
B8
330
B2
100
AcDbEntity
  8
0
  6
Continuous
 62
     0
370
    30
100
AcDbCircle
 10
-129.122584
 20
102.285582
 30
0.0
 40
14.79000000000003
100
AcDbArc
 50
270.016774
 51
288.342975
  0
ARC
  5
B9
330
B2
100
AcDbEntity
  8
0
  6
Continuous
 62
     0
370
    30
100
AcDbCircle
 10
-124.520889
 20
88.443687
 30
0.0
 40
0.2035820887103841
100
AcDbArc
 50
285.027247
 51
313.582378
  0
ARC
  5
BA
330
B2
100
AcDbEntity
  8
0
  6
Continuous
 62
     0
370
    30
100
AcDbCircle
 10
-133.715283
 20
88.443671
 30
0.0
 40
0.2036542132195921
100
AcDbArc
 50
226.389811
 51
254.880172
  0
SPLINE
  5
BB
330
B2
100
AcDbEntity
  8
0
  6
Continuous
 62
     0
370
     0
100
AcDbSpline
210
0.0
220
0.0
230
1.0
 70
     8
 71
     3
 72
    14
 73
    10
 74
     0
 42
0.000000001
 43
0.0
 40
30.3536253005803
 40
30.3536253005803
 40
30.3536253005803
 40
30.3536253005803
 40
34.69137162723425
 40
39.02687277555464
 40
43.36148144101966
 40
47.69798630468826
 40
52.03606693161141
 40
56.37263841474423
 40
60.7072506011606
 40
60.7072506011606
 40
60.7072506011606
 40
60.7072506011606
 10
-112.2791856227855
 20
242.7962150573561
 30
0.0
 10
-112.279209559867
 20
242.7962163930627
 30
0.0
 10
-112.1862746645987
 20
242.2834733809871
 30
0.0
 10
-111.8360810151273
 20
240.0808087012776
 30
0.0
 10
-111.4224510033123
 20
236.7163343074675
 30
0.0
 10
-111.1459710054862
 20
232.572672136965
 30
0.0
 10
-111.1420332354123
 20
228.1424787318423
 30
0.0
 10
-111.411662312201
 20
223.9860531137407
 30
0.0
 10
-111.6876475836223
 20
221.7179210552098
 30
0.0
 10
-111.8149409532692
 20
220.784145189408
 30
0.0
  0
SPLINE
  5
BC
330
B2
100
AcDbEntity
  8
0
  6
Continuous
 62
     0
370
     0
100
AcDbSpline
210
0.0
220
0.0
230
1.0
 70
     8
 71
     3
 72
    14
 73
    10
 74
     0
 42
0.000000001
 43
0.0
 40
0.0
 40
0.0
 40
0.0
 40
0.0
 40
1.974027971177131
 40
3.936390186585609
 40
5.878649482336035
 40
7.790165265916714
 40
9.659696083105716
 40
11.4773290793628
 40
13.22973633779209
 40
13.22973633779209
 40
13.22973633779209
 40
13.22973633779209
 10
-111.81494226332
 20
220.784145206845
 30
0.0
 10
-111.1570713666988
 20
220.7753888167821
 30
0.0
 10
-109.8455149586412
 20
220.7418922804218
 30
0.0
 10
-107.8921599308272
 20
220.6371595166106
 30
0.0
 10
-105.9685092389792
 20
220.4820271022851
 30
0.0
 10
-104.0895934046403
 20
220.2771004841326
 30
0.0
 10
-102.2722153062204
 20
220.0256683641284
 30
0.0
 10
-100.5334444872719
 20
219.7385522536256
 30
0.0
 10
-99.41499297896803
 20
219.5260726034762
 30
0.0
 10
-98.87625132271296
 20
219.4149561110707
 30
0.0
  0
ARC
  5
BD
330
B2
100
AcDbEntity
  8
0
  6
Continuous
 62
     0
370
     0
100
AcDbCircle
 10
-110.813123
 20
161.813371
 30
0.0
 40
58.82543201142332
100
AcDbArc
 50
72.69067
 51
78.29222
  0
LINE
  5
BE
330
B2
100
AcDbEntity
  8
0
  6
Continuous
 62
     0
370
    30
100
AcDbLine
 10
-90.895219
 20
217.796215
 30
0.0
 11
-81.020219
 21
217.796215
 31
0.0
  0
LINE
  5
BF
330
B2
100
AcDbEntity
  8
0
  6
Continuous
 62
     0
370
    30
100
AcDbLine
 10
-81.020219
 20
217.796215
 30
0.0
 11
-81.020219
 21
242.796215
 31
0.0
  0
ARC
  5
C0
330
B2
100
AcDbEntity
  8
0
  6
Continuous
 62
     0
370
    30
100
AcDbCircle
 10
-92.747894
 20
207.796215
 30
0.0
 40
10.00000000000001
100
AcDbArc
 50
103.870751
 51
177.274228
  0
SPLINE
  5
C1
330
B2
100
AcDbEntity
  8
0
  6
Continuous
 62
     0
370
     0
100
AcDbSpline
210
0.0
220
0.0
230
1.0
 70
     8
 71
     3
 72
    13
 73
     9
 74
     0
 42
0.000000001
 43
0.0
 40
0.0
 40
0.0
 40
0.0
 40
0.0
 40
0.5473647493952614
 40
1.055149285041185
 40
2.027463515246973
 40
2.69558469592278
 40
3.554900930002945
 40
4.313303105046226
 40
4.313303105046226
 40
4.313303105046226
 40
4.313303105046226
 10
-102.7365800856792
 20
208.2717725904317
 30
0.0
 10
-102.7365799712003
 20
208.271774206946
 30
0.0
 10
-102.7510131551652
 20
208.310787951315
 30
0.0
 10
-102.8284391101919
 20
208.5257186543778
 30
0.0
 10
-102.9832248036093
 20
208.9435581486705
 30
0.0
 10
-103.2750886925647
 20
209.5966409177176
 30
0.0
 10
-103.66183284406
 20
210.2808675252233
 30
0.0
 10
-104.0627202934904
 20
210.7803279549432
 30
0.0
 10
-104.2849282472273
 20
211.0086255261163
 30
0.0
  0
ELLIPSE
  5
C2
330
B2
100
AcDbEntity
  8
0
  6
Continuous
 62
     0
370
     0
100
AcDbEllipse
 10
-98.876252
 20
210.709949
 30
0.0
 11
3.480422335468908
 21
9.374788550509777
 31
0.0
210
0.0
220
0.0
230
-1.0
 40
0.524222
 41
4.551450636358107
 42
5.666977543422749
  0
SPLINE
  5
C3
330
B2
100
AcDbEntity
  8
0
  6
Continuous
 62
     0
370
     0
100
AcDbSpline
210
0.0
220
0.0
230
1.0
 70
     8
 71
     3
 72
    10
 73
     6
 74
     0
 42
0.000000001
 43
0.0
 40
0.0
 40
0.0
 40
0.0
 40
0.0
 40
2.798270619055192
 40
5.595978195444554
 40
8.393884764184449
 40
8.393884764184449
 40
8.393884764184449
 40
8.393884764184449
 10
-111.8149423348093
 20
220.7841428910313
 30
0.0
 10
-111.9170443693889
 20
220.182613234981
 30
0.0
 10
-112.0582895902716
 20
218.7673337250327
 30
0.0
 10
-112.1463228072771
 20
216.2108920800104
 30
0.0
 10
-112.1558304310663
 20
214.3414753228021
 30
0.0
 10
-112.1530595366268
 20
213.4090983387701
 30
0.0
  0
SPLINE
  5
C4
330
B2
100
AcDbEntity
  8
0
  6
Continuous
 62
     0
370
     0
100
AcDbSpline
210
0.0
220
0.0
230
1.0
 70
     8
 71
     3
 72
    39
 73
    35
 74
     0
 42
0.000000001
 43
0.0
 40
0.9242651249458449
 40
0.9242651249458449
 40
0.9242651249458449
 40
0.9242651249458449
 40
1.095853179809037
 40
1.243779472733291
 40
1.397011119722972
 40
1.55336319157057
 40
1.709964074651579
 40
1.870272236443196
 40
2.190564059117389
 40
2.51612165308385
 40
2.844834989681557
 40
3.010170490642
 40
3.433741361106049
 40
3.795062718559564
 40
4.156384076013079
 40
4.517705433466594
 40
4.803096995319677
 40
5.088488557172762
 40
5.387077130908893
 40
5.685665704645024
 40
5.982327788684009
 40
6.278989872722995
 40
6.57565195676198
 40
6.872314040800966
 40
7.241517648492657
 40
7.610721256184348
 40
7.897011590779721
 40
8.183301925375094
 40
8.453921848578155
 40
8.724541771781217
 40
9.083876701511235
 40
9.43167664429852
 40
9.667430175905203
 40
10.02769626272259
 40
10.02769626272259
 40
10.02769626272259
 40
10.02769626272259
 10
-112.1530595366268
 20
213.4090983387701
 30
0.0
 10
-112.0849368324825
 20
213.4071760463154
 30
0.0
 10
-111.9638987881404
 20
213.4031634197871
 30
0.0
 10
-111.7819798517957
 20
213.3958811092095
 30
0.0
 10
-111.6150449033081
 20
213.3877217107282
 30
0.0
 10
-111.4477782845649
 20
213.3781623187885
 30
0.0
 10
-111.2782656957225
 20
213.3671299544843
 30
0.0
 10
-111.0475543087957
 20
213.3504122063893
 30
0.0
 10
-110.7546384610957
 20
213.3256900589461
 30
0.0
 10
-110.4097283227923
 20
213.2900874979631
 30
0.0
 10
-110.1220022612524
 20
213.2551742703985
 30
0.0
 10
-109.80252848132
 20
213.2118945684932
 30
0.0
 10
-109.4744550948209
 20
213.1619100777475
 30
0.0
 10
-109.0827886033958
 20
213.0933895107926
 30
0.0
 10
-108.7184527146256
 20
213.021585154045
 30
0.0
 10
-108.387610789743
 20
212.9484429780763
 30
0.0
 10
-108.090221568062
 20
212.8756623793005
 30
0.0
 10
-107.820055500498
 20
212.8035934093982
 30
0.0
 10
-107.553466819549
 20
212.7261348829005
 30
0.0
 10
-107.2906750798759
 20
212.6432511747861
 30
0.0
 10
-107.034865413455
 20
212.5561465476355
 30
0.0
 10
-106.7859079414961
 20
212.4649519283443
 30
0.0
 10
-106.5431686825304
 20
212.3695768880941
 30
0.0
 10
-106.2872810568101
 20
212.2620124792606
 30
0.0
 10
-106.0200117712606
 20
212.1411401506478
 30
0.0
 10
-105.7640267429034
 20
212.0160730726173
 30
0.0
 10
-105.5357187493184
 20
211.8969633373546
 30
0.0
 10
-105.3350249514257
 20
211.7871941788046
 30
0.0
 10
-105.1399553029994
 20
211.6766015944771
 30
0.0
 10
-104.9370866999341
 20
211.5536248475252
 30
0.0
 10
-104.7381063023438
 20
211.4173083440128
 30
0.0
 10
-104.5733451110475
 20
211.2835887550927
 30
0.0
 10
-104.4238142679531
 20
211.1480155878056
 30
0.0
 10
-104.3362341746172
 20
211.0613374944007
 30
0.0
 10
-104.2849282472273
 20
211.0086255261163
 30
0.0
  0
LINE
  5
C5
330
B2
100
AcDbEntity
  8
0
  6
Continuous
 62
     0
370
    30
100
AcDbLine
 10
-102.73658
 20
208.271773
 30
0.0
 11
-104.43448
 21
172.608804
 31
0.0
  0
LINE
  5
C6
330
B2
100
AcDbEntity
  8
0
  6
Continuous
 62
     0
370
     0
100
AcDbLine
 10
-105.798968
 20
172.608808
 30
0.0
 11
-104.284928
 21
211.008626
 31
0.0
  0
LINE
  5
C7
330
B2
100
AcDbEntity
  8
0
  6
Continuous
 62
     0
370
     0
100
AcDbLine
 10
-112.070696
 20
172.608799
 30
0.0
 11
-112.209791
 21
172.608798
 31
0.0
  0
ARC
  5
C8
330
B2
100
AcDbEntity
  8
0
  6
Continuous
 62
     0
370
     0
100
AcDbCircle
 10
-92567.320898
 20
321.903997
 30
0.0
 40
92455.23164685033
100
AcDbArc
 50
359.90748
 51
359.932764
  0
ARC
  5
C9
330
B2
100
AcDbEntity
  8
0
  6
Continuous
 62
     0
370
     0
100
AcDbCircle
 10
84007.778094
 20
98.03227
 30
0.0
 40
84121.54655918415
100
AcDbArc
 50
179.921392
 51
179.949183
  0
ELLIPSE
  5
CA
330
B2
100
AcDbEntity
  8
0
  6
Continuous
 62
     0
370
     0
100
AcDbEllipse
 10
-112.191676
 20
213.443998
 30
0.0
 11
-1.499998709516729
 21
0.001967599590440786
 31
0.0
210
0.0
220
0.0
230
1.0
 40
0.023243
 41
0.0563728589108443
 42
1.596673822175021
  0
ARC
  5
CB
330
B2
100
AcDbEntity
  8
0
  6
Continuous
 62
     0
370
    30
100
AcDbCircle
 10
-112.27923
 20
167.343138
 30
0.0
 40
1.500000000000002
100
AcDbArc
 50
179.999996
 51
272.069689
  0
SPLINE
  5
CC
330
B2
100
AcDbEntity
  8
0
  6
Continuous
 62
     0
370
     0
100
AcDbSpline
210
0.0
220
0.0
230
1.0
 70
     8
 71
     3
 72
    18
 73
    14
 74
     0
 42
0.000000001
 43
0.0
 40
0.0
 40
0.0
 40
0.0
 40
0.0
 40
0.7040270164530424
 40
1.295759034053318
 40
1.633227194692992
 40
1.882695714651265
 40
2.085978384419887
 40
2.399476426375227
 40
2.76062993912089
 40
3.281803497912946
 40
3.731036026613197
 40
4.746184634738002
 40
6.511452760270865
 40
6.511452760270865
 40
6.511452760270865
 40
6.511452760270865
 10
-113.7792302174793
 20
167.3431380433252
 30
0.0
 10
-113.7792335167964
 20
167.3431379498221
 30
0.0
 10
-113.7763057993196
 20
167.4022043771992
 30
0.0
 10
-113.7670769781215
 20
167.6378691945106
 30
0.0
 10
-113.7591054584979
 20
167.8784398673888
 30
0.0
 10
-113.7534845757489
 20
168.0638734271903
 30
0.0
 10
-113.7491802785441
 20
168.28381056463
 30
0.0
 10
-113.7456526630468
 20
168.559126050949
 30
0.0
 10
-113.7425096556753
 20
168.9488819255151
 30
0.0
 10
-113.7406478924384
 20
169.390435543698
 30
0.0
 10
-113.7390619292036
 20
170.0509751350333
 30
0.0
 10
-113.7370776496651
 20
171.1263797940544
 30
0.0
 10
-113.7358902940011
 20
172.05274513662
 30
0.0
 10
-113.7353791458507
 20
172.6410319010826
 30
0.0
  0
SPLINE
  5
CD
330
B2
100
AcDbEntity
  8
0
  6
Continuous
 62
     0
370
     0
100
AcDbSpline
210
0.0
220
0.0
230
1.0
 70
     8
 71
     3
 72
    30
 73
    26
 74
     0
 42
0.000000001
 43
0.0
 40
0.0
 40
0.0
 40
0.0
 40
0.0
 40
1.235145892692358
 40
2.006058848014206
 40
2.780214246370494
 40
3.168132528337276
 40
3.76883019244176
 40
4.181684194939619
 40
4.745873156081188
 40
5.08420702685574
 40
5.419789841509303
 40
5.717410124962531
 40
5.99869121836398
 40
6.188442537829291
 40
6.274239072090314
 40
6.358435919717284
 40
6.452677978863814
 40
6.61239143561952
 40
6.727729837536588
 40
6.845000371816663
 40
6.958969470560348
 40
7.179509089822062
 40
7.396680465335415
 40
7.99153302971622
 40
8.826216395009139
 40
8.826216395009139
 40
8.826216395009139
 40
8.826216395009139
 10
-112.2097911232321
 20
172.6087976481029
 30
0.0
 10
-112.2103155368009
 20
172.3000979732522
 30
0.0
 10
-112.2058363086827
 20
171.7984460180954
 30
0.0
 10
-112.1888856735688
 20
171.1029823340495
 30
0.0
 10
-112.1719467102949
 20
170.6193059836404
 30
0.0
 10
-112.1533188383816
 20
170.1777885540959
 30
0.0
 10
-112.1365494088988
 20
169.8272986171094
 30
0.0
 10
-112.1137268418854
 20
169.4152325871222
 30
0.0
 10
-112.0899588923518
 20
169.0380232228559
 30
0.0
 10
-112.0654466819671
 20
168.6422143617785
 30
0.0
 10
-112.047008772163
 20
168.3083100078035
 30
0.0
 10
-112.0317917893123
 20
167.9609514704787
 30
0.0
 10
-112.0235614114421
 20
167.6297788903272
 30
0.0
 10
-112.0254856489729
 20
167.3589613692115
 30
0.0
 10
-112.0323257228331
 20
167.1766852908277
 30
0.0
 10
-112.0404195518834
 20
167.0441005226037
 30
0.0
 10
-112.0525069151723
 20
166.905224768136
 30
0.0
 10
-112.0647081110311
 20
166.7953887327099
 30
0.0
 10
-112.0768699617995
 20
166.6943987415657
 30
0.0
 10
-112.0876619508736
 20
166.6100299943284
 30
0.0
 10
-112.1024626816591
 20
166.5007059543292
 30
0.0
 10
-112.1215098784598
 20
166.3728464906341
 30
0.0
 10
-112.1568824748591
 20
166.1604705559163
 30
0.0
 10
-112.2075728306235
 20
165.9106682154612
 30
0.0
 10
-112.2250608846848
 20
165.8441163881549
 30
0.0
 10
-112.2250576758516
 20
165.8441164727951
 30
0.0
  0
LINE
  5
CE
330
B2
100
AcDbEntity
  8
0
  6
Continuous
 62
     0
370
     0
100
AcDbLine
 10
-105.798968
 20
172.608808
 30
0.0
 11
-105.984575
 21
167.901229
 31
0.0
  0
SPLINE
  5
CF
330
B2
100
AcDbEntity
  8
0
  6
Continuous
 62
     0
370
    30
100
AcDbSpline
210
0.0
220
0.0
230
1.0
 70
     8
 71
     3
 72
    14
 73
    10
 74
     0
 42
0.000000001
 43
0.0
 40
0.0
 40
0.0
 40
0.0
 40
0.0
 40
0.959869858522463
 40
1.920209553095731
 40
2.881080345005874
 40
3.842023616642013
 40
4.803136771199672
 40
5.764136911794927
 40
6.725779570084066
 40
6.725779570084066
 40
6.725779570084066
 40
6.725779570084066
 10
-105.9845751967733
 20
167.9012286843983
 30
0.0
 10
-106.2057607271187
 20
167.6700378551604
 30
0.0
 10
-106.697673130282
 20
167.2530452723682
 30
0.0
 10
-107.5317612784762
 20
166.7692085818696
 30
0.0
 10
-108.4271695143221
 20
166.4134644384359
 30
0.0
 10
-109.356153441898
 20
166.1615167172382
 30
0.0
 10
-110.3034712602522
 20
165.9940763813838
 30
0.0
 10
-111.2597211559919
 20
165.8909710298522
 30
0.0
 10
-111.8998882257376
 20
165.8559275372365
 30
0.0
 10
-112.2202245149593
 20
165.8442915847764
 30
0.0
  0
SPLINE
  5
D0
330
B2
100
AcDbEntity
  8
0
  6
Continuous
 62
     0
370
    30
100
AcDbSpline
210
0.0
220
0.0
230
1.0
 70
     8
 71
     3
 72
    14
 73
    10
 74
     0
 42
0.000000001
 43
0.0
 40
0.0
 40
0.0
 40
0.0
 40
0.0
 40
0.7294674980048472
 40
1.450373905297451
 40
2.163775695996503
 40
2.872397796944338
 40
3.581869314751405
 40
4.303289579881687
 40
5.058649601130069
 40
5.058649601130069
 40
5.058649601130069
 40
5.058649601130069
 10
-104.4344803565021
 20
172.6088040957104
 30
0.0
 10
-104.4460437818774
 20
172.365923779652
 30
0.0
 10
-104.4793636770595
 20
171.8834006204676
 30
0.0
 10
-104.5676444759016
 20
171.16715124217
 30
0.0
 10
-104.7018755183099
 20
170.4649115308501
 30
0.0
 10
-104.8921931430723
 20
169.77937845724
 30
0.0
 10
-105.1527497155789
 20
169.1137990673703
 30
0.0
 10
-105.5044489283793
 20
168.4729107100639
 30
0.0
 10
-105.8105158752541
 20
168.0831617639391
 30
0.0
 10
-105.9845755137538
 20
167.9012285852421
 30
0.0
  0
SPLINE
  5
D1
330
B2
100
AcDbEntity
  8
0
  6
Continuous
 62
     0
370
     0
100
AcDbSpline
210
0.0
220
0.0
230
1.0
 70
     8
 71
     3
 72
    19
 73
    15
 74
     0
 42
0.000000001
 43
0.0
 40
0.0
 40
0.0
 40
0.0
 40
0.0
 40
1.944818689850858
 40
3.879518989130776
 40
5.805642800460687
 40
7.725571429675663
 40
9.642265420132297
 40
11.55909434387184
 40
13.4793174695907
 40
15.40586401667402
 40
17.34099563188875
 40
19.28673070470717
 40
23.18505413553117
 40
27.10360883960967
 40
27.10360883960967
 40
27.10360883960967
 40
27.10360883960967
 10
-113.3020267512646
 20
221.9255936935068
 30
0.0
 10
-113.236410796289
 20
222.3368531851647
 30
0.0
 10
-113.0999119341396
 20
223.2445351157244
 30
0.0
 10
-112.9062245085454
 20
224.8215788935301
 30
0.0
 10
-112.7481167893203
 20
226.5670344924012
 30
0.0
 10
-112.6454898271801
 20
228.4291308628368
 30
0.0
 10
-112.6111264707151
 20
230.3504700972054
 30
0.0
 10
-112.6495018293308
 20
232.2700849143556
 30
0.0
 10
-112.7556801958335
 20
234.1271734307225
 30
0.0
 10
-112.9163973082435
 20
235.8641209646753
 30
0.0
 10
-113.1114123066137
 20
237.4312682976452
 30
0.0
 10
-113.3845692846896
 20
239.2298205198506
 30
0.0
 10
-113.6843062974007
 20
240.8490960243481
 30
0.0
 10
-113.7792403332867
 20
241.2961970162942
 30
0.0
 10
-113.7792247377239
 20
241.2961651475504
 30
0.0
  0
SPLINE
  5
D2
330
B2
100
AcDbEntity
  8
0
  6
Continuous
 62
     0
370
     0
100
AcDbSpline
210
0.0
220
0.0
230
1.0
 70
     8
 71
     3
 72
    14
 73
    10
 74
     0
 42
0.000000001
 43
0.0
 40
0.0
 40
0.0
 40
0.0
 40
0.0
 40
1.382864170633273
 40
2.767013309008381
 40
4.153480982412725
 40
5.543211805218741
 40
6.936725925118182
 40
8.334218231834106
 40
9.738528679551933
 40
9.738528679551933
 40
9.738528679551933
 40
9.738528679551933
 10
-113.6892931350372
 20
213.4440069357935
 30
0.0
 10
-113.6886721042387
 20
213.9048298038336
 30
0.0
 10
-113.6842409050234
 20
214.8265382712692
 30
0.0
 10
-113.6671037571629
 20
216.1841243782883
 30
0.0
 10
-113.6371385652334
 20
217.4983554582805
 30
0.0
 10
-113.5908391226608
 20
218.7494538529928
 30
0.0
 10
-113.5238900045613
 20
219.9193577408217
 30
0.0
 10
-113.4315890539477
 20
220.9922509648877
 30
0.0
 10
-113.3494070349685
 20
221.6286286251423
 30
0.0
 10
-113.3020272734321
 20
221.9255903257812
 30
0.0
  0
ELLIPSE
  5
D3
330
B2
100
AcDbEntity
  8
0
  6
Continuous
 62
     0
370
     0
100
AcDbEllipse
 10
-111.814942
 20
221.925591
 30
0.0
 11
1.482319950822036
 21
-0.2296248318343702
 31
0.0
210
0.0
220
0.0
230
-1.0
 40
0.757151
 41
1.454040551322593
 42
2.939782519236672
  0
LINE
  5
D4
330
B2
100
AcDbEntity
  8
0
  6
Continuous
 62
     0
370
     0
100
AcDbLine
 10
-105.798968
 20
172.608808
 30
0.0
 11
-112.070696
 21
172.608799
 31
0.0
  0
ELLIPSE
  5
D5
330
B2
100
AcDbEntity
  8
0
  6
Continuous
 62
     0
370
     0
100
AcDbEllipse
 10
-112.23654
 20
172.641032
 30
0.0
 11
1.499999463379547
 21
-0.001268803007687873
 31
0.0
210
0.0
220
0.0
230
-1.0
 40
0.021478
 41
1.552944393944632
 42
3.102233043432753
  0
SPLINE
  5
D6
330
B2
100
AcDbEntity
  8
0
  6
Continuous
 62
     0
370
     0
100
AcDbSpline
210
0.0
220
0.0
230
1.0
 70
     8
 71
     9
 72
    20
 73
    10
 74
     0
 42
0.000000001
 43
0.0
 40
0.0
 40
0.0
 40
0.0
 40
0.0
 40
0.0
 40
0.0
 40
0.0
 40
0.0
 40
0.0
 40
0.0
 40
0.2499999949532693
 40
0.2499999949532693
 40
0.2499999949532693
 40
0.2499999949532693
 40
0.2499999949532693
 40
0.2499999949532693
 40
0.2499999949532693
 40
0.2499999949532693
 40
0.2499999949532693
 40
0.2499999949532693
 10
-104.4344804464547
 20
172.6088041070277
 30
0.0
 10
-104.4344803553694
 20
172.6088040927581
 30
0.0
 10
-104.4661301116518
 20
172.6087939126419
 30
0.0
 10
-104.5359143511781
 20
172.6087956647122
 30
0.0
 10
-104.6508534988408
 20
172.6087982441973
 30
0.0
 10
-104.8197090117798
 20
172.6088014791587
 30
0.0
 10
-105.029590964402
 20
172.6088044303355
 30
0.0
 10
-105.2679405733969
 20
172.6088066927906
 30
0.0
 10
-105.5263619224738
 20
172.6088079858446
 30
0.0
 10
-105.7989679867712
 20
172.6088081232958
 30
0.0
  0
ARC
  5
D7
330
B2
100
AcDbEntity
  8
0
  6
Continuous
 62
     0
370
     0
100
AcDbCircle
 10
-93.032419
 20
205.30972
 30
0.0
 40
12.66807715123961
100
AcDbArc
 50
80.287321
 51
91.259052
  0
SPLINE
  5
D8
330
B2
100
AcDbEntity
  8
0
  6
Continuous
 62
     0
370
     0
100
AcDbSpline
210
0.0
220
0.0
230
1.0
 70
     8
 71
     3
 72
    14
 73
    10
 74
     0
 42
0.000000001
 43
0.0
 40
0.0
 40
0.0
 40
0.0
 40
0.0
 40
0.440757904857497
 40
0.8809951498000718
 40
1.321542685411743
 40
1.762258113484925
 40
2.20286425169064
 40
2.643363622710561
 40
3.083672144984925
 40
3.083672144984925
 40
3.083672144984925
 40
3.083672144984925
 10
-93.31078399709628
 20
217.9747356795365
 30
0.0
 10
-93.45628370518051
 20
217.9713065672773
 30
0.0
 10
-93.74359157558581
 20
217.9527034767224
 30
0.0
 10
-94.1396534710048
 20
217.8904873936146
 30
0.0
 10
-94.48480837535209
 20
217.8010706450575
 30
0.0
 10
-94.76771592830033
 20
217.6977037811758
 30
0.0
 10
-94.98036559698346
 20
217.598153202497
 30
0.0
 10
-95.1143297407192
 20
217.5235540274024
 30
0.0
 10
-95.14522159367283
 20
217.5046046913154
 30
0.0
 10
-95.14521894420432
 20
217.5046049464046
 30
0.0
  0
ARC
  5
D9
330
B2
100
AcDbEntity
  8
0
  6
Continuous
 62
     0
370
    30
100
AcDbCircle
 10
-80.370219
 20
240.796215
 30
0.0
 40
0.25
100
AcDbArc
 50
270.0
 51
360.0
  0
ARC
  5
DA
330
B2
100
AcDbEntity
  8
0
  6
Continuous
 62
     0
370
    30
100
AcDbCircle
 10
-79.920219
 20
260.096215
 30
0.0
 40
0.2000000029802322
100
AcDbArc
 50
90.0
 51
180.0
  0
LINE
  5
DB
330
B2
100
AcDbEntity
  8
0
  6
Continuous
 62
     0
370
    30
100
AcDbLine
 10
-79.920219
 20
260.296215
 30
0.0
 11
-74.420219
 21
260.296215
 31
0.0
  0
LINE
  5
DC
330
B2
100
AcDbEntity
  8
0
  6
Continuous
 62
     0
370
     0
100
AcDbLine
 10
-80.370219
 20
220.046215
 30
0.0
 11
-80.370219
 21
240.546215
 31
0.0
  0
LINE
  5
DD
330
B2
100
AcDbEntity
  8
0
  6
Continuous
 62
     0
370
    30
100
AcDbLine
 10
-80.120219
 20
200.496215
 30
0.0
 11
-80.120219
 21
260.096215
 31
0.0
  0
LINE
  5
DE
330
B2
100
AcDbEntity
  8
0
  6
Continuous
 62
     0
370
     0
100
AcDbLine
 10
-79.920219
 20
200.296215
 30
0.0
 11
-79.920219
 21
260.296215
 31
0.0
  0
LINE
  5
DF
330
B2
100
AcDbEntity
  8
0
  6
Continuous
 62
     0
370
    30
100
AcDbLine
 10
-74.420219
 20
200.296215
 30
0.0
 11
-74.420219
 21
260.296215
 31
0.0
  0
LINE
  5
E0
330
B2
100
AcDbEntity
  8
0
  6
Continuous
 62
     0
370
    30
100
AcDbLine
 10
-81.020219
 20
240.546215
 30
0.0
 11
-80.370219
 21
240.546215
 31
0.0
  0
SPLINE
  5
E1
330
B2
100
AcDbEntity
  8
0
  6
Continuous
 62
     0
370
    30
100
AcDbSpline
210
0.0
220
0.0
230
1.0
 70
     8
 71
     3
 72
    14
 73
    10
 74
     0
 42
0.000000001
 43
0.0
 40
0.0
 40
0.0
 40
0.0
 40
0.0
 40
1.513815793375246
 40
2.2444493141925
 40
2.983995229909195
 40
3.35606660294912
 40
3.728579967711822
 40
4.001904634258905
 40
4.274587389037798
 40
4.274587389037798
 40
4.274587389037798
 40
4.274587389037798
 10
-90.89521894463746
 20
217.796215057723
 30
0.0
 10
-91.3998224238378
 20
217.7962150574271
 30
0.0
 10
-92.14790869437144
 20
217.8103072426621
 30
0.0
 10
-93.14266613947837
 20
217.7971182068671
 30
0.0
 10
-93.75571525745335
 20
217.7556822160692
 30
0.0
 10
-94.24656906127115
 20
217.6928940854285
 30
0.0
 10
-94.58089613995821
 20
217.6345107746987
 30
0.0
 10
-94.88031528058474
 20
217.5702113108263
 30
0.0
 10
-95.05680271111692
 20
217.5256841904363
 30
0.0
 10
-95.14521894435615
 20
217.5046049461238
 30
0.0
  0
ARC
  5
E2
330
B2
100
AcDbEntity
  8
0
  6
Continuous
 62
     0
370
    30
100
AcDbCircle
 10
-112.279165
 20
241.296139
 30
0.0
 40
1.500016838989423
100
AcDbArc
 50
90.00079
 51
179.998999
  0
LINE
  5
E3
330
B2
100
AcDbEntity
  8
0
  6
Continuous
 62
     0
370
    30
100
AcDbLine
 10
-113.77923
 20
167.343138
 30
0.0
 11
-113.779225
 21
241.296165
 31
0.0
  0
LINE
  5
E4
330
B2
100
AcDbEntity
  8
0
  6
Continuous
 62
     0
370
    30
100
AcDbLine
 10
-113.77923
 20
167.343138
 30
0.0
 11
-113.77746
 21
167.270284
 31
0.0
  0
LINE
  5
E5
330
B2
100
AcDbEntity
  8
0
  6
Continuous
 62
     0
370
    30
100
AcDbLine
 10
-112.279186
 20
242.796215
 30
0.0
 11
-81.020219
 21
242.796215
 31
0.0
  0
LINE
  5
E6
330
B2
100
AcDbEntity
  8
0
  6
Continuous
 62
     0
370
    30
100
AcDbLine
 10
-79.920219
 20
200.296215
 30
0.0
 11
-74.420219
 21
200.296215
 31
0.0
  0
ARC
  5
E7
330
B2
100
AcDbEntity
  8
0
  6
Continuous
 62
     0
370
    30
100
AcDbCircle
 10
-79.920219
 20
200.496215
 30
0.0
 40
0.2000000029802322
100
AcDbArc
 50
180.0
 51
270.0
  0
ARC
  5
E8
330
B2
100
AcDbEntity
  8
0
  6
Continuous
 62
     0
370
    30
100
AcDbCircle
 10
-80.370219
 20
219.796215
 30
0.0
 40
0.25
100
AcDbArc
 50
0.0
 51
90.0
  0
LINE
  5
E9
330
B2
100
AcDbEntity
  8
0
  6
Continuous
 62
     0
370
    30
100
AcDbLine
 10
-81.020219
 20
220.046215
 30
0.0
 11
-80.370219
 21
220.046215
 31
0.0
  0
LINE
  5
EA
330
B2
100
AcDbEntity
  8
0
  6
Continuous
 62
     0
370
    30
100
AcDbLine
 10
-85.365224
 20
89.896215
 30
0.0
 11
-85.3677
 21
89.59376
 31
0.0
  0
ARC
  5
EB
330
B2
100
AcDbEntity
  8
0
  6
Continuous
 62
     0
370
    30
100
AcDbCircle
 10
-85.66769
 20
89.596216
 30
0.0
 40
0.3000007976201424
100
AcDbArc
 50
269.999886
 51
359.530913
  0
LINE
  5
EC
330
B2
100
AcDbEntity
  8
0
  6
Continuous
 62
     0
370
    30
100
AcDbLine
 10
-85.667691
 20
89.296215
 30
0.0
 11
-87.228818
 21
89.296215
 31
0.0
  0
ARC
  5
ED
330
B2
100
AcDbEntity
  8
0
  6
Continuous
 62
     0
370
    30
100
AcDbCircle
 10
-87.228818
 20
89.596216
 30
0.0
 40
0.3000007975586264
100
AcDbArc
 50
180.469087
 51
270.000114
  0
ARC
  5
EE
330
B2
100
AcDbEntity
  8
0
  6
Continuous
 62
     0
370
    30
100
AcDbCircle
 10
-87.830068
 20
89.746215
 30
0.0
 40
0.3000007634889668
100
AcDbArc
 50
0.469088
 51
90.00012
  0
LINE
  5
EF
330
B2
100
AcDbEntity
  8
0
  6
Continuous
 62
     0
370
    30
100
AcDbLine
 10
-87.830068
 20
90.046215
 30
0.0
 11
-88.118254
 21
90.046215
 31
0.0
  0
LINE
  5
F0
330
B2
100
AcDbEntity
  8
0
  6
Continuous
 62
     0
370
    30
100
AcDbLine
 10
-133.855753
 20
88.296215
 30
0.0
 11
-137.618254
 21
88.296215
 31
0.0
  0
LINE
  5
F1
330
B2
100
AcDbEntity
  8
0
  6
Continuous
 62
     0
370
    30
100
AcDbLine
 10
-88.118254
 20
88.296215
 30
0.0
 11
-124.38054
 21
88.296215
 31
0.0
  0
LINE
  5
F2
330
B2
100
AcDbEntity
  8
0
  6
Continuous
 62
     0
370
    30
100
AcDbLine
 10
-137.618254
 20
88.296215
 30
0.0
 11
-138.118254
 21
88.796215
 31
0.0
  0
LINE
  5
F3
330
B2
100
AcDbEntity
  8
0
  6
Continuous
 62
     0
370
     0
100
AcDbLine
 10
-85.3677
 20
89.59376
 30
0.0
 11
-85.3677
 21
130.99867
 31
0.0
  0
LINE
  5
F4
330
B2
100
AcDbEntity
  8
0
  6
Continuous
 62
     0
370
     0
100
AcDbLine
 10
-85.667691
 20
89.296215
 30
0.0
 11
-85.667691
 21
131.296215
 31
0.0
  0
LINE
  5
F5
330
B2
100
AcDbEntity
  8
0
  6
Continuous
 62
     0
370
     0
100
AcDbLine
 10
-87.228818
 20
89.296215
 30
0.0
 11
-87.228818
 21
131.296215
 31
0.0
  0
LINE
  5
F6
330
B2
100
AcDbEntity
  8
0
  6
Continuous
 62
     0
370
     0
100
AcDbLine
 10
-87.530077
 20
89.748671
 30
0.0
 11
-87.530077
 21
130.843759
 31
0.0
  0
LINE
  5
F7
330
B2
100
AcDbEntity
  8
0
  6
Continuous
 62
     0
370
     0
100
AcDbLine
 10
-87.830068
 20
90.046215
 30
0.0
 11
-87.830068
 21
130.546215
 31
0.0
  0
LINE
  5
F8
330
B2
100
AcDbEntity
  8
0
  6
Continuous
 62
     0
370
    30
100
AcDbLine
 10
-88.118254
 20
88.296215
 30
0.0
 11
-88.118254
 21
132.296215
 31
0.0
  0
LINE
  5
F9
330
B2
100
AcDbEntity
  8
0
  6
Continuous
 62
     0
370
    30
100
AcDbLine
 10
-137.618254
 20
88.296215
 30
0.0
 11
-137.618254
 21
132.296215
 31
0.0
  0
LINE
  5
FA
330
B2
100
AcDbEntity
  8
0
  6
Continuous
 62
     0
370
    30
100
AcDbLine
 10
-138.118254
 20
88.796215
 30
0.0
 11
-138.118254
 21
131.796215
 31
0.0
  0
LINE
  5
FB
330
B2
100
AcDbEntity
  8
0
  6
Continuous
 62
     0
370
    30
100
AcDbLine
 10
-125.668254
 20
140.126215
 30
0.0
 11
-125.168254
 21
139.626215
 31
0.0
  0
LINE
  5
FC
330
B2
100
AcDbEntity
  8
0
  6
Continuous
 62
     0
370
    30
100
AcDbLine
 10
-132.568254
 20
140.126215
 30
0.0
 11
-125.668254
 21
140.126215
 31
0.0
  0
LINE
  5
FD
330
B2
100
AcDbEntity
  8
0
  6
Continuous
 62
     0
370
    30
100
AcDbLine
 10
-133.068254
 20
139.626215
 30
0.0
 11
-125.168254
 21
139.626215
 31
0.0
  0
LINE
  5
FE
330
B2
100
AcDbEntity
  8
0
  6
Continuous
 62
     0
370
    30
100
AcDbLine
 10
-125.168254
 20
139.626215
 30
0.0
 11
-125.168254
 21
132.296215
 31
0.0
  0
SPLINE
  5
FF
330
B2
100
AcDbEntity
  8
0
  6
Continuous
 62
     0
370
    30
100
AcDbSpline
210
0.0
220
0.0
230
1.0
 70
     8
 71
     3
 72
    18
 73
    14
 74
     0
 42
0.000000001
 43
0.0
 40
12.43446715808202
 40
12.43446715808202
 40
12.43446715808202
 40
12.43446715808202
 40
13.13217674187914
 40
14.76638620431957
 40
16.39832183530182
 40
18.00830472342004
 40
19.54948411969339
 40
20.44116957214131
 40
21.18588139136671
 40
22.29953856557666
 40
22.81394826183236
 40
24.06217808093032
 40
24.86893431616404
 40
24.86893431616404
 40
24.86893431616404
 40
24.86893431616404
 10
-133.0678784573606
 20
132.2959720654835
 30
0.0
 10
-133.0679355287672
 20
132.2960088717233
 30
0.0
 10
-133.000034948965
 20
132.2841665274262
 30
0.0
 10
-132.4955430275341
 20
132.1946212792416
 30
0.0
 10
-131.3158612276394
 20
132.0353402026982
 30
0.0
 10
-129.7992074882265
 20
131.9297610529086
 30
0.0
 10
-128.4256108954269
 20
131.9385290567993
 30
0.0
 10
-127.4224251654206
 20
132.0009302588782
 30
0.0
 10
-126.6384229587403
 20
132.0759596339505
 30
0.0
 10
-126.0736586090551
 20
132.1500161917892
 30
0.0
 10
-125.5452159288839
 20
132.2300805857463
 30
0.0
 10
-125.2383698135394
 20
132.283542501035
 30
0.0
 10
-125.1682544062655
 20
132.296215057373
 30
0.0
 10
-125.1682543945314
 20
132.296215057373
 30
0.0
  0
ARC
  5
100
330
B2
100
AcDbEntity
  8
0
  6
Continuous
 62
     0
370
    30
100
AcDbCircle
 10
-83.913346
 20
174.796211
 30
0.0
 40
0.5000044378854371
100
AcDbArc
 50
90.000493
 51
178.249849
  0
LINE
  5
101
330
B2
100
AcDbEntity
  8
0
  6
Continuous
 62
     0
370
    30
100
AcDbLine
 10
-83.91335
 20
175.296215
 30
0.0
 11
-74.898254
 21
175.296215
 31
0.0
  0
LINE
  5
102
330
B2
100
AcDbEntity
  8
0
  6
Continuous
 62
     0
370
     0
100
AcDbLine
 10
-84.413117
 20
45.780949
 30
0.0
 11
-84.413117
 21
174.811481
 31
0.0
  0
LINE
  5
103
330
B2
100
AcDbEntity
  8
0
  6
Continuous
 62
     0
370
     0
100
AcDbLine
 10
-83.91335
 20
45.296215
 30
0.0
 11
-83.91335
 21
175.296215
 31
0.0
  0
LINE
  5
104
330
B2
100
AcDbEntity
  8
0
  6
Continuous
 62
     0
370
    30
100
AcDbLine
 10
-74.898254
 20
45.296215
 30
0.0
 11
-74.898254
 21
175.296215
 31
0.0
  0
LINE
  5
105
330
B2
100
AcDbEntity
  8
0
  6
Continuous
 62
     0
370
    30
100
AcDbLine
 10
-85.299776
 20
89.896215
 30
0.0
 11
-85.365224
 21
89.896215
 31
0.0
  0
ARC
  5
106
330
B2
100
AcDbEntity
  8
0
  6
Continuous
 62
     0
370
    30
100
AcDbCircle
 10
2027.602132
 20
110.296207
 30
0.0
 40
2113.00038687978
100
AcDbArc
 50
178.250342
 51
179.446828
  0
LINE
  5
107
330
B2
100
AcDbEntity
  8
0
  6
Continuous
 62
     0
370
    30
100
AcDbLine
 10
-85.299776
 20
89.896215
 30
0.0
 11
-85.299776
 21
130.696215
 31
0.0
  0
LINE
  5
108
330
B2
100
AcDbEntity
  8
0
  6
Continuous
 62
     0
370
    30
100
AcDbLine
 10
-83.91335
 20
45.296215
 30
0.0
 11
-74.898254
 21
45.296215
 31
0.0
  0
ARC
  5
109
330
B2
100
AcDbEntity
  8
0
  6
Continuous
 62
     0
370
    30
100
AcDbCircle
 10
-83.913346
 20
45.796219
 30
0.0
 40
0.5000044379216526
100
AcDbArc
 50
181.750151
 51
269.999507
  0
ARC
  5
10A
330
B2
100
AcDbEntity
  8
0
  6
Continuous
 62
     0
370
    30
100
AcDbCircle
 10
2027.602132
 20
110.296223
 30
0.0
 40
2113.000386879751
100
AcDbArc
 50
180.553172
 51
181.749658
  0
LINE
  5
10B
330
B2
100
AcDbEntity
  8
0
  6
Continuous
 62
     0
370
    30
100
AcDbLine
 10
-137.618254
 20
132.296215
 30
0.0
 11
-138.118254
 21
131.796215
 31
0.0
  0
LINE
  5
10C
330
B2
100
AcDbEntity
  8
0
  6
Continuous
 62
     0
370
    30
100
AcDbLine
 10
-88.118254
 20
132.296215
 30
0.0
 11
-125.168254
 21
132.296215
 31
0.0
  0
LINE
  5
10D
330
B2
100
AcDbEntity
  8
0
  6
Continuous
 62
     0
370
    30
100
AcDbLine
 10
-133.067878
 20
132.296215
 30
0.0
 11
-137.618254
 21
132.296215
 31
0.0
  0
LINE
  5
10E
330
B2
100
AcDbEntity
  8
0
  6
Continuous
 62
     0
370
    30
100
AcDbLine
 10
-87.830068
 20
130.546215
 30
0.0
 11
-88.118254
 21
130.546215
 31
0.0
  0
ARC
  5
10F
330
B2
100
AcDbEntity
  8
0
  6
Continuous
 62
     0
370
    30
100
AcDbCircle
 10
-87.830068
 20
130.846215
 30
0.0
 40
0.3000007634516371
100
AcDbArc
 50
269.99988
 51
359.530912
  0
LINE
  5
110
330
B2
100
AcDbEntity
  8
0
  6
Continuous
 62
     0
370
    30
100
AcDbLine
 10
-87.528779
 20
89.591309
 30
0.0
 11
-87.528779
 21
131.001121
 31
0.0
  0
ARC
  5
111
330
B2
100
AcDbEntity
  8
0
  6
Continuous
 62
     0
370
    30
100
AcDbCircle
 10
-87.228818
 20
130.996214
 30
0.0
 40
0.3000007975232173
100
AcDbArc
 50
89.999886
 51
179.530913
  0
LINE
  5
112
330
B2
100
AcDbEntity
  8
0
  6
Continuous
 62
     0
370
    30
100
AcDbLine
 10
-85.667691
 20
131.296215
 30
0.0
 11
-87.228818
 21
131.296215
 31
0.0
  0
ARC
  5
113
330
B2
100
AcDbEntity
  8
0
  6
Continuous
 62
     0
370
    30
100
AcDbCircle
 10
-85.66769
 20
130.996214
 30
0.0
 40
0.3000007975877204
100
AcDbArc
 50
0.469087
 51
90.000114
  0
LINE
  5
114
330
B2
100
AcDbEntity
  8
0
  6
Continuous
 62
     0
370
    30
100
AcDbLine
 10
-85.365224
 20
130.696215
 30
0.0
 11
-85.3677
 21
130.99867
 31
0.0
  0
LINE
  5
115
330
B2
100
AcDbEntity
  8
0
  6
Continuous
 62
     0
370
    30
100
AcDbLine
 10
-85.299776
 20
130.696215
 30
0.0
 11
-85.365224
 21
130.696215
 31
0.0
  0
LINE
  5
116
330
B2
100
AcDbEntity
  8
0
  6
Continuous
 62
     0
370
    30
100
AcDbLine
 10
-133.068254
 20
139.626215
 30
0.0
 11
-133.068254
 21
132.295972
 31
0.0
  0
LINE
  5
117
330
B2
100
AcDbEntity
  8
0
  6
Continuous
 62
     0
370
    30
100
AcDbLine
 10
-132.568254
 20
140.126215
 30
0.0
 11
-133.068254
 21
139.626215
 31
0.0
  0
ENDBLK
  5
119
330
B2
100
AcDbEntity
  8
0
100
AcDbBlockEnd
  0
BLOCK
  5
17F
330
11B
100
AcDbEntity
  8
0
100
AcDbBlockBegin
  2
c
 70
     0
 10
267.018921
 20
-0.000015
 30
0.0
  3
c
  1

  0
SPLINE
  5
11C
330
11B
100
AcDbEntity
  8
0
  6
Continuous
 62
     0
370
     0
100
AcDbSpline
210
0.0
220
0.0
230
1.0
 70
     8
 71
     3
 72
    16
 73
    12
 74
     0
 42
0.000000001
 43
0.0
 40
6.940369244570989
 40
6.940369244570989
 40
6.940369244570989
 40
6.940369244570989
 40
8.002277102100997
 40
9.899749305598602
 40
11.79722150909129
 40
13.69469371300167
 40
15.59216589815799
 40
17.48963808015112
 40
19.38711026719472
 40
21.28458246441454
 40
21.3915869229527
 40
21.3915869229527
 40
21.3915869229527
 40
21.3915869229527
 10
412.2241297561138
 20
88.44067718210158
 30
0.0
 10
412.2241297722796
 20
88.44067718109548
 30
0.0
 10
412.1059856829046
 20
88.44067717522452
 30
0.0
 10
411.3759089008415
 20
88.44067715205577
 30
0.0
 10
409.8571793535938
 20
88.4406771090312
 30
0.0
 10
407.9303749593678
 20
88.44067705737689
 30
0.0
 10
405.9186740277985
 20
88.4406770057517
 30
0.0
 10
404.1595821394412
 20
88.44067696281945
 30
0.0
 10
402.948142709165
 20
88.44067693577654
 30
0.0
 10
402.6325818685415
 20
88.44067693125523
 30
0.0
 10
402.6243978949968
 20
88.44067693292685
 30
0.0
 10
402.6243978932908
 20
88.4406769330274
 30
0.0
  0
LINE
  5
11D
330
11B
100
AcDbEntity
  8
0
  6
Continuous
 62
     0
370
    30
100
AcDbLine
 10
412.074541
 20
88.247067
 30
0.0
 11
402.774242
 21
88.247067
 31
0.0
  0
LINE
  5
11E
330
11B
100
AcDbEntity
  8
0
  6
Continuous
 62
     0
370
     0
100
AcDbLine
 10
412.224392
 20
88.697067
 30
0.0
 11
402.624392
 21
88.697067
 31
0.0
  0
ARC
  5
11F
330
11B
100
AcDbEntity
  8
0
  6
Continuous
 62
     0
370
    30
100
AcDbCircle
 10
407.420061
 20
102.285582
 30
0.0
 40
14.79000000000003
100
AcDbArc
 50
270.016774
 51
288.342975
  0
ARC
  5
120
330
11B
100
AcDbEntity
  8
0
  6
Continuous
 62
     0
370
    30
100
AcDbCircle
 10
407.428721
 20
102.285582
 30
0.0
 40
14.79000000000003
100
AcDbArc
 50
251.657025
 51
269.983226
  0
ARC
  5
121
330
11B
100
AcDbEntity
  8
0
  6
Continuous
 62
     0
370
    30
100
AcDbCircle
 10
402.827026
 20
88.443687
 30
0.0
 40
0.2035820890870386
100
AcDbArc
 50
226.417622
 51
254.972753
  0
ARC
  5
122
330
11B
100
AcDbEntity
  8
0
  6
Continuous
 62
     0
370
    30
100
AcDbCircle
 10
412.02142
 20
88.443671
 30
0.0
 40
0.2036542135264635
100
AcDbArc
 50
285.119828
 51
313.610189
  0
SPLINE
  5
123
330
11B
100
AcDbEntity
  8
0
  6
Continuous
 62
     0
370
     0
100
AcDbSpline
210
0.0
220
0.0
230
1.0
 70
     8
 71
     3
 72
    14
 73
    10
 74
     0
 42
0.000000001
 43
0.0
 40
0.0
 40
0.0
 40
0.0
 40
0.0
 40
4.33464153288073
 40
8.671121330573097
 40
13.00920997969028
 40
17.34574091751642
 40
21.68030458132657
 40
26.0158598568891
 40
30.3536253005803
 40
30.3536253005803
 40
30.3536253005803
 40
30.3536253005803
 10
390.1209004765083
 20
220.7841397980469
 30
0.0
 10
389.9935826719488
 20
221.7179199048683
 30
0.0
 10
389.7179811763853
 20
223.9860622642901
 30
0.0
 10
389.4476206374204
 20
228.1424269355254
 30
0.0
 10
389.4519904543727
 20
232.5726084550292
 30
0.0
 10
389.7281961467475
 20
236.7162825279307
 30
0.0
 10
390.1422343627902
 20
240.0807563807367
 30
0.0
 10
390.4922666394284
 20
242.2834553190652
 30
0.0
 10
390.5852986973854
 20
242.7962126180957
 30
0.0
 10
390.5853227077478
 20
242.7962150573561
 30
0.0
  0
LINE
  5
124
330
11B
100
AcDbEntity
  8
0
  6
Continuous
 62
     0
370
    30
100
AcDbLine
 10
369.201356
 20
217.796215
 30
0.0
 11
359.326356
 21
217.796215
 31
0.0
  0
LINE
  5
125
330
11B
100
AcDbEntity
  8
0
  6
Continuous
 62
     0
370
    30
100
AcDbLine
 10
359.326356
 20
242.796215
 30
0.0
 11
359.326356
 21
217.796215
 31
0.0
  0
ARC
  5
126
330
11B
100
AcDbEntity
  8
0
  6
Continuous
 62
     0
370
     0
100
AcDbCircle
 10
389.119255
 20
161.813381
 30
0.0
 40
58.825421069293
100
AcDbArc
 50
101.707775
 51
107.309328
  0
SPLINE
  5
127
330
11B
100
AcDbEntity
  8
0
  6
Continuous
 62
     0
370
     0
100
AcDbSpline
210
0.0
220
0.0
230
1.0
 70
     8
 71
     3
 72
    14
 73
    10
 74
     0
 42
0.000000001
 43
0.0
 40
0.0
 40
0.0
 40
0.0
 40
0.0
 40
1.752369726229721
 40
3.569974643483515
 40
5.439505520164665
 40
7.350961146559897
 40
9.293212778696583
 40
11.25555797281267
 40
13.22955802806231
 40
13.22955802806231
 40
13.22955802806231
 40
13.22955802806231
 10
377.1823910569075
 20
219.4149564269669
 30
0.0
 10
377.7211212188719
 20
219.526070497699
 30
0.0
 10
378.8395663177895
 20
219.7385213787049
 30
0.0
 10
380.5782807114961
 20
220.0257046543499
 30
0.0
 10
382.3956655078236
 20
220.2770431172639
 30
0.0
 10
384.2745206275239
 20
220.4820898442557
 30
0.0
 10
386.1981619889847
 20
220.6371566285269
 30
0.0
 10
388.1514983724894
 20
220.7418519556534
 30
0.0
 10
389.4630372700932
 20
220.7754347035485
 30
0.0
 10
390.1209004765083
 20
220.7841397980469
 30
0.0
  0
ELLIPSE
  5
128
330
11B
100
AcDbEntity
  8
0
  6
Continuous
 62
     0
370
     0
100
AcDbEllipse
 10
377.182391
 20
210.70995
 30
0.0
 11
-3.480420932768197
 21
9.374789071267092
 31
0.0
210
0.0
220
0.0
230
1.0
 40
0.524221
 41
4.551450713946166
 42
5.66697758086628
  0
ARC
  5
129
330
11B
100
AcDbEntity
  8
0
  6
Continuous
 62
     0
370
    30
100
AcDbCircle
 10
371.054031
 20
207.796215
 30
0.0
 40
10.00000000000001
100
AcDbArc
 50
2.725772
 51
76.129249
  0
SPLINE
  5
12A
330
11B
100
AcDbEntity
  8
0
  6
Continuous
 62
     0
370
     0
100
AcDbSpline
210
0.0
220
0.0
230
1.0
 70
     8
 71
     3
 72
    13
 73
     9
 74
     0
 42
0.000000001
 43
0.0
 40
0.0
 40
0.0
 40
0.0
 40
0.0
 40
0.5473648797081645
 40
1.055149537312475
 40
2.027463782078881
 40
2.695584700629958
 40
3.554900745899134
 40
4.313302770659927
 40
4.313302770659927
 40
4.313302770659927
 40
4.313302770659927
 10
381.0427171706559
 20
208.2717725904397
 30
0.0
 10
381.0427170853268
 20
208.2717742363365
 30
0.0
 10
381.057150332482
 20
208.3107880607216
 30
0.0
 10
381.1345764260816
 20
208.5257189606981
 30
0.0
 10
381.2893622607253
 20
208.9435585917304
 30
0.0
 10
381.5812262888866
 20
209.596641306925
 30
0.0
 10
381.9679705132735
 20
210.2808676770713
 30
0.0
 10
382.3688580095783
 20
210.7803278870402
 30
0.0
 10
382.5910659812488
 20
211.008625343225
 30
0.0
  0
SPLINE
  5
12B
330
11B
100
AcDbEntity
  8
0
  6
Continuous
 62
     0
370
     0
100
AcDbSpline
210
0.0
220
0.0
230
1.0
 70
     8
 71
     3
 72
    36
 73
    32
 74
     0
 42
0.000000001
 43
0.0
 40
-1.087005095078141
 40
-1.087005095078141
 40
-1.087005095078141
 40
-1.087005095078141
 40
-0.8269645513815309
 40
-0.4446453731535147
 40
-0.1943449961721786
 40
0.1896267875054107
 40
0.6661568886589784
 40
0.8975045027005226
 40
1.313253092444048
 40
1.720458109230586
 40
2.118150658090714
 40
2.434390072085357
 40
2.75062948608
 40
3.066868900074644
 40
3.383108314069286
 40
3.681142944660455
 40
3.979177575251624
 40
4.436810016986453
 40
4.800404698664082
 40
5.163999380341712
 40
5.527594062019341
 40
5.846451917814532
 40
6.165309773609723
 40
6.494200556314357
 40
6.819801096463626
 40
7.300981633533439
 40
7.614821179227128
 40
7.763356922273676
 40
7.906774530279353
 40
8.045943737362737
 40
8.062173617835343
 40
8.062173617835343
 40
8.062173617835343
 40
8.062173617835343
 10
382.5910659812488
 20
211.008625343225
 30
0.0
 10
382.6279004684253
 20
211.0464692588103
 30
0.0
 10
382.7210700266701
 20
211.1395513969804
 30
0.0
 10
382.8599236346972
 20
211.267266192819
 30
0.0
 10
383.0366479910892
 20
211.4106947589987
 30
0.0
 10
383.2571813296415
 20
211.5651058686463
 30
0.0
 10
383.5083818296054
 20
211.7128160541183
 30
0.0
 10
383.7731576975443
 20
211.8600943729097
 30
0.0
 10
384.0252611484931
 20
211.9940351104477
 30
0.0
 10
384.3283003644929
 20
212.1424233405793
 30
0.0
 10
384.6166828233995
 20
212.2723346444141
 30
0.0
 10
384.8900161640624
 20
212.3861873715172
 30
0.0
 10
385.1486723390469
 20
212.4864266632172
 30
0.0
 10
385.4143858638118
 20
212.581945105587
 30
0.0
 10
385.6820429481756
 20
212.6708930295869
 30
0.0
 10
385.9512839136394
 20
212.753487268238
 30
0.0
 10
386.2707958156764
 20
212.8437025859423
 30
0.0
 10
386.6229021487877
 20
212.9325436243963
 30
0.0
 10
387.0093044985588
 20
213.0183729807224
 30
0.0
 10
387.3736636923542
 20
213.0905346892719
 30
0.0
 10
387.7289338134839
 20
213.1530108382531
 30
0.0
 10
388.0720982138573
 20
213.2066365920479
 30
0.0
 10
388.406440897571
 20
213.2527933449724
 30
0.0
 10
388.7465502995482
 20
213.2934957106747
 30
0.0
 10
389.1469437723609
 20
213.3341791638673
 30
0.0
 10
389.5550111928749
 20
213.3661931131846
 30
0.0
 10
389.8884440379354
 20
213.3862794400973
 30
0.0
 10
390.1101296673999
 20
213.3968165214478
 30
0.0
 10
390.2737764944281
 20
213.4032780020249
 30
0.0
 10
390.3922235399827
 20
213.4071011900859
 30
0.0
 10
390.4529585136332
 20
213.4088363544045
 30
0.0
 10
390.4592982079523
 20
213.40901497772
 30
0.0
  0
SPLINE
  5
12C
330
11B
100
AcDbEntity
  8
0
  6
Continuous
 62
     0
370
     0
100
AcDbSpline
210
0.0
220
0.0
230
1.0
 70
     8
 71
     3
 72
    10
 73
     6
 74
     0
 42
0.000000001
 43
0.0
 40
0.0
 40
0.0
 40
0.0
 40
0.0
 40
2.797895864776244
 40
5.595877648008672
 40
8.393972488720298
 40
8.393972488720298
 40
8.393972488720298
 40
8.393972488720298
 10
390.4592982079523
 20
213.40901497772
 30
0.0
 10
390.4622065853556
 20
214.3413880832485
 30
0.0
 10
390.4521809406475
 20
216.2108970194661
 30
0.0
 10
390.3640106811276
 20
218.7673518687519
 30
0.0
 10
390.2229512750718
 20
220.1826453600821
 30
0.0
 10
390.1208988474901
 20
220.7841383566607
 30
0.0
  0
LINE
  5
12D
330
11B
100
AcDbEntity
  8
0
  6
Continuous
 62
     0
370
     0
100
AcDbLine
 10
382.591066
 20
211.008625
 30
0.0
 11
384.105106
 21
172.608808
 31
0.0
  0
LINE
  5
12E
330
11B
100
AcDbEntity
  8
0
  6
Continuous
 62
     0
370
     0
100
AcDbLine
 10
390.378722
 20
172.608799
 30
0.0
 11
390.515866
 21
172.608798
 31
0.0
  0
ARC
  5
12F
330
11B
100
AcDbEntity
  8
0
  6
Continuous
 62
     0
370
     0
100
AcDbCircle
 10
92906.982973
 20
322.043556
 30
0.0
 40
92516.5877917191
100
AcDbArc
 50
180.067278
 51
180.092545
  0
LINE
  5
130
330
11B
100
AcDbEntity
  8
0
  6
Continuous
 62
     0
370
    30
100
AcDbLine
 10
381.042717
 20
208.271773
 30
0.0
 11
382.740618
 21
172.608804
 31
0.0
  0
ARC
  5
131
330
11B
100
AcDbEntity
  8
0
  6
Continuous
 62
     0
370
    30
100
AcDbCircle
 10
390.585367
 20
167.343138
 30
0.0
 40
1.500000000000002
100
AcDbArc
 50
267.930311
 51
0.000004
  0
SPLINE
  5
132
330
11B
100
AcDbEntity
  8
0
  6
Continuous
 62
     0
370
    30
100
AcDbSpline
210
0.0
220
0.0
230
1.0
 70
     8
 71
     3
 72
    14
 73
    10
 74
     0
 42
0.000000001
 43
0.0
 40
0.0
 40
0.0
 40
0.0
 40
0.0
 40
0.959869858522463
 40
1.920209553095731
 40
2.881080345005874
 40
3.842023616642013
 40
4.803136771199672
 40
5.764136911794927
 40
6.725779570084066
 40
6.725779570084066
 40
6.725779570084066
 40
6.725779570084066
 10
384.2907122817302
 20
167.9012286843983
 30
0.0
 10
384.5118978120759
 20
167.6700378551604
 30
0.0
 10
385.0038102152396
 20
167.2530452723682
 30
0.0
 10
385.8378983634346
 20
166.7692085818696
 30
0.0
 10
386.7333065992813
 20
166.4134644384359
 30
0.0
 10
387.6622905268579
 20
166.1615167172382
 30
0.0
 10
388.6096083452126
 20
165.9940763813838
 30
0.0
 10
389.5658582409527
 20
165.8909710298522
 30
0.0
 10
390.2060253106985
 20
165.8559275372365
 30
0.0
 10
390.5263615999203
 20
165.8442915847764
 30
0.0
  0
SPLINE
  5
133
330
11B
100
AcDbEntity
  8
0
  6
Continuous
 62
     0
370
     0
100
AcDbSpline
210
0.0
220
0.0
230
1.0
 70
     8
 71
     3
 72
    30
 73
    26
 74
     0
 42
0.000000001
 43
0.0
 40
0.0
 40
0.0
 40
0.0
 40
0.0
 40
1.225396231212392
 40
1.996266671498263
 40
2.770395256796587
 40
3.158307523348193
 40
3.75978293030952
 40
4.174201172882186
 40
4.740678397053912
 40
5.080281499007906
 40
5.416529076883819
 40
5.714817632142001
 40
5.996817551513167
 40
6.187015832822644
 40
6.272979870401431
 40
6.357223629495047
 40
6.451358841925963
 40
6.610804731879863
 40
6.726038347285362
 40
6.843308007724549
 40
6.957314821021946
 40
7.177853569120509
 40
7.395001920030518
 40
7.989756918548009
 40
8.826192243679458
 40
8.826192243679458
 40
8.826192243679458
 40
8.826192243679458
 10
390.5158660189246
 20
172.6087979766602
 30
0.0
 10
390.5163864108879
 20
172.3025340645067
 30
0.0
 10
390.5119717907564
 20
171.8033311109753
 30
0.0
 10
390.4951801055382
 20
171.1103226092351
 30
0.0
 10
390.4783048030247
 20
170.6266722673312
 30
0.0
 10
390.4597199995084
 20
170.1849595702296
 30
0.0
 10
390.4429676254568
 20
169.8339518248718
 30
0.0
 10
390.4201627570714
 20
169.4211720645207
 30
0.0
 10
390.3963627710294
 20
169.0430878840725
 30
0.0
 10
390.3717686094374
 20
168.6463198723273
 30
0.0
 10
390.3532666560264
 20
168.3118205964009
 30
0.0
 10
390.3379854756527
 20
167.9640698690711
 30
0.0
 10
390.3296755803813
 20
167.6324916121017
 30
0.0
 10
390.3315271450604
 20
167.3612088341217
 30
0.0
 10
390.3383188648635
 20
167.1786718649968
 30
0.0
 10
390.3463789980733
 20
167.0458563264999
 30
0.0
 10
390.3584565995383
 20
166.9066149723189
 30
0.0
 10
390.3706584417047
 20
166.796642878709
 30
0.0
 10
390.3828146271885
 20
166.6956219914436
 30
0.0
 10
390.3936017698174
 20
166.6112409136117
 30
0.0
 10
390.4083938858
 20
166.5018986661543
 30
0.0
 10
390.4274434027237
 20
166.3739274333638
 30
0.0
 10
390.4628244035465
 20
166.1613724275668
 30
0.0
 10
390.5136317059926
 20
165.910892098125
 30
0.0
 10
390.5311920414131
 20
165.844116634287
 30
0.0
 10
390.5311947607915
 20
165.844116472796
 30
0.0
  0
SPLINE
  5
134
330
11B
100
AcDbEntity
  8
0
  6
Continuous
 62
     0
370
     0
100
AcDbSpline
210
0.0
220
0.0
230
1.0
 70
     8
 71
     3
 72
    18
 73
    14
 74
     0
 42
0.000000001
 43
0.0
 40
0.0
 40
0.0
 40
0.0
 40
0.0
 40
0.7053013782976192
 40
1.296959495443253
 40
1.634382838388779
 40
1.883610187121511
 40
2.087346532206342
 40
2.401618726294815
 40
2.763513020913489
 40
3.286720618600657
 40
3.737699336988029
 40
4.753410594080074
 40
6.511446442014064
 40
6.511446442014064
 40
6.511446442014064
 40
6.511446442014064
 10
392.0853673024214
 20
167.343138043326
 30
0.0
 10
392.0853640118057
 20
167.343138204702
 30
0.0
 10
392.0824154198313
 20
167.4023656510457
 30
0.0
 10
392.0731588380842
 20
167.6385266727667
 30
0.0
 10
392.0651777892652
 20
167.879139625951
 30
0.0
 10
392.0595526461068
 20
168.0647759811118
 30
0.0
 10
392.0552458488013
 20
168.2851568578589
 30
0.0
 10
392.0517154443676
 20
168.5611813605637
 30
0.0
 10
392.0485710552887
 20
168.9521626506401
 30
0.0
 10
392.0467132596076
 20
169.3952487214504
 30
0.0
 10
392.0451299695463
 20
170.0572437213241
 30
0.0
 10
392.043148195376
 20
171.1310101718131
 30
0.0
 10
392.0419653894162
 20
172.0551554770177
 30
0.0
 10
392.0414559982493
 20
172.6410320406364
 30
0.0
  0
ELLIPSE
  5
135
330
11B
100
AcDbEntity
  8
0
  6
Continuous
 62
     0
370
     0
100
AcDbEllipse
 10
390.542619
 20
172.641032
 30
0.0
 11
1.499999462667293
 21
0.001269644766666982
 31
0.0
210
0.0
220
0.0
230
-1.0
 40
0.021478
 41
0.0393861238024722
 42
1.588650619609775
  0
LINE
  5
136
330
11B
100
AcDbEntity
  8
0
  6
Continuous
 62
     0
370
     0
100
AcDbLine
 10
384.105106
 20
172.608808
 30
0.0
 11
384.290712
 21
167.901229
 31
0.0
  0
SPLINE
  5
137
330
11B
100
AcDbEntity
  8
0
  6
Continuous
 62
     0
370
    30
100
AcDbSpline
210
0.0
220
0.0
230
1.0
 70
     8
 71
     3
 72
    14
 73
    10
 74
     0
 42
0.000000001
 43
0.0
 40
0.0
 40
0.0
 40
0.0
 40
0.0
 40
0.7294674980048472
 40
1.450373905297451
 40
2.163775695996503
 40
2.872397796944338
 40
3.581869314751405
 40
4.303289579881687
 40
5.058649601130069
 40
5.058649601130069
 40
5.058649601130069
 40
5.058649601130069
 10
382.7406174414693
 20
172.6088040957104
 30
0.0
 10
382.7521808668835
 20
172.365923779652
 30
0.0
 10
382.7855007620167
 20
171.8834006204676
 30
0.0
 10
382.8737815608852
 20
171.16715124217
 30
0.0
 10
383.0080126032792
 20
170.4649115308501
 30
0.0
 10
383.1983302280348
 20
169.77937845724
 30
0.0
 10
383.4588868005549
 20
169.1137990673703
 30
0.0
 10
383.8105860133188
 20
168.4729107100639
 30
0.0
 10
384.1166529602457
 20
168.0831617639391
 30
0.0
 10
384.2907125987192
 20
167.9012285852421
 30
0.0
  0
SPLINE
  5
138
330
11B
100
AcDbEntity
  8
0
  6
Continuous
 62
     0
370
     0
100
AcDbSpline
210
0.0
220
0.0
230
1.0
 70
     8
 71
     3
 72
    19
 73
    15
 74
     0
 42
0.000000001
 43
0.0
 40
27.10360883960967
 40
27.10360883960967
 40
27.10360883960967
 40
27.10360883960967
 40
31.02216571618501
 40
34.92075349536309
 40
36.86614307564447
 40
38.80138421432545
 40
40.72795329880143
 40
42.64816249845496
 40
44.56496741876284
 40
46.48166050162648
 40
48.40160928734618
 40
50.32774407353268
 40
52.26241633936342
 40
54.20721767921935
 40
54.20721767921935
 40
54.20721767921935
 40
54.20721767921935
 10
392.0853618226893
 20
241.2961651475504
 30
0.0
 10
392.0853463385838
 20
241.2961332634426
 30
0.0
 10
391.9903470107187
 20
240.8488895971065
 30
0.0
 10
391.6904666389352
 20
239.23020817755
 30
0.0
 10
391.417380830924
 20
237.4308615664599
 30
0.0
 10
391.2222234947941
 20
235.8643251534539
 30
0.0
 10
391.0615610467136
 20
234.1270568572635
 30
0.0
 10
390.955353450457
 20
232.2700355536608
 30
0.0
 10
390.9169876133876
 20
230.3504195345257
 30
0.0
 10
390.9513252205016
 20
228.4290712362252
 30
0.0
 10
391.0539828840803
 20
226.5669834667806
 30
0.0
 10
391.2121044001095
 20
224.8214986906068
 30
0.0
 10
391.4058436983986
 20
223.2445682254872
 30
0.0
 10
391.5423539928155
 20
222.336843209184
 30
0.0
 10
391.6079815279818
 20
221.9255889295846
 30
0.0
  0
SPLINE
  5
139
330
11B
100
AcDbEntity
  8
0
  6
Continuous
 62
     0
370
     0
100
AcDbSpline
210
0.0
220
0.0
230
1.0
 70
     8
 71
     3
 72
    14
 73
    10
 74
     0
 42
0.000000001
 43
0.0
 40
0.0
 40
0.0
 40
0.0
 40
0.0
 40
1.404286950246861
 40
2.80180824355739
 40
4.195347073104721
 40
5.585086099230739
 40
6.97156893468318
 40
8.355744518375094
 40
9.738631114212174
 40
9.738631114212174
 40
9.738631114212174
 40
9.738631114212174
 10
391.6079815865026
 20
221.9255886567341
 30
0.0
 10
391.6553694359616
 20
221.6286337061248
 30
0.0
 10
391.7375634638877
 20
220.9922185781107
 30
0.0
 10
391.8298863606271
 20
219.9193325613356
 30
0.0
 10
391.896855009417
 20
218.749414967119
 30
0.0
 10
391.9431736554031
 20
217.4983280651256
 30
0.0
 10
391.9731487321536
 20
216.1840730121132
 30
0.0
 10
391.9902939081373
 20
214.8264687042912
 30
0.0
 10
391.9947260742517
 20
213.9047416299989
 30
0.0
 10
391.9953471493934
 20
213.4439111879586
 30
0.0
  0
ARC
  5
13A
330
11B
100
AcDbEntity
  8
0
  6
Continuous
 62
     0
370
     0
100
AcDbCircle
 10
-84868.468637
 20
96.694371
 30
0.0
 40
85260.54391780391
100
AcDbArc
 50
0.051037
 51
0.078457
  0
SPLINE
  5
13B
330
11B
100
AcDbEntity
  8
0
  6
Continuous
 62
     0
370
     0
100
AcDbSpline
210
0.0
220
0.0
230
1.0
 70
     8
 71
     3
 72
    10
 73
     6
 74
     0
 42
0.000000001
 43
0.0
 40
0.0
 40
0.0
 40
0.0
 40
0.0
 40
0.7616627004646315
 40
1.523278239126404
 40
2.284846615985306
 40
2.284846615985306
 40
2.284846615985306
 40
2.284846615985306
 10
390.4592982079523
 20
213.4090149777199
 30
0.0
 10
390.7131017839687
 20
213.4091951314571
 30
0.0
 10
391.2335583127506
 20
213.412704849259
 30
0.0
 10
391.8171506112521
 20
213.4259634143971
 30
0.0
 10
391.9810745534154
 20
213.438001549134
 30
0.0
 10
391.9953471493934
 20
213.4439111879586
 30
0.0
  0
ELLIPSE
  5
13C
330
11B
100
AcDbEntity
  8
0
  6
Continuous
 62
     0
370
     0
100
AcDbEllipse
 10
390.120902
 20
221.925587
 30
0.0
 11
1.482312672455943
 21
0.229671811671557
 31
0.0
210
0.0
220
0.0
230
-1.0
 40
0.75715
 41
0.2018498252361524
 42
1.687578572755665
  0
LINE
  5
13D
330
11B
100
AcDbEntity
  8
0
  6
Continuous
 62
     0
370
     0
100
AcDbLine
 10
384.105106
 20
172.608808
 30
0.0
 11
390.378722
 21
172.608799
 31
0.0
  0
SPLINE
  5
13E
330
11B
100
AcDbEntity
  8
0
  6
Continuous
 62
     0
370
     0
100
AcDbSpline
210
0.0
220
0.0
230
1.0
 70
     8
 71
     9
 72
    20
 73
    10
 74
     0
 42
0.000000001
 43
0.0
 40
0.0
 40
0.0
 40
0.0
 40
0.0
 40
0.0
 40
0.0
 40
0.0
 40
0.0
 40
0.0
 40
0.0
 40
0.2499999949532693
 40
0.2499999949532693
 40
0.2499999949532693
 40
0.2499999949532693
 40
0.2499999949532693
 40
0.2499999949532693
 40
0.2499999949532693
 40
0.2499999949532693
 40
0.2499999949532693
 40
0.2499999949532693
 10
382.7406175314323
 20
172.608804107034
 30
0.0
 10
382.7406175137498
 20
172.6088041204328
 30
0.0
 10
382.7722673434352
 20
172.6087939679851
 30
0.0
 10
382.8420516554878
 20
172.6087957473933
 30
0.0
 10
382.9569908732958
 20
172.608798353319
 30
0.0
 10
383.1258464514044
 20
172.6088016128454
 30
0.0
 10
383.3357284602768
 20
172.6088045852251
 30
0.0
 10
383.5740781175091
 20
172.6088068658627
 30
0.0
 10
383.8324995076416
 20
172.6088081743922
 30
0.0
 10
384.1051056067532
 20
172.6088083249663
 30
0.0
  0
ARC
  5
13F
330
11B
100
AcDbEntity
  8
0
  6
Continuous
 62
     0
370
     0
100
AcDbCircle
 10
371.338556
 20
205.30972
 30
0.0
 40
12.66807712857647
100
AcDbArc
 50
88.740947
 51
99.712679
  0
SPLINE
  5
140
330
11B
100
AcDbEntity
  8
0
  6
Continuous
 62
     0
370
     0
100
AcDbSpline
210
0.0
220
0.0
230
1.0
 70
     8
 71
     3
 72
    14
 73
    10
 74
     0
 42
0.000000001
 43
0.0
 40
0.0
 40
0.0
 40
0.0
 40
0.0
 40
0.4404961860839477
 40
0.8809940919391527
 40
1.321614608410815
 40
1.762239128125022
 40
2.202872996177828
 40
2.643370464042003
 40
3.083706790541679
 40
3.083706790541679
 40
3.083706790541679
 40
3.083706790541679
 10
371.6169211873835
 20
217.974735676745
 30
0.0
 10
371.7623344977879
 20
217.9713085994404
 30
0.0
 10
372.049712148573
 20
217.952752854425
 30
0.0
 10
372.4457020587649
 20
217.8904983859503
 30
0.0
 10
372.7909251271409
 20
217.801074850598
 30
0.0
 10
373.0738690190482
 20
217.697704060499
 30
0.0
 10
373.2864704207258
 20
217.5981629522841
 30
0.0
 10
373.4205133805895
 20
217.5235450839373
 30
0.0
 10
373.4513533924463
 20
217.5046060229527
 30
0.0
 10
373.4513560292503
 20
217.5046049463903
 30
0.0
  0
ARC
  5
141
330
11B
100
AcDbEntity
  8
0
  6
Continuous
 62
     0
370
    30
100
AcDbCircle
 10
358.676356
 20
240.796215
 30
0.0
 40
0.25
100
AcDbArc
 50
180.0
 51
270.0
  0
ARC
  5
142
330
11B
100
AcDbEntity
  8
0
  6
Continuous
 62
     0
370
    30
100
AcDbCircle
 10
358.226356
 20
260.096215
 30
0.0
 40
0.2000000029802322
100
AcDbArc
 50
0.0
 51
90.0
  0
LINE
  5
143
330
11B
100
AcDbEntity
  8
0
  6
Continuous
 62
     0
370
    30
100
AcDbLine
 10
358.226356
 20
260.296215
 30
0.0
 11
352.726356
 21
260.296215
 31
0.0
  0
LINE
  5
144
330
11B
100
AcDbEntity
  8
0
  6
Continuous
 62
     0
370
     0
100
AcDbLine
 10
358.676356
 20
240.546215
 30
0.0
 11
358.676356
 21
220.046215
 31
0.0
  0
LINE
  5
145
330
11B
100
AcDbEntity
  8
0
  6
Continuous
 62
     0
370
    30
100
AcDbLine
 10
358.426356
 20
260.096215
 30
0.0
 11
358.426356
 21
200.496215
 31
0.0
  0
LINE
  5
146
330
11B
100
AcDbEntity
  8
0
  6
Continuous
 62
     0
370
     0
100
AcDbLine
 10
358.226356
 20
260.296215
 30
0.0
 11
358.226356
 21
200.296215
 31
0.0
  0
LINE
  5
147
330
11B
100
AcDbEntity
  8
0
  6
Continuous
 62
     0
370
    30
100
AcDbLine
 10
352.726356
 20
260.296215
 30
0.0
 11
352.726356
 21
200.296215
 31
0.0
  0
LINE
  5
148
330
11B
100
AcDbEntity
  8
0
  6
Continuous
 62
     0
370
    30
100
AcDbLine
 10
359.326356
 20
240.546215
 30
0.0
 11
358.676356
 21
240.546215
 31
0.0
  0
SPLINE
  5
149
330
11B
100
AcDbEntity
  8
0
  6
Continuous
 62
     0
370
    30
100
AcDbSpline
210
0.0
220
0.0
230
1.0
 70
     8
 71
     3
 72
    14
 73
    10
 74
     0
 42
0.000000001
 43
0.0
 40
0.0
 40
0.0
 40
0.0
 40
0.0
 40
1.513815793375246
 40
2.2444493141925
 40
2.983995229909195
 40
3.35606660294912
 40
3.728579967711822
 40
4.001904634258905
 40
4.274587389037798
 40
4.274587389037798
 40
4.274587389037798
 40
4.274587389037798
 10
369.2013560295984
 20
217.796215057723
 30
0.0
 10
369.7059595087987
 20
217.7962150574271
 30
0.0
 10
370.4540457793326
 20
217.8103072426621
 30
0.0
 10
371.4488032244376
 20
217.7971182068671
 30
0.0
 10
372.0618523424133
 20
217.7556822160692
 30
0.0
 10
372.552706146232
 20
217.6928940854285
 30
0.0
 10
372.887033224919
 20
217.6345107746987
 30
0.0
 10
373.1864523655478
 20
217.5702113108263
 30
0.0
 10
373.3629397960802
 20
217.5256841904363
 30
0.0
 10
373.4513560293204
 20
217.5046049461238
 30
0.0
  0
ARC
  5
14A
330
11B
100
AcDbEntity
  8
0
  6
Continuous
 62
     0
370
    30
100
AcDbCircle
 10
390.585302
 20
241.296139
 30
0.0
 40
1.500016838845089
100
AcDbArc
 50
0.001
 51
89.99921
  0
LINE
  5
14B
330
11B
100
AcDbEntity
  8
0
  6
Continuous
 62
     0
370
    30
100
AcDbLine
 10
392.085367
 20
167.343138
 30
0.0
 11
392.085362
 21
241.296165
 31
0.0
  0
LINE
  5
14C
330
11B
100
AcDbEntity
  8
0
  6
Continuous
 62
     0
370
    30
100
AcDbLine
 10
390.585323
 20
242.796215
 30
0.0
 11
359.326356
 21
242.796215
 31
0.0
  0
LINE
  5
14D
330
11B
100
AcDbEntity
  8
0
  6
Continuous
 62
     0
370
    30
100
AcDbLine
 10
358.226356
 20
200.296215
 30
0.0
 11
352.726356
 21
200.296215
 31
0.0
  0
ARC
  5
14E
330
11B
100
AcDbEntity
  8
0
  6
Continuous
 62
     0
370
    30
100
AcDbCircle
 10
358.226356
 20
200.496215
 30
0.0
 40
0.2000000029802322
100
AcDbArc
 50
270.0
 51
0.0
  0
ARC
  5
14F
330
11B
100
AcDbEntity
  8
0
  6
Continuous
 62
     0
370
    30
100
AcDbCircle
 10
358.676356
 20
219.796215
 30
0.0
 40
0.25
100
AcDbArc
 50
90.0
 51
180.0
  0
LINE
  5
150
330
11B
100
AcDbEntity
  8
0
  6
Continuous
 62
     0
370
    30
100
AcDbLine
 10
359.326356
 20
220.046215
 30
0.0
 11
358.676356
 21
220.046215
 31
0.0
  0
LINE
  5
151
330
11B
100
AcDbEntity
  8
0
  6
Continuous
 62
     0
370
    30
100
AcDbLine
 10
363.671361
 20
89.896215
 30
0.0
 11
363.673837
 21
89.59376
 31
0.0
  0
ARC
  5
152
330
11B
100
AcDbEntity
  8
0
  6
Continuous
 62
     0
370
    30
100
AcDbCircle
 10
363.973827
 20
89.596216
 30
0.0
 40
0.3000007976201424
100
AcDbArc
 50
180.469087
 51
270.000114
  0
LINE
  5
153
330
11B
100
AcDbEntity
  8
0
  6
Continuous
 62
     0
370
    30
100
AcDbLine
 10
363.973828
 20
89.296215
 30
0.0
 11
365.534955
 21
89.296215
 31
0.0
  0
ARC
  5
154
330
11B
100
AcDbEntity
  8
0
  6
Continuous
 62
     0
370
    30
100
AcDbCircle
 10
365.534955
 20
89.596216
 30
0.0
 40
0.3000007975586264
100
AcDbArc
 50
269.999886
 51
359.530913
  0
ARC
  5
155
330
11B
100
AcDbEntity
  8
0
  6
Continuous
 62
     0
370
    30
100
AcDbCircle
 10
366.136205
 20
89.746215
 30
0.0
 40
0.3000007634889668
100
AcDbArc
 50
89.99988
 51
179.530912
  0
LINE
  5
156
330
11B
100
AcDbEntity
  8
0
  6
Continuous
 62
     0
370
    30
100
AcDbLine
 10
366.136205
 20
90.046215
 30
0.0
 11
366.424391
 21
90.046215
 31
0.0
  0
LINE
  5
157
330
11B
100
AcDbEntity
  8
0
  6
Continuous
 62
     0
370
    30
100
AcDbLine
 10
412.16189
 20
88.296215
 30
0.0
 11
415.924391
 21
88.296215
 31
0.0
  0
LINE
  5
158
330
11B
100
AcDbEntity
  8
0
  6
Continuous
 62
     0
370
    30
100
AcDbLine
 10
366.424391
 20
88.296215
 30
0.0
 11
402.686677
 21
88.296215
 31
0.0
  0
LINE
  5
159
330
11B
100
AcDbEntity
  8
0
  6
Continuous
 62
     0
370
    30
100
AcDbLine
 10
415.924391
 20
88.296215
 30
0.0
 11
416.424391
 21
88.796215
 31
0.0
  0
LINE
  5
15A
330
11B
100
AcDbEntity
  8
0
  6
Continuous
 62
     0
370
     0
100
AcDbLine
 10
363.673837
 20
130.99867
 30
0.0
 11
363.673837
 21
89.59376
 31
0.0
  0
LINE
  5
15B
330
11B
100
AcDbEntity
  8
0
  6
Continuous
 62
     0
370
     0
100
AcDbLine
 10
363.973828
 20
131.296215
 30
0.0
 11
363.973828
 21
89.296215
 31
0.0
  0
LINE
  5
15C
330
11B
100
AcDbEntity
  8
0
  6
Continuous
 62
     0
370
     0
100
AcDbLine
 10
365.534955
 20
131.296215
 30
0.0
 11
365.534955
 21
89.296215
 31
0.0
  0
LINE
  5
15D
330
11B
100
AcDbEntity
  8
0
  6
Continuous
 62
     0
370
     0
100
AcDbLine
 10
365.836214
 20
130.843759
 30
0.0
 11
365.836214
 21
89.748671
 31
0.0
  0
LINE
  5
15E
330
11B
100
AcDbEntity
  8
0
  6
Continuous
 62
     0
370
     0
100
AcDbLine
 10
366.136205
 20
130.546215
 30
0.0
 11
366.136205
 21
90.046215
 31
0.0
  0
LINE
  5
15F
330
11B
100
AcDbEntity
  8
0
  6
Continuous
 62
     0
370
    30
100
AcDbLine
 10
366.424391
 20
132.296215
 30
0.0
 11
366.424391
 21
88.296215
 31
0.0
  0
LINE
  5
160
330
11B
100
AcDbEntity
  8
0
  6
Continuous
 62
     0
370
    30
100
AcDbLine
 10
415.924391
 20
132.296215
 30
0.0
 11
415.924391
 21
88.296215
 31
0.0
  0
LINE
  5
161
330
11B
100
AcDbEntity
  8
0
  6
Continuous
 62
     0
370
    30
100
AcDbLine
 10
416.424391
 20
131.796215
 30
0.0
 11
416.424391
 21
88.796215
 31
0.0
  0
LINE
  5
162
330
11B
100
AcDbEntity
  8
0
  6
Continuous
 62
     0
370
    30
100
AcDbLine
 10
403.974391
 20
140.126215
 30
0.0
 11
403.474391
 21
139.626215
 31
0.0
  0
LINE
  5
163
330
11B
100
AcDbEntity
  8
0
  6
Continuous
 62
     0
370
    30
100
AcDbLine
 10
403.974391
 20
140.126215
 30
0.0
 11
410.874391
 21
140.126215
 31
0.0
  0
LINE
  5
164
330
11B
100
AcDbEntity
  8
0
  6
Continuous
 62
     0
370
    30
100
AcDbLine
 10
403.474391
 20
139.626215
 30
0.0
 11
411.374391
 21
139.626215
 31
0.0
  0
LINE
  5
165
330
11B
100
AcDbEntity
  8
0
  6
Continuous
 62
     0
370
    30
100
AcDbLine
 10
403.474391
 20
139.626215
 30
0.0
 11
403.474391
 21
132.296215
 31
0.0
  0
SPLINE
  5
166
330
11B
100
AcDbEntity
  8
0
  6
Continuous
 62
     0
370
    30
100
AcDbSpline
210
0.0
220
0.0
230
1.0
 70
     8
 71
     3
 72
    17
 73
    13
 74
     0
 42
0.000000001
 43
0.0
 40
0.0
 40
0.0
 40
0.0
 40
0.0
 40
0.709189021646981
 40
1.851062693760694
 40
2.37232866768106
 40
3.487418805119132
 40
5.102690338481654
 40
6.638681989770951
 40
8.270744171017007
 40
9.905522128837482
 40
11.51907905334415
 40
12.43446715808202
 40
12.43446715808202
 40
12.43446715808202
 40
12.43446715808202
 10
403.4743914794924
 20
132.296215057373
 30
0.0
 10
403.4743914898116
 20
132.296215057373
 30
0.0
 10
403.5298688289752
 20
132.2862128460363
 30
0.0
 10
403.7840287160046
 20
132.241578281255
 30
0.0
 10
404.2550001428572
 20
132.167997888476
 30
0.0
 10
404.989872091006
 20
132.0668641693399
 30
0.0
 10
406.2691518338963
 20
131.951060872273
 30
0.0
 10
407.8888070874987
 20
131.9235060258241
 30
0.0
 10
409.4424899440512
 20
132.0166710926715
 30
0.0
 10
410.6796502176741
 20
132.17522508611
 30
0.0
 10
411.2768507432625
 20
132.2787655571997
 30
0.0
 10
411.3739406918731
 20
132.2959237760593
 30
0.0
 10
411.3740155423187
 20
132.2959720654835
 30
0.0
  0
ARC
  5
167
330
11B
100
AcDbEntity
  8
0
  6
Continuous
 62
     0
370
    30
100
AcDbCircle
 10
362.219483
 20
174.796211
 30
0.0
 40
0.5000044378854371
100
AcDbArc
 50
1.750151
 51
89.999507
  0
LINE
  5
168
330
11B
100
AcDbEntity
  8
0
  6
Continuous
 62
     0
370
    30
100
AcDbLine
 10
362.219487
 20
175.296215
 30
0.0
 11
353.204391
 21
175.296215
 31
0.0
  0
LINE
  5
169
330
11B
100
AcDbEntity
  8
0
  6
Continuous
 62
     0
370
     0
100
AcDbLine
 10
362.719254
 20
174.811481
 30
0.0
 11
362.719254
 21
45.780949
 31
0.0
  0
LINE
  5
16A
330
11B
100
AcDbEntity
  8
0
  6
Continuous
 62
     0
370
     0
100
AcDbLine
 10
362.219487
 20
175.296215
 30
0.0
 11
362.219487
 21
45.296215
 31
0.0
  0
LINE
  5
16B
330
11B
100
AcDbEntity
  8
0
  6
Continuous
 62
     0
370
    30
100
AcDbLine
 10
353.204391
 20
175.296215
 30
0.0
 11
353.204391
 21
45.296215
 31
0.0
  0
LINE
  5
16C
330
11B
100
AcDbEntity
  8
0
  6
Continuous
 62
     0
370
    30
100
AcDbLine
 10
363.605913
 20
89.896215
 30
0.0
 11
363.671361
 21
89.896215
 31
0.0
  0
ARC
  5
16D
330
11B
100
AcDbEntity
  8
0
  6
Continuous
 62
     0
370
    30
100
AcDbCircle
 10
-1749.295995
 20
110.296207
 30
0.0
 40
2113.00038687978
100
AcDbArc
 50
0.553172
 51
1.749658
  0
LINE
  5
16E
330
11B
100
AcDbEntity
  8
0
  6
Continuous
 62
     0
370
    30
100
AcDbLine
 10
363.605913
 20
130.696215
 30
0.0
 11
363.605913
 21
89.896215
 31
0.0
  0
LINE
  5
16F
330
11B
100
AcDbEntity
  8
0
  6
Continuous
 62
     0
370
    30
100
AcDbLine
 10
362.219487
 20
45.296215
 30
0.0
 11
353.204391
 21
45.296215
 31
0.0
  0
ARC
  5
170
330
11B
100
AcDbEntity
  8
0
  6
Continuous
 62
     0
370
    30
100
AcDbCircle
 10
362.219483
 20
45.796219
 30
0.0
 40
0.5000044379216526
100
AcDbArc
 50
270.000493
 51
358.249849
  0
ARC
  5
171
330
11B
100
AcDbEntity
  8
0
  6
Continuous
 62
     0
370
    30
100
AcDbCircle
 10
-1749.295995
 20
110.296223
 30
0.0
 40
2113.000386879751
100
AcDbArc
 50
358.250342
 51
359.446828
  0
LINE
  5
172
330
11B
100
AcDbEntity
  8
0
  6
Continuous
 62
     0
370
    30
100
AcDbLine
 10
415.924391
 20
132.296215
 30
0.0
 11
416.424391
 21
131.796215
 31
0.0
  0
LINE
  5
173
330
11B
100
AcDbEntity
  8
0
  6
Continuous
 62
     0
370
    30
100
AcDbLine
 10
366.424391
 20
132.296215
 30
0.0
 11
403.474391
 21
132.296215
 31
0.0
  0
LINE
  5
174
330
11B
100
AcDbEntity
  8
0
  6
Continuous
 62
     0
370
    30
100
AcDbLine
 10
411.374015
 20
132.296215
 30
0.0
 11
415.924391
 21
132.296215
 31
0.0
  0
LINE
  5
175
330
11B
100
AcDbEntity
  8
0
  6
Continuous
 62
     0
370
    30
100
AcDbLine
 10
366.136205
 20
130.546215
 30
0.0
 11
366.424391
 21
130.546215
 31
0.0
  0
ARC
  5
176
330
11B
100
AcDbEntity
  8
0
  6
Continuous
 62
     0
370
    30
100
AcDbCircle
 10
366.136205
 20
130.846215
 30
0.0
 40
0.3000007634516371
100
AcDbArc
 50
180.469088
 51
270.00012
  0
LINE
  5
177
330
11B
100
AcDbEntity
  8
0
  6
Continuous
 62
     0
370
    30
100
AcDbLine
 10
365.834916
 20
131.001121
 30
0.0
 11
365.834916
 21
89.591309
 31
0.0
  0
ARC
  5
178
330
11B
100
AcDbEntity
  8
0
  6
Continuous
 62
     0
370
    30
100
AcDbCircle
 10
365.534955
 20
130.996214
 30
0.0
 40
0.3000007975232173
100
AcDbArc
 50
0.469087
 51
90.000114
  0
LINE
  5
179
330
11B
100
AcDbEntity
  8
0
  6
Continuous
 62
     0
370
    30
100
AcDbLine
 10
363.973828
 20
131.296215
 30
0.0
 11
365.534955
 21
131.296215
 31
0.0
  0
ARC
  5
17A
330
11B
100
AcDbEntity
  8
0
  6
Continuous
 62
     0
370
    30
100
AcDbCircle
 10
363.973827
 20
130.996214
 30
0.0
 40
0.3000007975877204
100
AcDbArc
 50
89.999886
 51
179.530913
  0
LINE
  5
17B
330
11B
100
AcDbEntity
  8
0
  6
Continuous
 62
     0
370
    30
100
AcDbLine
 10
363.671361
 20
130.696215
 30
0.0
 11
363.673837
 21
130.99867
 31
0.0
  0
LINE
  5
17C
330
11B
100
AcDbEntity
  8
0
  6
Continuous
 62
     0
370
    30
100
AcDbLine
 10
363.605913
 20
130.696215
 30
0.0
 11
363.671361
 21
130.696215
 31
0.0
  0
LINE
  5
17D
330
11B
100
AcDbEntity
  8
0
  6
Continuous
 62
     0
370
    30
100
AcDbLine
 10
411.374391
 20
139.626215
 30
0.0
 11
411.374391
 21
132.295972
 31
0.0
  0
LINE
  5
17E
330
11B
100
AcDbEntity
  8
0
  6
Continuous
 62
     0
370
    30
100
AcDbLine
 10
410.874391
 20
140.126215
 30
0.0
 11
411.374391
 21
139.626215
 31
0.0
  0
ENDBLK
  5
180
330
11B
100
AcDbEntity
  8
0
100
AcDbBlockEnd
  0
BLOCK
  5
1CC
330
182
100
AcDbEntity
  8
0
100
AcDbBlockBegin
  2
d
 70
     0
 10
0.0
 20
-82.550064
 30
0.0
  3
d
  1

  0
SPLINE
  5
183
330
182
100
AcDbEntity
  8
0
  6
Continuous
 62
     0
370
     0
100
AcDbSpline
210
0.0
220
0.0
230
1.0
 70
     8
 71
     3
 72
    17
 73
    13
 74
     0
 42
0.000000001
 43
0.0
 40
10.77936883426035
 40
10.77936883426035
 40
10.77936883426035
 40
10.77936883426035
 40
13.00920997969028
 40
17.34574091751642
 40
21.68030458132657
 40
26.0158598568891
 40
30.35360663391604
 40
34.69137162723425
 40
39.02687277555464
 40
43.36148144101966
 40
47.69798630468826
 40
49.92780254727324
 40
49.92780254727324
 40
49.92780254727324
 40
49.92780254727324
 10
128.4936078994567
 20
-138.7460692134331
 30
0.0
 10
128.4936024301298
 20
-138.7460994781715
 30
0.0
 10
128.6894278437645
 20
-138.7816517378788
 30
0.0
 10
129.9726490125045
 20
-139.0130961838259
 30
0.0
 10
132.8128808182413
 20
-139.4271346710848
 30
0.0
 10
136.6337609029339
 20
-139.7771672110221
 30
0.0
 10
140.9927364760739
 20
-139.9167271704525
 30
0.0
 10
145.351707114793
 20
-139.7773128236955
 30
0.0
 10
149.1725922945263
 20
-139.4271184083879
 30
0.0
 10
152.012859242623
 20
-139.0134881253551
 30
0.0
 10
153.2960866000977
 20
-138.7818141486603
 30
0.0
 10
153.4919267795756
 20
-138.7463932009429
 30
0.0
 10
153.491927292523
 20
-138.7463960065961
 30
0.0
  0
LINE
  5
184
330
182
100
AcDbEntity
  8
0
  6
Continuous
 62
     0
370
    30
100
AcDbLine
 10
153.492767
 20
-108.611256
 30
0.0
 11
128.492767
 21
-108.611256
 31
0.0
  0
SPLINE
  5
185
330
182
100
AcDbEntity
  8
0
  6
Continuous
 62
     0
370
    30
100
AcDbSpline
210
0.0
220
0.0
230
1.0
 70
     8
 71
     3
 72
    23
 73
    19
 74
     0
 42
0.000000001
 43
0.0
 40
9.589059798233244
 40
9.589059798233244
 40
9.589059798233244
 40
9.589059798233244
 40
9.642265420132297
 40
11.55909434387184
 40
13.4793174695907
 40
15.40586401667402
 40
17.34099563188875
 40
19.28673070470717
 40
23.18505413553117
 40
27.1036091078416
 40
31.02216571618501
 40
34.92075349536309
 40
36.86614307564447
 40
38.80138421432545
 40
40.72795329880143
 40
42.64816249845496
 40
44.56496741876284
 40
44.61841615640433
 40
44.61841615640433
 40
44.61841615640433
 40
44.61841615640433
 10
152.29939559439
 20
-140.2142517718153
 30
0.0
 10
152.2993955681809
 20
-140.2142516478832
 30
0.0
 10
152.2977530429676
 20
-140.214592107606
 30
0.0
 10
152.1744115356842
 20
-140.2405387499601
 30
0.0
 10
151.6531262924398
 20
-140.3467172204249
 30
0.0
 10
150.8101559023024
 20
-140.5074344456067
 30
0.0
 10
149.6728124827799
 20
-140.7024495621939
 30
0.0
 10
147.8100140186589
 20
-140.9756067003126
 30
0.0
 10
144.9229401241768
 20
-141.2753439182378
 30
0.0
 10
140.9926755343376
 20
-141.4178680440003
 30
0.0
 10
137.0625552212722
 20
-141.2752475383487
 30
0.0
 10
134.17498685132
 20
-140.9753669695908
 30
0.0
 10
132.3129946240372
 20
-140.7022810015374
 30
0.0
 10
131.1749802960217
 20
-140.5071235471878
 30
0.0
 10
130.3324626709368
 20
-140.3464609863412
 30
0.0
 10
129.8110896852592
 20
-140.2402532861217
 30
0.0
 10
129.68779214005
 20
-140.2143115382516
 30
0.0
 10
129.6861429530307
 20
-140.213969562192
 30
0.0
 10
129.6861429273687
 20
-140.2139696851365
 30
0.0
  0
LINE
  5
186
330
182
100
AcDbEntity
  8
0
  6
Continuous
 62
     0
370
     0
100
AcDbLine
 10
151.242767
 20
-107.961256
 30
0.0
 11
140.992767
 21
-107.961256
 31
0.0
  0
LINE
  5
187
330
182
100
AcDbEntity
  8
0
  6
Continuous
 62
     0
370
     0
100
AcDbLine
 10
140.992767
 20
-107.961256
 30
0.0
 11
130.742767
 21
-107.961256
 31
0.0
  0
LINE
  5
188
330
182
100
AcDbEntity
  8
0
  6
Continuous
 62
     0
370
    30
100
AcDbLine
 10
170.792767
 20
-107.711256
 30
0.0
 11
140.992767
 21
-107.711256
 31
0.0
  0
LINE
  5
189
330
182
100
AcDbEntity
  8
0
  6
Continuous
 62
     0
370
    30
100
AcDbLine
 10
140.992767
 20
-107.711256
 30
0.0
 11
111.192767
 21
-107.711256
 31
0.0
  0
LINE
  5
18A
330
182
100
AcDbEntity
  8
0
  6
Continuous
 62
     0
370
     0
100
AcDbLine
 10
170.992767
 20
-107.511256
 30
0.0
 11
140.992767
 21
-107.511256
 31
0.0
  0
LINE
  5
18B
330
182
100
AcDbEntity
  8
0
  6
Continuous
 62
     0
370
     0
100
AcDbLine
 10
140.992767
 20
-107.511256
 30
0.0
 11
110.992767
 21
-107.511256
 31
0.0
  0
LINE
  5
18C
330
182
100
AcDbEntity
  8
0
  6
Continuous
 62
     0
370
    30
100
AcDbLine
 10
170.992767
 20
-102.011256
 30
0.0
 11
140.992767
 21
-102.011256
 31
0.0
  0
LINE
  5
18D
330
182
100
AcDbEntity
  8
0
  6
Continuous
 62
     0
370
    30
100
AcDbLine
 10
140.992767
 20
-102.011256
 30
0.0
 11
110.992767
 21
-102.011256
 31
0.0
  0
ARC
  5
18E
330
182
100
AcDbEntity
  8
0
  6
Continuous
 62
     0
370
    30
100
AcDbCircle
 10
151.99275
 20
-138.745936
 30
0.0
 40
1.500001483426334
100
AcDbArc
 50
281.794957
 51
0.000099
  0
SPLINE
  5
18F
330
182
100
AcDbEntity
  8
0
  6
Continuous
 62
     0
370
    30
100
AcDbSpline
210
0.0
220
0.0
230
1.0
 70
     8
 71
     3
 72
    26
 73
    22
 74
     0
 42
0.000000001
 43
0.0
 40
0.0
 40
0.0
 40
0.0
 40
0.0
 40
0.1880443811064096
 40
0.5641334333735507
 40
0.8148596836012042
 40
1.065586107226488
 40
1.128267740538946
 40
1.190949384576188
 40
1.504357774715735
 40
1.62972140824253
 40
1.692403239651452
 40
1.817767508769044
 40
1.880449940384419
 40
1.943136813141285
 40
2.00589583286808
 40
2.016524165895733
 40
2.027151971532937
 40
2.033920648962336
 40
2.040688010197229
 40
2.055897510887903
 40
2.130097668157611
 40
2.130097668157611
 40
2.130097668157611
 40
2.130097668157611
 10
128.4928200042903
 20
-138.745695041433
 30
0.0
 10
128.4928203538871
 20
-138.8083400164388
 30
0.0
 10
128.5046073979915
 20
-138.9964827279234
 30
0.0
 10
128.5725394807318
 20
-139.2616450000354
 30
0.0
 10
128.7028070793345
 20
-139.5247340434695
 30
0.0
 10
128.8135072911884
 20
-139.6775668046041
 30
0.0
 10
128.8972603479297
 20
-139.77089730065
 30
0.0
 10
128.9994301473209
 20
-139.8756112129429
 30
0.0
 10
129.130936543401
 20
-139.98028337254
 30
0.0
 10
129.2756255742524
 20
-140.0642810191505
 30
0.0
 10
129.3691192247215
 20
-140.1109890787828
 30
0.0
 10
129.4460871889424
 20
-140.1436016353596
 30
0.0
 10
129.5251051886203
 20
-140.1713539248658
 30
0.0
 10
129.5846580679167
 20
-140.1895610112225
 30
0.0
 10
129.629754717416
 20
-140.2012452126711
 30
0.0
 10
129.6556178885951
 20
-140.2073081882977
 30
0.0
 10
129.6653967128761
 20
-140.2095215010375
 30
0.0
 10
129.6707759803632
 20
-140.2107118460041
 30
0.0
 10
129.6788742880485
 20
-140.2124734324581
 30
0.0
 10
129.6847013442271
 20
-140.2136931558828
 30
0.0
 10
129.6900551478075
 20
-140.2148435532718
 30
0.0
 10
129.6900553781512
 20
-140.2148424831385
 30
0.0
  0
LINE
  5
190
330
182
100
AcDbEntity
  8
0
  6
Continuous
 62
     0
370
    30
100
AcDbLine
 10
128.492767
 20
-138.745695
 30
0.0
 11
128.492767
 21
-108.611256
 31
0.0
  0
LINE
  5
191
330
182
100
AcDbEntity
  8
0
  6
Continuous
 62
     0
370
    30
100
AcDbLine
 10
153.492767
 20
-138.745933
 30
0.0
 11
153.492767
 21
-108.611256
 31
0.0
  0
LINE
  5
192
330
182
100
AcDbEntity
  8
0
  6
Continuous
 62
     0
370
    30
100
AcDbLine
 10
110.992767
 20
-107.511256
 30
0.0
 11
110.992767
 21
-102.011256
 31
0.0
  0
LINE
  5
193
330
182
100
AcDbEntity
  8
0
  6
Continuous
 62
     0
370
    30
100
AcDbLine
 10
170.992767
 20
-107.511256
 30
0.0
 11
170.992767
 21
-102.011256
 31
0.0
  0
ARC
  5
194
330
182
100
AcDbEntity
  8
0
  6
Continuous
 62
     0
370
    30
100
AcDbCircle
 10
111.192767
 20
-107.511256
 30
0.0
 40
0.2000000029802322
100
AcDbArc
 50
180.0
 51
270.0
  0
ARC
  5
195
330
182
100
AcDbEntity
  8
0
  6
Continuous
 62
     0
370
    30
100
AcDbCircle
 10
170.792767
 20
-107.511256
 30
0.0
 40
0.2000000029802322
100
AcDbArc
 50
270.0
 51
360.0
  0
ARC
  5
196
330
182
100
AcDbEntity
  8
0
  6
Continuous
 62
     0
370
    30
100
AcDbCircle
 10
130.492767
 20
-107.961256
 30
0.0
 40
0.25
100
AcDbArc
 50
360.0
 51
90.0
  0
ARC
  5
197
330
182
100
AcDbEntity
  8
0
  6
Continuous
 62
     0
370
    30
100
AcDbCircle
 10
151.492767
 20
-107.961256
 30
0.0
 40
0.25
100
AcDbArc
 50
90.0
 51
180.0
  0
LINE
  5
198
330
182
100
AcDbEntity
  8
0
  6
Continuous
 62
     0
370
    30
100
AcDbLine
 10
130.742767
 20
-108.611256
 30
0.0
 11
130.742767
 21
-107.961256
 31
0.0
  0
LINE
  5
199
330
182
100
AcDbEntity
  8
0
  6
Continuous
 62
     0
370
    30
100
AcDbLine
 10
151.242767
 20
-108.611256
 30
0.0
 11
151.242767
 21
-107.961256
 31
0.0
  0
LINE
  5
19A
330
182
100
AcDbEntity
  8
0
  6
Continuous
 62
     0
370
     0
100
AcDbLine
 10
128.492767
 20
-112.958732
 30
0.0
 11
120.290312
 21
-112.958732
 31
0.0
  0
LINE
  5
19B
330
182
100
AcDbEntity
  8
0
  6
Continuous
 62
     0
370
     0
100
AcDbLine
 10
161.695222
 20
-112.958732
 30
0.0
 11
153.492767
 21
-112.958732
 31
0.0
  0
LINE
  5
19C
330
182
100
AcDbEntity
  8
0
  6
Continuous
 62
     0
370
     0
100
AcDbLine
 10
128.492767
 20
-113.258723
 30
0.0
 11
119.992767
 21
-113.258723
 31
0.0
  0
LINE
  5
19D
330
182
100
AcDbEntity
  8
0
  6
Continuous
 62
     0
370
     0
100
AcDbLine
 10
161.992767
 20
-113.258723
 30
0.0
 11
153.492767
 21
-113.258723
 31
0.0
  0
LINE
  5
19E
330
182
100
AcDbEntity
  8
0
  6
Continuous
 62
     0
370
     0
100
AcDbLine
 10
128.492767
 20
-114.81985
 30
0.0
 11
119.992768
 21
-114.81985
 31
0.0
  0
LINE
  5
19F
330
182
100
AcDbEntity
  8
0
  6
Continuous
 62
     0
370
     0
100
AcDbLine
 10
161.992767
 20
-114.81985
 30
0.0
 11
153.492767
 21
-114.81985
 31
0.0
  0
LINE
  5
1A0
330
182
100
AcDbEntity
  8
0
  6
Continuous
 62
     0
370
     0
100
AcDbLine
 10
128.492767
 20
-115.119841
 30
0.0
 11
120.290312
 21
-115.119841
 31
0.0
  0
LINE
  5
1A1
330
182
100
AcDbEntity
  8
0
  6
Continuous
 62
     0
370
     0
100
AcDbLine
 10
161.695222
 20
-115.119841
 30
0.0
 11
153.492767
 21
-115.119841
 31
0.0
  0
LINE
  5
1A2
330
182
100
AcDbEntity
  8
0
  6
Continuous
 62
     0
370
     0
100
AcDbLine
 10
128.492767
 20
-115.121109
 30
0.0
 11
120.445223
 21
-115.121109
 31
0.0
  0
LINE
  5
1A3
330
182
100
AcDbEntity
  8
0
  6
Continuous
 62
     0
370
     0
100
AcDbLine
 10
161.540312
 20
-115.121109
 30
0.0
 11
153.492767
 21
-115.121109
 31
0.0
  0
LINE
  5
1A4
330
182
100
AcDbEntity
  8
0
  6
Continuous
 62
     0
370
     0
100
AcDbLine
 10
128.492767
 20
-115.4211
 30
0.0
 11
120.742767
 21
-115.4211
 31
0.0
  0
LINE
  5
1A5
330
182
100
AcDbEntity
  8
0
  6
Continuous
 62
     0
370
     0
100
AcDbLine
 10
161.242767
 20
-115.4211
 30
0.0
 11
153.492767
 21
-115.4211
 31
0.0
  0
LINE
  5
1A6
330
182
100
AcDbEntity
  8
0
  6
Continuous
 62
     0
370
    30
100
AcDbLine
 10
128.492767
 20
-115.709286
 30
0.0
 11
118.992767
 21
-115.709286
 31
0.0
  0
LINE
  5
1A7
330
182
100
AcDbEntity
  8
0
  6
Continuous
 62
     0
370
    30
100
AcDbLine
 10
162.992767
 20
-115.709286
 30
0.0
 11
153.492767
 21
-115.709286
 31
0.0
  0
LINE
  5
1A8
330
182
100
AcDbEntity
  8
0
  6
Continuous
 62
     0
370
    30
100
AcDbLine
 10
162.992767
 20
-165.209286
 30
0.0
 11
118.992767
 21
-165.209286
 31
0.0
  0
LINE
  5
1A9
330
182
100
AcDbEntity
  8
0
  6
Continuous
 62
     0
370
    30
100
AcDbLine
 10
162.492767
 20
-165.709286
 30
0.0
 11
119.492767
 21
-165.709286
 31
0.0
  0
CIRCLE
  5
1AA
330
182
100
AcDbEntity
  8
0
  6
Continuous
 62
     0
370
    30
100
AcDbCircle
 10
140.992767
 20
-156.709288
 30
0.0
 40
3.450000000000003
  0
CIRCLE
  5
1AB
330
182
100
AcDbEntity
  8
0
  6
Continuous
 62
     0
370
    30
100
AcDbCircle
 10
140.992767
 20
-156.709288
 30
0.0
 40
3.950000000000003
  0
LINE
  5
1AC
330
182
100
AcDbEntity
  8
0
  6
Continuous
 62
     0
370
     0
100
AcDbLine
 10
205.508034
 20
-112.004149
 30
0.0
 11
153.492767
 21
-112.004149
 31
0.0
  0
LINE
  5
1AD
330
182
100
AcDbEntity
  8
0
  6
Continuous
 62
     0
370
     0
100
AcDbLine
 10
128.492767
 20
-112.004149
 30
0.0
 11
76.477501
 21
-112.004149
 31
0.0
  0
LINE
  5
1AE
330
182
100
AcDbEntity
  8
0
  6
Continuous
 62
     0
370
     0
100
AcDbLine
 10
205.992767
 20
-111.504382
 30
0.0
 11
153.492767
 21
-111.504382
 31
0.0
  0
LINE
  5
1AF
330
182
100
AcDbEntity
  8
0
  6
Continuous
 62
     0
370
     0
100
AcDbLine
 10
128.492767
 20
-111.504382
 30
0.0
 11
75.992767
 21
-111.504382
 31
0.0
  0
LINE
  5
1B0
330
182
100
AcDbEntity
  8
0
  6
Continuous
 62
     0
370
    30
100
AcDbLine
 10
205.992767
 20
-102.489286
 30
0.0
 11
170.992767
 21
-102.489286
 31
0.0
  0
LINE
  5
1B1
330
182
100
AcDbEntity
  8
0
  6
Continuous
 62
     0
370
    30
100
AcDbLine
 10
110.992767
 20
-102.489286
 30
0.0
 11
75.992767
 21
-102.489286
 31
0.0
  0
LINE
  5
1B2
330
182
100
AcDbEntity
  8
0
  6
Continuous
 62
     0
370
    30
100
AcDbLine
 10
161.392767
 20
-112.890808
 30
0.0
 11
153.492767
 21
-112.890808
 31
0.0
  0
LINE
  5
1B3
330
182
100
AcDbEntity
  8
0
  6
Continuous
 62
     0
370
    30
100
AcDbLine
 10
128.492767
 20
-112.890808
 30
0.0
 11
120.592767
 21
-112.890808
 31
0.0
  0
LINE
  5
1B4
330
182
100
AcDbEntity
  8
0
  6
Continuous
 62
     0
370
    30
100
AcDbLine
 10
75.992767
 20
-111.504382
 30
0.0
 11
75.992767
 21
-102.489286
 31
0.0
  0
LINE
  5
1B5
330
182
100
AcDbEntity
  8
0
  6
Continuous
 62
     0
370
    30
100
AcDbLine
 10
205.992767
 20
-111.504382
 30
0.0
 11
205.992767
 21
-102.489286
 31
0.0
  0
ARC
  5
1B6
330
182
100
AcDbEntity
  8
0
  6
Continuous
 62
     0
370
    30
100
AcDbCircle
 10
76.492772
 20
-111.504378
 30
0.0
 40
0.5000044379061799
100
AcDbArc
 50
180.000493
 51
268.249849
  0
ARC
  5
1B7
330
182
100
AcDbEntity
  8
0
  6
Continuous
 62
     0
370
    30
100
AcDbCircle
 10
205.492763
 20
-111.504378
 30
0.0
 40
0.500004437906114
100
AcDbArc
 50
271.750151
 51
359.999507
  0
ARC
  5
1B8
330
182
100
AcDbEntity
  8
0
  6
Continuous
 62
     0
370
    30
100
AcDbCircle
 10
140.992775
 20
2000.0111
 30
0.0
 40
2113.000386879761
100
AcDbArc
 50
268.250342
 51
269.446828
  0
ARC
  5
1B9
330
182
100
AcDbEntity
  8
0
  6
Continuous
 62
     0
370
    30
100
AcDbCircle
 10
140.99276
 20
2000.0111
 30
0.0
 40
2113.000386879761
100
AcDbArc
 50
270.553172
 51
271.749658
  0
LINE
  5
1BA
330
182
100
AcDbEntity
  8
0
  6
Continuous
 62
     0
370
    30
100
AcDbLine
 10
162.992767
 20
-165.209286
 30
0.0
 11
162.492767
 21
-165.709286
 31
0.0
  0
LINE
  5
1BB
330
182
100
AcDbEntity
  8
0
  6
Continuous
 62
     0
370
    30
100
AcDbLine
 10
118.992767
 20
-165.209286
 30
0.0
 11
119.492767
 21
-165.709286
 31
0.0
  0
LINE
  5
1BC
330
182
100
AcDbEntity
  8
0
  6
Continuous
 62
     0
370
    30
100
AcDbLine
 10
162.992767
 20
-115.709286
 30
0.0
 11
162.992767
 21
-165.209286
 31
0.0
  0
LINE
  5
1BD
330
182
100
AcDbEntity
  8
0
  6
Continuous
 62
     0
370
    30
100
AcDbLine
 10
118.992767
 20
-115.709286
 30
0.0
 11
118.992767
 21
-165.209286
 31
0.0
  0
LINE
  5
1BE
330
182
100
AcDbEntity
  8
0
  6
Continuous
 62
     0
370
    30
100
AcDbLine
 10
161.242767
 20
-115.4211
 30
0.0
 11
161.242767
 21
-115.709286
 31
0.0
  0
LINE
  5
1BF
330
182
100
AcDbEntity
  8
0
  6
Continuous
 62
     0
370
    30
100
AcDbLine
 10
120.742767
 20
-115.4211
 30
0.0
 11
120.742767
 21
-115.709286
 31
0.0
  0
ARC
  5
1C0
330
182
100
AcDbEntity
  8
0
  6
Continuous
 62
     0
370
    30
100
AcDbCircle
 10
161.542768
 20
-115.4211
 30
0.0
 40
0.3000007634447454
100
AcDbArc
 50
90.469088
 51
180.00012
  0
ARC
  5
1C1
330
182
100
AcDbEntity
  8
0
  6
Continuous
 62
     0
370
    30
100
AcDbCircle
 10
120.442767
 20
-115.4211
 30
0.0
 40
0.3000007634158517
100
AcDbArc
 50
359.99988
 51
89.530912
  0
ARC
  5
1C2
330
182
100
AcDbEntity
  8
0
  6
Continuous
 62
     0
370
    30
100
AcDbCircle
 10
161.692766
 20
-114.81985
 30
0.0
 40
0.3000007975450009
100
AcDbArc
 50
270.469087
 51
0.000114
  0
ARC
  5
1C3
330
182
100
AcDbEntity
  8
0
  6
Continuous
 62
     0
370
    30
100
AcDbCircle
 10
120.292769
 20
-114.81985
 30
0.0
 40
0.3000007975753227
100
AcDbArc
 50
179.999886
 51
269.530913
  0
LINE
  5
1C4
330
182
100
AcDbEntity
  8
0
  6
Continuous
 62
     0
370
    30
100
AcDbLine
 10
161.992767
 20
-113.258723
 30
0.0
 11
161.992767
 21
-114.81985
 31
0.0
  0
LINE
  5
1C5
330
182
100
AcDbEntity
  8
0
  6
Continuous
 62
     0
370
    30
100
AcDbLine
 10
119.992767
 20
-113.258723
 30
0.0
 11
119.992767
 21
-114.81985
 31
0.0
  0
ARC
  5
1C6
330
182
100
AcDbEntity
  8
0
  6
Continuous
 62
     0
370
    30
100
AcDbCircle
 10
161.692766
 20
-113.258722
 30
0.0
 40
0.300000797683088
100
AcDbArc
 50
359.999886
 51
89.530913
  0
ARC
  5
1C7
330
182
100
AcDbEntity
  8
0
  6
Continuous
 62
     0
370
    30
100
AcDbCircle
 10
120.292769
 20
-113.258722
 30
0.0
 40
0.3000007977128104
100
AcDbArc
 50
90.469087
 51
180.000114
  0
LINE
  5
1C8
330
182
100
AcDbEntity
  8
0
  6
Continuous
 62
     0
370
    30
100
AcDbLine
 10
161.392767
 20
-112.956256
 30
0.0
 11
161.695222
 21
-112.958732
 31
0.0
  0
LINE
  5
1C9
330
182
100
AcDbEntity
  8
0
  6
Continuous
 62
     0
370
    30
100
AcDbLine
 10
120.592767
 20
-112.956256
 30
0.0
 11
120.290312
 21
-112.958732
 31
0.0
  0
LINE
  5
1CA
330
182
100
AcDbEntity
  8
0
  6
Continuous
 62
     0
370
    30
100
AcDbLine
 10
161.392767
 20
-112.890808
 30
0.0
 11
161.392767
 21
-112.956256
 31
0.0
  0
LINE
  5
1CB
330
182
100
AcDbEntity
  8
0
  6
Continuous
 62
     0
370
    30
100
AcDbLine
 10
120.592767
 20
-112.890808
 30
0.0
 11
120.592767
 21
-112.956256
 31
0.0
  0
ENDBLK
  5
1CD
330
182
100
AcDbEntity
  8
0
100
AcDbBlockEnd
  0
BLOCK
  5
204
330
1CF
100
AcDbEntity
  8
0
100
AcDbBlockBegin
  2
e
 70
     0
 10
0.0
 20
276.297729
 30
0.0
  3
e
  1

  0
CIRCLE
  5
1D0
330
1CF
100
AcDbEntity
  8
0
  6
Continuous
 62
     0
370
    30
100
AcDbCircle
 10
140.992768
 20
416.703203
 30
0.0
 40
4.799999999999947
  0
CIRCLE
  5
1D1
330
1CF
100
AcDbEntity
  8
0
  6
Continuous
 62
     0
370
    30
100
AcDbCircle
 10
140.992768
 20
416.703202
 30
0.0
 40
4.650149520023739
  0
LINE
  5
1D2
330
1CF
100
AcDbEntity
  8
0
  6
Continuous
 62
     0
370
    30
100
AcDbLine
 10
110.992767
 20
362.005161
 30
0.0
 11
170.992767
 21
362.005161
 31
0.0
  0
LINE
  5
1D3
330
1CF
100
AcDbEntity
  8
0
  6
Continuous
 62
     0
370
    30
100
AcDbLine
 10
110.992767
 20
362.483197
 30
0.0
 11
110.992767
 21
362.005161
 31
0.0
  0
LINE
  5
1D4
330
1CF
100
AcDbEntity
  8
0
  6
Continuous
 62
     0
370
    30
100
AcDbLine
 10
170.992767
 20
362.483197
 30
0.0
 11
170.992767
 21
362.005161
 31
0.0
  0
LINE
  5
1D5
330
1CF
100
AcDbEntity
  8
0
  6
Continuous
 62
     0
370
     0
100
AcDbLine
 10
120.290312
 20
372.952647
 30
0.0
 11
140.992767
 21
372.952647
 31
0.0
  0
LINE
  5
1D6
330
1CF
100
AcDbEntity
  8
0
  6
Continuous
 62
     0
370
     0
100
AcDbLine
 10
140.992767
 20
372.952647
 30
0.0
 11
161.695222
 21
372.952647
 31
0.0
  0
LINE
  5
1D7
330
1CF
100
AcDbEntity
  8
0
  6
Continuous
 62
     0
370
     0
100
AcDbLine
 10
119.992767
 20
373.252639
 30
0.0
 11
140.992767
 21
373.252639
 31
0.0
  0
LINE
  5
1D8
330
1CF
100
AcDbEntity
  8
0
  6
Continuous
 62
     0
370
     0
100
AcDbLine
 10
140.992767
 20
373.252639
 30
0.0
 11
161.992767
 21
373.252639
 31
0.0
  0
LINE
  5
1D9
330
1CF
100
AcDbEntity
  8
0
  6
Continuous
 62
     0
370
     0
100
AcDbLine
 10
119.992768
 20
374.813765
 30
0.0
 11
140.992767
 21
374.813765
 31
0.0
  0
LINE
  5
1DA
330
1CF
100
AcDbEntity
  8
0
  6
Continuous
 62
     0
370
     0
100
AcDbLine
 10
140.992767
 20
374.813765
 30
0.0
 11
161.992767
 21
374.813765
 31
0.0
  0
LINE
  5
1DB
330
1CF
100
AcDbEntity
  8
0
  6
Continuous
 62
     0
370
     0
100
AcDbLine
 10
120.290312
 20
375.113757
 30
0.0
 11
140.992767
 21
375.113757
 31
0.0
  0
LINE
  5
1DC
330
1CF
100
AcDbEntity
  8
0
  6
Continuous
 62
     0
370
     0
100
AcDbLine
 10
140.992767
 20
375.113757
 30
0.0
 11
161.695222
 21
375.113757
 31
0.0
  0
LINE
  5
1DD
330
1CF
100
AcDbEntity
  8
0
  6
Continuous
 62
     0
370
     0
100
AcDbLine
 10
120.445223
 20
375.115025
 30
0.0
 11
140.992767
 21
375.115025
 31
0.0
  0
LINE
  5
1DE
330
1CF
100
AcDbEntity
  8
0
  6
Continuous
 62
     0
370
     0
100
AcDbLine
 10
140.992767
 20
375.115025
 30
0.0
 11
161.540312
 21
375.115025
 31
0.0
  0
LINE
  5
1DF
330
1CF
100
AcDbEntity
  8
0
  6
Continuous
 62
     0
370
     0
100
AcDbLine
 10
120.742767
 20
375.415016
 30
0.0
 11
140.992767
 21
375.415016
 31
0.0
  0
LINE
  5
1E0
330
1CF
100
AcDbEntity
  8
0
  6
Continuous
 62
     0
370
     0
100
AcDbLine
 10
140.992767
 20
375.415016
 30
0.0
 11
161.242767
 21
375.415016
 31
0.0
  0
LINE
  5
1E1
330
1CF
100
AcDbEntity
  8
0
  6
Continuous
 62
     0
370
    30
100
AcDbLine
 10
118.992767
 20
375.703202
 30
0.0
 11
140.992767
 21
375.703202
 31
0.0
  0
LINE
  5
1E2
330
1CF
100
AcDbEntity
  8
0
  6
Continuous
 62
     0
370
    30
100
AcDbLine
 10
140.992767
 20
375.703202
 30
0.0
 11
162.992767
 21
375.703202
 31
0.0
  0
LINE
  5
1E3
330
1CF
100
AcDbEntity
  8
0
  6
Continuous
 62
     0
370
    30
100
AcDbLine
 10
118.992767
 20
425.203202
 30
0.0
 11
140.992767
 21
425.203202
 31
0.0
  0
LINE
  5
1E4
330
1CF
100
AcDbEntity
  8
0
  6
Continuous
 62
     0
370
    30
100
AcDbLine
 10
140.992767
 20
425.203202
 30
0.0
 11
162.992767
 21
425.203202
 31
0.0
  0
LINE
  5
1E5
330
1CF
100
AcDbEntity
  8
0
  6
Continuous
 62
     0
370
    30
100
AcDbLine
 10
119.492767
 20
425.703202
 30
0.0
 11
140.992767
 21
425.703202
 31
0.0
  0
LINE
  5
1E6
330
1CF
100
AcDbEntity
  8
0
  6
Continuous
 62
     0
370
    30
100
AcDbLine
 10
140.992767
 20
425.703202
 30
0.0
 11
162.492767
 21
425.703202
 31
0.0
  0
LINE
  5
1E7
330
1CF
100
AcDbEntity
  8
0
  6
Continuous
 62
     0
370
     0
100
AcDbLine
 10
76.477501
 20
371.998065
 30
0.0
 11
205.508034
 21
371.998065
 31
0.0
  0
LINE
  5
1E8
330
1CF
100
AcDbEntity
  8
0
  6
Continuous
 62
     0
370
     0
100
AcDbLine
 10
75.992767
 20
371.498298
 30
0.0
 11
205.992767
 21
371.498298
 31
0.0
  0
LINE
  5
1E9
330
1CF
100
AcDbEntity
  8
0
  6
Continuous
 62
     0
370
    30
100
AcDbLine
 10
75.992767
 20
362.483202
 30
0.0
 11
205.992767
 21
362.483202
 31
0.0
  0
LINE
  5
1EA
330
1CF
100
AcDbEntity
  8
0
  6
Continuous
 62
     0
370
    30
100
AcDbLine
 10
140.992767
 20
372.884724
 30
0.0
 11
161.392767
 21
372.884724
 31
0.0
  0
LINE
  5
1EB
330
1CF
100
AcDbEntity
  8
0
  6
Continuous
 62
     0
370
    30
100
AcDbLine
 10
120.592767
 20
372.884724
 30
0.0
 11
140.992767
 21
372.884724
 31
0.0
  0
LINE
  5
1EC
330
1CF
100
AcDbEntity
  8
0
  6
Continuous
 62
     0
370
    30
100
AcDbLine
 10
75.992767
 20
371.498298
 30
0.0
 11
75.992767
 21
362.483202
 31
0.0
  0
LINE
  5
1ED
330
1CF
100
AcDbEntity
  8
0
  6
Continuous
 62
     0
370
    30
100
AcDbLine
 10
205.992767
 20
371.498298
 30
0.0
 11
205.992767
 21
362.483202
 31
0.0
  0
ARC
  5
1EE
330
1CF
100
AcDbEntity
  8
0
  6
Continuous
 62
     0
370
    30
100
AcDbCircle
 10
76.492772
 20
371.498293
 30
0.0
 40
0.5000044379024596
100
AcDbArc
 50
91.750151
 51
179.999507
  0
ARC
  5
1EF
330
1CF
100
AcDbEntity
  8
0
  6
Continuous
 62
     0
370
    30
100
AcDbCircle
 10
205.492763
 20
371.498293
 30
0.0
 40
0.5000044379023938
100
AcDbArc
 50
0.000493
 51
88.249849
  0
ARC
  5
1F0
330
1CF
100
AcDbEntity
  8
0
  6
Continuous
 62
     0
370
    30
100
AcDbCircle
 10
140.992775
 20
-1740.017185
 30
0.0
 40
2113.000386880297
100
AcDbArc
 50
90.553172
 51
91.749658
  0
ARC
  5
1F1
330
1CF
100
AcDbEntity
  8
0
  6
Continuous
 62
     0
370
    30
100
AcDbCircle
 10
140.99276
 20
-1740.017185
 30
0.0
 40
2113.000386880297
100
AcDbArc
 50
88.250342
 51
89.446828
  0
LINE
  5
1F2
330
1CF
100
AcDbEntity
  8
0
  6
Continuous
 62
     0
370
    30
100
AcDbLine
 10
162.992767
 20
425.203202
 30
0.0
 11
162.492767
 21
425.703202
 31
0.0
  0
LINE
  5
1F3
330
1CF
100
AcDbEntity
  8
0
  6
Continuous
 62
     0
370
    30
100
AcDbLine
 10
118.992767
 20
425.203202
 30
0.0
 11
119.492767
 21
425.703202
 31
0.0
  0
LINE
  5
1F4
330
1CF
100
AcDbEntity
  8
0
  6
Continuous
 62
     0
370
    30
100
AcDbLine
 10
162.992767
 20
375.703202
 30
0.0
 11
162.992767
 21
425.203202
 31
0.0
  0
LINE
  5
1F5
330
1CF
100
AcDbEntity
  8
0
  6
Continuous
 62
     0
370
    30
100
AcDbLine
 10
118.992767
 20
375.703202
 30
0.0
 11
118.992767
 21
425.203202
 31
0.0
  0
LINE
  5
1F6
330
1CF
100
AcDbEntity
  8
0
  6
Continuous
 62
     0
370
    30
100
AcDbLine
 10
161.242767
 20
375.415016
 30
0.0
 11
161.242767
 21
375.703202
 31
0.0
  0
LINE
  5
1F7
330
1CF
100
AcDbEntity
  8
0
  6
Continuous
 62
     0
370
    30
100
AcDbLine
 10
120.742767
 20
375.415016
 30
0.0
 11
120.742767
 21
375.703202
 31
0.0
  0
ARC
  5
1F8
330
1CF
100
AcDbEntity
  8
0
  6
Continuous
 62
     0
370
    30
100
AcDbCircle
 10
161.542768
 20
375.415015
 30
0.0
 40
0.3000007634533064
100
AcDbArc
 50
179.99988
 51
269.530912
  0
ARC
  5
1F9
330
1CF
100
AcDbEntity
  8
0
  6
Continuous
 62
     0
370
    30
100
AcDbCircle
 10
120.442767
 20
375.415015
 30
0.0
 40
0.300000763424327
100
AcDbArc
 50
270.469088
 51
0.00012
  0
ARC
  5
1FA
330
1CF
100
AcDbEntity
  8
0
  6
Continuous
 62
     0
370
    30
100
AcDbCircle
 10
161.692766
 20
374.813766
 30
0.0
 40
0.3000007975477625
100
AcDbArc
 50
359.999886
 51
89.530913
  0
ARC
  5
1FB
330
1CF
100
AcDbEntity
  8
0
  6
Continuous
 62
     0
370
    30
100
AcDbCircle
 10
120.292769
 20
374.813766
 30
0.0
 40
0.3000007975781128
100
AcDbArc
 50
90.469087
 51
180.000114
  0
LINE
  5
1FC
330
1CF
100
AcDbEntity
  8
0
  6
Continuous
 62
     0
370
    30
100
AcDbLine
 10
161.992767
 20
373.252639
 30
0.0
 11
161.992767
 21
374.813765
 31
0.0
  0
LINE
  5
1FD
330
1CF
100
AcDbEntity
  8
0
  6
Continuous
 62
     0
370
    30
100
AcDbLine
 10
119.992767
 20
373.252639
 30
0.0
 11
119.992767
 21
374.813765
 31
0.0
  0
ARC
  5
1FE
330
1CF
100
AcDbEntity
  8
0
  6
Continuous
 62
     0
370
    30
100
AcDbCircle
 10
161.692766
 20
373.252638
 30
0.0
 40
0.3000007976618052
100
AcDbArc
 50
270.469087
 51
0.000114
  0
ARC
  5
1FF
330
1CF
100
AcDbEntity
  8
0
  6
Continuous
 62
     0
370
    30
100
AcDbCircle
 10
120.292769
 20
373.252638
 30
0.0
 40
0.3000007976915562
100
AcDbArc
 50
179.999886
 51
269.530913
  0
LINE
  5
200
330
1CF
100
AcDbEntity
  8
0
  6
Continuous
 62
     0
370
    30
100
AcDbLine
 10
161.392767
 20
372.950172
 30
0.0
 11
161.695222
 21
372.952647
 31
0.0
  0
LINE
  5
201
330
1CF
100
AcDbEntity
  8
0
  6
Continuous
 62
     0
370
    30
100
AcDbLine
 10
120.592767
 20
372.950172
 30
0.0
 11
120.290312
 21
372.952647
 31
0.0
  0
LINE
  5
202
330
1CF
100
AcDbEntity
  8
0
  6
Continuous
 62
     0
370
    30
100
AcDbLine
 10
161.392767
 20
372.884724
 30
0.0
 11
161.392767
 21
372.950172
 31
0.0
  0
LINE
  5
203
330
1CF
100
AcDbEntity
  8
0
  6
Continuous
 62
     0
370
    30
100
AcDbLine
 10
120.592767
 20
372.884724
 30
0.0
 11
120.592767
 21
372.950172
 31
0.0
  0
ENDBLK
  5
205
330
1CF
100
AcDbEntity
  8
0
100
AcDbBlockEnd
  0
BLOCK
  5
255
330
207
100
AcDbEntity
  8
0
100
AcDbBlockBegin
  2
f
 70
     0
 10
334.555908
 20
-232.675919
 30
0.0
  3
f
  1

  0
SPLINE
  5
208
330
207
100
AcDbEntity
  8
0
  6
Continuous
 62
     0
370
     0
100
AcDbSpline
210
0.0
220
0.0
230
1.0
 70
     8
 71
     3
 72
    16
 73
    12
 74
     0
 42
0.000000001
 43
0.0
 40
23.8302512132556
 40
23.8302512132556
 40
23.8302512132556
 40
23.8302512132556
 40
26.0158598568891
 40
30.35360663391604
 40
34.69137162723425
 40
39.02687277555464
 40
43.36148144101966
 40
47.69798630468826
 40
52.03606693161141
 40
56.37263841474423
 40
60.7072506011606
 40
60.7072506011606
 40
60.7072506011606
 40
60.7072506011606
 10
365.3852797392162
 20
-37.04621239419905
 30
0.0
 10
365.8438595365872
 20
-36.84440498897726
 30
0.0
 10
367.3006060108199
 20
-36.41093150690073
 30
0.0
 10
370.0826071210361
 20
-36.5683486101866
 30
0.0
 10
373.604302299374
 20
-38.12900438681112
 30
0.0
 10
376.8486654281704
 20
-40.87359056023655
 30
0.0
 10
379.3737836149433
 20
-44.49766239845241
 30
0.0
 10
380.7935106557019
 20
-48.62976720147589
 30
0.0
 10
380.8603115539963
 20
-52.80256134432562
 30
0.0
 10
379.5691782741205
 20
-56.48940396718842
 30
0.0
 10
377.9452496364644
 20
-58.32201319835247
 30
0.0
 10
377.0155946153106
 20
-59.01572986553344
 30
0.0
  0
SPLINE
  5
209
330
207
100
AcDbEntity
  8
0
  6
Continuous
 62
     0
370
     0
100
AcDbSpline
210
0.0
220
0.0
230
1.0
 70
     8
 71
     3
 72
    14
 73
    10
 74
     0
 42
0.000000001
 43
0.0
 40
0.0
 40
0.0
 40
0.0
 40
0.0
 40
1.974027971177131
 40
3.936390186585609
 40
5.878649482336035
 40
7.790165265916714
 40
9.659696083105716
 40
11.4773290793628
 40
13.22973633779209
 40
13.22973633779209
 40
13.22973633779209
 40
13.22973633779209
 10
377.0155938218339
 20
-59.01573020934302
 30
0.0
 10
377.4140556731703
 20
-58.84307867488707
 30
0.0
 10
378.1938372488084
 20
-58.51019834811291
 30
0.0
 10
379.3033184204092
 20
-58.05265497034975
 30
0.0
 10
380.3426660583548
 20
-57.63726861816104
 30
0.0
 10
381.2968243549487
 20
-57.26608454739591
 30
0.0
 10
382.1491988481908
 20
-56.93899852747995
 30
0.0
 10
382.8882071744588
 20
-56.65023087621262
 30
0.0
 10
383.3052710321072
 20
-56.4756891457447
 30
0.0
 10
383.4847921816483
 20
-56.39438921704885
 30
0.0
  0
ELLIPSE
  5
20A
330
207
100
AcDbEntity
  8
0
  6
Continuous
 62
     0
370
    30
100
AcDbEllipse
 10
389.561663
 20
-40.064726
 30
0.0
 11
5.034180179670629
 21
-11.44146100454883
 31
0.0
210
0.0
220
0.0
230
1.0
 40
0.737842
 41
0.0000000035048799
 42
3.141592657094676
  0
ARC
  5
20B
330
207
100
AcDbEntity
  8
0
  6
Continuous
 62
     0
370
     0
100
AcDbCircle
 10
376.016628
 20
-65.287501
 30
0.0
 40
1.493044612621965
100
AcDbArc
 50
349.321796
 51
8.082466
  0
ELLIPSE
  5
20C
330
207
100
AcDbEntity
  8
0
  6
Continuous
 62
     0
370
     0
100
AcDbEllipse
 10
387.448667
 20
-65.575005
 30
0.0
 11
-4.565606820019971
 21
8.896922746938245
 31
0.0
210
0.0
220
0.0
230
-1.0
 40
0.995505
 41
5.234496336834669
 42
6.283185288081136
  0
SPLINE
  5
20D
330
207
100
AcDbEntity
  8
0
  6
Continuous
 62
     0
370
     0
100
AcDbSpline
210
0.0
220
0.0
230
1.0
 70
     8
 71
     3
 72
    10
 73
     6
 74
     0
 42
0.000000001
 43
0.0
 40
0.0
 40
0.0
 40
0.0
 40
0.0
 40
2.798270619055192
 40
5.595978195444554
 40
8.393884764184449
 40
8.393884764184449
 40
8.393884764184449
 40
8.393884764184449
 10
377.0155917546718
 20
-59.01573188575793
 30
0.0
 10
376.4042992820532
 20
-59.46808206484985
 30
0.0
 10
375.3468948385325
 20
-60.58704903956129
 30
0.0
 10
374.3646760000054
 20
-62.77325230183641
 30
0.0
 10
374.1369445675613
 20
-64.47354217634154
 30
0.0
 10
374.1316205389767
 20
-65.3459664706138
 30
0.0
  0
SPLINE
  5
20E
330
207
100
AcDbEntity
  8
0
  6
Continuous
 62
     0
370
     0
100
AcDbSpline
210
0.0
220
0.0
230
1.0
 70
     8
 71
     3
 72
    39
 73
    35
 74
     0
 42
0.000000001
 43
0.0
 40
0.9242651249458449
 40
0.9242651249458449
 40
0.9242651249458449
 40
0.9242651249458449
 40
1.095853179809037
 40
1.243779472733291
 40
1.397011119722972
 40
1.55336319157057
 40
1.709964074651579
 40
1.870272236443196
 40
2.190564059117389
 40
2.51612165308385
 40
2.844834989681557
 40
3.010170490642
 40
3.433741361106049
 40
3.795062718559564
 40
4.156384076013079
 40
4.517705433466594
 40
4.803096995319677
 40
5.088488557172762
 40
5.387077130908893
 40
5.685665704645024
 40
5.982327788684009
 40
6.278989872722995
 40
6.57565195676198
 40
6.872314040800966
 40
7.241517648492657
 40
7.610721256184348
 40
7.897011590779721
 40
8.183301925375094
 40
8.453921848578155
 40
8.724541771781217
 40
9.083876701511235
 40
9.43167664429852
 40
9.667430175905203
 40
10.02769626272259
 40
10.02769626272259
 40
10.02769626272259
 40
10.02769626272259
 10
374.1316205389767
 20
-65.3459664706138
 30
0.0
 10
374.172313648951
 20
-65.32889652130007
 30
0.0
 10
374.2442995893273
 20
-65.29904694817287
 30
0.0
 10
374.3517308194839
 20
-65.25516299095489
 30
0.0
 10
374.4494621385999
 20
-65.21606234837549
 30
0.0
 10
374.5464889470358
 20
-65.17795326812319
 30
0.0
 10
374.6438591910726
 20
-65.14034947877843
 30
0.0
 10
374.7750825557015
 20
-65.09043542730751
 30
0.0
 10
374.9392312801266
 20
-65.02971866707128
 30
0.0
 10
375.1285011058501
 20
-64.96329178822913
 30
0.0
 10
375.2829019267231
 20
-64.91188007258438
 30
0.0
 10
375.4513478348688
 20
-64.85826839349562
 30
0.0
 10
375.6206287952741
 20
-64.80746830392161
 30
0.0
 10
375.8166881770949
 20
-64.75358370324983
 30
0.0
 10
375.9938188857982
 20
-64.70968866234847
 30
0.0
 10
376.1497279142542
 20
-64.67601900345272
 30
0.0
 10
376.2856782968229
 20
-64.65128455328937
 30
0.0
 10
376.4056708215485
 20
-64.63350221311674
 30
0.0
 10
376.5203661441046
 20
-64.62096227728404
 30
0.0
 10
376.6295270953327
 20
-64.61373195163361
 30
0.0
 10
376.7318628013454
 20
-64.6117196988717
 30
0.0
 10
376.8275152644073
 20
-64.61478310835298
 30
0.0
 10
376.9167977771125
 20
-64.62281469847414
 30
0.0
 10
377.0065681970496
 20
-64.63676252056842
 30
0.0
 10
377.0950309103086
 20
-64.65797682682705
 30
0.0
 10
377.1739359780902
 20
-64.68553513270706
 30
0.0
 10
377.239538322802
 20
-64.71599531056091
 30
0.0
 10
377.2933704387006
 20
-64.74654651529738
 30
0.0
 10
377.342006090473
 20
-64.77895990350021
 30
0.0
 10
377.3887908318788
 20
-64.81917303042758
 30
0.0
 10
377.4296655035436
 20
-64.87206638552959
 30
0.0
 10
377.4583000368845
 20
-64.93409615332672
 30
0.0
 10
377.4800424878126
 20
-65.00264795476664
 30
0.0
 10
377.4900024914729
 20
-65.04891586913055
 30
0.0
 10
377.4948416841877
 20
-65.07758170275554
 30
0.0
  0
SPLINE
  5
20F
330
207
100
AcDbEntity
  8
0
  6
Continuous
 62
     0
370
     0
100
AcDbSpline
210
0.0
220
0.0
230
1.0
 70
     8
 71
     3
 72
     8
 73
     4
 74
     0
 42
0.000000001
 43
0.0
 40
0.0
 40
0.0
 40
0.0
 40
0.0
 40
38.4318516319787
 40
38.4318516319787
 40
38.4318516319787
 40
38.4318516319787
 10
376.6518870825762
 20
-101.5483847006249
 30
0.0
 10
376.9498389473021
 20
-89.39601887828314
 30
0.0
 10
377.2193023563291
 20
-77.23596957825202
 30
0.0
 10
377.4948416841877
 20
-65.07758170275554
 30
0.0
  0
LINE
  5
210
330
207
100
AcDbEntity
  8
0
  6
Continuous
 62
     0
370
     0
100
AcDbLine
 10
373.885475
 20
-103.536111
 30
0.0
 11
373.801864
 21
-103.574517
 31
0.0
  0
SPLINE
  5
211
330
207
100
AcDbEntity
  8
0
  6
Continuous
 62
     0
370
     0
100
AcDbSpline
210
0.0
220
0.0
230
1.0
 70
     8
 71
     3
 72
     8
 73
     4
 74
     0
 42
0.000000001
 43
0.0
 40
0.0
 40
0.0
 40
0.0
 40
0.0
 40
40.811080881362
 40
40.811080881362
 40
40.811080881362
 40
40.811080881362
 10
373.8018640710617
 20
-103.5745168232199
 30
0.0
 10
373.8985710501114
 20
-90.82603236116904
 30
0.0
 10
374.0196289058591
 20
-78.08741173118551
 30
0.0
 10
374.1316900030401
 20
-65.34592374894339
 30
0.0
  0
SPLINE
  5
212
330
207
100
AcDbEntity
  8
0
  6
Continuous
 62
     0
370
     0
100
AcDbSpline
210
0.0
220
0.0
230
1.0
 70
     8
 71
     3
 72
     9
 73
     5
 74
     0
 42
0.000000001
 43
0.0
 40
0.0
 40
0.0
 40
0.0
 40
0.0
 40
13.58255074094018
 40
40.81374876582646
 40
40.81374876582646
 40
40.81374876582646
 40
40.81374876582646
 10
371.7264677033744
 20
-103.6698761059747
 30
0.0
 10
371.7584435711665
 20
-99.42855866914147
 30
0.0
 10
371.8654127456637
 20
-86.68644119891974
 30
0.0
 10
371.9901482341074
 20
-73.94769374327092
 30
0.0
 10
372.0698823794502
 20
-65.44688285647686
 30
0.0
  0
ELLIPSE
  5
213
330
207
100
AcDbEntity
  8
0
  6
Continuous
 62
     0
370
     0
100
AcDbEllipse
 10
372.928701
 20
-65.022825
 30
0.0
 11
-1.499941604243829
 21
0.01323570392728115
 31
0.0
210
0.0
220
0.0
230
1.0
 40
0.350216
 41
0.9642551964619308
 42
2.504556159726104
  0
ELLIPSE
  5
214
330
207
100
AcDbEntity
  8
0
  6
Continuous
 62
     0
370
     0
100
AcDbEllipse
 10
370.930726
 20
-107.813114
 30
0.0
 11
-0.3709132324363258
 21
-1.453417824991713
 31
0.0
210
0.0
220
0.0
230
-1.0
 40
0.584436
 41
0.0000000093912813
 42
1.141574350714881
  0
SPLINE
  5
215
330
207
100
AcDbEntity
  8
0
  6
Continuous
 62
     0
370
     0
100
AcDbSpline
210
0.0
220
0.0
230
1.0
 70
     8
 71
     3
 72
    18
 73
    14
 74
     0
 42
0.000000001
 43
0.0
 40
0.0
 40
0.0
 40
0.0
 40
0.0
 40
0.7040270164530424
 40
1.295759034053318
 40
1.633227194692992
 40
1.882695714651265
 40
2.085978384419887
 40
2.399476426375227
 40
2.76062993912089
 40
3.281803497912946
 40
3.731036026613197
 40
4.746184634738002
 40
6.511452760270865
 40
6.511452760270865
 40
6.511452760270865
 40
6.511452760270865
 10
370.0039887271816
 20
-108.2208626344459
 30
0.0
 10
370.1935191637269
 20
-108.2692309304114
 30
0.0
 10
370.5445552364249
 20
-108.3021254760453
 30
0.0
 10
370.9491184423947
 20
-108.1802477526116
 30
0.0
 10
371.2028825798535
 20
-108.0158233935641
 30
0.0
 10
371.3569294003203
 20
-107.8787039592475
 30
0.0
 10
371.4644851996874
 20
-107.6979065380452
 30
0.0
 10
371.5460600151697
 20
-107.4588436879507
 30
0.0
 10
371.6136770472789
 20
-107.1089894998533
 30
0.0
 10
371.6498791109127
 20
-106.703060034373
 30
0.0
 10
371.6771937847695
 20
-106.089477431704
 30
0.0
 10
371.7077692600413
 20
-105.0872329464169
 30
0.0
 10
371.7223119316636
 20
-104.2211026483472
 30
0.0
 10
371.7264677033744
 20
-103.6698761059748
 30
0.0
  0
SPLINE
  5
216
330
207
100
AcDbEntity
  8
0
  6
Continuous
 62
     0
370
     0
100
AcDbSpline
210
0.0
220
0.0
230
1.0
 70
     8
 71
     3
 72
    25
 73
    21
 74
     0
 42
0.000000001
 43
0.0
 40
0.0
 40
0.0
 40
0.0
 40
0.0
 40
1.235145892692358
 40
2.006058848014206
 40
2.780214246370494
 40
3.168132528337276
 40
3.76883019244176
 40
4.181684194939619
 40
4.745873156081188
 40
5.08420702685574
 40
5.419789841509303
 40
5.717410124962531
 40
5.99869121836398
 40
6.188442537829291
 40
6.274239072090314
 40
6.358435919717284
 40
6.452677978863814
 40
6.61239143561952
 40
6.727729837536588
 40
6.844539793213838
 40
6.844539793213838
 40
6.844539793213838
 40
6.844539793213838
 10
373.8018640710617
 20
-103.5745168232199
 30
0.0
 10
373.799670604365
 20
-103.863876165479
 30
0.0
 10
373.7973429819176
 20
-104.3321249512372
 30
0.0
 10
373.7957036258101
 20
-104.9770722106227
 30
0.0
 10
373.7948629691398
 20
-105.4234801488942
 30
0.0
 10
373.7938027627266
 20
-105.8295433695965
 30
0.0
 10
373.7928366639624
 20
-106.1510056264367
 30
0.0
 10
373.7899291558107
 20
-106.5271576653866
 30
0.0
 10
373.7816047747521
 20
-106.8688106845706
 30
0.0
 10
373.753873338468
 20
-107.2226458823474
 30
0.0
 10
373.7125777293786
 20
-107.5175352809619
 30
0.0
 10
373.644127808005
 20
-107.8195043192213
 30
0.0
 10
373.5454063675884
 20
-108.1015595782403
 30
0.0
 10
373.4257476132185
 20
-108.3259940005328
 30
0.0
 10
373.3218421467595
 20
-108.4734696991089
 30
0.0
 10
373.2332513472205
 20
-108.5787601235344
 30
0.0
 10
373.1253121291231
 20
-108.6867318489903
 30
0.0
 10
373.0268535175913
 20
-108.7699200255656
 30
0.0
 10
372.9287865507579
 20
-108.8447724382987
 30
0.0
 10
372.8699163102227
 20
-108.8858933092843
 30
0.0
 10
372.8392992751996
 20
-108.9062881449932
 30
0.0
  0
SPLINE
  5
217
330
207
100
AcDbEntity
  8
0
  6
Continuous
 62
     0
370
     0
100
AcDbSpline
210
0.0
220
0.0
230
1.0
 70
     8
 71
     9
 72
    25
 73
    15
 74
     0
 42
0.000000001
 43
0.0
 40
0.0
 40
0.0
 40
0.0
 40
0.0
 40
0.0
 40
0.0
 40
0.0
 40
0.0
 40
0.0
 40
0.0
 40
3.648402924025719
 40
3.648402924025719
 40
3.648402924025719
 40
3.648402924025719
 40
3.648402924025719
 40
3.965858532599424
 40
3.965858532599424
 40
3.965858532599424
 40
3.965858532599424
 40
3.965858532599424
 40
3.965858532599424
 40
3.965858532599424
 40
3.965858532599424
 40
3.965858532599424
 40
3.965858532599424
 10
376.6518870825762
 20
-101.5483847006249
 30
0.0
 10
376.6443443914085
 20
-101.8560234611311
 30
0.0
 10
376.6367887877749
 20
-102.1636586932078
 30
0.0
 10
376.625639724878
 20
-102.4703228528259
 30
0.0
 10
376.6101392586675
 20
-102.7758102364718
 30
0.0
 10
376.5878122080321
 20
-103.0791712201172
 30
0.0
 10
376.5549086646223
 20
-103.4060452048198
 30
0.0
 10
376.5100097236057
 20
-103.7282058604537
 30
0.0
 10
376.4491781555793
 20
-104.0432717458008
 30
0.0
 10
376.3664736745687
 20
-104.3450612636078
 30
0.0
 10
376.3597101337396
 20
-104.3691302413419
 30
0.0
 10
376.3528000896226
 20
-104.3931072917775
 30
0.0
 10
376.3457402367685
 20
-104.4169887047644
 30
0.0
 10
376.3385271842919
 20
-104.4407705671124
 30
0.0
 10
376.3311574575135
 20
-104.4644487495166
 30
0.0
  0
SPLINE
  5
218
330
207
100
AcDbEntity
  8
0
  6
Continuous
 62
     0
370
     0
100
AcDbSpline
210
0.0
220
0.0
230
1.0
 70
     8
 71
     3
 72
    18
 73
    14
 74
     0
 42
0.000000001
 43
0.0
 40
0.0
 40
0.0
 40
0.0
 40
0.0
 40
0.7053013782976192
 40
1.296959495443253
 40
1.634382838388779
 40
1.883610187121511
 40
2.087346532206342
 40
2.401618726294815
 40
2.763513020913489
 40
3.286720618600657
 40
3.737699336988029
 40
4.753410594080074
 40
6.511446442014064
 40
6.511446442014064
 40
6.511446442014064
 40
6.511446442014064
 10
370.0039875397328
 20
-108.220862331408
 30
0.0
 10
369.8141140367053
 20
-108.1724064183426
 30
0.0
 10
369.4650939398845
 20
-108.0264916251035
 30
0.0
 10
369.0666960933103
 20
-107.6992264749048
 30
0.0
 10
368.8177256331849
 20
-107.4064641150689
 30
0.0
 10
368.6667072292733
 20
-107.1913021037465
 30
0.0
 10
368.5597750663413
 20
-106.955351413647
 30
0.0
 10
368.4766227780707
 20
-106.6735848368806
 30
0.0
 10
368.4044831030191
 20
-106.2869151851843
 30
0.0
 10
368.361128422702
 20
-105.8592470148516
 30
0.0
 10
368.3215436580062
 20
-105.2272275048191
 30
0.0
 10
368.2702441374491
 20
-104.2056275376412
 30
0.0
 10
368.2372463326176
 20
-103.3294505637592
 30
0.0
 10
368.2210551736712
 20
-102.7752941978135
 30
0.0
  0
ELLIPSE
  5
219
330
207
100
AcDbEntity
  8
0
  6
Continuous
 62
     0
370
     0
100
AcDbEllipse
 10
369.193487
 20
-102.379706
 30
0.0
 11
1.499380430573479
 21
0.04310828706052369
 31
0.0
210
0.0
220
0.0
230
-1.0
 40
0.324437
 41
2.28577207349972
 42
3.141595709135608
  0
SPLINE
  5
21A
330
207
100
AcDbEntity
  8
0
  6
Continuous
 62
     0
370
     0
100
AcDbSpline
210
0.0
220
0.0
230
1.0
 70
     8
 71
     3
 72
    31
 73
    27
 74
     0
 42
0.000000001
 43
0.0
 40
0.0
 40
0.0
 40
0.0
 40
0.0
 40
1.944818689850858
 40
3.879518989130776
 40
5.805642800460687
 40
7.725571429675663
 40
9.642265420132297
 40
11.55909434387184
 40
13.4793174695907
 40
15.40586401667402
 40
17.34099563188875
 40
19.28673070470717
 40
23.18505413553117
 40
27.1036091078416
 40
31.02216571618501
 40
34.92075349536309
 40
36.86614307564447
 40
38.80138421432545
 40
40.72795329880143
 40
42.64816249845496
 40
44.56496741876284
 40
46.48166050162648
 40
48.40160928734618
 40
50.32774407353268
 40
52.26241633936342
 40
54.20721767921935
 40
54.20721767921935
 40
54.20721767921935
 40
54.20721767921935
 10
375.4737539431643
 20
-58.18978919919044
 30
0.0
 10
375.9004562532206
 20
-57.88455934375577
 30
0.0
 10
376.6996759418203
 20
-57.17809019980024
 30
0.0
 10
377.6838422200458
 20
-55.86610474608665
 30
0.0
 10
378.4116541564904
 20
-54.34593773512904
 30
0.0
 10
378.8499875029908
 20
-52.66626718026021
 30
0.0
 10
378.9787505673618
 20
-50.88132009163479
 30
0.0
 10
378.7908353857106
 20
-49.04841830269106
 30
0.0
 10
378.2952776297341
 20
-47.22480625614082
 30
0.0
 10
377.5144005359106
 20
-45.46455122335942
 30
0.0
 10
376.4827207915748
 20
-43.81437006336762
 30
0.0
 10
374.8298706914742
 20
-41.82207455074399
 30
0.0
 10
372.3572033108832
 20
-39.80022275216317
 30
0.0
 10
369.1717168464369
 20
-38.41861898048313
 30
0.0
 10
366.1770417185343
 20
-38.22324260707154
 30
0.0
 10
364.1094818809684
 20
-39.0858421598129
 30
0.0
 10
362.8336819453504
 20
-40.33154342695082
 30
0.0
 10
362.0764442197221
 20
-41.52457135484036
 30
0.0
 10
361.5320769737633
 20
-42.94695811535905
 30
0.0
 10
361.2078625932035
 20
-44.56129461694326
 30
0.0
 10
361.1089702803158
 20
-46.32101042647747
 30
0.0
 10
361.2367611599205
 20
-48.17142567144725
 30
0.0
 10
361.5886360894783
 20
-50.05275677403131
 30
0.0
 10
362.1588161710863
 20
-51.90419526052511
 30
0.0
 10
362.9378605453476
 20
-53.66605525452064
 30
0.0
 10
363.588000470682
 20
-54.742435825548
 30
0.0
 10
363.9425168263937
 20
-55.24702711298312
 30
0.0
  0
SPLINE
  5
21B
330
207
100
AcDbEntity
  8
0
  6
Continuous
 62
     0
370
     0
100
AcDbSpline
210
0.0
220
0.0
230
1.0
 70
     8
 71
     3
 72
    14
 73
    10
 74
     0
 42
0.000000001
 43
0.0
 40
0.0
 40
0.0
 40
0.0
 40
0.0
 40
1.404286950246861
 40
2.80180824355739
 40
4.195347073104721
 40
5.585086099230739
 40
6.97156893468318
 40
8.355744518375094
 40
9.738631114212174
 40
9.738631114212174
 40
9.738631114212174
 40
9.738631114212174
 10
363.9425171415043
 20
-55.24702747458343
 30
0.0
 10
364.1985037257159
 20
-55.61137856318095
 30
0.0
 10
364.6911889703765
 20
-56.36964310879017
 30
0.0
 10
365.3514406167026
 20
-57.58461825593304
 30
0.0
 10
365.9207821786528
 20
-58.85656184222461
 30
0.0
 10
366.3867162705483
 20
-60.16941941063584
 30
0.0
 10
366.7383936381047
 20
-61.5053790350442
 30
0.0
 10
366.9686627859677
 20
-62.84552611458838
 30
0.0
 10
367.0381461512208
 20
-63.73014018297505
 30
0.0
 10
367.0514010573827
 20
-64.16624783857537
 30
0.0
  0
SPLINE
  5
21C
330
207
100
AcDbEntity
  8
0
  6
Continuous
 62
     0
370
     0
100
AcDbSpline
210
0.0
220
0.0
230
1.0
 70
     8
 71
     3
 72
     8
 73
     4
 74
     0
 42
0.000000001
 43
0.0
 40
0.0
 40
0.0
 40
0.0
 40
0.0
 40
40.81424693084995
 40
40.81424693084995
 40
40.81424693084995
 40
40.81424693084995
 10
367.0513984677393
 20
-64.16624912384492
 30
0.0
 10
367.4426518322964
 20
-77.03745898480321
 30
0.0
 10
367.8451689009388
 20
-89.91026263516875
 30
0.0
 10
368.2210551736712
 20
-102.7752941978136
 30
0.0
  0
SPLINE
  5
21D
330
207
100
AcDbEntity
  8
0
  6
Continuous
 62
     0
370
     0
100
AcDbSpline
210
0.0
220
0.0
230
1.0
 70
     8
 71
     3
 72
    14
 73
    10
 74
     0
 42
0.000000001
 43
0.0
 40
0.0
 40
0.0
 40
0.0
 40
0.0
 40
1.382864170633273
 40
2.767013309008381
 40
4.153480982412725
 40
5.543211805218741
 40
6.936725925118182
 40
8.334218231834106
 40
9.738528679551933
 40
9.738528679551933
 40
9.738528679551933
 40
9.738528679551933
 10
372.069903757597
 20
-65.44687923241742
 30
0.0
 10
372.0739543357043
 20
-65.01519493789039
 30
0.0
 10
372.1289758614061
 20
-64.16237149314611
 30
0.0
 10
372.3510273544807
 20
-62.93767389582536
 30
0.0
 10
372.7113005854526
 20
-61.78342565405438
 30
0.0
 10
373.2073274672891
 20
-60.71605102670526
 30
0.0
 10
373.8340711298869
 20
-59.74936098406204
 30
0.0
 10
374.5851479875162
 20
-58.89454931901292
 30
0.0
 10
375.1656385322463
 20
-58.41019178662759
 30
0.0
 10
375.4737505485212
 20
-58.18979171755518
 30
0.0
  0
SPLINE
  5
21E
330
207
100
AcDbEntity
  8
0
  6
Continuous
 62
     0
370
     0
100
AcDbSpline
210
0.0
220
0.0
230
1.0
 70
     8
 71
     3
 72
     9
 73
     5
 74
     0
 42
0.000000001
 43
0.0
 40
1.017910612465503
 40
1.017910612465503
 40
1.017910612465503
 40
1.017910612465503
 40
1.523278239126404
 40
2.284846615985306
 40
2.284846615985306
 40
2.284846615985306
 40
2.284846615985306
 10
366.5435025897269
 20
-63.81345020313172
 30
0.0
 10
366.54250757061
 20
-63.86849814224716
 30
0.0
 10
366.6128106534952
 20
-64.00457448849076
 30
0.0
 10
366.8610584875192
 20
-64.1170895525292
 30
0.0
 10
367.0514010573827
 20
-64.16624783857543
 30
0.0
  0
ELLIPSE
  5
21F
330
207
100
AcDbEntity
  8
0
  6
Continuous
 62
     0
370
     0
100
AcDbEllipse
 10
365.015711
 20
-54.882204
 30
0.0
 11
1.236315964307992
 21
0.8494250033976964
 31
0.0
210
0.0
220
0.0
230
1.0
 40
0.298304
 41
2.385352671103184
 42
3.142485116115702
  0
ELLIPSE
  5
220
330
207
100
AcDbEntity
  8
0
  6
Continuous
 62
     0
370
     0
100
AcDbEllipse
 10
376.238069
 20
-57.746141
 30
0.0
 11
0.894377634733359
 21
-1.204196265767657
 31
0.0
210
0.0
220
0.0
230
-1.0
 40
0.586708
 41
0.1514798644173571
 42
1.637221832331434
  0
SPLINE
  5
221
330
207
100
AcDbEntity
  8
0
  6
Continuous
 62
     0
370
     0
100
AcDbSpline
210
0.0
220
0.0
230
1.0
 70
     8
 71
     9
 72
    35
 73
    25
 74
     0
 42
0.000000001
 43
0.0
 40
0.2499999949532693
 40
0.2499999949532693
 40
0.2499999949532693
 40
0.2499999949532693
 40
0.2499999949532693
 40
0.2499999949532693
 40
0.2499999949532693
 40
0.2499999949532693
 40
0.2499999949532693
 40
0.2499999949532693
 40
0.37499999475916
 40
0.37499999475916
 40
0.37499999475916
 40
0.37499999475916
 40
0.37499999475916
 40
0.499999995807328
 40
0.499999995807328
 40
0.499999995807328
 40
0.499999995807328
 40
0.499999995807328
 40
0.749999997903664
 40
0.749999997903664
 40
0.749999997903664
 40
0.749999997903664
 40
0.749999997903664
 40
0.8310317690527375
 40
0.8310317690527375
 40
0.8310317690527375
 40
0.8310317690527375
 40
0.8310317690527375
 40
0.8310317690527375
 40
0.8310317690527375
 40
0.8310317690527375
 40
0.8310317690527375
 40
0.8310317690527375
 10
376.6518870825762
 20
-101.5483847006249
 30
0.0
 10
376.6254128071399
 20
-101.6001702973815
 30
0.0
 10
376.5915722752087
 20
-101.65159942154
 30
0.0
 10
376.5512100108717
 20
-101.7025715537512
 30
0.0
 10
376.5050963774481
 20
-101.753034591111
 30
0.0
 10
376.4637399211129
 20
-101.8037709884048
 30
0.0
 10
376.3755553009927
 20
-101.9049239937628
 30
0.0
 10
376.2813006773592
 20
-102.0055162630994
 30
0.0
 10
376.1803674043629
 20
-102.1054311578162
 30
0.0
 10
376.072267579174
 20
-102.2045438058097
 30
0.0
 10
376.016374460484
 20
-102.2538837224974
 30
0.0
 10
375.8430441028038
 20
-102.4012071084832
 30
0.0
 10
375.6525070280899
 20
-102.5463052023904
 30
0.0
 10
375.444342147615
 20
-102.6887967103755
 30
0.0
 10
375.2191181012802
 20
-102.8284103780885
 30
0.0
 10
375.0664874309383
 20
-102.9209436163913
 30
0.0
 10
374.8576942254568
 20
-103.042299323191
 30
0.0
 10
374.6401278454996
 20
-103.1619401243763
 30
0.0
 10
374.4139309201975
 20
-103.2797744900221
 30
0.0
 10
374.179409051145
 20
-103.3957512233538
 30
0.0
 10
374.1217602374387
 20
-103.4240914716839
 30
0.0
 10
374.0636686272588
 20
-103.4523308796781
 30
0.0
 10
374.004915466673
 20
-103.4804132048672
 30
0.0
 10
373.9454771404122
 20
-103.5083305535338
 30
0.0
 10
373.885475373682
 20
-103.5361113828225
 30
0.0
  0
ELLIPSE
  5
222
330
207
100
AcDbEntity
  8
0
  6
Continuous
 62
     0
370
     0
100
AcDbEllipse
 10
372.606075
 20
-103.250599
 30
0.0
 11
1.499962906296068
 21
-0.01054892107527523
 31
0.0
210
0.0
220
0.0
230
-1.0
 40
0.349542
 41
0.6456783587093664
 42
2.194967008197434
  0
SPLINE
  5
223
330
207
100
AcDbEntity
  8
0
  6
Continuous
 62
     0
370
     0
100
AcDbSpline
210
0.0
220
0.0
230
1.0
 70
     8
 71
     9
 72
    20
 73
    10
 74
     0
 42
0.000000001
 43
0.0
 40
0.1608646143617591
 40
0.1608646143617591
 40
0.1608646143617591
 40
0.1608646143617591
 40
0.1608646143617591
 40
0.1608646143617591
 40
0.1608646143617591
 40
0.1608646143617591
 40
0.1608646143617591
 40
0.1608646143617591
 40
0.2499999949532693
 40
0.2499999949532693
 40
0.2499999949532693
 40
0.2499999949532693
 40
0.2499999949532693
 40
0.2499999949532693
 40
0.2499999949532693
 40
0.2499999949532693
 40
0.2499999949532693
 40
0.2499999949532693
 10
376.6600659308967
 20
-101.214505904608
 30
0.0
 10
376.679934413888
 20
-101.2509769351488
 30
0.0
 10
376.6940488675174
 20
-101.2878635738343
 30
0.0
 10
376.7025456640617
 20
-101.3250338508175
 30
0.0
 10
376.7056548755695
 20
-101.3623636789728
 30
0.0
 10
376.7036825655591
 20
-101.3997457124644
 30
0.0
 10
376.6969789879096
 20
-101.4370950676942
 30
0.0
 10
376.685898147897
 20
-101.4743485751276
 30
0.0
 10
376.6707654397487
 20
-101.511457268629
 30
0.0
 10
376.6518870825762
 20
-101.5483847006249
 30
0.0
  0
ELLIPSE
  5
224
330
207
100
AcDbEntity
  8
0
  6
Continuous
 62
     0
370
     0
100
AcDbEllipse
 10
390.117696
 20
-39.820075
 30
0.0
 11
12.00148554713509
 21
-27.27644303211841
 31
0.0
210
0.0
220
0.0
230
1.0
 40
0.737842
 41
5.230590937003686
 42
8.900828550906109
  0
ELLIPSE
  5
225
330
207
100
AcDbEntity
  8
0
  6
Continuous
 62
     0
370
     0
100
AcDbEllipse
 10
390.117696
 20
-39.820075
 30
0.0
 11
12.00148554713509
 21
-27.27644303211841
 31
0.0
210
0.0
220
0.0
230
1.0
 40
0.737842
 41
2.617643243726523
 42
4.27953520651779
  0
ELLIPSE
  5
226
330
207
100
AcDbEntity
  8
0
  6
Continuous
 62
     0
370
     0
100
AcDbEllipse
 10
390.241259
 20
-39.765708
 30
0.0
 11
12.08203243121005
 21
-27.45950641091902
 31
0.0
210
0.0
220
0.0
230
1.0
 40
0.737842
 41
6.28318503023876
 42
8.900828550906173
  0
ELLIPSE
  5
227
330
207
100
AcDbEntity
  8
0
  6
Continuous
 62
     0
370
     0
100
AcDbEllipse
 10
390.241259
 20
-39.765708
 30
0.0
 11
12.08203243121005
 21
-27.45950641091902
 31
0.0
210
0.0
220
0.0
230
1.0
 40
0.737842
 41
2.617643243726588
 42
3.141592660731224
  0
ELLIPSE
  5
228
330
207
100
AcDbEntity
  8
0
  6
Continuous
 62
     0
370
    30
100
AcDbEllipse
 10
393.639238
 20
-38.270616
 30
0.0
 11
12.08203243121004
 21
-27.459506410919
 31
0.0
210
0.0
220
0.0
230
1.0
 40
0.737842
 41
0.0000000035048817
 42
2.617643243726596
  0
ELLIPSE
  5
229
330
207
100
AcDbEntity
  8
0
  6
Continuous
 62
     0
370
    30
100
AcDbEllipse
 10
393.639238
 20
-38.270616
 30
0.0
 11
12.08203243121004
 21
-27.459506410919
 31
0.0
210
0.0
220
0.0
230
1.0
 40
0.737842
 41
2.617643243726597
 42
3.141592657094674
  0
SPLINE
  5
22A
330
207
100
AcDbEntity
  8
0
  6
Continuous
 62
     0
370
    30
100
AcDbSpline
210
0.0
220
0.0
230
1.0
 70
     8
 71
     3
 72
     9
 73
     5
 74
     0
 42
0.000000001
 43
0.0
 40
0.0
 40
0.0
 40
0.0
 40
0.0
 40
22.49052840660123
 40
40.81203045840122
 40
40.81203045840122
 40
40.81203045840122
 40
40.81203045840122
 10
367.6941063069947
 20
-102.4228143985688
 30
0.0
 10
367.4903134353553
 20
-95.33454751377184
 30
0.0
 10
367.1058638072473
 20
-82.46760599555915
 30
0.0
 10
366.7165152487023
 20
-69.59810690598283
 30
0.0
 10
366.5437791083734
 20
-63.82093514687159
 30
0.0
  0
SPLINE
  5
22B
330
207
100
AcDbEntity
  8
0
  6
Continuous
 62
     0
370
    30
100
AcDbSpline
210
0.0
220
0.0
230
1.0
 70
     8
 71
     3
 72
    18
 73
    14
 74
     0
 42
0.000000001
 43
0.0
 40
0.0
 40
0.0
 40
0.0
 40
0.0
 40
1.416341520045603
 40
3.527934237215699
 40
6.102642852395785
 40
8.709356079473165
 40
10.79352789399316
 40
12.80145529778567
 40
15.8198676056576
 40
18.47348684525354
 40
19.94429402516877
 40
21.88089461422276
 40
23.34291943998612
 40
23.34291943998612
 40
23.34291943998612
 40
23.34291943998612
 10
363.7793952719298
 20
-55.73162849721484
 30
0.0
 10
363.5220852175176
 20
-55.35712144270798
 30
0.0
 10
362.9186763163668
 20
-54.38504499460561
 30
0.0
 10
362.0458855537335
 20
-52.56656270625882
 30
0.0
 10
361.2877746217325
 20
-50.24380541917822
 30
0.0
 10
360.8627528565976
 20
-47.86766263944844
 30
0.0
 10
360.7564316699398
 20
-45.71432265493922
 30
0.0
 10
360.9129938618467
 20
-43.52534367564596
 30
0.0
 10
361.4434244369695
 20
-41.35858963012737
 30
0.0
 10
362.328757864758
 20
-39.64023685362605
 30
0.0
 10
363.3245666836203
 20
-38.41620807779537
 30
0.0
 10
364.2815756997403
 20
-37.61227670476507
 30
0.0
 10
365.0437857519696
 20
-37.19604144662395
 30
0.0
 10
365.3851125370599
 20
-37.0458324501065
 30
0.0
  0
SPLINE
  5
22C
330
207
100
AcDbEntity
  8
0
  6
Continuous
 62
     0
370
    30
100
AcDbSpline
210
0.0
220
0.0
230
1.0
 70
     8
 71
     3
 72
    11
 73
     7
 74
     0
 42
0.000000001
 43
0.0
 40
0.0
 40
0.0
 40
0.0
 40
0.0
 40
1.865783126044535
 40
4.558365151417807
 40
7.002371568171696
 40
8.842143253155253
 40
8.842143253155253
 40
8.842143253155253
 40
8.842143253155253
 10
366.5437288604321
 20
-63.82094239671477
 30
0.0
 10
366.5263988337499
 20
-63.24125578099836
 30
0.0
 10
366.382535282114
 20
-61.78728085791761
 30
0.0
 10
365.7874354729325
 20
-59.52755269047213
 30
0.0
 10
364.8335681661574
 20
-57.39523575304219
 30
0.0
 10
364.1075561019122
 20
-56.20925618221173
 30
0.0
 10
363.7793956316793
 20
-55.73162931882825
 30
0.0
  0
SPLINE
  5
22D
330
207
100
AcDbEntity
  8
0
  6
Continuous
 62
     0
370
    30
100
AcDbSpline
210
0.0
220
0.0
230
1.0
 70
     8
 71
     3
 72
    13
 73
     9
 74
     0
 42
0.000000001
 43
0.0
 40
0.0
 40
0.0
 40
0.0
 40
0.0
 40
0.5946348199978497
 40
1.189300279869024
 40
1.833639389603247
 40
2.467124295487586
 40
2.946651092039199
 40
3.213876129817425
 40
3.213876129817425
 40
3.213876129817425
 40
3.213876129817425
 10
376.3311200048223
 20
-104.4645685836675
 30
0.0
 10
376.3898568463929
 20
-104.2758641685898
 30
0.0
 10
376.4905847076809
 20
-103.8911276864988
 30
0.0
 10
376.5931716214861
 20
-103.2980397583743
 30
0.0
 10
376.6533037988216
 20
-102.6947276504625
 30
0.0
 10
376.6798909918729
 20
-102.1347299022826
 30
0.0
 10
376.6921630772006
 20
-101.6966955972587
 30
0.0
 10
376.6976542981031
 20
-101.4591169592442
 30
0.0
 10
376.6999812905061
 20
-101.3749444482846
 30
0.0
  0
SPLINE
  5
22E
330
207
100
AcDbEntity
  8
0
  6
Continuous
 62
     0
370
    30
100
AcDbSpline
210
0.0
220
0.0
230
1.0
 70
     8
 71
     3
 72
    25
 73
    21
 74
     0
 42
0.000000001
 43
0.0
 40
0.0
 40
0.0
 40
0.0
 40
0.0
 40
0.5461262325592627
 40
1.008379356445233
 40
1.531786332321232
 40
1.916386356570682
 40
2.292123052709712
 40
2.411699431732351
 40
2.655138452882515
 40
2.794837365513691
 40
3.073863418627614
 40
3.292243017738919
 40
3.757885682061896
 40
4.169705270046433
 40
4.772612964774883
 40
5.415056667046054
 40
5.822406800728927
 40
6.627101937707859
 40
7.030151889211121
 40
8.371029556310948
 40
8.371029556310948
 40
8.371029556310948
 40
8.371029556310948
 10
370.559811559292
 20
-109.2665318074179
 30
0.0
 10
370.395961201142
 20
-109.2247170235922
 30
0.0
 10
370.0969413974677
 20
-109.1238939411753
 30
0.0
 10
369.6629924466063
 20
-108.9050329508015
 30
0.0
 10
369.3011528160321
 20
-108.6553929500144
 30
0.0
 10
368.9890993839027
 20
-108.379453770095
 30
0.0
 10
368.7931811206506
 20
-108.1688403482948
 30
0.0
 10
368.6385953750861
 20
-107.9825123182037
 30
0.0
 10
368.5377985154039
 20
-107.8514328564266
 30
0.0
 10
368.4126489227513
 20
-107.6712130263514
 30
0.0
 10
368.3033512475646
 20
-107.4891886322399
 30
0.0
 10
368.1639131064489
 20
-107.1998320663248
 30
0.0
 10
368.0424002793376
 20
-106.8542485596803
 30
0.0
 10
367.9302684877003
 20
-106.3755869872102
 30
0.0
 10
367.8549199431637
 20
-105.8366364767194
 30
0.0
 10
367.8172980206637
 20
-105.3057597381795
 30
0.0
 10
367.7848488637413
 20
-104.7166490394854
 30
0.0
 10
367.7599458345169
 20
-104.2044611873205
 30
0.0
 10
367.7253923249543
 20
-103.3973047898671
 30
0.0
 10
367.706274156628
 20
-102.8460331549592
 30
0.0
 10
367.6941063067976
 20
-102.4228143917092
 30
0.0
  0
SPLINE
  5
22F
330
207
100
AcDbEntity
  8
0
  6
Continuous
 62
     0
370
    30
100
AcDbSpline
210
0.0
220
0.0
230
1.0
 70
     8
 71
     3
 72
    23
 73
    19
 74
     0
 42
0.000000001
 43
0.0
 40
0.0
 40
0.0
 40
0.0
 40
0.0
 40
0.4448698089873037
 40
0.6355127987023647
 40
0.9921078369796662
 40
1.342456626333993
 40
1.668191105420014
 40
2.120075522035187
 40
2.714834128921015
 40
3.317989933275999
 40
4.215842631012873
 40
4.81197779828927
 40
5.406987340625205
 40
5.705256915226027
 40
6.003102779542184
 40
6.300594689104726
 40
6.671063581026202
 40
7.041162919724431
 40
7.041162919724431
 40
7.041162919724431
 40
7.041162919724431
 10
376.331159180408
 20
-104.4644432140173
 30
0.0
 10
376.2871852716294
 20
-104.6057276637093
 30
0.0
 10
376.2174984302546
 20
-104.8055972463196
 30
0.0
 10
376.0977608990015
 20
-105.1054705303738
 30
0.0
 10
375.984719895608
 20
-105.3631263617157
 30
0.0
 10
375.8476927024335
 20
-105.6469714255321
 30
0.0
 10
375.6879759128732
 20
-105.9482186344826
 30
0.0
 10
375.4822770427656
 20
-106.2976917215773
 30
0.0
 10
375.2152332681472
 20
-106.6943921744001
 30
0.0
 10
374.8544889810713
 20
-107.1588969345641
 30
0.0
 10
374.467624796538
 20
-107.5821185565751
 30
0.0
 10
374.0762167738662
 20
-107.9543960089571
 30
0.0
 10
373.7990866176631
 20
-108.1934806622302
 30
0.0
 10
373.5764913492545
 20
-108.3733352912512
 30
0.0
 10
373.4101313568012
 20
-108.501967490056
 30
0.0
 10
373.2301806553062
 20
-108.6356255822505
 30
0.0
 10
373.0446187617086
 20
-108.7667924778394
 30
0.0
 10
372.9012472492087
 20
-108.8665891770006
 30
0.0
 10
372.8392954065735
 20
-108.9062906241829
 30
0.0
  0
SPLINE
  5
230
330
207
100
AcDbEntity
  8
0
  6
Continuous
 62
     0
370
    30
100
AcDbSpline
210
0.0
220
0.0
230
1.0
 70
     8
 71
     3
 72
    15
 73
    11
 74
     0
 42
0.000000001
 43
0.0
 40
0.0
 40
0.0
 40
0.0
 40
0.0
 40
0.6225103269874097
 40
1.126861274858941
 40
1.438606956690349
 40
1.645502014526743
 40
1.854065026325836
 40
2.065771611443925
 40
2.28733789423502
 40
2.556906087740137
 40
2.556906087740137
 40
2.556906087740137
 40
2.556906087740137
 10
370.5598132055623
 20
-109.2665322275476
 30
0.0
 10
370.7465261482242
 20
-109.3141814999347
 30
0.0
 10
371.0922838356413
 20
-109.3712798058999
 30
0.0
 10
371.5411233162967
 20
-109.3648657742989
 30
0.0
 10
371.8550349686441
 20
-109.316637048552
 30
0.0
 10
372.0742147975919
 20
-109.2630827031271
 30
0.0
 10
372.2602811676544
 20
-109.2031699833475
 30
0.0
 10
372.4455155973343
 20
-109.1278078437679
 30
0.0
 10
372.6404869719235
 20
-109.0309210138445
 30
0.0
 10
372.7709923809668
 20
-108.9518101213182
 30
0.0
 10
372.8397463787663
 20
-108.9059902490209
 30
0.0
  0
SPLINE
  5
231
330
207
100
AcDbEntity
  8
0
  6
Continuous
 62
     0
370
    30
100
AcDbSpline
210
0.0
220
0.0
230
1.0
 70
     8
 71
     3
 72
     9
 73
     5
 74
     0
 42
0.000000001
 43
0.0
 40
0.0
 40
0.0
 40
0.0
 40
0.0
 40
21.93144286177709
 40
38.03276460758011
 40
38.03276460758011
 40
38.03276460758011
 40
38.03276460758011
 10
377.5096958194903
 20
-65.30338228295977
 30
0.0
 10
377.3580592475954
 20
-72.23073437432578
 30
0.0
 10
377.1040159477432
 20
-84.24553953180788
 30
0.0
 10
376.8267048112994
 20
-96.27738122480326
 30
0.0
 10
376.6999797116308
 20
-101.3750114700246
 30
0.0
  0
ARC
  5
232
330
207
100
AcDbEntity
  8
0
  6
Continuous
 62
     0
370
    30
100
AcDbCircle
 10
387.166302
 20
-65.02073
 30
0.0
 40
9.377950067394599
100
AcDbArc
 50
113.766565
 51
117.176654
  0
SPLINE
  5
233
330
207
100
AcDbEntity
  8
0
  6
Continuous
 62
     0
370
    30
100
AcDbSpline
210
0.0
220
0.0
230
1.0
 70
     8
 71
     3
 72
    16
 73
    12
 74
     0
 42
0.000000001
 43
0.0
 40
0.0
 40
0.0
 40
0.0
 40
0.0
 40
1.262833546079368
 40
3.413600488280155
 40
4.48166432607936
 40
5.543797392677824
 40
7.470248020727306
 40
8.333755449162643
 40
9.521818806198782
 40
10.09320903340982
 40
10.79786354883095
 40
10.79786354883095
 40
10.79786354883095
 40
10.79786354883095
 10
377.5096874682063
 20
-65.3031994296415
 30
0.0
 10
377.5188830073749
 20
-64.88329202438172
 30
0.0
 10
377.615539458467
 20
-63.74857068510897
 30
0.0
 10
377.9950597113814
 20
-62.2978989230171
 30
0.0
 10
378.5722416437026
 20
-60.99451527044891
 30
0.0
 10
379.246671272889
 20
-59.82552893032977
 30
0.0
 10
380.0468678896959
 20
-58.82177806381702
 30
0.0
 10
381.0001367467468
 20
-57.91819252882271
 30
0.0
 10
381.6820693716422
 20
-57.39333541445586
 30
0.0
 10
382.3479821094827
 20
-56.96709946062299
 30
0.0
 10
382.6959941383968
 20
-56.77407770996518
 30
0.0
 10
382.8830605964449
 20
-56.67808140511875
 30
0.0
  0
LINE
  5
234
330
207
100
AcDbEntity
  8
0
  6
Continuous
 62
     0
370
    30
100
AcDbLine
 10
365.385257
 20
-37.04574
 30
0.0
 11
384.527483
 21
-28.623265
 31
0.0
  0
LINE
  5
235
330
207
100
AcDbEntity
  8
0
  6
Continuous
 62
     0
370
    30
100
AcDbLine
 10
383.387547
 20
-56.437777
 30
0.0
 11
394.595843
 21
-51.506187
 31
0.0
  0
LINE
  5
236
330
207
100
AcDbEntity
  8
0
  6
Continuous
 62
     0
370
    30
100
AcDbLine
 10
378.159227
 20
-12.306201
 30
0.0
 11
381.557206
 21
-10.811109
 31
0.0
  0
LINE
  5
237
330
207
100
AcDbEntity
  8
0
  6
Continuous
 62
     0
370
    30
100
AcDbLine
 10
402.323292
 20
-67.225214
 30
0.0
 11
405.721271
 21
-65.730122
 31
0.0
  0
SPLINE
  5
238
330
207
100
AcDbEntity
  8
0
  6
Continuous
 62
     0
370
    30
100
AcDbSpline
210
0.0
220
0.0
230
1.0
 70
     8
 71
     3
 72
    15
 73
    11
 74
     0
 42
0.000000001
 43
0.0
 40
59.97092994198717
 40
59.97092994198717
 40
59.97092994198717
 40
59.97092994198717
 40
64.06948284935115
 40
70.5434132154718
 40
76.73554368203233
 40
80.9568792833757
 40
83.37484989952277
 40
90.09072769243078
 40
92.63163034590642
 40
94.15620792296349
 40
94.15620792296349
 40
94.15620792296349
 40
94.15620792296349
 10
366.7442722255533
 20
-36.44778072436155
 30
0.0
 10
366.6293046558723
 20
-35.14138853852664
 30
0.0
 10
366.520993024959
 20
-31.7978955865259
 30
0.0
 10
367.1279171159902
 20
-26.73234654113207
 30
0.0
 10
368.6526243634793
 20
-22.14555646440982
 30
0.0
 10
370.3411447683882
 20
-19.10675218820842
 30
0.0
 10
372.4226518106112
 20
-16.28886364612117
 30
0.0
 10
374.6111433437252
 20
-14.2725810977862
 30
0.0
 10
376.9077093835299
 20
-12.89471429567038
 30
0.0
 10
377.814138880297
 20
-12.45803812566578
 30
0.0
 10
378.1592264662732
 20
-12.30620147383951
 30
0.0
  0
SPLINE
  5
239
330
207
100
AcDbEntity
  8
0
  6
Continuous
 62
     0
370
    30
100
AcDbSpline
210
0.0
220
0.0
230
1.0
 70
     8
 71
     3
 72
    13
 73
     9
 74
     0
 42
0.000000001
 43
0.0
 40
0.0
 40
0.0
 40
0.0
 40
0.0
 40
3.423303566531243
 40
8.884828738911336
 40
13.41079527330387
 40
18.97566901405591
 40
25.52333177700857
 40
31.58891784498068
 40
31.58891784498068
 40
31.58891784498068
 40
31.58891784498068
 10
402.3232915443968
 20
-67.22521420076924
 30
0.0
 10
401.5487727776818
 20
-67.56599822062424
 30
0.0
 10
399.4682581609528
 20
-68.29568154658284
 30
0.0
 10
396.1152370188865
 20
-68.76672538172659
 30
0.0
 10
392.0665861944281
 20
-68.47673401954489
 30
0.0
 10
387.67345592303
 20
-67.27199993388848
 30
0.0
 10
382.9714318089106
 20
-64.83252278337005
 30
0.0
 10
379.9273421009334
 20
-62.40620661043289
 30
0.0
 10
378.543514548091
 20
-61.09383081844287
 30
0.0
  0
ELLIPSE
  5
23A
330
207
100
AcDbEntity
  8
0
  6
Continuous
 62
     0
370
     0
100
AcDbEllipse
 10
387.989129
 20
-154.271423
 30
0.0
 11
8.457422701846557
 21
-19.22165448764222
 31
0.0
210
0.0
220
0.0
230
1.0
 40
0.737842
 41
0.4151463412685432
 42
2.726446319331011
  0
ELLIPSE
  5
23B
330
207
100
AcDbEntity
  8
0
  6
Continuous
 62
     0
370
    30
100
AcDbEllipse
 10
386.475136
 20
-154.937572
 30
0.0
 11
8.860157116220144
 21
-20.13697136800601
 31
0.0
210
0.0
220
0.0
230
1.0
 40
0.737842
 41
0.0000000035048817
 42
3.141592657094673
  0
ELLIPSE
  5
23C
330
207
100
AcDbEntity
  8
0
  6
Continuous
 62
     0
370
    30
100
AcDbEllipse
 10
355.893322
 20
-168.393403
 30
0.0
 11
8.860157116220135
 21
-20.13697136800599
 31
0.0
210
0.0
220
0.0
230
1.0
 40
0.737842
 41
0.0
 42
6.283185307179586
  0
ELLIPSE
  5
23D
330
207
100
AcDbEntity
  8
0
  6
Continuous
 62
     0
370
    30
100
AcDbEllipse
 10
355.584415
 20
-168.52932
 30
0.0
 11
8.658789909033318
 21
-19.67931292782405
 31
0.0
210
0.0
220
0.0
230
1.0
 40
0.737842
 41
0.0
 42
6.283185307179586
  0
ELLIPSE
  5
23E
330
207
100
AcDbEntity
  8
0
  6
Continuous
 62
     0
370
    30
100
AcDbEllipse
 10
360.821899
 20
-138.006971
 30
0.0
 11
-3.449771929120062
 21
-0.03966909445991159
 31
0.0
210
0.0
220
0.0
230
1.0
 40
0.337692
 41
0.0
 42
6.283185307179586
  0
ELLIPSE
  5
23F
330
207
100
AcDbEntity
  8
0
  6
Continuous
 62
     0
370
    30
100
AcDbEllipse
 10
360.827311
 20
-138.477568
 30
0.0
 11
-3.949738875369345
 21
-0.04541823858453645
 31
0.0
210
0.0
220
0.0
230
1.0
 40
0.337692
 41
5.916239048741966
 42
9.79172423536078
  0
SPLINE
  5
240
330
207
100
AcDbEntity
  8
0
  6
Continuous
 62
     0
370
    30
100
AcDbSpline
210
0.0
220
0.0
230
1.0
 70
     8
 71
     3
 72
    17
 73
    13
 74
     0
 42
0.000000001
 43
0.0
 40
8.86661681427605
 40
8.86661681427605
 40
8.86661681427605
 40
8.86661681427605
 40
9.905522128837482
 40
11.51907905334415
 40
13.13217674187914
 40
14.76638620431957
 40
16.39832183530182
 40
18.00830472342004
 40
19.54948411969339
 40
20.44116957214131
 40
21.18588139136671
 40
21.30222637551379
 40
21.30222637551379
 40
21.30222637551379
 40
21.30222637551379
 10
356.9594406150186
 20
-145.6277517479288
 30
0.0
 10
356.9604502298853
 20
-145.7155513726369
 30
0.0
 10
357.0778761485782
 20
-145.9339167041462
 30
0.0
 10
357.7306712656348
 20
-146.263732141803
 30
0.0
 10
359.0036193996085
 20
-146.6000378635097
 30
0.0
 10
360.5974257200897
 20
-146.8434879118231
 30
0.0
 10
362.2373004363056
 20
-146.9047771439318
 30
0.0
 10
363.6338739904945
 20
-146.7088537021093
 30
0.0
 10
364.4473125528367
 20
-146.3182539124344
 30
0.0
 10
364.7869859074924
 20
-145.9155117839852
 30
0.0
 10
364.8561638045926
 20
-145.6736778353473
 30
0.0
 10
364.858925456169
 20
-145.5535005775571
 30
0.0
 10
364.8587305536595
 20
-145.5372482304473
 30
0.0
  0
ELLIPSE
  5
241
330
207
100
AcDbEntity
  8
0
  6
Continuous
 62
     0
370
     0
100
AcDbEllipse
 10
388.764223
 20
-153.930386
 30
0.0
 11
25.98251798028986
 21
-59.05191226010742
 31
0.0
210
0.0
220
0.0
230
1.0
 40
0.737842
 41
4.985628422950451
 42
8.900828550906175
  0
ELLIPSE
  5
242
330
207
100
AcDbEntity
  8
0
  6
Continuous
 62
     0
370
     0
100
AcDbEllipse
 10
388.764223
 20
-153.930386
 30
0.0
 11
25.98251798028986
 21
-59.05191226010742
 31
0.0
210
0.0
220
0.0
230
1.0
 40
0.737842
 41
3.038026396250913
 42
4.439149544828691
  0
ELLIPSE
  5
243
330
207
100
AcDbEntity
  8
0
  6
Continuous
 62
     0
370
     0
100
AcDbEllipse
 10
388.764223
 20
-153.930386
 30
0.0
 11
25.98251798028986
 21
-59.05191226010742
 31
0.0
210
0.0
220
0.0
230
1.0
 40
0.737842
 41
2.617643243726589
 42
2.839382329770925
  0
ELLIPSE
  5
244
330
207
100
AcDbEntity
  8
0
  6
Continuous
 62
     0
370
     0
100
AcDbEllipse
 10
389.072986
 20
-153.794532
 30
0.0
 11
26.17773693428679
 21
-59.49559722365413
 31
0.0
210
0.0
220
0.0
230
1.0
 40
0.737842
 41
6.283185156969165
 42
8.900828550906173
  0
ELLIPSE
  5
245
330
207
100
AcDbEntity
  8
0
  6
Continuous
 62
     0
370
     0
100
AcDbEllipse
 10
389.072986
 20
-153.794532
 30
0.0
 11
26.17773693428679
 21
-59.49559722365413
 31
0.0
210
0.0
220
0.0
230
1.0
 40
0.737842
 41
3.041578215973181
 42
3.141593098087683
  0
ELLIPSE
  5
246
330
207
100
AcDbEntity
  8
0
  6
Continuous
 62
     0
370
     0
100
AcDbEllipse
 10
389.072986
 20
-153.794532
 30
0.0
 11
26.17773693428679
 21
-59.49559722365413
 31
0.0
210
0.0
220
0.0
230
1.0
 40
0.737842
 41
2.617643243726589
 42
2.843531021138626
  0
ELLIPSE
  5
247
330
207
100
AcDbEntity
  8
0
  6
Continuous
 62
     0
370
    30
100
AcDbEllipse
 10
394.642642
 20
-151.343914
 30
0.0
 11
26.17773693428679
 21
-59.49559722365414
 31
0.0
210
0.0
220
0.0
230
1.0
 40
0.737842
 41
0.0000000035048817
 42
2.617643243726586
  0
ELLIPSE
  5
248
330
207
100
AcDbEntity
  8
0
  6
Continuous
 62
     0
370
    30
100
AcDbEllipse
 10
394.642642
 20
-151.343914
 30
0.0
 11
26.17773693428679
 21
-59.49559722365414
 31
0.0
210
0.0
220
0.0
230
1.0
 40
0.737842
 41
2.617643243726586
 42
2.956621414620182
  0
LINE
  5
249
330
207
100
AcDbEntity
  8
0
  6
Continuous
 62
     0
370
    30
100
AcDbLine
 10
362.895249
 20
-94.298935
 30
0.0
 11
367.39885
 21
-92.317375
 31
0.0
  0
LINE
  5
24A
330
207
100
AcDbEntity
  8
0
  6
Continuous
 62
     0
370
    30
100
AcDbLine
 10
415.250723
 20
-213.290129
 30
0.0
 11
420.820379
 21
-210.839511
 31
0.0
  0
SPLINE
  5
24B
330
207
100
AcDbEntity
  8
0
  6
Continuous
 62
     0
370
    30
100
AcDbSpline
210
0.0
220
0.0
230
1.0
 70
     8
 71
     3
 72
    12
 73
     8
 74
     0
 42
0.000000001
 43
0.0
 40
119.3789837679072
 40
119.3789837679072
 40
119.3789837679072
 40
119.3789837679072
 40
132.6699571687669
 40
152.1868798458658
 40
174.1417793858441
 40
192.6655002479098
 40
203.9653272388103
 40
203.9653272388103
 40
203.9653272388103
 40
203.9653272388103
 10
339.6978985558144
 20
-156.7388080169097
 30
0.0
 10
338.770398219106
 20
-152.4787319182088
 30
0.0
 10
337.3301992482511
 20
-141.9117297567061
 30
0.0
 10
338.5709578423824
 20
-124.9698513006138
 30
0.0
 10
344.8749926018658
 20
-109.1360285285305
 30
0.0
 10
353.9257099471383
 20
-99.19727813622512
 30
0.0
 10
360.3384877743313
 20
-95.42389599446665
 30
0.0
 10
362.8952489460218
 20
-94.29893505983216
 30
0.0
  0
SPLINE
  5
24C
330
207
100
AcDbEntity
  8
0
  6
Continuous
 62
     0
370
    30
100
AcDbSpline
210
0.0
220
0.0
230
1.0
 70
     8
 71
     3
 72
    13
 73
     9
 74
     0
 42
0.000000001
 43
0.0
 40
0.0
 40
0.0
 40
0.0
 40
0.0
 40
8.168852944420898
 40
23.21521502299508
 40
40.48636909179965
 40
59.51089701864309
 40
76.57557376119085
 40
84.58525411972941
 40
84.58525411972941
 40
84.58525411972941
 40
84.58525411972941
 10
415.2507232023858
 20
-213.2901293365148
 30
0.0
 10
413.4013143020092
 20
-214.1038591343
 30
0.0
 10
407.9417903577806
 20
-215.971134285909
 30
0.0
 10
397.6664576535777
 20
-216.9228517075193
 30
0.0
 10
384.052318991766
 20
-213.9981824288717
 30
0.0
 10
370.2671998609453
 20
-206.3673849705448
 30
0.0
 10
360.0835940941618
 20
-196.8046347597781
 30
0.0
 10
355.0607339190066
 20
-190.355254844022
 30
0.0
 10
353.5458082485358
 20
-188.2083799785165
 30
0.0
  0
LINE
  5
24D
330
207
100
AcDbEntity
  8
0
  6
Continuous
 62
     0
370
    30
100
AcDbLine
 10
395.335293
 20
-175.074543
 30
0.0
 11
364.753479
 21
-188.530374
 31
0.0
  0
LINE
  5
24E
330
207
100
AcDbEntity
  8
0
  6
Continuous
 62
     0
370
    30
100
AcDbLine
 10
356.939376
 20
-143.897753
 30
0.0
 11
347.033165
 21
-148.256431
 31
0.0
  0
LINE
  5
24F
330
207
100
AcDbEntity
  8
0
  6
Continuous
 62
     0
370
    30
100
AcDbLine
 10
377.614979
 20
-134.800601
 30
0.0
 11
364.800127
 21
-140.439065
 31
0.0
  0
SPLINE
  5
250
330
207
100
AcDbEntity
  8
0
  6
Continuous
 62
     0
370
    30
100
AcDbSpline
210
0.0
220
0.0
230
1.0
 70
     8
 71
     3
 72
    19
 73
    15
 74
     0
 42
0.000000001
 43
0.0
 40
8.43113059746899
 40
8.43113059746899
 40
8.43113059746899
 40
8.43113059746899
 40
9.040459241750273
 40
13.27697072607111
 40
17.46525453156264
 40
22.18548379221493
 40
26.91407362337248
 40
31.25078392417231
 40
35.58682127478549
 40
40.31734592131176
 40
45.04923225493495
 40
49.38818376376732
 40
54.51494826242742
 40
57.4058922174392
 40
57.4058922174392
 40
57.4058922174392
 40
57.4058922174392
 10
385.8122308875616
 20
-134.1291135201954
 30
0.0
 10
385.9717818558258
 20
-134.146370392327
 30
0.0
 10
387.2429302565252
 20
-134.3062732802807
 30
0.0
 10
389.6385917735048
 20
-134.9397139993122
 30
0.0
 10
393.049486226938
 20
-136.6696692764449
 30
0.0
 10
396.3588182730812
 20
-139.2731980773649
 30
0.0
 10
399.2924927195899
 20
-142.6396318923321
 30
0.0
 10
401.6241575209262
 20
-146.4387598445107
 30
0.0
 10
403.3601084072086
 20
-150.5807698753024
 30
0.0
 10
404.4261517930236
 20
-155.0244512586615
 30
0.0
 10
404.6849357006977
 20
-159.4327469462952
 30
0.0
 10
404.1412826092886
 20
-163.7137008498111
 30
0.0
 10
402.9515483950716
 20
-167.0367223642107
 30
0.0
 10
401.8195642349119
 20
-168.8712980682225
 30
0.0
 10
401.3684947782269
 20
-169.4847136599971
 30
0.0
  0
LINE
  5
251
330
207
100
AcDbEntity
  8
0
  6
Continuous
 62
     0
370
    30
100
AcDbLine
 10
356.877572
 20
-138.522986
 30
0.0
 11
356.959273
 21
-145.62807
 31
0.0
  0
LINE
  5
252
330
207
100
AcDbEntity
  8
0
  6
Continuous
 62
     0
370
    30
100
AcDbLine
 10
364.777049
 20
-138.43215
 30
0.0
 11
364.858751
 21
-145.537249
 31
0.0
  0
LINE
  5
253
330
207
100
AcDbEntity
  8
0
  6
Continuous
 62
     0
370
    30
100
AcDbLine
 10
357.596982
 20
-137.62605
 30
0.0
 11
357.135014
 21
-138.041442
 31
0.0
  0
LINE
  5
254
330
207
100
AcDbEntity
  8
0
  6
Continuous
 62
     0
370
    30
100
AcDbLine
 10
364.037204
 20
-137.551994
 30
0.0
 11
364.508602
 21
-137.956653
 31
0.0
  0
ENDBLK
  5
256
330
207
100
AcDbEntity
  8
0
100
AcDbBlockEnd
  0
ENDSEC
  0
SECTION
  2
ENTITIES
  0
INSERT
  5
B1
330
1F
100
AcDbEntity
  8
0
  6
Continuous
 62
     7
370
     0
100
AcDbBlockReference
  2
a
 10
73.361572
 20
40.96563
 30
0.0
  0
INSERT
  5
11A
330
1F
100
AcDbEntity
  8
0
  6
Continuous
 62
     7
370
     0
100
AcDbBlockReference
  2
b
 10
-54.95903
 20
-0.000015
 30
0.0
  0
INSERT
  5
181
330
1F
100
AcDbEntity
  8
0
  6
Continuous
 62
     7
370
     0
100
AcDbBlockReference
  2
c
 10
267.018921
 20
-0.000015
 30
0.0
  0
INSERT
  5
1CE
330
1F
100
AcDbEntity
  8
0
  6
Continuous
 62
     7
370
     0
100
AcDbBlockReference
  2
d
 10
0.0
 20
-82.550064
 30
0.0
  0
INSERT
  5
206
330
1F
100
AcDbEntity
  8
0
  6
Continuous
 62
     7
370
     0
100
AcDbBlockReference
  2
e
 10
0.0
 20
276.297729
 30
0.0
  0
INSERT
  5
257
330
1F
100
AcDbEntity
  8
0
  6
Continuous
 62
     7
370
     0
100
AcDbBlockReference
  2
f
 10
334.555908
 20
-232.675919
 30
0.0
  0
ENDSEC
  0
SECTION
  2
OBJECTS
  0
DICTIONARY
  5
C
330
0
100
AcDbDictionary
281
     1
  3
ACAD_GROUP
350
D
  3
ACAD_LAYOUT
350
1A
  3
ACAD_MATERIAL
350
43
  3
ACAD_MLEADERSTYLE
350
6B
  3
ACAD_MLINESTYLE
350
17
  3
ACAD_PLOTSETTINGS
350
19
  3
ACAD_PLOTSTYLENAME
350
E
  3
ACAD_SCALELIST
350
47
  3
ACAD_TABLESTYLE
350
69
  3
ACAD_VISUALSTYLE
350
2A
  3
AcDbVariableDictionary
350
258
  0
DICTIONARY
  5
263
330
8
100
AcDbDictionary
280
     1
281
     1
  3
ACAD_XREC_ROUNDTRIP
360
264
  0
DICTIONARY
  5
D
102
{ACAD_REACTORS
330
C
102
}
330
C
100
AcDbDictionary
281
     1
  0
DICTIONARY
  5
1A
102
{ACAD_REACTORS
330
C
102
}
330
C
100
AcDbDictionary
281
     1
  3
Layout1
350
1E
  3
Layout2
350
26
  3
Model
350
22
  0
DICTIONARY
  5
43
102
{ACAD_REACTORS
330
C
102
}
330
C
100
AcDbDictionary
281
     1
  3
ByBlock
350
45
  3
ByLayer
350
44
  3
Global
350
46
  0
DICTIONARY
  5
6B
102
{ACAD_REACTORS
330
C
102
}
330
C
100
AcDbDictionary
281
     1
  3
Standard
350
6C
  0
DICTIONARY
  5
17
102
{ACAD_REACTORS
330
C
102
}
330
C
100
AcDbDictionary
281
     1
  3
Standard
350
18
  0
DICTIONARY
  5
19
102
{ACAD_REACTORS
330
C
102
}
330
C
100
AcDbDictionary
281
     1
  0
ACDBDICTIONARYWDFLT
  5
E
102
{ACAD_REACTORS
330
C
102
}
330
C
100
AcDbDictionary
281
     1
  3
Normal
350
F
100
AcDbDictionaryWithDefault
340
F
  0
DICTIONARY
  5
47
102
{ACAD_REACTORS
330
C
102
}
330
C
100
AcDbDictionary
281
     1
  3
A0
350
48
  3
A1
350
49
  3
A2
350
4A
  3
A3
350
4B
  3
A4
350
4C
  3
A5
350
4D
  3
A6
350
4E
  3
A7
350
4F
  3
A8
350
50
  3
A9
350
51
  3
B0
350
52
  3
B1
350
53
  3
B2
350
54
  3
B3
350
55
  3
B4
350
56
  3
B5
350
57
  3
B6
350
58
  3
B7
350
59
  3
B8
350
5A
  3
B9
350
5B
  3
C0
350
5C
  3
C1
350
5D
  3
C2
350
5E
  3
C3
350
5F
  3
C4
350
60
  3
C5
350
61
  3
C6
350
62
  3
C7
350
63
  3
C8
350
64
  3
C9
350
65
  3
D0
350
66
  3
D1
350
67
  3
D2
350
68
  0
DICTIONARY
  5
69
102
{ACAD_REACTORS
330
C
102
}
330
C
100
AcDbDictionary
281
     1
  3
Standard
350
6A
  0
DICTIONARY
  5
2A
102
{ACAD_REACTORS
330
C
102
}
330
C
100
AcDbDictionary
281
     1
  3
2dWireframe
350
2F
  3
Basic
350
32
  3
Brighten
350
36
  3
ColorChange
350
3A
  3
Conceptual
350
34
  3
Dim
350
35
  3
EdgeColorOff
350
3D
  3
Facepattern
350
39
  3
Flat
350
2B
  3
FlatWithEdges
350
2C
  3
Gouraud
350
2D
  3
GouraudWithEdges
350
2E
  3
Hidden
350
31
  3
JitterOff
350
3B
  3
Linepattern
350
38
  3
OverhangOff
350
3C
  3
Realistic
350
33
  3
Shaded
350
42
  3
Shaded with edges
350
41
  3
Shades of Gray
350
3E
  3
Sketchy
350
3F
  3
Thicken
350
37
  3
Wireframe
350
30
  3
X-Ray
350
40
  0
DICTIONARY
  5
258
102
{ACAD_REACTORS
330
C
102
}
330
C
100
AcDbDictionary
281
     1
  3
CANNOSCALE
350
265
  3
CENTEREXE
350
25F
  3
CENTERLTYPEFILE
350
260
  3
CMLEADERSTYLE
350
25A
  3
CTABLESTYLE
350
259
  3
DIMASSOC
350
261
  3
HIDETEXT
350
262
  3
MSLTSCALE
350
266
  3
PSOLHEIGHT
350
25C
  3
PSOLWIDTH
350
25B
  0
XRECORD
  5
264
102
{ACAD_REACTORS
330
263
102
}
330
263
100
AcDbXrecord
280
     1
102
VTR_0.000_0.000_1.000_1.000_VISUALSTYLE
340
2F
102
VTR_0.000_0.000_1.000_1.000_GRIDDISPLAY
 70
     3
102
VTR_0.000_0.000_1.000_1.000_GRIDMAJOR
 70
     5
102
VTR_0.000_0.000_1.000_1.000_DEFAULTLIGHTING
280
     1
102
VTR_0.000_0.000_1.000_1.000_DEFAULTLIGHTINGTYPE
 70
     1
102
VTR_0.000_0.000_1.000_1.000_BRIGHTNESS
141
0.0
102
VTR_0.000_0.000_1.000_1.000_CONTRAST
142
0.0
  0
LAYOUT
  5
1E
102
{ACAD_REACTORS
330
1A
102
}
330
1A
100
AcDbPlotSettings
  1

  2
none_device
  4

  6

 40
0.0
 41
0.0
 42
0.0
 43
0.0
 44
0.0
 45
0.0
 46
0.0
 47
0.0
 48
0.0
 49
0.0
140
0.0
141
0.0
142
1.0
143
1.0
 70
   688
 72
     1
 73
     0
 74
     5
  7

 75
    16
147
1.0
148
0.0
149
0.0
100
AcDbLayout
  1
Layout1
 70
     1
 71
     1
 10
0.0
 20
0.0
 11
420.0
 21
297.0
 12
0.0
 22
0.0
 32
0.0
 14
1.000000E+20
 24
1.000000E+20
 34
1.000000E+20
 15
-1.000000E+20
 25
-1.000000E+20
 35
-1.000000E+20
146
0.0
 13
0.0
 23
0.0
 33
0.0
 16
1.0
 26
0.0
 36
0.0
 17
0.0
 27
1.0
 37
0.0
 76
     0
330
1B
  0
LAYOUT
  5
26
102
{ACAD_REACTORS
330
1A
102
}
330
1A
100
AcDbPlotSettings
  1

  2
none_device
  4

  6

 40
0.0
 41
0.0
 42
0.0
 43
0.0
 44
0.0
 45
0.0
 46
0.0
 47
0.0
 48
0.0
 49
0.0
140
0.0
141
0.0
142
1.0
143
1.0
 70
   688
 72
     1
 73
     0
 74
     5
  7

 75
    16
147
1.0
148
0.0
149
0.0
100
AcDbLayout
  1
Layout2
 70
     1
 71
     2
 10
0.0
 20
0.0
 11
0.0
 21
0.0
 12
0.0
 22
0.0
 32
0.0
 14
0.0
 24
0.0
 34
0.0
 15
0.0
 25
0.0
 35
0.0
146
0.0
 13
0.0
 23
0.0
 33
0.0
 16
1.0
 26
0.0
 36
0.0
 17
0.0
 27
1.0
 37
0.0
 76
     0
330
23
  0
LAYOUT
  5
22
102
{ACAD_REACTORS
330
1A
102
}
330
1A
100
AcDbPlotSettings
  1

  2
none_device
  4
Letter_(8.50_x_11.00_Inches)
  6

 40
6.35
 41
6.35
 42
6.350005
 43
6.350005
 44
215.9
 45
279.4
 46
0.0
 47
0.0
 48
0.0
 49
0.0
140
0.0
141
0.0
142
1.0
143
1.0
 70
  1712
 72
     1
 73
     0
 74
     0
  7

 75
     0
147
1.0
148
0.0
149
0.0
100
AcDbLayout
  1
Model
 70
     1
 71
     0
 10
-138.118256
 20
-239.605911
 11
445.748718
 21
425.703217
 12
0.0
 22
0.0
 32
0.0
 14
-138.118256
 24
-239.605911
 34
0.0
 15
445.748718
 25
425.703217
 35
0.0
146
0.0
 13
0.0
 23
0.0
 33
0.0
 16
1.0
 26
0.0
 36
0.0
 17
0.0
 27
1.0
 37
0.0
 76
     0
330
1F
331
29
  0
MATERIAL
  5
45
102
{ACAD_REACTORS
330
43
102
}
102
{ACAD_XDICTIONARY
360
299
102
}
330
43
100
AcDbMaterial
  1
ByBlock
  0
MATERIAL
  5
44
102
{ACAD_REACTORS
330
43
102
}
102
{ACAD_XDICTIONARY
360
297
102
}
330
43
100
AcDbMaterial
  1
ByLayer
  0
MATERIAL
  5
46
102
{ACAD_REACTORS
330
43
102
}
102
{ACAD_XDICTIONARY
360
29B
102
}
330
43
100
AcDbMaterial
  1
Global
  0
MLEADERSTYLE
  5
6C
102
{ACAD_REACTORS
330
6B
102
}
102
{ACAD_XDICTIONARY
360
29E
102
}
330
6B
100
AcDbMLeaderStyle
170
     2
171
     1
172
     0
 90
        2
 40
0.0
 41
0.0
173
     1
 91
-1056964608
340
14
 92
       -2
290
     1
 42
2.0
291
     1
 43
8.0
  3
Standard
341
0
 44
4.0
300

342
11
174
     1
178
     6
175
     1
176
     0
 93
-1056964608
 45
4.0
292
     0
297
     0
 46
4.0
343
0
 94
-1056964608
 47
1.0
 49
1.0
140
1.0
293
     1
141
0.0
294
     1
177
     0
142
1.0
295
     0
296
     0
143
3.75
1001
ACAD_MLEADERVER
1070
     2
  0
MLINESTYLE
  5
18
102
{ACAD_REACTORS
330
17
102
}
330
17
100
AcDbMlineStyle
  2
Standard
 70
     0
  3

 62
   256
 51
90.0
 52
90.0
 71
     2
 49
0.5
 62
   256
  6
BYLAYER
 49
-0.5
 62
   256
  6
BYLAYER
  0
ACDBPLACEHOLDER
  5
F
102
{ACAD_REACTORS
330
E
102
}
330
E
  0
SCALE
  5
48
102
{ACAD_REACTORS
330
47
102
}
330
47
100
AcDbScale
 70
     0
300
1:1
140
1.0
141
1.0
290
     1
  0
SCALE
  5
49
102
{ACAD_REACTORS
330
47
102
}
330
47
100
AcDbScale
 70
     0
300
1:2
140
1.0
141
2.0
290
     0
  0
SCALE
  5
4A
102
{ACAD_REACTORS
330
47
102
}
330
47
100
AcDbScale
 70
     0
300
1:4
140
1.0
141
4.0
290
     0
  0
SCALE
  5
4B
102
{ACAD_REACTORS
330
47
102
}
330
47
100
AcDbScale
 70
     0
300
1:5
140
1.0
141
5.0
290
     0
  0
SCALE
  5
4C
102
{ACAD_REACTORS
330
47
102
}
330
47
100
AcDbScale
 70
     0
300
1:8
140
1.0
141
8.0
290
     0
  0
SCALE
  5
4D
102
{ACAD_REACTORS
330
47
102
}
330
47
100
AcDbScale
 70
     0
300
1:10
140
1.0
141
10.0
290
     0
  0
SCALE
  5
4E
102
{ACAD_REACTORS
330
47
102
}
330
47
100
AcDbScale
 70
     0
300
1:16
140
1.0
141
16.0
290
     0
  0
SCALE
  5
4F
102
{ACAD_REACTORS
330
47
102
}
330
47
100
AcDbScale
 70
     0
300
1:20
140
1.0
141
20.0
290
     0
  0
SCALE
  5
50
102
{ACAD_REACTORS
330
47
102
}
330
47
100
AcDbScale
 70
     0
300
1:30
140
1.0
141
30.0
290
     0
  0
SCALE
  5
51
102
{ACAD_REACTORS
330
47
102
}
330
47
100
AcDbScale
 70
     0
300
1:40
140
1.0
141
40.0
290
     0
  0
SCALE
  5
52
102
{ACAD_REACTORS
330
47
102
}
330
47
100
AcDbScale
 70
     0
300
1:50
140
1.0
141
50.0
290
     0
  0
SCALE
  5
53
102
{ACAD_REACTORS
330
47
102
}
330
47
100
AcDbScale
 70
     0
300
1:100
140
1.0
141
100.0
290
     0
  0
SCALE
  5
54
102
{ACAD_REACTORS
330
47
102
}
330
47
100
AcDbScale
 70
     0
300
2:1
140
2.0
141
1.0
290
     0
  0
SCALE
  5
55
102
{ACAD_REACTORS
330
47
102
}
330
47
100
AcDbScale
 70
     0
300
4:1
140
4.0
141
1.0
290
     0
  0
SCALE
  5
56
102
{ACAD_REACTORS
330
47
102
}
330
47
100
AcDbScale
 70
     0
300
8:1
140
8.0
141
1.0
290
     0
  0
SCALE
  5
57
102
{ACAD_REACTORS
330
47
102
}
330
47
100
AcDbScale
 70
     0
300
10:1
140
10.0
141
1.0
290
     0
  0
SCALE
  5
58
102
{ACAD_REACTORS
330
47
102
}
330
47
100
AcDbScale
 70
     0
300
100:1
140
100.0
141
1.0
290
     0
  0
SCALE
  5
59
102
{ACAD_REACTORS
330
47
102
}
330
47
100
AcDbScale
 70
     0
300
1/128" = 1'-0"
140
0.007812
141
12.0
290
     0
  0
SCALE
  5
5A
102
{ACAD_REACTORS
330
47
102
}
330
47
100
AcDbScale
 70
     0
300
1/64" = 1'-0"
140
0.015625
141
12.0
290
     0
  0
SCALE
  5
5B
102
{ACAD_REACTORS
330
47
102
}
330
47
100
AcDbScale
 70
     0
300
1/32" = 1'-0"
140
0.03125
141
12.0
290
     0
  0
SCALE
  5
5C
102
{ACAD_REACTORS
330
47
102
}
330
47
100
AcDbScale
 70
     0
300
1/16" = 1'-0"
140
0.0625
141
12.0
290
     0
  0
SCALE
  5
5D
102
{ACAD_REACTORS
330
47
102
}
330
47
100
AcDbScale
 70
     0
300
3/32" = 1'-0"
140
0.09375
141
12.0
290
     0
  0
SCALE
  5
5E
102
{ACAD_REACTORS
330
47
102
}
330
47
100
AcDbScale
 70
     0
300
1/8" = 1'-0"
140
0.125
141
12.0
290
     0
  0
SCALE
  5
5F
102
{ACAD_REACTORS
330
47
102
}
330
47
100
AcDbScale
 70
     0
300
3/16" = 1'-0"
140
0.1875
141
12.0
290
     0
  0
SCALE
  5
60
102
{ACAD_REACTORS
330
47
102
}
330
47
100
AcDbScale
 70
     0
300
1/4" = 1'-0"
140
0.25
141
12.0
290
     0
  0
SCALE
  5
61
102
{ACAD_REACTORS
330
47
102
}
330
47
100
AcDbScale
 70
     0
300
3/8" = 1'-0"
140
0.375
141
12.0
290
     0
  0
SCALE
  5
62
102
{ACAD_REACTORS
330
47
102
}
330
47
100
AcDbScale
 70
     0
300
1/2" = 1'-0"
140
0.5
141
12.0
290
     0
  0
SCALE
  5
63
102
{ACAD_REACTORS
330
47
102
}
330
47
100
AcDbScale
 70
     0
300
3/4" = 1'-0"
140
0.75
141
12.0
290
     0
  0
SCALE
  5
64
102
{ACAD_REACTORS
330
47
102
}
330
47
100
AcDbScale
 70
     0
300
1" = 1'-0"
140
1.0
141
12.0
290
     0
  0
SCALE
  5
65
102
{ACAD_REACTORS
330
47
102
}
330
47
100
AcDbScale
 70
     0
300
1-1/2" = 1'-0"
140
1.5
141
12.0
290
     0
  0
SCALE
  5
66
102
{ACAD_REACTORS
330
47
102
}
330
47
100
AcDbScale
 70
     0
300
3" = 1'-0"
140
3.0
141
12.0
290
     0
  0
SCALE
  5
67
102
{ACAD_REACTORS
330
47
102
}
330
47
100
AcDbScale
 70
     0
300
6" = 1'-0"
140
6.0
141
12.0
290
     0
  0
SCALE
  5
68
102
{ACAD_REACTORS
330
47
102
}
330
47
100
AcDbScale
 70
     0
300
1'-0" = 1'-0"
140
12.0
141
12.0
290
     0
  0
TABLESTYLE
  5
6A
102
{ACAD_REACTORS
330
69
102
}
330
69
100
AcDbTableStyle
  3
Standard
 70
     0
 71
     0
 40
1.5
 41
1.5
280
     0
281
     0
  7
Standard
140
4.5
170
     2
 62
     0
 63
   257
283
     0
274
    -2
284
     1
 64
     0
275
    -2
285
     1
 65
     0
276
    -2
286
     1
 66
     0
277
    -2
287
     1
 67
     0
278
    -2
288
     1
 68
     0
279
    -2
289
     1
 69
     0
  7
Standard
140
6.0
170
     5
 62
     0
 63
   257
283
     0
274
    -2
284
     1
 64
     0
275
    -2
285
     1
 65
     0
276
    -2
286
     1
 66
     0
277
    -2
287
     1
 67
     0
278
    -2
288
     1
 68
     0
279
    -2
289
     1
 69
     0
  7
Standard
140
4.5
170
     5
 62
     0
 63
   257
283
     0
274
    -2
284
     1
 64
     0
275
    -2
285
     1
 65
     0
276
    -2
286
     1
 66
     0
277
    -2
287
     1
 67
     0
278
    -2
288
     1
 68
     0
279
    -2
289
     1
 69
     0
  0
VISUALSTYLE
  5
2F
102
{ACAD_REACTORS
330
2A
102
}
102
{ACAD_XDICTIONARY
360
26F
102
}
330
2A
100
AcDbVisualStyle
  2
2dWireframe
 70
     4
 71
     0
 72
     2
 73
     0
 90
        0
 40
0.6
 41
30.0
 62
     5
 63
     7
 74
     1
 91
        4
 64
     7
 65
   257
 75
     1
175
     1
 42
1.0
 92
        0
 66
   257
 43
1.0
 76
     1
 77
     6
 78
     2
 67
     7
 79
     5
170
     0
171
     0
290
     0
174
     0
 93
        1
 44
0.0
173
     0
291
     0
 45
0.0
1001
ACAD
1000
AcDbSavedByObjectVersion
1070
     0
  0
VISUALSTYLE
  5
32
102
{ACAD_REACTORS
330
2A
102
}
102
{ACAD_XDICTIONARY
360
275
102
}
330
2A
100
AcDbVisualStyle
  2
Basic
 70
     7
 71
     1
 72
     0
 73
     1
 90
        0
 40
0.6
 41
30.0
 62
     5
 63
     7
 74
     0
 91
        4
 64
     7
 65
   257
 75
     1
175
     1
 42
1.0
 92
        8
 66
     7
 43
1.0
 76
     1
 77
     6
 78
     2
 67
     7
 79
     5
170
     0
171
     0
290
     0
174
     0
 93
        1
 44
0.0
173
     0
291
     1
 45
0.0
1001
ACAD
1000
AcDbSavedByObjectVersion
1070
     0
  0
VISUALSTYLE
  5
36
102
{ACAD_REACTORS
330
2A
102
}
102
{ACAD_XDICTIONARY
360
27D
102
}
330
2A
100
AcDbVisualStyle
  2
Brighten
 70
    12
 71
     2
 72
     2
 73
     0
 90
        0
 40
0.6
 41
30.0
 62
     5
 63
     7
 74
     1
 91
        4
 64
     7
 65
   257
 75
     1
175
     1
 42
1.0
 92
        8
 66
     7
 43
1.0
 76
     1
 77
     6
 78
     2
 67
     7
 79
     5
170
     0
171
     0
290
     0
174
     0
 93
        1
 44
50.0
173
     0
291
     1
 45
0.0
1001
ACAD
1000
AcDbSavedByObjectVersion
1070
     0
  0
VISUALSTYLE
  5
3A
102
{ACAD_REACTORS
330
2A
102
}
102
{ACAD_XDICTIONARY
360
285
102
}
330
2A
100
AcDbVisualStyle
  2
ColorChange
 70
    16
 71
     2
 72
     2
 73
     3
 90
        0
 40
0.6
 41
30.0
 62
     5
 63
     8
 74
     1
 91
        4
 64
     7
 65
   257
 75
     1
175
     1
 42
1.0
 92
        8
 66
     8
 43
1.0
 76
     1
 77
     6
 78
     2
 67
     7
 79
     5
170
     0
171
     0
290
     0
174
     0
 93
        1
 44
0.0
173
     0
291
     1
 45
0.0
1001
ACAD
1000
AcDbSavedByObjectVersion
1070
     0
  0
VISUALSTYLE
  5
34
102
{ACAD_REACTORS
330
2A
102
}
102
{ACAD_XDICTIONARY
360
279
102
}
330
2A
100
AcDbVisualStyle
  2
Conceptual
 70
     9
 71
     3
 72
     2
 73
     0
 90
        0
 40
0.6
 41
30.0
 62
     5
 63
     7
 74
     2
 91
        2
 64
     7
 65
   257
 75
     1
175
     1
 42
179.0
 92
        8
 66
     7
 43
1.0
 76
     1
 77
     6
 78
     2
 67
     7
 79
     3
170
     0
171
     0
290
     0
174
     0
 93
        1
 44
0.0
173
     0
291
     0
 45
0.0
1001
ACAD
1000
AcDbSavedByObjectVersion
1070
     0
  0
VISUALSTYLE
  5
35
102
{ACAD_REACTORS
330
2A
102
}
102
{ACAD_XDICTIONARY
360
27B
102
}
330
2A
100
AcDbVisualStyle
  2
Dim
 70
    11
 71
     2
 72
     2
 73
     0
 90
        0
 40
0.6
 41
30.0
 62
     5
 63
     7
 74
     1
 91
        4
 64
     7
 65
   257
 75
     1
175
     1
 42
1.0
 92
        8
 66
     7
 43
1.0
 76
     1
 77
     6
 78
     2
 67
     7
 79
     5
170
     0
171
     0
290
     0
174
     0
 93
        1
 44
-50.0
173
     0
291
     1
 45
0.0
1001
ACAD
1000
AcDbSavedByObjectVersion
1070
     0
  0
VISUALSTYLE
  5
3D
102
{ACAD_REACTORS
330
2A
102
}
102
{ACAD_XDICTIONARY
360
28B
102
}
330
2A
100
AcDbVisualStyle
  2
EdgeColorOff
 70
    22
 71
     2
 72
     2
 73
     0
 90
        0
 40
0.6
 41
30.0
 62
     5
 63
     7
 74
     1
 91
        4
 64
     7
 65
   257
 75
     1
175
     1
 42
1.0
 92
        8
 66
     7
 43
1.0
 76
     1
 77
     6
 78
     2
 67
     7
 79
     5
170
     0
171
     0
290
     0
174
     0
 93
        1
 44
0.0
173
     0
291
     1
 45
0.0
1001
ACAD
1000
AcDbSavedByObjectVersion
1070
     0
  0
VISUALSTYLE
  5
39
102
{ACAD_REACTORS
330
2A
102
}
102
{ACAD_XDICTIONARY
360
283
102
}
330
2A
100
AcDbVisualStyle
  2
Facepattern
 70
    15
 71
     2
 72
     2
 73
     0
 90
        0
 40
0.6
 41
30.0
 62
     5
 63
     7
 74
     1
 91
        4
 64
     7
 65
   257
 75
     1
175
     1
 42
1.0
 92
        8
 66
     7
 43
1.0
 76
     1
 77
     6
 78
     2
 67
     7
 79
     5
170
     0
171
     0
290
     0
174
     0
 93
        1
 44
0.0
173
     0
291
     1
 45
0.0
1001
ACAD
1000
AcDbSavedByObjectVersion
1070
     0
  0
VISUALSTYLE
  5
2B
102
{ACAD_REACTORS
330
2A
102
}
102
{ACAD_XDICTIONARY
360
267
102
}
330
2A
100
AcDbVisualStyle
  2
Flat
 70
     0
 71
     2
 72
     1
 73
     1
 90
        2
 40
0.6
 41
30.0
 62
     5
 63
     7
 74
     0
 91
        0
 64
     7
 65
   257
 75
     1
175
     1
 42
1.0
 92
        8
 66
     7
 43
1.0
 76
     1
 77
     6
 78
     2
 67
     7
 79
     5
170
     0
171
     0
290
     0
174
     0
 93
       13
 44
0.0
173
     0
291
     1
 45
0.0
1001
ACAD
1000
AcDbSavedByObjectVersion
1070
     0
  0
VISUALSTYLE
  5
2C
102
{ACAD_REACTORS
330
2A
102
}
102
{ACAD_XDICTIONARY
360
269
102
}
330
2A
100
AcDbVisualStyle
  2
FlatWithEdges
 70
     1
 71
     2
 72
     1
 73
     1
 90
        2
 40
0.6
 41
30.0
 62
     5
 63
     7
 74
     1
 91
        0
 64
     7
 65
   257
 75
     1
175
     1
 42
1.0
 92
        0
 66
   257
 43
1.0
 76
     1
 77
     6
 78
     2
 67
     7
 79
     5
170
     0
171
     0
290
     0
174
     0
 93
       13
 44
0.0
173
     0
291
     1
 45
0.0
1001
ACAD
1000
AcDbSavedByObjectVersion
1070
     0
  0
VISUALSTYLE
  5
2D
102
{ACAD_REACTORS
330
2A
102
}
102
{ACAD_XDICTIONARY
360
26B
102
}
330
2A
100
AcDbVisualStyle
  2
Gouraud
 70
     2
 71
     2
 72
     2
 73
     1
 90
        2
 40
0.6
 41
30.0
 62
     5
 63
     7
 74
     0
 91
        0
 64
     7
 65
   257
 75
     1
175
     1
 42
1.0
 92
        0
 66
     7
 43
1.0
 76
     1
 77
     6
 78
     2
 67
     7
 79
     5
170
     0
171
     0
290
     0
174
     0
 93
       13
 44
0.0
173
     0
291
     1
 45
0.0
1001
ACAD
1000
AcDbSavedByObjectVersion
1070
     0
  0
VISUALSTYLE
  5
2E
102
{ACAD_REACTORS
330
2A
102
}
102
{ACAD_XDICTIONARY
360
26D
102
}
330
2A
100
AcDbVisualStyle
  2
GouraudWithEdges
 70
     3
 71
     2
 72
     2
 73
     1
 90
        2
 40
0.6
 41
30.0
 62
     5
 63
     7
 74
     1
 91
        0
 64
     7
 65
   257
 75
     1
175
     1
 42
1.0
 92
        0
 66
   257
 43
1.0
 76
     1
 77
     6
 78
     2
 67
     7
 79
     5
170
     0
171
     0
290
     0
174
     0
 93
       13
 44
0.0
173
     0
291
     1
 45
0.0
1001
ACAD
1000
AcDbSavedByObjectVersion
1070
     0
  0
VISUALSTYLE
  5
31
102
{ACAD_REACTORS
330
2A
102
}
102
{ACAD_XDICTIONARY
360
273
102
}
330
2A
100
AcDbVisualStyle
  2
Hidden
 70
     6
 71
     1
 72
     2
 73
     2
 90
        0
 40
0.6
 41
30.0
 62
     5
 63
     7
 74
     2
 91
        2
 64
     7
 65
   257
 75
     2
175
     1
 42
40.0
 92
        0
 66
   257
 43
1.0
 76
     1
 77
     6
 78
     2
 67
     7
 79
     3
170
     0
171
     0
290
     0
174
     0
 93
        1
 44
0.0
173
     0
291
     0
 45
0.0
1001
ACAD
1000
AcDbSavedByObjectVersion
1070
     0
  0
VISUALSTYLE
  5
3B
102
{ACAD_REACTORS
330
2A
102
}
102
{ACAD_XDICTIONARY
360
287
102
}
330
2A
100
AcDbVisualStyle
  2
JitterOff
 70
    20
 71
     2
 72
     2
 73
     0
 90
        0
 40
0.6
 41
30.0
 62
     5
 63
     7
 74
     1
 91
        4
 64
     7
 65
   257
 75
     1
175
     1
 42
1.0
 92
       10
 66
     7
 43
1.0
 76
     1
 77
     6
 78
     2
 67
     7
 79
     5
170
     0
171
     0
290
     0
174
     0
 93
        1
 44
0.0
173
     0
291
     1
 45
0.0
1001
ACAD
1000
AcDbSavedByObjectVersion
1070
     0
  0
VISUALSTYLE
  5
38
102
{ACAD_REACTORS
330
2A
102
}
102
{ACAD_XDICTIONARY
360
281
102
}
330
2A
100
AcDbVisualStyle
  2
Linepattern
 70
    14
 71
     2
 72
     2
 73
     0
 90
        0
 40
0.6
 41
30.0
 62
     5
 63
     7
 74
     1
 91
        4
 64
     7
 65
   257
 75
     7
175
     7
 42
1.0
 92
        8
 66
     7
 43
1.0
 76
     1
 77
     6
 78
     2
 67
     7
 79
     5
170
     0
171
     0
290
     0
174
     0
 93
        1
 44
0.0
173
     0
291
     1
 45
0.0
1001
ACAD
1000
AcDbSavedByObjectVersion
1070
     0
  0
VISUALSTYLE
  5
3C
102
{ACAD_REACTORS
330
2A
102
}
102
{ACAD_XDICTIONARY
360
289
102
}
330
2A
100
AcDbVisualStyle
  2
OverhangOff
 70
    21
 71
     2
 72
     2
 73
     0
 90
        0
 40
0.6
 41
30.0
 62
     5
 63
     7
 74
     1
 91
        4
 64
     7
 65
   257
 75
     1
175
     1
 42
1.0
 92
        9
 66
     7
 43
1.0
 76
     1
 77
     6
 78
     2
 67
     7
 79
     5
170
     0
171
     0
290
     0
174
     0
 93
        1
 44
0.0
173
     0
291
     1
 45
0.0
1001
ACAD
1000
AcDbSavedByObjectVersion
1070
     0
  0
VISUALSTYLE
  5
33
102
{ACAD_REACTORS
330
2A
102
}
102
{ACAD_XDICTIONARY
360
277
102
}
330
2A
100
AcDbVisualStyle
  2
Realistic
 70
     8
 71
     2
 72
     3
 73
     0
 90
        2
 40
0.6
 41
30.0
 62
     5
 63
     7
 74
     0
 91
        0
 64
     7
 65
   257
 75
     1
175
     1
 42
1.0
 92
        8
 66
   257
 43
1.0
 76
     1
 77
     6
 78
     2
 67
     7
 79
     3
170
     0
171
     0
290
     0
174
     0
 93
       13
 44
0.0
173
     0
291
     0
 45
0.0
1001
ACAD
1000
AcDbSavedByObjectVersion
1070
     0
  0
VISUALSTYLE
  5
42
102
{ACAD_REACTORS
330
2A
102
}
102
{ACAD_XDICTIONARY
360
295
102
}
330
2A
100
AcDbVisualStyle
  2
Shaded
 70
    27
 71
     2
 72
     2
 73
     1
 90
        2
 40
0.6
 41
30.0
 62
     5
 63
     7
 74
     0
 91
        4
 64
     7
 65
   257
 75
     1
175
     1
 42
1.0
 92
        8
 66
   257
 43
1.0
 76
     1
 77
     6
 78
     2
 67
     8
 79
     3
170
     0
171
     0
290
     0
174
     0
 93
        5
 44
0.0
173
     0
291
     0
 45
0.0
1001
ACAD
1000
AcDbSavedByObjectVersion
1070
     0
  0
VISUALSTYLE
  5
41
102
{ACAD_REACTORS
330
2A
102
}
102
{ACAD_XDICTIONARY
360
293
102
}
330
2A
100
AcDbVisualStyle
  2
Shaded with edges
 70
    26
 71
     2
 72
     2
 73
     1
 90
        2
 40
0.6
 41
30.0
 62
     5
 63
     7
 74
     1
 91
       10
 64
     7
 65
   257
 75
     2
175
     1
 42
1.0
 92
        8
 66
   257
 43
1.0
 76
     1
 77
     6
 78
     2
 67
     7
 79
     3
170
     0
171
     0
290
     0
174
     0
 93
        5
 44
0.0
173
     0
291
     0
 45
0.0
1001
ACAD
1000
AcDbSavedByObjectVersion
1070
     0
  0
VISUALSTYLE
  5
3E
102
{ACAD_REACTORS
330
2A
102
}
102
{ACAD_XDICTIONARY
360
28D
102
}
330
2A
100
AcDbVisualStyle
  2
Shades of Gray
 70
    23
 71
     2
 72
     2
 73
     3
 90
        0
 40
0.6
 41
30.0
 62
     5
 63
     7
 74
     2
 91
        2
 64
     7
 65
     7
 75
     1
175
     1
 42
40.0
 92
        8
 66
     7
 43
1.0
 76
     1
 77
     6
 78
     2
 67
     7
 79
     3
170
     0
171
     0
290
     0
174
     0
 93
        1
 44
0.0
173
     0
291
     0
 45
0.0
1001
ACAD
1000
AcDbSavedByObjectVersion
1070
     0
  0
VISUALSTYLE
  5
3F
102
{ACAD_REACTORS
330
2A
102
}
102
{ACAD_XDICTIONARY
360
28F
102
}
330
2A
100
AcDbVisualStyle
  2
Sketchy
 70
    24
 71
     1
 72
     2
 73
     2
 90
        0
 40
0.6
 41
30.0
 62
     5
 63
     7
 74
     2
 91
        2
 64
     7
 65
     7
 75
     1
175
     1
 42
40.0
 92
       11
 66
     7
 43
1.0
 76
     1
 77
     6
 78
     2
 67
     7
 79
     6
170
     0
171
     0
290
     0
174
     0
 93
        1
 44
0.0
173
     0
291
     0
 45
0.0
1001
ACAD
1000
AcDbSavedByObjectVersion
1070
     0
  0
VISUALSTYLE
  5
37
102
{ACAD_REACTORS
330
2A
102
}
102
{ACAD_XDICTIONARY
360
27F
102
}
330
2A
100
AcDbVisualStyle
  2
Thicken
 70
    13
 71
     2
 72
     2
 73
     0
 90
        0
 40
0.6
 41
30.0
 62
     5
 63
     7
 74
     1
 91
        4
 64
     7
 65
   257
 75
     1
175
     1
 42
1.0
 92
       12
 66
     7
 43
1.0
 76
     1
 77
     6
 78
     2
 67
     7
 79
     5
170
     0
171
     0
290
     0
174
     0
 93
        1
 44
0.0
173
     0
291
     1
 45
0.0
1001
ACAD
1000
AcDbSavedByObjectVersion
1070
     0
  0
VISUALSTYLE
  5
30
102
{ACAD_REACTORS
330
2A
102
}
102
{ACAD_XDICTIONARY
360
271
102
}
330
2A
100
AcDbVisualStyle
  2
Wireframe
 70
     5
 71
     0
 72
     2
 73
     0
 90
        0
 40
0.6
 41
30.0
 62
     5
 63
     7
 74
     1
 91
        4
 64
     7
 65
   257
 75
     1
175
     1
 42
1.0
 92
        0
 66
   257
 43
1.0
 76
     1
 77
     6
 78
     2
 67
     7
 79
     3
170
     0
171
     0
290
     0
174
     0
 93
        1
 44
0.0
173
     0
291
     0
 45
0.0
1001
ACAD
1000
AcDbSavedByObjectVersion
1070
     0
  0
VISUALSTYLE
  5
40
102
{ACAD_REACTORS
330
2A
102
}
102
{ACAD_XDICTIONARY
360
291
102
}
330
2A
100
AcDbVisualStyle
  2
X-Ray
 70
    25
 71
     2
 72
     2
 73
     1
 90
        1
 40
0.5
 41
30.0
 62
     5
 63
     7
 74
     1
 91
        0
 64
     7
 65
   257
 75
     1
175
     1
 42
1.0
 92
        8
 66
     7
 43
1.0
 76
     1
 77
     6
 78
     2
 67
     7
 79
     3
170
     0
171
     0
290
     0
174
     0
 93
       13
 44
0.0
173
     0
291
     0
 45
0.0
1001
ACAD
1000
AcDbSavedByObjectVersion
1070
     0
  0
DICTIONARYVAR
  5
265
102
{ACAD_REACTORS
330
258
102
}
330
258
100
DictionaryVariables
280
     0
  1
1:1
  0
DICTIONARYVAR
  5
25F
102
{ACAD_REACTORS
330
258
102
}
330
258
100
DictionaryVariables
280
     0
  1
3.500000
  0
DICTIONARYVAR
  5
260
102
{ACAD_REACTORS
330
258
102
}
330
258
100
DictionaryVariables
280
     0
  1
acadiso.lin
  0
DICTIONARYVAR
  5
25A
102
{ACAD_REACTORS
330
258
102
}
330
258
100
DictionaryVariables
280
     0
  1
Standard
  0
DICTIONARYVAR
  5
259
102
{ACAD_REACTORS
330
258
102
}
330
258
100
DictionaryVariables
280
     0
  1
Standard
  0
DICTIONARYVAR
  5
261
102
{ACAD_REACTORS
330
258
102
}
330
258
100
DictionaryVariables
280
     0
  1
2
  0
DICTIONARYVAR
  5
262
102
{ACAD_REACTORS
330
258
102
}
330
258
100
DictionaryVariables
280
     0
  1
1
  0
DICTIONARYVAR
  5
266
102
{ACAD_REACTORS
330
258
102
}
330
258
100
DictionaryVariables
280
     0
  1
1
  0
DICTIONARYVAR
  5
25C
102
{ACAD_REACTORS
330
258
102
}
330
258
100
DictionaryVariables
280
     0
  1
80.000000
  0
DICTIONARYVAR
  5
25B
102
{ACAD_REACTORS
330
258
102
}
330
258
100
DictionaryVariables
280
     0
  1
5.000000
  0
DICTIONARY
  5
299
330
45
100
AcDbDictionary
280
     1
281
     1
  3
ACAD_XREC_ROUNDTRIP
360
29A
  0
DICTIONARY
  5
297
330
44
100
AcDbDictionary
280
     1
281
     1
  3
ACAD_XREC_ROUNDTRIP
360
298
  0
DICTIONARY
  5
29B
330
46
100
AcDbDictionary
280
     1
281
     1
  3
ACAD_XREC_ROUNDTRIP
360
29C
  0
DICTIONARY
  5
29E
330
6C
100
AcDbDictionary
280
     1
281
     1
  3
ACAD_XREC_ROUNDTRIP
360
29F
  0
DICTIONARY
  5
26F
330
2F
100
AcDbDictionary
280
     1
281
     1
  3
ACAD_XREC_ROUNDTRIP
360
270
  0
DICTIONARY
  5
275
330
32
100
AcDbDictionary
280
     1
281
     1
  3
ACAD_XREC_ROUNDTRIP
360
276
  0
DICTIONARY
  5
27D
330
36
100
AcDbDictionary
280
     1
281
     1
  3
ACAD_XREC_ROUNDTRIP
360
27E
  0
DICTIONARY
  5
285
330
3A
100
AcDbDictionary
280
     1
281
     1
  3
ACAD_XREC_ROUNDTRIP
360
286
  0
DICTIONARY
  5
279
330
34
100
AcDbDictionary
280
     1
281
     1
  3
ACAD_XREC_ROUNDTRIP
360
27A
  0
DICTIONARY
  5
27B
330
35
100
AcDbDictionary
280
     1
281
     1
  3
ACAD_XREC_ROUNDTRIP
360
27C
  0
DICTIONARY
  5
28B
330
3D
100
AcDbDictionary
280
     1
281
     1
  3
ACAD_XREC_ROUNDTRIP
360
28C
  0
DICTIONARY
  5
283
330
39
100
AcDbDictionary
280
     1
281
     1
  3
ACAD_XREC_ROUNDTRIP
360
284
  0
DICTIONARY
  5
267
330
2B
100
AcDbDictionary
280
     1
281
     1
  3
ACAD_XREC_ROUNDTRIP
360
268
  0
DICTIONARY
  5
269
330
2C
100
AcDbDictionary
280
     1
281
     1
  3
ACAD_XREC_ROUNDTRIP
360
26A
  0
DICTIONARY
  5
26B
330
2D
100
AcDbDictionary
280
     1
281
     1
  3
ACAD_XREC_ROUNDTRIP
360
26C
  0
DICTIONARY
  5
26D
330
2E
100
AcDbDictionary
280
     1
281
     1
  3
ACAD_XREC_ROUNDTRIP
360
26E
  0
DICTIONARY
  5
273
330
31
100
AcDbDictionary
280
     1
281
     1
  3
ACAD_XREC_ROUNDTRIP
360
274
  0
DICTIONARY
  5
287
330
3B
100
AcDbDictionary
280
     1
281
     1
  3
ACAD_XREC_ROUNDTRIP
360
288
  0
DICTIONARY
  5
281
330
38
100
AcDbDictionary
280
     1
281
     1
  3
ACAD_XREC_ROUNDTRIP
360
282
  0
DICTIONARY
  5
289
330
3C
100
AcDbDictionary
280
     1
281
     1
  3
ACAD_XREC_ROUNDTRIP
360
28A
  0
DICTIONARY
  5
277
330
33
100
AcDbDictionary
280
     1
281
     1
  3
ACAD_XREC_ROUNDTRIP
360
278
  0
DICTIONARY
  5
295
330
42
100
AcDbDictionary
280
     1
281
     1
  3
ACAD_XREC_ROUNDTRIP
360
296
  0
DICTIONARY
  5
293
330
41
100
AcDbDictionary
280
     1
281
     1
  3
ACAD_XREC_ROUNDTRIP
360
294
  0
DICTIONARY
  5
28D
330
3E
100
AcDbDictionary
280
     1
281
     1
  3
ACAD_XREC_ROUNDTRIP
360
28E
  0
DICTIONARY
  5
28F
330
3F
100
AcDbDictionary
280
     1
281
     1
  3
ACAD_XREC_ROUNDTRIP
360
290
  0
DICTIONARY
  5
27F
330
37
100
AcDbDictionary
280
     1
281
     1
  3
ACAD_XREC_ROUNDTRIP
360
280
  0
DICTIONARY
  5
271
330
30
100
AcDbDictionary
280
     1
281
     1
  3
ACAD_XREC_ROUNDTRIP
360
272
  0
DICTIONARY
  5
291
330
40
100
AcDbDictionary
280
     1
281
     1
  3
ACAD_XREC_ROUNDTRIP
360
292
  0
XRECORD
  5
29A
102
{ACAD_REACTORS
330
299
102
}
330
299
100
AcDbXrecord
280
     1
102
MATERIAL
148
0.0
149
0.0
149
0.0
 93
        0
 94
      127
282
     0
 72
     1
 77
     1
171
     1
175
     1
179
     1
273
     0
  0
XRECORD
  5
298
102
{ACAD_REACTORS
330
297
102
}
330
297
100
AcDbXrecord
280
     1
102
MATERIAL
148
0.0
149
0.0
149
0.0
 93
        0
 94
      127
282
     0
 72
     1
 77
     1
171
     1
175
     1
179
     1
273
     0
  0
XRECORD
  5
29C
102
{ACAD_REACTORS
330
29B
102
}
330
29B
100
AcDbXrecord
280
     1
102
MATERIAL
148
0.0
149
0.0
149
0.0
 93
        0
 94
      127
282
     0
 72
     1
 77
     1
171
     1
175
     1
179
     1
273
     0
  0
XRECORD
  5
29F
102
{ACAD_REACTORS
330
29E
102
}
330
29E
100
AcDbXrecord
280
     1
102
ACAD_ROUNDTRIP_2010_MLEADER_STYLE
  0
XRECORD
  5
270
102
{ACAD_REACTORS
330
26F
102
}
330
26F
100
AcDbXrecord
280
     1
102
RTVSPropertyOp0
 70
     1
102
RTVSPropertyOp1
 70
     1
102
RTVSPropertyOp2
 70
     1
102
RTVSPropertyOp3
 70
     1
102
RTVSPropertyOp4
 70
     1
102
RTVSPropertyOp5
 70
     1
102
RTVSPropertyOp6
 70
     1
102
RTVSPropertyOp7
 70
     1
102
RTVSPropertyOp8
 70
     1
102
RTVSPropertyOp9
 70
     1
102
RTVSPropertyOp10
 70
     1
102
RTVSPropertyOp11
 70
     1
102
RTVSPropertyOp12
 70
     1
102
RTVSPropertyOp13
 70
     1
102
RTVSPropertyOp14
 70
     1
102
RTVSPropertyOp15
 70
     1
102
RTVSPropertyOp16
 70
     1
102
RTVSPropertyOp17
 70
     1
102
RTVSPropertyOp18
 70
     1
102
RTVSPropertyOp19
 70
     1
102
RTVSPropertyOp20
 70
     1
102
RTVSPropertyOp21
 70
     1
102
RTVSPropertyOp22
 70
     1
102
RTVSPropertyOp23
 70
     1
102
RTVSPropertyOp24
 70
     1
102
RTVSPropertyOp25
 70
     1
102
RTVSPropertyOp26
 70
     1
102
RTVSPropertyOp27
 70
     1
102
RTVSPropertyOp28
 70
     1
102
RTVSPropertyOp29
 70
     1
102
RTVSPropertyOp30
 70
     1
102
RTVSPropertyOp31
 70
     1
102
RTVSPropertyOp32
 70
     1
102
RTVSPropertyOp33
 70
     1
102
RTVSPropertyOp34
 70
     1
102
RTVSPropertyOp35
 70
     1
102
RTVSPropertyOp36
 70
     1
102
RTVSPropertyOp37
 70
     1
102
RTVSPropertyOp38
 70
     1
102
RTVSPropertyOp39
 70
     1
102
RTVSPropertyOp40
 70
     1
102
RTVSPropertyOp41
 70
     1
102
RTVSPropertyOp42
 70
     1
102
RTVSPropertyOp43
 70
     1
102
RTVSPropertyOp44
 70
     1
102
RTVSPropertyOp45
 70
     1
102
RTVSPropertyOp46
 70
     1
102
RTVSPropertyOp47
 70
     1
102
RTVSPropertyOp48
 70
     1
102
RTVSPropertyOp49
 70
     1
102
RTVSPropertyOp50
 70
     1
102
RTVSPropertyOp51
 70
     0
102
RTVSPropertyOp52
 70
     0
102
RTVSPropertyOp53
 70
     1
102
RTVSPropertyOp54
 70
     1
102
RTVSPropertyOp55
 70
     1
102
RTVSPropertyOp56
 70
     1
102
RTVSPropertyOp57
 70
     1
102
RTVSPost2010Prop28
280
     1
102
RTVSPost2010PropOp28
 70
     1
102
RTVSPost2010Prop29
280
     1
102
RTVSPost2010PropOp29
 70
     1
102
RTVSPost2010Prop30
280
     0
102
RTVSPost2010PropOp30
 70
     1
102
RTVSPost2010Prop31
280
     0
102
RTVSPost2010PropOp31
 70
     1
102
RTVSPost2010Prop32
280
     0
102
RTVSPost2010PropOp32
 70
     1
102
RTVSPost2010Prop33
280
     0
102
RTVSPost2010PropOp33
 70
     1
102
RTVSPost2010Prop34
280
     0
102
RTVSPost2010PropOp34
 70
     1
102
RTVSPost2010Prop35
280
     0
102
RTVSPost2010PropOp35
 70
     1
102
RTVSPost2010Prop36
280
     0
102
RTVSPost2010PropOp36
 70
     1
102
RTVSPost2010Prop37
 90
       50
102
RTVSPost2010PropOp37
 70
     1
102
RTVSPost2010Prop38
140
0.0
102
RTVSPost2010PropOp38
 70
     1
102
RTVSPost2010Prop39
140
1.0
102
RTVSPost2010PropOp39
 70
     1
102
RTVSPost2010Prop40
 90
        0
102
RTVSPost2010PropOp40
 70
     1
102
RTVSPost2010Prop41ColorIndex
 90
       18
102
RTVSPost2010Prop41ColorRGB
 90
        0
102
RTVSPost2010PropOp41
 70
     1
102
RTVSPost2010Prop42
 90
       50
102
RTVSPost2010PropOp42
 70
     1
102
RTVSPost2010Prop43
 90
        3
102
RTVSPost2010PropOp43
 70
     1
102
RTVSPost2010Prop44ColorIndex
 90
        5
102
RTVSPost2010Prop44ColorRGB
 90
      255
102
RTVSPost2010PropOp44
 70
     1
102
RTVSPost2010Prop45
280
     0
102
RTVSPost2010PropOp45
 70
     1
102
RTVSPost2010Prop46
 90
       50
102
RTVSPost2010PropOp46
 70
     1
102
RTVSPost2010Prop47
 90
       50
102
RTVSPost2010PropOp47
 70
     1
102
RTVSPost2010Prop48
 90
       50
102
RTVSPost2010PropOp48
 70
     1
102
RTVSPost2010Prop49
280
     0
102
RTVSPost2010PropOp49
 70
     1
102
RTVSPost2010Prop50
 90
       50
102
RTVSPost2010PropOp50
 70
     1
102
RTVSPost2010Prop51ColorIndex
 90
      256
102
RTVSPost2010Prop51ColorRGB
 90
-16777216
102
RTVSPost2010PropOp51
 70
     0
102
RTVSPost2010Prop52
140
1.0
102
RTVSPost2010PropOp52
 70
     0
102
RTVSPost2010Prop53
 90
        2
102
RTVSPost2010PropOp53
 70
     1
102
RTVSPost2010Prop54
  1
strokes_ogs.tif
102
RTVSPost2010PropOp54
 70
     1
102
RTVSPost2010Prop55
280
     0
102
RTVSPost2010PropOp55
 70
     1
102
RTVSPost2010Prop56
140
1.0
102
RTVSPost2010PropOp56
 70
     1
102
RTVSPost2010Prop57
140
1.0
102
RTVSPost2010PropOp57
 70
     1
  0
XRECORD
  5
276
102
{ACAD_REACTORS
330
275
102
}
330
275
100
AcDbXrecord
280
     1
102
RTVSPropertyOp0
 70
     1
102
RTVSPropertyOp1
 70
     1
102
RTVSPropertyOp2
 70
     1
102
RTVSPropertyOp3
 70
     1
102
RTVSPropertyOp4
 70
     1
102
RTVSPropertyOp5
 70
     1
102
RTVSPropertyOp6
 70
     1
102
RTVSPropertyOp7
 70
     1
102
RTVSPropertyOp8
 70
     1
102
RTVSPropertyOp9
 70
     1
102
RTVSPropertyOp10
 70
     1
102
RTVSPropertyOp11
 70
     1
102
RTVSPropertyOp12
 70
     1
102
RTVSPropertyOp13
 70
     1
102
RTVSPropertyOp14
 70
     1
102
RTVSPropertyOp15
 70
     1
102
RTVSPropertyOp16
 70
     1
102
RTVSPropertyOp17
 70
     1
102
RTVSPropertyOp18
 70
     1
102
RTVSPropertyOp19
 70
     1
102
RTVSPropertyOp20
 70
     1
102
RTVSPropertyOp21
 70
     1
102
RTVSPropertyOp22
 70
     1
102
RTVSPropertyOp23
 70
     1
102
RTVSPropertyOp24
 70
     1
102
RTVSPropertyOp25
 70
     1
102
RTVSPropertyOp26
 70
     1
102
RTVSPropertyOp27
 70
     1
102
RTVSPropertyOp28
 70
     1
102
RTVSPropertyOp29
 70
     1
102
RTVSPropertyOp30
 70
     1
102
RTVSPropertyOp31
 70
     1
102
RTVSPropertyOp32
 70
     1
102
RTVSPropertyOp33
 70
     1
102
RTVSPropertyOp34
 70
     1
102
RTVSPropertyOp35
 70
     1
102
RTVSPropertyOp36
 70
     1
102
RTVSPropertyOp37
 70
     1
102
RTVSPropertyOp38
 70
     1
102
RTVSPropertyOp39
 70
     1
102
RTVSPropertyOp40
 70
     1
102
RTVSPropertyOp41
 70
     1
102
RTVSPropertyOp42
 70
     1
102
RTVSPropertyOp43
 70
     1
102
RTVSPropertyOp44
 70
     1
102
RTVSPropertyOp45
 70
     1
102
RTVSPropertyOp46
 70
     1
102
RTVSPropertyOp47
 70
     1
102
RTVSPropertyOp48
 70
     1
102
RTVSPropertyOp49
 70
     1
102
RTVSPropertyOp50
 70
     1
102
RTVSPropertyOp51
 70
     0
102
RTVSPropertyOp52
 70
     0
102
RTVSPropertyOp53
 70
     1
102
RTVSPropertyOp54
 70
     1
102
RTVSPropertyOp55
 70
     1
102
RTVSPropertyOp56
 70
     1
102
RTVSPropertyOp57
 70
     1
102
RTVSPost2010Prop28
280
     0
102
RTVSPost2010PropOp28
 70
     1
102
RTVSPost2010Prop29
280
     1
102
RTVSPost2010PropOp29
 70
     1
102
RTVSPost2010Prop30
280
     1
102
RTVSPost2010PropOp30
 70
     1
102
RTVSPost2010Prop31
280
     0
102
RTVSPost2010PropOp31
 70
     1
102
RTVSPost2010Prop32
280
     0
102
RTVSPost2010PropOp32
 70
     1
102
RTVSPost2010Prop33
280
     0
102
RTVSPost2010PropOp33
 70
     1
102
RTVSPost2010Prop34
280
     0
102
RTVSPost2010PropOp34
 70
     1
102
RTVSPost2010Prop35
280
     0
102
RTVSPost2010PropOp35
 70
     1
102
RTVSPost2010Prop36
280
     0
102
RTVSPost2010PropOp36
 70
     1
102
RTVSPost2010Prop37
 90
       50
102
RTVSPost2010PropOp37
 70
     1
102
RTVSPost2010Prop38
140
0.0
102
RTVSPost2010PropOp38
 70
     1
102
RTVSPost2010Prop39
140
1.0
102
RTVSPost2010PropOp39
 70
     1
102
RTVSPost2010Prop40
 90
        0
102
RTVSPost2010PropOp40
 70
     1
102
RTVSPost2010Prop41ColorIndex
 90
       18
102
RTVSPost2010Prop41ColorRGB
 90
        0
102
RTVSPost2010PropOp41
 70
     1
102
RTVSPost2010Prop42
 90
       50
102
RTVSPost2010PropOp42
 70
     1
102
RTVSPost2010Prop43
 90
        3
102
RTVSPost2010PropOp43
 70
     1
102
RTVSPost2010Prop44ColorIndex
 90
        5
102
RTVSPost2010Prop44ColorRGB
 90
      255
102
RTVSPost2010PropOp44
 70
     1
102
RTVSPost2010Prop45
280
     0
102
RTVSPost2010PropOp45
 70
     1
102
RTVSPost2010Prop46
 90
       50
102
RTVSPost2010PropOp46
 70
     1
102
RTVSPost2010Prop47
 90
       50
102
RTVSPost2010PropOp47
 70
     1
102
RTVSPost2010Prop48
 90
       50
102
RTVSPost2010PropOp48
 70
     1
102
RTVSPost2010Prop49
280
     0
102
RTVSPost2010PropOp49
 70
     1
102
RTVSPost2010Prop50
 90
       50
102
RTVSPost2010PropOp50
 70
     1
102
RTVSPost2010Prop51ColorIndex
 90
      256
102
RTVSPost2010Prop51ColorRGB
 90
-16777216
102
RTVSPost2010PropOp51
 70
     0
102
RTVSPost2010Prop52
140
1.0
102
RTVSPost2010PropOp52
 70
     0
102
RTVSPost2010Prop53
 90
        2
102
RTVSPost2010PropOp53
 70
     1
102
RTVSPost2010Prop54
  1
strokes_ogs.tif
102
RTVSPost2010PropOp54
 70
     1
102
RTVSPost2010Prop55
280
     0
102
RTVSPost2010PropOp55
 70
     1
102
RTVSPost2010Prop56
140
1.0
102
RTVSPost2010PropOp56
 70
     1
102
RTVSPost2010Prop57
140
1.0
102
RTVSPost2010PropOp57
 70
     1
  0
XRECORD
  5
27E
102
{ACAD_REACTORS
330
27D
102
}
330
27D
100
AcDbXrecord
280
     1
102
RTVSPropertyOp0
 70
     1
102
RTVSPropertyOp1
 70
     1
102
RTVSPropertyOp2
 70
     1
102
RTVSPropertyOp3
 70
     1
102
RTVSPropertyOp4
 70
     1
102
RTVSPropertyOp5
 70
     1
102
RTVSPropertyOp6
 70
     1
102
RTVSPropertyOp7
 70
     1
102
RTVSPropertyOp8
 70
     1
102
RTVSPropertyOp9
 70
     1
102
RTVSPropertyOp10
 70
     1
102
RTVSPropertyOp11
 70
     1
102
RTVSPropertyOp12
 70
     1
102
RTVSPropertyOp13
 70
     1
102
RTVSPropertyOp14
 70
     1
102
RTVSPropertyOp15
 70
     1
102
RTVSPropertyOp16
 70
     1
102
RTVSPropertyOp17
 70
     1
102
RTVSPropertyOp18
 70
     1
102
RTVSPropertyOp19
 70
     1
102
RTVSPropertyOp20
 70
     1
102
RTVSPropertyOp21
 70
     1
102
RTVSPropertyOp22
 70
     1
102
RTVSPropertyOp23
 70
     1
102
RTVSPropertyOp24
 70
     1
102
RTVSPropertyOp25
 70
     1
102
RTVSPropertyOp26
 70
     1
102
RTVSPropertyOp27
 70
     1
102
RTVSPropertyOp28
 70
     1
102
RTVSPropertyOp29
 70
     1
102
RTVSPropertyOp30
 70
     1
102
RTVSPropertyOp31
 70
     1
102
RTVSPropertyOp32
 70
     1
102
RTVSPropertyOp33
 70
     1
102
RTVSPropertyOp34
 70
     1
102
RTVSPropertyOp35
 70
     1
102
RTVSPropertyOp36
 70
     1
102
RTVSPropertyOp37
 70
     1
102
RTVSPropertyOp38
 70
     1
102
RTVSPropertyOp39
 70
     1
102
RTVSPropertyOp40
 70
     1
102
RTVSPropertyOp41
 70
     1
102
RTVSPropertyOp42
 70
     1
102
RTVSPropertyOp43
 70
     1
102
RTVSPropertyOp44
 70
     1
102
RTVSPropertyOp45
 70
     1
102
RTVSPropertyOp46
 70
     1
102
RTVSPropertyOp47
 70
     1
102
RTVSPropertyOp48
 70
     1
102
RTVSPropertyOp49
 70
     1
102
RTVSPropertyOp50
 70
     1
102
RTVSPropertyOp51
 70
     0
102
RTVSPropertyOp52
 70
     0
102
RTVSPropertyOp53
 70
     1
102
RTVSPropertyOp54
 70
     1
102
RTVSPropertyOp55
 70
     1
102
RTVSPropertyOp56
 70
     1
102
RTVSPropertyOp57
 70
     1
102
RTVSPost2010Prop28
280
     0
102
RTVSPost2010PropOp28
 70
     1
102
RTVSPost2010Prop29
280
     1
102
RTVSPost2010PropOp29
 70
     1
102
RTVSPost2010Prop30
280
     1
102
RTVSPost2010PropOp30
 70
     1
102
RTVSPost2010Prop31
280
     0
102
RTVSPost2010PropOp31
 70
     1
102
RTVSPost2010Prop32
280
     0
102
RTVSPost2010PropOp32
 70
     1
102
RTVSPost2010Prop33
280
     0
102
RTVSPost2010PropOp33
 70
     1
102
RTVSPost2010Prop34
280
     0
102
RTVSPost2010PropOp34
 70
     1
102
RTVSPost2010Prop35
280
     0
102
RTVSPost2010PropOp35
 70
     1
102
RTVSPost2010Prop36
280
     0
102
RTVSPost2010PropOp36
 70
     1
102
RTVSPost2010Prop37
 90
       50
102
RTVSPost2010PropOp37
 70
     1
102
RTVSPost2010Prop38
140
0.0
102
RTVSPost2010PropOp38
 70
     1
102
RTVSPost2010Prop39
140
1.0
102
RTVSPost2010PropOp39
 70
     1
102
RTVSPost2010Prop40
 90
        0
102
RTVSPost2010PropOp40
 70
     1
102
RTVSPost2010Prop41ColorIndex
 90
       18
102
RTVSPost2010Prop41ColorRGB
 90
        0
102
RTVSPost2010PropOp41
 70
     1
102
RTVSPost2010Prop42
 90
       50
102
RTVSPost2010PropOp42
 70
     1
102
RTVSPost2010Prop43
 90
        3
102
RTVSPost2010PropOp43
 70
     1
102
RTVSPost2010Prop44ColorIndex
 90
        5
102
RTVSPost2010Prop44ColorRGB
 90
      255
102
RTVSPost2010PropOp44
 70
     1
102
RTVSPost2010Prop45
280
     0
102
RTVSPost2010PropOp45
 70
     1
102
RTVSPost2010Prop46
 90
       50
102
RTVSPost2010PropOp46
 70
     1
102
RTVSPost2010Prop47
 90
       50
102
RTVSPost2010PropOp47
 70
     1
102
RTVSPost2010Prop48
 90
       50
102
RTVSPost2010PropOp48
 70
     1
102
RTVSPost2010Prop49
280
     0
102
RTVSPost2010PropOp49
 70
     1
102
RTVSPost2010Prop50
 90
       50
102
RTVSPost2010PropOp50
 70
     1
102
RTVSPost2010Prop51ColorIndex
 90
      256
102
RTVSPost2010Prop51ColorRGB
 90
-16777216
102
RTVSPost2010PropOp51
 70
     0
102
RTVSPost2010Prop52
140
1.0
102
RTVSPost2010PropOp52
 70
     0
102
RTVSPost2010Prop53
 90
        2
102
RTVSPost2010PropOp53
 70
     1
102
RTVSPost2010Prop54
  1
strokes_ogs.tif
102
RTVSPost2010PropOp54
 70
     1
102
RTVSPost2010Prop55
280
     0
102
RTVSPost2010PropOp55
 70
     1
102
RTVSPost2010Prop56
140
1.0
102
RTVSPost2010PropOp56
 70
     1
102
RTVSPost2010Prop57
140
1.0
102
RTVSPost2010PropOp57
 70
     1
  0
XRECORD
  5
286
102
{ACAD_REACTORS
330
285
102
}
330
285
100
AcDbXrecord
280
     1
102
RTVSPropertyOp0
 70
     1
102
RTVSPropertyOp1
 70
     1
102
RTVSPropertyOp2
 70
     1
102
RTVSPropertyOp3
 70
     1
102
RTVSPropertyOp4
 70
     1
102
RTVSPropertyOp5
 70
     1
102
RTVSPropertyOp6
 70
     1
102
RTVSPropertyOp7
 70
     1
102
RTVSPropertyOp8
 70
     1
102
RTVSPropertyOp9
 70
     1
102
RTVSPropertyOp10
 70
     1
102
RTVSPropertyOp11
 70
     1
102
RTVSPropertyOp12
 70
     1
102
RTVSPropertyOp13
 70
     1
102
RTVSPropertyOp14
 70
     1
102
RTVSPropertyOp15
 70
     1
102
RTVSPropertyOp16
 70
     1
102
RTVSPropertyOp17
 70
     1
102
RTVSPropertyOp18
 70
     1
102
RTVSPropertyOp19
 70
     1
102
RTVSPropertyOp20
 70
     1
102
RTVSPropertyOp21
 70
     1
102
RTVSPropertyOp22
 70
     1
102
RTVSPropertyOp23
 70
     1
102
RTVSPropertyOp24
 70
     1
102
RTVSPropertyOp25
 70
     1
102
RTVSPropertyOp26
 70
     1
102
RTVSPropertyOp27
 70
     1
102
RTVSPropertyOp28
 70
     1
102
RTVSPropertyOp29
 70
     1
102
RTVSPropertyOp30
 70
     1
102
RTVSPropertyOp31
 70
     1
102
RTVSPropertyOp32
 70
     1
102
RTVSPropertyOp33
 70
     1
102
RTVSPropertyOp34
 70
     1
102
RTVSPropertyOp35
 70
     1
102
RTVSPropertyOp36
 70
     1
102
RTVSPropertyOp37
 70
     1
102
RTVSPropertyOp38
 70
     1
102
RTVSPropertyOp39
 70
     1
102
RTVSPropertyOp40
 70
     1
102
RTVSPropertyOp41
 70
     1
102
RTVSPropertyOp42
 70
     1
102
RTVSPropertyOp43
 70
     1
102
RTVSPropertyOp44
 70
     1
102
RTVSPropertyOp45
 70
     1
102
RTVSPropertyOp46
 70
     1
102
RTVSPropertyOp47
 70
     1
102
RTVSPropertyOp48
 70
     1
102
RTVSPropertyOp49
 70
     1
102
RTVSPropertyOp50
 70
     1
102
RTVSPropertyOp51
 70
     0
102
RTVSPropertyOp52
 70
     0
102
RTVSPropertyOp53
 70
     1
102
RTVSPropertyOp54
 70
     1
102
RTVSPropertyOp55
 70
     1
102
RTVSPropertyOp56
 70
     1
102
RTVSPropertyOp57
 70
     1
102
RTVSPost2010Prop28
280
     0
102
RTVSPost2010PropOp28
 70
     1
102
RTVSPost2010Prop29
280
     1
102
RTVSPost2010PropOp29
 70
     1
102
RTVSPost2010Prop30
280
     1
102
RTVSPost2010PropOp30
 70
     1
102
RTVSPost2010Prop31
280
     0
102
RTVSPost2010PropOp31
 70
     1
102
RTVSPost2010Prop32
280
     0
102
RTVSPost2010PropOp32
 70
     1
102
RTVSPost2010Prop33
280
     0
102
RTVSPost2010PropOp33
 70
     1
102
RTVSPost2010Prop34
280
     0
102
RTVSPost2010PropOp34
 70
     1
102
RTVSPost2010Prop35
280
     0
102
RTVSPost2010PropOp35
 70
     1
102
RTVSPost2010Prop36
280
     0
102
RTVSPost2010PropOp36
 70
     1
102
RTVSPost2010Prop37
 90
       50
102
RTVSPost2010PropOp37
 70
     1
102
RTVSPost2010Prop38
140
0.0
102
RTVSPost2010PropOp38
 70
     1
102
RTVSPost2010Prop39
140
1.0
102
RTVSPost2010PropOp39
 70
     1
102
RTVSPost2010Prop40
 90
        0
102
RTVSPost2010PropOp40
 70
     1
102
RTVSPost2010Prop41ColorIndex
 90
       18
102
RTVSPost2010Prop41ColorRGB
 90
        0
102
RTVSPost2010PropOp41
 70
     1
102
RTVSPost2010Prop42
 90
       50
102
RTVSPost2010PropOp42
 70
     1
102
RTVSPost2010Prop43
 90
        3
102
RTVSPost2010PropOp43
 70
     1
102
RTVSPost2010Prop44ColorIndex
 90
        5
102
RTVSPost2010Prop44ColorRGB
 90
      255
102
RTVSPost2010PropOp44
 70
     1
102
RTVSPost2010Prop45
280
     0
102
RTVSPost2010PropOp45
 70
     1
102
RTVSPost2010Prop46
 90
       50
102
RTVSPost2010PropOp46
 70
     1
102
RTVSPost2010Prop47
 90
       50
102
RTVSPost2010PropOp47
 70
     1
102
RTVSPost2010Prop48
 90
       50
102
RTVSPost2010PropOp48
 70
     1
102
RTVSPost2010Prop49
280
     0
102
RTVSPost2010PropOp49
 70
     1
102
RTVSPost2010Prop50
 90
       50
102
RTVSPost2010PropOp50
 70
     1
102
RTVSPost2010Prop51ColorIndex
 90
      256
102
RTVSPost2010Prop51ColorRGB
 90
-16777216
102
RTVSPost2010PropOp51
 70
     0
102
RTVSPost2010Prop52
140
1.0
102
RTVSPost2010PropOp52
 70
     0
102
RTVSPost2010Prop53
 90
        2
102
RTVSPost2010PropOp53
 70
     1
102
RTVSPost2010Prop54
  1
strokes_ogs.tif
102
RTVSPost2010PropOp54
 70
     1
102
RTVSPost2010Prop55
280
     0
102
RTVSPost2010PropOp55
 70
     1
102
RTVSPost2010Prop56
140
1.0
102
RTVSPost2010PropOp56
 70
     1
102
RTVSPost2010Prop57
140
1.0
102
RTVSPost2010PropOp57
 70
     1
  0
XRECORD
  5
27A
102
{ACAD_REACTORS
330
279
102
}
330
279
100
AcDbXrecord
280
     1
102
RTVSPropertyOp0
 70
     1
102
RTVSPropertyOp1
 70
     1
102
RTVSPropertyOp2
 70
     1
102
RTVSPropertyOp3
 70
     1
102
RTVSPropertyOp4
 70
     1
102
RTVSPropertyOp5
 70
     1
102
RTVSPropertyOp6
 70
     1
102
RTVSPropertyOp7
 70
     1
102
RTVSPropertyOp8
 70
     1
102
RTVSPropertyOp9
 70
     1
102
RTVSPropertyOp10
 70
     1
102
RTVSPropertyOp11
 70
     1
102
RTVSPropertyOp12
 70
     1
102
RTVSPropertyOp13
 70
     1
102
RTVSPropertyOp14
 70
     1
102
RTVSPropertyOp15
 70
     1
102
RTVSPropertyOp16
 70
     1
102
RTVSPropertyOp17
 70
     1
102
RTVSPropertyOp18
 70
     1
102
RTVSPropertyOp19
 70
     1
102
RTVSPropertyOp20
 70
     1
102
RTVSPropertyOp21
 70
     1
102
RTVSPropertyOp22
 70
     1
102
RTVSPropertyOp23
 70
     1
102
RTVSPropertyOp24
 70
     1
102
RTVSPropertyOp25
 70
     1
102
RTVSPropertyOp26
 70
     1
102
RTVSPropertyOp27
 70
     1
102
RTVSPropertyOp28
 70
     1
102
RTVSPropertyOp29
 70
     1
102
RTVSPropertyOp30
 70
     1
102
RTVSPropertyOp31
 70
     1
102
RTVSPropertyOp32
 70
     1
102
RTVSPropertyOp33
 70
     1
102
RTVSPropertyOp34
 70
     1
102
RTVSPropertyOp35
 70
     1
102
RTVSPropertyOp36
 70
     1
102
RTVSPropertyOp37
 70
     1
102
RTVSPropertyOp38
 70
     1
102
RTVSPropertyOp39
 70
     1
102
RTVSPropertyOp40
 70
     1
102
RTVSPropertyOp41
 70
     1
102
RTVSPropertyOp42
 70
     1
102
RTVSPropertyOp43
 70
     1
102
RTVSPropertyOp44
 70
     1
102
RTVSPropertyOp45
 70
     1
102
RTVSPropertyOp46
 70
     1
102
RTVSPropertyOp47
 70
     1
102
RTVSPropertyOp48
 70
     1
102
RTVSPropertyOp49
 70
     1
102
RTVSPropertyOp50
 70
     1
102
RTVSPropertyOp51
 70
     0
102
RTVSPropertyOp52
 70
     0
102
RTVSPropertyOp53
 70
     1
102
RTVSPropertyOp54
 70
     1
102
RTVSPropertyOp55
 70
     1
102
RTVSPropertyOp56
 70
     1
102
RTVSPropertyOp57
 70
     1
102
RTVSPost2010Prop28
280
     0
102
RTVSPost2010PropOp28
 70
     1
102
RTVSPost2010Prop29
280
     1
102
RTVSPost2010PropOp29
 70
     1
102
RTVSPost2010Prop30
280
     1
102
RTVSPost2010PropOp30
 70
     1
102
RTVSPost2010Prop31
280
     0
102
RTVSPost2010PropOp31
 70
     1
102
RTVSPost2010Prop32
280
     0
102
RTVSPost2010PropOp32
 70
     1
102
RTVSPost2010Prop33
280
     0
102
RTVSPost2010PropOp33
 70
     1
102
RTVSPost2010Prop34
280
     0
102
RTVSPost2010PropOp34
 70
     1
102
RTVSPost2010Prop35
280
     0
102
RTVSPost2010PropOp35
 70
     1
102
RTVSPost2010Prop36
280
     0
102
RTVSPost2010PropOp36
 70
     1
102
RTVSPost2010Prop37
 90
       50
102
RTVSPost2010PropOp37
 70
     1
102
RTVSPost2010Prop38
140
0.0
102
RTVSPost2010PropOp38
 70
     1
102
RTVSPost2010Prop39
140
1.0
102
RTVSPost2010PropOp39
 70
     1
102
RTVSPost2010Prop40
 90
        0
102
RTVSPost2010PropOp40
 70
     1
102
RTVSPost2010Prop41ColorIndex
 90
       18
102
RTVSPost2010Prop41ColorRGB
 90
        0
102
RTVSPost2010PropOp41
 70
     1
102
RTVSPost2010Prop42
 90
       50
102
RTVSPost2010PropOp42
 70
     1
102
RTVSPost2010Prop43
 90
        3
102
RTVSPost2010PropOp43
 70
     1
102
RTVSPost2010Prop44ColorIndex
 90
        5
102
RTVSPost2010Prop44ColorRGB
 90
      255
102
RTVSPost2010PropOp44
 70
     1
102
RTVSPost2010Prop45
280
     0
102
RTVSPost2010PropOp45
 70
     1
102
RTVSPost2010Prop46
 90
       50
102
RTVSPost2010PropOp46
 70
     1
102
RTVSPost2010Prop47
 90
       50
102
RTVSPost2010PropOp47
 70
     1
102
RTVSPost2010Prop48
 90
       50
102
RTVSPost2010PropOp48
 70
     1
102
RTVSPost2010Prop49
280
     0
102
RTVSPost2010PropOp49
 70
     1
102
RTVSPost2010Prop50
 90
       50
102
RTVSPost2010PropOp50
 70
     1
102
RTVSPost2010Prop51ColorIndex
 90
      256
102
RTVSPost2010Prop51ColorRGB
 90
-16777216
102
RTVSPost2010PropOp51
 70
     0
102
RTVSPost2010Prop52
140
1.0
102
RTVSPost2010PropOp52
 70
     0
102
RTVSPost2010Prop53
 90
        2
102
RTVSPost2010PropOp53
 70
     1
102
RTVSPost2010Prop54
  1
strokes_ogs.tif
102
RTVSPost2010PropOp54
 70
     1
102
RTVSPost2010Prop55
280
     0
102
RTVSPost2010PropOp55
 70
     1
102
RTVSPost2010Prop56
140
1.0
102
RTVSPost2010PropOp56
 70
     1
102
RTVSPost2010Prop57
140
1.0
102
RTVSPost2010PropOp57
 70
     1
  0
XRECORD
  5
27C
102
{ACAD_REACTORS
330
27B
102
}
330
27B
100
AcDbXrecord
280
     1
102
RTVSPropertyOp0
 70
     1
102
RTVSPropertyOp1
 70
     1
102
RTVSPropertyOp2
 70
     1
102
RTVSPropertyOp3
 70
     1
102
RTVSPropertyOp4
 70
     1
102
RTVSPropertyOp5
 70
     1
102
RTVSPropertyOp6
 70
     1
102
RTVSPropertyOp7
 70
     1
102
RTVSPropertyOp8
 70
     1
102
RTVSPropertyOp9
 70
     1
102
RTVSPropertyOp10
 70
     1
102
RTVSPropertyOp11
 70
     1
102
RTVSPropertyOp12
 70
     1
102
RTVSPropertyOp13
 70
     1
102
RTVSPropertyOp14
 70
     1
102
RTVSPropertyOp15
 70
     1
102
RTVSPropertyOp16
 70
     1
102
RTVSPropertyOp17
 70
     1
102
RTVSPropertyOp18
 70
     1
102
RTVSPropertyOp19
 70
     1
102
RTVSPropertyOp20
 70
     1
102
RTVSPropertyOp21
 70
     1
102
RTVSPropertyOp22
 70
     1
102
RTVSPropertyOp23
 70
     1
102
RTVSPropertyOp24
 70
     1
102
RTVSPropertyOp25
 70
     1
102
RTVSPropertyOp26
 70
     1
102
RTVSPropertyOp27
 70
     1
102
RTVSPropertyOp28
 70
     1
102
RTVSPropertyOp29
 70
     1
102
RTVSPropertyOp30
 70
     1
102
RTVSPropertyOp31
 70
     1
102
RTVSPropertyOp32
 70
     1
102
RTVSPropertyOp33
 70
     1
102
RTVSPropertyOp34
 70
     1
102
RTVSPropertyOp35
 70
     1
102
RTVSPropertyOp36
 70
     1
102
RTVSPropertyOp37
 70
     1
102
RTVSPropertyOp38
 70
     1
102
RTVSPropertyOp39
 70
     1
102
RTVSPropertyOp40
 70
     1
102
RTVSPropertyOp41
 70
     1
102
RTVSPropertyOp42
 70
     1
102
RTVSPropertyOp43
 70
     1
102
RTVSPropertyOp44
 70
     1
102
RTVSPropertyOp45
 70
     1
102
RTVSPropertyOp46
 70
     1
102
RTVSPropertyOp47
 70
     1
102
RTVSPropertyOp48
 70
     1
102
RTVSPropertyOp49
 70
     1
102
RTVSPropertyOp50
 70
     1
102
RTVSPropertyOp51
 70
     0
102
RTVSPropertyOp52
 70
     0
102
RTVSPropertyOp53
 70
     1
102
RTVSPropertyOp54
 70
     1
102
RTVSPropertyOp55
 70
     1
102
RTVSPropertyOp56
 70
     1
102
RTVSPropertyOp57
 70
     1
102
RTVSPost2010Prop28
280
     0
102
RTVSPost2010PropOp28
 70
     1
102
RTVSPost2010Prop29
280
     1
102
RTVSPost2010PropOp29
 70
     1
102
RTVSPost2010Prop30
280
     1
102
RTVSPost2010PropOp30
 70
     1
102
RTVSPost2010Prop31
280
     0
102
RTVSPost2010PropOp31
 70
     1
102
RTVSPost2010Prop32
280
     0
102
RTVSPost2010PropOp32
 70
     1
102
RTVSPost2010Prop33
280
     0
102
RTVSPost2010PropOp33
 70
     1
102
RTVSPost2010Prop34
280
     0
102
RTVSPost2010PropOp34
 70
     1
102
RTVSPost2010Prop35
280
     0
102
RTVSPost2010PropOp35
 70
     1
102
RTVSPost2010Prop36
280
     0
102
RTVSPost2010PropOp36
 70
     1
102
RTVSPost2010Prop37
 90
       50
102
RTVSPost2010PropOp37
 70
     1
102
RTVSPost2010Prop38
140
0.0
102
RTVSPost2010PropOp38
 70
     1
102
RTVSPost2010Prop39
140
1.0
102
RTVSPost2010PropOp39
 70
     1
102
RTVSPost2010Prop40
 90
        0
102
RTVSPost2010PropOp40
 70
     1
102
RTVSPost2010Prop41ColorIndex
 90
       18
102
RTVSPost2010Prop41ColorRGB
 90
        0
102
RTVSPost2010PropOp41
 70
     1
102
RTVSPost2010Prop42
 90
       50
102
RTVSPost2010PropOp42
 70
     1
102
RTVSPost2010Prop43
 90
        3
102
RTVSPost2010PropOp43
 70
     1
102
RTVSPost2010Prop44ColorIndex
 90
        5
102
RTVSPost2010Prop44ColorRGB
 90
      255
102
RTVSPost2010PropOp44
 70
     1
102
RTVSPost2010Prop45
280
     0
102
RTVSPost2010PropOp45
 70
     1
102
RTVSPost2010Prop46
 90
       50
102
RTVSPost2010PropOp46
 70
     1
102
RTVSPost2010Prop47
 90
       50
102
RTVSPost2010PropOp47
 70
     1
102
RTVSPost2010Prop48
 90
       50
102
RTVSPost2010PropOp48
 70
     1
102
RTVSPost2010Prop49
280
     0
102
RTVSPost2010PropOp49
 70
     1
102
RTVSPost2010Prop50
 90
       50
102
RTVSPost2010PropOp50
 70
     1
102
RTVSPost2010Prop51ColorIndex
 90
      256
102
RTVSPost2010Prop51ColorRGB
 90
-16777216
102
RTVSPost2010PropOp51
 70
     0
102
RTVSPost2010Prop52
140
1.0
102
RTVSPost2010PropOp52
 70
     0
102
RTVSPost2010Prop53
 90
        2
102
RTVSPost2010PropOp53
 70
     1
102
RTVSPost2010Prop54
  1
strokes_ogs.tif
102
RTVSPost2010PropOp54
 70
     1
102
RTVSPost2010Prop55
280
     0
102
RTVSPost2010PropOp55
 70
     1
102
RTVSPost2010Prop56
140
1.0
102
RTVSPost2010PropOp56
 70
     1
102
RTVSPost2010Prop57
140
1.0
102
RTVSPost2010PropOp57
 70
     1
  0
XRECORD
  5
28C
102
{ACAD_REACTORS
330
28B
102
}
330
28B
100
AcDbXrecord
280
     1
102
RTVSPropertyOp0
 70
     0
102
RTVSPropertyOp1
 70
     0
102
RTVSPropertyOp2
 70
     0
102
RTVSPropertyOp3
 70
     0
102
RTVSPropertyOp4
 70
     0
102
RTVSPropertyOp5
 70
     0
102
RTVSPropertyOp6
 70
     0
102
RTVSPropertyOp7
 70
     0
102
RTVSPropertyOp8
 70
     0
102
RTVSPropertyOp9
 70
     0
102
RTVSPropertyOp10
 70
     0
102
RTVSPropertyOp11
 70
     0
102
RTVSPropertyOp12
 70
     0
102
RTVSPropertyOp13
 70
     0
102
RTVSPropertyOp14
 70
     2
102
RTVSPropertyOp15
 70
     0
102
RTVSPropertyOp16
 70
     0
102
RTVSPropertyOp17
 70
     0
102
RTVSPropertyOp18
 70
     0
102
RTVSPropertyOp19
 70
     0
102
RTVSPropertyOp20
 70
     0
102
RTVSPropertyOp21
 70
     0
102
RTVSPropertyOp22
 70
     0
102
RTVSPropertyOp23
 70
     0
102
RTVSPropertyOp24
 70
     0
102
RTVSPropertyOp25
 70
     0
102
RTVSPropertyOp26
 70
     0
102
RTVSPropertyOp27
 70
     0
102
RTVSPropertyOp28
 70
     0
102
RTVSPropertyOp29
 70
     0
102
RTVSPropertyOp30
 70
     0
102
RTVSPropertyOp31
 70
     0
102
RTVSPropertyOp32
 70
     0
102
RTVSPropertyOp33
 70
     0
102
RTVSPropertyOp34
 70
     0
102
RTVSPropertyOp35
 70
     0
102
RTVSPropertyOp36
 70
     0
102
RTVSPropertyOp37
 70
     0
102
RTVSPropertyOp38
 70
     0
102
RTVSPropertyOp39
 70
     0
102
RTVSPropertyOp40
 70
     0
102
RTVSPropertyOp41
 70
     0
102
RTVSPropertyOp42
 70
     0
102
RTVSPropertyOp43
 70
     0
102
RTVSPropertyOp44
 70
     0
102
RTVSPropertyOp45
 70
     0
102
RTVSPropertyOp46
 70
     0
102
RTVSPropertyOp47
 70
     0
102
RTVSPropertyOp48
 70
     0
102
RTVSPropertyOp49
 70
     0
102
RTVSPropertyOp50
 70
     0
102
RTVSPropertyOp51
 70
     0
102
RTVSPropertyOp52
 70
     0
102
RTVSPropertyOp53
 70
     0
102
RTVSPropertyOp54
 70
     0
102
RTVSPropertyOp55
 70
     0
102
RTVSPropertyOp56
 70
     0
102
RTVSPropertyOp57
 70
     0
102
RTVSPost2010Prop28
280
     0
102
RTVSPost2010PropOp28
 70
     0
102
RTVSPost2010Prop29
280
     1
102
RTVSPost2010PropOp29
 70
     0
102
RTVSPost2010Prop30
280
     1
102
RTVSPost2010PropOp30
 70
     0
102
RTVSPost2010Prop31
280
     0
102
RTVSPost2010PropOp31
 70
     0
102
RTVSPost2010Prop32
280
     0
102
RTVSPost2010PropOp32
 70
     0
102
RTVSPost2010Prop33
280
     0
102
RTVSPost2010PropOp33
 70
     0
102
RTVSPost2010Prop34
280
     0
102
RTVSPost2010PropOp34
 70
     0
102
RTVSPost2010Prop35
280
     0
102
RTVSPost2010PropOp35
 70
     0
102
RTVSPost2010Prop36
280
     0
102
RTVSPost2010PropOp36
 70
     0
102
RTVSPost2010Prop37
 90
       50
102
RTVSPost2010PropOp37
 70
     0
102
RTVSPost2010Prop38
140
0.0
102
RTVSPost2010PropOp38
 70
     0
102
RTVSPost2010Prop39
140
1.0
102
RTVSPost2010PropOp39
 70
     0
102
RTVSPost2010Prop40
 90
        0
102
RTVSPost2010PropOp40
 70
     0
102
RTVSPost2010Prop41ColorIndex
 90
       18
102
RTVSPost2010Prop41ColorRGB
 90
        0
102
RTVSPost2010PropOp41
 70
     0
102
RTVSPost2010Prop42
 90
       50
102
RTVSPost2010PropOp42
 70
     0
102
RTVSPost2010Prop43
 90
        3
102
RTVSPost2010PropOp43
 70
     0
102
RTVSPost2010Prop44ColorIndex
 90
        5
102
RTVSPost2010Prop44ColorRGB
 90
      255
102
RTVSPost2010PropOp44
 70
     0
102
RTVSPost2010Prop45
280
     0
102
RTVSPost2010PropOp45
 70
     0
102
RTVSPost2010Prop46
 90
       50
102
RTVSPost2010PropOp46
 70
     0
102
RTVSPost2010Prop47
 90
       50
102
RTVSPost2010PropOp47
 70
     0
102
RTVSPost2010Prop48
 90
       50
102
RTVSPost2010PropOp48
 70
     0
102
RTVSPost2010Prop49
280
     0
102
RTVSPost2010PropOp49
 70
     0
102
RTVSPost2010Prop50
 90
       50
102
RTVSPost2010PropOp50
 70
     0
102
RTVSPost2010Prop51ColorIndex
 90
      256
102
RTVSPost2010Prop51ColorRGB
 90
-16777216
102
RTVSPost2010PropOp51
 70
     0
102
RTVSPost2010Prop52
140
1.0
102
RTVSPost2010PropOp52
 70
     0
102
RTVSPost2010Prop53
 90
        2
102
RTVSPost2010PropOp53
 70
     0
102
RTVSPost2010Prop54
  1
strokes_ogs.tif
102
RTVSPost2010PropOp54
 70
     0
102
RTVSPost2010Prop55
280
     0
102
RTVSPost2010PropOp55
 70
     0
102
RTVSPost2010Prop56
140
1.0
102
RTVSPost2010PropOp56
 70
     0
102
RTVSPost2010Prop57
140
1.0
102
RTVSPost2010PropOp57
 70
     0
  0
XRECORD
  5
284
102
{ACAD_REACTORS
330
283
102
}
330
283
100
AcDbXrecord
280
     1
102
RTVSPropertyOp0
 70
     1
102
RTVSPropertyOp1
 70
     1
102
RTVSPropertyOp2
 70
     1
102
RTVSPropertyOp3
 70
     1
102
RTVSPropertyOp4
 70
     1
102
RTVSPropertyOp5
 70
     1
102
RTVSPropertyOp6
 70
     1
102
RTVSPropertyOp7
 70
     1
102
RTVSPropertyOp8
 70
     1
102
RTVSPropertyOp9
 70
     1
102
RTVSPropertyOp10
 70
     1
102
RTVSPropertyOp11
 70
     1
102
RTVSPropertyOp12
 70
     1
102
RTVSPropertyOp13
 70
     1
102
RTVSPropertyOp14
 70
     1
102
RTVSPropertyOp15
 70
     1
102
RTVSPropertyOp16
 70
     1
102
RTVSPropertyOp17
 70
     1
102
RTVSPropertyOp18
 70
     1
102
RTVSPropertyOp19
 70
     1
102
RTVSPropertyOp20
 70
     1
102
RTVSPropertyOp21
 70
     1
102
RTVSPropertyOp22
 70
     1
102
RTVSPropertyOp23
 70
     1
102
RTVSPropertyOp24
 70
     1
102
RTVSPropertyOp25
 70
     1
102
RTVSPropertyOp26
 70
     1
102
RTVSPropertyOp27
 70
     1
102
RTVSPropertyOp28
 70
     1
102
RTVSPropertyOp29
 70
     1
102
RTVSPropertyOp30
 70
     1
102
RTVSPropertyOp31
 70
     1
102
RTVSPropertyOp32
 70
     1
102
RTVSPropertyOp33
 70
     1
102
RTVSPropertyOp34
 70
     1
102
RTVSPropertyOp35
 70
     1
102
RTVSPropertyOp36
 70
     1
102
RTVSPropertyOp37
 70
     1
102
RTVSPropertyOp38
 70
     1
102
RTVSPropertyOp39
 70
     1
102
RTVSPropertyOp40
 70
     1
102
RTVSPropertyOp41
 70
     1
102
RTVSPropertyOp42
 70
     1
102
RTVSPropertyOp43
 70
     1
102
RTVSPropertyOp44
 70
     1
102
RTVSPropertyOp45
 70
     1
102
RTVSPropertyOp46
 70
     1
102
RTVSPropertyOp47
 70
     1
102
RTVSPropertyOp48
 70
     1
102
RTVSPropertyOp49
 70
     1
102
RTVSPropertyOp50
 70
     1
102
RTVSPropertyOp51
 70
     0
102
RTVSPropertyOp52
 70
     0
102
RTVSPropertyOp53
 70
     1
102
RTVSPropertyOp54
 70
     1
102
RTVSPropertyOp55
 70
     1
102
RTVSPropertyOp56
 70
     1
102
RTVSPropertyOp57
 70
     1
102
RTVSPost2010Prop28
280
     0
102
RTVSPost2010PropOp28
 70
     1
102
RTVSPost2010Prop29
280
     1
102
RTVSPost2010PropOp29
 70
     1
102
RTVSPost2010Prop30
280
     1
102
RTVSPost2010PropOp30
 70
     1
102
RTVSPost2010Prop31
280
     0
102
RTVSPost2010PropOp31
 70
     1
102
RTVSPost2010Prop32
280
     0
102
RTVSPost2010PropOp32
 70
     1
102
RTVSPost2010Prop33
280
     0
102
RTVSPost2010PropOp33
 70
     1
102
RTVSPost2010Prop34
280
     0
102
RTVSPost2010PropOp34
 70
     1
102
RTVSPost2010Prop35
280
     0
102
RTVSPost2010PropOp35
 70
     1
102
RTVSPost2010Prop36
280
     0
102
RTVSPost2010PropOp36
 70
     1
102
RTVSPost2010Prop37
 90
       50
102
RTVSPost2010PropOp37
 70
     1
102
RTVSPost2010Prop38
140
0.0
102
RTVSPost2010PropOp38
 70
     1
102
RTVSPost2010Prop39
140
1.0
102
RTVSPost2010PropOp39
 70
     1
102
RTVSPost2010Prop40
 90
        0
102
RTVSPost2010PropOp40
 70
     1
102
RTVSPost2010Prop41ColorIndex
 90
       18
102
RTVSPost2010Prop41ColorRGB
 90
        0
102
RTVSPost2010PropOp41
 70
     1
102
RTVSPost2010Prop42
 90
       50
102
RTVSPost2010PropOp42
 70
     1
102
RTVSPost2010Prop43
 90
        3
102
RTVSPost2010PropOp43
 70
     1
102
RTVSPost2010Prop44ColorIndex
 90
        5
102
RTVSPost2010Prop44ColorRGB
 90
      255
102
RTVSPost2010PropOp44
 70
     1
102
RTVSPost2010Prop45
280
     0
102
RTVSPost2010PropOp45
 70
     1
102
RTVSPost2010Prop46
 90
       50
102
RTVSPost2010PropOp46
 70
     1
102
RTVSPost2010Prop47
 90
       50
102
RTVSPost2010PropOp47
 70
     1
102
RTVSPost2010Prop48
 90
       50
102
RTVSPost2010PropOp48
 70
     1
102
RTVSPost2010Prop49
280
     0
102
RTVSPost2010PropOp49
 70
     1
102
RTVSPost2010Prop50
 90
       50
102
RTVSPost2010PropOp50
 70
     1
102
RTVSPost2010Prop51ColorIndex
 90
      256
102
RTVSPost2010Prop51ColorRGB
 90
-16777216
102
RTVSPost2010PropOp51
 70
     0
102
RTVSPost2010Prop52
140
1.0
102
RTVSPost2010PropOp52
 70
     0
102
RTVSPost2010Prop53
 90
        2
102
RTVSPost2010PropOp53
 70
     1
102
RTVSPost2010Prop54
  1
strokes_ogs.tif
102
RTVSPost2010PropOp54
 70
     1
102
RTVSPost2010Prop55
280
     0
102
RTVSPost2010PropOp55
 70
     1
102
RTVSPost2010Prop56
140
1.0
102
RTVSPost2010PropOp56
 70
     1
102
RTVSPost2010Prop57
140
1.0
102
RTVSPost2010PropOp57
 70
     1
  0
XRECORD
  5
268
102
{ACAD_REACTORS
330
267
102
}
330
267
100
AcDbXrecord
280
     1
102
RTVSPropertyOp0
 70
     1
102
RTVSPropertyOp1
 70
     1
102
RTVSPropertyOp2
 70
     1
102
RTVSPropertyOp3
 70
     1
102
RTVSPropertyOp4
 70
     1
102
RTVSPropertyOp5
 70
     1
102
RTVSPropertyOp6
 70
     1
102
RTVSPropertyOp7
 70
     1
102
RTVSPropertyOp8
 70
     1
102
RTVSPropertyOp9
 70
     1
102
RTVSPropertyOp10
 70
     1
102
RTVSPropertyOp11
 70
     1
102
RTVSPropertyOp12
 70
     1
102
RTVSPropertyOp13
 70
     1
102
RTVSPropertyOp14
 70
     1
102
RTVSPropertyOp15
 70
     1
102
RTVSPropertyOp16
 70
     1
102
RTVSPropertyOp17
 70
     1
102
RTVSPropertyOp18
 70
     1
102
RTVSPropertyOp19
 70
     1
102
RTVSPropertyOp20
 70
     1
102
RTVSPropertyOp21
 70
     1
102
RTVSPropertyOp22
 70
     1
102
RTVSPropertyOp23
 70
     1
102
RTVSPropertyOp24
 70
     1
102
RTVSPropertyOp25
 70
     1
102
RTVSPropertyOp26
 70
     1
102
RTVSPropertyOp27
 70
     1
102
RTVSPropertyOp28
 70
     1
102
RTVSPropertyOp29
 70
     1
102
RTVSPropertyOp30
 70
     1
102
RTVSPropertyOp31
 70
     1
102
RTVSPropertyOp32
 70
     1
102
RTVSPropertyOp33
 70
     1
102
RTVSPropertyOp34
 70
     1
102
RTVSPropertyOp35
 70
     1
102
RTVSPropertyOp36
 70
     1
102
RTVSPropertyOp37
 70
     1
102
RTVSPropertyOp38
 70
     1
102
RTVSPropertyOp39
 70
     1
102
RTVSPropertyOp40
 70
     1
102
RTVSPropertyOp41
 70
     1
102
RTVSPropertyOp42
 70
     1
102
RTVSPropertyOp43
 70
     1
102
RTVSPropertyOp44
 70
     1
102
RTVSPropertyOp45
 70
     1
102
RTVSPropertyOp46
 70
     1
102
RTVSPropertyOp47
 70
     1
102
RTVSPropertyOp48
 70
     1
102
RTVSPropertyOp49
 70
     1
102
RTVSPropertyOp50
 70
     1
102
RTVSPropertyOp51
 70
     0
102
RTVSPropertyOp52
 70
     0
102
RTVSPropertyOp53
 70
     1
102
RTVSPropertyOp54
 70
     1
102
RTVSPropertyOp55
 70
     1
102
RTVSPropertyOp56
 70
     1
102
RTVSPropertyOp57
 70
     1
102
RTVSPost2010Prop28
280
     0
102
RTVSPost2010PropOp28
 70
     1
102
RTVSPost2010Prop29
280
     1
102
RTVSPost2010PropOp29
 70
     1
102
RTVSPost2010Prop30
280
     1
102
RTVSPost2010PropOp30
 70
     1
102
RTVSPost2010Prop31
280
     0
102
RTVSPost2010PropOp31
 70
     1
102
RTVSPost2010Prop32
280
     0
102
RTVSPost2010PropOp32
 70
     1
102
RTVSPost2010Prop33
280
     0
102
RTVSPost2010PropOp33
 70
     1
102
RTVSPost2010Prop34
280
     0
102
RTVSPost2010PropOp34
 70
     1
102
RTVSPost2010Prop35
280
     0
102
RTVSPost2010PropOp35
 70
     1
102
RTVSPost2010Prop36
280
     0
102
RTVSPost2010PropOp36
 70
     1
102
RTVSPost2010Prop37
 90
       50
102
RTVSPost2010PropOp37
 70
     1
102
RTVSPost2010Prop38
140
0.0
102
RTVSPost2010PropOp38
 70
     1
102
RTVSPost2010Prop39
140
1.0
102
RTVSPost2010PropOp39
 70
     1
102
RTVSPost2010Prop40
 90
        0
102
RTVSPost2010PropOp40
 70
     1
102
RTVSPost2010Prop41ColorIndex
 90
       18
102
RTVSPost2010Prop41ColorRGB
 90
        0
102
RTVSPost2010PropOp41
 70
     1
102
RTVSPost2010Prop42
 90
       50
102
RTVSPost2010PropOp42
 70
     1
102
RTVSPost2010Prop43
 90
        3
102
RTVSPost2010PropOp43
 70
     1
102
RTVSPost2010Prop44ColorIndex
 90
        5
102
RTVSPost2010Prop44ColorRGB
 90
      255
102
RTVSPost2010PropOp44
 70
     1
102
RTVSPost2010Prop45
280
     0
102
RTVSPost2010PropOp45
 70
     1
102
RTVSPost2010Prop46
 90
       50
102
RTVSPost2010PropOp46
 70
     1
102
RTVSPost2010Prop47
 90
       50
102
RTVSPost2010PropOp47
 70
     1
102
RTVSPost2010Prop48
 90
       50
102
RTVSPost2010PropOp48
 70
     1
102
RTVSPost2010Prop49
280
     0
102
RTVSPost2010PropOp49
 70
     1
102
RTVSPost2010Prop50
 90
       50
102
RTVSPost2010PropOp50
 70
     1
102
RTVSPost2010Prop51ColorIndex
 90
      256
102
RTVSPost2010Prop51ColorRGB
 90
-16777216
102
RTVSPost2010PropOp51
 70
     0
102
RTVSPost2010Prop52
140
1.0
102
RTVSPost2010PropOp52
 70
     0
102
RTVSPost2010Prop53
 90
        2
102
RTVSPost2010PropOp53
 70
     1
102
RTVSPost2010Prop54
  1
strokes_ogs.tif
102
RTVSPost2010PropOp54
 70
     1
102
RTVSPost2010Prop55
280
     0
102
RTVSPost2010PropOp55
 70
     1
102
RTVSPost2010Prop56
140
1.0
102
RTVSPost2010PropOp56
 70
     1
102
RTVSPost2010Prop57
140
1.0
102
RTVSPost2010PropOp57
 70
     1
  0
XRECORD
  5
26A
102
{ACAD_REACTORS
330
269
102
}
330
269
100
AcDbXrecord
280
     1
102
RTVSPropertyOp0
 70
     1
102
RTVSPropertyOp1
 70
     1
102
RTVSPropertyOp2
 70
     1
102
RTVSPropertyOp3
 70
     1
102
RTVSPropertyOp4
 70
     1
102
RTVSPropertyOp5
 70
     1
102
RTVSPropertyOp6
 70
     1
102
RTVSPropertyOp7
 70
     1
102
RTVSPropertyOp8
 70
     1
102
RTVSPropertyOp9
 70
     1
102
RTVSPropertyOp10
 70
     1
102
RTVSPropertyOp11
 70
     1
102
RTVSPropertyOp12
 70
     1
102
RTVSPropertyOp13
 70
     1
102
RTVSPropertyOp14
 70
     1
102
RTVSPropertyOp15
 70
     1
102
RTVSPropertyOp16
 70
     1
102
RTVSPropertyOp17
 70
     1
102
RTVSPropertyOp18
 70
     1
102
RTVSPropertyOp19
 70
     1
102
RTVSPropertyOp20
 70
     1
102
RTVSPropertyOp21
 70
     1
102
RTVSPropertyOp22
 70
     1
102
RTVSPropertyOp23
 70
     1
102
RTVSPropertyOp24
 70
     1
102
RTVSPropertyOp25
 70
     1
102
RTVSPropertyOp26
 70
     1
102
RTVSPropertyOp27
 70
     1
102
RTVSPropertyOp28
 70
     1
102
RTVSPropertyOp29
 70
     1
102
RTVSPropertyOp30
 70
     1
102
RTVSPropertyOp31
 70
     1
102
RTVSPropertyOp32
 70
     1
102
RTVSPropertyOp33
 70
     1
102
RTVSPropertyOp34
 70
     1
102
RTVSPropertyOp35
 70
     1
102
RTVSPropertyOp36
 70
     1
102
RTVSPropertyOp37
 70
     1
102
RTVSPropertyOp38
 70
     1
102
RTVSPropertyOp39
 70
     1
102
RTVSPropertyOp40
 70
     1
102
RTVSPropertyOp41
 70
     1
102
RTVSPropertyOp42
 70
     1
102
RTVSPropertyOp43
 70
     1
102
RTVSPropertyOp44
 70
     1
102
RTVSPropertyOp45
 70
     1
102
RTVSPropertyOp46
 70
     1
102
RTVSPropertyOp47
 70
     1
102
RTVSPropertyOp48
 70
     1
102
RTVSPropertyOp49
 70
     1
102
RTVSPropertyOp50
 70
     1
102
RTVSPropertyOp51
 70
     0
102
RTVSPropertyOp52
 70
     0
102
RTVSPropertyOp53
 70
     1
102
RTVSPropertyOp54
 70
     1
102
RTVSPropertyOp55
 70
     1
102
RTVSPropertyOp56
 70
     1
102
RTVSPropertyOp57
 70
     1
102
RTVSPost2010Prop28
280
     0
102
RTVSPost2010PropOp28
 70
     1
102
RTVSPost2010Prop29
280
     1
102
RTVSPost2010PropOp29
 70
     1
102
RTVSPost2010Prop30
280
     1
102
RTVSPost2010PropOp30
 70
     1
102
RTVSPost2010Prop31
280
     0
102
RTVSPost2010PropOp31
 70
     1
102
RTVSPost2010Prop32
280
     0
102
RTVSPost2010PropOp32
 70
     1
102
RTVSPost2010Prop33
280
     0
102
RTVSPost2010PropOp33
 70
     1
102
RTVSPost2010Prop34
280
     0
102
RTVSPost2010PropOp34
 70
     1
102
RTVSPost2010Prop35
280
     0
102
RTVSPost2010PropOp35
 70
     1
102
RTVSPost2010Prop36
280
     0
102
RTVSPost2010PropOp36
 70
     1
102
RTVSPost2010Prop37
 90
       50
102
RTVSPost2010PropOp37
 70
     1
102
RTVSPost2010Prop38
140
0.0
102
RTVSPost2010PropOp38
 70
     1
102
RTVSPost2010Prop39
140
1.0
102
RTVSPost2010PropOp39
 70
     1
102
RTVSPost2010Prop40
 90
        0
102
RTVSPost2010PropOp40
 70
     1
102
RTVSPost2010Prop41ColorIndex
 90
       18
102
RTVSPost2010Prop41ColorRGB
 90
        0
102
RTVSPost2010PropOp41
 70
     1
102
RTVSPost2010Prop42
 90
       50
102
RTVSPost2010PropOp42
 70
     1
102
RTVSPost2010Prop43
 90
        3
102
RTVSPost2010PropOp43
 70
     1
102
RTVSPost2010Prop44ColorIndex
 90
        5
102
RTVSPost2010Prop44ColorRGB
 90
      255
102
RTVSPost2010PropOp44
 70
     1
102
RTVSPost2010Prop45
280
     0
102
RTVSPost2010PropOp45
 70
     1
102
RTVSPost2010Prop46
 90
       50
102
RTVSPost2010PropOp46
 70
     1
102
RTVSPost2010Prop47
 90
       50
102
RTVSPost2010PropOp47
 70
     1
102
RTVSPost2010Prop48
 90
       50
102
RTVSPost2010PropOp48
 70
     1
102
RTVSPost2010Prop49
280
     0
102
RTVSPost2010PropOp49
 70
     1
102
RTVSPost2010Prop50
 90
       50
102
RTVSPost2010PropOp50
 70
     1
102
RTVSPost2010Prop51ColorIndex
 90
      256
102
RTVSPost2010Prop51ColorRGB
 90
-16777216
102
RTVSPost2010PropOp51
 70
     0
102
RTVSPost2010Prop52
140
1.0
102
RTVSPost2010PropOp52
 70
     0
102
RTVSPost2010Prop53
 90
        2
102
RTVSPost2010PropOp53
 70
     1
102
RTVSPost2010Prop54
  1
strokes_ogs.tif
102
RTVSPost2010PropOp54
 70
     1
102
RTVSPost2010Prop55
280
     0
102
RTVSPost2010PropOp55
 70
     1
102
RTVSPost2010Prop56
140
1.0
102
RTVSPost2010PropOp56
 70
     1
102
RTVSPost2010Prop57
140
1.0
102
RTVSPost2010PropOp57
 70
     1
  0
XRECORD
  5
26C
102
{ACAD_REACTORS
330
26B
102
}
330
26B
100
AcDbXrecord
280
     1
102
RTVSPropertyOp0
 70
     1
102
RTVSPropertyOp1
 70
     1
102
RTVSPropertyOp2
 70
     1
102
RTVSPropertyOp3
 70
     1
102
RTVSPropertyOp4
 70
     1
102
RTVSPropertyOp5
 70
     1
102
RTVSPropertyOp6
 70
     1
102
RTVSPropertyOp7
 70
     1
102
RTVSPropertyOp8
 70
     1
102
RTVSPropertyOp9
 70
     1
102
RTVSPropertyOp10
 70
     1
102
RTVSPropertyOp11
 70
     1
102
RTVSPropertyOp12
 70
     1
102
RTVSPropertyOp13
 70
     1
102
RTVSPropertyOp14
 70
     1
102
RTVSPropertyOp15
 70
     1
102
RTVSPropertyOp16
 70
     1
102
RTVSPropertyOp17
 70
     1
102
RTVSPropertyOp18
 70
     1
102
RTVSPropertyOp19
 70
     1
102
RTVSPropertyOp20
 70
     1
102
RTVSPropertyOp21
 70
     1
102
RTVSPropertyOp22
 70
     1
102
RTVSPropertyOp23
 70
     1
102
RTVSPropertyOp24
 70
     1
102
RTVSPropertyOp25
 70
     1
102
RTVSPropertyOp26
 70
     1
102
RTVSPropertyOp27
 70
     1
102
RTVSPropertyOp28
 70
     1
102
RTVSPropertyOp29
 70
     1
102
RTVSPropertyOp30
 70
     1
102
RTVSPropertyOp31
 70
     1
102
RTVSPropertyOp32
 70
     1
102
RTVSPropertyOp33
 70
     1
102
RTVSPropertyOp34
 70
     1
102
RTVSPropertyOp35
 70
     1
102
RTVSPropertyOp36
 70
     1
102
RTVSPropertyOp37
 70
     1
102
RTVSPropertyOp38
 70
     1
102
RTVSPropertyOp39
 70
     1
102
RTVSPropertyOp40
 70
     1
102
RTVSPropertyOp41
 70
     1
102
RTVSPropertyOp42
 70
     1
102
RTVSPropertyOp43
 70
     1
102
RTVSPropertyOp44
 70
     1
102
RTVSPropertyOp45
 70
     1
102
RTVSPropertyOp46
 70
     1
102
RTVSPropertyOp47
 70
     1
102
RTVSPropertyOp48
 70
     1
102
RTVSPropertyOp49
 70
     1
102
RTVSPropertyOp50
 70
     1
102
RTVSPropertyOp51
 70
     0
102
RTVSPropertyOp52
 70
     0
102
RTVSPropertyOp53
 70
     1
102
RTVSPropertyOp54
 70
     1
102
RTVSPropertyOp55
 70
     1
102
RTVSPropertyOp56
 70
     1
102
RTVSPropertyOp57
 70
     1
102
RTVSPost2010Prop28
280
     0
102
RTVSPost2010PropOp28
 70
     1
102
RTVSPost2010Prop29
280
     1
102
RTVSPost2010PropOp29
 70
     1
102
RTVSPost2010Prop30
280
     1
102
RTVSPost2010PropOp30
 70
     1
102
RTVSPost2010Prop31
280
     0
102
RTVSPost2010PropOp31
 70
     1
102
RTVSPost2010Prop32
280
     0
102
RTVSPost2010PropOp32
 70
     1
102
RTVSPost2010Prop33
280
     0
102
RTVSPost2010PropOp33
 70
     1
102
RTVSPost2010Prop34
280
     0
102
RTVSPost2010PropOp34
 70
     1
102
RTVSPost2010Prop35
280
     0
102
RTVSPost2010PropOp35
 70
     1
102
RTVSPost2010Prop36
280
     0
102
RTVSPost2010PropOp36
 70
     1
102
RTVSPost2010Prop37
 90
       50
102
RTVSPost2010PropOp37
 70
     1
102
RTVSPost2010Prop38
140
0.0
102
RTVSPost2010PropOp38
 70
     1
102
RTVSPost2010Prop39
140
1.0
102
RTVSPost2010PropOp39
 70
     1
102
RTVSPost2010Prop40
 90
        0
102
RTVSPost2010PropOp40
 70
     1
102
RTVSPost2010Prop41ColorIndex
 90
       18
102
RTVSPost2010Prop41ColorRGB
 90
        0
102
RTVSPost2010PropOp41
 70
     1
102
RTVSPost2010Prop42
 90
       50
102
RTVSPost2010PropOp42
 70
     1
102
RTVSPost2010Prop43
 90
        3
102
RTVSPost2010PropOp43
 70
     1
102
RTVSPost2010Prop44ColorIndex
 90
        5
102
RTVSPost2010Prop44ColorRGB
 90
      255
102
RTVSPost2010PropOp44
 70
     1
102
RTVSPost2010Prop45
280
     0
102
RTVSPost2010PropOp45
 70
     1
102
RTVSPost2010Prop46
 90
       50
102
RTVSPost2010PropOp46
 70
     1
102
RTVSPost2010Prop47
 90
       50
102
RTVSPost2010PropOp47
 70
     1
102
RTVSPost2010Prop48
 90
       50
102
RTVSPost2010PropOp48
 70
     1
102
RTVSPost2010Prop49
280
     0
102
RTVSPost2010PropOp49
 70
     1
102
RTVSPost2010Prop50
 90
       50
102
RTVSPost2010PropOp50
 70
     1
102
RTVSPost2010Prop51ColorIndex
 90
      256
102
RTVSPost2010Prop51ColorRGB
 90
-16777216
102
RTVSPost2010PropOp51
 70
     0
102
RTVSPost2010Prop52
140
1.0
102
RTVSPost2010PropOp52
 70
     0
102
RTVSPost2010Prop53
 90
        2
102
RTVSPost2010PropOp53
 70
     1
102
RTVSPost2010Prop54
  1
strokes_ogs.tif
102
RTVSPost2010PropOp54
 70
     1
102
RTVSPost2010Prop55
280
     0
102
RTVSPost2010PropOp55
 70
     1
102
RTVSPost2010Prop56
140
1.0
102
RTVSPost2010PropOp56
 70
     1
102
RTVSPost2010Prop57
140
1.0
102
RTVSPost2010PropOp57
 70
     1
  0
XRECORD
  5
26E
102
{ACAD_REACTORS
330
26D
102
}
330
26D
100
AcDbXrecord
280
     1
102
RTVSPropertyOp0
 70
     1
102
RTVSPropertyOp1
 70
     1
102
RTVSPropertyOp2
 70
     1
102
RTVSPropertyOp3
 70
     1
102
RTVSPropertyOp4
 70
     1
102
RTVSPropertyOp5
 70
     1
102
RTVSPropertyOp6
 70
     1
102
RTVSPropertyOp7
 70
     1
102
RTVSPropertyOp8
 70
     1
102
RTVSPropertyOp9
 70
     1
102
RTVSPropertyOp10
 70
     1
102
RTVSPropertyOp11
 70
     1
102
RTVSPropertyOp12
 70
     1
102
RTVSPropertyOp13
 70
     1
102
RTVSPropertyOp14
 70
     1
102
RTVSPropertyOp15
 70
     1
102
RTVSPropertyOp16
 70
     1
102
RTVSPropertyOp17
 70
     1
102
RTVSPropertyOp18
 70
     1
102
RTVSPropertyOp19
 70
     1
102
RTVSPropertyOp20
 70
     1
102
RTVSPropertyOp21
 70
     1
102
RTVSPropertyOp22
 70
     1
102
RTVSPropertyOp23
 70
     1
102
RTVSPropertyOp24
 70
     1
102
RTVSPropertyOp25
 70
     1
102
RTVSPropertyOp26
 70
     1
102
RTVSPropertyOp27
 70
     1
102
RTVSPropertyOp28
 70
     1
102
RTVSPropertyOp29
 70
     1
102
RTVSPropertyOp30
 70
     1
102
RTVSPropertyOp31
 70
     1
102
RTVSPropertyOp32
 70
     1
102
RTVSPropertyOp33
 70
     1
102
RTVSPropertyOp34
 70
     1
102
RTVSPropertyOp35
 70
     1
102
RTVSPropertyOp36
 70
     1
102
RTVSPropertyOp37
 70
     1
102
RTVSPropertyOp38
 70
     1
102
RTVSPropertyOp39
 70
     1
102
RTVSPropertyOp40
 70
     1
102
RTVSPropertyOp41
 70
     1
102
RTVSPropertyOp42
 70
     1
102
RTVSPropertyOp43
 70
     1
102
RTVSPropertyOp44
 70
     1
102
RTVSPropertyOp45
 70
     1
102
RTVSPropertyOp46
 70
     1
102
RTVSPropertyOp47
 70
     1
102
RTVSPropertyOp48
 70
     1
102
RTVSPropertyOp49
 70
     1
102
RTVSPropertyOp50
 70
     1
102
RTVSPropertyOp51
 70
     0
102
RTVSPropertyOp52
 70
     0
102
RTVSPropertyOp53
 70
     1
102
RTVSPropertyOp54
 70
     1
102
RTVSPropertyOp55
 70
     1
102
RTVSPropertyOp56
 70
     1
102
RTVSPropertyOp57
 70
     1
102
RTVSPost2010Prop28
280
     0
102
RTVSPost2010PropOp28
 70
     1
102
RTVSPost2010Prop29
280
     1
102
RTVSPost2010PropOp29
 70
     1
102
RTVSPost2010Prop30
280
     1
102
RTVSPost2010PropOp30
 70
     1
102
RTVSPost2010Prop31
280
     0
102
RTVSPost2010PropOp31
 70
     1
102
RTVSPost2010Prop32
280
     0
102
RTVSPost2010PropOp32
 70
     1
102
RTVSPost2010Prop33
280
     0
102
RTVSPost2010PropOp33
 70
     1
102
RTVSPost2010Prop34
280
     0
102
RTVSPost2010PropOp34
 70
     1
102
RTVSPost2010Prop35
280
     0
102
RTVSPost2010PropOp35
 70
     1
102
RTVSPost2010Prop36
280
     0
102
RTVSPost2010PropOp36
 70
     1
102
RTVSPost2010Prop37
 90
       50
102
RTVSPost2010PropOp37
 70
     1
102
RTVSPost2010Prop38
140
0.0
102
RTVSPost2010PropOp38
 70
     1
102
RTVSPost2010Prop39
140
1.0
102
RTVSPost2010PropOp39
 70
     1
102
RTVSPost2010Prop40
 90
        0
102
RTVSPost2010PropOp40
 70
     1
102
RTVSPost2010Prop41ColorIndex
 90
       18
102
RTVSPost2010Prop41ColorRGB
 90
        0
102
RTVSPost2010PropOp41
 70
     1
102
RTVSPost2010Prop42
 90
       50
102
RTVSPost2010PropOp42
 70
     1
102
RTVSPost2010Prop43
 90
        3
102
RTVSPost2010PropOp43
 70
     1
102
RTVSPost2010Prop44ColorIndex
 90
        5
102
RTVSPost2010Prop44ColorRGB
 90
      255
102
RTVSPost2010PropOp44
 70
     1
102
RTVSPost2010Prop45
280
     0
102
RTVSPost2010PropOp45
 70
     1
102
RTVSPost2010Prop46
 90
       50
102
RTVSPost2010PropOp46
 70
     1
102
RTVSPost2010Prop47
 90
       50
102
RTVSPost2010PropOp47
 70
     1
102
RTVSPost2010Prop48
 90
       50
102
RTVSPost2010PropOp48
 70
     1
102
RTVSPost2010Prop49
280
     0
102
RTVSPost2010PropOp49
 70
     1
102
RTVSPost2010Prop50
 90
       50
102
RTVSPost2010PropOp50
 70
     1
102
RTVSPost2010Prop51ColorIndex
 90
      256
102
RTVSPost2010Prop51ColorRGB
 90
-16777216
102
RTVSPost2010PropOp51
 70
     0
102
RTVSPost2010Prop52
140
1.0
102
RTVSPost2010PropOp52
 70
     0
102
RTVSPost2010Prop53
 90
        2
102
RTVSPost2010PropOp53
 70
     1
102
RTVSPost2010Prop54
  1
strokes_ogs.tif
102
RTVSPost2010PropOp54
 70
     1
102
RTVSPost2010Prop55
280
     0
102
RTVSPost2010PropOp55
 70
     1
102
RTVSPost2010Prop56
140
1.0
102
RTVSPost2010PropOp56
 70
     1
102
RTVSPost2010Prop57
140
1.0
102
RTVSPost2010PropOp57
 70
     1
  0
XRECORD
  5
274
102
{ACAD_REACTORS
330
273
102
}
330
273
100
AcDbXrecord
280
     1
102
RTVSPropertyOp0
 70
     1
102
RTVSPropertyOp1
 70
     1
102
RTVSPropertyOp2
 70
     1
102
RTVSPropertyOp3
 70
     1
102
RTVSPropertyOp4
 70
     1
102
RTVSPropertyOp5
 70
     1
102
RTVSPropertyOp6
 70
     1
102
RTVSPropertyOp7
 70
     1
102
RTVSPropertyOp8
 70
     1
102
RTVSPropertyOp9
 70
     1
102
RTVSPropertyOp10
 70
     1
102
RTVSPropertyOp11
 70
     1
102
RTVSPropertyOp12
 70
     1
102
RTVSPropertyOp13
 70
     1
102
RTVSPropertyOp14
 70
     1
102
RTVSPropertyOp15
 70
     1
102
RTVSPropertyOp16
 70
     1
102
RTVSPropertyOp17
 70
     1
102
RTVSPropertyOp18
 70
     1
102
RTVSPropertyOp19
 70
     1
102
RTVSPropertyOp20
 70
     1
102
RTVSPropertyOp21
 70
     1
102
RTVSPropertyOp22
 70
     1
102
RTVSPropertyOp23
 70
     1
102
RTVSPropertyOp24
 70
     1
102
RTVSPropertyOp25
 70
     1
102
RTVSPropertyOp26
 70
     1
102
RTVSPropertyOp27
 70
     1
102
RTVSPropertyOp28
 70
     1
102
RTVSPropertyOp29
 70
     1
102
RTVSPropertyOp30
 70
     1
102
RTVSPropertyOp31
 70
     1
102
RTVSPropertyOp32
 70
     1
102
RTVSPropertyOp33
 70
     1
102
RTVSPropertyOp34
 70
     1
102
RTVSPropertyOp35
 70
     1
102
RTVSPropertyOp36
 70
     1
102
RTVSPropertyOp37
 70
     1
102
RTVSPropertyOp38
 70
     1
102
RTVSPropertyOp39
 70
     1
102
RTVSPropertyOp40
 70
     1
102
RTVSPropertyOp41
 70
     1
102
RTVSPropertyOp42
 70
     1
102
RTVSPropertyOp43
 70
     1
102
RTVSPropertyOp44
 70
     1
102
RTVSPropertyOp45
 70
     1
102
RTVSPropertyOp46
 70
     1
102
RTVSPropertyOp47
 70
     1
102
RTVSPropertyOp48
 70
     1
102
RTVSPropertyOp49
 70
     1
102
RTVSPropertyOp50
 70
     1
102
RTVSPropertyOp51
 70
     0
102
RTVSPropertyOp52
 70
     0
102
RTVSPropertyOp53
 70
     1
102
RTVSPropertyOp54
 70
     1
102
RTVSPropertyOp55
 70
     1
102
RTVSPropertyOp56
 70
     1
102
RTVSPropertyOp57
 70
     1
102
RTVSPost2010Prop28
280
     0
102
RTVSPost2010PropOp28
 70
     1
102
RTVSPost2010Prop29
280
     1
102
RTVSPost2010PropOp29
 70
     1
102
RTVSPost2010Prop30
280
     1
102
RTVSPost2010PropOp30
 70
     1
102
RTVSPost2010Prop31
280
     0
102
RTVSPost2010PropOp31
 70
     1
102
RTVSPost2010Prop32
280
     0
102
RTVSPost2010PropOp32
 70
     1
102
RTVSPost2010Prop33
280
     0
102
RTVSPost2010PropOp33
 70
     1
102
RTVSPost2010Prop34
280
     0
102
RTVSPost2010PropOp34
 70
     1
102
RTVSPost2010Prop35
280
     0
102
RTVSPost2010PropOp35
 70
     1
102
RTVSPost2010Prop36
280
     0
102
RTVSPost2010PropOp36
 70
     1
102
RTVSPost2010Prop37
 90
       50
102
RTVSPost2010PropOp37
 70
     1
102
RTVSPost2010Prop38
140
0.0
102
RTVSPost2010PropOp38
 70
     1
102
RTVSPost2010Prop39
140
1.0
102
RTVSPost2010PropOp39
 70
     1
102
RTVSPost2010Prop40
 90
        0
102
RTVSPost2010PropOp40
 70
     1
102
RTVSPost2010Prop41ColorIndex
 90
       18
102
RTVSPost2010Prop41ColorRGB
 90
        0
102
RTVSPost2010PropOp41
 70
     1
102
RTVSPost2010Prop42
 90
       50
102
RTVSPost2010PropOp42
 70
     1
102
RTVSPost2010Prop43
 90
        3
102
RTVSPost2010PropOp43
 70
     1
102
RTVSPost2010Prop44ColorIndex
 90
        5
102
RTVSPost2010Prop44ColorRGB
 90
      255
102
RTVSPost2010PropOp44
 70
     1
102
RTVSPost2010Prop45
280
     0
102
RTVSPost2010PropOp45
 70
     1
102
RTVSPost2010Prop46
 90
       50
102
RTVSPost2010PropOp46
 70
     1
102
RTVSPost2010Prop47
 90
       50
102
RTVSPost2010PropOp47
 70
     1
102
RTVSPost2010Prop48
 90
       50
102
RTVSPost2010PropOp48
 70
     1
102
RTVSPost2010Prop49
280
     0
102
RTVSPost2010PropOp49
 70
     1
102
RTVSPost2010Prop50
 90
       50
102
RTVSPost2010PropOp50
 70
     1
102
RTVSPost2010Prop51ColorIndex
 90
      256
102
RTVSPost2010Prop51ColorRGB
 90
-16777216
102
RTVSPost2010PropOp51
 70
     0
102
RTVSPost2010Prop52
140
1.0
102
RTVSPost2010PropOp52
 70
     0
102
RTVSPost2010Prop53
 90
        2
102
RTVSPost2010PropOp53
 70
     1
102
RTVSPost2010Prop54
  1
strokes_ogs.tif
102
RTVSPost2010PropOp54
 70
     1
102
RTVSPost2010Prop55
280
     0
102
RTVSPost2010PropOp55
 70
     1
102
RTVSPost2010Prop56
140
1.0
102
RTVSPost2010PropOp56
 70
     1
102
RTVSPost2010Prop57
140
1.0
102
RTVSPost2010PropOp57
 70
     1
  0
XRECORD
  5
288
102
{ACAD_REACTORS
330
287
102
}
330
287
100
AcDbXrecord
280
     1
102
RTVSPropertyOp0
 70
     0
102
RTVSPropertyOp1
 70
     0
102
RTVSPropertyOp2
 70
     0
102
RTVSPropertyOp3
 70
     0
102
RTVSPropertyOp4
 70
     0
102
RTVSPropertyOp5
 70
     0
102
RTVSPropertyOp6
 70
     0
102
RTVSPropertyOp7
 70
     0
102
RTVSPropertyOp8
 70
     0
102
RTVSPropertyOp9
 70
     0
102
RTVSPropertyOp10
 70
     0
102
RTVSPropertyOp11
 70
     0
102
RTVSPropertyOp12
 70
     0
102
RTVSPropertyOp13
 70
     0
102
RTVSPropertyOp14
 70
     2
102
RTVSPropertyOp15
 70
     0
102
RTVSPropertyOp16
 70
     0
102
RTVSPropertyOp17
 70
     0
102
RTVSPropertyOp18
 70
     0
102
RTVSPropertyOp19
 70
     0
102
RTVSPropertyOp20
 70
     0
102
RTVSPropertyOp21
 70
     0
102
RTVSPropertyOp22
 70
     0
102
RTVSPropertyOp23
 70
     0
102
RTVSPropertyOp24
 70
     0
102
RTVSPropertyOp25
 70
     0
102
RTVSPropertyOp26
 70
     0
102
RTVSPropertyOp27
 70
     0
102
RTVSPropertyOp28
 70
     0
102
RTVSPropertyOp29
 70
     0
102
RTVSPropertyOp30
 70
     0
102
RTVSPropertyOp31
 70
     0
102
RTVSPropertyOp32
 70
     0
102
RTVSPropertyOp33
 70
     0
102
RTVSPropertyOp34
 70
     0
102
RTVSPropertyOp35
 70
     0
102
RTVSPropertyOp36
 70
     0
102
RTVSPropertyOp37
 70
     0
102
RTVSPropertyOp38
 70
     0
102
RTVSPropertyOp39
 70
     0
102
RTVSPropertyOp40
 70
     0
102
RTVSPropertyOp41
 70
     0
102
RTVSPropertyOp42
 70
     0
102
RTVSPropertyOp43
 70
     0
102
RTVSPropertyOp44
 70
     0
102
RTVSPropertyOp45
 70
     0
102
RTVSPropertyOp46
 70
     0
102
RTVSPropertyOp47
 70
     0
102
RTVSPropertyOp48
 70
     0
102
RTVSPropertyOp49
 70
     0
102
RTVSPropertyOp50
 70
     0
102
RTVSPropertyOp51
 70
     0
102
RTVSPropertyOp52
 70
     0
102
RTVSPropertyOp53
 70
     0
102
RTVSPropertyOp54
 70
     0
102
RTVSPropertyOp55
 70
     0
102
RTVSPropertyOp56
 70
     0
102
RTVSPropertyOp57
 70
     0
102
RTVSPost2010Prop28
280
     0
102
RTVSPost2010PropOp28
 70
     0
102
RTVSPost2010Prop29
280
     1
102
RTVSPost2010PropOp29
 70
     0
102
RTVSPost2010Prop30
280
     1
102
RTVSPost2010PropOp30
 70
     0
102
RTVSPost2010Prop31
280
     0
102
RTVSPost2010PropOp31
 70
     0
102
RTVSPost2010Prop32
280
     0
102
RTVSPost2010PropOp32
 70
     0
102
RTVSPost2010Prop33
280
     0
102
RTVSPost2010PropOp33
 70
     0
102
RTVSPost2010Prop34
280
     0
102
RTVSPost2010PropOp34
 70
     0
102
RTVSPost2010Prop35
280
     0
102
RTVSPost2010PropOp35
 70
     0
102
RTVSPost2010Prop36
280
     0
102
RTVSPost2010PropOp36
 70
     0
102
RTVSPost2010Prop37
 90
       50
102
RTVSPost2010PropOp37
 70
     0
102
RTVSPost2010Prop38
140
0.0
102
RTVSPost2010PropOp38
 70
     0
102
RTVSPost2010Prop39
140
1.0
102
RTVSPost2010PropOp39
 70
     0
102
RTVSPost2010Prop40
 90
        0
102
RTVSPost2010PropOp40
 70
     0
102
RTVSPost2010Prop41ColorIndex
 90
       18
102
RTVSPost2010Prop41ColorRGB
 90
        0
102
RTVSPost2010PropOp41
 70
     0
102
RTVSPost2010Prop42
 90
       50
102
RTVSPost2010PropOp42
 70
     0
102
RTVSPost2010Prop43
 90
        3
102
RTVSPost2010PropOp43
 70
     0
102
RTVSPost2010Prop44ColorIndex
 90
        5
102
RTVSPost2010Prop44ColorRGB
 90
      255
102
RTVSPost2010PropOp44
 70
     0
102
RTVSPost2010Prop45
280
     0
102
RTVSPost2010PropOp45
 70
     0
102
RTVSPost2010Prop46
 90
       50
102
RTVSPost2010PropOp46
 70
     0
102
RTVSPost2010Prop47
 90
       50
102
RTVSPost2010PropOp47
 70
     0
102
RTVSPost2010Prop48
 90
       50
102
RTVSPost2010PropOp48
 70
     0
102
RTVSPost2010Prop49
280
     0
102
RTVSPost2010PropOp49
 70
     0
102
RTVSPost2010Prop50
 90
       50
102
RTVSPost2010PropOp50
 70
     0
102
RTVSPost2010Prop51ColorIndex
 90
      256
102
RTVSPost2010Prop51ColorRGB
 90
-16777216
102
RTVSPost2010PropOp51
 70
     0
102
RTVSPost2010Prop52
140
1.0
102
RTVSPost2010PropOp52
 70
     0
102
RTVSPost2010Prop53
 90
        2
102
RTVSPost2010PropOp53
 70
     0
102
RTVSPost2010Prop54
  1
strokes_ogs.tif
102
RTVSPost2010PropOp54
 70
     0
102
RTVSPost2010Prop55
280
     0
102
RTVSPost2010PropOp55
 70
     0
102
RTVSPost2010Prop56
140
1.0
102
RTVSPost2010PropOp56
 70
     0
102
RTVSPost2010Prop57
140
1.0
102
RTVSPost2010PropOp57
 70
     0
  0
XRECORD
  5
282
102
{ACAD_REACTORS
330
281
102
}
330
281
100
AcDbXrecord
280
     1
102
RTVSPropertyOp0
 70
     1
102
RTVSPropertyOp1
 70
     1
102
RTVSPropertyOp2
 70
     1
102
RTVSPropertyOp3
 70
     1
102
RTVSPropertyOp4
 70
     1
102
RTVSPropertyOp5
 70
     1
102
RTVSPropertyOp6
 70
     1
102
RTVSPropertyOp7
 70
     1
102
RTVSPropertyOp8
 70
     1
102
RTVSPropertyOp9
 70
     1
102
RTVSPropertyOp10
 70
     1
102
RTVSPropertyOp11
 70
     1
102
RTVSPropertyOp12
 70
     1
102
RTVSPropertyOp13
 70
     1
102
RTVSPropertyOp14
 70
     1
102
RTVSPropertyOp15
 70
     1
102
RTVSPropertyOp16
 70
     1
102
RTVSPropertyOp17
 70
     1
102
RTVSPropertyOp18
 70
     1
102
RTVSPropertyOp19
 70
     1
102
RTVSPropertyOp20
 70
     1
102
RTVSPropertyOp21
 70
     1
102
RTVSPropertyOp22
 70
     1
102
RTVSPropertyOp23
 70
     1
102
RTVSPropertyOp24
 70
     1
102
RTVSPropertyOp25
 70
     1
102
RTVSPropertyOp26
 70
     1
102
RTVSPropertyOp27
 70
     1
102
RTVSPropertyOp28
 70
     1
102
RTVSPropertyOp29
 70
     1
102
RTVSPropertyOp30
 70
     1
102
RTVSPropertyOp31
 70
     1
102
RTVSPropertyOp32
 70
     1
102
RTVSPropertyOp33
 70
     1
102
RTVSPropertyOp34
 70
     1
102
RTVSPropertyOp35
 70
     1
102
RTVSPropertyOp36
 70
     1
102
RTVSPropertyOp37
 70
     1
102
RTVSPropertyOp38
 70
     1
102
RTVSPropertyOp39
 70
     1
102
RTVSPropertyOp40
 70
     1
102
RTVSPropertyOp41
 70
     1
102
RTVSPropertyOp42
 70
     1
102
RTVSPropertyOp43
 70
     1
102
RTVSPropertyOp44
 70
     1
102
RTVSPropertyOp45
 70
     1
102
RTVSPropertyOp46
 70
     1
102
RTVSPropertyOp47
 70
     1
102
RTVSPropertyOp48
 70
     1
102
RTVSPropertyOp49
 70
     1
102
RTVSPropertyOp50
 70
     1
102
RTVSPropertyOp51
 70
     0
102
RTVSPropertyOp52
 70
     0
102
RTVSPropertyOp53
 70
     1
102
RTVSPropertyOp54
 70
     1
102
RTVSPropertyOp55
 70
     1
102
RTVSPropertyOp56
 70
     1
102
RTVSPropertyOp57
 70
     1
102
RTVSPost2010Prop28
280
     0
102
RTVSPost2010PropOp28
 70
     1
102
RTVSPost2010Prop29
280
     1
102
RTVSPost2010PropOp29
 70
     1
102
RTVSPost2010Prop30
280
     1
102
RTVSPost2010PropOp30
 70
     1
102
RTVSPost2010Prop31
280
     0
102
RTVSPost2010PropOp31
 70
     1
102
RTVSPost2010Prop32
280
     0
102
RTVSPost2010PropOp32
 70
     1
102
RTVSPost2010Prop33
280
     0
102
RTVSPost2010PropOp33
 70
     1
102
RTVSPost2010Prop34
280
     0
102
RTVSPost2010PropOp34
 70
     1
102
RTVSPost2010Prop35
280
     0
102
RTVSPost2010PropOp35
 70
     1
102
RTVSPost2010Prop36
280
     0
102
RTVSPost2010PropOp36
 70
     1
102
RTVSPost2010Prop37
 90
       50
102
RTVSPost2010PropOp37
 70
     1
102
RTVSPost2010Prop38
140
0.0
102
RTVSPost2010PropOp38
 70
     1
102
RTVSPost2010Prop39
140
1.0
102
RTVSPost2010PropOp39
 70
     1
102
RTVSPost2010Prop40
 90
        0
102
RTVSPost2010PropOp40
 70
     1
102
RTVSPost2010Prop41ColorIndex
 90
       18
102
RTVSPost2010Prop41ColorRGB
 90
        0
102
RTVSPost2010PropOp41
 70
     1
102
RTVSPost2010Prop42
 90
       50
102
RTVSPost2010PropOp42
 70
     1
102
RTVSPost2010Prop43
 90
        3
102
RTVSPost2010PropOp43
 70
     1
102
RTVSPost2010Prop44ColorIndex
 90
        5
102
RTVSPost2010Prop44ColorRGB
 90
      255
102
RTVSPost2010PropOp44
 70
     1
102
RTVSPost2010Prop45
280
     0
102
RTVSPost2010PropOp45
 70
     1
102
RTVSPost2010Prop46
 90
       50
102
RTVSPost2010PropOp46
 70
     1
102
RTVSPost2010Prop47
 90
       50
102
RTVSPost2010PropOp47
 70
     1
102
RTVSPost2010Prop48
 90
       50
102
RTVSPost2010PropOp48
 70
     1
102
RTVSPost2010Prop49
280
     0
102
RTVSPost2010PropOp49
 70
     1
102
RTVSPost2010Prop50
 90
       50
102
RTVSPost2010PropOp50
 70
     1
102
RTVSPost2010Prop51ColorIndex
 90
      256
102
RTVSPost2010Prop51ColorRGB
 90
-16777216
102
RTVSPost2010PropOp51
 70
     0
102
RTVSPost2010Prop52
140
1.0
102
RTVSPost2010PropOp52
 70
     0
102
RTVSPost2010Prop53
 90
        2
102
RTVSPost2010PropOp53
 70
     1
102
RTVSPost2010Prop54
  1
strokes_ogs.tif
102
RTVSPost2010PropOp54
 70
     1
102
RTVSPost2010Prop55
280
     0
102
RTVSPost2010PropOp55
 70
     1
102
RTVSPost2010Prop56
140
1.0
102
RTVSPost2010PropOp56
 70
     1
102
RTVSPost2010Prop57
140
1.0
102
RTVSPost2010PropOp57
 70
     1
  0
XRECORD
  5
28A
102
{ACAD_REACTORS
330
289
102
}
330
289
100
AcDbXrecord
280
     1
102
RTVSPropertyOp0
 70
     0
102
RTVSPropertyOp1
 70
     0
102
RTVSPropertyOp2
 70
     0
102
RTVSPropertyOp3
 70
     0
102
RTVSPropertyOp4
 70
     0
102
RTVSPropertyOp5
 70
     0
102
RTVSPropertyOp6
 70
     0
102
RTVSPropertyOp7
 70
     0
102
RTVSPropertyOp8
 70
     0
102
RTVSPropertyOp9
 70
     0
102
RTVSPropertyOp10
 70
     0
102
RTVSPropertyOp11
 70
     0
102
RTVSPropertyOp12
 70
     0
102
RTVSPropertyOp13
 70
     0
102
RTVSPropertyOp14
 70
     2
102
RTVSPropertyOp15
 70
     0
102
RTVSPropertyOp16
 70
     0
102
RTVSPropertyOp17
 70
     0
102
RTVSPropertyOp18
 70
     0
102
RTVSPropertyOp19
 70
     0
102
RTVSPropertyOp20
 70
     0
102
RTVSPropertyOp21
 70
     0
102
RTVSPropertyOp22
 70
     0
102
RTVSPropertyOp23
 70
     0
102
RTVSPropertyOp24
 70
     0
102
RTVSPropertyOp25
 70
     0
102
RTVSPropertyOp26
 70
     0
102
RTVSPropertyOp27
 70
     0
102
RTVSPropertyOp28
 70
     0
102
RTVSPropertyOp29
 70
     0
102
RTVSPropertyOp30
 70
     0
102
RTVSPropertyOp31
 70
     0
102
RTVSPropertyOp32
 70
     0
102
RTVSPropertyOp33
 70
     0
102
RTVSPropertyOp34
 70
     0
102
RTVSPropertyOp35
 70
     0
102
RTVSPropertyOp36
 70
     0
102
RTVSPropertyOp37
 70
     0
102
RTVSPropertyOp38
 70
     0
102
RTVSPropertyOp39
 70
     0
102
RTVSPropertyOp40
 70
     0
102
RTVSPropertyOp41
 70
     0
102
RTVSPropertyOp42
 70
     0
102
RTVSPropertyOp43
 70
     0
102
RTVSPropertyOp44
 70
     0
102
RTVSPropertyOp45
 70
     0
102
RTVSPropertyOp46
 70
     0
102
RTVSPropertyOp47
 70
     0
102
RTVSPropertyOp48
 70
     0
102
RTVSPropertyOp49
 70
     0
102
RTVSPropertyOp50
 70
     0
102
RTVSPropertyOp51
 70
     0
102
RTVSPropertyOp52
 70
     0
102
RTVSPropertyOp53
 70
     0
102
RTVSPropertyOp54
 70
     0
102
RTVSPropertyOp55
 70
     0
102
RTVSPropertyOp56
 70
     0
102
RTVSPropertyOp57
 70
     0
102
RTVSPost2010Prop28
280
     0
102
RTVSPost2010PropOp28
 70
     0
102
RTVSPost2010Prop29
280
     1
102
RTVSPost2010PropOp29
 70
     0
102
RTVSPost2010Prop30
280
     1
102
RTVSPost2010PropOp30
 70
     0
102
RTVSPost2010Prop31
280
     0
102
RTVSPost2010PropOp31
 70
     0
102
RTVSPost2010Prop32
280
     0
102
RTVSPost2010PropOp32
 70
     0
102
RTVSPost2010Prop33
280
     0
102
RTVSPost2010PropOp33
 70
     0
102
RTVSPost2010Prop34
280
     0
102
RTVSPost2010PropOp34
 70
     0
102
RTVSPost2010Prop35
280
     0
102
RTVSPost2010PropOp35
 70
     0
102
RTVSPost2010Prop36
280
     0
102
RTVSPost2010PropOp36
 70
     0
102
RTVSPost2010Prop37
 90
       50
102
RTVSPost2010PropOp37
 70
     0
102
RTVSPost2010Prop38
140
0.0
102
RTVSPost2010PropOp38
 70
     0
102
RTVSPost2010Prop39
140
1.0
102
RTVSPost2010PropOp39
 70
     0
102
RTVSPost2010Prop40
 90
        0
102
RTVSPost2010PropOp40
 70
     0
102
RTVSPost2010Prop41ColorIndex
 90
       18
102
RTVSPost2010Prop41ColorRGB
 90
        0
102
RTVSPost2010PropOp41
 70
     0
102
RTVSPost2010Prop42
 90
       50
102
RTVSPost2010PropOp42
 70
     0
102
RTVSPost2010Prop43
 90
        3
102
RTVSPost2010PropOp43
 70
     0
102
RTVSPost2010Prop44ColorIndex
 90
        5
102
RTVSPost2010Prop44ColorRGB
 90
      255
102
RTVSPost2010PropOp44
 70
     0
102
RTVSPost2010Prop45
280
     0
102
RTVSPost2010PropOp45
 70
     0
102
RTVSPost2010Prop46
 90
       50
102
RTVSPost2010PropOp46
 70
     0
102
RTVSPost2010Prop47
 90
       50
102
RTVSPost2010PropOp47
 70
     0
102
RTVSPost2010Prop48
 90
       50
102
RTVSPost2010PropOp48
 70
     0
102
RTVSPost2010Prop49
280
     0
102
RTVSPost2010PropOp49
 70
     0
102
RTVSPost2010Prop50
 90
       50
102
RTVSPost2010PropOp50
 70
     0
102
RTVSPost2010Prop51ColorIndex
 90
      256
102
RTVSPost2010Prop51ColorRGB
 90
-16777216
102
RTVSPost2010PropOp51
 70
     0
102
RTVSPost2010Prop52
140
1.0
102
RTVSPost2010PropOp52
 70
     0
102
RTVSPost2010Prop53
 90
        2
102
RTVSPost2010PropOp53
 70
     0
102
RTVSPost2010Prop54
  1
strokes_ogs.tif
102
RTVSPost2010PropOp54
 70
     0
102
RTVSPost2010Prop55
280
     0
102
RTVSPost2010PropOp55
 70
     0
102
RTVSPost2010Prop56
140
1.0
102
RTVSPost2010PropOp56
 70
     0
102
RTVSPost2010Prop57
140
1.0
102
RTVSPost2010PropOp57
 70
     0
  0
XRECORD
  5
278
102
{ACAD_REACTORS
330
277
102
}
330
277
100
AcDbXrecord
280
     1
102
RTVSPropertyOp0
 70
     1
102
RTVSPropertyOp1
 70
     1
102
RTVSPropertyOp2
 70
     1
102
RTVSPropertyOp3
 70
     1
102
RTVSPropertyOp4
 70
     1
102
RTVSPropertyOp5
 70
     1
102
RTVSPropertyOp6
 70
     1
102
RTVSPropertyOp7
 70
     1
102
RTVSPropertyOp8
 70
     1
102
RTVSPropertyOp9
 70
     1
102
RTVSPropertyOp10
 70
     1
102
RTVSPropertyOp11
 70
     1
102
RTVSPropertyOp12
 70
     1
102
RTVSPropertyOp13
 70
     1
102
RTVSPropertyOp14
 70
     1
102
RTVSPropertyOp15
 70
     1
102
RTVSPropertyOp16
 70
     1
102
RTVSPropertyOp17
 70
     1
102
RTVSPropertyOp18
 70
     1
102
RTVSPropertyOp19
 70
     1
102
RTVSPropertyOp20
 70
     1
102
RTVSPropertyOp21
 70
     1
102
RTVSPropertyOp22
 70
     1
102
RTVSPropertyOp23
 70
     1
102
RTVSPropertyOp24
 70
     1
102
RTVSPropertyOp25
 70
     1
102
RTVSPropertyOp26
 70
     1
102
RTVSPropertyOp27
 70
     1
102
RTVSPropertyOp28
 70
     1
102
RTVSPropertyOp29
 70
     1
102
RTVSPropertyOp30
 70
     1
102
RTVSPropertyOp31
 70
     1
102
RTVSPropertyOp32
 70
     1
102
RTVSPropertyOp33
 70
     1
102
RTVSPropertyOp34
 70
     1
102
RTVSPropertyOp35
 70
     1
102
RTVSPropertyOp36
 70
     1
102
RTVSPropertyOp37
 70
     1
102
RTVSPropertyOp38
 70
     1
102
RTVSPropertyOp39
 70
     1
102
RTVSPropertyOp40
 70
     1
102
RTVSPropertyOp41
 70
     1
102
RTVSPropertyOp42
 70
     1
102
RTVSPropertyOp43
 70
     1
102
RTVSPropertyOp44
 70
     1
102
RTVSPropertyOp45
 70
     1
102
RTVSPropertyOp46
 70
     1
102
RTVSPropertyOp47
 70
     1
102
RTVSPropertyOp48
 70
     1
102
RTVSPropertyOp49
 70
     1
102
RTVSPropertyOp50
 70
     1
102
RTVSPropertyOp51
 70
     0
102
RTVSPropertyOp52
 70
     0
102
RTVSPropertyOp53
 70
     1
102
RTVSPropertyOp54
 70
     1
102
RTVSPropertyOp55
 70
     1
102
RTVSPropertyOp56
 70
     1
102
RTVSPropertyOp57
 70
     1
102
RTVSPost2010Prop28
280
     0
102
RTVSPost2010PropOp28
 70
     1
102
RTVSPost2010Prop29
280
     1
102
RTVSPost2010PropOp29
 70
     1
102
RTVSPost2010Prop30
280
     1
102
RTVSPost2010PropOp30
 70
     1
102
RTVSPost2010Prop31
280
     0
102
RTVSPost2010PropOp31
 70
     1
102
RTVSPost2010Prop32
280
     0
102
RTVSPost2010PropOp32
 70
     1
102
RTVSPost2010Prop33
280
     0
102
RTVSPost2010PropOp33
 70
     1
102
RTVSPost2010Prop34
280
     0
102
RTVSPost2010PropOp34
 70
     1
102
RTVSPost2010Prop35
280
     0
102
RTVSPost2010PropOp35
 70
     1
102
RTVSPost2010Prop36
280
     0
102
RTVSPost2010PropOp36
 70
     1
102
RTVSPost2010Prop37
 90
       50
102
RTVSPost2010PropOp37
 70
     1
102
RTVSPost2010Prop38
140
0.0
102
RTVSPost2010PropOp38
 70
     1
102
RTVSPost2010Prop39
140
1.0
102
RTVSPost2010PropOp39
 70
     1
102
RTVSPost2010Prop40
 90
        0
102
RTVSPost2010PropOp40
 70
     1
102
RTVSPost2010Prop41ColorIndex
 90
       18
102
RTVSPost2010Prop41ColorRGB
 90
        0
102
RTVSPost2010PropOp41
 70
     1
102
RTVSPost2010Prop42
 90
       50
102
RTVSPost2010PropOp42
 70
     1
102
RTVSPost2010Prop43
 90
        3
102
RTVSPost2010PropOp43
 70
     1
102
RTVSPost2010Prop44ColorIndex
 90
        5
102
RTVSPost2010Prop44ColorRGB
 90
      255
102
RTVSPost2010PropOp44
 70
     1
102
RTVSPost2010Prop45
280
     0
102
RTVSPost2010PropOp45
 70
     1
102
RTVSPost2010Prop46
 90
       50
102
RTVSPost2010PropOp46
 70
     1
102
RTVSPost2010Prop47
 90
       50
102
RTVSPost2010PropOp47
 70
     1
102
RTVSPost2010Prop48
 90
       50
102
RTVSPost2010PropOp48
 70
     1
102
RTVSPost2010Prop49
280
     0
102
RTVSPost2010PropOp49
 70
     1
102
RTVSPost2010Prop50
 90
       50
102
RTVSPost2010PropOp50
 70
     1
102
RTVSPost2010Prop51ColorIndex
 90
      256
102
RTVSPost2010Prop51ColorRGB
 90
-16777216
102
RTVSPost2010PropOp51
 70
     0
102
RTVSPost2010Prop52
140
1.0
102
RTVSPost2010PropOp52
 70
     0
102
RTVSPost2010Prop53
 90
        2
102
RTVSPost2010PropOp53
 70
     1
102
RTVSPost2010Prop54
  1
strokes_ogs.tif
102
RTVSPost2010PropOp54
 70
     1
102
RTVSPost2010Prop55
280
     0
102
RTVSPost2010PropOp55
 70
     1
102
RTVSPost2010Prop56
140
1.0
102
RTVSPost2010PropOp56
 70
     1
102
RTVSPost2010Prop57
140
1.0
102
RTVSPost2010PropOp57
 70
     1
  0
XRECORD
  5
296
102
{ACAD_REACTORS
330
295
102
}
330
295
100
AcDbXrecord
280
     1
102
RTVSPropertyOp0
 70
     1
102
RTVSPropertyOp1
 70
     1
102
RTVSPropertyOp2
 70
     1
102
RTVSPropertyOp3
 70
     1
102
RTVSPropertyOp4
 70
     1
102
RTVSPropertyOp5
 70
     1
102
RTVSPropertyOp6
 70
     1
102
RTVSPropertyOp7
 70
     1
102
RTVSPropertyOp8
 70
     1
102
RTVSPropertyOp9
 70
     1
102
RTVSPropertyOp10
 70
     1
102
RTVSPropertyOp11
 70
     1
102
RTVSPropertyOp12
 70
     1
102
RTVSPropertyOp13
 70
     1
102
RTVSPropertyOp14
 70
     1
102
RTVSPropertyOp15
 70
     1
102
RTVSPropertyOp16
 70
     1
102
RTVSPropertyOp17
 70
     1
102
RTVSPropertyOp18
 70
     1
102
RTVSPropertyOp19
 70
     1
102
RTVSPropertyOp20
 70
     1
102
RTVSPropertyOp21
 70
     1
102
RTVSPropertyOp22
 70
     1
102
RTVSPropertyOp23
 70
     1
102
RTVSPropertyOp24
 70
     1
102
RTVSPropertyOp25
 70
     1
102
RTVSPropertyOp26
 70
     1
102
RTVSPropertyOp27
 70
     1
102
RTVSPropertyOp28
 70
     1
102
RTVSPropertyOp29
 70
     1
102
RTVSPropertyOp30
 70
     1
102
RTVSPropertyOp31
 70
     1
102
RTVSPropertyOp32
 70
     1
102
RTVSPropertyOp33
 70
     1
102
RTVSPropertyOp34
 70
     1
102
RTVSPropertyOp35
 70
     1
102
RTVSPropertyOp36
 70
     1
102
RTVSPropertyOp37
 70
     1
102
RTVSPropertyOp38
 70
     1
102
RTVSPropertyOp39
 70
     1
102
RTVSPropertyOp40
 70
     1
102
RTVSPropertyOp41
 70
     1
102
RTVSPropertyOp42
 70
     1
102
RTVSPropertyOp43
 70
     1
102
RTVSPropertyOp44
 70
     1
102
RTVSPropertyOp45
 70
     1
102
RTVSPropertyOp46
 70
     1
102
RTVSPropertyOp47
 70
     1
102
RTVSPropertyOp48
 70
     1
102
RTVSPropertyOp49
 70
     1
102
RTVSPropertyOp50
 70
     1
102
RTVSPropertyOp51
 70
     0
102
RTVSPropertyOp52
 70
     0
102
RTVSPropertyOp53
 70
     1
102
RTVSPropertyOp54
 70
     1
102
RTVSPropertyOp55
 70
     1
102
RTVSPropertyOp56
 70
     1
102
RTVSPropertyOp57
 70
     1
102
RTVSPost2010Prop28
280
     0
102
RTVSPost2010PropOp28
 70
     1
102
RTVSPost2010Prop29
280
     1
102
RTVSPost2010PropOp29
 70
     1
102
RTVSPost2010Prop30
280
     1
102
RTVSPost2010PropOp30
 70
     1
102
RTVSPost2010Prop31
280
     0
102
RTVSPost2010PropOp31
 70
     1
102
RTVSPost2010Prop32
280
     0
102
RTVSPost2010PropOp32
 70
     1
102
RTVSPost2010Prop33
280
     0
102
RTVSPost2010PropOp33
 70
     1
102
RTVSPost2010Prop34
280
     0
102
RTVSPost2010PropOp34
 70
     1
102
RTVSPost2010Prop35
280
     0
102
RTVSPost2010PropOp35
 70
     1
102
RTVSPost2010Prop36
280
     0
102
RTVSPost2010PropOp36
 70
     1
102
RTVSPost2010Prop37
 90
       50
102
RTVSPost2010PropOp37
 70
     1
102
RTVSPost2010Prop38
140
0.0
102
RTVSPost2010PropOp38
 70
     1
102
RTVSPost2010Prop39
140
1.0
102
RTVSPost2010PropOp39
 70
     1
102
RTVSPost2010Prop40
 90
        0
102
RTVSPost2010PropOp40
 70
     1
102
RTVSPost2010Prop41ColorIndex
 90
       18
102
RTVSPost2010Prop41ColorRGB
 90
        0
102
RTVSPost2010PropOp41
 70
     1
102
RTVSPost2010Prop42
 90
       50
102
RTVSPost2010PropOp42
 70
     1
102
RTVSPost2010Prop43
 90
        3
102
RTVSPost2010PropOp43
 70
     1
102
RTVSPost2010Prop44ColorIndex
 90
        5
102
RTVSPost2010Prop44ColorRGB
 90
      255
102
RTVSPost2010PropOp44
 70
     1
102
RTVSPost2010Prop45
280
     0
102
RTVSPost2010PropOp45
 70
     1
102
RTVSPost2010Prop46
 90
       50
102
RTVSPost2010PropOp46
 70
     1
102
RTVSPost2010Prop47
 90
       50
102
RTVSPost2010PropOp47
 70
     1
102
RTVSPost2010Prop48
 90
       50
102
RTVSPost2010PropOp48
 70
     1
102
RTVSPost2010Prop49
280
     0
102
RTVSPost2010PropOp49
 70
     1
102
RTVSPost2010Prop50
 90
       50
102
RTVSPost2010PropOp50
 70
     1
102
RTVSPost2010Prop51ColorIndex
 90
      256
102
RTVSPost2010Prop51ColorRGB
 90
-16777216
102
RTVSPost2010PropOp51
 70
     0
102
RTVSPost2010Prop52
140
1.0
102
RTVSPost2010PropOp52
 70
     0
102
RTVSPost2010Prop53
 90
        2
102
RTVSPost2010PropOp53
 70
     1
102
RTVSPost2010Prop54
  1
strokes_ogs.tif
102
RTVSPost2010PropOp54
 70
     1
102
RTVSPost2010Prop55
280
     0
102
RTVSPost2010PropOp55
 70
     1
102
RTVSPost2010Prop56
140
1.0
102
RTVSPost2010PropOp56
 70
     1
102
RTVSPost2010Prop57
140
1.0
102
RTVSPost2010PropOp57
 70
     1
  0
XRECORD
  5
294
102
{ACAD_REACTORS
330
293
102
}
330
293
100
AcDbXrecord
280
     1
102
RTVSPropertyOp0
 70
     1
102
RTVSPropertyOp1
 70
     1
102
RTVSPropertyOp2
 70
     1
102
RTVSPropertyOp3
 70
     1
102
RTVSPropertyOp4
 70
     1
102
RTVSPropertyOp5
 70
     1
102
RTVSPropertyOp6
 70
     1
102
RTVSPropertyOp7
 70
     1
102
RTVSPropertyOp8
 70
     1
102
RTVSPropertyOp9
 70
     1
102
RTVSPropertyOp10
 70
     1
102
RTVSPropertyOp11
 70
     1
102
RTVSPropertyOp12
 70
     1
102
RTVSPropertyOp13
 70
     1
102
RTVSPropertyOp14
 70
     1
102
RTVSPropertyOp15
 70
     1
102
RTVSPropertyOp16
 70
     1
102
RTVSPropertyOp17
 70
     1
102
RTVSPropertyOp18
 70
     1
102
RTVSPropertyOp19
 70
     1
102
RTVSPropertyOp20
 70
     1
102
RTVSPropertyOp21
 70
     1
102
RTVSPropertyOp22
 70
     1
102
RTVSPropertyOp23
 70
     1
102
RTVSPropertyOp24
 70
     1
102
RTVSPropertyOp25
 70
     1
102
RTVSPropertyOp26
 70
     1
102
RTVSPropertyOp27
 70
     1
102
RTVSPropertyOp28
 70
     1
102
RTVSPropertyOp29
 70
     1
102
RTVSPropertyOp30
 70
     1
102
RTVSPropertyOp31
 70
     1
102
RTVSPropertyOp32
 70
     1
102
RTVSPropertyOp33
 70
     1
102
RTVSPropertyOp34
 70
     1
102
RTVSPropertyOp35
 70
     1
102
RTVSPropertyOp36
 70
     1
102
RTVSPropertyOp37
 70
     1
102
RTVSPropertyOp38
 70
     1
102
RTVSPropertyOp39
 70
     1
102
RTVSPropertyOp40
 70
     1
102
RTVSPropertyOp41
 70
     1
102
RTVSPropertyOp42
 70
     1
102
RTVSPropertyOp43
 70
     1
102
RTVSPropertyOp44
 70
     1
102
RTVSPropertyOp45
 70
     1
102
RTVSPropertyOp46
 70
     1
102
RTVSPropertyOp47
 70
     1
102
RTVSPropertyOp48
 70
     1
102
RTVSPropertyOp49
 70
     1
102
RTVSPropertyOp50
 70
     1
102
RTVSPropertyOp51
 70
     0
102
RTVSPropertyOp52
 70
     0
102
RTVSPropertyOp53
 70
     1
102
RTVSPropertyOp54
 70
     1
102
RTVSPropertyOp55
 70
     1
102
RTVSPropertyOp56
 70
     1
102
RTVSPropertyOp57
 70
     1
102
RTVSPost2010Prop28
280
     0
102
RTVSPost2010PropOp28
 70
     1
102
RTVSPost2010Prop29
280
     1
102
RTVSPost2010PropOp29
 70
     1
102
RTVSPost2010Prop30
280
     1
102
RTVSPost2010PropOp30
 70
     1
102
RTVSPost2010Prop31
280
     0
102
RTVSPost2010PropOp31
 70
     1
102
RTVSPost2010Prop32
280
     0
102
RTVSPost2010PropOp32
 70
     1
102
RTVSPost2010Prop33
280
     0
102
RTVSPost2010PropOp33
 70
     1
102
RTVSPost2010Prop34
280
     0
102
RTVSPost2010PropOp34
 70
     1
102
RTVSPost2010Prop35
280
     0
102
RTVSPost2010PropOp35
 70
     1
102
RTVSPost2010Prop36
280
     0
102
RTVSPost2010PropOp36
 70
     1
102
RTVSPost2010Prop37
 90
       50
102
RTVSPost2010PropOp37
 70
     1
102
RTVSPost2010Prop38
140
0.0
102
RTVSPost2010PropOp38
 70
     1
102
RTVSPost2010Prop39
140
1.0
102
RTVSPost2010PropOp39
 70
     1
102
RTVSPost2010Prop40
 90
        0
102
RTVSPost2010PropOp40
 70
     1
102
RTVSPost2010Prop41ColorIndex
 90
       18
102
RTVSPost2010Prop41ColorRGB
 90
        0
102
RTVSPost2010PropOp41
 70
     1
102
RTVSPost2010Prop42
 90
       50
102
RTVSPost2010PropOp42
 70
     1
102
RTVSPost2010Prop43
 90
        3
102
RTVSPost2010PropOp43
 70
     1
102
RTVSPost2010Prop44ColorIndex
 90
        5
102
RTVSPost2010Prop44ColorRGB
 90
      255
102
RTVSPost2010PropOp44
 70
     1
102
RTVSPost2010Prop45
280
     0
102
RTVSPost2010PropOp45
 70
     1
102
RTVSPost2010Prop46
 90
       50
102
RTVSPost2010PropOp46
 70
     1
102
RTVSPost2010Prop47
 90
       50
102
RTVSPost2010PropOp47
 70
     1
102
RTVSPost2010Prop48
 90
       50
102
RTVSPost2010PropOp48
 70
     1
102
RTVSPost2010Prop49
280
     0
102
RTVSPost2010PropOp49
 70
     1
102
RTVSPost2010Prop50
 90
       50
102
RTVSPost2010PropOp50
 70
     1
102
RTVSPost2010Prop51ColorIndex
 90
      256
102
RTVSPost2010Prop51ColorRGB
 90
-16777216
102
RTVSPost2010PropOp51
 70
     0
102
RTVSPost2010Prop52
140
1.0
102
RTVSPost2010PropOp52
 70
     0
102
RTVSPost2010Prop53
 90
        2
102
RTVSPost2010PropOp53
 70
     1
102
RTVSPost2010Prop54
  1
strokes_ogs.tif
102
RTVSPost2010PropOp54
 70
     1
102
RTVSPost2010Prop55
280
     0
102
RTVSPost2010PropOp55
 70
     1
102
RTVSPost2010Prop56
140
1.0
102
RTVSPost2010PropOp56
 70
     1
102
RTVSPost2010Prop57
140
1.0
102
RTVSPost2010PropOp57
 70
     1
  0
XRECORD
  5
28E
102
{ACAD_REACTORS
330
28D
102
}
330
28D
100
AcDbXrecord
280
     1
102
RTVSPropertyOp0
 70
     1
102
RTVSPropertyOp1
 70
     1
102
RTVSPropertyOp2
 70
     1
102
RTVSPropertyOp3
 70
     1
102
RTVSPropertyOp4
 70
     1
102
RTVSPropertyOp5
 70
     1
102
RTVSPropertyOp6
 70
     1
102
RTVSPropertyOp7
 70
     1
102
RTVSPropertyOp8
 70
     1
102
RTVSPropertyOp9
 70
     1
102
RTVSPropertyOp10
 70
     1
102
RTVSPropertyOp11
 70
     1
102
RTVSPropertyOp12
 70
     1
102
RTVSPropertyOp13
 70
     1
102
RTVSPropertyOp14
 70
     1
102
RTVSPropertyOp15
 70
     1
102
RTVSPropertyOp16
 70
     1
102
RTVSPropertyOp17
 70
     1
102
RTVSPropertyOp18
 70
     1
102
RTVSPropertyOp19
 70
     1
102
RTVSPropertyOp20
 70
     1
102
RTVSPropertyOp21
 70
     1
102
RTVSPropertyOp22
 70
     1
102
RTVSPropertyOp23
 70
     1
102
RTVSPropertyOp24
 70
     1
102
RTVSPropertyOp25
 70
     1
102
RTVSPropertyOp26
 70
     1
102
RTVSPropertyOp27
 70
     1
102
RTVSPropertyOp28
 70
     1
102
RTVSPropertyOp29
 70
     1
102
RTVSPropertyOp30
 70
     1
102
RTVSPropertyOp31
 70
     1
102
RTVSPropertyOp32
 70
     1
102
RTVSPropertyOp33
 70
     1
102
RTVSPropertyOp34
 70
     1
102
RTVSPropertyOp35
 70
     1
102
RTVSPropertyOp36
 70
     1
102
RTVSPropertyOp37
 70
     1
102
RTVSPropertyOp38
 70
     1
102
RTVSPropertyOp39
 70
     1
102
RTVSPropertyOp40
 70
     1
102
RTVSPropertyOp41
 70
     1
102
RTVSPropertyOp42
 70
     1
102
RTVSPropertyOp43
 70
     1
102
RTVSPropertyOp44
 70
     1
102
RTVSPropertyOp45
 70
     1
102
RTVSPropertyOp46
 70
     1
102
RTVSPropertyOp47
 70
     1
102
RTVSPropertyOp48
 70
     1
102
RTVSPropertyOp49
 70
     1
102
RTVSPropertyOp50
 70
     1
102
RTVSPropertyOp51
 70
     0
102
RTVSPropertyOp52
 70
     0
102
RTVSPropertyOp53
 70
     1
102
RTVSPropertyOp54
 70
     1
102
RTVSPropertyOp55
 70
     1
102
RTVSPropertyOp56
 70
     1
102
RTVSPropertyOp57
 70
     1
102
RTVSPost2010Prop28
280
     0
102
RTVSPost2010PropOp28
 70
     1
102
RTVSPost2010Prop29
280
     1
102
RTVSPost2010PropOp29
 70
     1
102
RTVSPost2010Prop30
280
     1
102
RTVSPost2010PropOp30
 70
     1
102
RTVSPost2010Prop31
280
     0
102
RTVSPost2010PropOp31
 70
     1
102
RTVSPost2010Prop32
280
     0
102
RTVSPost2010PropOp32
 70
     1
102
RTVSPost2010Prop33
280
     0
102
RTVSPost2010PropOp33
 70
     1
102
RTVSPost2010Prop34
280
     0
102
RTVSPost2010PropOp34
 70
     1
102
RTVSPost2010Prop35
280
     0
102
RTVSPost2010PropOp35
 70
     1
102
RTVSPost2010Prop36
280
     0
102
RTVSPost2010PropOp36
 70
     1
102
RTVSPost2010Prop37
 90
       50
102
RTVSPost2010PropOp37
 70
     1
102
RTVSPost2010Prop38
140
0.0
102
RTVSPost2010PropOp38
 70
     1
102
RTVSPost2010Prop39
140
1.0
102
RTVSPost2010PropOp39
 70
     1
102
RTVSPost2010Prop40
 90
        0
102
RTVSPost2010PropOp40
 70
     1
102
RTVSPost2010Prop41ColorIndex
 90
       18
102
RTVSPost2010Prop41ColorRGB
 90
        0
102
RTVSPost2010PropOp41
 70
     1
102
RTVSPost2010Prop42
 90
       50
102
RTVSPost2010PropOp42
 70
     1
102
RTVSPost2010Prop43
 90
        3
102
RTVSPost2010PropOp43
 70
     1
102
RTVSPost2010Prop44ColorIndex
 90
        5
102
RTVSPost2010Prop44ColorRGB
 90
      255
102
RTVSPost2010PropOp44
 70
     1
102
RTVSPost2010Prop45
280
     0
102
RTVSPost2010PropOp45
 70
     1
102
RTVSPost2010Prop46
 90
       50
102
RTVSPost2010PropOp46
 70
     1
102
RTVSPost2010Prop47
 90
       50
102
RTVSPost2010PropOp47
 70
     1
102
RTVSPost2010Prop48
 90
       50
102
RTVSPost2010PropOp48
 70
     1
102
RTVSPost2010Prop49
280
     0
102
RTVSPost2010PropOp49
 70
     1
102
RTVSPost2010Prop50
 90
       50
102
RTVSPost2010PropOp50
 70
     1
102
RTVSPost2010Prop51ColorIndex
 90
      256
102
RTVSPost2010Prop51ColorRGB
 90
-16777216
102
RTVSPost2010PropOp51
 70
     0
102
RTVSPost2010Prop52
140
1.0
102
RTVSPost2010PropOp52
 70
     0
102
RTVSPost2010Prop53
 90
        2
102
RTVSPost2010PropOp53
 70
     1
102
RTVSPost2010Prop54
  1
strokes_ogs.tif
102
RTVSPost2010PropOp54
 70
     1
102
RTVSPost2010Prop55
280
     0
102
RTVSPost2010PropOp55
 70
     1
102
RTVSPost2010Prop56
140
1.0
102
RTVSPost2010PropOp56
 70
     1
102
RTVSPost2010Prop57
140
1.0
102
RTVSPost2010PropOp57
 70
     1
  0
XRECORD
  5
290
102
{ACAD_REACTORS
330
28F
102
}
330
28F
100
AcDbXrecord
280
     1
102
RTVSPropertyOp0
 70
     1
102
RTVSPropertyOp1
 70
     1
102
RTVSPropertyOp2
 70
     1
102
RTVSPropertyOp3
 70
     1
102
RTVSPropertyOp4
 70
     1
102
RTVSPropertyOp5
 70
     1
102
RTVSPropertyOp6
 70
     1
102
RTVSPropertyOp7
 70
     1
102
RTVSPropertyOp8
 70
     1
102
RTVSPropertyOp9
 70
     1
102
RTVSPropertyOp10
 70
     1
102
RTVSPropertyOp11
 70
     1
102
RTVSPropertyOp12
 70
     1
102
RTVSPropertyOp13
 70
     1
102
RTVSPropertyOp14
 70
     1
102
RTVSPropertyOp15
 70
     1
102
RTVSPropertyOp16
 70
     1
102
RTVSPropertyOp17
 70
     1
102
RTVSPropertyOp18
 70
     1
102
RTVSPropertyOp19
 70
     1
102
RTVSPropertyOp20
 70
     1
102
RTVSPropertyOp21
 70
     1
102
RTVSPropertyOp22
 70
     1
102
RTVSPropertyOp23
 70
     1
102
RTVSPropertyOp24
 70
     1
102
RTVSPropertyOp25
 70
     1
102
RTVSPropertyOp26
 70
     1
102
RTVSPropertyOp27
 70
     1
102
RTVSPropertyOp28
 70
     1
102
RTVSPropertyOp29
 70
     1
102
RTVSPropertyOp30
 70
     1
102
RTVSPropertyOp31
 70
     1
102
RTVSPropertyOp32
 70
     1
102
RTVSPropertyOp33
 70
     1
102
RTVSPropertyOp34
 70
     1
102
RTVSPropertyOp35
 70
     1
102
RTVSPropertyOp36
 70
     1
102
RTVSPropertyOp37
 70
     1
102
RTVSPropertyOp38
 70
     1
102
RTVSPropertyOp39
 70
     1
102
RTVSPropertyOp40
 70
     1
102
RTVSPropertyOp41
 70
     1
102
RTVSPropertyOp42
 70
     1
102
RTVSPropertyOp43
 70
     1
102
RTVSPropertyOp44
 70
     1
102
RTVSPropertyOp45
 70
     1
102
RTVSPropertyOp46
 70
     1
102
RTVSPropertyOp47
 70
     1
102
RTVSPropertyOp48
 70
     1
102
RTVSPropertyOp49
 70
     1
102
RTVSPropertyOp50
 70
     1
102
RTVSPropertyOp51
 70
     0
102
RTVSPropertyOp52
 70
     0
102
RTVSPropertyOp53
 70
     1
102
RTVSPropertyOp54
 70
     1
102
RTVSPropertyOp55
 70
     1
102
RTVSPropertyOp56
 70
     1
102
RTVSPropertyOp57
 70
     1
102
RTVSPost2010Prop28
280
     0
102
RTVSPost2010PropOp28
 70
     1
102
RTVSPost2010Prop29
280
     1
102
RTVSPost2010PropOp29
 70
     1
102
RTVSPost2010Prop30
280
     1
102
RTVSPost2010PropOp30
 70
     1
102
RTVSPost2010Prop31
280
     0
102
RTVSPost2010PropOp31
 70
     1
102
RTVSPost2010Prop32
280
     0
102
RTVSPost2010PropOp32
 70
     1
102
RTVSPost2010Prop33
280
     0
102
RTVSPost2010PropOp33
 70
     1
102
RTVSPost2010Prop34
280
     0
102
RTVSPost2010PropOp34
 70
     1
102
RTVSPost2010Prop35
280
     0
102
RTVSPost2010PropOp35
 70
     1
102
RTVSPost2010Prop36
280
     0
102
RTVSPost2010PropOp36
 70
     1
102
RTVSPost2010Prop37
 90
       50
102
RTVSPost2010PropOp37
 70
     1
102
RTVSPost2010Prop38
140
0.0
102
RTVSPost2010PropOp38
 70
     1
102
RTVSPost2010Prop39
140
1.0
102
RTVSPost2010PropOp39
 70
     1
102
RTVSPost2010Prop40
 90
        0
102
RTVSPost2010PropOp40
 70
     1
102
RTVSPost2010Prop41ColorIndex
 90
       18
102
RTVSPost2010Prop41ColorRGB
 90
        0
102
RTVSPost2010PropOp41
 70
     1
102
RTVSPost2010Prop42
 90
       50
102
RTVSPost2010PropOp42
 70
     1
102
RTVSPost2010Prop43
 90
        3
102
RTVSPost2010PropOp43
 70
     1
102
RTVSPost2010Prop44ColorIndex
 90
        5
102
RTVSPost2010Prop44ColorRGB
 90
      255
102
RTVSPost2010PropOp44
 70
     1
102
RTVSPost2010Prop45
280
     0
102
RTVSPost2010PropOp45
 70
     1
102
RTVSPost2010Prop46
 90
       50
102
RTVSPost2010PropOp46
 70
     1
102
RTVSPost2010Prop47
 90
       50
102
RTVSPost2010PropOp47
 70
     1
102
RTVSPost2010Prop48
 90
       50
102
RTVSPost2010PropOp48
 70
     1
102
RTVSPost2010Prop49
280
     0
102
RTVSPost2010PropOp49
 70
     1
102
RTVSPost2010Prop50
 90
       50
102
RTVSPost2010PropOp50
 70
     1
102
RTVSPost2010Prop51ColorIndex
 90
      256
102
RTVSPost2010Prop51ColorRGB
 90
-16777216
102
RTVSPost2010PropOp51
 70
     0
102
RTVSPost2010Prop52
140
1.0
102
RTVSPost2010PropOp52
 70
     0
102
RTVSPost2010Prop53
 90
        2
102
RTVSPost2010PropOp53
 70
     1
102
RTVSPost2010Prop54
  1
strokes_ogs.tif
102
RTVSPost2010PropOp54
 70
     1
102
RTVSPost2010Prop55
280
     0
102
RTVSPost2010PropOp55
 70
     1
102
RTVSPost2010Prop56
140
1.0
102
RTVSPost2010PropOp56
 70
     1
102
RTVSPost2010Prop57
140
1.0
102
RTVSPost2010PropOp57
 70
     1
  0
XRECORD
  5
280
102
{ACAD_REACTORS
330
27F
102
}
330
27F
100
AcDbXrecord
280
     1
102
RTVSPropertyOp0
 70
     1
102
RTVSPropertyOp1
 70
     1
102
RTVSPropertyOp2
 70
     1
102
RTVSPropertyOp3
 70
     1
102
RTVSPropertyOp4
 70
     1
102
RTVSPropertyOp5
 70
     1
102
RTVSPropertyOp6
 70
     1
102
RTVSPropertyOp7
 70
     1
102
RTVSPropertyOp8
 70
     1
102
RTVSPropertyOp9
 70
     1
102
RTVSPropertyOp10
 70
     1
102
RTVSPropertyOp11
 70
     1
102
RTVSPropertyOp12
 70
     1
102
RTVSPropertyOp13
 70
     1
102
RTVSPropertyOp14
 70
     1
102
RTVSPropertyOp15
 70
     1
102
RTVSPropertyOp16
 70
     1
102
RTVSPropertyOp17
 70
     1
102
RTVSPropertyOp18
 70
     1
102
RTVSPropertyOp19
 70
     1
102
RTVSPropertyOp20
 70
     1
102
RTVSPropertyOp21
 70
     1
102
RTVSPropertyOp22
 70
     1
102
RTVSPropertyOp23
 70
     1
102
RTVSPropertyOp24
 70
     1
102
RTVSPropertyOp25
 70
     1
102
RTVSPropertyOp26
 70
     1
102
RTVSPropertyOp27
 70
     1
102
RTVSPropertyOp28
 70
     1
102
RTVSPropertyOp29
 70
     1
102
RTVSPropertyOp30
 70
     1
102
RTVSPropertyOp31
 70
     1
102
RTVSPropertyOp32
 70
     1
102
RTVSPropertyOp33
 70
     1
102
RTVSPropertyOp34
 70
     1
102
RTVSPropertyOp35
 70
     1
102
RTVSPropertyOp36
 70
     1
102
RTVSPropertyOp37
 70
     1
102
RTVSPropertyOp38
 70
     1
102
RTVSPropertyOp39
 70
     1
102
RTVSPropertyOp40
 70
     1
102
RTVSPropertyOp41
 70
     1
102
RTVSPropertyOp42
 70
     1
102
RTVSPropertyOp43
 70
     1
102
RTVSPropertyOp44
 70
     1
102
RTVSPropertyOp45
 70
     1
102
RTVSPropertyOp46
 70
     1
102
RTVSPropertyOp47
 70
     1
102
RTVSPropertyOp48
 70
     1
102
RTVSPropertyOp49
 70
     1
102
RTVSPropertyOp50
 70
     1
102
RTVSPropertyOp51
 70
     0
102
RTVSPropertyOp52
 70
     0
102
RTVSPropertyOp53
 70
     1
102
RTVSPropertyOp54
 70
     1
102
RTVSPropertyOp55
 70
     1
102
RTVSPropertyOp56
 70
     1
102
RTVSPropertyOp57
 70
     1
102
RTVSPost2010Prop28
280
     0
102
RTVSPost2010PropOp28
 70
     1
102
RTVSPost2010Prop29
280
     1
102
RTVSPost2010PropOp29
 70
     1
102
RTVSPost2010Prop30
280
     1
102
RTVSPost2010PropOp30
 70
     1
102
RTVSPost2010Prop31
280
     0
102
RTVSPost2010PropOp31
 70
     1
102
RTVSPost2010Prop32
280
     0
102
RTVSPost2010PropOp32
 70
     1
102
RTVSPost2010Prop33
280
     0
102
RTVSPost2010PropOp33
 70
     1
102
RTVSPost2010Prop34
280
     0
102
RTVSPost2010PropOp34
 70
     1
102
RTVSPost2010Prop35
280
     0
102
RTVSPost2010PropOp35
 70
     1
102
RTVSPost2010Prop36
280
     0
102
RTVSPost2010PropOp36
 70
     1
102
RTVSPost2010Prop37
 90
       50
102
RTVSPost2010PropOp37
 70
     1
102
RTVSPost2010Prop38
140
0.0
102
RTVSPost2010PropOp38
 70
     1
102
RTVSPost2010Prop39
140
1.0
102
RTVSPost2010PropOp39
 70
     1
102
RTVSPost2010Prop40
 90
        0
102
RTVSPost2010PropOp40
 70
     1
102
RTVSPost2010Prop41ColorIndex
 90
       18
102
RTVSPost2010Prop41ColorRGB
 90
        0
102
RTVSPost2010PropOp41
 70
     1
102
RTVSPost2010Prop42
 90
       50
102
RTVSPost2010PropOp42
 70
     1
102
RTVSPost2010Prop43
 90
        3
102
RTVSPost2010PropOp43
 70
     1
102
RTVSPost2010Prop44ColorIndex
 90
        5
102
RTVSPost2010Prop44ColorRGB
 90
      255
102
RTVSPost2010PropOp44
 70
     1
102
RTVSPost2010Prop45
280
     0
102
RTVSPost2010PropOp45
 70
     1
102
RTVSPost2010Prop46
 90
       50
102
RTVSPost2010PropOp46
 70
     1
102
RTVSPost2010Prop47
 90
       50
102
RTVSPost2010PropOp47
 70
     1
102
RTVSPost2010Prop48
 90
       50
102
RTVSPost2010PropOp48
 70
     1
102
RTVSPost2010Prop49
280
     0
102
RTVSPost2010PropOp49
 70
     1
102
RTVSPost2010Prop50
 90
       50
102
RTVSPost2010PropOp50
 70
     1
102
RTVSPost2010Prop51ColorIndex
 90
      256
102
RTVSPost2010Prop51ColorRGB
 90
-16777216
102
RTVSPost2010PropOp51
 70
     0
102
RTVSPost2010Prop52
140
1.0
102
RTVSPost2010PropOp52
 70
     0
102
RTVSPost2010Prop53
 90
        2
102
RTVSPost2010PropOp53
 70
     1
102
RTVSPost2010Prop54
  1
strokes_ogs.tif
102
RTVSPost2010PropOp54
 70
     1
102
RTVSPost2010Prop55
280
     0
102
RTVSPost2010PropOp55
 70
     1
102
RTVSPost2010Prop56
140
1.0
102
RTVSPost2010PropOp56
 70
     1
102
RTVSPost2010Prop57
140
1.0
102
RTVSPost2010PropOp57
 70
     1
  0
XRECORD
  5
272
102
{ACAD_REACTORS
330
271
102
}
330
271
100
AcDbXrecord
280
     1
102
RTVSPropertyOp0
 70
     1
102
RTVSPropertyOp1
 70
     1
102
RTVSPropertyOp2
 70
     1
102
RTVSPropertyOp3
 70
     1
102
RTVSPropertyOp4
 70
     1
102
RTVSPropertyOp5
 70
     1
102
RTVSPropertyOp6
 70
     1
102
RTVSPropertyOp7
 70
     1
102
RTVSPropertyOp8
 70
     1
102
RTVSPropertyOp9
 70
     1
102
RTVSPropertyOp10
 70
     1
102
RTVSPropertyOp11
 70
     1
102
RTVSPropertyOp12
 70
     1
102
RTVSPropertyOp13
 70
     1
102
RTVSPropertyOp14
 70
     1
102
RTVSPropertyOp15
 70
     1
102
RTVSPropertyOp16
 70
     1
102
RTVSPropertyOp17
 70
     1
102
RTVSPropertyOp18
 70
     1
102
RTVSPropertyOp19
 70
     1
102
RTVSPropertyOp20
 70
     1
102
RTVSPropertyOp21
 70
     1
102
RTVSPropertyOp22
 70
     1
102
RTVSPropertyOp23
 70
     1
102
RTVSPropertyOp24
 70
     1
102
RTVSPropertyOp25
 70
     1
102
RTVSPropertyOp26
 70
     1
102
RTVSPropertyOp27
 70
     1
102
RTVSPropertyOp28
 70
     1
102
RTVSPropertyOp29
 70
     1
102
RTVSPropertyOp30
 70
     1
102
RTVSPropertyOp31
 70
     1
102
RTVSPropertyOp32
 70
     1
102
RTVSPropertyOp33
 70
     1
102
RTVSPropertyOp34
 70
     1
102
RTVSPropertyOp35
 70
     1
102
RTVSPropertyOp36
 70
     1
102
RTVSPropertyOp37
 70
     1
102
RTVSPropertyOp38
 70
     1
102
RTVSPropertyOp39
 70
     1
102
RTVSPropertyOp40
 70
     1
102
RTVSPropertyOp41
 70
     1
102
RTVSPropertyOp42
 70
     1
102
RTVSPropertyOp43
 70
     1
102
RTVSPropertyOp44
 70
     1
102
RTVSPropertyOp45
 70
     1
102
RTVSPropertyOp46
 70
     1
102
RTVSPropertyOp47
 70
     1
102
RTVSPropertyOp48
 70
     1
102
RTVSPropertyOp49
 70
     1
102
RTVSPropertyOp50
 70
     1
102
RTVSPropertyOp51
 70
     0
102
RTVSPropertyOp52
 70
     0
102
RTVSPropertyOp53
 70
     1
102
RTVSPropertyOp54
 70
     1
102
RTVSPropertyOp55
 70
     1
102
RTVSPropertyOp56
 70
     1
102
RTVSPropertyOp57
 70
     1
102
RTVSPost2010Prop28
280
     0
102
RTVSPost2010PropOp28
 70
     1
102
RTVSPost2010Prop29
280
     1
102
RTVSPost2010PropOp29
 70
     1
102
RTVSPost2010Prop30
280
     1
102
RTVSPost2010PropOp30
 70
     1
102
RTVSPost2010Prop31
280
     0
102
RTVSPost2010PropOp31
 70
     1
102
RTVSPost2010Prop32
280
     0
102
RTVSPost2010PropOp32
 70
     1
102
RTVSPost2010Prop33
280
     0
102
RTVSPost2010PropOp33
 70
     1
102
RTVSPost2010Prop34
280
     0
102
RTVSPost2010PropOp34
 70
     1
102
RTVSPost2010Prop35
280
     0
102
RTVSPost2010PropOp35
 70
     1
102
RTVSPost2010Prop36
280
     0
102
RTVSPost2010PropOp36
 70
     1
102
RTVSPost2010Prop37
 90
       50
102
RTVSPost2010PropOp37
 70
     1
102
RTVSPost2010Prop38
140
0.0
102
RTVSPost2010PropOp38
 70
     1
102
RTVSPost2010Prop39
140
1.0
102
RTVSPost2010PropOp39
 70
     1
102
RTVSPost2010Prop40
 90
        0
102
RTVSPost2010PropOp40
 70
     1
102
RTVSPost2010Prop41ColorIndex
 90
       18
102
RTVSPost2010Prop41ColorRGB
 90
        0
102
RTVSPost2010PropOp41
 70
     1
102
RTVSPost2010Prop42
 90
       50
102
RTVSPost2010PropOp42
 70
     1
102
RTVSPost2010Prop43
 90
        3
102
RTVSPost2010PropOp43
 70
     1
102
RTVSPost2010Prop44ColorIndex
 90
        5
102
RTVSPost2010Prop44ColorRGB
 90
      255
102
RTVSPost2010PropOp44
 70
     1
102
RTVSPost2010Prop45
280
     0
102
RTVSPost2010PropOp45
 70
     1
102
RTVSPost2010Prop46
 90
       50
102
RTVSPost2010PropOp46
 70
     1
102
RTVSPost2010Prop47
 90
       50
102
RTVSPost2010PropOp47
 70
     1
102
RTVSPost2010Prop48
 90
       50
102
RTVSPost2010PropOp48
 70
     1
102
RTVSPost2010Prop49
280
     0
102
RTVSPost2010PropOp49
 70
     1
102
RTVSPost2010Prop50
 90
       50
102
RTVSPost2010PropOp50
 70
     1
102
RTVSPost2010Prop51ColorIndex
 90
      256
102
RTVSPost2010Prop51ColorRGB
 90
-16777216
102
RTVSPost2010PropOp51
 70
     0
102
RTVSPost2010Prop52
140
1.0
102
RTVSPost2010PropOp52
 70
     0
102
RTVSPost2010Prop53
 90
        2
102
RTVSPost2010PropOp53
 70
     1
102
RTVSPost2010Prop54
  1
strokes_ogs.tif
102
RTVSPost2010PropOp54
 70
     1
102
RTVSPost2010Prop55
280
     0
102
RTVSPost2010PropOp55
 70
     1
102
RTVSPost2010Prop56
140
1.0
102
RTVSPost2010PropOp56
 70
     1
102
RTVSPost2010Prop57
140
1.0
102
RTVSPost2010PropOp57
 70
     1
  0
XRECORD
  5
292
102
{ACAD_REACTORS
330
291
102
}
330
291
100
AcDbXrecord
280
     1
102
RTVSPropertyOp0
 70
     1
102
RTVSPropertyOp1
 70
     1
102
RTVSPropertyOp2
 70
     1
102
RTVSPropertyOp3
 70
     1
102
RTVSPropertyOp4
 70
     1
102
RTVSPropertyOp5
 70
     1
102
RTVSPropertyOp6
 70
     1
102
RTVSPropertyOp7
 70
     1
102
RTVSPropertyOp8
 70
     1
102
RTVSPropertyOp9
 70
     1
102
RTVSPropertyOp10
 70
     1
102
RTVSPropertyOp11
 70
     1
102
RTVSPropertyOp12
 70
     1
102
RTVSPropertyOp13
 70
     1
102
RTVSPropertyOp14
 70
     1
102
RTVSPropertyOp15
 70
     1
102
RTVSPropertyOp16
 70
     1
102
RTVSPropertyOp17
 70
     1
102
RTVSPropertyOp18
 70
     1
102
RTVSPropertyOp19
 70
     1
102
RTVSPropertyOp20
 70
     1
102
RTVSPropertyOp21
 70
     1
102
RTVSPropertyOp22
 70
     1
102
RTVSPropertyOp23
 70
     1
102
RTVSPropertyOp24
 70
     1
102
RTVSPropertyOp25
 70
     1
102
RTVSPropertyOp26
 70
     1
102
RTVSPropertyOp27
 70
     1
102
RTVSPropertyOp28
 70
     1
102
RTVSPropertyOp29
 70
     1
102
RTVSPropertyOp30
 70
     1
102
RTVSPropertyOp31
 70
     1
102
RTVSPropertyOp32
 70
     1
102
RTVSPropertyOp33
 70
     1
102
RTVSPropertyOp34
 70
     1
102
RTVSPropertyOp35
 70
     1
102
RTVSPropertyOp36
 70
     1
102
RTVSPropertyOp37
 70
     1
102
RTVSPropertyOp38
 70
     1
102
RTVSPropertyOp39
 70
     1
102
RTVSPropertyOp40
 70
     1
102
RTVSPropertyOp41
 70
     1
102
RTVSPropertyOp42
 70
     1
102
RTVSPropertyOp43
 70
     1
102
RTVSPropertyOp44
 70
     1
102
RTVSPropertyOp45
 70
     1
102
RTVSPropertyOp46
 70
     1
102
RTVSPropertyOp47
 70
     1
102
RTVSPropertyOp48
 70
     1
102
RTVSPropertyOp49
 70
     1
102
RTVSPropertyOp50
 70
     1
102
RTVSPropertyOp51
 70
     0
102
RTVSPropertyOp52
 70
     0
102
RTVSPropertyOp53
 70
     1
102
RTVSPropertyOp54
 70
     1
102
RTVSPropertyOp55
 70
     1
102
RTVSPropertyOp56
 70
     1
102
RTVSPropertyOp57
 70
     1
102
RTVSPost2010Prop28
280
     0
102
RTVSPost2010PropOp28
 70
     1
102
RTVSPost2010Prop29
280
     1
102
RTVSPost2010PropOp29
 70
     1
102
RTVSPost2010Prop30
280
     1
102
RTVSPost2010PropOp30
 70
     1
102
RTVSPost2010Prop31
280
     0
102
RTVSPost2010PropOp31
 70
     1
102
RTVSPost2010Prop32
280
     0
102
RTVSPost2010PropOp32
 70
     1
102
RTVSPost2010Prop33
280
     0
102
RTVSPost2010PropOp33
 70
     1
102
RTVSPost2010Prop34
280
     0
102
RTVSPost2010PropOp34
 70
     1
102
RTVSPost2010Prop35
280
     0
102
RTVSPost2010PropOp35
 70
     1
102
RTVSPost2010Prop36
280
     0
102
RTVSPost2010PropOp36
 70
     1
102
RTVSPost2010Prop37
 90
       50
102
RTVSPost2010PropOp37
 70
     1
102
RTVSPost2010Prop38
140
0.0
102
RTVSPost2010PropOp38
 70
     1
102
RTVSPost2010Prop39
140
1.0
102
RTVSPost2010PropOp39
 70
     1
102
RTVSPost2010Prop40
 90
        0
102
RTVSPost2010PropOp40
 70
     1
102
RTVSPost2010Prop41ColorIndex
 90
       18
102
RTVSPost2010Prop41ColorRGB
 90
        0
102
RTVSPost2010PropOp41
 70
     1
102
RTVSPost2010Prop42
 90
       50
102
RTVSPost2010PropOp42
 70
     1
102
RTVSPost2010Prop43
 90
        3
102
RTVSPost2010PropOp43
 70
     1
102
RTVSPost2010Prop44ColorIndex
 90
        5
102
RTVSPost2010Prop44ColorRGB
 90
      255
102
RTVSPost2010PropOp44
 70
     1
102
RTVSPost2010Prop45
280
     0
102
RTVSPost2010PropOp45
 70
     1
102
RTVSPost2010Prop46
 90
       50
102
RTVSPost2010PropOp46
 70
     1
102
RTVSPost2010Prop47
 90
       50
102
RTVSPost2010PropOp47
 70
     1
102
RTVSPost2010Prop48
 90
       50
102
RTVSPost2010PropOp48
 70
     1
102
RTVSPost2010Prop49
280
     0
102
RTVSPost2010PropOp49
 70
     1
102
RTVSPost2010Prop50
 90
       50
102
RTVSPost2010PropOp50
 70
     1
102
RTVSPost2010Prop51ColorIndex
 90
      256
102
RTVSPost2010Prop51ColorRGB
 90
-16777216
102
RTVSPost2010PropOp51
 70
     0
102
RTVSPost2010Prop52
140
1.0
102
RTVSPost2010PropOp52
 70
     0
102
RTVSPost2010Prop53
 90
        2
102
RTVSPost2010PropOp53
 70
     1
102
RTVSPost2010Prop54
  1
strokes_ogs.tif
102
RTVSPost2010PropOp54
 70
     1
102
RTVSPost2010Prop55
280
     0
102
RTVSPost2010PropOp55
 70
     1
102
RTVSPost2010Prop56
140
1.0
102
RTVSPost2010PropOp56
 70
     1
102
RTVSPost2010Prop57
140
1.0
102
RTVSPost2010PropOp57
 70
     1
  0
ENDSEC
  0
EOF
