  0
SECTION
  2
HEADER
  9
$ACADVER
  1
AC1015
  9
$ACADMAINTVER
 70
     6
  9
$DWGCODEPAGE
  3
ANSI_1252
  9
$INSBASE
 10
0.0
 20
0.0
 30
0.0
  9
$EXTMIN
 10
-17.061745
 20
-51.130989
 30
0.0
  9
$EXTMAX
 10
315.492401
 20
289.214691
 30
0.0
  9
$LIMMIN
 10
-17.061745
 20
-51.130989
  9
$LIMMAX
 10
315.492401
 20
289.214691
  9
$ORTHOMODE
 70
     0
  9
$REGENMODE
 70
     1
  9
$FILLMODE
 70
     1
  9
$QTEXTMODE
 70
     0
  9
$MIRRTEXT
 70
     1
  9
$LTSCALE
 40
1.0
  9
$ATTMODE
 70
     1
  9
$TEXTSIZE
 40
2.5
  9
$TRACEWID
 40
1.0
  9
$TEXTSTYLE
  7
Standard
  9
$CLAYER
  8
0
  9
$CELTYPE
  6
ByLayer
  9
$CECOLOR
 62
   256
  9
$CELTSCALE
 40
1.0
  9
$DISPSILH
 70
     0
  9
$DIMSCALE
 40
1.0
  9
$DIMASZ
 40
2.5
  9
$DIMEXO
 40
0.625
  9
$DIMDLI
 40
3.75
  9
$DIMRND
 40
0.0
  9
$DIMDLE
 40
0.0
  9
$DIMEXE
 40
1.25
  9
$DIMTP
 40
0.0
  9
$DIMTM
 40
0.0
  9
$DIMTXT
 40
2.5
  9
$DIMCEN
 40
2.5
  9
$DIMTSZ
 40
0.0
  9
$DIMTOL
 70
     0
  9
$DIMLIM
 70
     0
  9
$DIMTIH
 70
     0
  9
$DIMTOH
 70
     0
  9
$DIMSE1
 70
     0
  9
$DIMSE2
 70
     0
  9
$DIMTAD
 70
     1
  9
$DIMZIN
 70
     8
  9
$DIMBLK
  1

  9
$DIMASO
 70
     1
  9
$DIMSHO
 70
     1
  9
$DIMPOST
  1

  9
$DIMAPOST
  1

  9
$DIMALT
 70
     0
  9
$DIMALTD
 70
     3
  9
$DIMALTF
 40
0.03937
  9
$DIMLFAC
 40
1.0
  9
$DIMTOFL
 70
     1
  9
$DIMTVP
 40
0.0
  9
$DIMTIX
 70
     0
  9
$DIMSOXD
 70
     0
  9
$DIMSAH
 70
     0
  9
$DIMBLK1
  1

  9
$DIMBLK2
  1

  9
$DIMSTYLE
  2
ISO-25
  9
$DIMCLRD
 70
     0
  9
$DIMCLRE
 70
     0
  9
$DIMCLRT
 70
     0
  9
$DIMTFAC
 40
1.0
  9
$DIMGAP
 40
0.625
  9
$DIMJUST
 70
     0
  9
$DIMSD1
 70
     0
  9
$DIMSD2
 70
     0
  9
$DIMTOLJ
 70
     0
  9
$DIMTZIN
 70
     8
  9
$DIMALTZ
 70
     0
  9
$DIMALTTZ
 70
     0
  9
$DIMUPT
 70
     0
  9
$DIMDEC
 70
     2
  9
$DIMTDEC
 70
     2
  9
$DIMALTU
 70
     2
  9
$DIMALTTD
 70
     3
  9
$DIMTXSTY
  7
Standard
  9
$DIMAUNIT
 70
     0
  9
$DIMADEC
 70
     0
  9
$DIMALTRND
 40
0.0
  9
$DIMAZIN
 70
     0
  9
$DIMDSEP
 70
    44
  9
$DIMATFIT
 70
     3
  9
$DIMFRAC
 70
     0
  9
$DIMLDRBLK
  1

  9
$DIMLUNIT
 70
     2
  9
$DIMLWD
 70
    -2
  9
$DIMLWE
 70
    -2
  9
$DIMTMOVE
 70
     0
  9
$LUNITS
 70
     2
  9
$LUPREC
 70
     4
  9
$SKETCHINC
 40
1.0
  9
$FILLETRAD
 40
10.0
  9
$AUNITS
 70
     0
  9
$AUPREC
 70
     0
  9
$MENU
  1
.
  9
$ELEVATION
 40
0.0
  9
$PELEVATION
 40
0.0
  9
$THICKNESS
 40
0.0
  9
$LIMCHECK
 70
     0
  9
$CHAMFERA
 40
0.0
  9
$CHAMFERB
 40
0.0
  9
$CHAMFERC
 40
0.0
  9
$CHAMFERD
 40
0.0
  9
$SKPOLY
 70
     0
  9
$TDCREATE
 40
2459107.43198647
  9
$TDUCREATE
 40
2459107.348653137
  9
$TDUPDATE
 40
2459107.431987014
  9
$TDUUPDATE
 40
2459107.348653681
  9
$TDINDWG
 40
0.0000000116
  9
$TDUSRTIMER
 40
0.0000000116
  9
$USRTIMER
 70
     1
  9
$ANGBASE
 50
0.0
  9
$ANGDIR
 70
     0
  9
$PDMODE
 70
     0
  9
$PDSIZE
 40
0.0
  9
$PLINEWID
 40
0.0
  9
$SPLFRAME
 70
     0
  9
$SPLINETYPE
 70
     6
  9
$SPLINESEGS
 70
     8
  9
$HANDSEED
  5
1E7
  9
$SURFTAB1
 70
     6
  9
$SURFTAB2
 70
     6
  9
$SURFTYPE
 70
     6
  9
$SURFU
 70
     6
  9
$SURFV
 70
     6
  9
$UCSBASE
  2

  9
$UCSNAME
  2

  9
$UCSORG
 10
0.0
 20
0.0
 30
0.0
  9
$UCSXDIR
 10
1.0
 20
0.0
 30
0.0
  9
$UCSYDIR
 10
0.0
 20
1.0
 30
0.0
  9
$UCSORTHOREF
  2

  9
$UCSORTHOVIEW
 70
     0
  9
$UCSORGTOP
 10
0.0
 20
0.0
 30
0.0
  9
$UCSORGBOTTOM
 10
0.0
 20
0.0
 30
0.0
  9
$UCSORGLEFT
 10
0.0
 20
0.0
 30
0.0
  9
$UCSORGRIGHT
 10
0.0
 20
0.0
 30
0.0
  9
$UCSORGFRONT
 10
0.0
 20
0.0
 30
0.0
  9
$UCSORGBACK
 10
0.0
 20
0.0
 30
0.0
  9
$PUCSBASE
  2

  9
$PUCSNAME
  2

  9
$PUCSORG
 10
0.0
 20
0.0
 30
0.0
  9
$PUCSXDIR
 10
1.0
 20
0.0
 30
0.0
  9
$PUCSYDIR
 10
0.0
 20
1.0
 30
0.0
  9
$PUCSORTHOREF
  2

  9
$PUCSORTHOVIEW
 70
     0
  9
$PUCSORGTOP
 10
0.0
 20
0.0
 30
0.0
  9
$PUCSORGBOTTOM
 10
0.0
 20
0.0
 30
0.0
  9
$PUCSORGLEFT
 10
0.0
 20
0.0
 30
0.0
  9
$PUCSORGRIGHT
 10
0.0
 20
0.0
 30
0.0
  9
$PUCSORGFRONT
 10
0.0
 20
0.0
 30
0.0
  9
$PUCSORGBACK
 10
0.0
 20
0.0
 30
0.0
  9
$USERI1
 70
     0
  9
$USERI2
 70
     0
  9
$USERI3
 70
     0
  9
$USERI4
 70
     0
  9
$USERI5
 70
     0
  9
$USERR1
 40
0.0
  9
$USERR2
 40
0.0
  9
$USERR3
 40
0.0
  9
$USERR4
 40
0.0
  9
$USERR5
 40
0.0
  9
$WORLDVIEW
 70
     1
  9
$SHADEDGE
 70
     3
  9
$SHADEDIF
 70
    70
  9
$TILEMODE
 70
     1
  9
$MAXACTVP
 70
    64
  9
$PINSBASE
 10
0.0
 20
0.0
 30
0.0
  9
$PLIMCHECK
 70
     0
  9
$PEXTMIN
 10
1.000000E+20
 20
1.000000E+20
 30
1.000000E+20
  9
$PEXTMAX
 10
-1.000000E+20
 20
-1.000000E+20
 30
-1.000000E+20
  9
$PLIMMIN
 10
0.0
 20
0.0
  9
$PLIMMAX
 10
420.0
 20
297.0
  9
$UNITMODE
 70
     0
  9
$VISRETAIN
 70
     1
  9
$PLINEGEN
 70
     0
  9
$PSLTSCALE
 70
     1
  9
$TREEDEPTH
 70
  3020
  9
$CMLSTYLE
  2
Standard
  9
$CMLJUST
 70
     0
  9
$CMLSCALE
 40
20.0
  9
$PROXYGRAPHICS
 70
     1
  9
$MEASUREMENT
 70
     1
  9
$CELWEIGHT
370
    -1
  9
$ENDCAPS
280
     0
  9
$JOINSTYLE
280
     0
  9
$LWDISPLAY
290
     0
  9
$INSUNITS
 70
     4
  9
$HYPERLINKBASE
  1

  9
$STYLESHEET
  1

  9
$XEDIT
290
     1
  9
$CEPSNTYPE
380
     0
  9
$PSTYLEMODE
290
     1
  9
$FINGERPRINTGUID
  2
{547a9cd7-2c98-408b-969b-1f5fe7cb6c6e}
  9
$VERSIONGUID
  2
{FAEB1C32-E019-11D5-929B-00C0DF256EC4}
  9
$EXTNAMES
290
     1
  9
$PSVPSCALE
 40
0.0
  9
$OLESTARTUP
290
     0
  0
ENDSEC
  0
SECTION
  2
CLASSES
  0
CLASS
  1
ACDBDICTIONARYWDFLT
  2
AcDbDictionaryWithDefault
  3
ObjectDBX Classes
 90
        0
280
     0
281
     0
  0
CLASS
  1
VISUALSTYLE
  2
AcDbVisualStyle
  3
ObjectDBX Classes
 90
     4095
280
     0
281
     0
  0
CLASS
  1
MATERIAL
  2
AcDbMaterial
  3
ObjectDBX Classes
 90
     1153
280
     0
281
     0
  0
CLASS
  1
SCALE
  2
AcDbScale
  3
ObjectDBX Classes
 90
     1153
280
     0
281
     0
  0
CLASS
  1
TABLESTYLE
  2
AcDbTableStyle
  3
ObjectDBX Classes
 90
     4095
280
     0
281
     0
  0
CLASS
  1
MLEADERSTYLE
  2
AcDbMLeaderStyle
  3
ACDB_MLEADERSTYLE_CLASS
 90
     4095
280
     0
281
     0
  0
CLASS
  1
SUN
  2
AcDbSun
  3
SCENEOE
 90
     1153
280
     0
281
     0
  0
CLASS
  1
DICTIONARYVAR
  2
AcDbDictionaryVar
  3
ObjectDBX Classes
 90
        0
280
     0
281
     0
  0
CLASS
  1
ACDBPLACEHOLDER
  2
AcDbPlaceHolder
  3
ObjectDBX Classes
 90
        0
280
     0
281
     0
  0
CLASS
  1
LAYOUT
  2
AcDbLayout
  3
ObjectDBX Classes
 90
        0
280
     0
281
     0
  0
ENDSEC
  0
SECTION
  2
TABLES
  0
TABLE
  2
VPORT
  5
8
102
{ACAD_XDICTIONARY
360
1AA
102
}
330
0
100
AcDbSymbolTable
 70
     1
  0
VPORT
  5
29
330
8
100
AcDbSymbolTableRecord
100
AcDbViewportTableRecord
  2
*Active
 70
     0
 10
0.0
 20
0.0
 11
1.0
 21
1.0
 12
344.186916
 22
148.5
 13
0.0
 23
0.0
 14
10.0
 24
10.0
 15
10.0
 25
10.0
 16
0.0
 26
0.0
 36
1.0
 17
0.0
 27
0.0
 37
0.0
 40
297.0
 41
1.972973
 42
50.0
 43
0.0
 44
0.0
 50
0.0
 51
0.0
 71
     0
 72
   100
 73
     1
 74
     3
 75
     0
 76
     0
 77
     0
 78
     0
281
     0
 65
     1
110
0.0
120
0.0
130
0.0
111
1.0
121
0.0
131
0.0
112
0.0
122
1.0
132
0.0
 79
     0
146
0.0
  0
ENDTAB
  0
TABLE
  2
LTYPE
  5
5
330
0
100
AcDbSymbolTable
 70
     1
  0
LTYPE
  5
14
330
5
100
AcDbSymbolTableRecord
100
AcDbLinetypeTableRecord
  2
ByBlock
 70
     0
  3

 72
    65
 73
     0
 40
0.0
  0
LTYPE
  5
15
330
5
100
AcDbSymbolTableRecord
100
AcDbLinetypeTableRecord
  2
ByLayer
 70
     0
  3

 72
    65
 73
     0
 40
0.0
  0
LTYPE
  5
16
330
5
100
AcDbSymbolTableRecord
100
AcDbLinetypeTableRecord
  2
Continuous
 70
     0
  3
Solid line
 72
    65
 73
     0
 40
0.0
  0
ENDTAB
  0
TABLE
  2
LAYER
  5
2
330
0
100
AcDbSymbolTable
 70
     1
  0
LAYER
  5
10
330
2
100
AcDbSymbolTableRecord
100
AcDbLayerTableRecord
  2
0
 70
     0
 62
   106
  6
Continuous
370
     0
390
F
  0
ENDTAB
  0
TABLE
  2
STYLE
  5
3
330
0
100
AcDbSymbolTable
 70
     4
  0
STYLE
  5
11
330
3
100
AcDbSymbolTableRecord
100
AcDbTextStyleTableRecord
  2
Standard
 70
     0
 40
0.0
 41
1.0
 50
0.0
 71
     0
 42
2.5
  3
txt
  4

  0
STYLE
  5
6E
330
3
100
AcDbSymbolTableRecord
100
AcDbTextStyleTableRecord
  2
Default
 70
     0
 40
0.0
 41
1.0
 50
0.0
 71
     0
 42
2.5
  3

  4

1001
ACAD
1000
txt
1071
        0
  0
STYLE
  5
6F
330
3
100
AcDbSymbolTableRecord
100
AcDbTextStyleTableRecord
  2
ISO
 70
     0
 40
0.0
 41
1.0
 50
0.0
 71
     0
 42
2.5
  3

  4

1001
ACAD
1000
txt
1071
        0
  0
STYLE
  5
70
330
3
100
AcDbSymbolTableRecord
100
AcDbTextStyleTableRecord
  2
zucchetti
 70
     0
 40
0.0
 41
1.0
 50
0.0
 71
     0
 42
2.5
  3

  4

1001
ACAD
1000
Arial
1071
        0
  0
ENDTAB
  0
TABLE
  2
VIEW
  5
6
330
0
100
AcDbSymbolTable
 70
     0
  0
ENDTAB
  0
TABLE
  2
UCS
  5
7
330
0
100
AcDbSymbolTable
 70
     0
  0
ENDTAB
  0
TABLE
  2
APPID
  5
9
330
0
100
AcDbSymbolTable
 70
     2
  0
APPID
  5
12
330
9
100
AcDbSymbolTableRecord
100
AcDbRegAppTableRecord
  2
ACAD
 70
     0
  0
APPID
  5
1E4
330
9
100
AcDbSymbolTableRecord
100
AcDbRegAppTableRecord
  2
ACAD_MLEADERVER
 70
     0
  0
ENDTAB
  0
TABLE
  2
DIMSTYLE
  5
A
330
0
100
AcDbSymbolTable
 70
     4
100
AcDbDimStyleTable
  0
DIMSTYLE
105
27
330
A
100
AcDbSymbolTableRecord
100
AcDbDimStyleTableRecord
  2
ISO-25
 70
     0
 41
2.5
 42
0.625
 43
3.75
 44
1.25
 73
     0
 74
     0
 77
     1
 78
     8
140
2.5
141
2.5
143
0.03937
147
0.625
171
     3
172
     1
178
     0
271
     2
272
     2
274
     3
278
    44
283
     0
284
     8
340
11
  0
DIMSTYLE
105
71
330
A
100
AcDbSymbolTableRecord
100
AcDbDimStyleTableRecord
  2
Default
 70
     0
  3
<>
 41
4.375
 42
1.05
 44
2.1
 73
     0
 74
     0
 77
     1
 78
     8
140
3.5
146
0.4
147
1.75
172
     1
271
     2
178
     3
271
     2
272
     3
284
     8
340
6E
341
72
342
72
  0
DIMSTYLE
105
79
330
A
100
AcDbSymbolTableRecord
100
AcDbDimStyleTableRecord
  2
ISO
 70
     0
  3
<>
 41
4.375
 42
1.05
 44
2.1
 73
     0
 74
     0
 77
     1
 78
     8
140
3.5
146
0.4
147
1.75
172
     1
271
     2
178
     3
271
     2
272
     3
284
     8
340
6F
341
72
342
72
  0
DIMSTYLE
105
7A
330
A
100
AcDbSymbolTableRecord
100
AcDbDimStyleTableRecord
  2
zucchetti
 70
     0
  3
<>
 41
3.0
 42
0.9
 44
1.8
 73
     0
 74
     0
 77
     1
 78
     8
140
3.0
146
0.6
147
1.5
172
     1
176
     3
177
     3
271
     2
178
     3
271
     2
272
     2
284
     8
340
70
  0
ENDTAB
  0
TABLE
  2
BLOCK_RECORD
  5
1
330
0
100
AcDbSymbolTable
 70
     8
  0
BLOCK_RECORD
  5
1F
330
1
100
AcDbSymbolTableRecord
100
AcDbBlockTableRecord
  2
*Model_Space
340
22
  0
BLOCK_RECORD
  5
1B
330
1
100
AcDbSymbolTableRecord
100
AcDbBlockTableRecord
  2
*Paper_Space
340
1E
  0
BLOCK_RECORD
  5
23
330
1
100
AcDbSymbolTableRecord
100
AcDbBlockTableRecord
  2
*Paper_Space0
340
26
  0
BLOCK_RECORD
  5
72
330
1
100
AcDbSymbolTableRecord
100
AcDbBlockTableRecord
  2
_Closed
340
0
  0
BLOCK_RECORD
  5
7B
330
1
100
AcDbSymbolTableRecord
100
AcDbBlockTableRecord
  2
a
340
0
102
{BLKREFS
331
98
102
}
  0
BLOCK_RECORD
  5
99
330
1
100
AcDbSymbolTableRecord
100
AcDbBlockTableRecord
  2
b
340
0
102
{BLKREFS
331
CB
102
}
  0
BLOCK_RECORD
  5
CC
330
1
100
AcDbSymbolTableRecord
100
AcDbBlockTableRecord
  2
c
340
0
102
{BLKREFS
331
101
102
}
  0
BLOCK_RECORD
  5
102
330
1
100
AcDbSymbolTableRecord
100
AcDbBlockTableRecord
  2
d
340
0
102
{BLKREFS
331
11F
102
}
  0
BLOCK_RECORD
  5
120
330
1
100
AcDbSymbolTableRecord
100
AcDbBlockTableRecord
  2
e
340
0
102
{BLKREFS
331
169
102
}
  0
BLOCK_RECORD
  5
16A
330
1
100
AcDbSymbolTableRecord
100
AcDbBlockTableRecord
  2
f
340
0
102
{BLKREFS
331
19E
102
}
  0
ENDTAB
  0
ENDSEC
  0
SECTION
  2
BLOCKS
  0
BLOCK
  5
20
330
1F
100
AcDbEntity
  8
0
100
AcDbBlockBegin
  2
*Model_Space
 70
     0
 10
0.0
 20
0.0
 30
0.0
  3
*Model_Space
  1

  0
ENDBLK
  5
21
330
1F
100
AcDbEntity
  8
0
100
AcDbBlockEnd
  0
BLOCK
  5
1C
330
1B
100
AcDbEntity
 67
     1
  8
0
100
AcDbBlockBegin
  2
*Paper_Space
 70
     0
 10
0.0
 20
0.0
 30
0.0
  3
*Paper_Space
  1

  0
ENDBLK
  5
1D
330
1B
100
AcDbEntity
 67
     1
  8
0
100
AcDbBlockEnd
  0
BLOCK
  5
24
330
23
100
AcDbEntity
  8
0
100
AcDbBlockBegin
  2
*Paper_Space0
 70
     0
 10
0.0
 20
0.0
 30
0.0
  3
*Paper_Space0
  1

  0
ENDBLK
  5
25
330
23
100
AcDbEntity
  8
0
100
AcDbBlockEnd
  0
BLOCK
  5
73
330
72
100
AcDbEntity
  8
0
100
AcDbBlockBegin
  2
_Closed
 70
     0
 10
0.0
 20
0.0
 30
0.0
  3
_Closed
  1

  0
LINE
  5
75
330
72
100
AcDbEntity
  8
0
  6
ByBlock
 62
     0
370
    -2
100
AcDbLine
 10
-1.0
 20
0.166667
 30
0.0
 11
0.0
 21
0.0
 31
0.0
  0
LINE
  5
76
330
72
100
AcDbEntity
  8
0
  6
ByBlock
 62
     0
370
    -2
100
AcDbLine
 10
0.0
 20
0.0
 30
0.0
 11
-1.0
 21
-0.166667
 31
0.0
  0
LINE
  5
77
330
72
100
AcDbEntity
  8
0
  6
ByBlock
 62
     0
370
    -2
100
AcDbLine
 10
-1.0
 20
0.166667
 30
0.0
 11
-1.0
 21
-0.166667
 31
0.0
  0
LINE
  5
78
330
72
100
AcDbEntity
  8
0
  6
ByBlock
 62
     0
370
    -2
100
AcDbLine
 10
0.0
 20
0.0
 30
0.0
 11
-1.0
 21
0.0
 31
0.0
  0
ENDBLK
  5
74
330
72
100
AcDbEntity
  8
0
100
AcDbBlockEnd
  0
BLOCK
  5
96
330
7B
100
AcDbEntity
  8
0
100
AcDbBlockBegin
  2
a
 70
     0
 10
114.983696
 20
94.937828
 30
0.0
  3
a
  1

  0
ARC
  5
7C
330
7B
100
AcDbEntity
  8
0
  6
Continuous
 62
     0
370
    30
100
AcDbCircle
 10
146.187852
 20
162.661469
 30
0.0
 40
12.49999999999723
100
AcDbArc
 50
310.392353
 51
229.491184
  0
SPLINE
  5
7D
330
7B
100
AcDbEntity
  8
0
  6
Continuous
 62
     0
370
     0
100
AcDbSpline
210
0.0
220
0.0
230
1.0
 70
     8
 71
     3
 72
    31
 73
    27
 74
     0
 42
0.000000001
 43
0.0
 40
0.0
 40
0.0
 40
0.0
 40
0.0
 40
1.944818689850845
 40
3.879518989130776
 40
5.805642800460688
 40
7.72557142967568
 40
9.642265420132304
 40
11.55909434387184
 40
13.47931746959073
 40
15.40586401667405
 40
17.34099563188875
 40
19.28673070470717
 40
23.18505413553119
 40
27.10360910784161
 40
31.02216571618502
 40
34.92075349536311
 40
36.86614307564447
 40
38.80138421432545
 40
40.72795329880144
 40
42.64816249845497
 40
44.56496741876285
 40
46.48166050162649
 40
48.40160928734619
 40
50.32774407353269
 40
52.26241633936344
 40
54.20721767921937
 40
54.20721767921937
 40
54.20721767921937
 40
54.20721767921937
 10
153.5124599872946
 20
154.2833965361609
 30
0.0
 10
154.0096855768479
 20
154.6941507268691
 30
0.0
 10
154.9323413248102
 20
155.6008950916807
 30
0.0
 10
156.055180408389
 20
157.1767981296193
 30
0.0
 10
156.8824196155525
 20
158.9214136026813
 30
0.0
 10
157.3868019817332
 20
160.7829981459021
 30
0.0
 10
157.5519696619818
 20
162.7041704524889
 30
0.0
 10
157.3714975354874
 20
164.6239697419985
 30
0.0
 10
156.8521006036831
 20
166.481587272514
 30
0.0
 10
156.0108965477707
 20
168.2193909296253
 30
0.0
 10
154.8751469842157
 20
169.7876937530783
 30
0.0
 10
153.0141780128746
 20
171.588138892936
 30
0.0
 10
150.1287518757097
 20
173.2103488000428
 30
0.0
 10
146.1991717351175
 20
173.885574377684
 30
0.0
 10
142.2683708251924
 20
173.2181337283906
 30
0.0
 10
139.3791582863296
 20
171.6023888430686
 30
0.0
 10
137.5153376836346
 20
169.8049361893744
 30
0.0
 10
136.3757312966746
 20
168.2395575684515
 30
0.0
 10
135.5314478823278
 20
166.5031467306065
 30
0.0
 10
135.008187192396
 20
164.6466564498346
 30
0.0
 10
134.8238877127369
 20
162.7272268100656
 30
0.0
 10
134.9850004451792
 20
160.8057137205922
 30
0.0
 10
135.4856768769281
 20
158.943115966954
 30
0.0
 10
136.3093126157686
 20
157.1967929243606
 30
0.0
 10
137.4290736221354
 20
155.618723218761
 30
0.0
 10
138.3498091946777
 20
154.7100616506761
 30
0.0
 10
138.8461937994144
 20
154.2983025000487
 30
0.0
  0
SPLINE
  5
7E
330
7B
100
AcDbEntity
  8
0
  6
Continuous
 62
     0
370
     0
100
AcDbSpline
210
0.0
220
0.0
230
1.0
 70
     8
 71
     3
 72
    14
 73
    10
 74
     0
 42
0.000000001
 43
0.0
 40
0.0
 40
0.0
 40
0.0
 40
0.0
 40
1.404286950246865
 40
2.80180824355738
 40
4.195347073104719
 40
5.585086099230736
 40
6.971568934683175
 40
8.355744518375099
 40
9.73863111421217
 40
9.73863111421217
 40
9.73863111421217
 40
9.73863111421217
 10
138.8461942421418
 20
154.298302226748
 30
0.0
 10
139.2046200228595
 20
154.0009827225435
 30
0.0
 10
139.8864253886544
 20
153.363874095728
 30
0.0
 10
140.782858985936
 20
152.2900761488626
 30
0.0
 10
141.5423106478464
 20
151.1193858395995
 30
0.0
 10
142.1528163900051
 20
149.8676776092046
 30
0.0
 10
142.6042274477824
 20
148.5529629416664
 30
0.0
 10
142.8905020250877
 20
147.1950668859388
 30
0.0
 10
142.9687330461921
 20
146.2732598002928
 30
0.0
 10
142.9792675515228
 20
145.8124184099945
 30
0.0
  0
SPLINE
  5
7F
330
7B
100
AcDbEntity
  8
0
  6
Continuous
 62
     0
370
     0
100
AcDbSpline
210
0.0
220
0.0
230
1.0
 70
     8
 71
     3
 72
     8
 73
     4
 74
     0
 42
0.000000001
 43
0.0
 40
0.0
 40
0.0
 40
0.0
 40
0.0
 40
40.81424693084997
 40
40.81424693084997
 40
40.81424693084997
 40
40.81424693084997
 10
142.9792640716354
 20
145.8124162498875
 30
0.0
 10
143.2902448487104
 20
132.2112343327988
 30
0.0
 10
143.6136814723971
 20
118.6103128550326
 30
0.0
 10
143.899994894181
 20
105.0085821011596
 30
0.0
  0
SPLINE
  5
80
330
7B
100
AcDbEntity
  8
0
  6
Continuous
 62
     0
370
     0
100
AcDbSpline
210
0.0
220
0.0
230
1.0
 70
     8
 71
     3
 72
    20
 73
    16
 74
     0
 42
0.000000001
 43
0.0
 40
0.0
 40
0.0
 40
0.0
 40
0.0
 40
0.9302162895394712
 40
1.860460231410264
 40
2.790721845179938
 40
3.255878483922408
 40
3.721056245349594
 40
4.186426271299427
 40
4.419697709086792
 40
4.653579271380616
 40
4.889048108625007
 40
5.125471102714649
 40
5.599187594567737
 40
6.074735832084213
 40
6.551828192375452
 40
6.551828192375452
 40
6.551828192375452
 40
6.551828192375452
 10
143.899994894181
 20
105.0085821011597
 30
0.0
 10
143.9065203951723
 20
104.698578794358
 30
0.0
 10
143.9230620597248
 20
104.0786340781247
 30
0.0
 10
143.9578616417946
 20
103.1490178157583
 30
0.0
 10
143.9953777678325
 20
102.3747231385157
 30
0.0
 10
144.0349571141968
 20
101.7556695927119
 30
0.0
 10
144.0884937402892
 20
101.2933264233702
 30
0.0
 10
144.1753191598661
 20
100.9132050942338
 30
0.0
 10
144.2928216298425
 20
100.6246083523625
 30
0.0
 10
144.4189305414318
 20
100.4246141595476
 30
0.0
 10
144.5914261916319
 20
100.2626153992037
 30
0.0
 10
144.8392301594728
 20
100.0679070522304
 30
0.0
 10
145.1875677202926
 20
99.8738883231625
 30
0.0
 10
145.6462358520456
 20
99.7365027743875
 30
0.0
 10
145.9647970618209
 20
99.70858625323496
 30
0.0
 10
146.1238277662735
 20
99.70842446548977
 30
0.0
  0
SPLINE
  5
81
330
7B
100
AcDbEntity
  8
0
  6
Continuous
 62
     0
370
     0
100
AcDbSpline
210
0.0
220
0.0
230
1.0
 70
     8
 71
     3
 72
    20
 73
    16
 74
     0
 42
0.000000001
 43
0.0
 40
0.0
 40
0.0
 40
0.0
 40
0.0
 40
0.4770899993551568
 40
0.9526449650825106
 40
1.426356592868759
 40
1.662783721543743
 40
1.898249056634928
 40
2.132134535471443
 40
2.365405591066108
 40
2.830775596469794
 40
3.295955187498473
 40
3.761111090005097
 40
4.691373867665854
 40
5.621618686159469
 40
6.551835728697922
 40
6.551835728697922
 40
6.551835728697922
 40
6.551835728697922
 10
146.1238292765586
 20
99.70842446395355
 30
0.0
 10
146.2828591940784
 20
99.70826272159344
 30
0.0
 10
146.6014765159245
 20
99.73553620123677
 30
0.0
 10
147.0604293918902
 20
99.87197178582147
 30
0.0
 10
147.4091535166152
 20
100.0653007152576
 30
0.0
 10
147.6573552161619
 20
100.2594976043985
 30
0.0
 10
147.8301934087455
 20
100.4211349409916
 30
0.0
 10
147.9567004300862
 20
100.6208788241799
 30
0.0
 10
148.0747907780247
 20
100.9092358608258
 30
0.0
 10
148.1623880440596
 20
101.2891811153007
 30
0.0
 10
148.2168652374799
 20
101.7514145652682
 30
0.0
 10
148.2577023925517
 20
102.370387245918
 30
0.0
 10
148.2967909639985
 20
103.1446045827031
 30
0.0
 10
148.3334673061728
 20
104.0741495771781
 30
0.0
 10
148.3512814190972
 20
104.6940595572214
 30
0.0
 10
148.3584373033153
 20
105.0040492045716
 30
0.0
  0
SPLINE
  5
82
330
7B
100
AcDbEntity
  8
0
  6
Continuous
 62
     0
370
     0
100
AcDbSpline
210
0.0
220
0.0
230
1.0
 70
     8
 71
     3
 72
     8
 73
     4
 74
     0
 42
0.000000001
 43
0.0
 40
0.0
 40
0.0
 40
0.0
 40
0.0
 40
40.81433612614504
 40
40.81433612614504
 40
40.81433612614504
 40
40.81433612614504
 10
148.3584373033154
 20
105.0040492045716
 30
0.0
 10
148.672409903834
 20
118.605199349108
 30
0.0
 10
149.0235039713502
 20
132.2054647327941
 30
0.0
 10
149.3621424999322
 20
145.8060158913377
 30
0.0
  0
SPLINE
  5
83
330
7B
100
AcDbEntity
  8
0
  6
Continuous
 62
     0
370
     0
100
AcDbSpline
210
0.0
220
0.0
230
1.0
 70
     8
 71
     3
 72
    14
 73
    10
 74
     0
 42
0.000000001
 43
0.0
 40
0.0
 40
0.0
 40
0.0
 40
0.0
 40
1.382864170633253
 40
2.767013309008378
 40
4.153480982412727
 40
5.543211805218738
 40
6.936725925118177
 40
8.334218231834114
 40
9.738528679551923
 40
9.738528679551923
 40
9.738528679551923
 40
9.738528679551923
 10
149.3621686635181
 20
145.8060248646999
 30
0.0
 10
149.3736442397364
 20
146.266836304042
 30
0.0
 10
149.4537665331033
 20
147.1884637900278
 30
0.0
 10
149.7427866676254
 20
148.5457567610501
 30
0.0
 10
150.1968847347772
 20
149.8595268531394
 30
0.0
 10
150.8098742385054
 20
151.1100026874357
 30
0.0
 10
151.5716910504027
 20
152.2791326648813
 30
0.0
 10
152.4702875190701
 20
153.3511128688881
 30
0.0
 10
153.1534207326189
 20
153.9867963381489
 30
0.0
 10
153.5124560303073
 20
154.2833931724564
 30
0.0
  0
ELLIPSE
  5
84
330
7B
100
AcDbEntity
  8
0
  6
Continuous
 62
     0
370
     0
100
AcDbEllipse
 10
143.063794
 20
145.81233
 30
0.0
 11
1.499629444724254
 21
0.03333959381840212
 31
0.0
210
0.0
220
0.0
230
1.0
 40
0.001312
 41
1.627164239055671
 42
3.167441918669773
  0
LINE
  5
85
330
7B
100
AcDbEntity
  8
0
  6
Continuous
 62
     0
370
     0
100
AcDbLine
 10
146.122322
 20
98.208425
 30
0.0
 11
146.123848
 21
99.708424
 31
0.0
  0
ELLIPSE
  5
86
330
7B
100
AcDbEntity
  8
0
  6
Continuous
 62
     0
370
     0
100
AcDbEllipse
 10
148.299427
 20
105.004109
 30
0.0
 11
-1.499620460674379
 21
0.03374127927094855
 31
0.0
210
0.0
220
0.0
230
-1.0
 40
0.000846
 41
1.610137813285512
 42
3.159426462773599
  0
ELLIPSE
  5
87
330
7B
100
AcDbEntity
  8
0
  6
Continuous
 62
     0
370
     0
100
AcDbEllipse
 10
139.042639
 20
154.298101
 30
0.0
 11
0.9743479975892448
 21
1.140458670708349
 31
0.0
210
0.0
220
0.0
230
1.0
 40
0.100021
 41
1.655866001264755
 42
3.141594748784246
  0
LINE
  5
88
330
7B
100
AcDbEntity
  8
0
  6
Continuous
 62
     0
370
     0
100
AcDbLine
 10
149.362169
 20
145.806025
 30
0.0
 11
150.776736
 21
145.769678
 31
0.0
  0
ELLIPSE
  5
89
330
7B
100
AcDbEntity
  8
0
  6
Continuous
 62
     0
370
     0
100
AcDbEllipse
 10
143.959045
 20
105.008522
 30
0.0
 11
-1.499685972014742
 21
-0.03069177971694293
 31
0.0
210
0.0
220
0.0
230
-1.0
 40
0.000846
 41
6.265349149971152
 42
7.814613645778456
  0
ELLIPSE
  5
8A
330
7B
100
AcDbEntity
  8
0
  6
Continuous
 62
     0
370
     0
100
AcDbEllipse
 10
153.316053
 20
154.283596
 30
0.0
 11
-0.9720273844344995
 21
1.142437203486214
 31
0.0
210
0.0
220
0.0
230
-1.0
 40
0.100001
 41
1.655850357422077
 42
3.141592653589814
  0
ARC
  5
8B
330
7B
100
AcDbEntity
  8
0
  6
Continuous
 62
     0
370
     0
100
AcDbCircle
 10
146.187852
 20
162.661469
 30
0.0
 40
29.79999999701963
100
AcDbArc
 50
278.260954
 51
180.0
  0
ARC
  5
8C
330
7B
100
AcDbEntity
  8
0
  6
Continuous
 62
     0
370
     0
100
AcDbCircle
 10
146.187852
 20
162.661469
 30
0.0
 40
29.79999999701963
100
AcDbArc
 50
180.0
 51
261.62255
  0
ARC
  5
8D
330
7B
100
AcDbEntity
  8
0
  6
Continuous
 62
     0
370
    30
100
AcDbCircle
 10
146.187852
 20
162.661469
 30
0.0
 40
29.99999999999986
100
AcDbArc
 50
278.195927
 51
180.0
  0
ARC
  5
8E
330
7B
100
AcDbEntity
  8
0
  6
Continuous
 62
     0
370
    30
100
AcDbCircle
 10
146.187852
 20
162.661469
 30
0.0
 40
29.99999999999986
100
AcDbArc
 50
180.0
 51
261.687577
  0
SPLINE
  5
8F
330
7B
100
AcDbEntity
  8
0
  6
Continuous
 62
     0
370
    30
100
AcDbSpline
210
0.0
220
0.0
230
1.0
 70
     8
 71
     3
 72
     9
 73
     5
 74
     0
 42
0.000000001
 43
0.0
 40
0.0
 40
0.0
 40
0.0
 40
0.0
 40
22.48978317896232
 40
40.8111004538114
 40
40.8111004538114
 40
40.8111004538114
 40
40.8111004538114
 10
149.7990471715271
 20
104.9703678055134
 30
0.0
 10
149.9676768767796
 20
112.4650615971516
 30
0.0
 10
150.2939960590965
 20
126.064848084143
 30
0.0
 10
150.6290554884078
 20
139.6644095821452
 30
0.0
 10
150.777209351666
 20
145.7697127558523
 30
0.0
  0
ARC
  5
90
330
7B
100
AcDbEntity
  8
0
  6
Continuous
 62
     0
370
    30
100
AcDbCircle
 10
160.772934
 20
145.530778
 30
0.0
 40
9.998560889125752
100
AcDbArc
 50
130.434549
 51
178.630656
  0
ARC
  5
91
330
7B
100
AcDbEntity
  8
0
  6
Continuous
 62
     0
370
    30
100
AcDbCircle
 10
146.172094
 20
162.660884
 30
0.0
 40
12.48421942264972
100
AcDbArc
 50
178.173425
 51
188.41306
  0
ARC
  5
92
330
7B
100
AcDbEntity
  8
0
  6
Continuous
 62
     0
370
    30
100
AcDbCircle
 10
131.567435
 20
145.560184
 30
0.0
 40
9.999124770136198
100
AcDbArc
 50
1.253931
 51
49.447655
  0
SPLINE
  5
93
330
7B
100
AcDbEntity
  8
0
  6
Continuous
 62
     0
370
    30
100
AcDbSpline
210
0.0
220
0.0
230
1.0
 70
     8
 71
     3
 72
    19
 73
    15
 74
     0
 42
0.000000001
 43
0.0
 40
0.0
 40
0.0
 40
0.0
 40
0.0
 40
0.976681729041153
 40
1.876316085351495
 40
2.427735252930191
 40
2.701035075161901
 40
3.132323090029006
 40
3.456258807031709
 40
4.028094702003132
 40
4.669483366421873
 40
5.300124526876157
 40
5.954902225386997
 40
6.762941278108343
 40
8.835062022314833
 40
8.835062022314833
 40
8.835062022314833
 40
8.835062022314833
 10
146.1223241422844
 20
98.20842510782747
 30
0.0
 10
146.447039746971
 20
98.20809485051117
 30
0.0
 10
147.0743751710132
 20
98.28271428364226
 30
0.0
 10
147.833402929161
 20
98.58065413085255
 30
0.0
 10
148.3161681997017
 20
98.895716110737
 30
0.0
 10
148.6408395927868
 20
99.1602622727672
 30
0.0
 10
148.8864851361986
 20
99.40080419291783
 30
0.0
 10
149.1511263322446
 20
99.75671320641088
 30
0.0
 10
149.3810199083152
 20
100.2176366820413
 30
0.0
 10
149.5492773529888
 20
100.8109681907993
 30
0.0
 10
149.6434511610049
 20
101.447086827757
 30
0.0
 10
149.6911445511626
 20
102.1434950951593
 30
0.0
 10
149.7504552946358
 20
103.3202558867649
 30
0.0
 10
149.7835106473815
 20
104.2798519151887
 30
0.0
 10
149.7990471715271
 20
104.9703678055133
 30
0.0
  0
SPLINE
  5
94
330
7B
100
AcDbEntity
  8
0
  6
Continuous
 62
     0
370
    30
100
AcDbSpline
210
0.0
220
0.0
230
1.0
 70
     8
 71
     3
 72
    19
 73
    15
 74
     0
 42
0.000000001
 43
0.0
 40
0.0
 40
0.0
 40
0.0
 40
0.0
 40
0.9766850519178278
 40
1.876268306899224
 40
2.427641092871403
 40
2.700897913865695
 40
3.132020499525708
 40
3.455922604977542
 40
4.027761480056878
 40
4.669074234773761
 40
5.299462336629786
 40
5.954221388682807
 40
6.762279532143406
 40
8.835054230195782
 40
8.835054230195782
 40
8.835054230195782
 40
8.835054230195782
 10
146.1223222387022
 20
98.20842510976384
 30
0.0
 10
145.7976054665095
 20
98.20875546206113
 30
0.0
 10
145.1704383185386
 20
98.2846460637557
 30
0.0
 10
144.4120481115477
 20
98.58411796717675
 30
0.0
 10
143.9299575948065
 20
98.90012562405339
 30
0.0
 10
143.6058870946401
 20
99.16527288750392
 30
0.0
 10
143.3607688155422
 20
99.40623532894921
 30
0.0
 10
143.0968494998383
 20
99.76259817037935
 30
0.0
 10
142.8678461420077
 20
100.2239260185304
 30
0.0
 10
142.7007784705537
 20
100.8174818620998
 30
0.0
 10
142.6078545148844
 20
101.4536663249418
 30
0.0
 10
142.5615470043318
 20
102.1500843215379
 30
0.0
 10
142.5046174360929
 20
103.3271809515388
 30
0.0
 10
142.473496055109
 20
104.2870662035037
 30
0.0
 10
142.4593592450302
 20
104.9778301787337
 30
0.0
  0
SPLINE
  5
95
330
7B
100
AcDbEntity
  8
0
  6
Continuous
 62
     0
370
    30
100
AcDbSpline
210
0.0
220
0.0
230
1.0
 70
     8
 71
     3
 72
     9
 73
     5
 74
     0
 42
0.000000001
 43
0.0
 40
0.0
 40
0.0
 40
0.0
 40
0.0
 40
22.48973443371165
 40
40.81101124665861
 40
40.81101124665861
 40
40.81101124665861
 40
40.81101124665861
 10
142.4593592450302
 20
104.9778301787338
 30
0.0
 10
142.3059704388261
 20
112.4728351295691
 30
0.0
 10
142.0073071383208
 20
126.0732273182683
 30
0.0
 10
141.6999030551785
 20
139.6734122869517
 30
0.0
 10
141.5641645218656
 20
145.7789906106906
 30
0.0
  0
ENDBLK
  5
97
330
7B
100
AcDbEntity
  8
0
100
AcDbBlockEnd
  0
BLOCK
  5
C9
330
99
100
AcDbEntity
  8
0
100
AcDbBlockBegin
  2
b
 70
     0
 10
41.293682
 20
0.0
 30
0.0
  3
b
  1

  0
SPLINE
  5
9A
330
99
100
AcDbEntity
  8
0
  6
Continuous
 62
     0
370
     0
100
AcDbSpline
210
0.0
220
0.0
230
1.0
 70
     8
 71
     3
 72
    14
 73
    10
 74
     0
 42
0.000000001
 43
0.0
 40
30.3536253005803
 40
30.3536253005803
 40
30.3536253005803
 40
30.3536253005803
 40
34.69137162723426
 40
39.02687277555464
 40
43.36148144101966
 40
47.69798630468826
 40
52.03606693161142
 40
56.37263841474422
 40
60.7072506011606
 40
60.7072506011606
 40
60.7072506011606
 40
60.7072506011606
 10
-15.5617005413955
 20
175.1614624785396
 30
0.0
 10
-15.56172447847699
 20
175.1599863554298
 30
0.0
 10
-15.4687895831858
 20
174.6442894517418
 30
0.0
 10
-15.11859593361643
 20
172.4377413451523
 30
0.0
 10
-14.70496592165188
 20
169.0703810822676
 30
0.0
 10
-14.42848592364155
 20
164.925164121691
 30
0.0
 10
-14.42454815337075
 20
160.494951773039
 30
0.0
 10
-14.69417722997474
 20
156.3400405843865
 30
0.0
 10
-14.97016250129536
 20
154.0738208001263
 30
0.0
 10
-15.09745587090072
 20
153.1411588934464
 30
0.0
  0
SPLINE
  5
9B
330
99
100
AcDbEntity
  8
0
  6
Continuous
 62
     0
370
     0
100
AcDbSpline
210
0.0
220
0.0
230
1.0
 70
     8
 71
     3
 72
    14
 73
    10
 74
     0
 42
0.000000001
 43
0.0
 40
0.0
 40
0.0
 40
0.0
 40
0.0
 40
1.974027971177131
 40
3.936390186585602
 40
5.878649482336021
 40
7.790165265916709
 40
9.659696083105711
 40
11.47732907936279
 40
13.22973633779208
 40
13.22973633779208
 40
13.22973633779208
 40
13.22973633779208
 10
-15.09745718095155
 20
153.1411589108627
 30
0.0
 10
-14.43958628433001
 20
153.1324129668403
 30
0.0
 10
-13.12802987627094
 20
153.0989563767233
 30
0.0
 10
-11.17467484845227
 20
152.99435098591
 30
0.0
 10
-9.251024156597254
 20
152.8394136328833
 30
0.0
 10
-7.372108322249289
 20
152.6347572161577
 30
0.0
 10
-5.55473022381824
 20
152.3836784242859
 30
0.0
 10
-3.815959404857068
 20
152.0969999519115
 30
0.0
 10
-2.697507896543783
 20
151.8848775951485
 30
0.0
 10
-2.158766240283711
 20
151.7739609687277
 30
0.0
  0
ARC
  5
9C
330
99
100
AcDbEntity
  8
0
  6
Continuous
 62
     0
370
     0
100
AcDbCircle
 10
-14.202762
 20
93.596287
 30
0.0
 40
59.41127476441275
100
AcDbArc
 50
72.758521
 51
78.303798
  0
LINE
  5
9D
330
99
100
AcDbEntity
  8
0
  6
Continuous
 62
     0
370
    30
100
AcDbLine
 10
15.697266
 20
150.161469
 30
0.0
 11
15.697266
 21
175.161469
 31
0.0
  0
SPLINE
  5
9E
330
99
100
AcDbEntity
  8
0
  6
Continuous
 62
     0
370
     0
100
AcDbSpline
210
0.0
220
0.0
230
1.0
 70
     8
 71
     3
 72
    13
 73
     9
 74
     0
 42
0.000000001
 43
0.0
 40
0.0
 40
0.0
 40
0.0
 40
0.0
 40
0.5473647493952614
 40
1.055149285041185
 40
2.027463515246973
 40
2.69558469592278
 40
3.554900930002945
 40
4.313303105046226
 40
4.313303105046226
 40
4.313303105046226
 40
4.313303105046226
 10
-6.019095002754881
 20
140.6370377698412
 30
0.0
 10
-6.019094888275987
 20
140.6369106784544
 30
0.0
 10
-6.033528072242632
 20
140.6756839174004
 30
0.0
 10
-6.110954027278922
 20
140.8901728477894
 30
0.0
 10
-6.26573972071489
 20
141.3075662689694
 30
0.0
 10
-6.557603609699299
 20
141.9601417667904
 30
0.0
 10
-6.944347761225004
 20
142.6439048489156
 30
0.0
 10
-7.345235210677515
 20
143.143033057359
 30
0.0
 10
-7.56744316442456
 20
143.3711769009967
 30
0.0
  0
ELLIPSE
  5
9F
330
99
100
AcDbEntity
  8
0
  6
Continuous
 62
     0
370
     0
100
AcDbEllipse
 10
-2.158766
 20
143.063955
 30
0.0
 11
3.474918604983921
 21
9.376829991459619
 31
0.0
210
0.0
220
0.0
230
-1.0
 40
0.524523
 41
4.552570096802095
 42
5.668097003866737
  0
SPLINE
  5
A0
330
99
100
AcDbEntity
  8
0
  6
Continuous
 62
     0
370
     0
100
AcDbSpline
210
0.0
220
0.0
230
1.0
 70
     8
 71
     3
 72
    10
 73
     6
 74
     0
 42
0.000000001
 43
0.0
 40
0.0
 40
0.0
 40
0.0
 40
0.0
 40
2.798270619055186
 40
5.595978195444538
 40
8.393884764184433
 40
8.393884764184433
 40
8.393884764184433
 40
8.393884764184433
 10
-15.09745725244085
 20
153.1411565976985
 30
0.0
 10
-15.19955928699372
 20
152.540344542165
 30
0.0
 10
-15.34080450781354
 20
151.1263400205648
 30
0.0
 10
-15.42883772470546
 20
148.5711352137747
 30
0.0
 10
-15.43834534841162
 20
146.702032459447
 30
0.0
 10
-15.43557445393068
 20
145.7696781033782
 30
0.0
  0
SPLINE
  5
A1
330
99
100
AcDbEntity
  8
0
  6
Continuous
 62
     0
370
     0
100
AcDbSpline
210
0.0
220
0.0
230
1.0
 70
     8
 71
     3
 72
    39
 73
    35
 74
     0
 42
0.000000001
 43
0.0
 40
0.9242651249458449
 40
0.9242651249458449
 40
0.9242651249458449
 40
0.9242651249458449
 40
1.095853179809037
 40
1.243779472733291
 40
1.397011119722972
 40
1.55336319157057
 40
1.709964074651579
 40
1.870272236443196
 40
2.190564059117389
 40
2.51612165308385
 40
2.844834989681557
 40
3.010170490642
 40
3.433741361106049
 40
3.795062718559564
 40
4.156384076013079
 40
4.517705433466594
 40
4.803096995319677
 40
5.088488557172762
 40
5.387077130908893
 40
5.685665704645024
 40
5.982327788684009
 40
6.278989872722995
 40
6.57565195676198
 40
6.872314040800966
 40
7.241517648492657
 40
7.610721256184348
 40
7.897011590779721
 40
8.183301925375094
 40
8.453921848578155
 40
8.724541771781217
 40
9.083876701511235
 40
9.43167664429852
 40
9.667430175905203
 40
10.02769626272259
 40
10.02769626272259
 40
10.02769626272259
 40
10.02769626272259
 10
-15.43557445393068
 20
145.7696781033783
 30
0.0
 10
-15.36745174978631
 20
145.7677576414464
 30
0.0
 10
-15.24641370544407
 20
145.7637486848038
 30
0.0
 10
-15.06449476909893
 20
145.7564728946591
 30
0.0
 10
-14.89755982061106
 20
145.7483206016306
 30
0.0
 10
-14.73029320186745
 20
145.7387695113958
 30
0.0
 10
-14.56078061302458
 20
145.7277468203291
 30
0.0
 10
-14.33006922609701
 20
145.7110439438103
 30
0.0
 10
-14.03715337839591
 20
145.6863439029793
 30
0.0
 10
-13.69224324009093
 20
145.650772660144
 30
0.0
 10
-13.4045171785495
 20
145.6158901457324
 30
0.0
 10
-13.08504339861514
 20
145.5726484795838
 30
0.0
 10
-12.75697001211381
 20
145.5227079120953
 30
0.0
 10
-12.3653035206857
 20
145.4542477139709
 30
0.0
 10
-12.00096763191232
 20
145.3825064159871
 30
0.0
 10
-11.67012570702639
 20
145.3094280017417
 30
0.0
 10
-11.37273648534219
 20
145.2367102427706
 30
0.0
 10
-11.10257041777493
 20
145.1647029890225
 30
0.0
 10
-10.83598173682265
 20
145.0873102486184
 30
0.0
 10
-10.57318999714579
 20
145.0044965283322
 30
0.0
 10
-10.31738033072097
 20
144.9174651979361
 30
0.0
 10
-10.06842285875803
 20
144.8263471025648
 30
0.0
 10
-9.825683599788164
 20
144.7310519160756
 30
0.0
 10
-9.569795974063027
 20
144.6235774108449
 30
0.0
 10
-9.302526688508209
 20
144.5028059623738
 30
0.0
 10
-9.046541660145436
 20
144.3778431692987
 30
0.0
 10
-8.818233666555159
 20
144.2588327233775
 30
0.0
 10
-8.61753986865753
 20
144.1491558780531
 30
0.0
 10
-8.422470220226415
 20
144.0386578452696
 30
0.0
 10
-8.219601617155575
 20
143.915784453271
 30
0.0
 10
-8.020621219559246
 20
143.7795760341901
 30
0.0
 10
-7.855860028257041
 20
143.6459529825144
 30
0.0
 10
-7.706329185156562
 20
143.5104731241607
 30
0.0
 10
-7.618749091816909
 20
143.4238533749001
 30
0.0
 10
-7.56744316442456
 20
143.3711769009967
 30
0.0
  0
LINE
  5
A2
330
99
100
AcDbEntity
  8
0
  6
Continuous
 62
     0
370
     0
100
AcDbLine
 10
-7.567443
 20
143.371177
 30
0.0
 11
-9.081483
 21
104.971797
 31
0.0
  0
LINE
  5
A3
330
99
100
AcDbEntity
  8
0
  6
Continuous
 62
     0
370
     0
100
AcDbLine
 10
-15.353211
 20
104.970355
 30
0.0
 11
-15.492306
 21
104.970351
 31
0.0
  0
ARC
  5
A4
330
99
100
AcDbEntity
  8
0
  6
Continuous
 62
     0
370
     0
100
AcDbCircle
 10
-92466.722713
 20
254.262723
 30
0.0
 40
92451.35094692715
100
AcDbArc
 50
359.907478
 51
359.932763
  0
SPLINE
  5
A5
330
99
100
AcDbEntity
  8
0
  6
Continuous
 62
     0
370
    30
100
AcDbSpline
210
0.0
220
0.0
230
1.0
 70
     8
 71
     3
 72
    11
 73
     7
 74
     0
 42
0.000000001
 43
0.0
 40
0.0
 40
0.0
 40
0.0
 40
0.0
 40
0.7294674980048189
 40
1.450373905297459
 40
2.163775695996516
 40
2.314981061016975
 40
2.314981061016975
 40
2.314981061016975
 40
2.314981061016975
 10
-7.716995271982626
 20
104.974087704571
 30
0.0
 10
-7.728558697280505
 20
104.7312070613687
 30
0.0
 10
-7.761878592524852
 20
104.2486847209044
 30
0.0
 10
-7.850159391289964
 20
103.5324354053802
 30
0.0
 10
-7.949474398600456
 20
103.0128619281701
 30
0.0
 10
-8.01764184104996
 20
102.7327259518813
 30
0.0
 10
-8.030012015122763
 20
102.6838479679748
 30
0.0
  0
SPLINE
  5
A6
330
99
100
AcDbEntity
  8
0
  6
Continuous
 62
     0
370
     0
100
AcDbSpline
210
0.0
220
0.0
230
1.0
 70
     8
 71
     3
 72
    15
 73
    11
 74
     0
 42
0.000000001
 43
0.0
 40
0.0
 40
0.0
 40
0.0
 40
0.0
 40
0.7657387110419777
 40
1.179995012204136
 40
1.606788930630544
 40
2.457220945155845
 40
3.300573405384458
 40
4.141994584646453
 40
4.983823083218661
 40
5.825076579930034
 40
5.825076579930034
 40
5.825076579930034
 40
5.825076579930034
 10
-9.267090499743944
 20
100.2665147263097
 30
0.0
 10
-9.266932434691228
 20
100.2664204434605
 30
0.0
 10
-9.264395505851525
 20
100.3315629276629
 30
0.0
 10
-9.25374772216719
 20
100.6020375827769
 30
0.0
 10
-9.238096587011995
 20
101.0003819071208
 30
0.0
 10
-9.212947007336368
 20
101.6377442009255
 30
0.0
 10
-9.180647671199267
 20
102.4559214057516
 30
0.0
 10
-9.147833046098583
 20
103.2912450261402
 30
0.0
 10
-9.114963786740702
 20
104.1310406249185
 30
0.0
 10
-9.091590606336297
 20
104.6915940171635
 30
0.0
 10
-9.081482987231794
 20
104.9717971942725
 30
0.0
  0
LINE
  5
A7
330
99
100
AcDbEntity
  8
0
  6
Continuous
 62
     0
370
     0
100
AcDbLine
 10
-9.081483
 20
104.971797
 30
0.0
 11
-7.716995
 21
104.974088
 31
0.0
  0
SPLINE
  5
A8
330
99
100
AcDbEntity
  8
0
  6
Continuous
 62
     0
370
     0
100
AcDbSpline
210
0.0
220
0.0
230
1.0
 70
     8
 71
     3
 72
    20
 73
    16
 74
     0
 42
0.000000001
 43
0.0
 40
0.0
 40
0.0
 40
0.0
 40
0.0
 40
0.7524388324121031
 40
1.539217583482315
 40
2.329437783506592
 40
2.704812828875916
 40
3.191271218244516
 40
3.741147926252431
 40
4.180497494940823
 40
4.880859046003224
 40
5.466433708845746
 40
5.97737738954776
 40
6.930520044520899
 40
7.877953491375392
 40
8.824150673077257
 40
8.824150673077257
 40
8.824150673077257
 40
8.824150673077257
 10
-15.50757259104188
 20
98.20940364717765
 30
0.0
 10
-15.50757507229918
 20
98.20914858829286
 30
0.0
 10
-15.49530188147648
 20
98.25661370918021
 30
0.0
 10
-15.44525231564214
 20
98.48693307958757
 30
0.0
 10
-15.39016223468212
 20
98.815465079273
 30
0.0
 10
-15.34569563986793
 20
99.16122124401699
 30
0.0
 10
-15.31208541867238
 20
99.49759723230339
 30
0.0
 10
-15.30413817893836
 20
99.91746625979371
 30
0.0
 10
-15.3171736399371
 20
100.4390884584312
 30
0.0
 10
-15.34687221996529
 20
101.0000236301368
 30
0.0
 10
-15.38519057624205
 20
101.5935646149847
 30
0.0
 10
-15.42474564599692
 20
102.2741020263715
 30
0.0
 10
-15.45985980937635
 20
103.0761713330004
 30
0.0
 10
-15.48710493158785
 20
104.0240176264227
 30
0.0
 10
-15.49284170888461
 20
104.6550316460894
 30
0.0
 10
-15.49230603872286
 20
104.9703505555161
 30
0.0
  0
LINE
  5
A9
330
99
100
AcDbEntity
  8
0
  6
Continuous
 62
     0
370
    30
100
AcDbLine
 10
-6.019095
 20
140.637038
 30
0.0
 11
-7.716995
 21
104.974088
 31
0.0
  0
SPLINE
  5
AA
330
99
100
AcDbEntity
  8
0
  6
Continuous
 62
     0
370
     0
100
AcDbSpline
210
0.0
220
0.0
230
1.0
 70
     8
 71
     3
 72
    19
 73
    15
 74
     0
 42
0.000000001
 43
0.0
 40
0.0
 40
0.0
 40
0.0
 40
0.0
 40
1.944818689850845
 40
3.879518989130776
 40
5.805642800460688
 40
7.72557142967568
 40
9.642265420132304
 40
11.55909434387184
 40
13.47931746959073
 40
15.40586401667405
 40
17.34099563188875
 40
19.28673070470717
 40
23.18505413553119
 40
27.10360883960969
 40
27.10360883960969
 40
27.10360883960969
 40
27.10360883960969
 10
-16.58454166894691
 20
154.2833965361609
 30
0.0
 10
-16.51892571398957
 20
154.6941507268691
 30
0.0
 10
-16.3824268518805
 20
155.6008950916807
 30
0.0
 10
-16.18873942635634
 20
157.1767981296193
 30
0.0
 10
-16.03063170720878
 20
158.9214136026813
 30
0.0
 10
-15.92800474515138
 20
160.7829981459021
 30
0.0
 10
-15.89364138877175
 20
162.7041704524889
 30
0.0
 10
-15.93201674747277
 20
164.6239697419985
 30
0.0
 10
-16.03819511405806
 20
166.481587272514
 30
0.0
 10
-16.19891222654525
 20
168.2193909296253
 30
0.0
 10
-16.39392722498505
 20
169.7876937530783
 30
0.0
 10
-16.66708420314103
 20
171.588138892936
 30
0.0
 10
-16.9668212159241
 20
173.2103487554719
 30
0.0
 10
-17.06175525182995
 20
173.6601110685664
 30
0.0
 10
-17.0617396562672
 20
173.6614133806874
 30
0.0
  0
SPLINE
  5
AB
330
99
100
AcDbEntity
  8
0
  6
Continuous
 62
     0
370
     0
100
AcDbSpline
210
0.0
220
0.0
230
1.0
 70
     8
 71
     3
 72
    20
 73
    16
 74
     0
 42
0.000000001
 43
0.0
 40
0.0
 40
0.0
 40
0.0
 40
0.0
 40
0.4770899993551568
 40
0.9526449650825106
 40
1.426356592868759
 40
1.662783721543743
 40
1.898249056634928
 40
2.132134535471443
 40
2.365405591066108
 40
2.830775596469794
 40
3.295955187498473
 40
3.761111090005097
 40
4.691373867665854
 40
5.621618686159469
 40
6.551835728697922
 40
6.551835728697922
 40
6.551835728697922
 40
6.551835728697922
 10
-17.06174513273606
 20
99.70842446395355
 30
0.0
 10
-17.06174730934228
 20
99.70826272159344
 30
0.0
 10
-17.06039399647292
 20
99.73553620123677
 30
0.0
 10
-17.05459209424151
 20
99.87197178582147
 30
0.0
 10
-17.04743782008336
 20
100.0653007152576
 30
0.0
 10
-17.04111714555103
 20
100.2594976043985
 30
0.0
 10
-17.03615181499944
 20
100.4211349409916
 30
0.0
 10
-17.03217079066178
 20
100.6208788241799
 30
0.0
 10
-17.0282472369218
 20
100.9092358608258
 30
0.0
 10
-17.02515034276604
 20
101.2891811153007
 30
0.0
 10
-17.02317329565253
 20
101.7514145652682
 30
0.0
 10
-17.02167440898447
 20
102.370387245918
 30
0.0
 10
-17.02022010197962
 20
103.1446045827031
 30
0.0
 10
-17.01883763526843
 20
104.0741495771781
 30
0.0
 10
-17.01816341002311
 20
104.6940595572214
 30
0.0
 10
-17.01789406134293
 20
105.0040492045716
 30
0.0
  0
ARC
  5
AC
330
99
100
AcDbEntity
  8
0
  6
Continuous
 62
     0
370
     0
100
AcDbCircle
 10
85243.052379
 20
29.1065
 30
0.0
 40
85260.10405449432
100
AcDbArc
 50
179.921577
 51
179.948996
  0
SPLINE
  5
AD
330
99
100
AcDbEntity
  8
0
  6
Continuous
 62
     0
370
     0
100
AcDbSpline
210
0.0
220
0.0
230
1.0
 70
     8
 71
     3
 72
    14
 73
    10
 74
     0
 42
0.000000001
 43
0.0
 40
0.0
 40
0.0
 40
0.0
 40
0.0
 40
1.382864170633253
 40
2.767013309008378
 40
4.153480982412727
 40
5.543211805218738
 40
6.936725925118177
 40
8.334218231834114
 40
9.738528679551923
 40
9.738528679551923
 40
9.738528679551923
 40
9.738528679551923
 10
-16.97180805234268
 20
145.8060248646999
 30
0.0
 10
-16.97118702156465
 20
146.266836304042
 30
0.0
 10
-16.96675582239041
 20
147.1884637900278
 30
0.0
 10
-16.94961867459017
 20
148.5457567610501
 30
0.0
 10
-16.91965348271907
 20
149.8595268531394
 30
0.0
 10
-16.87335404020206
 20
151.1100026874357
 30
0.0
 10
-16.80640492215448
 20
152.2791326648813
 30
0.0
 10
-16.7141039715886
 20
153.3511128688881
 30
0.0
 10
-16.63192195263767
 20
153.9867963381489
 30
0.0
 10
-16.58454219111451
 20
154.2833931724564
 30
0.0
  0
ELLIPSE
  5
AE
330
99
100
AcDbEntity
  8
0
  6
Continuous
 62
     0
370
     0
100
AcDbEllipse
 10
-15.519055
 20
105.004109
 30
0.0
 11
-1.499999463355633
 21
0.001268831309038422
 31
0.0
210
0.0
220
0.0
230
1.0
 40
0.022494
 41
0.0393604703421024
 42
1.58864911983019
  0
SPLINE
  5
AF
330
99
100
AcDbEntity
  8
0
  6
Continuous
 62
     0
370
     0
100
AcDbSpline
210
0.0
220
0.0
230
1.0
 70
     8
 71
     3
 72
    10
 73
     6
 74
     0
 42
0.000000001
 43
0.0
 40
0.0
 40
0.0
 40
0.0
 40
0.0
 40
0.7617425968812922
 40
1.523374142791745
 40
2.284894637731373
 40
2.284894637731373
 40
2.284894637731373
 40
2.284894637731373
 10
-16.97180805234268
 20
145.8060248646999
 30
0.0
 10
-16.95744080223062
 20
145.7998571882806
 30
0.0
 10
-16.79336925540053
 20
145.7873020642942
 30
0.0
 10
-16.20972313607527
 20
145.7734942288305
 30
0.0
 10
-15.68933127165172
 20
145.7698551469581
 30
0.0
 10
-15.43557445393068
 20
145.7696781033782
 30
0.0
  0
ELLIPSE
  5
B0
330
99
100
AcDbEntity
  8
0
  6
Continuous
 62
     0
370
     0
100
AcDbEllipse
 10
-15.097456
 20
154.283596
 30
0.0
 11
-1.482278150258843
 21
0.2298945089931412
 31
0.0
210
0.0
220
0.0
230
1.0
 40
0.757807
 41
0.2020496320659708
 42
1.687791928233707
  0
LINE
  5
B1
330
99
100
AcDbEntity
  8
0
  6
Continuous
 62
     0
370
     0
100
AcDbLine
 10
-9.081483
 20
104.971797
 30
0.0
 11
-15.353211
 21
104.970355
 31
0.0
  0
ARC
  5
B2
330
99
100
AcDbEntity
  8
0
  6
Continuous
 62
     0
370
     0
100
AcDbCircle
 10
3.677615
 20
137.419274
 30
0.0
 40
12.92142454925097
100
AcDbArc
 50
80.446043
 51
91.201315
  0
SPLINE
  5
B3
330
99
100
AcDbEntity
  8
0
  6
Continuous
 62
     0
370
     0
100
AcDbSpline
210
0.0
220
0.0
230
1.0
 70
     8
 71
     3
 72
    14
 73
    10
 74
     0
 42
0.000000001
 43
0.0
 40
0.0
 40
0.0
 40
0.0
 40
0.0
 40
0.4407579048575001
 40
0.8809951498000701
 40
1.321542685411746
 40
1.762258113484913
 40
2.202864251690626
 40
2.643363622710544
 40
3.083672144984914
 40
3.083672144984914
 40
3.083672144984914
 40
3.083672144984914
 10
3.406701085396833
 20
150.3378557852989
 30
0.0
 10
3.261201377312773
 20
150.3344470933146
 30
0.0
 10
2.973893506908269
 20
150.3159161434049
 30
0.0
 10
2.57783161149203
 20
150.2538935260962
 30
0.0
 10
2.232676707148755
 20
150.1647452465292
 30
0.0
 10
1.949769154205086
 20
150.0617092841956
 30
0.0
 10
1.737119485526421
 20
149.9625413518536
 30
0.0
 10
1.603155341793951
 20
149.8883656116506
 30
0.0
 10
1.572263488841145
 20
149.8697159134966
 30
0.0
 10
1.572266138309686
 20
149.8698653844132
 30
0.0
  0
LINE
  5
B4
330
99
100
AcDbEntity
  8
0
  6
Continuous
 62
     0
370
    30
100
AcDbLine
 10
22.297266
 20
132.661469
 30
0.0
 11
22.297266
 21
192.661469
 31
0.0
  0
LINE
  5
B5
330
99
100
AcDbEntity
  8
0
  6
Continuous
 62
     0
370
     0
100
AcDbLine
 10
16.347266
 20
152.411469
 30
0.0
 11
16.347266
 21
172.911469
 31
0.0
  0
LINE
  5
B6
330
99
100
AcDbEntity
  8
0
  6
Continuous
 62
     0
370
    30
100
AcDbLine
 10
16.597266
 20
132.861469
 30
0.0
 11
16.597266
 21
192.461469
 31
0.0
  0
LINE
  5
B7
330
99
100
AcDbEntity
  8
0
  6
Continuous
 62
     0
370
     0
100
AcDbLine
 10
16.797266
 20
132.661469
 30
0.0
 11
16.797266
 21
192.661469
 31
0.0
  0
LINE
  5
B8
330
99
100
AcDbEntity
  8
0
  6
Continuous
 62
     0
370
    30
100
AcDbLine
 10
16.797266
 20
132.661469
 30
0.0
 11
22.297266
 21
132.661469
 31
0.0
  0
LINE
  5
B9
330
99
100
AcDbEntity
  8
0
  6
Continuous
 62
     0
370
    30
100
AcDbLine
 10
16.797266
 20
192.661469
 30
0.0
 11
22.297266
 21
192.661469
 31
0.0
  0
ARC
  5
BA
330
99
100
AcDbEntity
  8
0
  6
Continuous
 62
     0
370
    30
100
AcDbCircle
 10
16.797301
 20
132.861503
 30
0.0
 40
0.2000344809440888
100
AcDbArc
 50
180.009875
 51
269.990125
  0
ARC
  5
BB
330
99
100
AcDbEntity
  8
0
  6
Continuous
 62
     0
370
    30
100
AcDbCircle
 10
16.797301
 20
192.461434
 30
0.0
 40
0.2000344809640354
100
AcDbArc
 50
90.009875
 51
179.990125
  0
ARC
  5
BC
330
99
100
AcDbEntity
  8
0
  6
Continuous
 62
     0
370
    30
100
AcDbCircle
 10
16.347266
 20
152.161469
 30
0.0
 40
0.2500001587945258
100
AcDbArc
 50
0.000036
 51
89.999964
  0
ARC
  5
BD
330
99
100
AcDbEntity
  8
0
  6
Continuous
 62
     0
370
    30
100
AcDbCircle
 10
16.347266
 20
173.161469
 30
0.0
 40
0.2500001587816836
100
AcDbArc
 50
270.000036
 51
359.999964
  0
LINE
  5
BE
330
99
100
AcDbEntity
  8
0
  6
Continuous
 62
     0
370
    30
100
AcDbLine
 10
15.697266
 20
152.411469
 30
0.0
 11
16.347266
 21
152.411469
 31
0.0
  0
LINE
  5
BF
330
99
100
AcDbEntity
  8
0
  6
Continuous
 62
     0
370
    30
100
AcDbLine
 10
15.697266
 20
172.911469
 30
0.0
 11
16.347266
 21
172.911469
 31
0.0
  0
SPLINE
  5
C0
330
99
100
AcDbEntity
  8
0
  6
Continuous
 62
     0
370
    30
100
AcDbSpline
210
0.0
220
0.0
230
1.0
 70
     8
 71
     3
 72
    14
 73
    10
 74
     0
 42
0.000000001
 43
0.0
 40
0.0
 40
0.0
 40
0.0
 40
0.0
 40
1.513817976235708
 40
2.244452679444938
 40
2.98399843071567
 40
3.356069845108581
 40
3.728583863343815
 40
4.001889051663409
 40
4.274552425759863
 40
4.274552425759863
 40
4.274552425759863
 40
4.274552425759863
 10
5.822227494036042
 20
150.161468922408
 30
0.0
 10
5.317624136755313
 20
150.1614689242651
 30
0.0
 10
4.569535813209995
 20
150.1755612546481
 30
0.0
 10
3.574780016472005
 20
150.1623716557074
 30
0.0
 10
2.961732522365224
 20
150.1209340675779
 30
0.0
 10
2.470880409828027
 20
150.0581445076583
 30
0.0
 10
2.136561617842858
 20
149.9997615024298
 30
0.0
 10
1.837157399594673
 20
149.9354650195627
 30
0.0
 10
1.660684680926153
 20
149.8909418393862
 30
0.0
 10
1.572274945245653
 20
149.8698644771564
 30
0.0
  0
ARC
  5
C1
330
99
100
AcDbEntity
  8
0
  6
Continuous
 62
     0
370
    30
100
AcDbCircle
 10
-15.561638
 20
173.661351
 30
0.0
 40
1.500058696346588
100
AcDbArc
 50
90.002338
 51
179.997663
  0
ARC
  5
C2
330
99
100
AcDbEntity
  8
0
  6
Continuous
 62
     0
370
    30
100
AcDbCircle
 10
-15.561785
 20
99.708382
 30
0.0
 40
1.499960023666768
100
AcDbArc
 50
179.99836
 51
272.071292
  0
LINE
  5
C3
330
99
100
AcDbEntity
  8
0
  6
Continuous
 62
     0
370
    30
100
AcDbLine
 10
-17.061745
 20
99.708424
 30
0.0
 11
-17.06174
 21
173.661413
 31
0.0
  0
SPLINE
  5
C4
330
99
100
AcDbEntity
  8
0
  6
Continuous
 62
     0
370
    30
100
AcDbSpline
210
0.0
220
0.0
230
1.0
 70
     8
 71
     3
 72
    12
 73
     8
 74
     0
 42
0.000000001
 43
0.0
 40
0.0
 40
0.0
 40
0.0
 40
0.0
 40
2.380350360941442
 40
3.570498368630605
 40
4.314224365126882
 40
5.653376889876569
 40
6.73454282560621
 40
6.73454282560621
 40
6.73454282560621
 40
6.73454282560621
 10
-15.5075720755961
 20
98.20940155665693
 30
0.0
 10
-14.7152728828371
 20
98.23803439317714
 30
0.0
 10
-13.52487291669124
 20
98.33450450955633
 30
0.0
 10
-12.12020314404759
 20
98.65391434706298
 30
0.0
 10
-11.08696653245059
 20
99.00779568633499
 30
0.0
 10
-10.14243571980916
 20
99.48908942509472
 30
0.0
 10
-9.515759183010857
 20
100.0065960644559
 30
0.0
 10
-9.267090058078423
 20
100.2665134894457
 30
0.0
  0
SPLINE
  5
C5
330
99
100
AcDbEntity
  8
0
  6
Continuous
 62
     0
370
    30
100
AcDbSpline
210
0.0
220
0.0
230
1.0
 70
     8
 71
     3
 72
    14
 73
    10
 74
     0
 42
0.000000001
 43
0.0
 40
0.0
 40
0.0
 40
0.0
 40
0.0
 40
0.5974941851852575
 40
1.036936429177038
 40
1.681827388616679
 40
2.107652031946098
 40
2.320241683388904
 40
2.532906463347881
 40
2.745801434288813
 40
2.745801434288813
 40
2.745801434288813
 40
2.745801434288813
 10
-9.267089134854075
 20
100.266515056349
 30
0.0
 10
-9.129521264616926
 20
100.4103057808686
 30
0.0
 10
-8.909730261889308
 20
100.678577219713
 30
0.0
 10
-8.60830200629647
 20
101.1519236369609
 30
0.0
 10
-8.386050984735164
 20
101.6047285414264
 30
0.0
 10
-8.233421331811655
 20
102.0045517072767
 30
0.0
 10
-8.14422750949879
 20
102.2739528250649
 30
0.0
 10
-8.085197036332971
 20
102.478255178616
 30
0.0
 10
-8.044881054000797
 20
102.6144583555058
 30
0.0
 10
-8.030016207719797
 20
102.6838490290359
 30
0.0
  0
SPLINE
  5
C6
330
99
100
AcDbEntity
  8
0
  6
Continuous
 62
     0
370
    30
100
AcDbSpline
210
0.0
220
0.0
230
1.0
 70
     8
 71
     3
 72
    20
 73
    16
 74
     0
 42
0.000000001
 43
0.0
 40
0.0
 40
0.0
 40
0.0
 40
0.0
 40
1.165946910136798
 40
3.031462301250349
 40
5.130167434669341
 40
6.529304170111047
 40
8.86119832528842
 40
9.7939557007763
 40
10.49352357806675
 40
11.19309137841285
 40
11.79982815372927
 40
12.20431929016107
 40
12.40656484057383
 40
12.60881038063547
 40
12.81105591013542
 40
12.81105591013542
 40
12.81105591013542
 40
12.81105591013542
 10
-6.019095005623512
 20
140.6370376387344
 30
0.0
 10
-6.000622565621541
 20
141.0250354985274
 30
0.0
 10
-5.893663837665883
 20
142.0319844213597
 30
0.0
 10
-5.456450078045947
 20
143.6927332096682
 30
0.0
 10
-4.665291706784245
 20
145.3070161573532
 30
0.0
 10
-3.516743121564019
 20
146.8804875628446
 30
0.0
 10
-2.375474223502351
 20
147.9516101793723
 30
0.0
 10
-1.276509639436142
 20
148.6880221709431
 30
0.0
 10
-0.5972607539460739
 20
149.0669386937433
 30
0.0
 10
0.0083933803443301
 20
149.3511974955285
 30
0.0
 10
0.5395646043378406
 20
149.55947953932
 30
0.0
 10
0.9232649462498728
 20
149.6877213022113
 30
0.0
 10
1.181405290129703
 20
149.765831121288
 30
0.0
 10
1.376426587243429
 20
149.8193026927593
 30
0.0
 10
1.506445947189235
 20
149.85532814255
 30
0.0
 10
1.572275115745271
 20
149.869864522694
 30
0.0
  0
LINE
  5
C7
330
99
100
AcDbEntity
  8
0
  6
Continuous
 62
     0
370
    30
100
AcDbLine
 10
-15.561699
 20
175.161469
 30
0.0
 11
15.697266
 21
175.161469
 31
0.0
  0
LINE
  5
C8
330
99
100
AcDbEntity
  8
0
  6
Continuous
 62
     0
370
    30
100
AcDbLine
 10
5.822228
 20
150.161469
 30
0.0
 11
15.697266
 21
150.161469
 31
0.0
  0
ENDBLK
  5
CA
330
99
100
AcDbEntity
  8
0
100
AcDbBlockEnd
  0
BLOCK
  5
FF
330
CC
100
AcDbEntity
  8
0
100
AcDbBlockBegin
  2
c
 70
     0
 10
209.872269
 20
0.0
 30
0.0
  3
c
  1

  0
SPLINE
  5
CD
330
CC
100
AcDbEntity
  8
0
  6
Continuous
 62
     0
370
     0
100
AcDbSpline
210
0.0
220
0.0
230
1.0
 70
     8
 71
     3
 72
    14
 73
    10
 74
     0
 42
0.000000001
 43
0.0
 40
0.0
 40
0.0
 40
0.0
 40
0.0
 40
4.334641532880725
 40
8.671121330573095
 40
13.00920997969028
 40
17.34574091751643
 40
21.68030458132659
 40
26.0158598568891
 40
30.3536253005803
 40
30.3536253005803
 40
30.3536253005803
 40
30.3536253005803
 10
308.3409420978663
 20
153.1576436496385
 30
0.0
 10
308.2136242932652
 20
154.0925367569727
 30
0.0
 10
307.938022797601
 20
156.3625890468736
 30
0.0
 10
307.6676622584513
 20
160.5204638328135
 30
0.0
 10
307.6720320752068
 20
164.9506218645502
 30
0.0
 10
307.9482377673974
 20
169.0927368740931
 30
0.0
 10
308.3622759832906
 20
172.4543214159863
 30
0.0
 10
308.7123082598312
 20
174.6531346503184
 30
0.0
 10
308.8053403177653
 20
175.1629375109656
 30
0.0
 10
308.8053643281278
 20
175.1614624785396
 30
0.0
  0
LINE
  5
CE
330
CC
100
AcDbEntity
  8
0
  6
Continuous
 62
     0
370
    30
100
AcDbLine
 10
277.546398
 20
175.161469
 30
0.0
 11
277.546398
 21
150.161475
 31
0.0
  0
ARC
  5
CF
330
CC
100
AcDbEntity
  8
0
  6
Continuous
 62
     0
370
     0
100
AcDbCircle
 10
307.234426
 20
94.748951
 30
0.0
 40
58.25182180151246
100
AcDbArc
 50
101.719351
 51
107.377123
  0
SPLINE
  5
D0
330
CC
100
AcDbEntity
  8
0
  6
Continuous
 62
     0
370
     0
100
AcDbSpline
210
0.0
220
0.0
230
1.0
 70
     8
 71
     3
 72
    14
 73
    10
 74
     0
 42
0.000000001
 43
0.0
 40
0.0
 40
0.0
 40
0.0
 40
0.0
 40
1.752369726229712
 40
3.569974643483508
 40
5.439505520164657
 40
7.350961146559897
 40
9.293212778696574
 40
11.25555797281267
 40
13.22955802806231
 40
13.22955802806231
 40
13.22955802806231
 40
13.22955802806231
 10
295.4024326783264
 20
151.7864705471465
 30
0.0
 10
295.9411628402858
 20
151.8977843646344
 30
0.0
 10
297.0596079391939
 20
152.1105922752538
 30
0.0
 10
298.7983223328878
 20
152.3982129928563
 30
0.0
 10
300.6157071292041
 20
152.6499043929816
 30
0.0
 10
302.4945622488953
 20
152.8552212705084
 30
0.0
 10
304.4182036103492
 20
153.0104828679046
 30
0.0
 10
306.3715399938492
 20
153.115305417225
 30
0.0
 10
307.6830788914516
 20
153.148928179277
 30
0.0
 10
308.3409420978663
 20
153.1576436496385
 30
0.0
  0
SPLINE
  5
D1
330
CC
100
AcDbEntity
  8
0
  6
Continuous
 62
     0
370
     0
100
AcDbSpline
210
0.0
220
0.0
230
1.0
 70
     8
 71
     3
 72
    36
 73
    32
 74
     0
 42
0.000000001
 43
0.0
 40
-1.087005095078141
 40
-1.087005095078141
 40
-1.087005095078141
 40
-1.087005095078141
 40
-0.8269645513815309
 40
-0.4446453731535147
 40
-0.1943449961721786
 40
0.1896267875054107
 40
0.6661568886589784
 40
0.8975045027005226
 40
1.313253092444048
 40
1.720458109230586
 40
2.118150658090714
 40
2.434390072085357
 40
2.75062948608
 40
3.066868900074644
 40
3.383108314069286
 40
3.681142944660455
 40
3.979177575251624
 40
4.436810016986453
 40
4.800404698664082
 40
5.163999380341712
 40
5.527594062019341
 40
5.846451917814532
 40
6.165309773609723
 40
6.494200556314357
 40
6.819801096463626
 40
7.300981633533439
 40
7.614821179227128
 40
7.763356922273676
 40
7.906774530279353
 40
8.045943737362737
 40
8.062173617835336
 40
8.062173617835336
 40
8.062173617835336
 40
8.062173617835336
 10
300.8111076030413
 20
143.376601634198
 30
0.0
 10
300.8479420902162
 20
143.4144709934236
 30
0.0
 10
300.9411116484568
 20
143.5076157465473
 30
0.0
 10
301.0799652564782
 20
143.635417699092
 30
0.0
 10
301.2566896128639
 20
143.7789497342821
 30
0.0
 10
301.4772229514092
 20
143.9334816131227
 30
0.0
 10
301.7284234513666
 20
144.0813180736474
 30
0.0
 10
301.993199319299
 20
144.2287209634347
 30
0.0
 10
302.2453027702418
 20
144.3627732911238
 30
0.0
 10
302.548341986235
 20
144.5112851258884
 30
0.0
 10
302.8367244451358
 20
144.6413046859009
 30
0.0
 10
303.1100577857936
 20
144.7552524583254
 30
0.0
 10
303.3687139607737
 20
144.8555756052969
 30
0.0
 10
303.6344274855343
 20
144.9511741648954
 30
0.0
 10
303.9020845698942
 20
145.0401969406693
 30
0.0
 10
304.1713255353543
 20
145.1228609578888
 30
0.0
 10
304.4908374373873
 20
145.2131529731423
 30
0.0
 10
304.8429437704947
 20
145.3020704359467
 30
0.0
 10
305.2293461202619
 20
145.3879745057124
 30
0.0
 10
305.5937053140541
 20
145.4601994956355
 30
0.0
 10
305.9489754351811
 20
145.5227306147891
 30
0.0
 10
306.2921398355521
 20
145.5764034583981
 30
0.0
 10
306.6264825192637
 20
145.6226007190222
 30
0.0
 10
306.9665919212391
 20
145.6633388506698
 30
0.0
 10
307.3669853940501
 20
145.7040580702197
 30
0.0
 10
307.7750528145625
 20
145.7361007871116
 30
0.0
 10
308.1084856596222
 20
145.7562044897029
 30
0.0
 10
308.3301712890863
 20
145.7667507648241
 30
0.0
 10
308.4938181161141
 20
145.7732180210954
 30
0.0
 10
308.6122651616686
 20
145.7770447685172
 30
0.0
 10
308.6730001353191
 20
145.7787815744656
 30
0.0
 10
308.679339829638
 20
145.7789603671567
 30
0.0
  0
SPLINE
  5
D2
330
CC
100
AcDbEntity
  8
0
  6
Continuous
 62
     0
370
     0
100
AcDbSpline
210
0.0
220
0.0
230
1.0
 70
     8
 71
     3
 72
    10
 73
     6
 74
     0
 42
0.000000001
 43
0.0
 40
0.0
 40
0.0
 40
0.0
 40
0.0
 40
2.797895864776246
 40
5.59587764800867
 40
8.39397248872031
 40
8.39397248872031
 40
8.39397248872031
 40
8.39397248872031
 10
308.6793398296381
 20
145.7789603671567
 30
0.0
 10
308.6822482069999
 20
146.7113551321808
 30
0.0
 10
308.6722225622087
 20
148.5811761264103
 30
0.0
 10
308.5840523025753
 20
151.1388652062987
 30
0.0
 10
308.4429928964565
 20
152.5554322707381
 30
0.0
 10
308.3409404688481
 20
153.1576422064224
 30
0.0
  0
ELLIPSE
  5
D3
330
CC
100
AcDbEntity
  8
0
  6
Continuous
 62
     0
370
     0
100
AcDbEllipse
 10
295.402433
 20
143.086472
 30
0.0
 11
3.485917905073769
 21
-9.37274646830298
 31
0.0
210
0.0
220
0.0
230
-1.0
 40
0.52392
 41
3.758919352671398
 42
4.874446219591512
  0
ARC
  5
D4
330
CC
100
AcDbEntity
  8
0
  6
Continuous
 62
     0
370
    30
100
AcDbCircle
 10
289.274077
 20
140.161479
 30
0.0
 40
9.999996090484265
100
AcDbArc
 50
2.725783
 51
76.129267
  0
SPLINE
  5
D5
330
CC
100
AcDbEntity
  8
0
  6
Continuous
 62
     0
370
     0
100
AcDbSpline
210
0.0
220
0.0
230
1.0
 70
     8
 71
     3
 72
    13
 73
     9
 74
     0
 42
0.000000001
 43
0.0
 40
0.0
 40
0.0
 40
0.0
 40
0.0
 40
0.5473648797081645
 40
1.055149537312475
 40
2.027463782078881
 40
2.695584700629958
 40
3.554900745899134
 40
4.313302770659927
 40
4.313302770659927
 40
4.313302770659927
 40
4.313302770659927
 10
299.2627587925701
 20
140.6370379063582
 30
0.0
 10
299.262758707241
 20
140.6371682601937
 30
0.0
 10
299.2771919543944
 20
140.676422549741
 30
0.0
 10
299.3546180479845
 20
140.8917950002761
 30
0.0
 10
299.5094038826096
 20
141.310080272457
 30
0.0
 10
299.8012679107419
 20
141.963669583661
 30
0.0
 10
300.1880121350983
 20
142.6483587717254
 30
0.0
 10
300.588899631381
 20
143.1481506865402
 30
0.0
 10
300.8111076030413
 20
143.376601634198
 30
0.0
  0
SPLINE
  5
D6
330
CC
100
AcDbEntity
  8
0
  6
Continuous
 62
     0
370
    30
100
AcDbSpline
210
0.0
220
0.0
230
1.0
 70
     8
 71
     3
 72
    14
 73
    10
 74
     0
 42
0.000000001
 43
0.0
 40
0.0
 40
0.0
 40
0.0
 40
0.0
 40
0.7294674980048189
 40
1.450373905297459
 40
2.163775695996516
 40
2.872397796944337
 40
3.581869314751433
 40
4.303289579881707
 40
5.058649601130067
 40
5.058649601130067
 40
5.058649601130067
 40
5.058649601130067
 10
300.9606590649457
 20
104.974087704571
 30
0.0
 10
300.9722224902263
 20
104.7312070613687
 30
0.0
 10
301.0055423855625
 20
104.2486847209044
 30
0.0
 10
301.0938231843649
 20
103.5324354053802
 30
0.0
 10
301.2280542268432
 20
102.8301962238221
 30
0.0
 10
301.4183718516541
 20
102.1446635823015
 30
0.0
 10
301.6789284241538
 20
101.4790843795735
 30
0.0
 10
302.0306276370818
 20
100.8381967785082
 30
0.0
 10
302.3366945838327
 20
100.4484474283596
 30
0.0
 10
302.5107542224116
 20
100.2665146483782
 30
0.0
  0
SPLINE
  5
D7
330
CC
100
AcDbEntity
  8
0
  6
Continuous
 62
     0
370
    30
100
AcDbSpline
210
0.0
220
0.0
230
1.0
 70
     8
 71
     3
 72
    14
 73
    10
 74
     0
 42
0.000000001
 43
0.0
 40
0.0
 40
0.0
 40
0.0
 40
0.0
 40
0.9598698585224733
 40
1.920209553095736
 40
2.881080345005864
 40
3.842023616642007
 40
4.803136771199681
 40
5.764136911794917
 40
6.725779570084056
 40
6.725779570084056
 40
6.725779570084056
 40
6.725779570084056
 10
302.5107539054384
 20
100.2665147481053
 30
0.0
 10
302.7319394357942
 20
100.0353240413481
 30
0.0
 10
303.2238518389767
 20
99.61833168039342
 30
0.0
 10
304.0579399871932
 20
99.13449524945474
 30
0.0
 10
304.9533482230556
 20
98.77875129858376
 30
0.0
 10
305.8823321506434
 20
98.52680371510759
 30
0.0
 10
306.8296499690055
 20
98.35936347179246
 30
0.0
 10
307.7858998647501
 20
98.25625817774126
 30
0.0
 10
308.4260669344975
 20
98.22121470492814
 30
0.0
 10
308.7464032237199
 20
98.20957875905968
 30
0.0
  0
LINE
  5
D8
330
CC
100
AcDbEntity
  8
0
  6
Continuous
 62
     0
370
     0
100
AcDbLine
 10
302.325147
 20
104.976387
 30
0.0
 11
300.811108
 21
143.376602
 31
0.0
  0
LINE
  5
D9
330
CC
100
AcDbEntity
  8
0
  6
Continuous
 62
     0
370
    30
100
AcDbLine
 10
299.262759
 20
140.637038
 30
0.0
 11
300.960659
 21
104.974088
 31
0.0
  0
LINE
  5
DA
330
CC
100
AcDbEntity
  8
0
  6
Continuous
 62
     0
370
     0
100
AcDbLine
 10
308.598763
 20
104.977811
 30
0.0
 11
308.735908
 21
104.977812
 31
0.0
  0
ARC
  5
DB
330
CC
100
AcDbEntity
  8
0
  6
Continuous
 62
     0
370
     0
100
AcDbCircle
 10
92828.894512
 20
254.415244
 30
0.0
 40
92520.27928861765
100
AcDbArc
 50
180.067276
 51
180.092543
  0
SPLINE
  5
DC
330
CC
100
AcDbEntity
  8
0
  6
Continuous
 62
     0
370
     0
100
AcDbSpline
210
0.0
220
0.0
230
1.0
 70
     8
 71
     3
 72
    19
 73
    15
 74
     0
 42
0.000000001
 43
0.0
 40
27.10360883960969
 40
27.10360883960969
 40
27.10360883960969
 40
27.10360883960969
 40
31.02216571618502
 40
34.92075349536311
 40
36.86614307564447
 40
38.80138421432545
 40
40.72795329880144
 40
42.64816249845497
 40
44.56496741876285
 40
46.48166050162649
 40
48.40160928734619
 40
50.32774407353269
 40
52.26241633936344
 40
54.20721767921937
 40
54.20721767921937
 40
54.20721767921937
 40
54.20721767921937
 10
310.3054034431359
 20
173.6614133806874
 30
0.0
 10
310.3053879590304
 20
173.6627156782754
 30
0.0
 10
310.210388631185
 20
173.2181337283906
 30
0.0
 10
309.9105082594735
 20
171.6023888430686
 30
0.0
 10
309.6374224515422
 20
169.8049361893744
 30
0.0
 10
309.4422651154819
 20
168.2395575684515
 30
0.0
 10
309.2816026674786
 20
166.5031467306065
 30
0.0
 10
309.1753950713045
 20
164.6466564498346
 30
0.0
 10
309.1370292343204
 20
162.7272268100656
 30
0.0
 10
309.17136684152
 20
160.8057137205922
 30
0.0
 10
309.2740245051812
 20
158.943115966954
 30
0.0
 10
309.4321460212881
 20
157.1967929243606
 30
0.0
 10
309.6258853196473
 20
155.618723218761
 30
0.0
 10
309.7623956141045
 20
154.7100616506761
 30
0.0
 10
309.828023149289
 20
154.2983025000487
 30
0.0
  0
SPLINE
  5
DD
330
CC
100
AcDbEntity
  8
0
  6
Continuous
 62
     0
370
     0
100
AcDbSpline
210
0.0
220
0.0
230
1.0
 70
     8
 71
     3
 72
    14
 73
    10
 74
     0
 42
0.000000001
 43
0.0
 40
0.0
 40
0.0
 40
0.0
 40
0.0
 40
1.404286950246865
 40
2.80180824355738
 40
4.195347073104719
 40
5.585086099230736
 40
6.971568934683175
 40
8.355744518375099
 40
9.73863111421217
 40
9.73863111421217
 40
9.73863111421217
 40
9.73863111421217
 10
309.8280232078099
 20
154.298302226748
 30
0.0
 10
309.8754110572821
 20
154.0009827225435
 30
0.0
 10
309.9576050852365
 20
153.363874095728
 30
0.0
 10
310.0499279820235
 20
152.2900761488625
 30
0.0
 10
310.1168966308655
 20
151.1193858395995
 30
0.0
 10
310.1632152769071
 20
149.8676776092046
 30
0.0
 10
310.1931903537162
 20
148.5529629416664
 30
0.0
 10
310.2103355297601
 20
147.1950668859389
 30
0.0
 10
310.2147676959155
 20
146.2732598002928
 30
0.0
 10
310.2153887710776
 20
145.8124184099945
 30
0.0
  0
ARC
  5
DE
330
CC
100
AcDbEntity
  8
0
  6
Continuous
 62
     0
370
     0
100
AcDbCircle
 10
-84954.620191
 20
29.059716
 30
0.0
 40
85264.9155142881
100
AcDbArc
 50
0.051036
 51
0.078455
  0
SPLINE
  5
DF
330
CC
100
AcDbEntity
  8
0
  6
Continuous
 62
     0
370
     0
100
AcDbSpline
210
0.0
220
0.0
230
1.0
 70
     8
 71
     3
 72
    20
 73
    16
 74
     0
 42
0.000000001
 43
0.0
 40
0.0
 40
0.0
 40
0.0
 40
0.0
 40
0.9302162895394712
 40
1.860460231410264
 40
2.790721845179938
 40
3.255878483922408
 40
3.721056245349594
 40
4.186426271299427
 40
4.419697709086792
 40
4.653579271380616
 40
4.889048108625007
 40
5.125471102714649
 40
5.599187594567737
 40
6.074735832084213
 40
6.551828192375452
 40
6.551828192375452
 40
6.551828192375452
 40
6.551828192375452
 10
310.2614976217469
 20
105.0085821011597
 30
0.0
 10
310.2617671486456
 20
104.698578794358
 30
0.0
 10
310.2624413628713
 20
104.0786340781247
 30
0.0
 10
310.2638252994161
 20
103.1490178157583
 30
0.0
 10
310.265280689948
 20
102.3747231385157
 30
0.0
 10
310.2667806734461
 20
101.7556695927119
 30
0.0
 10
310.2687591351877
 20
101.2933264233702
 30
0.0
 10
310.2718583758879
 20
100.9132050942338
 30
0.0
 10
310.2757850370106
 20
100.6246083523625
 30
0.0
 10
310.2797696825243
 20
100.4246141595476
 30
0.0
 10
310.284739244736
 20
100.2626153992037
 30
0.0
 10
310.2910665832525
 20
100.0679070522304
 30
0.0
 10
310.2982304376789
 20
99.8738883231625
 30
0.0
 10
310.3040447184227
 20
99.7365027743875
 30
0.0
 10
310.3054067592003
 20
99.70858625323496
 30
0.0
 10
310.3054089261544
 20
99.70842446548977
 30
0.0
  0
ELLIPSE
  5
E0
330
CC
100
AcDbEntity
  8
0
  6
Continuous
 62
     0
370
     0
100
AcDbEllipse
 10
308.717772
 20
145.81233
 30
0.0
 11
1.499998708427622
 21
0.001968429683095205
 31
0.0
210
0.0
220
0.0
230
-1.0
 40
0.022226
 41
0.0563970359584904
 42
1.596674715572594
  0
SPLINE
  5
E1
330
CC
100
AcDbEntity
  8
0
  6
Continuous
 62
     0
370
     0
100
AcDbSpline
210
0.0
220
0.0
230
1.0
 70
     8
 71
     3
 72
    30
 73
    26
 74
     0
 42
0.000000001
 43
0.0
 40
0.0
 40
0.0
 40
0.0
 40
0.0
 40
1.225396231212392
 40
1.996266671498263
 40
2.770395256796587
 40
3.158307523348193
 40
3.75978293030952
 40
4.174201172882186
 40
4.740678397053912
 40
5.080281499007906
 40
5.416529076883819
 40
5.714817632142001
 40
5.996817551513167
 40
6.187015832822644
 40
6.272979870401431
 40
6.357223629495047
 40
6.451358841925963
 40
6.610804731879863
 40
6.726038347285362
 40
6.843308007724549
 40
6.957314821021946
 40
7.177853569120509
 40
7.395001920030518
 40
7.989756918548009
 40
8.826192243679458
 40
8.826192243679458
 40
8.826192243679458
 40
8.826192243679458
 10
308.7359076424235
 20
104.9778124261241
 30
0.0
 10
308.7364280344004
 20
104.6715419879835
 30
0.0
 10
308.7320134142911
 20
104.1723257709203
 30
0.0
 10
308.7152217291037
 20
103.4792923877579
 30
0.0
 10
308.6983464266118
 20
102.9956209578206
 30
0.0
 10
308.679761623115
 20
102.553886097132
 30
0.0
 10
308.6630092490791
 20
102.202858989945
 30
0.0
 10
308.640204380712
 20
101.7900517566655
 30
0.0
 10
308.6164043946868
 20
101.4119328880688
 30
0.0
 10
308.5918102331124
 20
101.01510425501
 30
0.0
 10
308.5733082797162
 20
100.6805324920733
 30
0.0
 10
308.558027099358
 20
100.3326766312058
 30
0.0
 10
308.5497172041014
 20
100.0009599044813
 30
0.0
 10
308.5515687687925
 20
99.72952038860757
 30
0.0
 10
308.5583604886039
 20
99.54685216052476
 30
0.0
 10
308.5664206218195
 20
99.41392677870633
 30
0.0
 10
308.5784982232907
 20
99.27455350282617
 30
0.0
 10
308.590700065462
 20
99.16446233830996
 30
0.0
 10
308.6028562509503
 20
99.06332293077082
 30
0.0
 10
308.6136433935829
 20
98.97883577760606
 30
0.0
 10
308.6284355095704
 20
98.86934599007873
 30
0.0
 10
308.6474850264997
 20
98.74118039068638
 30
0.0
 10
308.682866027332
 20
98.52824176514821
 30
0.0
 10
308.7336733297892
 20
98.27709575713968
 30
0.0
 10
308.7512336652127
 20
98.20973426817231
 30
0.0
 10
308.7512363845911
 20
98.20940364911206
 30
0.0
  0
ARC
  5
E2
330
CC
100
AcDbEntity
  8
0
  6
Continuous
 62
     0
370
    30
100
AcDbCircle
 10
308.805409
 20
99.708425
 30
0.0
 40
1.499999670092672
100
AcDbArc
 50
267.930298
 51
359.999989
  0
LINE
  5
E3
330
CC
100
AcDbEntity
  8
0
  6
Continuous
 62
     0
370
     0
100
AcDbLine
 10
302.325147
 20
104.976387
 30
0.0
 11
302.510754
 21
100.266515
 31
0.0
  0
ELLIPSE
  5
E4
330
CC
100
AcDbEntity
  8
0
  6
Continuous
 62
     0
370
     0
100
AcDbEllipse
 10
308.340944
 20
154.298101
 30
0.0
 11
1.482354021478709
 21
0.2294047841827325
 31
0.0
210
0.0
220
0.0
230
-1.0
 40
0.756493
 41
0.2016118034832457
 42
1.687340551002734
  0
ELLIPSE
  5
E5
330
CC
100
AcDbEntity
  8
0
  6
Continuous
 62
     0
370
     0
100
AcDbEllipse
 10
308.76266
 20
105.008522
 30
0.0
 11
-1.49999946269015
 21
-0.001269617760183252
 31
0.0
210
0.0
220
0.0
230
1.0
 40
0.020461
 41
1.55294289469818
 42
3.102207390505489
  0
LINE
  5
E6
330
CC
100
AcDbEntity
  8
0
  6
Continuous
 62
     0
370
     0
100
AcDbLine
 10
302.325147
 20
104.976387
 30
0.0
 11
308.598763
 21
104.977811
 31
0.0
  0
ARC
  5
E7
330
CC
100
AcDbEntity
  8
0
  6
Continuous
 62
     0
370
     0
100
AcDbCircle
 10
289.551442
 20
137.920679
 30
0.0
 40
12.42474084423017
100
AcDbArc
 50
88.683282
 51
99.871307
  0
SPLINE
  5
E8
330
CC
100
AcDbEntity
  8
0
  6
Continuous
 62
     0
370
     0
100
AcDbSpline
210
0.0
220
0.0
230
1.0
 70
     8
 71
     3
 72
    14
 73
    10
 74
     0
 42
0.000000001
 43
0.0
 40
0.0
 40
0.0
 40
0.0
 40
0.0
 40
0.4404961860839496
 40
0.8809940919391528
 40
1.32161460841082
 40
1.762239128125014
 40
2.202872996177821
 40
2.643370464042004
 40
3.083706790541689
 40
3.083706790541689
 40
3.083706790541689
 40
3.083706790541689
 10
289.8369628088664
 20
150.3421360368681
 30
0.0
 10
289.9823761192711
 20
150.3386885549488
 30
0.0
 10
290.2697537700569
 20
150.3200609433844
 30
0.0
 10
290.6657436802516
 20
150.2576128165784
 30
0.0
 10
291.0109667486315
 20
150.1679208993976
 30
0.0
 10
291.2939106405434
 20
150.0642193291356
 30
0.0
 10
291.5065120422255
 20
149.964295679437
 30
0.0
 10
291.6405550020925
 20
149.8892544600425
 30
0.0
 10
291.6713950139501
 20
149.8700157630242
 30
0.0
 10
291.6713976507542
 20
149.8698654612124
 30
0.0
  0
LINE
  5
E9
330
CC
100
AcDbEntity
  8
0
  6
Continuous
 62
     0
370
     0
100
AcDbLine
 10
300.960659
 20
104.974088
 30
0.0
 11
302.325147
 21
104.976387
 31
0.0
  0
LINE
  5
EA
330
CC
100
AcDbEntity
  8
0
  6
Continuous
 62
     0
370
    30
100
AcDbLine
 10
270.946398
 20
192.661469
 30
0.0
 11
270.946398
 21
162.661469
 31
0.0
  0
LINE
  5
EB
330
CC
100
AcDbEntity
  8
0
  6
Continuous
 62
     0
370
    30
100
AcDbLine
 10
270.946398
 20
162.661469
 30
0.0
 11
270.946398
 21
132.661469
 31
0.0
  0
LINE
  5
EC
330
CC
100
AcDbEntity
  8
0
  6
Continuous
 62
     0
370
     0
100
AcDbLine
 10
276.896398
 20
172.911469
 30
0.0
 11
276.896398
 21
162.661469
 31
0.0
  0
LINE
  5
ED
330
CC
100
AcDbEntity
  8
0
  6
Continuous
 62
     0
370
     0
100
AcDbLine
 10
276.896398
 20
162.661469
 30
0.0
 11
276.896398
 21
152.411469
 31
0.0
  0
LINE
  5
EE
330
CC
100
AcDbEntity
  8
0
  6
Continuous
 62
     0
370
    30
100
AcDbLine
 10
276.646398
 20
192.461469
 30
0.0
 11
276.646398
 21
162.661469
 31
0.0
  0
LINE
  5
EF
330
CC
100
AcDbEntity
  8
0
  6
Continuous
 62
     0
370
    30
100
AcDbLine
 10
276.646398
 20
162.661469
 30
0.0
 11
276.646398
 21
132.861469
 31
0.0
  0
LINE
  5
F0
330
CC
100
AcDbEntity
  8
0
  6
Continuous
 62
     0
370
     0
100
AcDbLine
 10
276.446398
 20
192.661469
 30
0.0
 11
276.446398
 21
162.661469
 31
0.0
  0
LINE
  5
F1
330
CC
100
AcDbEntity
  8
0
  6
Continuous
 62
     0
370
     0
100
AcDbLine
 10
276.446398
 20
162.661469
 30
0.0
 11
276.446398
 21
132.661469
 31
0.0
  0
LINE
  5
F2
330
CC
100
AcDbEntity
  8
0
  6
Continuous
 62
     0
370
    30
100
AcDbLine
 10
276.446398
 20
132.661469
 30
0.0
 11
270.946398
 21
132.661469
 31
0.0
  0
LINE
  5
F3
330
CC
100
AcDbEntity
  8
0
  6
Continuous
 62
     0
370
    30
100
AcDbLine
 10
276.446398
 20
192.661469
 30
0.0
 11
270.946398
 21
192.661469
 31
0.0
  0
ARC
  5
F4
330
CC
100
AcDbEntity
  8
0
  6
Continuous
 62
     0
370
    30
100
AcDbCircle
 10
276.446363
 20
132.861503
 30
0.0
 40
0.2000344809660866
100
AcDbArc
 50
270.009875
 51
359.990125
  0
ARC
  5
F5
330
CC
100
AcDbEntity
  8
0
  6
Continuous
 62
     0
370
    30
100
AcDbCircle
 10
276.446363
 20
192.461434
 30
0.0
 40
0.2000344809860198
100
AcDbArc
 50
0.009875
 51
89.990125
  0
ARC
  5
F6
330
CC
100
AcDbEntity
  8
0
  6
Continuous
 62
     0
370
    30
100
AcDbCircle
 10
276.896398
 20
152.161469
 30
0.0
 40
0.250000158786415
100
AcDbArc
 50
90.000036
 51
179.999964
  0
ARC
  5
F7
330
CC
100
AcDbEntity
  8
0
  6
Continuous
 62
     0
370
    30
100
AcDbCircle
 10
276.896398
 20
173.161469
 30
0.0
 40
0.2500001587735372
100
AcDbArc
 50
180.000036
 51
269.999964
  0
LINE
  5
F8
330
CC
100
AcDbEntity
  8
0
  6
Continuous
 62
     0
370
    30
100
AcDbLine
 10
277.546398
 20
152.411469
 30
0.0
 11
276.896398
 21
152.411469
 31
0.0
  0
LINE
  5
F9
330
CC
100
AcDbEntity
  8
0
  6
Continuous
 62
     0
370
    30
100
AcDbLine
 10
277.546398
 20
172.911469
 30
0.0
 11
276.896398
 21
172.911469
 31
0.0
  0
SPLINE
  5
FA
330
CC
100
AcDbEntity
  8
0
  6
Continuous
 62
     0
370
    30
100
AcDbSpline
210
0.0
220
0.0
230
1.0
 70
     8
 71
     3
 72
    14
 73
    10
 74
     0
 42
0.000000001
 43
0.0
 40
0.0
 40
0.0
 40
0.0
 40
0.0
 40
1.513817976235708
 40
2.244452679444938
 40
2.98399843071567
 40
3.356069845108581
 40
3.728583863343815
 40
4.001889051663409
 40
4.274552425759863
 40
4.274552425759863
 40
4.274552425759863
 40
4.274552425759863
 10
287.4214362938058
 20
150.161468922408
 30
0.0
 10
287.9260396510152
 20
150.1614689242651
 30
0.0
 10
288.6741279744468
 20
150.1755612546481
 30
0.0
 10
289.6688837714178
 20
150.1623716557074
 30
0.0
 10
290.281931265652
 20
150.1209340675779
 30
0.0
 10
290.772783378303
 20
150.0581445076583
 30
0.0
 10
291.10710217039
 20
149.9997615024298
 30
0.0
 10
291.4065063887444
 20
149.9354650195627
 30
0.0
 10
291.5829791074974
 20
149.8909418393862
 30
0.0
 10
291.6713888431982
 20
149.8698644771564
 30
0.0
  0
ARC
  5
FB
330
CC
100
AcDbEntity
  8
0
  6
Continuous
 62
     0
370
    30
100
AcDbCircle
 10
308.805302
 20
173.661351
 30
0.0
 40
1.500058694804431
100
AcDbArc
 50
0.002337
 51
89.997662
  0
LINE
  5
FC
330
CC
100
AcDbEntity
  8
0
  6
Continuous
 62
     0
370
    30
100
AcDbLine
 10
310.305409
 20
99.708424
 30
0.0
 11
310.305403
 21
173.661413
 31
0.0
  0
LINE
  5
FD
330
CC
100
AcDbEntity
  8
0
  6
Continuous
 62
     0
370
    30
100
AcDbLine
 10
308.805363
 20
175.161469
 30
0.0
 11
277.546398
 21
175.161469
 31
0.0
  0
LINE
  5
FE
330
CC
100
AcDbEntity
  8
0
  6
Continuous
 62
     0
370
    30
100
AcDbLine
 10
287.421436
 20
150.161469
 30
0.0
 11
277.546398
 21
150.161469
 31
0.0
  0
ENDBLK
  5
100
330
CC
100
AcDbEntity
  8
0
100
AcDbBlockEnd
  0
BLOCK
  5
11D
330
102
100
AcDbEntity
  8
0
100
AcDbBlockBegin
  2
d
 70
     0
 10
-0.000015
 20
70.325836
 30
0.0
  3
d
  1

  0
SPLINE
  5
103
330
102
100
AcDbEntity
  8
0
  6
Continuous
 62
     0
370
     0
100
AcDbSpline
210
0.0
220
0.0
230
1.0
 70
     8
 71
     3
 72
    17
 73
    13
 74
     0
 42
0.000000001
 43
0.0
 40
10.76703679956578
 40
10.76703679956578
 40
10.76703679956578
 40
10.76703679956578
 40
13.00920997969028
 40
17.34574091751643
 40
21.68030458132659
 40
26.0158598568891
 40
30.35360663391604
 40
34.69137162723426
 40
39.02687277555464
 40
43.36148144101966
 40
47.69798630468826
 40
49.91546992675602
 40
49.91546992675602
 40
49.91546992675602
 40
49.91546992675602
 10
133.6886776021868
 20
14.5946059184553
 30
0.0
 10
133.6886963584976
 20
14.59470942876483
 30
0.0
 10
133.886045319829
 20
14.55928582589643
 30
0.0
 10
135.1742515333434
 20
14.32757955102201
 30
0.0
 10
138.0179024233507
 20
13.91354106388937
 30
0.0
 10
141.8410199463992
 20
13.56350852412189
 30
0.0
 10
146.20077528779
 20
13.42394856488531
 30
0.0
 10
150.5589616743408
 20
13.56336291183598
 30
0.0
 10
154.377605498018
 20
13.91355732731341
 30
0.0
 10
157.2144504255737
 20
14.32718761047238
 30
0.0
 10
158.4926993372866
 20
14.5585994859815
 30
0.0
 10
158.6870205198094
 20
14.59414911501066
 30
0.0
 10
158.6869970809153
 20
14.59427867176876
 30
0.0
  0
LINE
  5
104
330
102
100
AcDbEntity
  8
0
  6
Continuous
 62
     0
370
    30
100
AcDbLine
 10
158.687837
 20
44.729419
 30
0.0
 11
133.687837
 21
44.729419
 31
0.0
  0
SPLINE
  5
105
330
102
100
AcDbEntity
  8
0
  6
Continuous
 62
     0
370
    30
100
AcDbSpline
210
0.0
220
0.0
230
1.0
 70
     8
 71
     3
 72
    17
 73
    13
 74
     0
 42
0.000000001
 43
0.0
 40
19.33157452565171
 40
19.33157452565171
 40
19.33157452565171
 40
19.33157452565171
 40
23.18505413553119
 40
27.10360910784161
 40
31.02216571618502
 40
34.92075349536311
 40
36.86614307564447
 40
38.80138421432545
 40
40.72795329880144
 40
42.64816249845497
 40
44.56496741876285
 40
44.62879847878862
 40
44.62879847878862
 40
44.62879847878862
 40
44.62879847878862
 10
153.4100095698125
 20
12.43196784641555
 30
0.0
 10
152.4125655905631
 20
12.30258112313484
 30
0.0
 10
150.1137207791575
 20
12.06478719950992
 30
0.0
 10
146.1991564763285
 20
11.92280769133748
 30
0.0
 10
142.2683555664033
 20
12.06542819681445
 30
0.0
 10
139.3791430275406
 20
12.3653087654439
 30
0.0
 10
137.5153224248456
 20
12.63839473341454
 30
0.0
 10
136.3757160378855
 20
12.83355218771354
 30
0.0
 10
135.5314326235387
 20
12.99421474852255
 30
0.0
 10
135.0081719336069
 20
13.10042244871883
 30
0.0
 10
134.883222277401
 20
13.12643342628682
 30
0.0
 10
134.8812142925503
 20
13.12670942144088
 30
0.0
 10
134.8812133444273
 20
13.12670491412023
 30
0.0
  0
SPLINE
  5
106
330
102
100
AcDbEntity
  8
0
  6
Continuous
 62
     0
370
    30
100
AcDbSpline
210
0.0
220
0.0
230
1.0
 70
     8
 71
     3
 72
    12
 73
     8
 74
     0
 42
0.000000001
 43
0.0
 40
44.62879847878862
 40
44.62879847878862
 40
44.62879847878862
 40
44.62879847878862
 40
46.48166050162649
 40
48.40160928734619
 40
50.32774407353269
 40
52.26241633936344
 40
54.20721767921937
 40
54.20721767921937
 40
54.20721767921937
 40
54.20721767921937
 10
134.8812133444273
 20
13.12670491412023
 30
0.0
 10
134.8811858226988
 20
13.1265740774516
 30
0.0
 10
134.9905308997299
 20
13.10331376643592
 30
0.0
 10
135.485661618139
 20
13.00179324328008
 30
0.0
 10
136.3092973569796
 20
12.8436717675051
 30
0.0
 10
137.4290583633463
 20
12.64993248917926
 30
0.0
 10
138.3497939358886
 20
12.51342219419428
 30
0.0
 10
138.8461785406253
 20
12.44779465531059
 30
0.0
  0
ARC
  5
107
330
102
100
AcDbEntity
  8
0
  6
Continuous
 62
     0
370
    30
100
AcDbCircle
 10
146.174877
 20
68.399808
 30
0.0
 40
56.42993569235215
100
AcDbArc
 50
262.537774
 51
266.753606
  0
ARC
  5
108
330
102
100
AcDbEntity
  8
0
  6
Continuous
 62
     0
370
    30
100
AcDbCircle
 10
146.128784
 20
65.738219
 30
0.0
 40
53.77010902198101
100
AcDbArc
 50
266.64203
 51
267.624374
  0
SPLINE
  5
109
330
102
100
AcDbEntity
  8
0
  6
Continuous
 62
     0
370
    30
100
AcDbSpline
210
0.0
220
0.0
230
1.0
 70
     8
 71
     3
 72
    20
 73
    16
 74
     0
 42
0.000000001
 43
0.0
 40
0.0
 40
0.0
 40
0.0
 40
0.0
 40
0.9302162895394712
 40
1.860460231410264
 40
2.790721845179938
 40
3.255878483922408
 40
3.721056245349594
 40
4.186426271299427
 40
4.419697709086792
 40
4.653579271380616
 40
4.889048108625007
 40
5.125471102714649
 40
5.599187594567737
 40
6.074735832084213
 40
6.551828192375452
 40
6.551828192375452
 40
6.551828192375452
 40
6.551828192375452
 10
143.899979635392
 20
12.01432211646627
 30
0.0
 10
143.9065051363832
 20
12.014052602833
 30
0.0
 10
143.9230468009357
 20
12.01337841498281
 30
0.0
 10
143.9578463830055
 20
12.01199451755176
 30
0.0
 10
143.9953625090434
 20
12.01053915922546
 30
0.0
 10
144.0349418554077
 20
12.00903920105696
 30
0.0
 10
144.0884784815001
 20
12.00706075718483
 30
0.0
 10
144.1753039010771
 20
12.003961529305
 30
0.0
 10
144.2928063710535
 20
12.00003487566113
 30
0.0
 10
144.4189152826427
 20
11.99605023337708
 30
0.0
 10
144.5914109328428
 20
11.99108067070648
 30
0.0
 10
144.8392149006837
 20
11.98475332986911
 30
0.0
 10
145.1875524615035
 20
11.97758946869726
 30
0.0
 10
145.6462205932565
 20
11.97177517390966
 30
0.0
 10
145.9647818030318
 20
11.97041312042762
 30
0.0
 10
146.1238125074844
 20
11.97041094652911
 30
0.0
  0
ELLIPSE
  5
10A
330
102
100
AcDbEntity
  8
0
  6
Continuous
 62
     0
370
     0
100
AcDbEllipse
 10
139.042623
 20
13.934874
 30
0.0
 11
0.1966134267586383
 21
1.487058559848351
 31
0.0
210
0.0
220
0.0
230
-1.0
 40
0.646308
 41
3.141416978276186
 42
3.196422582318155
  0
ARC
  5
10B
330
102
100
AcDbEntity
  8
0
  6
Continuous
 62
     0
370
     0
100
AcDbCircle
 10
143.959004
 20
13.512532
 30
0.0
 40
1.499372070682275
100
AcDbArc
 50
263.8759
 51
267.743907
  0
ARC
  5
10C
330
102
100
AcDbEntity
  8
0
  6
Continuous
 62
     0
370
    30
100
AcDbCircle
 10
135.687837
 20
45.379419
 30
0.0
 40
0.2500001588165979
100
AcDbArc
 50
0.000036
 51
89.999964
  0
ARC
  5
10D
330
102
100
AcDbEntity
  8
0
  6
Continuous
 62
     0
370
    30
100
AcDbCircle
 10
116.387871
 20
45.829454
 30
0.0
 40
0.2000344810113551
100
AcDbArc
 50
180.009875
 51
269.990125
  0
LINE
  5
10E
330
102
100
AcDbEntity
  8
0
  6
Continuous
 62
     0
370
    30
100
AcDbLine
 10
116.187837
 20
45.829419
 30
0.0
 11
116.187837
 21
51.329419
 31
0.0
  0
LINE
  5
10F
330
102
100
AcDbEntity
  8
0
  6
Continuous
 62
     0
370
    30
100
AcDbLine
 10
176.187837
 20
51.329419
 30
0.0
 11
116.187837
 21
51.329419
 31
0.0
  0
LINE
  5
110
330
102
100
AcDbEntity
  8
0
  6
Continuous
 62
     0
370
     0
100
AcDbLine
 10
156.437837
 20
45.379419
 30
0.0
 11
135.937837
 21
45.379419
 31
0.0
  0
LINE
  5
111
330
102
100
AcDbEntity
  8
0
  6
Continuous
 62
     0
370
    30
100
AcDbLine
 10
175.987837
 20
45.629419
 30
0.0
 11
116.387837
 21
45.629419
 31
0.0
  0
LINE
  5
112
330
102
100
AcDbEntity
  8
0
  6
Continuous
 62
     0
370
     0
100
AcDbLine
 10
176.187837
 20
45.829419
 30
0.0
 11
116.187837
 21
45.829419
 31
0.0
  0
LINE
  5
113
330
102
100
AcDbEntity
  8
0
  6
Continuous
 62
     0
370
    30
100
AcDbLine
 10
135.937837
 20
44.729419
 30
0.0
 11
135.937837
 21
45.379419
 31
0.0
  0
LINE
  5
114
330
102
100
AcDbEntity
  8
0
  6
Continuous
 62
     0
370
    30
100
AcDbLine
 10
176.187837
 20
45.829419
 30
0.0
 11
176.187837
 21
51.329419
 31
0.0
  0
ARC
  5
115
330
102
100
AcDbEntity
  8
0
  6
Continuous
 62
     0
370
    30
100
AcDbCircle
 10
175.987802
 20
45.829454
 30
0.0
 40
0.2000344809615605
100
AcDbArc
 50
270.009875
 51
359.990125
  0
ARC
  5
116
330
102
100
AcDbEntity
  8
0
  6
Continuous
 62
     0
370
    30
100
AcDbCircle
 10
156.687837
 20
45.379419
 30
0.0
 40
0.25000015883898
100
AcDbArc
 50
90.000036
 51
179.999964
  0
LINE
  5
117
330
102
100
AcDbEntity
  8
0
  6
Continuous
 62
     0
370
    30
100
AcDbLine
 10
156.437837
 20
44.729419
 30
0.0
 11
156.437837
 21
45.379419
 31
0.0
  0
SPLINE
  5
118
330
102
100
AcDbEntity
  8
0
  6
Continuous
 62
     0
370
    30
100
AcDbSpline
210
0.0
220
0.0
230
1.0
 70
     8
 71
     3
 72
    23
 73
    19
 74
     0
 42
0.000000001
 43
0.0
 40
9.207945326566419
 40
9.207945326566419
 40
9.207945326566419
 40
9.207945326566419
 40
9.268981442732567
 40
9.42090072131816
 40
9.47610432686745
 40
9.524637048898313
 40
9.550657024560408
 40
9.571165051089634
 40
9.607236386872184
 40
9.70695191649488
 40
9.832452904979744
 40
9.895148739125185
 40
10.08321811729414
 40
10.20858596467066
 40
10.45931631524061
 40
10.83540788761779
 40
11.27417976603239
 40
11.54531241131405
 40
11.54531241131405
 40
11.54531241131405
 40
11.54531241131405
 10
134.881196469035
 20
13.12662579249411
 30
0.0
 10
134.8800839337584
 20
13.12686302744498
 30
0.0
 10
134.8762049069466
 20
13.12769018848899
 30
0.0
 10
134.8711461085106
 20
13.12876671569296
 30
0.0
 10
134.8588681418751
 20
13.13150016849471
 30
0.0
 10
134.8460463114916
 20
13.13440282706267
 30
0.0
 10
134.8255000940755
 20
13.13937804048203
 30
0.0
 10
134.8030601953093
 20
13.14511375605923
 30
0.0
 10
134.7544584642208
 20
13.15841447121491
 30
0.0
 10
134.671729302548
 20
13.18508180998697
 30
0.0
 10
134.5828533257422
 20
13.2213094703699
 30
0.0
 10
134.469882665224
 20
13.2758406827887
 30
0.0
 10
134.361714062246
 20
13.33970156376097
 30
0.0
 10
134.2104853468429
 20
13.45177843011595
 30
0.0
 10
134.0286379660771
 20
13.62568378505406
 30
0.0
 10
133.8268313047595
 20
13.92145029955503
 30
0.0
 10
133.7093067076197
 20
14.2678469311779
 30
0.0
 10
133.6878900292195
 20
14.50471966995232
 30
0.0
 10
133.6878895192263
 20
14.59497956306515
 30
0.0
  0
SPLINE
  5
119
330
102
100
AcDbEntity
  8
0
  6
Continuous
 62
     0
370
    30
100
AcDbSpline
210
0.0
220
0.0
230
1.0
 70
     8
 71
     3
 72
    36
 73
    32
 74
     0
 42
0.000000001
 43
0.0
 40
0.0
 40
0.0
 40
0.0
 40
0.0
 40
0.1880492368066883
 40
0.5641481572674506
 40
0.9402486045234344
 40
1.128300311667694
 40
1.253668510024063
 40
1.504414626024197
 40
1.629803082820508
 40
1.755244572657925
 40
1.818045123908961
 40
1.912925265372936
 40
1.945535921474431
 40
1.981155616548102
 40
2.003019564450063
 40
2.034346211378868
 40
2.134483260064564
 40
2.199747079849967
 40
2.327025814762243
 40
2.617809609050796
 40
2.908493819552918
 40
3.199170319930831
 40
3.489874299522568
 40
4.071455805149094
 40
4.65336459550662
 40
5.235676558303816
 40
6.110066291755239
 40
7.278091589007129
 40
8.74234448144955
 40
10.50663241506258
 40
11.68796636071388
 40
11.68796636071388
 40
11.68796636071388
 40
11.68796636071388
 10
158.6878202956295
 20
14.59474073502807
 30
0.0
 10
158.6878204675617
 20
14.53209425369926
 30
0.0
 10
158.6760317248499
 20
14.34394895278552
 30
0.0
 10
158.5976696173205
 20
14.03796683430846
 30
0.0
 10
158.445777942469
 20
13.76095423383231
 30
0.0
 10
158.2992417011632
 20
13.58328069044416
 30
0.0
 10
158.1650014260979
 20
13.45133249864082
 30
0.0
 10
158.0315862332406
 20
13.34962327018644
 30
0.0
 10
157.8868863308943
 20
13.26561739958177
 30
0.0
 10
157.7923252709849
 20
13.22082916633417
 30
0.0
 10
157.7048357841041
 20
13.18590584890765
 30
0.0
 10
157.6448075837727
 20
13.16555333784993
 30
0.0
 10
157.59422808985
 20
13.15071567675648
 30
0.0
 10
157.5679166279139
 20
13.14362555211625
 30
0.0
 10
157.5468932252354
 20
13.1383072500704
 30
0.0
 10
157.5227340858551
 20
13.13250345454091
 30
0.0
 10
157.5136472296476
 20
13.13053621634126
 30
0.0
 10
157.5039990689245
 20
13.12838462845983
 30
0.0
 10
157.4939208127636
 20
13.1262168834985
 30
0.0
 10
157.4791574413072
 20
13.12305910449479
 30
0.0
 10
157.4551401687218
 20
13.11799362436045
 30
0.0
 10
157.4241669583226
 20
13.1115017338517
 30
0.0
 10
157.3731347688023
 20
13.10086577503884
 30
0.0
 10
157.2908276983734
 20
13.08380383779104
 30
0.0
 10
157.1600518478237
 20
13.05698361384793
 30
0.0
 10
156.9721071500231
 20
13.01904319754402
 30
0.0
 10
156.6750522450363
 20
12.96036215841841
 30
0.0
 10
156.1761704268105
 20
12.86525023390828
 30
0.0
 10
155.3973261497117
 20
12.72622790350579
 30
0.0
 10
154.4436951888756
 20
12.57297329801625
 30
0.0
 10
153.7148430594683
 20
12.47161395934774
 30
0.0
 10
153.4099954896448
 20
12.43207639064622
 30
0.0
  0
SPLINE
  5
11A
330
102
100
AcDbEntity
  8
0
  6
Continuous
 62
     0
370
    30
100
AcDbSpline
210
0.0
220
0.0
230
1.0
 70
     8
 71
     3
 72
     9
 73
     5
 74
     0
 42
0.000000001
 43
0.0
 40
0.0
 40
0.0
 40
0.0
 40
0.0
 40
0.233303381812576
 40
0.466643490328669
 40
0.466643490328669
 40
0.466643490328669
 40
0.466643490328669
 10
142.9752179748447
 20
12.06066191760067
 30
0.0
 10
142.9756293300488
 20
12.06063763144445
 30
0.0
 10
142.9711568580657
 20
12.06089723623893
 30
0.0
 10
142.963863820613
 20
12.06131181868662
 30
0.0
 10
142.9588580858069
 20
12.06159724077608
 30
0.0
  0
LINE
  5
11B
330
102
100
AcDbEntity
  8
0
  6
Continuous
 62
     0
370
    30
100
AcDbLine
 10
133.687837
 20
14.59498
 30
0.0
 11
133.687837
 21
44.729419
 31
0.0
  0
LINE
  5
11C
330
102
100
AcDbEntity
  8
0
  6
Continuous
 62
     0
370
    30
100
AcDbLine
 10
158.687837
 20
14.594741
 30
0.0
 11
158.687837
 21
44.729419
 31
0.0
  0
ENDBLK
  5
11E
330
102
100
AcDbEntity
  8
0
100
AcDbBlockEnd
  0
BLOCK
  5
167
330
120
100
AcDbEntity
  8
0
100
AcDbBlockBegin
  2
e
 70
     0
 10
-0.000015
 20
188.781586
 30
0.0
  3
e
  1

  0
SPLINE
  5
121
330
120
100
AcDbEntity
  8
0
  6
Continuous
 62
     0
370
     0
100
AcDbSpline
210
0.0
220
0.0
230
1.0
 70
     8
 71
     3
 72
    10
 73
     6
 74
     0
 42
0.000000001
 43
0.0
 40
49.91546992675602
 40
49.91546992675602
 40
49.91546992675602
 40
49.91546992675602
 40
52.03606693161142
 40
56.37263841474422
 40
60.7072506011606
 40
60.7072506011606
 40
60.7072506011606
 40
60.7072506011606
 10
158.6869970809153
 20
286.5908241924275
 30
0.0
 10
158.6869746661169
 20
286.59070035841
 30
0.0
 10
158.5037554906879
 20
286.6234566807166
 30
0.0
 10
157.2663110523806
 20
286.8471265559291
 30
0.0
 10
155.384235580602
 20
287.1231120085775
 30
0.0
 10
154.28806516655
 20
287.2504054668659
 30
0.0
  0
SPLINE
  5
122
330
120
100
AcDbEntity
  8
0
  6
Continuous
 62
     0
370
     0
100
AcDbSpline
210
0.0
220
0.0
230
1.0
 70
     8
 71
     3
 72
    10
 73
     6
 74
     0
 42
0.000000001
 43
0.0
 40
0.0
 40
0.0
 40
0.0
 40
0.0
 40
4.334641532880725
 40
8.671121330573095
 40
10.76703679956578
 40
10.76703679956578
 40
10.76703679956578
 40
10.76703679956578
 10
138.0682738476529
 20
287.2502279044239
 30
0.0
 10
136.9739956685488
 20
287.122910011125
 30
0.0
 10
135.0965315046307
 20
286.847308334167
 30
0.0
 10
133.8689290850159
 20
286.6235449746957
 30
0.0
 10
133.6886600693564
 20
286.5905937653973
 30
0.0
 10
133.6886776021868
 20
286.5904969456954
 30
0.0
  0
SPLINE
  5
123
330
120
100
AcDbEntity
  8
0
  6
Continuous
 62
     0
370
     0
100
AcDbSpline
210
0.0
220
0.0
230
1.0
 70
     8
 71
     3
 72
    14
 73
    10
 74
     0
 42
0.000000001
 43
0.0
 40
0.0
 40
0.0
 40
0.0
 40
0.0
 40
1.974027971177131
 40
3.936390186585602
 40
5.878649482336021
 40
7.790165265916709
 40
9.659696083105711
 40
11.47732907936279
 40
13.22973633779208
 40
13.22973633779208
 40
13.22973633779208
 40
13.22973633779208
 10
154.2880651870195
 20
287.2504067769167
 30
0.0
 10
154.2777859583196
 20
286.5925358811268
 30
0.0
 10
154.2384776069675
 20
285.2809794762484
 30
0.0
 10
154.1131396521106
 20
283.3276244584808
 30
0.0
 10
153.921197527456
 20
281.4039737817884
 30
0.0
 10
153.6553218861722
 20
279.5250579680081
 30
0.0
 10
153.3076587627793
 20
277.7076798957489
 30
0.0
 10
152.8770497675935
 20
275.9689091081414
 30
0.0
 10
152.5255062015427
 20
274.8504576244667
 30
0.0
 10
152.3288605385702
 20
274.3117159816506
 30
0.0
  0
SPLINE
  5
124
330
120
100
AcDbEntity
  8
0
  6
Continuous
 62
     0
370
     0
100
AcDbSpline
210
0.0
220
0.0
230
1.0
 70
     8
 71
     3
 72
    10
 73
     6
 74
     0
 42
0.000000001
 43
0.0
 40
0.0
 40
0.0
 40
0.0
 40
0.0
 40
2.675166191136395
 40
5.065888977361249
 40
7.153974138352588
 40
7.153974138352588
 40
7.153974138352588
 40
7.153974138352588
 10
152.3288605385702
 20
274.3117159816506
 30
0.0
 10
152.0286678597923
 20
273.489291044932
 30
0.0
 10
151.3562769643717
 20
271.9704128505562
 30
0.0
 10
150.0274510057226
 20
270.0422725996553
 30
0.0
 10
148.883809175849
 20
269.0775987147038
 30
0.0
 10
148.2803558353138
 20
268.7462370964178
 30
0.0
  0
LINE
  5
125
330
120
100
AcDbEntity
  8
0
  6
Continuous
 62
     0
370
    30
100
AcDbLine
 10
133.687837
 20
256.455683
 30
0.0
 11
146.175129
 21
256.455683
 31
0.0
  0
LINE
  5
126
330
120
100
AcDbEntity
  8
0
  6
Continuous
 62
     0
370
    30
100
AcDbLine
 10
146.175129
 20
256.455683
 30
0.0
 11
158.687837
 21
256.455683
 31
0.0
  0
SPLINE
  5
127
330
120
100
AcDbEntity
  8
0
  6
Continuous
 62
     0
370
     0
100
AcDbSpline
210
0.0
220
0.0
230
1.0
 70
     8
 71
     3
 72
    10
 73
     6
 74
     0
 42
0.000000001
 43
0.0
 40
0.0
 40
0.0
 40
0.0
 40
0.0
 40
2.088085802408075
 40
4.478809431012508
 40
7.153976633746887
 40
7.153976633746887
 40
7.153976633746887
 40
7.153976633746887
 10
144.0702644095823
 20
268.7462372016362
 30
0.0
 10
143.467020491108
 20
269.0775989490082
 30
0.0
 10
142.3239734047143
 20
270.0422732846148
 30
0.0
 10
140.9962138200378
 20
271.9704144246293
 30
0.0
 10
140.3245353136811
 20
273.4892933151535
 30
0.0
 10
140.0246875783933
 20
274.3117186303375
 30
0.0
  0
SPLINE
  5
128
330
120
100
AcDbEntity
  8
0
  6
Continuous
 62
     0
370
     0
100
AcDbSpline
210
0.0
220
0.0
230
1.0
 70
     8
 71
     3
 72
    14
 73
    10
 74
     0
 42
0.000000001
 43
0.0
 40
0.0
 40
0.0
 40
0.0
 40
0.0
 40
1.752369726229712
 40
3.569974643483508
 40
5.439505520164657
 40
7.350961146559897
 40
9.293212778696574
 40
11.25555797281267
 40
13.22955802806231
 40
13.22955802806231
 40
13.22955802806231
 40
13.22955802806231
 10
140.0246875783933
 20
274.3117186303375
 30
0.0
 10
139.8282721568601
 20
274.8504487788456
 30
0.0
 10
139.4772040458897
 20
275.968893853106
 30
0.0
 10
139.0470799412912
 20
277.7076082154261
 30
0.0
 10
138.7000569052549
 20
279.5249929855719
 30
0.0
 10
138.4344397248131
 20
281.4038480846779
 30
0.0
 10
138.2428993899405
 20
283.3274894309725
 30
0.0
 10
138.1178162260761
 20
285.280825804423
 30
0.0
 10
138.0784751733044
 20
286.5923646988361
 30
0.0
 10
138.0682738476529
 20
287.2502279044239
 30
0.0
  0
SPLINE
  5
129
330
120
100
AcDbEntity
  8
0
  6
Continuous
 62
     0
370
     0
100
AcDbSpline
210
0.0
220
0.0
230
1.0
 70
     8
 71
     3
 72
    36
 73
    32
 74
     0
 42
0.000000001
 43
0.0
 40
-1.087005095078141
 40
-1.087005095078141
 40
-1.087005095078141
 40
-1.087005095078141
 40
-0.8269645513815309
 40
-0.4446453731535147
 40
-0.1943449961721786
 40
0.1896267875054107
 40
0.6661568886589784
 40
0.8975045027005226
 40
1.313253092444048
 40
1.720458109230586
 40
2.118150658090714
 40
2.434390072085357
 40
2.75062948608
 40
3.066868900074644
 40
3.383108314069286
 40
3.681142944660455
 40
3.979177575251624
 40
4.436810016986453
 40
4.800404698664082
 40
5.163999380341712
 40
5.527594062019341
 40
5.846451917814532
 40
6.165309773609723
 40
6.494200556314357
 40
6.819801096463626
 40
7.300981633533439
 40
7.614821179227128
 40
7.763356922273676
 40
7.906774530279353
 40
8.045943737362737
 40
8.062173617835336
 40
8.062173617835336
 40
8.062173617835336
 40
8.062173617835336
 10
143.5002407936171
 20
279.7203940745806
 30
0.0
 10
143.4752335395877
 20
279.7572285590071
 30
0.0
 10
143.4136924760259
 20
279.8503981104862
 30
0.0
 10
143.328029627188
 20
279.9892517091768
 30
0.0
 10
143.2263299025866
 20
280.165976054843
 30
0.0
 10
143.1076192149497
 20
280.3865093814446
 30
0.0
 10
142.9834895299343
 20
280.6377098695139
 30
0.0
 10
142.861035744054
 20
280.9024857256505
 30
0.0
 10
142.7513432019237
 20
281.1545891659388
 30
0.0
 10
142.629840499683
 20
281.4576283701293
 30
0.0
 10
142.5234252221138
 20
281.7460108186953
 30
0.0
 10
142.4299960454927
 20
282.0193441502884
 30
0.0
 10
142.3475665375552
 20
282.27800031728
 30
0.0
 10
142.2688113873467
 20
282.5437138344195
 30
0.0
 10
142.1952320246314
 20
282.8113709116717
 30
0.0
 10
142.1266394624939
 20
283.0806118705203
 30
0.0
 10
142.0512452303563
 20
283.4001237653109
 30
0.0
 10
141.9761190193423
 20
283.7522300912477
 30
0.0
 10
141.902674137865
 20
284.1386324340496
 30
0.0
 10
141.8404669457023
 20
284.5029916219655
 30
0.0
 10
141.7864297689181
 20
284.8582617379971
 30
0.0
 10
141.7401392527588
 20
285.2014261339986
 30
0.0
 10
141.7003191405092
 20
285.5357688139503
 30
0.0
 10
141.6651602689644
 20
285.8758782126081
 30
0.0
 10
141.6300009824232
 20
286.2762716821023
 30
0.0
 10
141.6017213264696
 20
286.684339099978
 30
0.0
 10
141.5846407329522
 20
287.0177719434123
 30
0.0
 10
141.5756030505492
 20
287.2394575720202
 30
0.0
 10
141.5699253335998
 20
287.4031043985173
 30
0.0
 10
141.5664262720364
 20
287.5215514437515
 30
0.0
 10
141.5648124388064
 20
287.5822864172555
 30
0.0
 10
141.5646459309166
 20
287.5886261115594
 30
0.0
  0
SPLINE
  5
12A
330
120
100
AcDbEntity
  8
0
  6
Continuous
 62
     0
370
     0
100
AcDbSpline
210
0.0
220
0.0
230
1.0
 70
     8
 71
     3
 72
    10
 73
     6
 74
     0
 42
0.000000001
 43
0.0
 40
0.0
 40
0.0
 40
0.0
 40
0.0
 40
2.797895864776246
 40
5.59587764800867
 40
8.39397248872031
 40
8.39397248872031
 40
8.39397248872031
 40
8.39397248872031
 10
141.5646459309166
 20
287.5886261115595
 30
0.0
 10
141.5438155000512
 20
287.5915344472545
 30
0.0
 10
141.2378240193381
 20
287.5815087073555
 30
0.0
 10
140.0251281804423
 20
287.4933382829133
 30
0.0
 10
138.7731547649286
 20
287.352278760149
 30
0.0
 10
138.0682756468871
 20
287.2502262754059
 30
0.0
  0
ELLIPSE
  5
12B
330
120
100
AcDbEntity
  8
0
  6
Continuous
 62
     0
370
     0
100
AcDbEllipse
 10
135.094168
 20
274.311719
 30
0.0
 11
8.360435675528132
 21
5.486630597676168
 31
0.0
210
0.0
220
0.0
230
1.0
 40
0.296919
 41
5.137270557524037
 42
6.25279742444415
  0
ELLIPSE
  5
12C
330
120
100
AcDbEntity
  8
0
  6
Continuous
 62
     0
370
     0
100
AcDbEllipse
 10
146.164896
 20
268.18336
 30
0.0
 11
-2.390966973668615E-6
 21
9.999999999999714
 31
0.0
210
0.0
220
0.0
230
1.0
 40
0.00102
 41
4.95447921331519
 42
6.235611566711498
  0
SPLINE
  5
12D
330
120
100
AcDbEntity
  8
0
  6
Continuous
 62
     0
370
     0
100
AcDbSpline
210
0.0
220
0.0
230
1.0
 70
     8
 71
     3
 72
    13
 73
     9
 74
     0
 42
0.000000001
 43
0.0
 40
0.0
 40
0.0
 40
0.0
 40
0.0
 40
0.5473648797081645
 40
1.055149537312475
 40
2.027463782078881
 40
2.695584700629958
 40
3.554900745899134
 40
4.313302770659927
 40
4.313302770659927
 40
4.313302770659927
 40
4.313302770659927
 10
146.1653781327607
 20
278.1720455003564
 30
0.0
 10
146.038780363562
 20
278.1720454094879
 30
0.0
 10
145.8022774637263
 20
278.1864786445876
 30
0.0
 10
145.368075390424
 20
278.2639047097838
 30
0.0
 10
144.9299529377265
 20
278.4186905069742
 30
0.0
 10
144.4319945622852
 20
278.7105544847707
 30
0.0
 10
143.9771123669839
 20
279.0972986593149
 30
0.0
 10
143.6510997201519
 20
279.4981861195005
 30
0.0
 10
143.5002407936171
 20
279.7203940745806
 30
0.0
  0
SPLINE
  5
12E
330
120
100
AcDbEntity
  8
0
  6
Continuous
 62
     0
370
     0
100
AcDbSpline
210
0.0
220
0.0
230
1.0
 70
     8
 71
     3
 72
    13
 73
     9
 74
     0
 42
0.000000001
 43
0.0
 40
0.0
 40
0.0
 40
0.0
 40
0.0
 40
0.5473647493952614
 40
1.055149285041185
 40
2.027463515246973
 40
2.69558469592278
 40
3.554900930002945
 40
4.313303105046226
 40
4.313303105046226
 40
4.313303105046226
 40
4.313303105046226
 10
146.1655124037088
 20
278.1720455003406
 30
0.0
 10
146.2921101374564
 20
278.1720453803335
 30
0.0
 10
146.528692302246
 20
278.186478552264
 30
0.0
 10
146.9633313623775
 20
278.263904478926
 30
0.0
 10
147.4023035012644
 20
278.4186901349291
 30
0.0
 10
147.9015899914522
 20
278.7105539735639
 30
0.0
 10
148.3578636815236
 20
279.0972980752571
 30
0.0
 10
148.6848920774366
 20
279.4981854885972
 30
0.0
 10
148.8362152988641
 20
279.7203934257572
 30
0.0
  0
ELLIPSE
  5
12F
330
120
100
AcDbEntity
  8
0
  6
Continuous
 62
     0
370
     0
100
AcDbEllipse
 10
157.241679
 20
274.311716
 30
0.0
 11
8.357539095701538
 21
-5.491041819529366
 31
0.0
210
0.0
220
0.0
230
1.0
 40
0.295853
 41
3.173760240602153
 42
4.289287147666796
  0
SPLINE
  5
130
330
120
100
AcDbEntity
  8
0
  6
Continuous
 62
     0
370
     0
100
AcDbSpline
210
0.0
220
0.0
230
1.0
 70
     8
 71
     3
 72
    10
 73
     6
 74
     0
 42
0.000000001
 43
0.0
 40
0.0
 40
0.0
 40
0.0
 40
0.0
 40
2.798270619055186
 40
5.595978195444538
 40
8.393884764184433
 40
8.393884764184433
 40
8.393884764184433
 40
8.393884764184433
 10
154.2880625798207
 20
287.2504068484062
 30
0.0
 10
153.5819213571706
 20
287.3525089400879
 30
0.0
 10
152.327117028979
 20
287.493754277565
 30
0.0
 10
151.1092572533356
 20
287.5817876593828
 30
0.0
 10
150.7994521670406
 20
287.5912953783321
 30
0.0
 10
150.7767212306615
 20
287.5885245255993
 30
0.0
  0
SPLINE
  5
131
330
120
100
AcDbEntity
  8
0
  6
Continuous
 62
     0
370
     0
100
AcDbSpline
210
0.0
220
0.0
230
1.0
 70
     8
 71
     3
 72
    39
 73
    35
 74
     0
 42
0.000000001
 43
0.0
 40
0.9242651249458449
 40
0.9242651249458449
 40
0.9242651249458449
 40
0.9242651249458449
 40
1.095853179809037
 40
1.243779472733291
 40
1.397011119722972
 40
1.55336319157057
 40
1.709964074651579
 40
1.870272236443196
 40
2.190564059117389
 40
2.51612165308385
 40
2.844834989681557
 40
3.010170490642
 40
3.433741361106049
 40
3.795062718559564
 40
4.156384076013079
 40
4.517705433466594
 40
4.803096995319677
 40
5.088488557172762
 40
5.387077130908893
 40
5.685665704645024
 40
5.982327788684009
 40
6.278989872722995
 40
6.57565195676198
 40
6.872314040800966
 40
7.241517648492657
 40
7.610721256184348
 40
7.897011590779721
 40
8.183301925375094
 40
8.453921848578155
 40
8.724541771781217
 40
9.083876701511235
 40
9.43167664429852
 40
9.667430175905203
 40
10.02769626272259
 40
10.02769626272259
 40
10.02769626272259
 40
10.02769626272259
 10
150.7767212306614
 20
287.5885245255993
 30
0.0
 10
150.7749197421844
 20
287.5204018216176
 30
0.0
 10
150.771307984466
 20
287.3993637776084
 30
0.0
 10
150.7648907522635
 20
287.2174448418618
 30
0.0
 10
150.7578976459114
 20
287.050509894036
 30
0.0
 10
150.7497271882412
 20
286.883243276067
 30
0.0
 10
150.7402069354286
 20
286.7137306881221
 30
0.0
 10
150.7255706807698
 20
286.4830193025645
 30
0.0
 10
150.7038139397142
 20
286.190103456894
 30
0.0
 10
150.6729911555448
 20
285.8451933214912
 30
0.0
 10
150.6427637976433
 20
285.5574672627959
 30
0.0
 10
150.6053296372071
 20
285.2379934863879
 30
0.0
 10
150.5621010937189
 20
284.9099201039592
 30
0.0
 10
150.5026871799325
 20
284.5182536181206
 30
0.0
 10
150.4406257648723
 20
284.1539177351959
 30
0.0
 10
150.3778722354641
 20
283.8230758162474
 30
0.0
 10
150.3160256935288
 20
283.5256866004452
 30
0.0
 10
150.2552847415358
 20
283.2555205386805
 30
0.0
 10
150.1905378371583
 20
282.9889318639414
 30
0.0
 10
150.1216553280225
 20
282.7261401308954
 30
0.0
 10
150.0495159967604
 20
282.4703304714281
 30
0.0
 10
149.9742003304209
 20
282.2213730067402
 30
0.0
 10
149.8956072907962
 20
281.9786337553712
 30
0.0
 10
149.8071229804015
 20
281.7227461382117
 30
0.0
 10
149.7078353267158
 20
281.455476862276
 30
0.0
 10
149.6051965490205
 20
281.199491843862
 30
0.0
 10
149.5074745102919
 20
280.9711838597455
 30
0.0
 10
149.4166189621235
 20
280.7704900706134
 30
0.0
 10
149.3235613742087
 20
280.5754204310799
 30
0.0
 10
149.2218384138182
 20
280.3725518378265
 30
0.0
 10
149.1154567340343
 20
280.1735714508342
 30
0.0
 10
149.0204342450814
 20
280.0088102695263
 30
0.0
 10
148.9285861968183
 20
279.8592794363627
 30
0.0
 10
148.8711545441989
 20
279.7716993493197
 30
0.0
 10
148.8362152988641
 20
279.7203934257572
 30
0.0
  0
SPLINE
  5
132
330
120
100
AcDbEntity
  8
0
  6
Continuous
 62
     0
370
     0
100
AcDbSpline
210
0.0
220
0.0
230
1.0
 70
     8
 71
     3
 72
     8
 73
     4
 74
     0
 42
0.000000001
 43
0.0
 40
0.0
 40
0.0
 40
0.0
 40
0.0
 40
38.4318516319787
 40
38.4318516319787
 40
38.4318516319787
 40
38.4318516319787
 10
148.836215298864
 20
279.7203934257572
 30
0.0
 10
148.6931168849597
 20
280.2250641084194
 30
0.0
 10
148.5577695769436
 20
280.7297665026035
 30
0.0
 10
148.3861684708182
 20
281.234434861757
 30
0.0
  0
LINE
  5
133
330
120
100
AcDbEntity
  8
0
  6
Continuous
 62
     0
370
     0
100
AcDbLine
 10
149.795837
 20
287.506163
 30
0.0
 11
149.798793
 21
287.645258
 31
0.0
  0
ARC
  5
134
330
120
100
AcDbEntity
  8
0
  6
Continuous
 62
     0
370
     0
100
AcDbCircle
 10
152.796804
 20
330.751131
 30
0.0
 40
43.21000348356409
100
AcDbArc
 50
266.021488
 51
267.320387
  0
ARC
  5
135
330
120
100
AcDbEntity
  8
0
  6
Continuous
 62
     0
370
     0
100
AcDbCircle
 10
300.964077
 20
281.125166
 30
0.0
 40
154.8399079483426
100
AcDbArc
 50
179.890886
 51
180.464477
  0
SPLINE
  5
136
330
120
100
AcDbEntity
  8
0
  6
Continuous
 62
     0
370
     0
100
AcDbSpline
210
0.0
220
0.0
230
1.0
 70
     8
 71
     3
 72
    15
 73
    11
 74
     0
 42
0.000000001
 43
0.0
 40
0.0
 40
0.0
 40
0.0
 40
0.0
 40
0.7657387110419777
 40
1.179995012204136
 40
1.606788930630544
 40
2.457220945155845
 40
3.300573405384458
 40
4.141994584646453
 40
4.983823083218661
 40
5.825076579930034
 40
5.825076579930034
 40
5.825076579930034
 40
5.825076579930034
 10
146.1244492495993
 20
281.4200427637762
 30
0.0
 10
146.3796954202512
 20
281.4198846875705
 30
0.0
 10
146.7817968542984
 20
281.4173477383069
 30
0.0
 10
147.250325342944
 20
281.4066999223197
 30
0.0
 10
147.6566776224448
 20
281.3910487519901
 30
0.0
 10
147.9918577125682
 20
281.3658991298033
 30
0.0
 10
148.2100962817957
 20
281.333599748363
 30
0.0
 10
148.3243096434696
 20
281.3007850817568
 30
0.0
 10
148.3740423612318
 20
281.2679157835163
 30
0.0
 10
148.3819051271961
 20
281.2445425782657
 30
0.0
 10
148.3861684834873
 20
281.2344349467268
 30
0.0
  0
SPLINE
  5
137
330
120
100
AcDbEntity
  8
0
  6
Continuous
 62
     0
370
     0
100
AcDbSpline
210
0.0
220
0.0
230
1.0
 70
     8
 71
     3
 72
    14
 73
    10
 74
     0
 42
0.000000001
 43
0.0
 40
0.0
 40
0.0
 40
0.0
 40
0.0
 40
0.4189202059543917
 40
0.828796972853654
 40
1.231523084764667
 40
1.627827522273711
 40
2.017875675514341
 40
2.402317964803236
 40
2.783847782170631
 40
2.783847782170631
 40
2.783847782170631
 40
2.783847782170631
 10
148.3861684834873
 20
281.2344349467268
 30
0.0
 10
148.3199385974274
 20
281.1115002199192
 30
0.0
 10
148.1746096800584
 20
280.8755028018049
 30
0.0
 10
147.9108272003716
 20
280.5588739861968
 30
0.0
 10
147.6036072811077
 20
280.2949036536691
 30
0.0
 10
147.259781742988
 20
280.0933855212013
 30
0.0
 10
146.8917283201364
 20
279.9579440191419
 30
0.0
 10
146.5121005152833
 20
279.8842270632448
 30
0.0
 10
146.2564329090321
 20
279.8699485101798
 30
0.0
 10
146.129256397681
 20
279.8699473300302
 30
0.0
  0
LINE
  5
138
330
120
100
AcDbEntity
  8
0
  6
Continuous
 62
     0
370
     0
100
AcDbLine
 10
146.124449
 20
281.420042
 30
0.0
 11
146.122311
 21
287.655692
 31
0.0
  0
SPLINE
  5
139
330
120
100
AcDbEntity
  8
0
  6
Continuous
 62
     0
370
     0
100
AcDbSpline
210
0.0
220
0.0
230
1.0
 70
     8
 71
     3
 72
    20
 73
    16
 74
     0
 42
0.000000001
 43
0.0
 40
0.0
 40
0.0
 40
0.0
 40
0.0
 40
0.7524388324121031
 40
1.539217583482315
 40
2.329437783506592
 40
2.704812828875916
 40
3.191271218244516
 40
3.741147926252431
 40
4.180497494940823
 40
4.880859046003224
 40
5.466433708845746
 40
5.97737738954776
 40
6.930520044520899
 40
7.877953491375392
 40
8.824150673077257
 40
8.824150673077257
 40
8.824150673077257
 40
8.824150673077257
 10
146.1223106178141
 20
287.6605249450868
 30
0.0
 10
146.3731234322509
 20
287.6605274153919
 30
0.0
 10
146.8878140422496
 20
287.6482541999966
 30
0.0
 10
147.6341394880757
 20
287.5982045914718
 30
0.0
 10
148.2000928369737
 20
287.5431144714125
 30
0.0
 10
148.6268461995016
 20
287.4986478428309
 30
0.0
 10
148.9577283494654
 20
287.4650375924685
 30
0.0
 10
149.222259222841
 20
287.4570903228184
 30
0.0
 10
149.4380927111733
 20
287.470125751582
 30
0.0
 10
149.5738758518216
 20
287.4998243011557
 30
0.0
 10
149.6478618305241
 20
287.5381426282539
 30
0.0
 10
149.695436111664
 20
287.577697666182
 30
0.0
 10
149.7365015900151
 20
287.6128117927068
 30
0.0
 10
149.7742266056865
 20
287.6400568718376
 30
0.0
 10
149.7917030976708
 20
287.645793620788
 30
0.0
 10
149.7987929370057
 20
287.6452579365333
 30
0.0
  0
SPLINE
  5
13A
330
120
100
AcDbEntity
  8
0
  6
Continuous
 62
     0
370
     0
100
AcDbSpline
210
0.0
220
0.0
230
1.0
 70
     8
 71
     3
 72
     8
 73
     4
 74
     0
 42
0.000000001
 43
0.0
 40
0.0
 40
0.0
 40
0.0
 40
0.0
 40
38.43185121034286
 40
38.43185121034286
 40
38.43185121034286
 40
38.43185121034286
 10
143.872204832219
 20
281.2344353965773
 30
0.0
 10
143.7266308170457
 20
280.7297670805399
 30
0.0
 10
143.6173114632515
 20
280.2250647208794
 30
0.0
 10
143.5002407936171
 20
279.7203940745806
 30
0.0
  0
LINE
  5
13B
330
120
100
AcDbEntity
  8
0
  6
Continuous
 62
     0
370
     0
100
AcDbLine
 10
146.165378
 20
278.172046
 30
0.0
 11
146.129117
 21
279.869947
 31
0.0
  0
LINE
  5
13C
330
120
100
AcDbEntity
  8
0
  6
Continuous
 62
     0
370
     0
100
AcDbLine
 10
142.46249
 20
287.508051
 30
0.0
 11
142.459583
 21
287.645196
 31
0.0
  0
ARC
  5
13D
330
120
100
AcDbEntity
  8
0
  6
Continuous
 62
     0
370
     0
100
AcDbCircle
 10
139.752473
 20
323.152571
 30
0.0
 40
35.61042174473897
100
AcDbArc
 50
272.916984
 51
274.359841
  0
SPLINE
  5
13E
330
120
100
AcDbEntity
  8
0
  6
Continuous
 62
     0
370
    30
100
AcDbSpline
210
0.0
220
0.0
230
1.0
 70
     8
 71
     3
 72
    15
 73
    11
 74
     0
 42
0.000000001
 43
0.0
 40
9.599435058938402
 40
9.599435058938402
 40
9.599435058938402
 40
9.599435058938402
 40
9.642265420132304
 40
11.55909434387184
 40
13.47931746959073
 40
15.40586401667405
 40
17.34099563188875
 40
19.28673070470717
 40
23.18505413553119
 40
27.09903231770901
 40
27.09903231770901
 40
27.09903231770901
 40
27.09903231770901
 10
157.4944656288598
 20
288.0586798908944
 30
0.0
 10
157.4944662227581
 20
288.0586827160901
 30
0.0
 10
157.4931787548433
 20
288.059088376861
 30
0.0
 10
157.3714822766983
 20
288.0849657067279
 30
0.0
 10
156.8520853448941
 20
288.1911440148177
 30
0.0
 10
156.0108812889816
 20
288.3518610881133
 30
0.0
 10
154.8751317254267
 20
288.5468760676456
 30
0.0
 10
153.0141627540855
 20
288.8200330484472
 30
0.0
 10
150.1300893274326
 20
289.1196296055791
 30
0.0
 10
147.5143399956891
 20
289.2145930358367
 30
0.0
 10
146.2035662348781
 20
289.2146885685052
 30
0.0
  0
SPLINE
  5
13F
330
120
100
AcDbEntity
  8
0
  6
Continuous
 62
     0
370
    30
100
AcDbSpline
210
0.0
220
0.0
230
1.0
 70
     8
 71
     3
 72
    12
 73
     8
 74
     0
 42
0.000000001
 43
0.0
 40
0.0
 40
0.0
 40
0.0
 40
0.0
 40
1.944818689850845
 40
3.879518989130776
 40
5.805642800460688
 40
7.72557142967568
 40
9.599435058938402
 40
9.599435058938402
 40
9.599435058938402
 40
9.599435058938402
 10
153.5124447285056
 20
288.7374912488868
 30
0.0
 10
154.0096703180588
 20
288.6718752542404
 30
0.0
 10
154.9323260660212
 20
288.5353763121657
 30
0.0
 10
156.0551651495999
 20
288.3416887686758
 30
0.0
 10
156.8824043567634
 20
288.1835809371088
 30
0.0
 10
157.3830380105582
 20
288.0817166250056
 30
0.0
 10
157.4944396453212
 20
288.0585562862558
 30
0.0
 10
157.4944656288598
 20
288.0586798908944
 30
0.0
  0
ARC
  5
140
330
120
100
AcDbEntity
  8
0
  6
Continuous
 62
     0
370
    30
100
AcDbCircle
 10
146.170596
 20
232.828353
 30
0.0
 40
56.38668653441722
100
AcDbArc
 50
93.265286
 51
97.463595
  0
SPLINE
  5
141
330
120
100
AcDbEntity
  8
0
  6
Continuous
 62
     0
370
    30
100
AcDbSpline
210
0.0
220
0.0
230
1.0
 70
     8
 71
     3
 72
    13
 73
     9
 74
     0
 42
0.000000001
 43
0.0
 40
4.606097664018528
 40
4.606097664018528
 40
4.606097664018528
 40
4.606097664018528
 40
4.653579271380616
 40
4.889048108625007
 40
5.125471102714649
 40
5.599187594567737
 40
6.074735832084213
 40
6.551828192375452
 40
6.551828192375452
 40
6.551828192375452
 40
6.551828192375452
 10
144.396946719333
 20
289.1883235175396
 30
0.0
 10
144.4063921975982
 20
289.1886119534414
 30
0.0
 10
144.464472655184
 20
289.1903705735794
 30
0.0
 10
144.5914109328428
 20
289.1940276485441
 30
0.0
 10
144.8392149006837
 20
289.2003550064035
 30
0.0
 10
145.1875524615035
 20
289.207518884537
 30
0.0
 10
145.6462205932565
 20
289.2133331913352
 30
0.0
 10
145.9647818030318
 20
289.2146952472577
 30
0.0
 10
146.1238125074844
 20
289.2146974211704
 30
0.0
  0
ARC
  5
142
330
120
100
AcDbEntity
  8
0
  6
Continuous
 62
     0
370
    30
100
AcDbCircle
 10
146.07773
 20
229.908104
 30
0.0
 40
59.30661139338072
100
AcDbArc
 50
87.796093
 51
89.955479
  0
ARC
  5
143
330
120
100
AcDbEntity
  8
0
  6
Continuous
 62
     0
370
    30
100
AcDbCircle
 10
145.986869
 20
226.568494
 30
0.0
 40
62.64725608887154
100
AcDbArc
 50
86.911569
 51
87.830512
  0
ARC
  5
144
330
120
100
AcDbEntity
  8
0
  6
Continuous
 62
     0
370
    30
100
AcDbCircle
 10
146.217247
 20
232.988479
 30
0.0
 40
56.22430302037476
100
AcDbArc
 50
82.544761
 51
86.793487
  0
ARC
  5
145
330
120
100
AcDbEntity
  8
0
  6
Continuous
 62
     0
370
     0
100
AcDbCircle
 10
143.063944
 20
287.62727
 30
0.0
 40
1.499799078631817
100
AcDbArc
 50
93.380148
 51
181.489315
  0
SPLINE
  5
146
330
120
100
AcDbEntity
  8
0
  6
Continuous
 62
     0
370
     0
100
AcDbSpline
210
0.0
220
0.0
230
1.0
 70
     8
 71
     3
 72
    30
 73
    26
 74
     0
 42
0.000000001
 43
0.0
 40
0.0
 40
0.0
 40
0.0
 40
0.0
 40
1.225396231212392
 40
1.996266671498263
 40
2.770395256796587
 40
3.158307523348193
 40
3.75978293030952
 40
4.174201172882186
 40
4.740678397053912
 40
5.080281499007906
 40
5.416529076883819
 40
5.714817632142001
 40
5.996817551513167
 40
6.187015832822644
 40
6.272979870401431
 40
6.357223629495047
 40
6.451358841925963
 40
6.610804731879863
 40
6.726038347285362
 40
6.843308007724549
 40
6.957314821021946
 40
7.177853569120509
 40
7.395001920030518
 40
7.989756918548009
 40
8.826192243679458
 40
8.826192243679458
 40
8.826192243679458
 40
8.826192243679458
 10
142.4595829895691
 20
287.6451957469387
 30
0.0
 10
142.4658462987511
 20
287.6457161525769
 30
0.0
 10
142.4786386128169
 20
287.6413015548482
 30
0.0
 10
142.5027598239682
 20
287.6245099010085
 30
0.0
 10
142.5232562626864
 20
287.6076346205545
 30
0.0
 10
142.5448319397395
 20
287.5890498373097
 30
0.0
 10
142.5636979023255
 20
287.5722974794423
 30
0.0
 10
142.5905105816622
 20
287.5494926302916
 30
0.0
 10
142.6244378243236
 20
287.5256926622775
 30
0.0
 10
142.6838635598548
 20
287.5010985206467
 30
0.0
 10
142.7549921070462
 20
287.4825965849842
 30
0.0
 10
142.8582252051477
 20
287.4673154243437
 30
0.0
 10
142.9942561938812
 20
287.459005549533
 30
0.0
 10
143.1482864650345
 20
287.460857132822
 30
0.0
 10
143.2773006404452
 20
287.4676488662574
 30
0.0
 10
143.3852755642858
 20
287.4757090100031
 30
0.0
 10
143.5149636239016
 20
287.4877866232354
 30
0.0
 10
143.6320264582358
 20
287.4999884753359
 30
0.0
 10
143.7485522378262
 20
287.5121446703386
 30
0.0
 10
143.8528455701023
 20
287.5229318212231
 30
0.0
 10
143.9979111358061
 20
287.5377239483375
 30
0.0
 10
144.1890260419323
 20
287.5567734792231
 30
0.0
 10
144.5662482822259
 20
287.5921545058521
 30
0.0
 10
145.2208857103518
 20
287.6429618479024
 30
0.0
 10
145.7972690039663
 20
287.6605222114648
 30
0.0
 10
146.1223087159589
 20
287.6605249450656
 30
0.0
  0
ELLIPSE
  5
147
330
120
100
AcDbEntity
  8
0
  6
Continuous
 62
     0
370
     0
100
AcDbEllipse
 10
146.123833
 20
287.714697
 30
0.0
 11
2.050465028968584E-5
 21
-1.499999999859853
 31
0.0
210
0.0
220
0.0
230
-1.0
 40
0.001017
 41
1.534673501175847
 42
3.141592785290618
  0
ARC
  5
148
330
120
100
AcDbEntity
  8
0
  6
Continuous
 62
     0
370
     0
100
AcDbCircle
 10
148.299233
 20
287.672213
 30
0.0
 40
1.499801705595119
100
AcDbArc
 50
358.970213
 51
87.738277
  0
SPLINE
  5
149
330
120
100
AcDbEntity
  8
0
  6
Continuous
 62
     0
370
     0
100
AcDbSpline
210
0.0
220
0.0
230
1.0
 70
     8
 71
     3
 72
    15
 73
    11
 74
     0
 42
0.000000001
 43
0.0
 40
0.0
 40
0.0
 40
0.0
 40
0.0
 40
0.833900818296062
 40
1.66770079638543
 40
2.501284797895532
 40
3.334231545080273
 40
4.165021619125255
 40
4.581129178325506
 40
4.99696903818926
 40
5.82425095683362
 40
5.82425095683362
 40
5.82425095683362
 40
5.82425095683362
 10
143.872204832219
 20
281.2344353965773
 30
0.0
 10
143.8753635218619
 20
281.2453857751945
 30
0.0
 10
143.8826834605842
 20
281.2672870056535
 30
0.0
 10
143.9295438276358
 20
281.3000958966051
 30
0.0
 10
144.0390415183413
 20
281.3326992539853
 30
0.0
 10
144.248356210515
 20
281.3645242184436
 30
0.0
 10
144.5662052302009
 20
281.3893164489988
 30
0.0
 10
144.9516215802232
 20
281.4052499850521
 30
0.0
 10
145.4230787892995
 20
281.417042915404
 30
0.0
 10
145.8485915567252
 20
281.4200424373818
 30
0.0
 10
146.1243520537065
 20
281.4200423760986
 30
0.0
  0
ELLIPSE
  5
14A
330
120
100
AcDbEntity
  8
0
  6
Continuous
 62
     0
370
     0
100
AcDbEllipse
 10
139.042623
 20
287.250229
 30
0.0
 11
-0.1966135359179606
 21
1.487058545415702
 31
0.0
210
0.0
220
0.0
230
1.0
 40
0.646308
 41
6.283009518288235
 42
7.768738265807734
  0
ARC
  5
14B
330
120
100
AcDbEntity
  8
0
  6
Continuous
 62
     0
370
     0
100
AcDbCircle
 10
149.277597
 20
287.627513
 30
0.0
 40
1.499630704064026
100
AcDbArc
 50
358.510208
 51
86.767691
  0
ARC
  5
14C
330
120
100
AcDbEntity
  8
0
  6
Continuous
 62
     0
370
     0
100
AcDbCircle
 10
143.959175
 20
287.672121
 30
0.0
 40
1.499833761454846
100
AcDbArc
 50
92.374105
 51
181.028636
  0
ELLIPSE
  5
14D
330
120
100
AcDbEntity
  8
0
  6
Continuous
 62
     0
370
     0
100
AcDbEllipse
 10
153.316038
 20
287.250405
 30
0.0
 11
0.1962401162391361
 21
1.487107869920143
 31
0.0
210
0.0
220
0.0
230
-1.0
 40
0.64477
 41
0.0001739942950908
 42
1.485916290462823
  0
SPLINE
  5
14E
330
120
100
AcDbEntity
  8
0
  6
Continuous
 62
     0
370
     0
100
AcDbSpline
210
0.0
220
0.0
230
1.0
 70
     8
 71
     9
 72
    35
 73
    25
 74
     0
 42
0.000000001
 43
0.0
 40
0.2499999949532705
 40
0.2499999949532705
 40
0.2499999949532705
 40
0.2499999949532705
 40
0.2499999949532705
 40
0.2499999949532705
 40
0.2499999949532705
 40
0.2499999949532705
 40
0.2499999949532705
 40
0.2499999949532705
 40
0.37499999475916
 40
0.37499999475916
 40
0.37499999475916
 40
0.37499999475916
 40
0.37499999475916
 40
0.499999995807328
 40
0.499999995807328
 40
0.499999995807328
 40
0.499999995807328
 40
0.499999995807328
 40
0.749999997903664
 40
0.749999997903664
 40
0.749999997903664
 40
0.749999997903664
 40
0.749999997903664
 40
0.8310317690527387
 40
0.8310317690527387
 40
0.8310317690527387
 40
0.8310317690527387
 40
0.8310317690527387
 40
0.8310317690527387
 40
0.8310317690527387
 40
0.8310317690527387
 40
0.8310317690527387
 40
0.8310317690527387
 10
148.3861684708182
 20
281.234434861757
 30
0.0
 10
148.4596002182547
 20
281.3707378900287
 30
0.0
 10
148.5264496049188
 20
281.5105870957954
 30
0.0
 10
148.5872125128116
 20
281.6532466000476
 30
0.0
 10
148.6424137151988
 20
281.7981373288789
 30
0.0
 10
148.7019446993491
 20
281.9408382604356
 30
0.0
 10
148.8160168981728
 20
282.22874654371
 30
0.0
 10
148.9241770015736
 20
282.5189558726751
 30
0.0
 10
149.0257221216022
 20
282.8115568849992
 30
0.0
 10
149.120031522785
 20
283.1065493321865
 30
0.0
 10
149.1653068518318
 20
283.2546372358891
 30
0.0
 10
149.2953109406922
 20
283.7006385687755
 30
0.0
 10
149.4073964256153
 20
284.1516870361625
 30
0.0
 10
149.5005281749173
 20
284.6071468598159
 30
0.0
 10
149.5746687408396
 20
285.0660499651973
 30
0.0
 10
149.6210978668529
 20
285.3721864757104
 30
0.0
 10
149.6750450149153
 20
285.7787958813376
 30
0.0
 10
149.7187887460722
 20
286.1866204809601
 30
0.0
 10
149.7522778783046
 20
286.5953642620813
 30
0.0
 10
149.7756662156669
 20
287.0047282950949
 30
0.0
 10
149.7811070828561
 20
287.1049634258694
 30
0.0
 10
149.7860069995272
 20
287.2052268407494
 30
0.0
 10
149.790087048909
 20
287.3055176578712
 30
0.0
 10
149.7933138105828
 20
287.4058315689199
 30
0.0
 10
149.7958373296615
 20
287.5061625005048
 30
0.0
  0
SPLINE
  5
14F
330
120
100
AcDbEntity
  8
0
  6
Continuous
 62
     0
370
     0
100
AcDbSpline
210
0.0
220
0.0
230
1.0
 70
     8
 71
     9
 72
    35
 73
    25
 74
     0
 42
0.000000001
 43
0.0
 40
0.2499999949532684
 40
0.2499999949532684
 40
0.2499999949532684
 40
0.2499999949532684
 40
0.2499999949532684
 40
0.2499999949532684
 40
0.2499999949532684
 40
0.2499999949532684
 40
0.2499999949532684
 40
0.2499999949532684
 40
0.37499999475916
 40
0.37499999475916
 40
0.37499999475916
 40
0.37499999475916
 40
0.37499999475916
 40
0.499999995807328
 40
0.499999995807328
 40
0.499999995807328
 40
0.499999995807328
 40
0.499999995807328
 40
0.749999997903664
 40
0.749999997903664
 40
0.749999997903664
 40
0.749999997903664
 40
0.749999997903664
 40
0.8312012014464535
 40
0.8312012014464535
 40
0.8312012014464535
 40
0.8312012014464535
 40
0.8312012014464535
 40
0.8312012014464535
 40
0.8312012014464535
 40
0.8312012014464535
 40
0.8312012014464535
 40
0.8312012014464535
 10
143.8722048322189
 20
281.2344353965773
 30
0.0
 10
143.7987731172397
 20
281.3707384422496
 30
0.0
 10
143.7319237632854
 20
281.5105876638571
 30
0.0
 10
143.6711608881331
 20
281.6532471825078
 30
0.0
 10
143.6159597183451
 20
281.7981379244197
 30
0.0
 10
143.5564287665489
 20
281.940838870083
 30
0.0
 10
143.4423566329155
 20
282.2287471803884
 30
0.0
 10
143.3341965952644
 20
282.5189565349833
 30
0.0
 10
143.2326515420975
 20
282.8115575713698
 30
0.0
 10
143.1383422094432
 20
283.1065500409049
 30
0.0
 10
143.0930669151454
 20
283.254637955336
 30
0.0
 10
142.9630629321837
 20
283.7006393190285
 30
0.0
 10
142.8509775586664
 20
284.1516878129756
 30
0.0
 10
142.757845927796
 20
284.6071476586977
 30
0.0
 10
142.6837054883631
 20
285.0660507816476
 30
0.0
 10
142.6372764374138
 20
285.3721873031627
 30
0.0
 10
142.583301772198
 20
285.7790048369648
 30
0.0
 10
142.5395409673141
 20
286.1870388066086
 30
0.0
 10
142.5060452850586
 20
286.5959927448276
 30
0.0
 10
142.4826605816653
 20
287.0055672613169
 30
0.0
 10
142.4772107332661
 20
287.1060122196296
 30
0.0
 10
142.4723062710713
 20
287.2064855765362
 30
0.0
 10
142.4682280375238
 20
287.3069864409246
 30
0.0
 10
142.4650070686829
 20
287.4075104412105
 30
0.0
 10
142.4624900642503
 20
287.5080514436902
 30
0.0
  0
ARC
  5
150
330
120
100
AcDbEntity
  8
0
  6
Continuous
 62
     0
370
     0
100
AcDbCircle
 10
146.174861
 20
268.456079
 30
0.0
 40
2.125394649885515
100
AcDbArc
 50
270.007227
 51
7.846514
  0
ARC
  5
151
330
120
100
AcDbEntity
  8
0
  6
Continuous
 62
     0
370
     0
100
AcDbCircle
 10
146.175505
 20
268.455857
 30
0.0
 40
2.125172985287098
100
AcDbArc
 50
172.146627
 51
269.989843
  0
ARC
  5
152
330
120
100
AcDbEntity
  8
0
  6
Continuous
 62
     0
370
     0
100
AcDbCircle
 10
146.174897
 20
268.456159
 30
0.0
 40
2.124524489122169
100
AcDbArc
 50
90.002775
 51
172.152131
  0
ARC
  5
153
330
120
100
AcDbEntity
  8
0
  6
Continuous
 62
     0
370
     0
100
AcDbCircle
 10
146.174904
 20
268.455219
 30
0.0
 40
2.125465069772305
100
AcDbArc
 50
7.869967
 51
90.000926
  0
SPLINE
  5
154
330
120
100
AcDbEntity
  8
0
  6
Continuous
 62
     0
370
     0
100
AcDbSpline
210
0.0
220
0.0
230
1.0
 70
     8
 71
     9
 72
    20
 73
    10
 74
     0
 42
0.000000001
 43
0.0
 40
0.0
 40
0.0
 40
0.0
 40
0.0
 40
0.0
 40
0.0
 40
0.0
 40
0.0
 40
0.0
 40
0.0
 40
0.2499999949532684
 40
0.2499999949532684
 40
0.2499999949532684
 40
0.2499999949532684
 40
0.2499999949532684
 40
0.2499999949532684
 40
0.2499999949532684
 40
0.2499999949532684
 40
0.2499999949532684
 40
0.2499999949532684
 10
146.1291168262478
 20
279.8699474200096
 30
0.0
 10
145.8194672391349
 20
279.8699473887782
 30
0.0
 10
145.5098176420881
 20
279.901597204915
 30
0.0
 10
145.2038661241616
 20
279.9713815035803
 30
0.0
 10
144.9079589937899
 20
280.0863207084406
 30
0.0
 10
144.6330411849045
 20
280.2551762745197
 30
0.0
 10
144.3957505066994
 20
280.4650582730092
 30
0.0
 10
144.1922611348373
 20
280.7034079213376
 30
0.0
 10
144.0190682637439
 20
280.9618293038918
 30
0.0
 10
143.8722048322189
 20
281.2344353965773
 30
0.0
  0
ARC
  5
155
330
120
100
AcDbEntity
  8
0
  6
Continuous
 62
     0
370
    30
100
AcDbCircle
 10
135.687837
 20
255.805684
 30
0.0
 40
0.2500001588147505
100
AcDbArc
 50
270.000036
 51
359.999964
  0
ARC
  5
156
330
120
100
AcDbEntity
  8
0
  6
Continuous
 62
     0
370
    30
100
AcDbCircle
 10
116.387871
 20
255.355649
 30
0.0
 40
0.2000344809818624
100
AcDbArc
 50
90.009875
 51
179.990125
  0
LINE
  5
157
330
120
100
AcDbEntity
  8
0
  6
Continuous
 62
     0
370
    30
100
AcDbLine
 10
116.187837
 20
255.355683
 30
0.0
 11
116.187837
 21
249.855683
 31
0.0
  0
LINE
  5
158
330
120
100
AcDbEntity
  8
0
  6
Continuous
 62
     0
370
    30
100
AcDbLine
 10
116.187837
 20
249.855683
 30
0.0
 11
176.187837
 21
249.855683
 31
0.0
  0
LINE
  5
159
330
120
100
AcDbEntity
  8
0
  6
Continuous
 62
     0
370
     0
100
AcDbLine
 10
135.937837
 20
255.805683
 30
0.0
 11
156.437837
 21
255.805683
 31
0.0
  0
LINE
  5
15A
330
120
100
AcDbEntity
  8
0
  6
Continuous
 62
     0
370
    30
100
AcDbLine
 10
116.387837
 20
255.555683
 30
0.0
 11
175.987837
 21
255.555683
 31
0.0
  0
LINE
  5
15B
330
120
100
AcDbEntity
  8
0
  6
Continuous
 62
     0
370
     0
100
AcDbLine
 10
116.187837
 20
255.355683
 30
0.0
 11
176.187837
 21
255.355683
 31
0.0
  0
LINE
  5
15C
330
120
100
AcDbEntity
  8
0
  6
Continuous
 62
     0
370
    30
100
AcDbLine
 10
135.937837
 20
256.455683
 30
0.0
 11
135.937837
 21
255.805683
 31
0.0
  0
LINE
  5
15D
330
120
100
AcDbEntity
  8
0
  6
Continuous
 62
     0
370
    30
100
AcDbLine
 10
176.187837
 20
255.355683
 30
0.0
 11
176.187837
 21
249.855683
 31
0.0
  0
ARC
  5
15E
330
120
100
AcDbEntity
  8
0
  6
Continuous
 62
     0
370
    30
100
AcDbCircle
 10
175.987802
 20
255.355649
 30
0.0
 40
0.2000344809320395
100
AcDbArc
 50
0.009875
 51
89.990125
  0
ARC
  5
15F
330
120
100
AcDbEntity
  8
0
  6
Continuous
 62
     0
370
    30
100
AcDbCircle
 10
156.687837
 20
255.805684
 30
0.0
 40
0.2500001588370473
100
AcDbArc
 50
180.000036
 51
269.999964
  0
LINE
  5
160
330
120
100
AcDbEntity
  8
0
  6
Continuous
 62
     0
370
    30
100
AcDbLine
 10
156.437837
 20
256.455683
 30
0.0
 11
156.437837
 21
255.805683
 31
0.0
  0
SPLINE
  5
161
330
120
100
AcDbEntity
  8
0
  6
Continuous
 62
     0
370
    30
100
AcDbSpline
210
0.0
220
0.0
230
1.0
 70
     8
 71
     3
 72
    39
 73
    35
 74
     0
 42
0.000000001
 43
0.0
 40
0.0
 40
0.0
 40
0.0
 40
0.0
 40
1.044701151819715
 40
2.502227258076522
 40
3.95429179041229
 40
4.575106912097961
 40
4.988539529551744
 40
5.401642643953162
 40
5.814437673410437
 40
6.639204545313792
 40
7.25104971499048
 40
7.454911090501162
 40
7.658736471747039
 40
7.86252951863184
 40
8.066293898363257
 40
8.5197739988181
 40
8.76948905628146
 40
9.019200780740482
 40
9.268981442732523
 40
9.420900721318162
 40
9.476104326867443
 40
9.524637048898308
 40
9.550657024560405
 40
9.571165051089627
 40
9.607236386872174
 40
9.706951916494868
 40
9.832452904979736
 40
9.895148739125164
 40
10.08321811729413
 40
10.20858596467064
 40
10.45931631524058
 40
10.83540788761777
 40
11.27417976603239
 40
11.54531241131405
 40
11.54531241131405
 40
11.54531241131405
 40
11.54531241131405
 10
138.846010756953
 20
288.7372867796299
 30
0.0
 10
138.5794454719136
 20
288.7020429898099
 30
0.0
 10
137.9653459505415
 20
288.6157506382671
 30
0.0
 10
137.0988901668648
 20
288.4785950684159
 30
0.0
 10
136.447005855041
 20
288.3641753160024
 30
0.0
 10
136.055398619614
 20
288.2917416642085
 30
0.0
 10
135.8477143590353
 20
288.2524310042466
 30
0.0
 10
135.683958197696
 20
288.220888791404
 30
0.0
 10
135.4850069500035
 20
288.1819501605493
 30
0.0
 10
135.2956064943174
 20
288.1440687936013
 30
0.0
 10
135.1618173100815
 20
288.1168375626694
 30
0.0
 10
135.0911349282884
 20
288.1023150888274
 30
0.0
 10
135.0523267200299
 20
288.0943035746826
 30
0.0
 10
135.0173650839324
 20
288.0870529002506
 30
0.0
 10
134.9734567001316
 20
288.0779075768014
 30
0.0
 10
134.9364382173246
 20
288.0701434003112
 30
0.0
 10
134.9083104069821
 20
288.0642222920065
 30
0.0
 10
134.8912560431223
 20
288.0606254187721
 30
0.0
 10
134.8797655579491
 20
288.0581704236846
 30
0.0
 10
134.8711461085106
 20
288.0563361661438
 30
0.0
 10
134.8588681418751
 20
288.053602705985
 30
0.0
 10
134.8460463114917
 20
288.0507000437417
 30
0.0
 10
134.8255000940755
 20
288.0457248281901
 30
0.0
 10
134.8030601953093
 20
288.0399891112725
 30
0.0
 10
134.7544584642208
 20
288.0266883947708
 30
0.0
 10
134.671729302548
 20
288.0000210553295
 30
0.0
 10
134.5828533257423
 20
287.9637933946029
 30
0.0
 10
134.469882665224
 20
287.9092621819854
 30
0.0
 10
134.3617140622461
 20
287.8454013008334
 30
0.0
 10
134.2104853468429
 20
287.7333244343645
 30
0.0
 10
134.0286379660771
 20
287.5594190793176
 30
0.0
 10
133.8268313047595
 20
287.2636525647412
 30
0.0
 10
133.7093067076197
 20
286.9172559330486
 30
0.0
 10
133.6878900292195
 20
286.6803831942497
 30
0.0
 10
133.6878895192263
 20
286.5901233011255
 30
0.0
  0
SPLINE
  5
162
330
120
100
AcDbEntity
  8
0
  6
Continuous
 62
     0
370
    30
100
AcDbSpline
210
0.0
220
0.0
230
1.0
 70
     8
 71
     3
 72
    25
 73
    21
 74
     0
 42
0.000000001
 43
0.0
 40
0.0
 40
0.0
 40
0.0
 40
0.0
 40
0.1880492368066883
 40
0.5641481572674505
 40
0.9402486045234343
 40
1.128300311667694
 40
1.253668510024063
 40
1.504414626024197
 40
1.629803082820508
 40
1.755244572657925
 40
1.818045123908961
 40
1.912925265372936
 40
1.945535921474431
 40
1.981155616548103
 40
2.003019564450064
 40
2.034346211378869
 40
2.134483260064564
 40
2.199747079849975
 40
2.327025814762251
 40
2.372507753717715
 40
2.372507753717715
 40
2.372507753717715
 40
2.372507753717715
 10
158.6878202956295
 20
286.5903621292225
 30
0.0
 10
158.6878204675617
 20
286.6530086105411
 30
0.0
 10
158.6760317248499
 20
286.8411539114247
 30
0.0
 10
158.5976696173205
 20
287.1471360298449
 30
0.0
 10
158.445777942469
 20
287.4241486302402
 30
0.0
 10
158.2992417011632
 20
287.6018221735258
 30
0.0
 10
158.1650014260979
 20
287.7337703652486
 30
0.0
 10
158.0315862332406
 20
287.8354795935743
 30
0.0
 10
157.8868863308943
 20
287.9194854639285
 30
0.0
 10
157.7923252709849
 20
287.9642736969176
 30
0.0
 10
157.7048357841041
 20
287.9991970138642
 30
0.0
 10
157.6448075837727
 20
288.0195495243973
 30
0.0
 10
157.59422808985
 20
288.0343871842713
 30
0.0
 10
157.5679166279139
 20
288.0414773077399
 30
0.0
 10
157.5468932252354
 20
288.0467956079773
 30
0.0
 10
157.5227340858551
 20
288.0525993995279
 30
0.0
 10
157.5136472296476
 20
288.0545666319734
 30
0.0
 10
157.5039990689245
 20
288.0567182113894
 30
0.0
 10
157.4990358141286
 20
288.0577857572597
 30
0.0
 10
157.4954349749665
 20
288.0585584790695
 30
0.0
 10
157.4944833556034
 20
288.0587625391767
 30
0.0
  0
LINE
  5
163
330
120
100
AcDbEntity
  8
0
  6
Continuous
 62
     0
370
    30
100
AcDbLine
 10
143.897046
 20
289.170667
 30
0.0
 11
144.396947
 21
289.188323
 31
0.0
  0
ARC
  5
164
330
120
100
AcDbEntity
  8
0
  6
Continuous
 62
     0
370
    30
100
AcDbCircle
 10
146.075175
 20
236.519621
 30
0.0
 40
52.69608097948995
100
AcDbArc
 50
92.368927
 51
93.372168
  0
LINE
  5
165
330
120
100
AcDbEntity
  8
0
  6
Continuous
 62
     0
370
    30
100
AcDbLine
 10
133.687837
 20
286.590123
 30
0.0
 11
133.687837
 21
256.455683
 31
0.0
  0
LINE
  5
166
330
120
100
AcDbEntity
  8
0
  6
Continuous
 62
     0
370
    30
100
AcDbLine
 10
158.687837
 20
286.590362
 30
0.0
 11
158.687837
 21
256.455683
 31
0.0
  0
ENDBLK
  5
168
330
120
100
AcDbEntity
  8
0
100
AcDbBlockEnd
  0
BLOCK
  5
19C
330
16A
100
AcDbEntity
  8
0
100
AcDbBlockBegin
  2
f
 70
     0
 10
254.886688
 20
-44.200989
 30
0.0
  3
f
  1

  0
SPLINE
  5
16B
330
16A
100
AcDbEntity
  8
0
  6
Continuous
 62
     0
370
     0
100
AcDbSpline
210
0.0
220
0.0
230
1.0
 70
     8
 71
     3
 72
    16
 73
    12
 74
     0
 42
0.000000001
 43
0.0
 40
24.23905646112769
 40
24.23905646112769
 40
24.23905646112769
 40
24.23905646112769
 40
26.0158598568891
 40
30.35360663391604
 40
34.69137162723426
 40
39.02687277555464
 40
43.36148144101966
 40
47.69798630468826
 40
52.03606693161142
 40
56.37263841474422
 40
60.7072506011606
 40
60.7072506011606
 40
60.7072506011606
 40
60.7072506011606
 10
264.269552895035
 20
33.42917508123931
 30
0.0
 10
264.6579603161981
 20
33.57076236192381
 30
0.0
 10
266.0539624276262
 20
33.9253647153811
 30
0.0
 10
268.7288199608471
 20
33.72173473176514
 30
0.0
 10
272.1894098140586
 20
32.07225605178843
 30
0.0
 10
275.3220790236093
 20
29.22819077913107
 30
0.0
 10
277.6975743761677
 20
25.51029165414721
 30
0.0
 10
278.9454688749306
 20
21.30747451273629
 30
0.0
 10
278.8379101604424
 20
17.10030938907295
 30
0.0
 10
277.3919021364518
 20
13.41972265854331
 30
0.0
 10
275.6901960866528
 20
11.61498395494082
 30
0.0
 10
274.7307655062777
 20
10.93900433853728
 30
0.0
  0
SPLINE
  5
16C
330
16A
100
AcDbEntity
  8
0
  6
Continuous
 62
     0
370
     0
100
AcDbSpline
210
0.0
220
0.0
230
1.0
 70
     8
 71
     3
 72
    14
 73
    10
 74
     0
 42
0.000000001
 43
0.0
 40
0.0
 40
0.0
 40
0.0
 40
0.0
 40
1.974027971177131
 40
3.936390186585602
 40
5.878649482336021
 40
7.790165265916709
 40
9.659696083105711
 40
11.47732907936279
 40
13.22973633779208
 40
13.22973633779208
 40
13.22973633779208
 40
13.22973633779208
 10
274.7307647019468
 20
10.93900405166797
 30
0.0
 10
275.1346771492392
 20
11.08306180087937
 30
0.0
 10
275.9248326943899
 20
11.35914548551454
 30
0.0
 10
277.0480981270162
 20
11.73285732211098
 30
0.0
 10
278.0994791310815
 20
12.06649707535374
 30
0.0
 10
279.0638669586635
 20
12.35880926684914
 30
0.0
 10
279.9247082110442
 20
12.61079503598355
 30
0.0
 10
280.6707063384732
 20
12.82908220047518
 30
0.0
 10
281.0917214308043
 20
12.95938986572148
 30
0.0
 10
281.2730018277184
 20
13.0197974014252
 30
0.0
  0
LINE
  5
16D
330
16A
100
AcDbEntity
  8
0
  6
Continuous
 62
     0
370
     0
100
AcDbLine
 10
281.273002
 20
13.019797
 30
0.0
 11
281.48507
 21
13.093329
 31
0.0
  0
ELLIPSE
  5
16E
330
16A
100
AcDbEntity
  8
0
  6
Continuous
 62
     0
370
    30
100
AcDbEllipse
 10
287.978328
 20
28.761842
 30
0.0
 11
4.278013218785189
 21
-11.74515231488717
 31
0.0
210
0.0
220
0.0
230
1.0
 40
0.745261
 41
0.0000000023018565
 42
3.141592655891654
  0
ARC
  5
16F
330
16A
100
AcDbEntity
  8
0
  6
Continuous
 62
     0
370
     0
100
AcDbCircle
 10
273.282817
 20
4.421539
 30
0.0
 40
1.654880730463007
100
AcDbArc
 50
347.538487
 51
5.142512
  0
ELLIPSE
  5
170
330
16A
100
AcDbEntity
  8
0
  6
Continuous
 62
     0
370
     0
100
AcDbEllipse
 10
284.858302
 20
3.685919
 30
0.0
 11
-1.813994828736607
 21
9.834094913174107
 31
0.0
210
0.0
220
0.0
230
-1.0
 40
0.996397
 41
4.982676781131867
 42
6.098203688196509
  0
SPLINE
  5
171
330
16A
100
AcDbEntity
  8
0
  6
Continuous
 62
     0
370
     0
100
AcDbSpline
210
0.0
220
0.0
230
1.0
 70
     8
 71
     3
 72
    10
 73
     6
 74
     0
 42
0.000000001
 43
0.0
 40
0.0
 40
0.0
 40
0.0
 40
0.0
 40
2.798270619055186
 40
5.595978195444538
 40
8.393884764184433
 40
8.393884764184433
 40
8.393884764184433
 40
8.393884764184433
 10
274.7307625622438
 20
10.93900240662155
 30
0.0
 10
274.1001141888977
 20
10.49895539917866
 30
0.0
 10
272.9950386173023
 20
9.39744602856917
 30
0.0
 10
271.9204488734406
 20
7.216991978599758
 30
0.0
 10
271.6213753309064
 20
5.508270867316575
 30
0.0
 10
271.5795650968277
 20
4.628989744087285
 30
0.0
  0
SPLINE
  5
172
330
16A
100
AcDbEntity
  8
0
  6
Continuous
 62
     0
370
     0
100
AcDbSpline
210
0.0
220
0.0
230
1.0
 70
     8
 71
     3
 72
    39
 73
    35
 74
     0
 42
0.000000001
 43
0.0
 40
0.9242651249458449
 40
0.9242651249458449
 40
0.9242651249458449
 40
0.9242651249458449
 40
1.095853179809037
 40
1.243779472733291
 40
1.397011119722972
 40
1.55336319157057
 40
1.709964074651579
 40
1.870272236443196
 40
2.190564059117389
 40
2.51612165308385
 40
2.844834989681557
 40
3.010170490642
 40
3.433741361106049
 40
3.795062718559564
 40
4.156384076013079
 40
4.517705433466594
 40
4.803096995319677
 40
5.088488557172762
 40
5.387077130908893
 40
5.685665704645024
 40
5.982327788684009
 40
6.278989872722995
 40
6.57565195676198
 40
6.872314040800966
 40
7.241517648492657
 40
7.610721256184348
 40
7.897011590779721
 40
8.183301925375094
 40
8.453921848578155
 40
8.724541771781217
 40
9.083876701511235
 40
9.43167664429852
 40
9.667430175905203
 40
10.02769626272259
 40
10.02769626272259
 40
10.02769626272259
 40
10.02769626272259
 10
271.5795650968277
 20
4.628989744087299
 30
0.0
 10
271.6207880895246
 20
4.643104023334594
 30
0.0
 10
271.6936950389287
 20
4.667704740464536
 30
0.0
 10
271.8024685838737
 20
4.703707578920081
 30
0.0
 10
271.9013816828065
 20
4.735584411983091
 30
0.0
 10
271.999546742948
 20
4.766465254553232
 30
0.0
 10
272.0980267509423
 20
4.796755324503742
 30
0.0
 10
272.2307059178969
 20
4.83673177396556
 30
0.0
 10
272.3965887468974
 20
4.884860760901553
 30
0.0
 10
272.5876833899825
 20
4.936507537890357
 30
0.0
 10
272.7434346146963
 20
4.975629314383973
 30
0.0
 10
272.9132308341484
 20
5.01562869817861
 30
0.0
 10
273.0837157436914
 20
5.052492081184177
 30
0.0
 10
273.2809218413742
 20
5.089808442241797
 30
0.0
 10
273.4588519565966
 20
5.118349440597349
 30
0.0
 10
273.615221664517
 20
5.138128623548432
 30
0.0
 10
273.7513494451388
 20
5.150419173308784
 30
0.0
 10
273.871302554563
 20
5.156931522244371
 30
0.0
 10
273.9857448166873
 20
5.158386962809736
 30
0.0
 10
274.0944367059204
 20
5.154729883623752
 30
0.0
 10
274.1961005656382
 20
5.146184535591949
 30
0.0
 10
274.2908840855288
 20
5.132887244602735
 30
0.0
 10
274.3791032559317
 20
5.114918916235972
 30
0.0
 10
274.467517904779
 20
5.090541709813344
 30
0.0
 10
274.5542797668882
 20
5.058489989865116
 30
0.0
 10
274.6312455198019
 20
5.020613675296111
 30
0.0
 10
274.6948661087404
 20
4.981002151599192
 30
0.0
 10
274.7467933199457
 20
4.942455036562215
 30
0.0
 10
274.7934589784914
 20
4.902323691081484
 30
0.0
 10
274.8379181101681
 20
4.854110288911635
 30
0.0
 10
274.875942884552
 20
4.793366375100341
 30
0.0
 10
274.9014486197319
 20
4.724798870100251
 30
0.0
 10
274.9198335948124
 20
4.650303784419542
 30
0.0
 10
274.9275677745095
 20
4.600563345582337
 30
0.0
 10
274.93103646935
 20
4.569871272545775
 30
0.0
  0
SPLINE
  5
173
330
16A
100
AcDbEntity
  8
0
  6
Continuous
 62
     0
370
     0
100
AcDbSpline
210
0.0
220
0.0
230
1.0
 70
     8
 71
     3
 72
     8
 73
     4
 74
     0
 42
0.000000001
 43
0.0
 40
0.0
 40
0.0
 40
0.0
 40
0.0
 40
38.4318516319787
 40
38.4318516319787
 40
38.4318516319787
 40
38.4318516319787
 10
274.93103646935
 20
4.569871272545775
 30
0.0
 10
274.1486400419606
 20
-7.661946417050892
 30
0.0
 10
273.3722581614459
 20
-19.8955616226139
 30
0.0
 10
272.5676715288995
 20
-32.12085228876435
 30
0.0
  0
LINE
  5
174
330
16A
100
AcDbEntity
  8
0
  6
Continuous
 62
     0
370
     0
100
AcDbLine
 10
269.736364
 20
-33.859753
 30
0.0
 11
269.651522
 21
-33.89214
 31
0.0
  0
SPLINE
  5
175
330
16A
100
AcDbEntity
  8
0
  6
Continuous
 62
     0
370
     0
100
AcDbSpline
210
0.0
220
0.0
230
1.0
 70
     8
 71
     3
 72
     8
 73
     4
 74
     0
 42
0.000000001
 43
0.0
 40
0.0
 40
0.0
 40
0.0
 40
0.0
 40
40.811080881362
 40
40.811080881362
 40
40.811080881362
 40
40.811080881362
 10
269.6515217771087
 20
-33.89214043456051
 30
0.0
 10
270.28119425311
 20
-21.04595806476441
 30
0.0
 10
270.9348607668085
 20
-8.209989929462786
 30
0.0
 10
271.5796359173514
 20
4.629026423157761
 30
0.0
  0
SPLINE
  5
176
330
16A
100
AcDbEntity
  8
0
  6
Continuous
 62
     0
370
     0
100
AcDbSpline
210
0.0
220
0.0
230
1.0
 70
     8
 71
     3
 72
    11
 73
     7
 74
     0
 42
0.000000001
 43
0.0
 40
2.57540859820131
 40
2.57540859820131
 40
2.57540859820131
 40
2.57540859820131
 40
3.300573405384458
 40
4.141994584646453
 40
4.983823083218661
 40
5.825076579930034
 40
5.825076579930034
 40
5.825076579930034
 40
5.825076579930034
 10
272.1014441438778
 20
-35.11443818775818
 30
0.0
 10
272.1767737367651
 20
-34.91351727310639
 30
0.0
 10
272.3048750291288
 20
-34.45664379880377
 30
0.0
 10
272.4313422004155
 20
-33.71748256662415
 30
0.0
 10
272.5139482583772
 20
-32.92377944808769
 30
0.0
 10
272.5502522062196
 20
-32.38815987257163
 30
0.0
 10
272.567671485341
 20
-32.12085231750029
 30
0.0
  0
SPLINE
  5
177
330
16A
100
AcDbEntity
  8
0
  6
Continuous
 62
     0
370
     0
100
AcDbSpline
210
0.0
220
0.0
230
1.0
 70
     8
 71
     3
 72
    10
 73
     6
 74
     0
 42
0.000000001
 43
0.0
 40
0.0
 40
0.0
 40
0.0
 40
0.0
 40
0.4189202059543917
 40
0.828796972853654
 40
0.9873187915812218
 40
0.9873187915812218
 40
0.9873187915812218
 40
0.9873187915812218
 10
272.567671485341
 20
-32.12085231750029
 30
0.0
 10
272.5931049374213
 20
-32.07834690978606
 30
0.0
 10
272.6277675323723
 20
-31.9926326090696
 30
0.0
 10
272.622080985771
 20
-31.88868648772854
 30
0.0
 10
272.5967895121264
 20
-31.82882428320447
 30
0.0
 10
272.5879806367645
 20
-31.81217291903255
 30
0.0
  0
SPLINE
  5
178
330
16A
100
AcDbEntity
  8
0
  6
Continuous
 62
     0
370
     0
100
AcDbSpline
210
0.0
220
0.0
230
1.0
 70
     8
 71
     3
 72
    18
 73
    14
 74
     0
 42
0.000000001
 43
0.0
 40
2.294232322716071
 40
2.294232322716071
 40
2.294232322716071
 40
2.294232322716071
 40
2.329437783506592
 40
2.704812828875916
 40
3.191271218244516
 40
3.741147926252431
 40
4.180497494940823
 40
4.880859046003224
 40
5.466433708845746
 40
5.97737738954776
 40
6.930520044520899
 40
7.877953491375392
 40
8.824150673077257
 40
8.824150673077257
 40
8.824150673077257
 40
8.824150673077257
 10
268.3650604459207
 20
-39.30956731943603
 30
0.0
 10
268.3732681306398
 20
-39.30494756523588
 30
0.0
 10
268.4686948300399
 20
-39.2505008971715
 30
0.0
 10
268.6695169632339
 20
-39.11717206613826
 30
0.0
 10
268.9576281918393
 20
-38.8621692549822
 30
0.0
 10
269.1802929350108
 20
-38.51936431273582
 30
0.0
 10
269.3547005169112
 20
-38.07419583155606
 30
0.0
 10
269.4574051262119
 20
-37.57812367295144
 30
0.0
 10
269.5074778974841
 20
-37.03964449257477
 30
0.0
 10
269.5386143517841
 20
-36.41314371656421
 30
0.0
 10
269.5708315301942
 20
-35.66887493923625
 30
0.0
 10
269.6094170399931
 20
-34.78373453167872
 30
0.0
 10
269.6369245462458
 20
-34.18997613475107
 30
0.0
 10
269.6515217771088
 20
-33.89214043456048
 30
0.0
  0
SPLINE
  5
179
330
16A
100
AcDbEntity
  8
0
  6
Continuous
 62
     0
370
     0
100
AcDbSpline
210
0.0
220
0.0
230
1.0
 70
     8
 71
     3
 72
    31
 73
    27
 74
     0
 42
0.000000001
 43
0.0
 40
0.0
 40
0.0
 40
0.0
 40
0.0
 40
1.944818689850845
 40
3.879518989130776
 40
5.805642800460688
 40
7.72557142967568
 40
9.642265420132304
 40
11.55909434387184
 40
13.47931746959073
 40
15.40586401667405
 40
17.34099563188875
 40
19.28673070470717
 40
23.18505413553119
 40
27.10360910784161
 40
31.02216571618502
 40
34.92075349536311
 40
36.86614307564447
 40
38.80138421432545
 40
40.72795329880144
 40
42.64816249845497
 40
44.56496741876285
 40
46.48166050162649
 40
48.40160928734619
 40
50.32774407353269
 40
52.26241633936344
 40
54.20721767921937
 40
54.20721767921937
 40
54.20721767921937
 40
54.20721767921937
 10
273.2266038298171
 20
11.8522523533028
 30
0.0
 10
273.6663968820367
 20
12.14899879969915
 30
0.0
 10
274.4957220958345
 20
12.8401891851312
 30
0.0
 10
275.5353496141173
 20
14.13599383064339
 30
0.0
 10
276.3271128807455
 20
15.6480343012719
 30
0.0
 10
276.8358785875164
 20
17.32858539239509
 30
0.0
 10
277.0393063434292
 20
19.12382701661618
 30
0.0
 10
276.927898234246
 20
20.97627925854809
 30
0.0
 10
276.5082916426019
 20
22.82789848147164
 30
0.0
 10
275.8005327759866
 20
24.62329573707072
 30
0.0
 10
274.8371602746083
 20
26.31401006347855
 30
0.0
 10
273.2663758428445
 20
28.36480835173475
 30
0.0
 10
270.8760268380125
 20
30.46301569728061
 30
0.0
 10
267.7446126758898
 20
31.92527036340559
 30
0.0
 10
264.7536804967932
 20
32.17859883084483
 30
0.0
 10
262.6463062985961
 20
31.34147113133253
 30
0.0
 10
261.3158091236956
 20
30.10294649165778
 30
0.0
 10
260.5070273982366
 20
28.90950714612484
 30
0.0
 10
259.9019276147773
 20
27.48169972499471
 30
0.0
 10
259.5094349660251
 20
25.85774135333261
 30
0.0
 10
259.3367187835078
 20
24.08490782463159
 30
0.0
 10
259.3874446548963
 20
22.21844327142432
 30
0.0
 10
259.6614938820518
 20
20.31850998280902
 30
0.0
 10
260.1555771994338
 20
18.44608713540362
 30
0.0
 10
260.8626673252663
 20
16.66086540858564
 30
0.0
 10
261.469139575832
 20
15.56725768046699
 30
0.0
 10
261.8032560983919
 20
15.05362917489527
 30
0.0
  0
SPLINE
  5
17A
330
16A
100
AcDbEntity
  8
0
  6
Continuous
 62
     0
370
     0
100
AcDbSpline
210
0.0
220
0.0
230
1.0
 70
     8
 71
     3
 72
    14
 73
    10
 74
     0
 42
0.000000001
 43
0.0
 40
0.0
 40
0.0
 40
0.0
 40
0.0
 40
1.404286950246865
 40
2.80180824355738
 40
4.195347073104719
 40
5.585086099230736
 40
6.971568934683175
 40
8.355744518375099
 40
9.73863111421217
 40
9.73863111421217
 40
9.73863111421217
 40
9.73863111421217
 10
261.8032563990035
 20
15.05362880595317
 30
0.0
 10
262.0445128417057
 20
14.6827521927219
 30
0.0
 10
262.5064329381989
 20
13.91118021074143
 30
0.0
 10
263.1170827951815
 20
12.67621400262401
 30
0.0
 10
263.6342336674701
 20
11.38484575646392
 30
0.0
 10
264.0460592650438
 20
10.05366759865324
 30
0.0
 10
264.3424556734402
 20
8.700996127564416
 30
0.0
 10
264.5170649232069
 20
7.346157513774592
 30
0.0
 10
264.5496757065071
 20
6.453302112367417
 30
0.0
 10
264.5447197379491
 20
6.013508434063418
 30
0.0
  0
SPLINE
  5
17B
330
16A
100
AcDbEntity
  8
0
  6
Continuous
 62
     0
370
     0
100
AcDbSpline
210
0.0
220
0.0
230
1.0
 70
     8
 71
     3
 72
     8
 73
     4
 74
     0
 42
0.000000001
 43
0.0
 40
0.0
 40
0.0
 40
0.0
 40
0.0
 40
40.81424693084997
 40
40.81424693084997
 40
40.81424693084997
 40
40.81424693084997
 10
264.5447170904984
 20
6.013507185030655
 30
0.0
 10
264.3984977628289
 20
-6.966492245217843
 30
0.0
 10
264.2634819893692
 20
-19.94840709386869
 30
0.0
 10
264.1021110339426
 20
-32.9220816475672
 30
0.0
  0
SPLINE
  5
17C
330
16A
100
AcDbEntity
  8
0
  6
Continuous
 62
     0
370
     0
100
AcDbSpline
210
0.0
220
0.0
230
1.0
 70
     8
 71
     3
 72
    20
 73
    16
 74
     0
 42
0.000000001
 43
0.0
 40
0.0
 40
0.0
 40
0.0
 40
0.0
 40
0.9302162895394712
 40
1.860460231410264
 40
2.790721845179938
 40
3.255878483922408
 40
3.721056245349594
 40
4.186426271299427
 40
4.419697709086792
 40
4.653579271380616
 40
4.889048108625007
 40
5.125471102714649
 40
5.599187594567737
 40
6.074735832084213
 40
6.551828192375452
 40
6.551828192375452
 40
6.551828192375452
 40
6.551828192375452
 10
264.1021110339425
 20
-32.92208164756712
 30
0.0
 10
264.0984331542137
 20
-33.2177706364016
 30
0.0
 10
264.0937133843643
 20
-33.80987928421165
 30
0.0
 10
264.0941877787712
 20
-34.70001213538259
 30
0.0
 10
264.10103818605
 20
-35.4433433043558
 30
0.0
 10
264.1137703170079
 20
-36.03980103974391
 30
0.0
 10
264.1414176020132
 20
-36.49067471110016
 30
0.0
 10
264.1965708905499
 20
-36.8710054314404
 30
0.0
 10
264.277637460111
 20
-37.17132989322216
 30
0.0
 10
264.3678271045558
 20
-37.38944942276591
 30
0.0
 10
264.4945843927799
 20
-37.58181454899626
 30
0.0
 10
264.6782437541895
 20
-37.8218982009487
 30
0.0
 10
264.9397059531856
 20
-38.0833656435513
 30
0.0
 10
265.2895221725449
 20
-38.31475366517824
 30
0.0
 10
265.5360294000079
 20
-38.41078661640562
 30
0.0
 10
265.6598960432671
 20
-38.44550029624927
 30
0.0
  0
SPLINE
  5
17D
330
16A
100
AcDbEntity
  8
0
  6
Continuous
 62
     0
370
     0
100
AcDbSpline
210
0.0
220
0.0
230
1.0
 70
     8
 71
     3
 72
    20
 73
    16
 74
     0
 42
0.000000001
 43
0.0
 40
0.0
 40
0.0
 40
0.0
 40
0.0
 40
0.4770899993551568
 40
0.9526449650825106
 40
1.426356592868759
 40
1.662783721543743
 40
1.898249056634928
 40
2.132134535471443
 40
2.365405591066108
 40
2.830775596469794
 40
3.295955187498473
 40
3.761111090005097
 40
4.691373867665854
 40
5.621618686159469
 40
6.551835728697922
 40
6.551835728697922
 40
6.551835728697922
 40
6.551835728697922
 10
265.6598972196057
 20
-38.44550062591843
 30
0.0
 10
265.7837632538266
 20
-38.48021409070744
 30
0.0
 10
266.0335450116165
 20
-38.52326138777556
 30
0.0
 10
266.3984497539439
 20
-38.49218988036522
 30
0.0
 10
266.6799190068361
 20
-38.38286071932117
 30
0.0
 10
266.8825909432038
 20
-38.25105308936322
 30
0.0
 10
267.0248090597285
 20
-38.13407790488593
 30
0.0
 10
267.1313782769539
 20
-37.97109380135176
 30
0.0
 10
267.2338115087655
 20
-37.72219521867904
 30
0.0
 10
267.3145135096979
 20
-37.37993667348798
 30
0.0
 10
267.3709966207782
 20
-36.95264039685565
 30
0.0
 10
267.4208997308946
 20
-36.37373530894254
 30
0.0
 10
267.4737155733663
 20
-35.64712507995599
 30
0.0
 10
267.5289124414982
 20
-34.77259293821475
 30
0.0
 10
267.5603917210332
 20
-34.18798325445493
 30
0.0
 10
267.5747258403148
 20
-33.89528042982294
 30
0.0
  0
SPLINE
  5
17E
330
16A
100
AcDbEntity
  8
0
  6
Continuous
 62
     0
370
     0
100
AcDbSpline
210
0.0
220
0.0
230
1.0
 70
     8
 71
     3
 72
     8
 73
     4
 74
     0
 42
0.000000001
 43
0.0
 40
0.0
 40
0.0
 40
0.0
 40
0.0
 40
40.81433612614504
 40
40.81433612614504
 40
40.81433612614504
 40
40.81433612614504
 10
267.5747258403148
 20
-33.89528042982291
 30
0.0
 10
268.2036517100661
 20
-21.05260939364103
 30
0.0
 10
268.8640505869751
 20
-8.21790431310189
 30
0.0
 10
269.516250032548
 20
4.620323114790445
 30
0.0
  0
SPLINE
  5
17F
330
16A
100
AcDbEntity
  8
0
  6
Continuous
 62
     0
370
     0
100
AcDbSpline
210
0.0
220
0.0
230
1.0
 70
     8
 71
     3
 72
    14
 73
    10
 74
     0
 42
0.000000001
 43
0.0
 40
0.0
 40
0.0
 40
0.0
 40
0.0
 40
1.382864170633253
 40
2.767013309008378
 40
4.153480982412727
 40
5.543211805218738
 40
6.936725925118177
 40
8.334218231834114
 40
9.738528679551923
 40
9.738528679551923
 40
9.738528679551923
 40
9.738528679551923
 10
269.5162715850956
 20
4.620326281983317
 30
0.0
 10
269.5383708290315
 20
5.055308420714347
 30
0.0
 10
269.6290993176736
 20
5.913580719769449
 30
0.0
 10
269.9025779400956
 20
7.142825402113026
 30
0.0
 10
270.3114699949954
 20
8.297818126992333
 30
0.0
 10
270.8526053805327
 20
9.361939338950627
 30
0.0
 10
271.520348268624
 20
10.3212289698516
 30
0.0
 10
272.3078224080915
 20
11.16437941909654
 30
0.0
 10
272.9090357614722
 20
11.63797550392807
 30
0.0
 10
273.2266003272642
 20
11.85224990172343
 30
0.0
  0
ELLIPSE
  5
180
330
16A
100
AcDbEntity
  8
0
  6
Continuous
 62
     0
370
     0
100
AcDbEllipse
 10
265.548826
 20
6.336808
 30
0.0
 11
1.499896297008012
 21
-0.01763797668678764
 31
0.0
210
0.0
220
0.0
230
-1.0
 40
0.299766
 41
2.300736721277192
 42
3.141593797375379
  0
ELLIPSE
  5
181
330
16A
100
AcDbEntity
  8
0
  6
Continuous
 62
     0
370
     0
100
AcDbEllipse
 10
266.599674
 20
-38.103209
 30
0.0
 11
-0.4047803187515088
 21
-1.44435206703609
 31
0.0
210
0.0
220
0.0
230
-1.0
 40
0.587955
 41
6.282994645681071
 42
7.454656355167327
  0
ELLIPSE
  5
182
330
16A
100
AcDbEntity
  8
0
  6
Continuous
 62
     0
370
     0
100
AcDbEllipse
 10
268.467798
 20
-33.540369
 30
0.0
 11
-1.498241238823415
 21
0.07261673559830878
 31
0.0
210
0.0
220
0.0
230
1.0
 40
0.32642
 41
0.9480984970671393
 42
2.497387146555173
  0
ELLIPSE
  5
183
330
16A
100
AcDbEntity
  8
0
  6
Continuous
 62
     0
370
     0
100
AcDbEllipse
 10
262.887933
 20
15.350095
 30
0.0
 11
1.26606574783881
 21
0.8044112891732562
 31
0.0
210
0.0
220
0.0
230
1.0
 40
0.316686
 41
2.369332338105971
 42
3.142474693381236
  0
SPLINE
  5
184
330
16A
100
AcDbEntity
  8
0
  6
Continuous
 62
     0
370
     0
100
AcDbSpline
210
0.0
220
0.0
230
1.0
 70
     8
 71
     3
 72
    10
 73
     6
 74
     0
 42
0.000000001
 43
0.0
 40
0.0
 40
0.0
 40
0.0
 40
0.0
 40
0.7617425968812922
 40
1.523374142791745
 40
2.284894637731373
 40
2.284894637731373
 40
2.284894637731373
 40
2.284894637731373
 10
269.5162715850956
 20
4.620326281983303
 30
0.0
 10
269.7225058554149
 20
4.562676937750773
 30
0.0
 10
270.2210812810735
 20
4.477684044493479
 30
0.0
 10
271.0049349841347
 20
4.480985691806474
 30
0.0
 10
271.4256537842262
 20
4.569838205766906
 30
0.0
 10
271.5795650968278
 20
4.628989744087214
 30
0.0
  0
ELLIPSE
  5
185
330
16A
100
AcDbEntity
  8
0
  6
Continuous
 62
     0
370
     0
100
AcDbEllipse
 10
265.087139
 20
-32.592941
 30
0.0
 11
-1.499875166101973
 21
0.01935164361426424
 31
0.0
210
0.0
220
0.0
230
1.0
 40
0.301164
 41
6.283183036773133
 42
7.141386359928875
  0
ELLIPSE
  5
186
330
16A
100
AcDbEntity
  8
0
  6
Continuous
 62
     0
370
     0
100
AcDbEllipse
 10
274.005295
 20
12.234473
 30
0.0
 11
-0.8608109183843732
 21
1.228415468312829
 31
0.0
210
0.0
220
0.0
230
1.0
 40
0.573656
 41
1.481441526401963
 42
2.967183822569654
  0
SPLINE
  5
187
330
16A
100
AcDbEntity
  8
0
  6
Continuous
 62
     0
370
     0
100
AcDbSpline
210
0.0
220
0.0
230
1.0
 70
     8
 71
     9
 72
    35
 73
    25
 74
     0
 42
0.000000001
 43
0.0
 40
0.2499999949532705
 40
0.2499999949532705
 40
0.2499999949532705
 40
0.2499999949532705
 40
0.2499999949532705
 40
0.2499999949532705
 40
0.2499999949532705
 40
0.2499999949532705
 40
0.2499999949532705
 40
0.2499999949532705
 40
0.37499999475916
 40
0.37499999475916
 40
0.37499999475916
 40
0.37499999475916
 40
0.37499999475916
 40
0.499999995807328
 40
0.499999995807328
 40
0.499999995807328
 40
0.499999995807328
 40
0.499999995807328
 40
0.749999997903664
 40
0.749999997903664
 40
0.749999997903664
 40
0.749999997903664
 40
0.749999997903664
 40
0.8310317690527387
 40
0.8310317690527387
 40
0.8310317690527387
 40
0.8310317690527387
 40
0.8310317690527387
 40
0.8310317690527387
 40
0.8310317690527387
 40
0.8310317690527387
 40
0.8310317690527387
 40
0.8310317690527387
 10
272.5676715288995
 20
-32.12085228876435
 30
0.0
 10
272.5394720784863
 20
-32.16798480829035
 30
0.0
 10
272.5039239514154
 20
-32.21449003777146
 30
0.0
 10
272.46187442068
 20
-32.26030831446834
 30
0.0
 10
272.414095022965
 20
-32.30542205888045
 30
0.0
 10
272.3710599946836
 20
-32.35098107079794
 30
0.0
 10
272.2795331437892
 20
-32.44158194237922
 30
0.0
 10
272.1819597752544
 20
-32.53141741236779
 30
0.0
 10
272.0777356360998
 20
-32.62035449031922
 30
0.0
 10
271.9663774026461
 20
-32.70825736692921
 30
0.0
 10
271.9088637675447
 20
-32.75193343646836
 30
0.0
 10
271.7306996050301
 20
-32.8820867879136
 30
0.0
 10
271.5354167426755
 20
-33.00947861135938
 30
0.0
 10
271.3226072660474
 20
-33.13373709727087
 30
0.0
 10
271.0928485312306
 20
-33.25463257082094
 30
0.0
 10
270.9372148600238
 20
-33.33462540736686
 30
0.0
 10
270.7244897703935
 20
-33.43918888634271
 30
0.0
 10
270.5030559151319
 20
-33.54180452232645
 30
0.0
 10
270.2730589065416
 20
-33.64239279372895
 30
0.0
 10
270.0348058469723
 20
-33.74091825407316
 30
0.0
 10
269.9762455311438
 20
-33.76498041697109
 30
0.0
 10
269.917246151857
 20
-33.7889309663209
 30
0.0
 10
269.8575910162608
 20
-33.81270877943926
 30
0.0
 10
269.7972567930961
 20
-33.83630556114556
 30
0.0
 10
269.7363641565135
 20
-33.85975267950518
 30
0.0
  0
ELLIPSE
  5
188
330
16A
100
AcDbEntity
  8
0
  6
Continuous
 62
     0
370
    30
100
AcDbEllipse
 10
292.113283
 20
30.267943
 30
0.0
 11
10.26723172508414
 21
-28.18836555572932
 31
0.0
210
0.0
220
0.0
230
1.0
 40
0.745261
 41
0.0000000023018556
 42
3.14159265589165
  0
ELLIPSE
  5
189
330
16A
100
AcDbEntity
  8
0
  6
Continuous
 62
     0
370
     0
100
AcDbEllipse
 10
288.542186
 20
28.967219
 30
0.0
 11
10.19878351256357
 21
-28.00044311589071
 31
0.0
210
0.0
220
0.0
230
1.0
 40
0.745261
 41
5.253199344493455
 42
10.50541077447902
  0
ELLIPSE
  5
18A
330
16A
100
AcDbEntity
  8
0
  6
Continuous
 62
     0
370
     0
100
AcDbEllipse
 10
288.542186
 20
28.967219
 30
0.0
 11
10.19878351256357
 21
-28.00044311589071
 31
0.0
210
0.0
220
0.0
230
1.0
 40
0.745261
 41
4.222225467299438
 42
4.27953520531474
  0
ELLIPSE
  5
18B
330
16A
100
AcDbEntity
  8
0
  6
Continuous
 62
     0
370
     0
100
AcDbEllipse
 10
288.667487
 20
29.012859
 30
0.0
 11
10.26723172508408
 21
-28.18836555572917
 31
0.0
210
0.0
220
0.0
230
1.0
 40
0.745261
 41
0.0000000023018565
 42
3.141592655890539
  0
LINE
  5
18C
330
16A
100
AcDbEntity
  8
0
  6
Continuous
 62
     0
370
    30
100
AcDbLine
 10
298.934719
 20
0.824493
 30
0.0
 11
302.380515
 21
2.079578
 31
0.0
  0
LINE
  5
18D
330
16A
100
AcDbEntity
  8
0
  6
Continuous
 62
     0
370
    30
100
AcDbLine
 10
278.400256
 20
57.201224
 30
0.0
 11
281.846051
 21
58.456309
 31
0.0
  0
SPLINE
  5
18E
330
16A
100
AcDbEntity
  8
0
  6
Continuous
 62
     0
370
    30
100
AcDbSpline
210
0.0
220
0.0
230
1.0
 70
     8
 71
     3
 72
    15
 73
    11
 74
     0
 42
0.000000001
 43
0.0
 40
0.0
 40
0.0
 40
0.0
 40
0.0
 40
2.51466564190342
 40
6.538691180572356
 40
11.56987717753688
 40
16.62670519125815
 40
21.37505860316908
 40
26.23757608734808
 40
30.05454690485934
 40
32.39815796666047
 40
32.39815796666047
 40
32.39815796666047
 40
32.39815796666047
 10
265.2557014182551
 20
35.49464264171326
 30
0.0
 10
265.2789396726089
 20
36.29038439466072
 30
0.0
 10
265.4107227745174
 20
38.34082091155551
 30
0.0
 10
265.9702717290482
 20
41.84434259355933
 30
0.0
 10
267.1913354377406
 20
45.82279417177836
 30
0.0
 10
269.0710187199264
 20
49.54182506423027
 30
0.0
 10
271.4518567808881
 20
52.67183863533938
 30
0.0
 10
274.04565872299
 20
54.97291211690165
 30
0.0
 10
276.4321566080906
 20
56.39852459950876
 30
0.0
 10
277.8504580977536
 20
57.00096786673095
 30
0.0
 10
278.4002555768009
 20
57.20122418035049
 30
0.0
  0
SPLINE
  5
18F
330
16A
100
AcDbEntity
  8
0
  6
Continuous
 62
     0
370
    30
100
AcDbSpline
210
0.0
220
0.0
230
1.0
 70
     8
 71
     3
 72
     8
 73
     4
 74
     0
 42
0.000000001
 43
0.0
 40
59.97211139339356
 40
59.97211139339356
 40
59.97211139339356
 40
59.97211139339356
 40
61.76071911330632
 40
61.76071911330632
 40
61.76071911330632
 40
61.76071911330632
 10
265.2477369523987
 20
33.7858914587646
 30
0.0
 10
265.2365200560409
 20
34.3587546301674
 30
0.0
 10
265.2391750298061
 20
34.92873364036921
 30
0.0
 10
265.2557014182551
 20
35.49464264171297
 30
0.0
  0
SPLINE
  5
190
330
16A
100
AcDbEntity
  8
0
  6
Continuous
 62
     0
370
    30
100
AcDbSpline
210
0.0
220
0.0
230
1.0
 70
     8
 71
     3
 72
    13
 73
     9
 74
     0
 42
0.000000001
 43
0.0
 40
0.0
 40
0.0
 40
0.0
 40
0.0
 40
3.507164527489794
 40
9.508761110575605
 40
14.2043105619
 40
20.36531450042419
 40
27.11000558315278
 40
30.90795655970951
 40
30.90795655970951
 40
30.90795655970951
 40
30.90795655970951
 10
298.9347191236822
 20
0.824493104118524
 30
0.0
 10
298.1122237570674
 20
0.5249102643164818
 30
0.0
 10
295.8161628351187
 20
-0.1130939279012537
 30
0.0
 10
292.1945458926976
 20
-0.3366889526650354
 30
0.0
 10
287.7919755463883
 20
0.3787425280872085
 30
0.0
 10
283.2164397920983
 20
2.142145659156419
 30
0.0
 10
279.088554101581
 20
4.888034043687485
 30
0.0
 10
276.695338907272
 20
7.105474667748868
 30
0.0
 10
275.8673792211112
 20
7.96038801368704
 30
0.0
  0
SPLINE
  5
191
330
16A
100
AcDbEntity
  8
0
  6
Continuous
 62
     0
370
    30
100
AcDbSpline
210
0.0
220
0.0
230
1.0
 70
     8
 71
     3
 72
    18
 73
    14
 74
     0
 42
0.000000001
 43
0.0
 40
0.0
 40
0.0
 40
0.0
 40
0.0
 40
1.378690037403675
 40
3.434122606891686
 40
6.190713008222398
 40
8.800226813814964
 40
10.90142410104816
 40
12.80004228401394
 40
15.96345387184194
 40
18.42142304756807
 40
20.24368386965731
 40
22.23076745110919
 40
23.75542276539133
 40
23.75542276539133
 40
23.75542276539133
 40
23.75542276539133
 10
261.621868091435
 20
14.54568451788007
 30
0.0
 10
261.3858241639845
 20
14.91719383749274
 30
0.0
 10
260.8351441712475
 20
15.87902238766593
 30
0.0
 10
260.017357411233
 20
17.74581539926383
 30
0.0
 10
259.3416349298977
 20
20.13866931111312
 30
0.0
 10
259.0171163689036
 20
22.60363538819004
 30
0.0
 10
259.0118288117239
 20
24.74079837728314
 30
0.0
 10
259.267567433082
 20
26.95392401256498
 30
0.0
 10
259.8836673445628
 20
29.07412402633346
 30
0.0
 10
260.8823457555269
 20
30.84956674151644
 30
0.0
 10
261.9727988449634
 20
32.0876274793138
 30
0.0
 10
263.080497620922
 20
32.91201760977495
 30
0.0
 10
263.9006550457231
 20
33.29519018241393
 30
0.0
 10
264.2694195904543
 20
33.42954076792293
 30
0.0
  0
SPLINE
  5
192
330
16A
100
AcDbEntity
  8
0
  6
Continuous
 62
     0
370
    30
100
AcDbSpline
210
0.0
220
0.0
230
1.0
 70
     8
 71
     3
 72
    11
 73
     7
 74
     0
 42
0.000000001
 43
0.0
 40
0.0
 40
0.0
 40
0.0
 40
0.0
 40
1.867122929531799
 40
4.559123516108696
 40
7.000376438881369
 40
8.83297964893216
 40
8.83297964893216
 40
8.83297964893216
 40
8.83297964893216
 10
264.0488791993513
 20
6.354441003134006
 30
0.0
 10
264.0557748539968
 20
6.940621670648262
 30
0.0
 10
263.972179365251
 20
8.41107022582765
 30
0.0
 10
263.4699643112302
 20
10.69951612487974
 30
0.0
 10
262.6046620305002
 20
12.86012543479109
 30
0.0
 10
261.9290507875917
 20
14.06221054644188
 30
0.0
 10
261.6218684363112
 20
14.54568366488595
 30
0.0
  0
SPLINE
  5
193
330
16A
100
AcDbEntity
  8
0
  6
Continuous
 62
     0
370
    30
100
AcDbSpline
210
0.0
220
0.0
230
1.0
 70
     8
 71
     3
 72
    12
 73
     8
 74
     0
 42
0.000000001
 43
0.0
 40
0.0
 40
0.0
 40
0.0
 40
0.0
 40
0.6227571425210274
 40
1.130467259349143
 40
1.6570339636007
 40
2.019036999052191
 40
2.40624387441544
 40
2.40624387441544
 40
2.40624387441544
 40
2.40624387441544
 10
266.1948957368739
 20
-39.54756162573263
 30
0.0
 10
266.3804779041944
 20
-39.59957104394932
 30
0.0
 10
266.7260622924384
 20
-39.66472461765456
 30
0.0
 10
267.2436343525924
 20
-39.66810119093963
 30
0.0
 10
267.6719258369173
 20
-39.59589346154353
 30
0.0
 10
268.0510294314539
 20
-39.47022198303159
 30
0.0
 10
268.2604301907546
 20
-39.36879645917946
 30
0.0
 10
268.3650899824292
 20
-39.30961979519929
 30
0.0
  0
SPLINE
  5
194
330
16A
100
AcDbEntity
  8
0
  6
Continuous
 62
     0
370
    30
100
AcDbSpline
210
0.0
220
0.0
230
1.0
 70
     8
 71
     3
 72
    25
 73
    21
 74
     0
 42
0.000000001
 43
0.0
 40
0.0
 40
0.0
 40
0.0
 40
0.0
 40
0.5404604190139741
 40
0.9887068097290878
 40
1.625433710956492
 40
1.873651701470161
 40
2.243279711529838
 40
2.361653203343148
 40
2.594770115760898
 40
2.864638445898142
 40
3.124800050800843
 40
3.371661090060656
 40
3.793232544494379
 40
4.204721617144761
 40
4.808020883910529
 40
5.451664872512555
 40
5.858934700883698
 40
6.663905772740396
 40
7.066993926485342
 40
8.395622095342882
 40
8.395622095342882
 40
8.395622095342882
 40
8.395622095342882
 10
266.1948940980379
 20
-39.54756116644838
 30
0.0
 10
266.0337800523464
 20
-39.50240888203003
 30
0.0
 10
265.7431462208231
 20
-39.39679054878646
 30
0.0
 10
265.2886763560761
 20
-39.15472764397249
 30
0.0
 10
264.9459871765101
 20
-38.89850385367543
 30
0.0
 10
264.6517018249713
 20
-38.61847887065351
 30
0.0
 10
264.4917967846512
 20
-38.43962017526646
 30
0.0
 10
264.3452438732401
 20
-38.25507385127514
 30
0.0
 10
264.2248566511371
 20
-38.09100669155377
 30
0.0
 10
264.0872133491383
 20
-37.87914549593841
 30
0.0
 10
263.9663027012904
 20
-37.65023892621704
 30
0.0
 10
263.8475693428018
 20
-37.36418514768771
 30
0.0
 10
263.7452144814662
 20
-37.01823888753554
 30
0.0
 10
263.6569422506448
 20
-36.54879492461695
 30
0.0
 10
263.6049740505047
 20
-36.00504349776048
 30
0.0
 10
263.5899266088279
 20
-35.46974344580391
 30
0.0
 10
263.5821391282245
 20
-34.87515896980305
 30
0.0
 10
263.5786733168523
 20
-34.35850558100258
 30
0.0
 10
263.577908023088
 20
-33.54834753558369
 30
0.0
 10
263.5818087095945
 20
-32.99638690157484
 30
0.0
 10
263.5872637182243
 20
-32.57358912134293
 30
0.0
  0
SPLINE
  5
195
330
16A
100
AcDbEntity
  8
0
  6
Continuous
 62
     0
370
    30
100
AcDbSpline
210
0.0
220
0.0
230
1.0
 70
     8
 71
     3
 72
     9
 73
     5
 74
     0
 42
0.000000001
 43
0.0
 40
0.0
 40
0.0
 40
0.0
 40
0.0
 40
22.4905351624586
 40
40.81202517930553
 40
40.81202517930553
 40
40.81202517930553
 40
40.81202517930553
 10
263.5872637181492
 20
-32.57358912717006
 30
0.0
 10
263.679489518491
 20
-25.42550442908526
 30
0.0
 10
263.832359499009
 20
-12.44977493394163
 30
0.0
 10
263.9804196799462
 20
0.5285052911952519
 30
0.0
 10
264.048929615478
 20
6.354445562821589
 30
0.0
  0
SPLINE
  5
196
330
16A
100
AcDbEntity
  8
0
  6
Continuous
 62
     0
370
    30
100
AcDbSpline
210
0.0
220
0.0
230
1.0
 70
     8
 71
     3
 72
     9
 73
     5
 74
     0
 42
0.000000001
 43
0.0
 40
0.0
 40
0.0
 40
0.0
 40
0.0
 40
21.93138998617603
 40
38.03752691554184
 40
38.03752691554184
 40
38.03752691554184
 40
38.03752691554184
 10
274.935447165091
 20
4.333396393279237
 30
0.0
 10
274.4949345880235
 20
-2.636737594581952
 30
0.0
 10
273.7397768888207
 20
-14.72751268345659
 30
0.0
 10
272.960803670868
 20
-26.83319259640668
 30
0.0
 10
272.6215142661015
 20
-31.96230189365001
 30
0.0
  0
SPLINE
  5
197
330
16A
100
AcDbEntity
  8
0
  6
Continuous
 62
     0
370
    30
100
AcDbSpline
210
0.0
220
0.0
230
1.0
 70
     8
 71
     3
 72
    24
 73
    20
 74
     0
 42
0.000000001
 43
0.0
 40
0.0071693385277616
 40
0.0071693385277616
 40
0.0071693385277616
 40
0.0071693385277616
 40
0.2981792079366243
 40
0.8952769473510254
 40
1.492976283070356
 40
2.092282876381669
 40
2.694261667426209
 40
3.301459480377095
 40
3.608239121013835
 40
3.911131945586863
 40
4.215456320044072
 40
4.522960665389718
 40
4.8319823730794
 40
5.446844463396762
 40
5.759459112049566
 40
6.076012119186138
 40
6.40469036092878
 40
6.646521855384018
 40
7.072212147082682
 40
7.072212147082682
 40
7.072212147082682
 40
7.072212147082682
 10
268.3687324201363
 20
-39.30756018400426
 30
0.0
 10
268.4233840153014
 20
-39.27663176000431
 30
0.0
 10
268.5921820832261
 20
-39.17934558561935
 30
0.0
 10
268.8742349487711
 20
-39.00734182639243
 30
0.0
 10
269.2257697062097
 20
-38.77324690987709
 30
0.0
 10
269.577208596814
 20
-38.51547946276823
 30
0.0
 10
269.9352660759538
 20
-38.22449660344389
 30
0.0
 10
270.2355700341063
 20
-37.9503925307334
 30
0.0
 10
270.4721005550916
 20
-37.71238693074199
 30
0.0
 10
270.645861138741
 20
-37.52542341951466
 30
0.0
 10
270.8144296538347
 20
-37.33146472767934
 30
0.0
 10
270.9811930647563
 20
-37.12521297943091
 30
0.0
 10
271.1949023864745
 20
-36.83995367296748
 30
0.0
 10
271.3970247584563
 20
-36.53718278962452
 30
0.0
 10
271.587665869706
 20
-36.21438124559449
 30
0.0
 10
271.7265772658068
 20
-35.95853194238685
 30
0.0
 10
271.8499611578572
 20
-35.71142294553001
 30
0.0
 10
271.9840179412307
 20
-35.4176019842257
 30
0.0
 10
272.0663612713965
 20
-35.21159033125982
 30
0.0
 10
272.1145465839895
 20
-35.07860463004896
 30
0.0
  0
SPLINE
  5
198
330
16A
100
AcDbEntity
  8
0
  6
Continuous
 62
     0
370
    30
100
AcDbSpline
210
0.0
220
0.0
230
1.0
 70
     8
 71
     3
 72
    13
 73
     9
 74
     0
 42
0.000000001
 43
0.0
 40
0.0577100353480276
 40
0.0577100353480276
 40
0.0577100353480276
 40
0.0577100353480276
 40
0.5945335510895174
 40
1.188688924376967
 40
2.042984941685087
 40
2.67758619325739
 40
2.962484403466137
 40
3.246950128658099
 40
3.246950128658099
 40
3.246950128658099
 40
3.246950128658099
 10
272.1338676509916
 20
-35.0245223826203
 30
0.0
 10
272.193148729676
 20
-34.85621313567802
 30
0.0
 10
272.30398358986
 20
-34.49452888731203
 30
0.0
 10
272.4441016633706
 20
-33.85565762302024
 30
0.0
 10
272.532192065963
 20
-33.1850414988839
 30
0.0
 10
272.5771774203394
 20
-32.61876137493763
 30
0.0
 10
272.6035845873909
 20
-32.23453585179411
 30
0.0
 10
272.6153650243906
 20
-32.05249578597695
 30
0.0
 10
272.6215186598055
 20
-31.9622341607599
 30
0.0
  0
ARC
  5
199
330
16A
100
AcDbEntity
  8
0
  6
Continuous
 62
     0
370
    30
100
AcDbCircle
 10
284.909971
 20
3.704174
 30
0.0
 40
9.994363146014017
100
AcDbArc
 50
110.040248
 51
176.389288
  0
LINE
  5
19A
330
16A
100
AcDbEntity
  8
0
  6
Continuous
 62
     0
370
    30
100
AcDbLine
 10
264.270912
 20
33.430096
 30
0.0
 11
283.700315
 21
40.506994
 31
0.0
  0
LINE
  5
19B
330
16A
100
AcDbEntity
  8
0
  6
Continuous
 62
     0
370
    30
100
AcDbLine
 10
281.484843
 20
13.093316
 30
0.0
 11
292.256341
 21
17.016689
 31
0.0
  0
ENDBLK
  5
19D
330
16A
100
AcDbEntity
  8
0
100
AcDbBlockEnd
  0
ENDSEC
  0
SECTION
  2
ENTITIES
  0
INSERT
  5
98
330
1F
100
AcDbEntity
  8
0
  6
Continuous
 62
     7
370
     0
100
AcDbBlockReference
  2
a
 10
114.983696
 20
94.937828
 30
0.0
  0
INSERT
  5
CB
330
1F
100
AcDbEntity
  8
0
  6
Continuous
 62
     7
370
     0
100
AcDbBlockReference
  2
b
 10
41.293682
 20
0.0
 30
0.0
  0
INSERT
  5
101
330
1F
100
AcDbEntity
  8
0
  6
Continuous
 62
     7
370
     0
100
AcDbBlockReference
  2
c
 10
209.872269
 20
0.0
 30
0.0
  0
INSERT
  5
11F
330
1F
100
AcDbEntity
  8
0
  6
Continuous
 62
     7
370
     0
100
AcDbBlockReference
  2
d
 10
-0.000015
 20
70.325836
 30
0.0
  0
INSERT
  5
169
330
1F
100
AcDbEntity
  8
0
  6
Continuous
 62
     7
370
     0
100
AcDbBlockReference
  2
e
 10
-0.000015
 20
188.781586
 30
0.0
  0
INSERT
  5
19E
330
1F
100
AcDbEntity
  8
0
  6
Continuous
 62
     7
370
     0
100
AcDbBlockReference
  2
f
 10
254.886688
 20
-44.200989
 30
0.0
  0
ENDSEC
  0
SECTION
  2
OBJECTS
  0
DICTIONARY
  5
C
330
0
100
AcDbDictionary
281
     1
  3
ACAD_GROUP
350
D
  3
ACAD_LAYOUT
350
1A
  3
ACAD_MATERIAL
350
43
  3
ACAD_MLEADERSTYLE
350
6B
  3
ACAD_MLINESTYLE
350
17
  3
ACAD_PLOTSETTINGS
350
19
  3
ACAD_PLOTSTYLENAME
350
E
  3
ACAD_SCALELIST
350
47
  3
ACAD_TABLESTYLE
350
69
  3
ACAD_VISUALSTYLE
350
2A
  3
AcDbVariableDictionary
350
19F
  0
DICTIONARY
  5
1AA
330
8
100
AcDbDictionary
280
     1
281
     1
  3
ACAD_XREC_ROUNDTRIP
360
1AB
  0
DICTIONARY
  5
D
102
{ACAD_REACTORS
330
C
102
}
330
C
100
AcDbDictionary
281
     1
  0
DICTIONARY
  5
1A
102
{ACAD_REACTORS
330
C
102
}
330
C
100
AcDbDictionary
281
     1
  3
Layout1
350
1E
  3
Layout2
350
26
  3
Model
350
22
  0
DICTIONARY
  5
43
102
{ACAD_REACTORS
330
C
102
}
330
C
100
AcDbDictionary
281
     1
  3
ByBlock
350
45
  3
ByLayer
350
44
  3
Global
350
46
  0
DICTIONARY
  5
6B
102
{ACAD_REACTORS
330
C
102
}
330
C
100
AcDbDictionary
281
     1
  3
Standard
350
6C
  0
DICTIONARY
  5
17
102
{ACAD_REACTORS
330
C
102
}
330
C
100
AcDbDictionary
281
     1
  3
Standard
350
18
  0
DICTIONARY
  5
19
102
{ACAD_REACTORS
330
C
102
}
330
C
100
AcDbDictionary
281
     1
  0
ACDBDICTIONARYWDFLT
  5
E
102
{ACAD_REACTORS
330
C
102
}
330
C
100
AcDbDictionary
281
     1
  3
Normal
350
F
100
AcDbDictionaryWithDefault
340
F
  0
DICTIONARY
  5
47
102
{ACAD_REACTORS
330
C
102
}
330
C
100
AcDbDictionary
281
     1
  3
A0
350
48
  3
A1
350
49
  3
A2
350
4A
  3
A3
350
4B
  3
A4
350
4C
  3
A5
350
4D
  3
A6
350
4E
  3
A7
350
4F
  3
A8
350
50
  3
A9
350
51
  3
B0
350
52
  3
B1
350
53
  3
B2
350
54
  3
B3
350
55
  3
B4
350
56
  3
B5
350
57
  3
B6
350
58
  3
B7
350
59
  3
B8
350
5A
  3
B9
350
5B
  3
C0
350
5C
  3
C1
350
5D
  3
C2
350
5E
  3
C3
350
5F
  3
C4
350
60
  3
C5
350
61
  3
C6
350
62
  3
C7
350
63
  3
C8
350
64
  3
C9
350
65
  3
D0
350
66
  3
D1
350
67
  3
D2
350
68
  0
DICTIONARY
  5
69
102
{ACAD_REACTORS
330
C
102
}
330
C
100
AcDbDictionary
281
     1
  3
Standard
350
6A
  0
DICTIONARY
  5
2A
102
{ACAD_REACTORS
330
C
102
}
330
C
100
AcDbDictionary
281
     1
  3
2dWireframe
350
2F
  3
Basic
350
32
  3
Brighten
350
36
  3
ColorChange
350
3A
  3
Conceptual
350
34
  3
Dim
350
35
  3
EdgeColorOff
350
3D
  3
Facepattern
350
39
  3
Flat
350
2B
  3
FlatWithEdges
350
2C
  3
Gouraud
350
2D
  3
GouraudWithEdges
350
2E
  3
Hidden
350
31
  3
JitterOff
350
3B
  3
Linepattern
350
38
  3
OverhangOff
350
3C
  3
Realistic
350
33
  3
Shaded
350
42
  3
Shaded with edges
350
41
  3
Shades of Gray
350
3E
  3
Sketchy
350
3F
  3
Thicken
350
37
  3
Wireframe
350
30
  3
X-Ray
350
40
  0
DICTIONARY
  5
19F
102
{ACAD_REACTORS
330
C
102
}
330
C
100
AcDbDictionary
281
     1
  3
CANNOSCALE
350
1AC
  3
CENTEREXE
350
1A6
  3
CENTERLTYPEFILE
350
1A7
  3
CMLEADERSTYLE
350
1A1
  3
CTABLESTYLE
350
1A0
  3
DIMASSOC
350
1A8
  3
HIDETEXT
350
1A9
  3
MSLTSCALE
350
1AD
  3
PSOLHEIGHT
350
1A3
  3
PSOLWIDTH
350
1A2
  0
XRECORD
  5
1AB
102
{ACAD_REACTORS
330
1AA
102
}
330
1AA
100
AcDbXrecord
280
     1
102
VTR_0.000_0.000_1.000_1.000_VISUALSTYLE
340
2F
102
VTR_0.000_0.000_1.000_1.000_GRIDDISPLAY
 70
     3
102
VTR_0.000_0.000_1.000_1.000_GRIDMAJOR
 70
     5
102
VTR_0.000_0.000_1.000_1.000_DEFAULTLIGHTING
280
     1
102
VTR_0.000_0.000_1.000_1.000_DEFAULTLIGHTINGTYPE
 70
     1
102
VTR_0.000_0.000_1.000_1.000_BRIGHTNESS
141
0.0
102
VTR_0.000_0.000_1.000_1.000_CONTRAST
142
0.0
  0
LAYOUT
  5
1E
102
{ACAD_REACTORS
330
1A
102
}
330
1A
100
AcDbPlotSettings
  1

  2
none_device
  4

  6

 40
0.0
 41
0.0
 42
0.0
 43
0.0
 44
0.0
 45
0.0
 46
0.0
 47
0.0
 48
0.0
 49
0.0
140
0.0
141
0.0
142
1.0
143
1.0
 70
   688
 72
     1
 73
     0
 74
     5
  7

 75
    16
147
1.0
148
0.0
149
0.0
100
AcDbLayout
  1
Layout1
 70
     1
 71
     1
 10
0.0
 20
0.0
 11
420.0
 21
297.0
 12
0.0
 22
0.0
 32
0.0
 14
1.000000E+20
 24
1.000000E+20
 34
1.000000E+20
 15
-1.000000E+20
 25
-1.000000E+20
 35
-1.000000E+20
146
0.0
 13
0.0
 23
0.0
 33
0.0
 16
1.0
 26
0.0
 36
0.0
 17
0.0
 27
1.0
 37
0.0
 76
     0
330
1B
  0
LAYOUT
  5
26
102
{ACAD_REACTORS
330
1A
102
}
330
1A
100
AcDbPlotSettings
  1

  2
none_device
  4

  6

 40
0.0
 41
0.0
 42
0.0
 43
0.0
 44
0.0
 45
0.0
 46
0.0
 47
0.0
 48
0.0
 49
0.0
140
0.0
141
0.0
142
1.0
143
1.0
 70
   688
 72
     1
 73
     0
 74
     5
  7

 75
    16
147
1.0
148
0.0
149
0.0
100
AcDbLayout
  1
Layout2
 70
     1
 71
     2
 10
0.0
 20
0.0
 11
0.0
 21
0.0
 12
0.0
 22
0.0
 32
0.0
 14
0.0
 24
0.0
 34
0.0
 15
0.0
 25
0.0
 35
0.0
146
0.0
 13
0.0
 23
0.0
 33
0.0
 16
1.0
 26
0.0
 36
0.0
 17
0.0
 27
1.0
 37
0.0
 76
     0
330
23
  0
LAYOUT
  5
22
102
{ACAD_REACTORS
330
1A
102
}
330
1A
100
AcDbPlotSettings
  1

  2
none_device
  4
Letter_(8.50_x_11.00_Inches)
  6

 40
6.35
 41
6.35
 42
6.350005
 43
6.350005
 44
215.9
 45
279.4
 46
0.0
 47
0.0
 48
0.0
 49
0.0
140
0.0
141
0.0
142
1.0
143
1.0
 70
  1712
 72
     1
 73
     0
 74
     0
  7

 75
     0
147
1.0
148
0.0
149
0.0
100
AcDbLayout
  1
Model
 70
     1
 71
     0
 10
-17.061745
 20
-51.130989
 11
315.492401
 21
289.214691
 12
0.0
 22
0.0
 32
0.0
 14
-17.061745
 24
-51.130989
 34
0.0
 15
315.492401
 25
289.214691
 35
0.0
146
0.0
 13
0.0
 23
0.0
 33
0.0
 16
1.0
 26
0.0
 36
0.0
 17
0.0
 27
1.0
 37
0.0
 76
     0
330
1F
331
29
  0
MATERIAL
  5
45
102
{ACAD_REACTORS
330
43
102
}
102
{ACAD_XDICTIONARY
360
1E0
102
}
330
43
100
AcDbMaterial
  1
ByBlock
  0
MATERIAL
  5
44
102
{ACAD_REACTORS
330
43
102
}
102
{ACAD_XDICTIONARY
360
1DE
102
}
330
43
100
AcDbMaterial
  1
ByLayer
  0
MATERIAL
  5
46
102
{ACAD_REACTORS
330
43
102
}
102
{ACAD_XDICTIONARY
360
1E2
102
}
330
43
100
AcDbMaterial
  1
Global
  0
MLEADERSTYLE
  5
6C
102
{ACAD_REACTORS
330
6B
102
}
102
{ACAD_XDICTIONARY
360
1E5
102
}
330
6B
100
AcDbMLeaderStyle
170
     2
171
     1
172
     0
 90
        2
 40
0.0
 41
0.0
173
     1
 91
-1056964608
340
14
 92
       -2
290
     1
 42
2.0
291
     1
 43
8.0
  3
Standard
341
0
 44
4.0
300

342
11
174
     1
178
     6
175
     1
176
     0
 93
-1056964608
 45
4.0
292
     0
297
     0
 46
4.0
343
0
 94
-1056964608
 47
1.0
 49
1.0
140
1.0
293
     1
141
0.0
294
     1
177
     0
142
1.0
295
     0
296
     0
143
3.75
1001
ACAD_MLEADERVER
1070
     2
  0
MLINESTYLE
  5
18
102
{ACAD_REACTORS
330
17
102
}
330
17
100
AcDbMlineStyle
  2
Standard
 70
     0
  3

 62
   256
 51
90.0
 52
90.0
 71
     2
 49
0.5
 62
   256
  6
BYLAYER
 49
-0.5
 62
   256
  6
BYLAYER
  0
ACDBPLACEHOLDER
  5
F
102
{ACAD_REACTORS
330
E
102
}
330
E
  0
SCALE
  5
48
102
{ACAD_REACTORS
330
47
102
}
330
47
100
AcDbScale
 70
     0
300
1:1
140
1.0
141
1.0
290
     1
  0
SCALE
  5
49
102
{ACAD_REACTORS
330
47
102
}
330
47
100
AcDbScale
 70
     0
300
1:2
140
1.0
141
2.0
290
     0
  0
SCALE
  5
4A
102
{ACAD_REACTORS
330
47
102
}
330
47
100
AcDbScale
 70
     0
300
1:4
140
1.0
141
4.0
290
     0
  0
SCALE
  5
4B
102
{ACAD_REACTORS
330
47
102
}
330
47
100
AcDbScale
 70
     0
300
1:5
140
1.0
141
5.0
290
     0
  0
SCALE
  5
4C
102
{ACAD_REACTORS
330
47
102
}
330
47
100
AcDbScale
 70
     0
300
1:8
140
1.0
141
8.0
290
     0
  0
SCALE
  5
4D
102
{ACAD_REACTORS
330
47
102
}
330
47
100
AcDbScale
 70
     0
300
1:10
140
1.0
141
10.0
290
     0
  0
SCALE
  5
4E
102
{ACAD_REACTORS
330
47
102
}
330
47
100
AcDbScale
 70
     0
300
1:16
140
1.0
141
16.0
290
     0
  0
SCALE
  5
4F
102
{ACAD_REACTORS
330
47
102
}
330
47
100
AcDbScale
 70
     0
300
1:20
140
1.0
141
20.0
290
     0
  0
SCALE
  5
50
102
{ACAD_REACTORS
330
47
102
}
330
47
100
AcDbScale
 70
     0
300
1:30
140
1.0
141
30.0
290
     0
  0
SCALE
  5
51
102
{ACAD_REACTORS
330
47
102
}
330
47
100
AcDbScale
 70
     0
300
1:40
140
1.0
141
40.0
290
     0
  0
SCALE
  5
52
102
{ACAD_REACTORS
330
47
102
}
330
47
100
AcDbScale
 70
     0
300
1:50
140
1.0
141
50.0
290
     0
  0
SCALE
  5
53
102
{ACAD_REACTORS
330
47
102
}
330
47
100
AcDbScale
 70
     0
300
1:100
140
1.0
141
100.0
290
     0
  0
SCALE
  5
54
102
{ACAD_REACTORS
330
47
102
}
330
47
100
AcDbScale
 70
     0
300
2:1
140
2.0
141
1.0
290
     0
  0
SCALE
  5
55
102
{ACAD_REACTORS
330
47
102
}
330
47
100
AcDbScale
 70
     0
300
4:1
140
4.0
141
1.0
290
     0
  0
SCALE
  5
56
102
{ACAD_REACTORS
330
47
102
}
330
47
100
AcDbScale
 70
     0
300
8:1
140
8.0
141
1.0
290
     0
  0
SCALE
  5
57
102
{ACAD_REACTORS
330
47
102
}
330
47
100
AcDbScale
 70
     0
300
10:1
140
10.0
141
1.0
290
     0
  0
SCALE
  5
58
102
{ACAD_REACTORS
330
47
102
}
330
47
100
AcDbScale
 70
     0
300
100:1
140
100.0
141
1.0
290
     0
  0
SCALE
  5
59
102
{ACAD_REACTORS
330
47
102
}
330
47
100
AcDbScale
 70
     0
300
1/128" = 1'-0"
140
0.007812
141
12.0
290
     0
  0
SCALE
  5
5A
102
{ACAD_REACTORS
330
47
102
}
330
47
100
AcDbScale
 70
     0
300
1/64" = 1'-0"
140
0.015625
141
12.0
290
     0
  0
SCALE
  5
5B
102
{ACAD_REACTORS
330
47
102
}
330
47
100
AcDbScale
 70
     0
300
1/32" = 1'-0"
140
0.03125
141
12.0
290
     0
  0
SCALE
  5
5C
102
{ACAD_REACTORS
330
47
102
}
330
47
100
AcDbScale
 70
     0
300
1/16" = 1'-0"
140
0.0625
141
12.0
290
     0
  0
SCALE
  5
5D
102
{ACAD_REACTORS
330
47
102
}
330
47
100
AcDbScale
 70
     0
300
3/32" = 1'-0"
140
0.09375
141
12.0
290
     0
  0
SCALE
  5
5E
102
{ACAD_REACTORS
330
47
102
}
330
47
100
AcDbScale
 70
     0
300
1/8" = 1'-0"
140
0.125
141
12.0
290
     0
  0
SCALE
  5
5F
102
{ACAD_REACTORS
330
47
102
}
330
47
100
AcDbScale
 70
     0
300
3/16" = 1'-0"
140
0.1875
141
12.0
290
     0
  0
SCALE
  5
60
102
{ACAD_REACTORS
330
47
102
}
330
47
100
AcDbScale
 70
     0
300
1/4" = 1'-0"
140
0.25
141
12.0
290
     0
  0
SCALE
  5
61
102
{ACAD_REACTORS
330
47
102
}
330
47
100
AcDbScale
 70
     0
300
3/8" = 1'-0"
140
0.375
141
12.0
290
     0
  0
SCALE
  5
62
102
{ACAD_REACTORS
330
47
102
}
330
47
100
AcDbScale
 70
     0
300
1/2" = 1'-0"
140
0.5
141
12.0
290
     0
  0
SCALE
  5
63
102
{ACAD_REACTORS
330
47
102
}
330
47
100
AcDbScale
 70
     0
300
3/4" = 1'-0"
140
0.75
141
12.0
290
     0
  0
SCALE
  5
64
102
{ACAD_REACTORS
330
47
102
}
330
47
100
AcDbScale
 70
     0
300
1" = 1'-0"
140
1.0
141
12.0
290
     0
  0
SCALE
  5
65
102
{ACAD_REACTORS
330
47
102
}
330
47
100
AcDbScale
 70
     0
300
1-1/2" = 1'-0"
140
1.5
141
12.0
290
     0
  0
SCALE
  5
66
102
{ACAD_REACTORS
330
47
102
}
330
47
100
AcDbScale
 70
     0
300
3" = 1'-0"
140
3.0
141
12.0
290
     0
  0
SCALE
  5
67
102
{ACAD_REACTORS
330
47
102
}
330
47
100
AcDbScale
 70
     0
300
6" = 1'-0"
140
6.0
141
12.0
290
     0
  0
SCALE
  5
68
102
{ACAD_REACTORS
330
47
102
}
330
47
100
AcDbScale
 70
     0
300
1'-0" = 1'-0"
140
12.0
141
12.0
290
     0
  0
TABLESTYLE
  5
6A
102
{ACAD_REACTORS
330
69
102
}
330
69
100
AcDbTableStyle
  3
Standard
 70
     0
 71
     0
 40
1.5
 41
1.5
280
     0
281
     0
  7
Standard
140
4.5
170
     2
 62
     0
 63
   257
283
     0
274
    -2
284
     1
 64
     0
275
    -2
285
     1
 65
     0
276
    -2
286
     1
 66
     0
277
    -2
287
     1
 67
     0
278
    -2
288
     1
 68
     0
279
    -2
289
     1
 69
     0
  7
Standard
140
6.0
170
     5
 62
     0
 63
   257
283
     0
274
    -2
284
     1
 64
     0
275
    -2
285
     1
 65
     0
276
    -2
286
     1
 66
     0
277
    -2
287
     1
 67
     0
278
    -2
288
     1
 68
     0
279
    -2
289
     1
 69
     0
  7
Standard
140
4.5
170
     5
 62
     0
 63
   257
283
     0
274
    -2
284
     1
 64
     0
275
    -2
285
     1
 65
     0
276
    -2
286
     1
 66
     0
277
    -2
287
     1
 67
     0
278
    -2
288
     1
 68
     0
279
    -2
289
     1
 69
     0
  0
VISUALSTYLE
  5
2F
102
{ACAD_REACTORS
330
2A
102
}
102
{ACAD_XDICTIONARY
360
1B6
102
}
330
2A
100
AcDbVisualStyle
  2
2dWireframe
 70
     4
 71
     0
 72
     2
 73
     0
 90
        0
 40
0.6
 41
30.0
 62
     5
 63
     7
 74
     1
 91
        4
 64
     7
 65
   257
 75
     1
175
     1
 42
1.0
 92
        0
 66
   257
 43
1.0
 76
     1
 77
     6
 78
     2
 67
     7
 79
     5
170
     0
171
     0
290
     0
174
     0
 93
        1
 44
0.0
173
     0
291
     0
 45
0.0
1001
ACAD
1000
AcDbSavedByObjectVersion
1070
     0
  0
VISUALSTYLE
  5
32
102
{ACAD_REACTORS
330
2A
102
}
102
{ACAD_XDICTIONARY
360
1BC
102
}
330
2A
100
AcDbVisualStyle
  2
Basic
 70
     7
 71
     1
 72
     0
 73
     1
 90
        0
 40
0.6
 41
30.0
 62
     5
 63
     7
 74
     0
 91
        4
 64
     7
 65
   257
 75
     1
175
     1
 42
1.0
 92
        8
 66
     7
 43
1.0
 76
     1
 77
     6
 78
     2
 67
     7
 79
     5
170
     0
171
     0
290
     0
174
     0
 93
        1
 44
0.0
173
     0
291
     1
 45
0.0
1001
ACAD
1000
AcDbSavedByObjectVersion
1070
     0
  0
VISUALSTYLE
  5
36
102
{ACAD_REACTORS
330
2A
102
}
102
{ACAD_XDICTIONARY
360
1C4
102
}
330
2A
100
AcDbVisualStyle
  2
Brighten
 70
    12
 71
     2
 72
     2
 73
     0
 90
        0
 40
0.6
 41
30.0
 62
     5
 63
     7
 74
     1
 91
        4
 64
     7
 65
   257
 75
     1
175
     1
 42
1.0
 92
        8
 66
     7
 43
1.0
 76
     1
 77
     6
 78
     2
 67
     7
 79
     5
170
     0
171
     0
290
     0
174
     0
 93
        1
 44
50.0
173
     0
291
     1
 45
0.0
1001
ACAD
1000
AcDbSavedByObjectVersion
1070
     0
  0
VISUALSTYLE
  5
3A
102
{ACAD_REACTORS
330
2A
102
}
102
{ACAD_XDICTIONARY
360
1CC
102
}
330
2A
100
AcDbVisualStyle
  2
ColorChange
 70
    16
 71
     2
 72
     2
 73
     3
 90
        0
 40
0.6
 41
30.0
 62
     5
 63
     8
 74
     1
 91
        4
 64
     7
 65
   257
 75
     1
175
     1
 42
1.0
 92
        8
 66
     8
 43
1.0
 76
     1
 77
     6
 78
     2
 67
     7
 79
     5
170
     0
171
     0
290
     0
174
     0
 93
        1
 44
0.0
173
     0
291
     1
 45
0.0
1001
ACAD
1000
AcDbSavedByObjectVersion
1070
     0
  0
VISUALSTYLE
  5
34
102
{ACAD_REACTORS
330
2A
102
}
102
{ACAD_XDICTIONARY
360
1C0
102
}
330
2A
100
AcDbVisualStyle
  2
Conceptual
 70
     9
 71
     3
 72
     2
 73
     0
 90
        0
 40
0.6
 41
30.0
 62
     5
 63
     7
 74
     2
 91
        2
 64
     7
 65
   257
 75
     1
175
     1
 42
179.0
 92
        8
 66
     7
 43
1.0
 76
     1
 77
     6
 78
     2
 67
     7
 79
     3
170
     0
171
     0
290
     0
174
     0
 93
        1
 44
0.0
173
     0
291
     0
 45
0.0
1001
ACAD
1000
AcDbSavedByObjectVersion
1070
     0
  0
VISUALSTYLE
  5
35
102
{ACAD_REACTORS
330
2A
102
}
102
{ACAD_XDICTIONARY
360
1C2
102
}
330
2A
100
AcDbVisualStyle
  2
Dim
 70
    11
 71
     2
 72
     2
 73
     0
 90
        0
 40
0.6
 41
30.0
 62
     5
 63
     7
 74
     1
 91
        4
 64
     7
 65
   257
 75
     1
175
     1
 42
1.0
 92
        8
 66
     7
 43
1.0
 76
     1
 77
     6
 78
     2
 67
     7
 79
     5
170
     0
171
     0
290
     0
174
     0
 93
        1
 44
-50.0
173
     0
291
     1
 45
0.0
1001
ACAD
1000
AcDbSavedByObjectVersion
1070
     0
  0
VISUALSTYLE
  5
3D
102
{ACAD_REACTORS
330
2A
102
}
102
{ACAD_XDICTIONARY
360
1D2
102
}
330
2A
100
AcDbVisualStyle
  2
EdgeColorOff
 70
    22
 71
     2
 72
     2
 73
     0
 90
        0
 40
0.6
 41
30.0
 62
     5
 63
     7
 74
     1
 91
        4
 64
     7
 65
   257
 75
     1
175
     1
 42
1.0
 92
        8
 66
     7
 43
1.0
 76
     1
 77
     6
 78
     2
 67
     7
 79
     5
170
     0
171
     0
290
     0
174
     0
 93
        1
 44
0.0
173
     0
291
     1
 45
0.0
1001
ACAD
1000
AcDbSavedByObjectVersion
1070
     0
  0
VISUALSTYLE
  5
39
102
{ACAD_REACTORS
330
2A
102
}
102
{ACAD_XDICTIONARY
360
1CA
102
}
330
2A
100
AcDbVisualStyle
  2
Facepattern
 70
    15
 71
     2
 72
     2
 73
     0
 90
        0
 40
0.6
 41
30.0
 62
     5
 63
     7
 74
     1
 91
        4
 64
     7
 65
   257
 75
     1
175
     1
 42
1.0
 92
        8
 66
     7
 43
1.0
 76
     1
 77
     6
 78
     2
 67
     7
 79
     5
170
     0
171
     0
290
     0
174
     0
 93
        1
 44
0.0
173
     0
291
     1
 45
0.0
1001
ACAD
1000
AcDbSavedByObjectVersion
1070
     0
  0
VISUALSTYLE
  5
2B
102
{ACAD_REACTORS
330
2A
102
}
102
{ACAD_XDICTIONARY
360
1AE
102
}
330
2A
100
AcDbVisualStyle
  2
Flat
 70
     0
 71
     2
 72
     1
 73
     1
 90
        2
 40
0.6
 41
30.0
 62
     5
 63
     7
 74
     0
 91
        0
 64
     7
 65
   257
 75
     1
175
     1
 42
1.0
 92
        8
 66
     7
 43
1.0
 76
     1
 77
     6
 78
     2
 67
     7
 79
     5
170
     0
171
     0
290
     0
174
     0
 93
       13
 44
0.0
173
     0
291
     1
 45
0.0
1001
ACAD
1000
AcDbSavedByObjectVersion
1070
     0
  0
VISUALSTYLE
  5
2C
102
{ACAD_REACTORS
330
2A
102
}
102
{ACAD_XDICTIONARY
360
1B0
102
}
330
2A
100
AcDbVisualStyle
  2
FlatWithEdges
 70
     1
 71
     2
 72
     1
 73
     1
 90
        2
 40
0.6
 41
30.0
 62
     5
 63
     7
 74
     1
 91
        0
 64
     7
 65
   257
 75
     1
175
     1
 42
1.0
 92
        0
 66
   257
 43
1.0
 76
     1
 77
     6
 78
     2
 67
     7
 79
     5
170
     0
171
     0
290
     0
174
     0
 93
       13
 44
0.0
173
     0
291
     1
 45
0.0
1001
ACAD
1000
AcDbSavedByObjectVersion
1070
     0
  0
VISUALSTYLE
  5
2D
102
{ACAD_REACTORS
330
2A
102
}
102
{ACAD_XDICTIONARY
360
1B2
102
}
330
2A
100
AcDbVisualStyle
  2
Gouraud
 70
     2
 71
     2
 72
     2
 73
     1
 90
        2
 40
0.6
 41
30.0
 62
     5
 63
     7
 74
     0
 91
        0
 64
     7
 65
   257
 75
     1
175
     1
 42
1.0
 92
        0
 66
     7
 43
1.0
 76
     1
 77
     6
 78
     2
 67
     7
 79
     5
170
     0
171
     0
290
     0
174
     0
 93
       13
 44
0.0
173
     0
291
     1
 45
0.0
1001
ACAD
1000
AcDbSavedByObjectVersion
1070
     0
  0
VISUALSTYLE
  5
2E
102
{ACAD_REACTORS
330
2A
102
}
102
{ACAD_XDICTIONARY
360
1B4
102
}
330
2A
100
AcDbVisualStyle
  2
GouraudWithEdges
 70
     3
 71
     2
 72
     2
 73
     1
 90
        2
 40
0.6
 41
30.0
 62
     5
 63
     7
 74
     1
 91
        0
 64
     7
 65
   257
 75
     1
175
     1
 42
1.0
 92
        0
 66
   257
 43
1.0
 76
     1
 77
     6
 78
     2
 67
     7
 79
     5
170
     0
171
     0
290
     0
174
     0
 93
       13
 44
0.0
173
     0
291
     1
 45
0.0
1001
ACAD
1000
AcDbSavedByObjectVersion
1070
     0
  0
VISUALSTYLE
  5
31
102
{ACAD_REACTORS
330
2A
102
}
102
{ACAD_XDICTIONARY
360
1BA
102
}
330
2A
100
AcDbVisualStyle
  2
Hidden
 70
     6
 71
     1
 72
     2
 73
     2
 90
        0
 40
0.6
 41
30.0
 62
     5
 63
     7
 74
     2
 91
        2
 64
     7
 65
   257
 75
     2
175
     1
 42
40.0
 92
        0
 66
   257
 43
1.0
 76
     1
 77
     6
 78
     2
 67
     7
 79
     3
170
     0
171
     0
290
     0
174
     0
 93
        1
 44
0.0
173
     0
291
     0
 45
0.0
1001
ACAD
1000
AcDbSavedByObjectVersion
1070
     0
  0
VISUALSTYLE
  5
3B
102
{ACAD_REACTORS
330
2A
102
}
102
{ACAD_XDICTIONARY
360
1CE
102
}
330
2A
100
AcDbVisualStyle
  2
JitterOff
 70
    20
 71
     2
 72
     2
 73
     0
 90
        0
 40
0.6
 41
30.0
 62
     5
 63
     7
 74
     1
 91
        4
 64
     7
 65
   257
 75
     1
175
     1
 42
1.0
 92
       10
 66
     7
 43
1.0
 76
     1
 77
     6
 78
     2
 67
     7
 79
     5
170
     0
171
     0
290
     0
174
     0
 93
        1
 44
0.0
173
     0
291
     1
 45
0.0
1001
ACAD
1000
AcDbSavedByObjectVersion
1070
     0
  0
VISUALSTYLE
  5
38
102
{ACAD_REACTORS
330
2A
102
}
102
{ACAD_XDICTIONARY
360
1C8
102
}
330
2A
100
AcDbVisualStyle
  2
Linepattern
 70
    14
 71
     2
 72
     2
 73
     0
 90
        0
 40
0.6
 41
30.0
 62
     5
 63
     7
 74
     1
 91
        4
 64
     7
 65
   257
 75
     7
175
     7
 42
1.0
 92
        8
 66
     7
 43
1.0
 76
     1
 77
     6
 78
     2
 67
     7
 79
     5
170
     0
171
     0
290
     0
174
     0
 93
        1
 44
0.0
173
     0
291
     1
 45
0.0
1001
ACAD
1000
AcDbSavedByObjectVersion
1070
     0
  0
VISUALSTYLE
  5
3C
102
{ACAD_REACTORS
330
2A
102
}
102
{ACAD_XDICTIONARY
360
1D0
102
}
330
2A
100
AcDbVisualStyle
  2
OverhangOff
 70
    21
 71
     2
 72
     2
 73
     0
 90
        0
 40
0.6
 41
30.0
 62
     5
 63
     7
 74
     1
 91
        4
 64
     7
 65
   257
 75
     1
175
     1
 42
1.0
 92
        9
 66
     7
 43
1.0
 76
     1
 77
     6
 78
     2
 67
     7
 79
     5
170
     0
171
     0
290
     0
174
     0
 93
        1
 44
0.0
173
     0
291
     1
 45
0.0
1001
ACAD
1000
AcDbSavedByObjectVersion
1070
     0
  0
VISUALSTYLE
  5
33
102
{ACAD_REACTORS
330
2A
102
}
102
{ACAD_XDICTIONARY
360
1BE
102
}
330
2A
100
AcDbVisualStyle
  2
Realistic
 70
     8
 71
     2
 72
     3
 73
     0
 90
        2
 40
0.6
 41
30.0
 62
     5
 63
     7
 74
     0
 91
        0
 64
     7
 65
   257
 75
     1
175
     1
 42
1.0
 92
        8
 66
   257
 43
1.0
 76
     1
 77
     6
 78
     2
 67
     7
 79
     3
170
     0
171
     0
290
     0
174
     0
 93
       13
 44
0.0
173
     0
291
     0
 45
0.0
1001
ACAD
1000
AcDbSavedByObjectVersion
1070
     0
  0
VISUALSTYLE
  5
42
102
{ACAD_REACTORS
330
2A
102
}
102
{ACAD_XDICTIONARY
360
1DC
102
}
330
2A
100
AcDbVisualStyle
  2
Shaded
 70
    27
 71
     2
 72
     2
 73
     1
 90
        2
 40
0.6
 41
30.0
 62
     5
 63
     7
 74
     0
 91
        4
 64
     7
 65
   257
 75
     1
175
     1
 42
1.0
 92
        8
 66
   257
 43
1.0
 76
     1
 77
     6
 78
     2
 67
     8
 79
     3
170
     0
171
     0
290
     0
174
     0
 93
        5
 44
0.0
173
     0
291
     0
 45
0.0
1001
ACAD
1000
AcDbSavedByObjectVersion
1070
     0
  0
VISUALSTYLE
  5
41
102
{ACAD_REACTORS
330
2A
102
}
102
{ACAD_XDICTIONARY
360
1DA
102
}
330
2A
100
AcDbVisualStyle
  2
Shaded with edges
 70
    26
 71
     2
 72
     2
 73
     1
 90
        2
 40
0.6
 41
30.0
 62
     5
 63
     7
 74
     1
 91
       10
 64
     7
 65
   257
 75
     2
175
     1
 42
1.0
 92
        8
 66
   257
 43
1.0
 76
     1
 77
     6
 78
     2
 67
     7
 79
     3
170
     0
171
     0
290
     0
174
     0
 93
        5
 44
0.0
173
     0
291
     0
 45
0.0
1001
ACAD
1000
AcDbSavedByObjectVersion
1070
     0
  0
VISUALSTYLE
  5
3E
102
{ACAD_REACTORS
330
2A
102
}
102
{ACAD_XDICTIONARY
360
1D4
102
}
330
2A
100
AcDbVisualStyle
  2
Shades of Gray
 70
    23
 71
     2
 72
     2
 73
     3
 90
        0
 40
0.6
 41
30.0
 62
     5
 63
     7
 74
     2
 91
        2
 64
     7
 65
     7
 75
     1
175
     1
 42
40.0
 92
        8
 66
     7
 43
1.0
 76
     1
 77
     6
 78
     2
 67
     7
 79
     3
170
     0
171
     0
290
     0
174
     0
 93
        1
 44
0.0
173
     0
291
     0
 45
0.0
1001
ACAD
1000
AcDbSavedByObjectVersion
1070
     0
  0
VISUALSTYLE
  5
3F
102
{ACAD_REACTORS
330
2A
102
}
102
{ACAD_XDICTIONARY
360
1D6
102
}
330
2A
100
AcDbVisualStyle
  2
Sketchy
 70
    24
 71
     1
 72
     2
 73
     2
 90
        0
 40
0.6
 41
30.0
 62
     5
 63
     7
 74
     2
 91
        2
 64
     7
 65
     7
 75
     1
175
     1
 42
40.0
 92
       11
 66
     7
 43
1.0
 76
     1
 77
     6
 78
     2
 67
     7
 79
     6
170
     0
171
     0
290
     0
174
     0
 93
        1
 44
0.0
173
     0
291
     0
 45
0.0
1001
ACAD
1000
AcDbSavedByObjectVersion
1070
     0
  0
VISUALSTYLE
  5
37
102
{ACAD_REACTORS
330
2A
102
}
102
{ACAD_XDICTIONARY
360
1C6
102
}
330
2A
100
AcDbVisualStyle
  2
Thicken
 70
    13
 71
     2
 72
     2
 73
     0
 90
        0
 40
0.6
 41
30.0
 62
     5
 63
     7
 74
     1
 91
        4
 64
     7
 65
   257
 75
     1
175
     1
 42
1.0
 92
       12
 66
     7
 43
1.0
 76
     1
 77
     6
 78
     2
 67
     7
 79
     5
170
     0
171
     0
290
     0
174
     0
 93
        1
 44
0.0
173
     0
291
     1
 45
0.0
1001
ACAD
1000
AcDbSavedByObjectVersion
1070
     0
  0
VISUALSTYLE
  5
30
102
{ACAD_REACTORS
330
2A
102
}
102
{ACAD_XDICTIONARY
360
1B8
102
}
330
2A
100
AcDbVisualStyle
  2
Wireframe
 70
     5
 71
     0
 72
     2
 73
     0
 90
        0
 40
0.6
 41
30.0
 62
     5
 63
     7
 74
     1
 91
        4
 64
     7
 65
   257
 75
     1
175
     1
 42
1.0
 92
        0
 66
   257
 43
1.0
 76
     1
 77
     6
 78
     2
 67
     7
 79
     3
170
     0
171
     0
290
     0
174
     0
 93
        1
 44
0.0
173
     0
291
     0
 45
0.0
1001
ACAD
1000
AcDbSavedByObjectVersion
1070
     0
  0
VISUALSTYLE
  5
40
102
{ACAD_REACTORS
330
2A
102
}
102
{ACAD_XDICTIONARY
360
1D8
102
}
330
2A
100
AcDbVisualStyle
  2
X-Ray
 70
    25
 71
     2
 72
     2
 73
     1
 90
        1
 40
0.5
 41
30.0
 62
     5
 63
     7
 74
     1
 91
        0
 64
     7
 65
   257
 75
     1
175
     1
 42
1.0
 92
        8
 66
     7
 43
1.0
 76
     1
 77
     6
 78
     2
 67
     7
 79
     3
170
     0
171
     0
290
     0
174
     0
 93
       13
 44
0.0
173
     0
291
     0
 45
0.0
1001
ACAD
1000
AcDbSavedByObjectVersion
1070
     0
  0
DICTIONARYVAR
  5
1AC
102
{ACAD_REACTORS
330
19F
102
}
330
19F
100
DictionaryVariables
280
     0
  1
1:1
  0
DICTIONARYVAR
  5
1A6
102
{ACAD_REACTORS
330
19F
102
}
330
19F
100
DictionaryVariables
280
     0
  1
3.500000
  0
DICTIONARYVAR
  5
1A7
102
{ACAD_REACTORS
330
19F
102
}
330
19F
100
DictionaryVariables
280
     0
  1
acadiso.lin
  0
DICTIONARYVAR
  5
1A1
102
{ACAD_REACTORS
330
19F
102
}
330
19F
100
DictionaryVariables
280
     0
  1
Standard
  0
DICTIONARYVAR
  5
1A0
102
{ACAD_REACTORS
330
19F
102
}
330
19F
100
DictionaryVariables
280
     0
  1
Standard
  0
DICTIONARYVAR
  5
1A8
102
{ACAD_REACTORS
330
19F
102
}
330
19F
100
DictionaryVariables
280
     0
  1
2
  0
DICTIONARYVAR
  5
1A9
102
{ACAD_REACTORS
330
19F
102
}
330
19F
100
DictionaryVariables
280
     0
  1
1
  0
DICTIONARYVAR
  5
1AD
102
{ACAD_REACTORS
330
19F
102
}
330
19F
100
DictionaryVariables
280
     0
  1
1
  0
DICTIONARYVAR
  5
1A3
102
{ACAD_REACTORS
330
19F
102
}
330
19F
100
DictionaryVariables
280
     0
  1
80.000000
  0
DICTIONARYVAR
  5
1A2
102
{ACAD_REACTORS
330
19F
102
}
330
19F
100
DictionaryVariables
280
     0
  1
5.000000
  0
DICTIONARY
  5
1E0
330
45
100
AcDbDictionary
280
     1
281
     1
  3
ACAD_XREC_ROUNDTRIP
360
1E1
  0
DICTIONARY
  5
1DE
330
44
100
AcDbDictionary
280
     1
281
     1
  3
ACAD_XREC_ROUNDTRIP
360
1DF
  0
DICTIONARY
  5
1E2
330
46
100
AcDbDictionary
280
     1
281
     1
  3
ACAD_XREC_ROUNDTRIP
360
1E3
  0
DICTIONARY
  5
1E5
330
6C
100
AcDbDictionary
280
     1
281
     1
  3
ACAD_XREC_ROUNDTRIP
360
1E6
  0
DICTIONARY
  5
1B6
330
2F
100
AcDbDictionary
280
     1
281
     1
  3
ACAD_XREC_ROUNDTRIP
360
1B7
  0
DICTIONARY
  5
1BC
330
32
100
AcDbDictionary
280
     1
281
     1
  3
ACAD_XREC_ROUNDTRIP
360
1BD
  0
DICTIONARY
  5
1C4
330
36
100
AcDbDictionary
280
     1
281
     1
  3
ACAD_XREC_ROUNDTRIP
360
1C5
  0
DICTIONARY
  5
1CC
330
3A
100
AcDbDictionary
280
     1
281
     1
  3
ACAD_XREC_ROUNDTRIP
360
1CD
  0
DICTIONARY
  5
1C0
330
34
100
AcDbDictionary
280
     1
281
     1
  3
ACAD_XREC_ROUNDTRIP
360
1C1
  0
DICTIONARY
  5
1C2
330
35
100
AcDbDictionary
280
     1
281
     1
  3
ACAD_XREC_ROUNDTRIP
360
1C3
  0
DICTIONARY
  5
1D2
330
3D
100
AcDbDictionary
280
     1
281
     1
  3
ACAD_XREC_ROUNDTRIP
360
1D3
  0
DICTIONARY
  5
1CA
330
39
100
AcDbDictionary
280
     1
281
     1
  3
ACAD_XREC_ROUNDTRIP
360
1CB
  0
DICTIONARY
  5
1AE
330
2B
100
AcDbDictionary
280
     1
281
     1
  3
ACAD_XREC_ROUNDTRIP
360
1AF
  0
DICTIONARY
  5
1B0
330
2C
100
AcDbDictionary
280
     1
281
     1
  3
ACAD_XREC_ROUNDTRIP
360
1B1
  0
DICTIONARY
  5
1B2
330
2D
100
AcDbDictionary
280
     1
281
     1
  3
ACAD_XREC_ROUNDTRIP
360
1B3
  0
DICTIONARY
  5
1B4
330
2E
100
AcDbDictionary
280
     1
281
     1
  3
ACAD_XREC_ROUNDTRIP
360
1B5
  0
DICTIONARY
  5
1BA
330
31
100
AcDbDictionary
280
     1
281
     1
  3
ACAD_XREC_ROUNDTRIP
360
1BB
  0
DICTIONARY
  5
1CE
330
3B
100
AcDbDictionary
280
     1
281
     1
  3
ACAD_XREC_ROUNDTRIP
360
1CF
  0
DICTIONARY
  5
1C8
330
38
100
AcDbDictionary
280
     1
281
     1
  3
ACAD_XREC_ROUNDTRIP
360
1C9
  0
DICTIONARY
  5
1D0
330
3C
100
AcDbDictionary
280
     1
281
     1
  3
ACAD_XREC_ROUNDTRIP
360
1D1
  0
DICTIONARY
  5
1BE
330
33
100
AcDbDictionary
280
     1
281
     1
  3
ACAD_XREC_ROUNDTRIP
360
1BF
  0
DICTIONARY
  5
1DC
330
42
100
AcDbDictionary
280
     1
281
     1
  3
ACAD_XREC_ROUNDTRIP
360
1DD
  0
DICTIONARY
  5
1DA
330
41
100
AcDbDictionary
280
     1
281
     1
  3
ACAD_XREC_ROUNDTRIP
360
1DB
  0
DICTIONARY
  5
1D4
330
3E
100
AcDbDictionary
280
     1
281
     1
  3
ACAD_XREC_ROUNDTRIP
360
1D5
  0
DICTIONARY
  5
1D6
330
3F
100
AcDbDictionary
280
     1
281
     1
  3
ACAD_XREC_ROUNDTRIP
360
1D7
  0
DICTIONARY
  5
1C6
330
37
100
AcDbDictionary
280
     1
281
     1
  3
ACAD_XREC_ROUNDTRIP
360
1C7
  0
DICTIONARY
  5
1B8
330
30
100
AcDbDictionary
280
     1
281
     1
  3
ACAD_XREC_ROUNDTRIP
360
1B9
  0
DICTIONARY
  5
1D8
330
40
100
AcDbDictionary
280
     1
281
     1
  3
ACAD_XREC_ROUNDTRIP
360
1D9
  0
XRECORD
  5
1E1
102
{ACAD_REACTORS
330
1E0
102
}
330
1E0
100
AcDbXrecord
280
     1
102
MATERIAL
148
0.0
149
0.0
149
0.0
 93
        0
 94
      127
282
     0
 72
     1
 77
     1
171
     1
175
     1
179
     1
273
     0
  0
XRECORD
  5
1DF
102
{ACAD_REACTORS
330
1DE
102
}
330
1DE
100
AcDbXrecord
280
     1
102
MATERIAL
148
0.0
149
0.0
149
0.0
 93
        0
 94
      127
282
     0
 72
     1
 77
     1
171
     1
175
     1
179
     1
273
     0
  0
XRECORD
  5
1E3
102
{ACAD_REACTORS
330
1E2
102
}
330
1E2
100
AcDbXrecord
280
     1
102
MATERIAL
148
0.0
149
0.0
149
0.0
 93
        0
 94
      127
282
     0
 72
     1
 77
     1
171
     1
175
     1
179
     1
273
     0
  0
XRECORD
  5
1E6
102
{ACAD_REACTORS
330
1E5
102
}
330
1E5
100
AcDbXrecord
280
     1
102
ACAD_ROUNDTRIP_2010_MLEADER_STYLE
  0
XRECORD
  5
1B7
102
{ACAD_REACTORS
330
1B6
102
}
330
1B6
100
AcDbXrecord
280
     1
102
RTVSPropertyOp0
 70
     1
102
RTVSPropertyOp1
 70
     1
102
RTVSPropertyOp2
 70
     1
102
RTVSPropertyOp3
 70
     1
102
RTVSPropertyOp4
 70
     1
102
RTVSPropertyOp5
 70
     1
102
RTVSPropertyOp6
 70
     1
102
RTVSPropertyOp7
 70
     1
102
RTVSPropertyOp8
 70
     1
102
RTVSPropertyOp9
 70
     1
102
RTVSPropertyOp10
 70
     1
102
RTVSPropertyOp11
 70
     1
102
RTVSPropertyOp12
 70
     1
102
RTVSPropertyOp13
 70
     1
102
RTVSPropertyOp14
 70
     1
102
RTVSPropertyOp15
 70
     1
102
RTVSPropertyOp16
 70
     1
102
RTVSPropertyOp17
 70
     1
102
RTVSPropertyOp18
 70
     1
102
RTVSPropertyOp19
 70
     1
102
RTVSPropertyOp20
 70
     1
102
RTVSPropertyOp21
 70
     1
102
RTVSPropertyOp22
 70
     1
102
RTVSPropertyOp23
 70
     1
102
RTVSPropertyOp24
 70
     1
102
RTVSPropertyOp25
 70
     1
102
RTVSPropertyOp26
 70
     1
102
RTVSPropertyOp27
 70
     1
102
RTVSPropertyOp28
 70
     1
102
RTVSPropertyOp29
 70
     1
102
RTVSPropertyOp30
 70
     1
102
RTVSPropertyOp31
 70
     1
102
RTVSPropertyOp32
 70
     1
102
RTVSPropertyOp33
 70
     1
102
RTVSPropertyOp34
 70
     1
102
RTVSPropertyOp35
 70
     1
102
RTVSPropertyOp36
 70
     1
102
RTVSPropertyOp37
 70
     1
102
RTVSPropertyOp38
 70
     1
102
RTVSPropertyOp39
 70
     1
102
RTVSPropertyOp40
 70
     1
102
RTVSPropertyOp41
 70
     1
102
RTVSPropertyOp42
 70
     1
102
RTVSPropertyOp43
 70
     1
102
RTVSPropertyOp44
 70
     1
102
RTVSPropertyOp45
 70
     1
102
RTVSPropertyOp46
 70
     1
102
RTVSPropertyOp47
 70
     1
102
RTVSPropertyOp48
 70
     1
102
RTVSPropertyOp49
 70
     1
102
RTVSPropertyOp50
 70
     1
102
RTVSPropertyOp51
 70
     0
102
RTVSPropertyOp52
 70
     0
102
RTVSPropertyOp53
 70
     1
102
RTVSPropertyOp54
 70
     1
102
RTVSPropertyOp55
 70
     1
102
RTVSPropertyOp56
 70
     1
102
RTVSPropertyOp57
 70
     1
102
RTVSPost2010Prop28
280
     1
102
RTVSPost2010PropOp28
 70
     1
102
RTVSPost2010Prop29
280
     1
102
RTVSPost2010PropOp29
 70
     1
102
RTVSPost2010Prop30
280
     0
102
RTVSPost2010PropOp30
 70
     1
102
RTVSPost2010Prop31
280
     0
102
RTVSPost2010PropOp31
 70
     1
102
RTVSPost2010Prop32
280
     0
102
RTVSPost2010PropOp32
 70
     1
102
RTVSPost2010Prop33
280
     0
102
RTVSPost2010PropOp33
 70
     1
102
RTVSPost2010Prop34
280
     0
102
RTVSPost2010PropOp34
 70
     1
102
RTVSPost2010Prop35
280
     0
102
RTVSPost2010PropOp35
 70
     1
102
RTVSPost2010Prop36
280
     0
102
RTVSPost2010PropOp36
 70
     1
102
RTVSPost2010Prop37
 90
       50
102
RTVSPost2010PropOp37
 70
     1
102
RTVSPost2010Prop38
140
0.0
102
RTVSPost2010PropOp38
 70
     1
102
RTVSPost2010Prop39
140
1.0
102
RTVSPost2010PropOp39
 70
     1
102
RTVSPost2010Prop40
 90
        0
102
RTVSPost2010PropOp40
 70
     1
102
RTVSPost2010Prop41ColorIndex
 90
       18
102
RTVSPost2010Prop41ColorRGB
 90
        0
102
RTVSPost2010PropOp41
 70
     1
102
RTVSPost2010Prop42
 90
       50
102
RTVSPost2010PropOp42
 70
     1
102
RTVSPost2010Prop43
 90
        3
102
RTVSPost2010PropOp43
 70
     1
102
RTVSPost2010Prop44ColorIndex
 90
        5
102
RTVSPost2010Prop44ColorRGB
 90
      255
102
RTVSPost2010PropOp44
 70
     1
102
RTVSPost2010Prop45
280
     0
102
RTVSPost2010PropOp45
 70
     1
102
RTVSPost2010Prop46
 90
       50
102
RTVSPost2010PropOp46
 70
     1
102
RTVSPost2010Prop47
 90
       50
102
RTVSPost2010PropOp47
 70
     1
102
RTVSPost2010Prop48
 90
       50
102
RTVSPost2010PropOp48
 70
     1
102
RTVSPost2010Prop49
280
     0
102
RTVSPost2010PropOp49
 70
     1
102
RTVSPost2010Prop50
 90
       50
102
RTVSPost2010PropOp50
 70
     1
102
RTVSPost2010Prop51ColorIndex
 90
      256
102
RTVSPost2010Prop51ColorRGB
 90
-16777216
102
RTVSPost2010PropOp51
 70
     0
102
RTVSPost2010Prop52
140
1.0
102
RTVSPost2010PropOp52
 70
     0
102
RTVSPost2010Prop53
 90
        2
102
RTVSPost2010PropOp53
 70
     1
102
RTVSPost2010Prop54
  1
strokes_ogs.tif
102
RTVSPost2010PropOp54
 70
     1
102
RTVSPost2010Prop55
280
     0
102
RTVSPost2010PropOp55
 70
     1
102
RTVSPost2010Prop56
140
1.0
102
RTVSPost2010PropOp56
 70
     1
102
RTVSPost2010Prop57
140
1.0
102
RTVSPost2010PropOp57
 70
     1
  0
XRECORD
  5
1BD
102
{ACAD_REACTORS
330
1BC
102
}
330
1BC
100
AcDbXrecord
280
     1
102
RTVSPropertyOp0
 70
     1
102
RTVSPropertyOp1
 70
     1
102
RTVSPropertyOp2
 70
     1
102
RTVSPropertyOp3
 70
     1
102
RTVSPropertyOp4
 70
     1
102
RTVSPropertyOp5
 70
     1
102
RTVSPropertyOp6
 70
     1
102
RTVSPropertyOp7
 70
     1
102
RTVSPropertyOp8
 70
     1
102
RTVSPropertyOp9
 70
     1
102
RTVSPropertyOp10
 70
     1
102
RTVSPropertyOp11
 70
     1
102
RTVSPropertyOp12
 70
     1
102
RTVSPropertyOp13
 70
     1
102
RTVSPropertyOp14
 70
     1
102
RTVSPropertyOp15
 70
     1
102
RTVSPropertyOp16
 70
     1
102
RTVSPropertyOp17
 70
     1
102
RTVSPropertyOp18
 70
     1
102
RTVSPropertyOp19
 70
     1
102
RTVSPropertyOp20
 70
     1
102
RTVSPropertyOp21
 70
     1
102
RTVSPropertyOp22
 70
     1
102
RTVSPropertyOp23
 70
     1
102
RTVSPropertyOp24
 70
     1
102
RTVSPropertyOp25
 70
     1
102
RTVSPropertyOp26
 70
     1
102
RTVSPropertyOp27
 70
     1
102
RTVSPropertyOp28
 70
     1
102
RTVSPropertyOp29
 70
     1
102
RTVSPropertyOp30
 70
     1
102
RTVSPropertyOp31
 70
     1
102
RTVSPropertyOp32
 70
     1
102
RTVSPropertyOp33
 70
     1
102
RTVSPropertyOp34
 70
     1
102
RTVSPropertyOp35
 70
     1
102
RTVSPropertyOp36
 70
     1
102
RTVSPropertyOp37
 70
     1
102
RTVSPropertyOp38
 70
     1
102
RTVSPropertyOp39
 70
     1
102
RTVSPropertyOp40
 70
     1
102
RTVSPropertyOp41
 70
     1
102
RTVSPropertyOp42
 70
     1
102
RTVSPropertyOp43
 70
     1
102
RTVSPropertyOp44
 70
     1
102
RTVSPropertyOp45
 70
     1
102
RTVSPropertyOp46
 70
     1
102
RTVSPropertyOp47
 70
     1
102
RTVSPropertyOp48
 70
     1
102
RTVSPropertyOp49
 70
     1
102
RTVSPropertyOp50
 70
     1
102
RTVSPropertyOp51
 70
     0
102
RTVSPropertyOp52
 70
     0
102
RTVSPropertyOp53
 70
     1
102
RTVSPropertyOp54
 70
     1
102
RTVSPropertyOp55
 70
     1
102
RTVSPropertyOp56
 70
     1
102
RTVSPropertyOp57
 70
     1
102
RTVSPost2010Prop28
280
     0
102
RTVSPost2010PropOp28
 70
     1
102
RTVSPost2010Prop29
280
     1
102
RTVSPost2010PropOp29
 70
     1
102
RTVSPost2010Prop30
280
     1
102
RTVSPost2010PropOp30
 70
     1
102
RTVSPost2010Prop31
280
     0
102
RTVSPost2010PropOp31
 70
     1
102
RTVSPost2010Prop32
280
     0
102
RTVSPost2010PropOp32
 70
     1
102
RTVSPost2010Prop33
280
     0
102
RTVSPost2010PropOp33
 70
     1
102
RTVSPost2010Prop34
280
     0
102
RTVSPost2010PropOp34
 70
     1
102
RTVSPost2010Prop35
280
     0
102
RTVSPost2010PropOp35
 70
     1
102
RTVSPost2010Prop36
280
     0
102
RTVSPost2010PropOp36
 70
     1
102
RTVSPost2010Prop37
 90
       50
102
RTVSPost2010PropOp37
 70
     1
102
RTVSPost2010Prop38
140
0.0
102
RTVSPost2010PropOp38
 70
     1
102
RTVSPost2010Prop39
140
1.0
102
RTVSPost2010PropOp39
 70
     1
102
RTVSPost2010Prop40
 90
        0
102
RTVSPost2010PropOp40
 70
     1
102
RTVSPost2010Prop41ColorIndex
 90
       18
102
RTVSPost2010Prop41ColorRGB
 90
        0
102
RTVSPost2010PropOp41
 70
     1
102
RTVSPost2010Prop42
 90
       50
102
RTVSPost2010PropOp42
 70
     1
102
RTVSPost2010Prop43
 90
        3
102
RTVSPost2010PropOp43
 70
     1
102
RTVSPost2010Prop44ColorIndex
 90
        5
102
RTVSPost2010Prop44ColorRGB
 90
      255
102
RTVSPost2010PropOp44
 70
     1
102
RTVSPost2010Prop45
280
     0
102
RTVSPost2010PropOp45
 70
     1
102
RTVSPost2010Prop46
 90
       50
102
RTVSPost2010PropOp46
 70
     1
102
RTVSPost2010Prop47
 90
       50
102
RTVSPost2010PropOp47
 70
     1
102
RTVSPost2010Prop48
 90
       50
102
RTVSPost2010PropOp48
 70
     1
102
RTVSPost2010Prop49
280
     0
102
RTVSPost2010PropOp49
 70
     1
102
RTVSPost2010Prop50
 90
       50
102
RTVSPost2010PropOp50
 70
     1
102
RTVSPost2010Prop51ColorIndex
 90
      256
102
RTVSPost2010Prop51ColorRGB
 90
-16777216
102
RTVSPost2010PropOp51
 70
     0
102
RTVSPost2010Prop52
140
1.0
102
RTVSPost2010PropOp52
 70
     0
102
RTVSPost2010Prop53
 90
        2
102
RTVSPost2010PropOp53
 70
     1
102
RTVSPost2010Prop54
  1
strokes_ogs.tif
102
RTVSPost2010PropOp54
 70
     1
102
RTVSPost2010Prop55
280
     0
102
RTVSPost2010PropOp55
 70
     1
102
RTVSPost2010Prop56
140
1.0
102
RTVSPost2010PropOp56
 70
     1
102
RTVSPost2010Prop57
140
1.0
102
RTVSPost2010PropOp57
 70
     1
  0
XRECORD
  5
1C5
102
{ACAD_REACTORS
330
1C4
102
}
330
1C4
100
AcDbXrecord
280
     1
102
RTVSPropertyOp0
 70
     1
102
RTVSPropertyOp1
 70
     1
102
RTVSPropertyOp2
 70
     1
102
RTVSPropertyOp3
 70
     1
102
RTVSPropertyOp4
 70
     1
102
RTVSPropertyOp5
 70
     1
102
RTVSPropertyOp6
 70
     1
102
RTVSPropertyOp7
 70
     1
102
RTVSPropertyOp8
 70
     1
102
RTVSPropertyOp9
 70
     1
102
RTVSPropertyOp10
 70
     1
102
RTVSPropertyOp11
 70
     1
102
RTVSPropertyOp12
 70
     1
102
RTVSPropertyOp13
 70
     1
102
RTVSPropertyOp14
 70
     1
102
RTVSPropertyOp15
 70
     1
102
RTVSPropertyOp16
 70
     1
102
RTVSPropertyOp17
 70
     1
102
RTVSPropertyOp18
 70
     1
102
RTVSPropertyOp19
 70
     1
102
RTVSPropertyOp20
 70
     1
102
RTVSPropertyOp21
 70
     1
102
RTVSPropertyOp22
 70
     1
102
RTVSPropertyOp23
 70
     1
102
RTVSPropertyOp24
 70
     1
102
RTVSPropertyOp25
 70
     1
102
RTVSPropertyOp26
 70
     1
102
RTVSPropertyOp27
 70
     1
102
RTVSPropertyOp28
 70
     1
102
RTVSPropertyOp29
 70
     1
102
RTVSPropertyOp30
 70
     1
102
RTVSPropertyOp31
 70
     1
102
RTVSPropertyOp32
 70
     1
102
RTVSPropertyOp33
 70
     1
102
RTVSPropertyOp34
 70
     1
102
RTVSPropertyOp35
 70
     1
102
RTVSPropertyOp36
 70
     1
102
RTVSPropertyOp37
 70
     1
102
RTVSPropertyOp38
 70
     1
102
RTVSPropertyOp39
 70
     1
102
RTVSPropertyOp40
 70
     1
102
RTVSPropertyOp41
 70
     1
102
RTVSPropertyOp42
 70
     1
102
RTVSPropertyOp43
 70
     1
102
RTVSPropertyOp44
 70
     1
102
RTVSPropertyOp45
 70
     1
102
RTVSPropertyOp46
 70
     1
102
RTVSPropertyOp47
 70
     1
102
RTVSPropertyOp48
 70
     1
102
RTVSPropertyOp49
 70
     1
102
RTVSPropertyOp50
 70
     1
102
RTVSPropertyOp51
 70
     0
102
RTVSPropertyOp52
 70
     0
102
RTVSPropertyOp53
 70
     1
102
RTVSPropertyOp54
 70
     1
102
RTVSPropertyOp55
 70
     1
102
RTVSPropertyOp56
 70
     1
102
RTVSPropertyOp57
 70
     1
102
RTVSPost2010Prop28
280
     0
102
RTVSPost2010PropOp28
 70
     1
102
RTVSPost2010Prop29
280
     1
102
RTVSPost2010PropOp29
 70
     1
102
RTVSPost2010Prop30
280
     1
102
RTVSPost2010PropOp30
 70
     1
102
RTVSPost2010Prop31
280
     0
102
RTVSPost2010PropOp31
 70
     1
102
RTVSPost2010Prop32
280
     0
102
RTVSPost2010PropOp32
 70
     1
102
RTVSPost2010Prop33
280
     0
102
RTVSPost2010PropOp33
 70
     1
102
RTVSPost2010Prop34
280
     0
102
RTVSPost2010PropOp34
 70
     1
102
RTVSPost2010Prop35
280
     0
102
RTVSPost2010PropOp35
 70
     1
102
RTVSPost2010Prop36
280
     0
102
RTVSPost2010PropOp36
 70
     1
102
RTVSPost2010Prop37
 90
       50
102
RTVSPost2010PropOp37
 70
     1
102
RTVSPost2010Prop38
140
0.0
102
RTVSPost2010PropOp38
 70
     1
102
RTVSPost2010Prop39
140
1.0
102
RTVSPost2010PropOp39
 70
     1
102
RTVSPost2010Prop40
 90
        0
102
RTVSPost2010PropOp40
 70
     1
102
RTVSPost2010Prop41ColorIndex
 90
       18
102
RTVSPost2010Prop41ColorRGB
 90
        0
102
RTVSPost2010PropOp41
 70
     1
102
RTVSPost2010Prop42
 90
       50
102
RTVSPost2010PropOp42
 70
     1
102
RTVSPost2010Prop43
 90
        3
102
RTVSPost2010PropOp43
 70
     1
102
RTVSPost2010Prop44ColorIndex
 90
        5
102
RTVSPost2010Prop44ColorRGB
 90
      255
102
RTVSPost2010PropOp44
 70
     1
102
RTVSPost2010Prop45
280
     0
102
RTVSPost2010PropOp45
 70
     1
102
RTVSPost2010Prop46
 90
       50
102
RTVSPost2010PropOp46
 70
     1
102
RTVSPost2010Prop47
 90
       50
102
RTVSPost2010PropOp47
 70
     1
102
RTVSPost2010Prop48
 90
       50
102
RTVSPost2010PropOp48
 70
     1
102
RTVSPost2010Prop49
280
     0
102
RTVSPost2010PropOp49
 70
     1
102
RTVSPost2010Prop50
 90
       50
102
RTVSPost2010PropOp50
 70
     1
102
RTVSPost2010Prop51ColorIndex
 90
      256
102
RTVSPost2010Prop51ColorRGB
 90
-16777216
102
RTVSPost2010PropOp51
 70
     0
102
RTVSPost2010Prop52
140
1.0
102
RTVSPost2010PropOp52
 70
     0
102
RTVSPost2010Prop53
 90
        2
102
RTVSPost2010PropOp53
 70
     1
102
RTVSPost2010Prop54
  1
strokes_ogs.tif
102
RTVSPost2010PropOp54
 70
     1
102
RTVSPost2010Prop55
280
     0
102
RTVSPost2010PropOp55
 70
     1
102
RTVSPost2010Prop56
140
1.0
102
RTVSPost2010PropOp56
 70
     1
102
RTVSPost2010Prop57
140
1.0
102
RTVSPost2010PropOp57
 70
     1
  0
XRECORD
  5
1CD
102
{ACAD_REACTORS
330
1CC
102
}
330
1CC
100
AcDbXrecord
280
     1
102
RTVSPropertyOp0
 70
     1
102
RTVSPropertyOp1
 70
     1
102
RTVSPropertyOp2
 70
     1
102
RTVSPropertyOp3
 70
     1
102
RTVSPropertyOp4
 70
     1
102
RTVSPropertyOp5
 70
     1
102
RTVSPropertyOp6
 70
     1
102
RTVSPropertyOp7
 70
     1
102
RTVSPropertyOp8
 70
     1
102
RTVSPropertyOp9
 70
     1
102
RTVSPropertyOp10
 70
     1
102
RTVSPropertyOp11
 70
     1
102
RTVSPropertyOp12
 70
     1
102
RTVSPropertyOp13
 70
     1
102
RTVSPropertyOp14
 70
     1
102
RTVSPropertyOp15
 70
     1
102
RTVSPropertyOp16
 70
     1
102
RTVSPropertyOp17
 70
     1
102
RTVSPropertyOp18
 70
     1
102
RTVSPropertyOp19
 70
     1
102
RTVSPropertyOp20
 70
     1
102
RTVSPropertyOp21
 70
     1
102
RTVSPropertyOp22
 70
     1
102
RTVSPropertyOp23
 70
     1
102
RTVSPropertyOp24
 70
     1
102
RTVSPropertyOp25
 70
     1
102
RTVSPropertyOp26
 70
     1
102
RTVSPropertyOp27
 70
     1
102
RTVSPropertyOp28
 70
     1
102
RTVSPropertyOp29
 70
     1
102
RTVSPropertyOp30
 70
     1
102
RTVSPropertyOp31
 70
     1
102
RTVSPropertyOp32
 70
     1
102
RTVSPropertyOp33
 70
     1
102
RTVSPropertyOp34
 70
     1
102
RTVSPropertyOp35
 70
     1
102
RTVSPropertyOp36
 70
     1
102
RTVSPropertyOp37
 70
     1
102
RTVSPropertyOp38
 70
     1
102
RTVSPropertyOp39
 70
     1
102
RTVSPropertyOp40
 70
     1
102
RTVSPropertyOp41
 70
     1
102
RTVSPropertyOp42
 70
     1
102
RTVSPropertyOp43
 70
     1
102
RTVSPropertyOp44
 70
     1
102
RTVSPropertyOp45
 70
     1
102
RTVSPropertyOp46
 70
     1
102
RTVSPropertyOp47
 70
     1
102
RTVSPropertyOp48
 70
     1
102
RTVSPropertyOp49
 70
     1
102
RTVSPropertyOp50
 70
     1
102
RTVSPropertyOp51
 70
     0
102
RTVSPropertyOp52
 70
     0
102
RTVSPropertyOp53
 70
     1
102
RTVSPropertyOp54
 70
     1
102
RTVSPropertyOp55
 70
     1
102
RTVSPropertyOp56
 70
     1
102
RTVSPropertyOp57
 70
     1
102
RTVSPost2010Prop28
280
     0
102
RTVSPost2010PropOp28
 70
     1
102
RTVSPost2010Prop29
280
     1
102
RTVSPost2010PropOp29
 70
     1
102
RTVSPost2010Prop30
280
     1
102
RTVSPost2010PropOp30
 70
     1
102
RTVSPost2010Prop31
280
     0
102
RTVSPost2010PropOp31
 70
     1
102
RTVSPost2010Prop32
280
     0
102
RTVSPost2010PropOp32
 70
     1
102
RTVSPost2010Prop33
280
     0
102
RTVSPost2010PropOp33
 70
     1
102
RTVSPost2010Prop34
280
     0
102
RTVSPost2010PropOp34
 70
     1
102
RTVSPost2010Prop35
280
     0
102
RTVSPost2010PropOp35
 70
     1
102
RTVSPost2010Prop36
280
     0
102
RTVSPost2010PropOp36
 70
     1
102
RTVSPost2010Prop37
 90
       50
102
RTVSPost2010PropOp37
 70
     1
102
RTVSPost2010Prop38
140
0.0
102
RTVSPost2010PropOp38
 70
     1
102
RTVSPost2010Prop39
140
1.0
102
RTVSPost2010PropOp39
 70
     1
102
RTVSPost2010Prop40
 90
        0
102
RTVSPost2010PropOp40
 70
     1
102
RTVSPost2010Prop41ColorIndex
 90
       18
102
RTVSPost2010Prop41ColorRGB
 90
        0
102
RTVSPost2010PropOp41
 70
     1
102
RTVSPost2010Prop42
 90
       50
102
RTVSPost2010PropOp42
 70
     1
102
RTVSPost2010Prop43
 90
        3
102
RTVSPost2010PropOp43
 70
     1
102
RTVSPost2010Prop44ColorIndex
 90
        5
102
RTVSPost2010Prop44ColorRGB
 90
      255
102
RTVSPost2010PropOp44
 70
     1
102
RTVSPost2010Prop45
280
     0
102
RTVSPost2010PropOp45
 70
     1
102
RTVSPost2010Prop46
 90
       50
102
RTVSPost2010PropOp46
 70
     1
102
RTVSPost2010Prop47
 90
       50
102
RTVSPost2010PropOp47
 70
     1
102
RTVSPost2010Prop48
 90
       50
102
RTVSPost2010PropOp48
 70
     1
102
RTVSPost2010Prop49
280
     0
102
RTVSPost2010PropOp49
 70
     1
102
RTVSPost2010Prop50
 90
       50
102
RTVSPost2010PropOp50
 70
     1
102
RTVSPost2010Prop51ColorIndex
 90
      256
102
RTVSPost2010Prop51ColorRGB
 90
-16777216
102
RTVSPost2010PropOp51
 70
     0
102
RTVSPost2010Prop52
140
1.0
102
RTVSPost2010PropOp52
 70
     0
102
RTVSPost2010Prop53
 90
        2
102
RTVSPost2010PropOp53
 70
     1
102
RTVSPost2010Prop54
  1
strokes_ogs.tif
102
RTVSPost2010PropOp54
 70
     1
102
RTVSPost2010Prop55
280
     0
102
RTVSPost2010PropOp55
 70
     1
102
RTVSPost2010Prop56
140
1.0
102
RTVSPost2010PropOp56
 70
     1
102
RTVSPost2010Prop57
140
1.0
102
RTVSPost2010PropOp57
 70
     1
  0
XRECORD
  5
1C1
102
{ACAD_REACTORS
330
1C0
102
}
330
1C0
100
AcDbXrecord
280
     1
102
RTVSPropertyOp0
 70
     1
102
RTVSPropertyOp1
 70
     1
102
RTVSPropertyOp2
 70
     1
102
RTVSPropertyOp3
 70
     1
102
RTVSPropertyOp4
 70
     1
102
RTVSPropertyOp5
 70
     1
102
RTVSPropertyOp6
 70
     1
102
RTVSPropertyOp7
 70
     1
102
RTVSPropertyOp8
 70
     1
102
RTVSPropertyOp9
 70
     1
102
RTVSPropertyOp10
 70
     1
102
RTVSPropertyOp11
 70
     1
102
RTVSPropertyOp12
 70
     1
102
RTVSPropertyOp13
 70
     1
102
RTVSPropertyOp14
 70
     1
102
RTVSPropertyOp15
 70
     1
102
RTVSPropertyOp16
 70
     1
102
RTVSPropertyOp17
 70
     1
102
RTVSPropertyOp18
 70
     1
102
RTVSPropertyOp19
 70
     1
102
RTVSPropertyOp20
 70
     1
102
RTVSPropertyOp21
 70
     1
102
RTVSPropertyOp22
 70
     1
102
RTVSPropertyOp23
 70
     1
102
RTVSPropertyOp24
 70
     1
102
RTVSPropertyOp25
 70
     1
102
RTVSPropertyOp26
 70
     1
102
RTVSPropertyOp27
 70
     1
102
RTVSPropertyOp28
 70
     1
102
RTVSPropertyOp29
 70
     1
102
RTVSPropertyOp30
 70
     1
102
RTVSPropertyOp31
 70
     1
102
RTVSPropertyOp32
 70
     1
102
RTVSPropertyOp33
 70
     1
102
RTVSPropertyOp34
 70
     1
102
RTVSPropertyOp35
 70
     1
102
RTVSPropertyOp36
 70
     1
102
RTVSPropertyOp37
 70
     1
102
RTVSPropertyOp38
 70
     1
102
RTVSPropertyOp39
 70
     1
102
RTVSPropertyOp40
 70
     1
102
RTVSPropertyOp41
 70
     1
102
RTVSPropertyOp42
 70
     1
102
RTVSPropertyOp43
 70
     1
102
RTVSPropertyOp44
 70
     1
102
RTVSPropertyOp45
 70
     1
102
RTVSPropertyOp46
 70
     1
102
RTVSPropertyOp47
 70
     1
102
RTVSPropertyOp48
 70
     1
102
RTVSPropertyOp49
 70
     1
102
RTVSPropertyOp50
 70
     1
102
RTVSPropertyOp51
 70
     0
102
RTVSPropertyOp52
 70
     0
102
RTVSPropertyOp53
 70
     1
102
RTVSPropertyOp54
 70
     1
102
RTVSPropertyOp55
 70
     1
102
RTVSPropertyOp56
 70
     1
102
RTVSPropertyOp57
 70
     1
102
RTVSPost2010Prop28
280
     0
102
RTVSPost2010PropOp28
 70
     1
102
RTVSPost2010Prop29
280
     1
102
RTVSPost2010PropOp29
 70
     1
102
RTVSPost2010Prop30
280
     1
102
RTVSPost2010PropOp30
 70
     1
102
RTVSPost2010Prop31
280
     0
102
RTVSPost2010PropOp31
 70
     1
102
RTVSPost2010Prop32
280
     0
102
RTVSPost2010PropOp32
 70
     1
102
RTVSPost2010Prop33
280
     0
102
RTVSPost2010PropOp33
 70
     1
102
RTVSPost2010Prop34
280
     0
102
RTVSPost2010PropOp34
 70
     1
102
RTVSPost2010Prop35
280
     0
102
RTVSPost2010PropOp35
 70
     1
102
RTVSPost2010Prop36
280
     0
102
RTVSPost2010PropOp36
 70
     1
102
RTVSPost2010Prop37
 90
       50
102
RTVSPost2010PropOp37
 70
     1
102
RTVSPost2010Prop38
140
0.0
102
RTVSPost2010PropOp38
 70
     1
102
RTVSPost2010Prop39
140
1.0
102
RTVSPost2010PropOp39
 70
     1
102
RTVSPost2010Prop40
 90
        0
102
RTVSPost2010PropOp40
 70
     1
102
RTVSPost2010Prop41ColorIndex
 90
       18
102
RTVSPost2010Prop41ColorRGB
 90
        0
102
RTVSPost2010PropOp41
 70
     1
102
RTVSPost2010Prop42
 90
       50
102
RTVSPost2010PropOp42
 70
     1
102
RTVSPost2010Prop43
 90
        3
102
RTVSPost2010PropOp43
 70
     1
102
RTVSPost2010Prop44ColorIndex
 90
        5
102
RTVSPost2010Prop44ColorRGB
 90
      255
102
RTVSPost2010PropOp44
 70
     1
102
RTVSPost2010Prop45
280
     0
102
RTVSPost2010PropOp45
 70
     1
102
RTVSPost2010Prop46
 90
       50
102
RTVSPost2010PropOp46
 70
     1
102
RTVSPost2010Prop47
 90
       50
102
RTVSPost2010PropOp47
 70
     1
102
RTVSPost2010Prop48
 90
       50
102
RTVSPost2010PropOp48
 70
     1
102
RTVSPost2010Prop49
280
     0
102
RTVSPost2010PropOp49
 70
     1
102
RTVSPost2010Prop50
 90
       50
102
RTVSPost2010PropOp50
 70
     1
102
RTVSPost2010Prop51ColorIndex
 90
      256
102
RTVSPost2010Prop51ColorRGB
 90
-16777216
102
RTVSPost2010PropOp51
 70
     0
102
RTVSPost2010Prop52
140
1.0
102
RTVSPost2010PropOp52
 70
     0
102
RTVSPost2010Prop53
 90
        2
102
RTVSPost2010PropOp53
 70
     1
102
RTVSPost2010Prop54
  1
strokes_ogs.tif
102
RTVSPost2010PropOp54
 70
     1
102
RTVSPost2010Prop55
280
     0
102
RTVSPost2010PropOp55
 70
     1
102
RTVSPost2010Prop56
140
1.0
102
RTVSPost2010PropOp56
 70
     1
102
RTVSPost2010Prop57
140
1.0
102
RTVSPost2010PropOp57
 70
     1
  0
XRECORD
  5
1C3
102
{ACAD_REACTORS
330
1C2
102
}
330
1C2
100
AcDbXrecord
280
     1
102
RTVSPropertyOp0
 70
     1
102
RTVSPropertyOp1
 70
     1
102
RTVSPropertyOp2
 70
     1
102
RTVSPropertyOp3
 70
     1
102
RTVSPropertyOp4
 70
     1
102
RTVSPropertyOp5
 70
     1
102
RTVSPropertyOp6
 70
     1
102
RTVSPropertyOp7
 70
     1
102
RTVSPropertyOp8
 70
     1
102
RTVSPropertyOp9
 70
     1
102
RTVSPropertyOp10
 70
     1
102
RTVSPropertyOp11
 70
     1
102
RTVSPropertyOp12
 70
     1
102
RTVSPropertyOp13
 70
     1
102
RTVSPropertyOp14
 70
     1
102
RTVSPropertyOp15
 70
     1
102
RTVSPropertyOp16
 70
     1
102
RTVSPropertyOp17
 70
     1
102
RTVSPropertyOp18
 70
     1
102
RTVSPropertyOp19
 70
     1
102
RTVSPropertyOp20
 70
     1
102
RTVSPropertyOp21
 70
     1
102
RTVSPropertyOp22
 70
     1
102
RTVSPropertyOp23
 70
     1
102
RTVSPropertyOp24
 70
     1
102
RTVSPropertyOp25
 70
     1
102
RTVSPropertyOp26
 70
     1
102
RTVSPropertyOp27
 70
     1
102
RTVSPropertyOp28
 70
     1
102
RTVSPropertyOp29
 70
     1
102
RTVSPropertyOp30
 70
     1
102
RTVSPropertyOp31
 70
     1
102
RTVSPropertyOp32
 70
     1
102
RTVSPropertyOp33
 70
     1
102
RTVSPropertyOp34
 70
     1
102
RTVSPropertyOp35
 70
     1
102
RTVSPropertyOp36
 70
     1
102
RTVSPropertyOp37
 70
     1
102
RTVSPropertyOp38
 70
     1
102
RTVSPropertyOp39
 70
     1
102
RTVSPropertyOp40
 70
     1
102
RTVSPropertyOp41
 70
     1
102
RTVSPropertyOp42
 70
     1
102
RTVSPropertyOp43
 70
     1
102
RTVSPropertyOp44
 70
     1
102
RTVSPropertyOp45
 70
     1
102
RTVSPropertyOp46
 70
     1
102
RTVSPropertyOp47
 70
     1
102
RTVSPropertyOp48
 70
     1
102
RTVSPropertyOp49
 70
     1
102
RTVSPropertyOp50
 70
     1
102
RTVSPropertyOp51
 70
     0
102
RTVSPropertyOp52
 70
     0
102
RTVSPropertyOp53
 70
     1
102
RTVSPropertyOp54
 70
     1
102
RTVSPropertyOp55
 70
     1
102
RTVSPropertyOp56
 70
     1
102
RTVSPropertyOp57
 70
     1
102
RTVSPost2010Prop28
280
     0
102
RTVSPost2010PropOp28
 70
     1
102
RTVSPost2010Prop29
280
     1
102
RTVSPost2010PropOp29
 70
     1
102
RTVSPost2010Prop30
280
     1
102
RTVSPost2010PropOp30
 70
     1
102
RTVSPost2010Prop31
280
     0
102
RTVSPost2010PropOp31
 70
     1
102
RTVSPost2010Prop32
280
     0
102
RTVSPost2010PropOp32
 70
     1
102
RTVSPost2010Prop33
280
     0
102
RTVSPost2010PropOp33
 70
     1
102
RTVSPost2010Prop34
280
     0
102
RTVSPost2010PropOp34
 70
     1
102
RTVSPost2010Prop35
280
     0
102
RTVSPost2010PropOp35
 70
     1
102
RTVSPost2010Prop36
280
     0
102
RTVSPost2010PropOp36
 70
     1
102
RTVSPost2010Prop37
 90
       50
102
RTVSPost2010PropOp37
 70
     1
102
RTVSPost2010Prop38
140
0.0
102
RTVSPost2010PropOp38
 70
     1
102
RTVSPost2010Prop39
140
1.0
102
RTVSPost2010PropOp39
 70
     1
102
RTVSPost2010Prop40
 90
        0
102
RTVSPost2010PropOp40
 70
     1
102
RTVSPost2010Prop41ColorIndex
 90
       18
102
RTVSPost2010Prop41ColorRGB
 90
        0
102
RTVSPost2010PropOp41
 70
     1
102
RTVSPost2010Prop42
 90
       50
102
RTVSPost2010PropOp42
 70
     1
102
RTVSPost2010Prop43
 90
        3
102
RTVSPost2010PropOp43
 70
     1
102
RTVSPost2010Prop44ColorIndex
 90
        5
102
RTVSPost2010Prop44ColorRGB
 90
      255
102
RTVSPost2010PropOp44
 70
     1
102
RTVSPost2010Prop45
280
     0
102
RTVSPost2010PropOp45
 70
     1
102
RTVSPost2010Prop46
 90
       50
102
RTVSPost2010PropOp46
 70
     1
102
RTVSPost2010Prop47
 90
       50
102
RTVSPost2010PropOp47
 70
     1
102
RTVSPost2010Prop48
 90
       50
102
RTVSPost2010PropOp48
 70
     1
102
RTVSPost2010Prop49
280
     0
102
RTVSPost2010PropOp49
 70
     1
102
RTVSPost2010Prop50
 90
       50
102
RTVSPost2010PropOp50
 70
     1
102
RTVSPost2010Prop51ColorIndex
 90
      256
102
RTVSPost2010Prop51ColorRGB
 90
-16777216
102
RTVSPost2010PropOp51
 70
     0
102
RTVSPost2010Prop52
140
1.0
102
RTVSPost2010PropOp52
 70
     0
102
RTVSPost2010Prop53
 90
        2
102
RTVSPost2010PropOp53
 70
     1
102
RTVSPost2010Prop54
  1
strokes_ogs.tif
102
RTVSPost2010PropOp54
 70
     1
102
RTVSPost2010Prop55
280
     0
102
RTVSPost2010PropOp55
 70
     1
102
RTVSPost2010Prop56
140
1.0
102
RTVSPost2010PropOp56
 70
     1
102
RTVSPost2010Prop57
140
1.0
102
RTVSPost2010PropOp57
 70
     1
  0
XRECORD
  5
1D3
102
{ACAD_REACTORS
330
1D2
102
}
330
1D2
100
AcDbXrecord
280
     1
102
RTVSPropertyOp0
 70
     0
102
RTVSPropertyOp1
 70
     0
102
RTVSPropertyOp2
 70
     0
102
RTVSPropertyOp3
 70
     0
102
RTVSPropertyOp4
 70
     0
102
RTVSPropertyOp5
 70
     0
102
RTVSPropertyOp6
 70
     0
102
RTVSPropertyOp7
 70
     0
102
RTVSPropertyOp8
 70
     0
102
RTVSPropertyOp9
 70
     0
102
RTVSPropertyOp10
 70
     0
102
RTVSPropertyOp11
 70
     0
102
RTVSPropertyOp12
 70
     0
102
RTVSPropertyOp13
 70
     0
102
RTVSPropertyOp14
 70
     2
102
RTVSPropertyOp15
 70
     0
102
RTVSPropertyOp16
 70
     0
102
RTVSPropertyOp17
 70
     0
102
RTVSPropertyOp18
 70
     0
102
RTVSPropertyOp19
 70
     0
102
RTVSPropertyOp20
 70
     0
102
RTVSPropertyOp21
 70
     0
102
RTVSPropertyOp22
 70
     0
102
RTVSPropertyOp23
 70
     0
102
RTVSPropertyOp24
 70
     0
102
RTVSPropertyOp25
 70
     0
102
RTVSPropertyOp26
 70
     0
102
RTVSPropertyOp27
 70
     0
102
RTVSPropertyOp28
 70
     0
102
RTVSPropertyOp29
 70
     0
102
RTVSPropertyOp30
 70
     0
102
RTVSPropertyOp31
 70
     0
102
RTVSPropertyOp32
 70
     0
102
RTVSPropertyOp33
 70
     0
102
RTVSPropertyOp34
 70
     0
102
RTVSPropertyOp35
 70
     0
102
RTVSPropertyOp36
 70
     0
102
RTVSPropertyOp37
 70
     0
102
RTVSPropertyOp38
 70
     0
102
RTVSPropertyOp39
 70
     0
102
RTVSPropertyOp40
 70
     0
102
RTVSPropertyOp41
 70
     0
102
RTVSPropertyOp42
 70
     0
102
RTVSPropertyOp43
 70
     0
102
RTVSPropertyOp44
 70
     0
102
RTVSPropertyOp45
 70
     0
102
RTVSPropertyOp46
 70
     0
102
RTVSPropertyOp47
 70
     0
102
RTVSPropertyOp48
 70
     0
102
RTVSPropertyOp49
 70
     0
102
RTVSPropertyOp50
 70
     0
102
RTVSPropertyOp51
 70
     0
102
RTVSPropertyOp52
 70
     0
102
RTVSPropertyOp53
 70
     0
102
RTVSPropertyOp54
 70
     0
102
RTVSPropertyOp55
 70
     0
102
RTVSPropertyOp56
 70
     0
102
RTVSPropertyOp57
 70
     0
102
RTVSPost2010Prop28
280
     0
102
RTVSPost2010PropOp28
 70
     0
102
RTVSPost2010Prop29
280
     1
102
RTVSPost2010PropOp29
 70
     0
102
RTVSPost2010Prop30
280
     1
102
RTVSPost2010PropOp30
 70
     0
102
RTVSPost2010Prop31
280
     0
102
RTVSPost2010PropOp31
 70
     0
102
RTVSPost2010Prop32
280
     0
102
RTVSPost2010PropOp32
 70
     0
102
RTVSPost2010Prop33
280
     0
102
RTVSPost2010PropOp33
 70
     0
102
RTVSPost2010Prop34
280
     0
102
RTVSPost2010PropOp34
 70
     0
102
RTVSPost2010Prop35
280
     0
102
RTVSPost2010PropOp35
 70
     0
102
RTVSPost2010Prop36
280
     0
102
RTVSPost2010PropOp36
 70
     0
102
RTVSPost2010Prop37
 90
       50
102
RTVSPost2010PropOp37
 70
     0
102
RTVSPost2010Prop38
140
0.0
102
RTVSPost2010PropOp38
 70
     0
102
RTVSPost2010Prop39
140
1.0
102
RTVSPost2010PropOp39
 70
     0
102
RTVSPost2010Prop40
 90
        0
102
RTVSPost2010PropOp40
 70
     0
102
RTVSPost2010Prop41ColorIndex
 90
       18
102
RTVSPost2010Prop41ColorRGB
 90
        0
102
RTVSPost2010PropOp41
 70
     0
102
RTVSPost2010Prop42
 90
       50
102
RTVSPost2010PropOp42
 70
     0
102
RTVSPost2010Prop43
 90
        3
102
RTVSPost2010PropOp43
 70
     0
102
RTVSPost2010Prop44ColorIndex
 90
        5
102
RTVSPost2010Prop44ColorRGB
 90
      255
102
RTVSPost2010PropOp44
 70
     0
102
RTVSPost2010Prop45
280
     0
102
RTVSPost2010PropOp45
 70
     0
102
RTVSPost2010Prop46
 90
       50
102
RTVSPost2010PropOp46
 70
     0
102
RTVSPost2010Prop47
 90
       50
102
RTVSPost2010PropOp47
 70
     0
102
RTVSPost2010Prop48
 90
       50
102
RTVSPost2010PropOp48
 70
     0
102
RTVSPost2010Prop49
280
     0
102
RTVSPost2010PropOp49
 70
     0
102
RTVSPost2010Prop50
 90
       50
102
RTVSPost2010PropOp50
 70
     0
102
RTVSPost2010Prop51ColorIndex
 90
      256
102
RTVSPost2010Prop51ColorRGB
 90
-16777216
102
RTVSPost2010PropOp51
 70
     0
102
RTVSPost2010Prop52
140
1.0
102
RTVSPost2010PropOp52
 70
     0
102
RTVSPost2010Prop53
 90
        2
102
RTVSPost2010PropOp53
 70
     0
102
RTVSPost2010Prop54
  1
strokes_ogs.tif
102
RTVSPost2010PropOp54
 70
     0
102
RTVSPost2010Prop55
280
     0
102
RTVSPost2010PropOp55
 70
     0
102
RTVSPost2010Prop56
140
1.0
102
RTVSPost2010PropOp56
 70
     0
102
RTVSPost2010Prop57
140
1.0
102
RTVSPost2010PropOp57
 70
     0
  0
XRECORD
  5
1CB
102
{ACAD_REACTORS
330
1CA
102
}
330
1CA
100
AcDbXrecord
280
     1
102
RTVSPropertyOp0
 70
     1
102
RTVSPropertyOp1
 70
     1
102
RTVSPropertyOp2
 70
     1
102
RTVSPropertyOp3
 70
     1
102
RTVSPropertyOp4
 70
     1
102
RTVSPropertyOp5
 70
     1
102
RTVSPropertyOp6
 70
     1
102
RTVSPropertyOp7
 70
     1
102
RTVSPropertyOp8
 70
     1
102
RTVSPropertyOp9
 70
     1
102
RTVSPropertyOp10
 70
     1
102
RTVSPropertyOp11
 70
     1
102
RTVSPropertyOp12
 70
     1
102
RTVSPropertyOp13
 70
     1
102
RTVSPropertyOp14
 70
     1
102
RTVSPropertyOp15
 70
     1
102
RTVSPropertyOp16
 70
     1
102
RTVSPropertyOp17
 70
     1
102
RTVSPropertyOp18
 70
     1
102
RTVSPropertyOp19
 70
     1
102
RTVSPropertyOp20
 70
     1
102
RTVSPropertyOp21
 70
     1
102
RTVSPropertyOp22
 70
     1
102
RTVSPropertyOp23
 70
     1
102
RTVSPropertyOp24
 70
     1
102
RTVSPropertyOp25
 70
     1
102
RTVSPropertyOp26
 70
     1
102
RTVSPropertyOp27
 70
     1
102
RTVSPropertyOp28
 70
     1
102
RTVSPropertyOp29
 70
     1
102
RTVSPropertyOp30
 70
     1
102
RTVSPropertyOp31
 70
     1
102
RTVSPropertyOp32
 70
     1
102
RTVSPropertyOp33
 70
     1
102
RTVSPropertyOp34
 70
     1
102
RTVSPropertyOp35
 70
     1
102
RTVSPropertyOp36
 70
     1
102
RTVSPropertyOp37
 70
     1
102
RTVSPropertyOp38
 70
     1
102
RTVSPropertyOp39
 70
     1
102
RTVSPropertyOp40
 70
     1
102
RTVSPropertyOp41
 70
     1
102
RTVSPropertyOp42
 70
     1
102
RTVSPropertyOp43
 70
     1
102
RTVSPropertyOp44
 70
     1
102
RTVSPropertyOp45
 70
     1
102
RTVSPropertyOp46
 70
     1
102
RTVSPropertyOp47
 70
     1
102
RTVSPropertyOp48
 70
     1
102
RTVSPropertyOp49
 70
     1
102
RTVSPropertyOp50
 70
     1
102
RTVSPropertyOp51
 70
     0
102
RTVSPropertyOp52
 70
     0
102
RTVSPropertyOp53
 70
     1
102
RTVSPropertyOp54
 70
     1
102
RTVSPropertyOp55
 70
     1
102
RTVSPropertyOp56
 70
     1
102
RTVSPropertyOp57
 70
     1
102
RTVSPost2010Prop28
280
     0
102
RTVSPost2010PropOp28
 70
     1
102
RTVSPost2010Prop29
280
     1
102
RTVSPost2010PropOp29
 70
     1
102
RTVSPost2010Prop30
280
     1
102
RTVSPost2010PropOp30
 70
     1
102
RTVSPost2010Prop31
280
     0
102
RTVSPost2010PropOp31
 70
     1
102
RTVSPost2010Prop32
280
     0
102
RTVSPost2010PropOp32
 70
     1
102
RTVSPost2010Prop33
280
     0
102
RTVSPost2010PropOp33
 70
     1
102
RTVSPost2010Prop34
280
     0
102
RTVSPost2010PropOp34
 70
     1
102
RTVSPost2010Prop35
280
     0
102
RTVSPost2010PropOp35
 70
     1
102
RTVSPost2010Prop36
280
     0
102
RTVSPost2010PropOp36
 70
     1
102
RTVSPost2010Prop37
 90
       50
102
RTVSPost2010PropOp37
 70
     1
102
RTVSPost2010Prop38
140
0.0
102
RTVSPost2010PropOp38
 70
     1
102
RTVSPost2010Prop39
140
1.0
102
RTVSPost2010PropOp39
 70
     1
102
RTVSPost2010Prop40
 90
        0
102
RTVSPost2010PropOp40
 70
     1
102
RTVSPost2010Prop41ColorIndex
 90
       18
102
RTVSPost2010Prop41ColorRGB
 90
        0
102
RTVSPost2010PropOp41
 70
     1
102
RTVSPost2010Prop42
 90
       50
102
RTVSPost2010PropOp42
 70
     1
102
RTVSPost2010Prop43
 90
        3
102
RTVSPost2010PropOp43
 70
     1
102
RTVSPost2010Prop44ColorIndex
 90
        5
102
RTVSPost2010Prop44ColorRGB
 90
      255
102
RTVSPost2010PropOp44
 70
     1
102
RTVSPost2010Prop45
280
     0
102
RTVSPost2010PropOp45
 70
     1
102
RTVSPost2010Prop46
 90
       50
102
RTVSPost2010PropOp46
 70
     1
102
RTVSPost2010Prop47
 90
       50
102
RTVSPost2010PropOp47
 70
     1
102
RTVSPost2010Prop48
 90
       50
102
RTVSPost2010PropOp48
 70
     1
102
RTVSPost2010Prop49
280
     0
102
RTVSPost2010PropOp49
 70
     1
102
RTVSPost2010Prop50
 90
       50
102
RTVSPost2010PropOp50
 70
     1
102
RTVSPost2010Prop51ColorIndex
 90
      256
102
RTVSPost2010Prop51ColorRGB
 90
-16777216
102
RTVSPost2010PropOp51
 70
     0
102
RTVSPost2010Prop52
140
1.0
102
RTVSPost2010PropOp52
 70
     0
102
RTVSPost2010Prop53
 90
        2
102
RTVSPost2010PropOp53
 70
     1
102
RTVSPost2010Prop54
  1
strokes_ogs.tif
102
RTVSPost2010PropOp54
 70
     1
102
RTVSPost2010Prop55
280
     0
102
RTVSPost2010PropOp55
 70
     1
102
RTVSPost2010Prop56
140
1.0
102
RTVSPost2010PropOp56
 70
     1
102
RTVSPost2010Prop57
140
1.0
102
RTVSPost2010PropOp57
 70
     1
  0
XRECORD
  5
1AF
102
{ACAD_REACTORS
330
1AE
102
}
330
1AE
100
AcDbXrecord
280
     1
102
RTVSPropertyOp0
 70
     1
102
RTVSPropertyOp1
 70
     1
102
RTVSPropertyOp2
 70
     1
102
RTVSPropertyOp3
 70
     1
102
RTVSPropertyOp4
 70
     1
102
RTVSPropertyOp5
 70
     1
102
RTVSPropertyOp6
 70
     1
102
RTVSPropertyOp7
 70
     1
102
RTVSPropertyOp8
 70
     1
102
RTVSPropertyOp9
 70
     1
102
RTVSPropertyOp10
 70
     1
102
RTVSPropertyOp11
 70
     1
102
RTVSPropertyOp12
 70
     1
102
RTVSPropertyOp13
 70
     1
102
RTVSPropertyOp14
 70
     1
102
RTVSPropertyOp15
 70
     1
102
RTVSPropertyOp16
 70
     1
102
RTVSPropertyOp17
 70
     1
102
RTVSPropertyOp18
 70
     1
102
RTVSPropertyOp19
 70
     1
102
RTVSPropertyOp20
 70
     1
102
RTVSPropertyOp21
 70
     1
102
RTVSPropertyOp22
 70
     1
102
RTVSPropertyOp23
 70
     1
102
RTVSPropertyOp24
 70
     1
102
RTVSPropertyOp25
 70
     1
102
RTVSPropertyOp26
 70
     1
102
RTVSPropertyOp27
 70
     1
102
RTVSPropertyOp28
 70
     1
102
RTVSPropertyOp29
 70
     1
102
RTVSPropertyOp30
 70
     1
102
RTVSPropertyOp31
 70
     1
102
RTVSPropertyOp32
 70
     1
102
RTVSPropertyOp33
 70
     1
102
RTVSPropertyOp34
 70
     1
102
RTVSPropertyOp35
 70
     1
102
RTVSPropertyOp36
 70
     1
102
RTVSPropertyOp37
 70
     1
102
RTVSPropertyOp38
 70
     1
102
RTVSPropertyOp39
 70
     1
102
RTVSPropertyOp40
 70
     1
102
RTVSPropertyOp41
 70
     1
102
RTVSPropertyOp42
 70
     1
102
RTVSPropertyOp43
 70
     1
102
RTVSPropertyOp44
 70
     1
102
RTVSPropertyOp45
 70
     1
102
RTVSPropertyOp46
 70
     1
102
RTVSPropertyOp47
 70
     1
102
RTVSPropertyOp48
 70
     1
102
RTVSPropertyOp49
 70
     1
102
RTVSPropertyOp50
 70
     1
102
RTVSPropertyOp51
 70
     0
102
RTVSPropertyOp52
 70
     0
102
RTVSPropertyOp53
 70
     1
102
RTVSPropertyOp54
 70
     1
102
RTVSPropertyOp55
 70
     1
102
RTVSPropertyOp56
 70
     1
102
RTVSPropertyOp57
 70
     1
102
RTVSPost2010Prop28
280
     0
102
RTVSPost2010PropOp28
 70
     1
102
RTVSPost2010Prop29
280
     1
102
RTVSPost2010PropOp29
 70
     1
102
RTVSPost2010Prop30
280
     1
102
RTVSPost2010PropOp30
 70
     1
102
RTVSPost2010Prop31
280
     0
102
RTVSPost2010PropOp31
 70
     1
102
RTVSPost2010Prop32
280
     0
102
RTVSPost2010PropOp32
 70
     1
102
RTVSPost2010Prop33
280
     0
102
RTVSPost2010PropOp33
 70
     1
102
RTVSPost2010Prop34
280
     0
102
RTVSPost2010PropOp34
 70
     1
102
RTVSPost2010Prop35
280
     0
102
RTVSPost2010PropOp35
 70
     1
102
RTVSPost2010Prop36
280
     0
102
RTVSPost2010PropOp36
 70
     1
102
RTVSPost2010Prop37
 90
       50
102
RTVSPost2010PropOp37
 70
     1
102
RTVSPost2010Prop38
140
0.0
102
RTVSPost2010PropOp38
 70
     1
102
RTVSPost2010Prop39
140
1.0
102
RTVSPost2010PropOp39
 70
     1
102
RTVSPost2010Prop40
 90
        0
102
RTVSPost2010PropOp40
 70
     1
102
RTVSPost2010Prop41ColorIndex
 90
       18
102
RTVSPost2010Prop41ColorRGB
 90
        0
102
RTVSPost2010PropOp41
 70
     1
102
RTVSPost2010Prop42
 90
       50
102
RTVSPost2010PropOp42
 70
     1
102
RTVSPost2010Prop43
 90
        3
102
RTVSPost2010PropOp43
 70
     1
102
RTVSPost2010Prop44ColorIndex
 90
        5
102
RTVSPost2010Prop44ColorRGB
 90
      255
102
RTVSPost2010PropOp44
 70
     1
102
RTVSPost2010Prop45
280
     0
102
RTVSPost2010PropOp45
 70
     1
102
RTVSPost2010Prop46
 90
       50
102
RTVSPost2010PropOp46
 70
     1
102
RTVSPost2010Prop47
 90
       50
102
RTVSPost2010PropOp47
 70
     1
102
RTVSPost2010Prop48
 90
       50
102
RTVSPost2010PropOp48
 70
     1
102
RTVSPost2010Prop49
280
     0
102
RTVSPost2010PropOp49
 70
     1
102
RTVSPost2010Prop50
 90
       50
102
RTVSPost2010PropOp50
 70
     1
102
RTVSPost2010Prop51ColorIndex
 90
      256
102
RTVSPost2010Prop51ColorRGB
 90
-16777216
102
RTVSPost2010PropOp51
 70
     0
102
RTVSPost2010Prop52
140
1.0
102
RTVSPost2010PropOp52
 70
     0
102
RTVSPost2010Prop53
 90
        2
102
RTVSPost2010PropOp53
 70
     1
102
RTVSPost2010Prop54
  1
strokes_ogs.tif
102
RTVSPost2010PropOp54
 70
     1
102
RTVSPost2010Prop55
280
     0
102
RTVSPost2010PropOp55
 70
     1
102
RTVSPost2010Prop56
140
1.0
102
RTVSPost2010PropOp56
 70
     1
102
RTVSPost2010Prop57
140
1.0
102
RTVSPost2010PropOp57
 70
     1
  0
XRECORD
  5
1B1
102
{ACAD_REACTORS
330
1B0
102
}
330
1B0
100
AcDbXrecord
280
     1
102
RTVSPropertyOp0
 70
     1
102
RTVSPropertyOp1
 70
     1
102
RTVSPropertyOp2
 70
     1
102
RTVSPropertyOp3
 70
     1
102
RTVSPropertyOp4
 70
     1
102
RTVSPropertyOp5
 70
     1
102
RTVSPropertyOp6
 70
     1
102
RTVSPropertyOp7
 70
     1
102
RTVSPropertyOp8
 70
     1
102
RTVSPropertyOp9
 70
     1
102
RTVSPropertyOp10
 70
     1
102
RTVSPropertyOp11
 70
     1
102
RTVSPropertyOp12
 70
     1
102
RTVSPropertyOp13
 70
     1
102
RTVSPropertyOp14
 70
     1
102
RTVSPropertyOp15
 70
     1
102
RTVSPropertyOp16
 70
     1
102
RTVSPropertyOp17
 70
     1
102
RTVSPropertyOp18
 70
     1
102
RTVSPropertyOp19
 70
     1
102
RTVSPropertyOp20
 70
     1
102
RTVSPropertyOp21
 70
     1
102
RTVSPropertyOp22
 70
     1
102
RTVSPropertyOp23
 70
     1
102
RTVSPropertyOp24
 70
     1
102
RTVSPropertyOp25
 70
     1
102
RTVSPropertyOp26
 70
     1
102
RTVSPropertyOp27
 70
     1
102
RTVSPropertyOp28
 70
     1
102
RTVSPropertyOp29
 70
     1
102
RTVSPropertyOp30
 70
     1
102
RTVSPropertyOp31
 70
     1
102
RTVSPropertyOp32
 70
     1
102
RTVSPropertyOp33
 70
     1
102
RTVSPropertyOp34
 70
     1
102
RTVSPropertyOp35
 70
     1
102
RTVSPropertyOp36
 70
     1
102
RTVSPropertyOp37
 70
     1
102
RTVSPropertyOp38
 70
     1
102
RTVSPropertyOp39
 70
     1
102
RTVSPropertyOp40
 70
     1
102
RTVSPropertyOp41
 70
     1
102
RTVSPropertyOp42
 70
     1
102
RTVSPropertyOp43
 70
     1
102
RTVSPropertyOp44
 70
     1
102
RTVSPropertyOp45
 70
     1
102
RTVSPropertyOp46
 70
     1
102
RTVSPropertyOp47
 70
     1
102
RTVSPropertyOp48
 70
     1
102
RTVSPropertyOp49
 70
     1
102
RTVSPropertyOp50
 70
     1
102
RTVSPropertyOp51
 70
     0
102
RTVSPropertyOp52
 70
     0
102
RTVSPropertyOp53
 70
     1
102
RTVSPropertyOp54
 70
     1
102
RTVSPropertyOp55
 70
     1
102
RTVSPropertyOp56
 70
     1
102
RTVSPropertyOp57
 70
     1
102
RTVSPost2010Prop28
280
     0
102
RTVSPost2010PropOp28
 70
     1
102
RTVSPost2010Prop29
280
     1
102
RTVSPost2010PropOp29
 70
     1
102
RTVSPost2010Prop30
280
     1
102
RTVSPost2010PropOp30
 70
     1
102
RTVSPost2010Prop31
280
     0
102
RTVSPost2010PropOp31
 70
     1
102
RTVSPost2010Prop32
280
     0
102
RTVSPost2010PropOp32
 70
     1
102
RTVSPost2010Prop33
280
     0
102
RTVSPost2010PropOp33
 70
     1
102
RTVSPost2010Prop34
280
     0
102
RTVSPost2010PropOp34
 70
     1
102
RTVSPost2010Prop35
280
     0
102
RTVSPost2010PropOp35
 70
     1
102
RTVSPost2010Prop36
280
     0
102
RTVSPost2010PropOp36
 70
     1
102
RTVSPost2010Prop37
 90
       50
102
RTVSPost2010PropOp37
 70
     1
102
RTVSPost2010Prop38
140
0.0
102
RTVSPost2010PropOp38
 70
     1
102
RTVSPost2010Prop39
140
1.0
102
RTVSPost2010PropOp39
 70
     1
102
RTVSPost2010Prop40
 90
        0
102
RTVSPost2010PropOp40
 70
     1
102
RTVSPost2010Prop41ColorIndex
 90
       18
102
RTVSPost2010Prop41ColorRGB
 90
        0
102
RTVSPost2010PropOp41
 70
     1
102
RTVSPost2010Prop42
 90
       50
102
RTVSPost2010PropOp42
 70
     1
102
RTVSPost2010Prop43
 90
        3
102
RTVSPost2010PropOp43
 70
     1
102
RTVSPost2010Prop44ColorIndex
 90
        5
102
RTVSPost2010Prop44ColorRGB
 90
      255
102
RTVSPost2010PropOp44
 70
     1
102
RTVSPost2010Prop45
280
     0
102
RTVSPost2010PropOp45
 70
     1
102
RTVSPost2010Prop46
 90
       50
102
RTVSPost2010PropOp46
 70
     1
102
RTVSPost2010Prop47
 90
       50
102
RTVSPost2010PropOp47
 70
     1
102
RTVSPost2010Prop48
 90
       50
102
RTVSPost2010PropOp48
 70
     1
102
RTVSPost2010Prop49
280
     0
102
RTVSPost2010PropOp49
 70
     1
102
RTVSPost2010Prop50
 90
       50
102
RTVSPost2010PropOp50
 70
     1
102
RTVSPost2010Prop51ColorIndex
 90
      256
102
RTVSPost2010Prop51ColorRGB
 90
-16777216
102
RTVSPost2010PropOp51
 70
     0
102
RTVSPost2010Prop52
140
1.0
102
RTVSPost2010PropOp52
 70
     0
102
RTVSPost2010Prop53
 90
        2
102
RTVSPost2010PropOp53
 70
     1
102
RTVSPost2010Prop54
  1
strokes_ogs.tif
102
RTVSPost2010PropOp54
 70
     1
102
RTVSPost2010Prop55
280
     0
102
RTVSPost2010PropOp55
 70
     1
102
RTVSPost2010Prop56
140
1.0
102
RTVSPost2010PropOp56
 70
     1
102
RTVSPost2010Prop57
140
1.0
102
RTVSPost2010PropOp57
 70
     1
  0
XRECORD
  5
1B3
102
{ACAD_REACTORS
330
1B2
102
}
330
1B2
100
AcDbXrecord
280
     1
102
RTVSPropertyOp0
 70
     1
102
RTVSPropertyOp1
 70
     1
102
RTVSPropertyOp2
 70
     1
102
RTVSPropertyOp3
 70
     1
102
RTVSPropertyOp4
 70
     1
102
RTVSPropertyOp5
 70
     1
102
RTVSPropertyOp6
 70
     1
102
RTVSPropertyOp7
 70
     1
102
RTVSPropertyOp8
 70
     1
102
RTVSPropertyOp9
 70
     1
102
RTVSPropertyOp10
 70
     1
102
RTVSPropertyOp11
 70
     1
102
RTVSPropertyOp12
 70
     1
102
RTVSPropertyOp13
 70
     1
102
RTVSPropertyOp14
 70
     1
102
RTVSPropertyOp15
 70
     1
102
RTVSPropertyOp16
 70
     1
102
RTVSPropertyOp17
 70
     1
102
RTVSPropertyOp18
 70
     1
102
RTVSPropertyOp19
 70
     1
102
RTVSPropertyOp20
 70
     1
102
RTVSPropertyOp21
 70
     1
102
RTVSPropertyOp22
 70
     1
102
RTVSPropertyOp23
 70
     1
102
RTVSPropertyOp24
 70
     1
102
RTVSPropertyOp25
 70
     1
102
RTVSPropertyOp26
 70
     1
102
RTVSPropertyOp27
 70
     1
102
RTVSPropertyOp28
 70
     1
102
RTVSPropertyOp29
 70
     1
102
RTVSPropertyOp30
 70
     1
102
RTVSPropertyOp31
 70
     1
102
RTVSPropertyOp32
 70
     1
102
RTVSPropertyOp33
 70
     1
102
RTVSPropertyOp34
 70
     1
102
RTVSPropertyOp35
 70
     1
102
RTVSPropertyOp36
 70
     1
102
RTVSPropertyOp37
 70
     1
102
RTVSPropertyOp38
 70
     1
102
RTVSPropertyOp39
 70
     1
102
RTVSPropertyOp40
 70
     1
102
RTVSPropertyOp41
 70
     1
102
RTVSPropertyOp42
 70
     1
102
RTVSPropertyOp43
 70
     1
102
RTVSPropertyOp44
 70
     1
102
RTVSPropertyOp45
 70
     1
102
RTVSPropertyOp46
 70
     1
102
RTVSPropertyOp47
 70
     1
102
RTVSPropertyOp48
 70
     1
102
RTVSPropertyOp49
 70
     1
102
RTVSPropertyOp50
 70
     1
102
RTVSPropertyOp51
 70
     0
102
RTVSPropertyOp52
 70
     0
102
RTVSPropertyOp53
 70
     1
102
RTVSPropertyOp54
 70
     1
102
RTVSPropertyOp55
 70
     1
102
RTVSPropertyOp56
 70
     1
102
RTVSPropertyOp57
 70
     1
102
RTVSPost2010Prop28
280
     0
102
RTVSPost2010PropOp28
 70
     1
102
RTVSPost2010Prop29
280
     1
102
RTVSPost2010PropOp29
 70
     1
102
RTVSPost2010Prop30
280
     1
102
RTVSPost2010PropOp30
 70
     1
102
RTVSPost2010Prop31
280
     0
102
RTVSPost2010PropOp31
 70
     1
102
RTVSPost2010Prop32
280
     0
102
RTVSPost2010PropOp32
 70
     1
102
RTVSPost2010Prop33
280
     0
102
RTVSPost2010PropOp33
 70
     1
102
RTVSPost2010Prop34
280
     0
102
RTVSPost2010PropOp34
 70
     1
102
RTVSPost2010Prop35
280
     0
102
RTVSPost2010PropOp35
 70
     1
102
RTVSPost2010Prop36
280
     0
102
RTVSPost2010PropOp36
 70
     1
102
RTVSPost2010Prop37
 90
       50
102
RTVSPost2010PropOp37
 70
     1
102
RTVSPost2010Prop38
140
0.0
102
RTVSPost2010PropOp38
 70
     1
102
RTVSPost2010Prop39
140
1.0
102
RTVSPost2010PropOp39
 70
     1
102
RTVSPost2010Prop40
 90
        0
102
RTVSPost2010PropOp40
 70
     1
102
RTVSPost2010Prop41ColorIndex
 90
       18
102
RTVSPost2010Prop41ColorRGB
 90
        0
102
RTVSPost2010PropOp41
 70
     1
102
RTVSPost2010Prop42
 90
       50
102
RTVSPost2010PropOp42
 70
     1
102
RTVSPost2010Prop43
 90
        3
102
RTVSPost2010PropOp43
 70
     1
102
RTVSPost2010Prop44ColorIndex
 90
        5
102
RTVSPost2010Prop44ColorRGB
 90
      255
102
RTVSPost2010PropOp44
 70
     1
102
RTVSPost2010Prop45
280
     0
102
RTVSPost2010PropOp45
 70
     1
102
RTVSPost2010Prop46
 90
       50
102
RTVSPost2010PropOp46
 70
     1
102
RTVSPost2010Prop47
 90
       50
102
RTVSPost2010PropOp47
 70
     1
102
RTVSPost2010Prop48
 90
       50
102
RTVSPost2010PropOp48
 70
     1
102
RTVSPost2010Prop49
280
     0
102
RTVSPost2010PropOp49
 70
     1
102
RTVSPost2010Prop50
 90
       50
102
RTVSPost2010PropOp50
 70
     1
102
RTVSPost2010Prop51ColorIndex
 90
      256
102
RTVSPost2010Prop51ColorRGB
 90
-16777216
102
RTVSPost2010PropOp51
 70
     0
102
RTVSPost2010Prop52
140
1.0
102
RTVSPost2010PropOp52
 70
     0
102
RTVSPost2010Prop53
 90
        2
102
RTVSPost2010PropOp53
 70
     1
102
RTVSPost2010Prop54
  1
strokes_ogs.tif
102
RTVSPost2010PropOp54
 70
     1
102
RTVSPost2010Prop55
280
     0
102
RTVSPost2010PropOp55
 70
     1
102
RTVSPost2010Prop56
140
1.0
102
RTVSPost2010PropOp56
 70
     1
102
RTVSPost2010Prop57
140
1.0
102
RTVSPost2010PropOp57
 70
     1
  0
XRECORD
  5
1B5
102
{ACAD_REACTORS
330
1B4
102
}
330
1B4
100
AcDbXrecord
280
     1
102
RTVSPropertyOp0
 70
     1
102
RTVSPropertyOp1
 70
     1
102
RTVSPropertyOp2
 70
     1
102
RTVSPropertyOp3
 70
     1
102
RTVSPropertyOp4
 70
     1
102
RTVSPropertyOp5
 70
     1
102
RTVSPropertyOp6
 70
     1
102
RTVSPropertyOp7
 70
     1
102
RTVSPropertyOp8
 70
     1
102
RTVSPropertyOp9
 70
     1
102
RTVSPropertyOp10
 70
     1
102
RTVSPropertyOp11
 70
     1
102
RTVSPropertyOp12
 70
     1
102
RTVSPropertyOp13
 70
     1
102
RTVSPropertyOp14
 70
     1
102
RTVSPropertyOp15
 70
     1
102
RTVSPropertyOp16
 70
     1
102
RTVSPropertyOp17
 70
     1
102
RTVSPropertyOp18
 70
     1
102
RTVSPropertyOp19
 70
     1
102
RTVSPropertyOp20
 70
     1
102
RTVSPropertyOp21
 70
     1
102
RTVSPropertyOp22
 70
     1
102
RTVSPropertyOp23
 70
     1
102
RTVSPropertyOp24
 70
     1
102
RTVSPropertyOp25
 70
     1
102
RTVSPropertyOp26
 70
     1
102
RTVSPropertyOp27
 70
     1
102
RTVSPropertyOp28
 70
     1
102
RTVSPropertyOp29
 70
     1
102
RTVSPropertyOp30
 70
     1
102
RTVSPropertyOp31
 70
     1
102
RTVSPropertyOp32
 70
     1
102
RTVSPropertyOp33
 70
     1
102
RTVSPropertyOp34
 70
     1
102
RTVSPropertyOp35
 70
     1
102
RTVSPropertyOp36
 70
     1
102
RTVSPropertyOp37
 70
     1
102
RTVSPropertyOp38
 70
     1
102
RTVSPropertyOp39
 70
     1
102
RTVSPropertyOp40
 70
     1
102
RTVSPropertyOp41
 70
     1
102
RTVSPropertyOp42
 70
     1
102
RTVSPropertyOp43
 70
     1
102
RTVSPropertyOp44
 70
     1
102
RTVSPropertyOp45
 70
     1
102
RTVSPropertyOp46
 70
     1
102
RTVSPropertyOp47
 70
     1
102
RTVSPropertyOp48
 70
     1
102
RTVSPropertyOp49
 70
     1
102
RTVSPropertyOp50
 70
     1
102
RTVSPropertyOp51
 70
     0
102
RTVSPropertyOp52
 70
     0
102
RTVSPropertyOp53
 70
     1
102
RTVSPropertyOp54
 70
     1
102
RTVSPropertyOp55
 70
     1
102
RTVSPropertyOp56
 70
     1
102
RTVSPropertyOp57
 70
     1
102
RTVSPost2010Prop28
280
     0
102
RTVSPost2010PropOp28
 70
     1
102
RTVSPost2010Prop29
280
     1
102
RTVSPost2010PropOp29
 70
     1
102
RTVSPost2010Prop30
280
     1
102
RTVSPost2010PropOp30
 70
     1
102
RTVSPost2010Prop31
280
     0
102
RTVSPost2010PropOp31
 70
     1
102
RTVSPost2010Prop32
280
     0
102
RTVSPost2010PropOp32
 70
     1
102
RTVSPost2010Prop33
280
     0
102
RTVSPost2010PropOp33
 70
     1
102
RTVSPost2010Prop34
280
     0
102
RTVSPost2010PropOp34
 70
     1
102
RTVSPost2010Prop35
280
     0
102
RTVSPost2010PropOp35
 70
     1
102
RTVSPost2010Prop36
280
     0
102
RTVSPost2010PropOp36
 70
     1
102
RTVSPost2010Prop37
 90
       50
102
RTVSPost2010PropOp37
 70
     1
102
RTVSPost2010Prop38
140
0.0
102
RTVSPost2010PropOp38
 70
     1
102
RTVSPost2010Prop39
140
1.0
102
RTVSPost2010PropOp39
 70
     1
102
RTVSPost2010Prop40
 90
        0
102
RTVSPost2010PropOp40
 70
     1
102
RTVSPost2010Prop41ColorIndex
 90
       18
102
RTVSPost2010Prop41ColorRGB
 90
        0
102
RTVSPost2010PropOp41
 70
     1
102
RTVSPost2010Prop42
 90
       50
102
RTVSPost2010PropOp42
 70
     1
102
RTVSPost2010Prop43
 90
        3
102
RTVSPost2010PropOp43
 70
     1
102
RTVSPost2010Prop44ColorIndex
 90
        5
102
RTVSPost2010Prop44ColorRGB
 90
      255
102
RTVSPost2010PropOp44
 70
     1
102
RTVSPost2010Prop45
280
     0
102
RTVSPost2010PropOp45
 70
     1
102
RTVSPost2010Prop46
 90
       50
102
RTVSPost2010PropOp46
 70
     1
102
RTVSPost2010Prop47
 90
       50
102
RTVSPost2010PropOp47
 70
     1
102
RTVSPost2010Prop48
 90
       50
102
RTVSPost2010PropOp48
 70
     1
102
RTVSPost2010Prop49
280
     0
102
RTVSPost2010PropOp49
 70
     1
102
RTVSPost2010Prop50
 90
       50
102
RTVSPost2010PropOp50
 70
     1
102
RTVSPost2010Prop51ColorIndex
 90
      256
102
RTVSPost2010Prop51ColorRGB
 90
-16777216
102
RTVSPost2010PropOp51
 70
     0
102
RTVSPost2010Prop52
140
1.0
102
RTVSPost2010PropOp52
 70
     0
102
RTVSPost2010Prop53
 90
        2
102
RTVSPost2010PropOp53
 70
     1
102
RTVSPost2010Prop54
  1
strokes_ogs.tif
102
RTVSPost2010PropOp54
 70
     1
102
RTVSPost2010Prop55
280
     0
102
RTVSPost2010PropOp55
 70
     1
102
RTVSPost2010Prop56
140
1.0
102
RTVSPost2010PropOp56
 70
     1
102
RTVSPost2010Prop57
140
1.0
102
RTVSPost2010PropOp57
 70
     1
  0
XRECORD
  5
1BB
102
{ACAD_REACTORS
330
1BA
102
}
330
1BA
100
AcDbXrecord
280
     1
102
RTVSPropertyOp0
 70
     1
102
RTVSPropertyOp1
 70
     1
102
RTVSPropertyOp2
 70
     1
102
RTVSPropertyOp3
 70
     1
102
RTVSPropertyOp4
 70
     1
102
RTVSPropertyOp5
 70
     1
102
RTVSPropertyOp6
 70
     1
102
RTVSPropertyOp7
 70
     1
102
RTVSPropertyOp8
 70
     1
102
RTVSPropertyOp9
 70
     1
102
RTVSPropertyOp10
 70
     1
102
RTVSPropertyOp11
 70
     1
102
RTVSPropertyOp12
 70
     1
102
RTVSPropertyOp13
 70
     1
102
RTVSPropertyOp14
 70
     1
102
RTVSPropertyOp15
 70
     1
102
RTVSPropertyOp16
 70
     1
102
RTVSPropertyOp17
 70
     1
102
RTVSPropertyOp18
 70
     1
102
RTVSPropertyOp19
 70
     1
102
RTVSPropertyOp20
 70
     1
102
RTVSPropertyOp21
 70
     1
102
RTVSPropertyOp22
 70
     1
102
RTVSPropertyOp23
 70
     1
102
RTVSPropertyOp24
 70
     1
102
RTVSPropertyOp25
 70
     1
102
RTVSPropertyOp26
 70
     1
102
RTVSPropertyOp27
 70
     1
102
RTVSPropertyOp28
 70
     1
102
RTVSPropertyOp29
 70
     1
102
RTVSPropertyOp30
 70
     1
102
RTVSPropertyOp31
 70
     1
102
RTVSPropertyOp32
 70
     1
102
RTVSPropertyOp33
 70
     1
102
RTVSPropertyOp34
 70
     1
102
RTVSPropertyOp35
 70
     1
102
RTVSPropertyOp36
 70
     1
102
RTVSPropertyOp37
 70
     1
102
RTVSPropertyOp38
 70
     1
102
RTVSPropertyOp39
 70
     1
102
RTVSPropertyOp40
 70
     1
102
RTVSPropertyOp41
 70
     1
102
RTVSPropertyOp42
 70
     1
102
RTVSPropertyOp43
 70
     1
102
RTVSPropertyOp44
 70
     1
102
RTVSPropertyOp45
 70
     1
102
RTVSPropertyOp46
 70
     1
102
RTVSPropertyOp47
 70
     1
102
RTVSPropertyOp48
 70
     1
102
RTVSPropertyOp49
 70
     1
102
RTVSPropertyOp50
 70
     1
102
RTVSPropertyOp51
 70
     0
102
RTVSPropertyOp52
 70
     0
102
RTVSPropertyOp53
 70
     1
102
RTVSPropertyOp54
 70
     1
102
RTVSPropertyOp55
 70
     1
102
RTVSPropertyOp56
 70
     1
102
RTVSPropertyOp57
 70
     1
102
RTVSPost2010Prop28
280
     0
102
RTVSPost2010PropOp28
 70
     1
102
RTVSPost2010Prop29
280
     1
102
RTVSPost2010PropOp29
 70
     1
102
RTVSPost2010Prop30
280
     1
102
RTVSPost2010PropOp30
 70
     1
102
RTVSPost2010Prop31
280
     0
102
RTVSPost2010PropOp31
 70
     1
102
RTVSPost2010Prop32
280
     0
102
RTVSPost2010PropOp32
 70
     1
102
RTVSPost2010Prop33
280
     0
102
RTVSPost2010PropOp33
 70
     1
102
RTVSPost2010Prop34
280
     0
102
RTVSPost2010PropOp34
 70
     1
102
RTVSPost2010Prop35
280
     0
102
RTVSPost2010PropOp35
 70
     1
102
RTVSPost2010Prop36
280
     0
102
RTVSPost2010PropOp36
 70
     1
102
RTVSPost2010Prop37
 90
       50
102
RTVSPost2010PropOp37
 70
     1
102
RTVSPost2010Prop38
140
0.0
102
RTVSPost2010PropOp38
 70
     1
102
RTVSPost2010Prop39
140
1.0
102
RTVSPost2010PropOp39
 70
     1
102
RTVSPost2010Prop40
 90
        0
102
RTVSPost2010PropOp40
 70
     1
102
RTVSPost2010Prop41ColorIndex
 90
       18
102
RTVSPost2010Prop41ColorRGB
 90
        0
102
RTVSPost2010PropOp41
 70
     1
102
RTVSPost2010Prop42
 90
       50
102
RTVSPost2010PropOp42
 70
     1
102
RTVSPost2010Prop43
 90
        3
102
RTVSPost2010PropOp43
 70
     1
102
RTVSPost2010Prop44ColorIndex
 90
        5
102
RTVSPost2010Prop44ColorRGB
 90
      255
102
RTVSPost2010PropOp44
 70
     1
102
RTVSPost2010Prop45
280
     0
102
RTVSPost2010PropOp45
 70
     1
102
RTVSPost2010Prop46
 90
       50
102
RTVSPost2010PropOp46
 70
     1
102
RTVSPost2010Prop47
 90
       50
102
RTVSPost2010PropOp47
 70
     1
102
RTVSPost2010Prop48
 90
       50
102
RTVSPost2010PropOp48
 70
     1
102
RTVSPost2010Prop49
280
     0
102
RTVSPost2010PropOp49
 70
     1
102
RTVSPost2010Prop50
 90
       50
102
RTVSPost2010PropOp50
 70
     1
102
RTVSPost2010Prop51ColorIndex
 90
      256
102
RTVSPost2010Prop51ColorRGB
 90
-16777216
102
RTVSPost2010PropOp51
 70
     0
102
RTVSPost2010Prop52
140
1.0
102
RTVSPost2010PropOp52
 70
     0
102
RTVSPost2010Prop53
 90
        2
102
RTVSPost2010PropOp53
 70
     1
102
RTVSPost2010Prop54
  1
strokes_ogs.tif
102
RTVSPost2010PropOp54
 70
     1
102
RTVSPost2010Prop55
280
     0
102
RTVSPost2010PropOp55
 70
     1
102
RTVSPost2010Prop56
140
1.0
102
RTVSPost2010PropOp56
 70
     1
102
RTVSPost2010Prop57
140
1.0
102
RTVSPost2010PropOp57
 70
     1
  0
XRECORD
  5
1CF
102
{ACAD_REACTORS
330
1CE
102
}
330
1CE
100
AcDbXrecord
280
     1
102
RTVSPropertyOp0
 70
     0
102
RTVSPropertyOp1
 70
     0
102
RTVSPropertyOp2
 70
     0
102
RTVSPropertyOp3
 70
     0
102
RTVSPropertyOp4
 70
     0
102
RTVSPropertyOp5
 70
     0
102
RTVSPropertyOp6
 70
     0
102
RTVSPropertyOp7
 70
     0
102
RTVSPropertyOp8
 70
     0
102
RTVSPropertyOp9
 70
     0
102
RTVSPropertyOp10
 70
     0
102
RTVSPropertyOp11
 70
     0
102
RTVSPropertyOp12
 70
     0
102
RTVSPropertyOp13
 70
     0
102
RTVSPropertyOp14
 70
     2
102
RTVSPropertyOp15
 70
     0
102
RTVSPropertyOp16
 70
     0
102
RTVSPropertyOp17
 70
     0
102
RTVSPropertyOp18
 70
     0
102
RTVSPropertyOp19
 70
     0
102
RTVSPropertyOp20
 70
     0
102
RTVSPropertyOp21
 70
     0
102
RTVSPropertyOp22
 70
     0
102
RTVSPropertyOp23
 70
     0
102
RTVSPropertyOp24
 70
     0
102
RTVSPropertyOp25
 70
     0
102
RTVSPropertyOp26
 70
     0
102
RTVSPropertyOp27
 70
     0
102
RTVSPropertyOp28
 70
     0
102
RTVSPropertyOp29
 70
     0
102
RTVSPropertyOp30
 70
     0
102
RTVSPropertyOp31
 70
     0
102
RTVSPropertyOp32
 70
     0
102
RTVSPropertyOp33
 70
     0
102
RTVSPropertyOp34
 70
     0
102
RTVSPropertyOp35
 70
     0
102
RTVSPropertyOp36
 70
     0
102
RTVSPropertyOp37
 70
     0
102
RTVSPropertyOp38
 70
     0
102
RTVSPropertyOp39
 70
     0
102
RTVSPropertyOp40
 70
     0
102
RTVSPropertyOp41
 70
     0
102
RTVSPropertyOp42
 70
     0
102
RTVSPropertyOp43
 70
     0
102
RTVSPropertyOp44
 70
     0
102
RTVSPropertyOp45
 70
     0
102
RTVSPropertyOp46
 70
     0
102
RTVSPropertyOp47
 70
     0
102
RTVSPropertyOp48
 70
     0
102
RTVSPropertyOp49
 70
     0
102
RTVSPropertyOp50
 70
     0
102
RTVSPropertyOp51
 70
     0
102
RTVSPropertyOp52
 70
     0
102
RTVSPropertyOp53
 70
     0
102
RTVSPropertyOp54
 70
     0
102
RTVSPropertyOp55
 70
     0
102
RTVSPropertyOp56
 70
     0
102
RTVSPropertyOp57
 70
     0
102
RTVSPost2010Prop28
280
     0
102
RTVSPost2010PropOp28
 70
     0
102
RTVSPost2010Prop29
280
     1
102
RTVSPost2010PropOp29
 70
     0
102
RTVSPost2010Prop30
280
     1
102
RTVSPost2010PropOp30
 70
     0
102
RTVSPost2010Prop31
280
     0
102
RTVSPost2010PropOp31
 70
     0
102
RTVSPost2010Prop32
280
     0
102
RTVSPost2010PropOp32
 70
     0
102
RTVSPost2010Prop33
280
     0
102
RTVSPost2010PropOp33
 70
     0
102
RTVSPost2010Prop34
280
     0
102
RTVSPost2010PropOp34
 70
     0
102
RTVSPost2010Prop35
280
     0
102
RTVSPost2010PropOp35
 70
     0
102
RTVSPost2010Prop36
280
     0
102
RTVSPost2010PropOp36
 70
     0
102
RTVSPost2010Prop37
 90
       50
102
RTVSPost2010PropOp37
 70
     0
102
RTVSPost2010Prop38
140
0.0
102
RTVSPost2010PropOp38
 70
     0
102
RTVSPost2010Prop39
140
1.0
102
RTVSPost2010PropOp39
 70
     0
102
RTVSPost2010Prop40
 90
        0
102
RTVSPost2010PropOp40
 70
     0
102
RTVSPost2010Prop41ColorIndex
 90
       18
102
RTVSPost2010Prop41ColorRGB
 90
        0
102
RTVSPost2010PropOp41
 70
     0
102
RTVSPost2010Prop42
 90
       50
102
RTVSPost2010PropOp42
 70
     0
102
RTVSPost2010Prop43
 90
        3
102
RTVSPost2010PropOp43
 70
     0
102
RTVSPost2010Prop44ColorIndex
 90
        5
102
RTVSPost2010Prop44ColorRGB
 90
      255
102
RTVSPost2010PropOp44
 70
     0
102
RTVSPost2010Prop45
280
     0
102
RTVSPost2010PropOp45
 70
     0
102
RTVSPost2010Prop46
 90
       50
102
RTVSPost2010PropOp46
 70
     0
102
RTVSPost2010Prop47
 90
       50
102
RTVSPost2010PropOp47
 70
     0
102
RTVSPost2010Prop48
 90
       50
102
RTVSPost2010PropOp48
 70
     0
102
RTVSPost2010Prop49
280
     0
102
RTVSPost2010PropOp49
 70
     0
102
RTVSPost2010Prop50
 90
       50
102
RTVSPost2010PropOp50
 70
     0
102
RTVSPost2010Prop51ColorIndex
 90
      256
102
RTVSPost2010Prop51ColorRGB
 90
-16777216
102
RTVSPost2010PropOp51
 70
     0
102
RTVSPost2010Prop52
140
1.0
102
RTVSPost2010PropOp52
 70
     0
102
RTVSPost2010Prop53
 90
        2
102
RTVSPost2010PropOp53
 70
     0
102
RTVSPost2010Prop54
  1
strokes_ogs.tif
102
RTVSPost2010PropOp54
 70
     0
102
RTVSPost2010Prop55
280
     0
102
RTVSPost2010PropOp55
 70
     0
102
RTVSPost2010Prop56
140
1.0
102
RTVSPost2010PropOp56
 70
     0
102
RTVSPost2010Prop57
140
1.0
102
RTVSPost2010PropOp57
 70
     0
  0
XRECORD
  5
1C9
102
{ACAD_REACTORS
330
1C8
102
}
330
1C8
100
AcDbXrecord
280
     1
102
RTVSPropertyOp0
 70
     1
102
RTVSPropertyOp1
 70
     1
102
RTVSPropertyOp2
 70
     1
102
RTVSPropertyOp3
 70
     1
102
RTVSPropertyOp4
 70
     1
102
RTVSPropertyOp5
 70
     1
102
RTVSPropertyOp6
 70
     1
102
RTVSPropertyOp7
 70
     1
102
RTVSPropertyOp8
 70
     1
102
RTVSPropertyOp9
 70
     1
102
RTVSPropertyOp10
 70
     1
102
RTVSPropertyOp11
 70
     1
102
RTVSPropertyOp12
 70
     1
102
RTVSPropertyOp13
 70
     1
102
RTVSPropertyOp14
 70
     1
102
RTVSPropertyOp15
 70
     1
102
RTVSPropertyOp16
 70
     1
102
RTVSPropertyOp17
 70
     1
102
RTVSPropertyOp18
 70
     1
102
RTVSPropertyOp19
 70
     1
102
RTVSPropertyOp20
 70
     1
102
RTVSPropertyOp21
 70
     1
102
RTVSPropertyOp22
 70
     1
102
RTVSPropertyOp23
 70
     1
102
RTVSPropertyOp24
 70
     1
102
RTVSPropertyOp25
 70
     1
102
RTVSPropertyOp26
 70
     1
102
RTVSPropertyOp27
 70
     1
102
RTVSPropertyOp28
 70
     1
102
RTVSPropertyOp29
 70
     1
102
RTVSPropertyOp30
 70
     1
102
RTVSPropertyOp31
 70
     1
102
RTVSPropertyOp32
 70
     1
102
RTVSPropertyOp33
 70
     1
102
RTVSPropertyOp34
 70
     1
102
RTVSPropertyOp35
 70
     1
102
RTVSPropertyOp36
 70
     1
102
RTVSPropertyOp37
 70
     1
102
RTVSPropertyOp38
 70
     1
102
RTVSPropertyOp39
 70
     1
102
RTVSPropertyOp40
 70
     1
102
RTVSPropertyOp41
 70
     1
102
RTVSPropertyOp42
 70
     1
102
RTVSPropertyOp43
 70
     1
102
RTVSPropertyOp44
 70
     1
102
RTVSPropertyOp45
 70
     1
102
RTVSPropertyOp46
 70
     1
102
RTVSPropertyOp47
 70
     1
102
RTVSPropertyOp48
 70
     1
102
RTVSPropertyOp49
 70
     1
102
RTVSPropertyOp50
 70
     1
102
RTVSPropertyOp51
 70
     0
102
RTVSPropertyOp52
 70
     0
102
RTVSPropertyOp53
 70
     1
102
RTVSPropertyOp54
 70
     1
102
RTVSPropertyOp55
 70
     1
102
RTVSPropertyOp56
 70
     1
102
RTVSPropertyOp57
 70
     1
102
RTVSPost2010Prop28
280
     0
102
RTVSPost2010PropOp28
 70
     1
102
RTVSPost2010Prop29
280
     1
102
RTVSPost2010PropOp29
 70
     1
102
RTVSPost2010Prop30
280
     1
102
RTVSPost2010PropOp30
 70
     1
102
RTVSPost2010Prop31
280
     0
102
RTVSPost2010PropOp31
 70
     1
102
RTVSPost2010Prop32
280
     0
102
RTVSPost2010PropOp32
 70
     1
102
RTVSPost2010Prop33
280
     0
102
RTVSPost2010PropOp33
 70
     1
102
RTVSPost2010Prop34
280
     0
102
RTVSPost2010PropOp34
 70
     1
102
RTVSPost2010Prop35
280
     0
102
RTVSPost2010PropOp35
 70
     1
102
RTVSPost2010Prop36
280
     0
102
RTVSPost2010PropOp36
 70
     1
102
RTVSPost2010Prop37
 90
       50
102
RTVSPost2010PropOp37
 70
     1
102
RTVSPost2010Prop38
140
0.0
102
RTVSPost2010PropOp38
 70
     1
102
RTVSPost2010Prop39
140
1.0
102
RTVSPost2010PropOp39
 70
     1
102
RTVSPost2010Prop40
 90
        0
102
RTVSPost2010PropOp40
 70
     1
102
RTVSPost2010Prop41ColorIndex
 90
       18
102
RTVSPost2010Prop41ColorRGB
 90
        0
102
RTVSPost2010PropOp41
 70
     1
102
RTVSPost2010Prop42
 90
       50
102
RTVSPost2010PropOp42
 70
     1
102
RTVSPost2010Prop43
 90
        3
102
RTVSPost2010PropOp43
 70
     1
102
RTVSPost2010Prop44ColorIndex
 90
        5
102
RTVSPost2010Prop44ColorRGB
 90
      255
102
RTVSPost2010PropOp44
 70
     1
102
RTVSPost2010Prop45
280
     0
102
RTVSPost2010PropOp45
 70
     1
102
RTVSPost2010Prop46
 90
       50
102
RTVSPost2010PropOp46
 70
     1
102
RTVSPost2010Prop47
 90
       50
102
RTVSPost2010PropOp47
 70
     1
102
RTVSPost2010Prop48
 90
       50
102
RTVSPost2010PropOp48
 70
     1
102
RTVSPost2010Prop49
280
     0
102
RTVSPost2010PropOp49
 70
     1
102
RTVSPost2010Prop50
 90
       50
102
RTVSPost2010PropOp50
 70
     1
102
RTVSPost2010Prop51ColorIndex
 90
      256
102
RTVSPost2010Prop51ColorRGB
 90
-16777216
102
RTVSPost2010PropOp51
 70
     0
102
RTVSPost2010Prop52
140
1.0
102
RTVSPost2010PropOp52
 70
     0
102
RTVSPost2010Prop53
 90
        2
102
RTVSPost2010PropOp53
 70
     1
102
RTVSPost2010Prop54
  1
strokes_ogs.tif
102
RTVSPost2010PropOp54
 70
     1
102
RTVSPost2010Prop55
280
     0
102
RTVSPost2010PropOp55
 70
     1
102
RTVSPost2010Prop56
140
1.0
102
RTVSPost2010PropOp56
 70
     1
102
RTVSPost2010Prop57
140
1.0
102
RTVSPost2010PropOp57
 70
     1
  0
XRECORD
  5
1D1
102
{ACAD_REACTORS
330
1D0
102
}
330
1D0
100
AcDbXrecord
280
     1
102
RTVSPropertyOp0
 70
     0
102
RTVSPropertyOp1
 70
     0
102
RTVSPropertyOp2
 70
     0
102
RTVSPropertyOp3
 70
     0
102
RTVSPropertyOp4
 70
     0
102
RTVSPropertyOp5
 70
     0
102
RTVSPropertyOp6
 70
     0
102
RTVSPropertyOp7
 70
     0
102
RTVSPropertyOp8
 70
     0
102
RTVSPropertyOp9
 70
     0
102
RTVSPropertyOp10
 70
     0
102
RTVSPropertyOp11
 70
     0
102
RTVSPropertyOp12
 70
     0
102
RTVSPropertyOp13
 70
     0
102
RTVSPropertyOp14
 70
     2
102
RTVSPropertyOp15
 70
     0
102
RTVSPropertyOp16
 70
     0
102
RTVSPropertyOp17
 70
     0
102
RTVSPropertyOp18
 70
     0
102
RTVSPropertyOp19
 70
     0
102
RTVSPropertyOp20
 70
     0
102
RTVSPropertyOp21
 70
     0
102
RTVSPropertyOp22
 70
     0
102
RTVSPropertyOp23
 70
     0
102
RTVSPropertyOp24
 70
     0
102
RTVSPropertyOp25
 70
     0
102
RTVSPropertyOp26
 70
     0
102
RTVSPropertyOp27
 70
     0
102
RTVSPropertyOp28
 70
     0
102
RTVSPropertyOp29
 70
     0
102
RTVSPropertyOp30
 70
     0
102
RTVSPropertyOp31
 70
     0
102
RTVSPropertyOp32
 70
     0
102
RTVSPropertyOp33
 70
     0
102
RTVSPropertyOp34
 70
     0
102
RTVSPropertyOp35
 70
     0
102
RTVSPropertyOp36
 70
     0
102
RTVSPropertyOp37
 70
     0
102
RTVSPropertyOp38
 70
     0
102
RTVSPropertyOp39
 70
     0
102
RTVSPropertyOp40
 70
     0
102
RTVSPropertyOp41
 70
     0
102
RTVSPropertyOp42
 70
     0
102
RTVSPropertyOp43
 70
     0
102
RTVSPropertyOp44
 70
     0
102
RTVSPropertyOp45
 70
     0
102
RTVSPropertyOp46
 70
     0
102
RTVSPropertyOp47
 70
     0
102
RTVSPropertyOp48
 70
     0
102
RTVSPropertyOp49
 70
     0
102
RTVSPropertyOp50
 70
     0
102
RTVSPropertyOp51
 70
     0
102
RTVSPropertyOp52
 70
     0
102
RTVSPropertyOp53
 70
     0
102
RTVSPropertyOp54
 70
     0
102
RTVSPropertyOp55
 70
     0
102
RTVSPropertyOp56
 70
     0
102
RTVSPropertyOp57
 70
     0
102
RTVSPost2010Prop28
280
     0
102
RTVSPost2010PropOp28
 70
     0
102
RTVSPost2010Prop29
280
     1
102
RTVSPost2010PropOp29
 70
     0
102
RTVSPost2010Prop30
280
     1
102
RTVSPost2010PropOp30
 70
     0
102
RTVSPost2010Prop31
280
     0
102
RTVSPost2010PropOp31
 70
     0
102
RTVSPost2010Prop32
280
     0
102
RTVSPost2010PropOp32
 70
     0
102
RTVSPost2010Prop33
280
     0
102
RTVSPost2010PropOp33
 70
     0
102
RTVSPost2010Prop34
280
     0
102
RTVSPost2010PropOp34
 70
     0
102
RTVSPost2010Prop35
280
     0
102
RTVSPost2010PropOp35
 70
     0
102
RTVSPost2010Prop36
280
     0
102
RTVSPost2010PropOp36
 70
     0
102
RTVSPost2010Prop37
 90
       50
102
RTVSPost2010PropOp37
 70
     0
102
RTVSPost2010Prop38
140
0.0
102
RTVSPost2010PropOp38
 70
     0
102
RTVSPost2010Prop39
140
1.0
102
RTVSPost2010PropOp39
 70
     0
102
RTVSPost2010Prop40
 90
        0
102
RTVSPost2010PropOp40
 70
     0
102
RTVSPost2010Prop41ColorIndex
 90
       18
102
RTVSPost2010Prop41ColorRGB
 90
        0
102
RTVSPost2010PropOp41
 70
     0
102
RTVSPost2010Prop42
 90
       50
102
RTVSPost2010PropOp42
 70
     0
102
RTVSPost2010Prop43
 90
        3
102
RTVSPost2010PropOp43
 70
     0
102
RTVSPost2010Prop44ColorIndex
 90
        5
102
RTVSPost2010Prop44ColorRGB
 90
      255
102
RTVSPost2010PropOp44
 70
     0
102
RTVSPost2010Prop45
280
     0
102
RTVSPost2010PropOp45
 70
     0
102
RTVSPost2010Prop46
 90
       50
102
RTVSPost2010PropOp46
 70
     0
102
RTVSPost2010Prop47
 90
       50
102
RTVSPost2010PropOp47
 70
     0
102
RTVSPost2010Prop48
 90
       50
102
RTVSPost2010PropOp48
 70
     0
102
RTVSPost2010Prop49
280
     0
102
RTVSPost2010PropOp49
 70
     0
102
RTVSPost2010Prop50
 90
       50
102
RTVSPost2010PropOp50
 70
     0
102
RTVSPost2010Prop51ColorIndex
 90
      256
102
RTVSPost2010Prop51ColorRGB
 90
-16777216
102
RTVSPost2010PropOp51
 70
     0
102
RTVSPost2010Prop52
140
1.0
102
RTVSPost2010PropOp52
 70
     0
102
RTVSPost2010Prop53
 90
        2
102
RTVSPost2010PropOp53
 70
     0
102
RTVSPost2010Prop54
  1
strokes_ogs.tif
102
RTVSPost2010PropOp54
 70
     0
102
RTVSPost2010Prop55
280
     0
102
RTVSPost2010PropOp55
 70
     0
102
RTVSPost2010Prop56
140
1.0
102
RTVSPost2010PropOp56
 70
     0
102
RTVSPost2010Prop57
140
1.0
102
RTVSPost2010PropOp57
 70
     0
  0
XRECORD
  5
1BF
102
{ACAD_REACTORS
330
1BE
102
}
330
1BE
100
AcDbXrecord
280
     1
102
RTVSPropertyOp0
 70
     1
102
RTVSPropertyOp1
 70
     1
102
RTVSPropertyOp2
 70
     1
102
RTVSPropertyOp3
 70
     1
102
RTVSPropertyOp4
 70
     1
102
RTVSPropertyOp5
 70
     1
102
RTVSPropertyOp6
 70
     1
102
RTVSPropertyOp7
 70
     1
102
RTVSPropertyOp8
 70
     1
102
RTVSPropertyOp9
 70
     1
102
RTVSPropertyOp10
 70
     1
102
RTVSPropertyOp11
 70
     1
102
RTVSPropertyOp12
 70
     1
102
RTVSPropertyOp13
 70
     1
102
RTVSPropertyOp14
 70
     1
102
RTVSPropertyOp15
 70
     1
102
RTVSPropertyOp16
 70
     1
102
RTVSPropertyOp17
 70
     1
102
RTVSPropertyOp18
 70
     1
102
RTVSPropertyOp19
 70
     1
102
RTVSPropertyOp20
 70
     1
102
RTVSPropertyOp21
 70
     1
102
RTVSPropertyOp22
 70
     1
102
RTVSPropertyOp23
 70
     1
102
RTVSPropertyOp24
 70
     1
102
RTVSPropertyOp25
 70
     1
102
RTVSPropertyOp26
 70
     1
102
RTVSPropertyOp27
 70
     1
102
RTVSPropertyOp28
 70
     1
102
RTVSPropertyOp29
 70
     1
102
RTVSPropertyOp30
 70
     1
102
RTVSPropertyOp31
 70
     1
102
RTVSPropertyOp32
 70
     1
102
RTVSPropertyOp33
 70
     1
102
RTVSPropertyOp34
 70
     1
102
RTVSPropertyOp35
 70
     1
102
RTVSPropertyOp36
 70
     1
102
RTVSPropertyOp37
 70
     1
102
RTVSPropertyOp38
 70
     1
102
RTVSPropertyOp39
 70
     1
102
RTVSPropertyOp40
 70
     1
102
RTVSPropertyOp41
 70
     1
102
RTVSPropertyOp42
 70
     1
102
RTVSPropertyOp43
 70
     1
102
RTVSPropertyOp44
 70
     1
102
RTVSPropertyOp45
 70
     1
102
RTVSPropertyOp46
 70
     1
102
RTVSPropertyOp47
 70
     1
102
RTVSPropertyOp48
 70
     1
102
RTVSPropertyOp49
 70
     1
102
RTVSPropertyOp50
 70
     1
102
RTVSPropertyOp51
 70
     0
102
RTVSPropertyOp52
 70
     0
102
RTVSPropertyOp53
 70
     1
102
RTVSPropertyOp54
 70
     1
102
RTVSPropertyOp55
 70
     1
102
RTVSPropertyOp56
 70
     1
102
RTVSPropertyOp57
 70
     1
102
RTVSPost2010Prop28
280
     0
102
RTVSPost2010PropOp28
 70
     1
102
RTVSPost2010Prop29
280
     1
102
RTVSPost2010PropOp29
 70
     1
102
RTVSPost2010Prop30
280
     1
102
RTVSPost2010PropOp30
 70
     1
102
RTVSPost2010Prop31
280
     0
102
RTVSPost2010PropOp31
 70
     1
102
RTVSPost2010Prop32
280
     0
102
RTVSPost2010PropOp32
 70
     1
102
RTVSPost2010Prop33
280
     0
102
RTVSPost2010PropOp33
 70
     1
102
RTVSPost2010Prop34
280
     0
102
RTVSPost2010PropOp34
 70
     1
102
RTVSPost2010Prop35
280
     0
102
RTVSPost2010PropOp35
 70
     1
102
RTVSPost2010Prop36
280
     0
102
RTVSPost2010PropOp36
 70
     1
102
RTVSPost2010Prop37
 90
       50
102
RTVSPost2010PropOp37
 70
     1
102
RTVSPost2010Prop38
140
0.0
102
RTVSPost2010PropOp38
 70
     1
102
RTVSPost2010Prop39
140
1.0
102
RTVSPost2010PropOp39
 70
     1
102
RTVSPost2010Prop40
 90
        0
102
RTVSPost2010PropOp40
 70
     1
102
RTVSPost2010Prop41ColorIndex
 90
       18
102
RTVSPost2010Prop41ColorRGB
 90
        0
102
RTVSPost2010PropOp41
 70
     1
102
RTVSPost2010Prop42
 90
       50
102
RTVSPost2010PropOp42
 70
     1
102
RTVSPost2010Prop43
 90
        3
102
RTVSPost2010PropOp43
 70
     1
102
RTVSPost2010Prop44ColorIndex
 90
        5
102
RTVSPost2010Prop44ColorRGB
 90
      255
102
RTVSPost2010PropOp44
 70
     1
102
RTVSPost2010Prop45
280
     0
102
RTVSPost2010PropOp45
 70
     1
102
RTVSPost2010Prop46
 90
       50
102
RTVSPost2010PropOp46
 70
     1
102
RTVSPost2010Prop47
 90
       50
102
RTVSPost2010PropOp47
 70
     1
102
RTVSPost2010Prop48
 90
       50
102
RTVSPost2010PropOp48
 70
     1
102
RTVSPost2010Prop49
280
     0
102
RTVSPost2010PropOp49
 70
     1
102
RTVSPost2010Prop50
 90
       50
102
RTVSPost2010PropOp50
 70
     1
102
RTVSPost2010Prop51ColorIndex
 90
      256
102
RTVSPost2010Prop51ColorRGB
 90
-16777216
102
RTVSPost2010PropOp51
 70
     0
102
RTVSPost2010Prop52
140
1.0
102
RTVSPost2010PropOp52
 70
     0
102
RTVSPost2010Prop53
 90
        2
102
RTVSPost2010PropOp53
 70
     1
102
RTVSPost2010Prop54
  1
strokes_ogs.tif
102
RTVSPost2010PropOp54
 70
     1
102
RTVSPost2010Prop55
280
     0
102
RTVSPost2010PropOp55
 70
     1
102
RTVSPost2010Prop56
140
1.0
102
RTVSPost2010PropOp56
 70
     1
102
RTVSPost2010Prop57
140
1.0
102
RTVSPost2010PropOp57
 70
     1
  0
XRECORD
  5
1DD
102
{ACAD_REACTORS
330
1DC
102
}
330
1DC
100
AcDbXrecord
280
     1
102
RTVSPropertyOp0
 70
     1
102
RTVSPropertyOp1
 70
     1
102
RTVSPropertyOp2
 70
     1
102
RTVSPropertyOp3
 70
     1
102
RTVSPropertyOp4
 70
     1
102
RTVSPropertyOp5
 70
     1
102
RTVSPropertyOp6
 70
     1
102
RTVSPropertyOp7
 70
     1
102
RTVSPropertyOp8
 70
     1
102
RTVSPropertyOp9
 70
     1
102
RTVSPropertyOp10
 70
     1
102
RTVSPropertyOp11
 70
     1
102
RTVSPropertyOp12
 70
     1
102
RTVSPropertyOp13
 70
     1
102
RTVSPropertyOp14
 70
     1
102
RTVSPropertyOp15
 70
     1
102
RTVSPropertyOp16
 70
     1
102
RTVSPropertyOp17
 70
     1
102
RTVSPropertyOp18
 70
     1
102
RTVSPropertyOp19
 70
     1
102
RTVSPropertyOp20
 70
     1
102
RTVSPropertyOp21
 70
     1
102
RTVSPropertyOp22
 70
     1
102
RTVSPropertyOp23
 70
     1
102
RTVSPropertyOp24
 70
     1
102
RTVSPropertyOp25
 70
     1
102
RTVSPropertyOp26
 70
     1
102
RTVSPropertyOp27
 70
     1
102
RTVSPropertyOp28
 70
     1
102
RTVSPropertyOp29
 70
     1
102
RTVSPropertyOp30
 70
     1
102
RTVSPropertyOp31
 70
     1
102
RTVSPropertyOp32
 70
     1
102
RTVSPropertyOp33
 70
     1
102
RTVSPropertyOp34
 70
     1
102
RTVSPropertyOp35
 70
     1
102
RTVSPropertyOp36
 70
     1
102
RTVSPropertyOp37
 70
     1
102
RTVSPropertyOp38
 70
     1
102
RTVSPropertyOp39
 70
     1
102
RTVSPropertyOp40
 70
     1
102
RTVSPropertyOp41
 70
     1
102
RTVSPropertyOp42
 70
     1
102
RTVSPropertyOp43
 70
     1
102
RTVSPropertyOp44
 70
     1
102
RTVSPropertyOp45
 70
     1
102
RTVSPropertyOp46
 70
     1
102
RTVSPropertyOp47
 70
     1
102
RTVSPropertyOp48
 70
     1
102
RTVSPropertyOp49
 70
     1
102
RTVSPropertyOp50
 70
     1
102
RTVSPropertyOp51
 70
     0
102
RTVSPropertyOp52
 70
     0
102
RTVSPropertyOp53
 70
     1
102
RTVSPropertyOp54
 70
     1
102
RTVSPropertyOp55
 70
     1
102
RTVSPropertyOp56
 70
     1
102
RTVSPropertyOp57
 70
     1
102
RTVSPost2010Prop28
280
     0
102
RTVSPost2010PropOp28
 70
     1
102
RTVSPost2010Prop29
280
     1
102
RTVSPost2010PropOp29
 70
     1
102
RTVSPost2010Prop30
280
     1
102
RTVSPost2010PropOp30
 70
     1
102
RTVSPost2010Prop31
280
     0
102
RTVSPost2010PropOp31
 70
     1
102
RTVSPost2010Prop32
280
     0
102
RTVSPost2010PropOp32
 70
     1
102
RTVSPost2010Prop33
280
     0
102
RTVSPost2010PropOp33
 70
     1
102
RTVSPost2010Prop34
280
     0
102
RTVSPost2010PropOp34
 70
     1
102
RTVSPost2010Prop35
280
     0
102
RTVSPost2010PropOp35
 70
     1
102
RTVSPost2010Prop36
280
     0
102
RTVSPost2010PropOp36
 70
     1
102
RTVSPost2010Prop37
 90
       50
102
RTVSPost2010PropOp37
 70
     1
102
RTVSPost2010Prop38
140
0.0
102
RTVSPost2010PropOp38
 70
     1
102
RTVSPost2010Prop39
140
1.0
102
RTVSPost2010PropOp39
 70
     1
102
RTVSPost2010Prop40
 90
        0
102
RTVSPost2010PropOp40
 70
     1
102
RTVSPost2010Prop41ColorIndex
 90
       18
102
RTVSPost2010Prop41ColorRGB
 90
        0
102
RTVSPost2010PropOp41
 70
     1
102
RTVSPost2010Prop42
 90
       50
102
RTVSPost2010PropOp42
 70
     1
102
RTVSPost2010Prop43
 90
        3
102
RTVSPost2010PropOp43
 70
     1
102
RTVSPost2010Prop44ColorIndex
 90
        5
102
RTVSPost2010Prop44ColorRGB
 90
      255
102
RTVSPost2010PropOp44
 70
     1
102
RTVSPost2010Prop45
280
     0
102
RTVSPost2010PropOp45
 70
     1
102
RTVSPost2010Prop46
 90
       50
102
RTVSPost2010PropOp46
 70
     1
102
RTVSPost2010Prop47
 90
       50
102
RTVSPost2010PropOp47
 70
     1
102
RTVSPost2010Prop48
 90
       50
102
RTVSPost2010PropOp48
 70
     1
102
RTVSPost2010Prop49
280
     0
102
RTVSPost2010PropOp49
 70
     1
102
RTVSPost2010Prop50
 90
       50
102
RTVSPost2010PropOp50
 70
     1
102
RTVSPost2010Prop51ColorIndex
 90
      256
102
RTVSPost2010Prop51ColorRGB
 90
-16777216
102
RTVSPost2010PropOp51
 70
     0
102
RTVSPost2010Prop52
140
1.0
102
RTVSPost2010PropOp52
 70
     0
102
RTVSPost2010Prop53
 90
        2
102
RTVSPost2010PropOp53
 70
     1
102
RTVSPost2010Prop54
  1
strokes_ogs.tif
102
RTVSPost2010PropOp54
 70
     1
102
RTVSPost2010Prop55
280
     0
102
RTVSPost2010PropOp55
 70
     1
102
RTVSPost2010Prop56
140
1.0
102
RTVSPost2010PropOp56
 70
     1
102
RTVSPost2010Prop57
140
1.0
102
RTVSPost2010PropOp57
 70
     1
  0
XRECORD
  5
1DB
102
{ACAD_REACTORS
330
1DA
102
}
330
1DA
100
AcDbXrecord
280
     1
102
RTVSPropertyOp0
 70
     1
102
RTVSPropertyOp1
 70
     1
102
RTVSPropertyOp2
 70
     1
102
RTVSPropertyOp3
 70
     1
102
RTVSPropertyOp4
 70
     1
102
RTVSPropertyOp5
 70
     1
102
RTVSPropertyOp6
 70
     1
102
RTVSPropertyOp7
 70
     1
102
RTVSPropertyOp8
 70
     1
102
RTVSPropertyOp9
 70
     1
102
RTVSPropertyOp10
 70
     1
102
RTVSPropertyOp11
 70
     1
102
RTVSPropertyOp12
 70
     1
102
RTVSPropertyOp13
 70
     1
102
RTVSPropertyOp14
 70
     1
102
RTVSPropertyOp15
 70
     1
102
RTVSPropertyOp16
 70
     1
102
RTVSPropertyOp17
 70
     1
102
RTVSPropertyOp18
 70
     1
102
RTVSPropertyOp19
 70
     1
102
RTVSPropertyOp20
 70
     1
102
RTVSPropertyOp21
 70
     1
102
RTVSPropertyOp22
 70
     1
102
RTVSPropertyOp23
 70
     1
102
RTVSPropertyOp24
 70
     1
102
RTVSPropertyOp25
 70
     1
102
RTVSPropertyOp26
 70
     1
102
RTVSPropertyOp27
 70
     1
102
RTVSPropertyOp28
 70
     1
102
RTVSPropertyOp29
 70
     1
102
RTVSPropertyOp30
 70
     1
102
RTVSPropertyOp31
 70
     1
102
RTVSPropertyOp32
 70
     1
102
RTVSPropertyOp33
 70
     1
102
RTVSPropertyOp34
 70
     1
102
RTVSPropertyOp35
 70
     1
102
RTVSPropertyOp36
 70
     1
102
RTVSPropertyOp37
 70
     1
102
RTVSPropertyOp38
 70
     1
102
RTVSPropertyOp39
 70
     1
102
RTVSPropertyOp40
 70
     1
102
RTVSPropertyOp41
 70
     1
102
RTVSPropertyOp42
 70
     1
102
RTVSPropertyOp43
 70
     1
102
RTVSPropertyOp44
 70
     1
102
RTVSPropertyOp45
 70
     1
102
RTVSPropertyOp46
 70
     1
102
RTVSPropertyOp47
 70
     1
102
RTVSPropertyOp48
 70
     1
102
RTVSPropertyOp49
 70
     1
102
RTVSPropertyOp50
 70
     1
102
RTVSPropertyOp51
 70
     0
102
RTVSPropertyOp52
 70
     0
102
RTVSPropertyOp53
 70
     1
102
RTVSPropertyOp54
 70
     1
102
RTVSPropertyOp55
 70
     1
102
RTVSPropertyOp56
 70
     1
102
RTVSPropertyOp57
 70
     1
102
RTVSPost2010Prop28
280
     0
102
RTVSPost2010PropOp28
 70
     1
102
RTVSPost2010Prop29
280
     1
102
RTVSPost2010PropOp29
 70
     1
102
RTVSPost2010Prop30
280
     1
102
RTVSPost2010PropOp30
 70
     1
102
RTVSPost2010Prop31
280
     0
102
RTVSPost2010PropOp31
 70
     1
102
RTVSPost2010Prop32
280
     0
102
RTVSPost2010PropOp32
 70
     1
102
RTVSPost2010Prop33
280
     0
102
RTVSPost2010PropOp33
 70
     1
102
RTVSPost2010Prop34
280
     0
102
RTVSPost2010PropOp34
 70
     1
102
RTVSPost2010Prop35
280
     0
102
RTVSPost2010PropOp35
 70
     1
102
RTVSPost2010Prop36
280
     0
102
RTVSPost2010PropOp36
 70
     1
102
RTVSPost2010Prop37
 90
       50
102
RTVSPost2010PropOp37
 70
     1
102
RTVSPost2010Prop38
140
0.0
102
RTVSPost2010PropOp38
 70
     1
102
RTVSPost2010Prop39
140
1.0
102
RTVSPost2010PropOp39
 70
     1
102
RTVSPost2010Prop40
 90
        0
102
RTVSPost2010PropOp40
 70
     1
102
RTVSPost2010Prop41ColorIndex
 90
       18
102
RTVSPost2010Prop41ColorRGB
 90
        0
102
RTVSPost2010PropOp41
 70
     1
102
RTVSPost2010Prop42
 90
       50
102
RTVSPost2010PropOp42
 70
     1
102
RTVSPost2010Prop43
 90
        3
102
RTVSPost2010PropOp43
 70
     1
102
RTVSPost2010Prop44ColorIndex
 90
        5
102
RTVSPost2010Prop44ColorRGB
 90
      255
102
RTVSPost2010PropOp44
 70
     1
102
RTVSPost2010Prop45
280
     0
102
RTVSPost2010PropOp45
 70
     1
102
RTVSPost2010Prop46
 90
       50
102
RTVSPost2010PropOp46
 70
     1
102
RTVSPost2010Prop47
 90
       50
102
RTVSPost2010PropOp47
 70
     1
102
RTVSPost2010Prop48
 90
       50
102
RTVSPost2010PropOp48
 70
     1
102
RTVSPost2010Prop49
280
     0
102
RTVSPost2010PropOp49
 70
     1
102
RTVSPost2010Prop50
 90
       50
102
RTVSPost2010PropOp50
 70
     1
102
RTVSPost2010Prop51ColorIndex
 90
      256
102
RTVSPost2010Prop51ColorRGB
 90
-16777216
102
RTVSPost2010PropOp51
 70
     0
102
RTVSPost2010Prop52
140
1.0
102
RTVSPost2010PropOp52
 70
     0
102
RTVSPost2010Prop53
 90
        2
102
RTVSPost2010PropOp53
 70
     1
102
RTVSPost2010Prop54
  1
strokes_ogs.tif
102
RTVSPost2010PropOp54
 70
     1
102
RTVSPost2010Prop55
280
     0
102
RTVSPost2010PropOp55
 70
     1
102
RTVSPost2010Prop56
140
1.0
102
RTVSPost2010PropOp56
 70
     1
102
RTVSPost2010Prop57
140
1.0
102
RTVSPost2010PropOp57
 70
     1
  0
XRECORD
  5
1D5
102
{ACAD_REACTORS
330
1D4
102
}
330
1D4
100
AcDbXrecord
280
     1
102
RTVSPropertyOp0
 70
     1
102
RTVSPropertyOp1
 70
     1
102
RTVSPropertyOp2
 70
     1
102
RTVSPropertyOp3
 70
     1
102
RTVSPropertyOp4
 70
     1
102
RTVSPropertyOp5
 70
     1
102
RTVSPropertyOp6
 70
     1
102
RTVSPropertyOp7
 70
     1
102
RTVSPropertyOp8
 70
     1
102
RTVSPropertyOp9
 70
     1
102
RTVSPropertyOp10
 70
     1
102
RTVSPropertyOp11
 70
     1
102
RTVSPropertyOp12
 70
     1
102
RTVSPropertyOp13
 70
     1
102
RTVSPropertyOp14
 70
     1
102
RTVSPropertyOp15
 70
     1
102
RTVSPropertyOp16
 70
     1
102
RTVSPropertyOp17
 70
     1
102
RTVSPropertyOp18
 70
     1
102
RTVSPropertyOp19
 70
     1
102
RTVSPropertyOp20
 70
     1
102
RTVSPropertyOp21
 70
     1
102
RTVSPropertyOp22
 70
     1
102
RTVSPropertyOp23
 70
     1
102
RTVSPropertyOp24
 70
     1
102
RTVSPropertyOp25
 70
     1
102
RTVSPropertyOp26
 70
     1
102
RTVSPropertyOp27
 70
     1
102
RTVSPropertyOp28
 70
     1
102
RTVSPropertyOp29
 70
     1
102
RTVSPropertyOp30
 70
     1
102
RTVSPropertyOp31
 70
     1
102
RTVSPropertyOp32
 70
     1
102
RTVSPropertyOp33
 70
     1
102
RTVSPropertyOp34
 70
     1
102
RTVSPropertyOp35
 70
     1
102
RTVSPropertyOp36
 70
     1
102
RTVSPropertyOp37
 70
     1
102
RTVSPropertyOp38
 70
     1
102
RTVSPropertyOp39
 70
     1
102
RTVSPropertyOp40
 70
     1
102
RTVSPropertyOp41
 70
     1
102
RTVSPropertyOp42
 70
     1
102
RTVSPropertyOp43
 70
     1
102
RTVSPropertyOp44
 70
     1
102
RTVSPropertyOp45
 70
     1
102
RTVSPropertyOp46
 70
     1
102
RTVSPropertyOp47
 70
     1
102
RTVSPropertyOp48
 70
     1
102
RTVSPropertyOp49
 70
     1
102
RTVSPropertyOp50
 70
     1
102
RTVSPropertyOp51
 70
     0
102
RTVSPropertyOp52
 70
     0
102
RTVSPropertyOp53
 70
     1
102
RTVSPropertyOp54
 70
     1
102
RTVSPropertyOp55
 70
     1
102
RTVSPropertyOp56
 70
     1
102
RTVSPropertyOp57
 70
     1
102
RTVSPost2010Prop28
280
     0
102
RTVSPost2010PropOp28
 70
     1
102
RTVSPost2010Prop29
280
     1
102
RTVSPost2010PropOp29
 70
     1
102
RTVSPost2010Prop30
280
     1
102
RTVSPost2010PropOp30
 70
     1
102
RTVSPost2010Prop31
280
     0
102
RTVSPost2010PropOp31
 70
     1
102
RTVSPost2010Prop32
280
     0
102
RTVSPost2010PropOp32
 70
     1
102
RTVSPost2010Prop33
280
     0
102
RTVSPost2010PropOp33
 70
     1
102
RTVSPost2010Prop34
280
     0
102
RTVSPost2010PropOp34
 70
     1
102
RTVSPost2010Prop35
280
     0
102
RTVSPost2010PropOp35
 70
     1
102
RTVSPost2010Prop36
280
     0
102
RTVSPost2010PropOp36
 70
     1
102
RTVSPost2010Prop37
 90
       50
102
RTVSPost2010PropOp37
 70
     1
102
RTVSPost2010Prop38
140
0.0
102
RTVSPost2010PropOp38
 70
     1
102
RTVSPost2010Prop39
140
1.0
102
RTVSPost2010PropOp39
 70
     1
102
RTVSPost2010Prop40
 90
        0
102
RTVSPost2010PropOp40
 70
     1
102
RTVSPost2010Prop41ColorIndex
 90
       18
102
RTVSPost2010Prop41ColorRGB
 90
        0
102
RTVSPost2010PropOp41
 70
     1
102
RTVSPost2010Prop42
 90
       50
102
RTVSPost2010PropOp42
 70
     1
102
RTVSPost2010Prop43
 90
        3
102
RTVSPost2010PropOp43
 70
     1
102
RTVSPost2010Prop44ColorIndex
 90
        5
102
RTVSPost2010Prop44ColorRGB
 90
      255
102
RTVSPost2010PropOp44
 70
     1
102
RTVSPost2010Prop45
280
     0
102
RTVSPost2010PropOp45
 70
     1
102
RTVSPost2010Prop46
 90
       50
102
RTVSPost2010PropOp46
 70
     1
102
RTVSPost2010Prop47
 90
       50
102
RTVSPost2010PropOp47
 70
     1
102
RTVSPost2010Prop48
 90
       50
102
RTVSPost2010PropOp48
 70
     1
102
RTVSPost2010Prop49
280
     0
102
RTVSPost2010PropOp49
 70
     1
102
RTVSPost2010Prop50
 90
       50
102
RTVSPost2010PropOp50
 70
     1
102
RTVSPost2010Prop51ColorIndex
 90
      256
102
RTVSPost2010Prop51ColorRGB
 90
-16777216
102
RTVSPost2010PropOp51
 70
     0
102
RTVSPost2010Prop52
140
1.0
102
RTVSPost2010PropOp52
 70
     0
102
RTVSPost2010Prop53
 90
        2
102
RTVSPost2010PropOp53
 70
     1
102
RTVSPost2010Prop54
  1
strokes_ogs.tif
102
RTVSPost2010PropOp54
 70
     1
102
RTVSPost2010Prop55
280
     0
102
RTVSPost2010PropOp55
 70
     1
102
RTVSPost2010Prop56
140
1.0
102
RTVSPost2010PropOp56
 70
     1
102
RTVSPost2010Prop57
140
1.0
102
RTVSPost2010PropOp57
 70
     1
  0
XRECORD
  5
1D7
102
{ACAD_REACTORS
330
1D6
102
}
330
1D6
100
AcDbXrecord
280
     1
102
RTVSPropertyOp0
 70
     1
102
RTVSPropertyOp1
 70
     1
102
RTVSPropertyOp2
 70
     1
102
RTVSPropertyOp3
 70
     1
102
RTVSPropertyOp4
 70
     1
102
RTVSPropertyOp5
 70
     1
102
RTVSPropertyOp6
 70
     1
102
RTVSPropertyOp7
 70
     1
102
RTVSPropertyOp8
 70
     1
102
RTVSPropertyOp9
 70
     1
102
RTVSPropertyOp10
 70
     1
102
RTVSPropertyOp11
 70
     1
102
RTVSPropertyOp12
 70
     1
102
RTVSPropertyOp13
 70
     1
102
RTVSPropertyOp14
 70
     1
102
RTVSPropertyOp15
 70
     1
102
RTVSPropertyOp16
 70
     1
102
RTVSPropertyOp17
 70
     1
102
RTVSPropertyOp18
 70
     1
102
RTVSPropertyOp19
 70
     1
102
RTVSPropertyOp20
 70
     1
102
RTVSPropertyOp21
 70
     1
102
RTVSPropertyOp22
 70
     1
102
RTVSPropertyOp23
 70
     1
102
RTVSPropertyOp24
 70
     1
102
RTVSPropertyOp25
 70
     1
102
RTVSPropertyOp26
 70
     1
102
RTVSPropertyOp27
 70
     1
102
RTVSPropertyOp28
 70
     1
102
RTVSPropertyOp29
 70
     1
102
RTVSPropertyOp30
 70
     1
102
RTVSPropertyOp31
 70
     1
102
RTVSPropertyOp32
 70
     1
102
RTVSPropertyOp33
 70
     1
102
RTVSPropertyOp34
 70
     1
102
RTVSPropertyOp35
 70
     1
102
RTVSPropertyOp36
 70
     1
102
RTVSPropertyOp37
 70
     1
102
RTVSPropertyOp38
 70
     1
102
RTVSPropertyOp39
 70
     1
102
RTVSPropertyOp40
 70
     1
102
RTVSPropertyOp41
 70
     1
102
RTVSPropertyOp42
 70
     1
102
RTVSPropertyOp43
 70
     1
102
RTVSPropertyOp44
 70
     1
102
RTVSPropertyOp45
 70
     1
102
RTVSPropertyOp46
 70
     1
102
RTVSPropertyOp47
 70
     1
102
RTVSPropertyOp48
 70
     1
102
RTVSPropertyOp49
 70
     1
102
RTVSPropertyOp50
 70
     1
102
RTVSPropertyOp51
 70
     0
102
RTVSPropertyOp52
 70
     0
102
RTVSPropertyOp53
 70
     1
102
RTVSPropertyOp54
 70
     1
102
RTVSPropertyOp55
 70
     1
102
RTVSPropertyOp56
 70
     1
102
RTVSPropertyOp57
 70
     1
102
RTVSPost2010Prop28
280
     0
102
RTVSPost2010PropOp28
 70
     1
102
RTVSPost2010Prop29
280
     1
102
RTVSPost2010PropOp29
 70
     1
102
RTVSPost2010Prop30
280
     1
102
RTVSPost2010PropOp30
 70
     1
102
RTVSPost2010Prop31
280
     0
102
RTVSPost2010PropOp31
 70
     1
102
RTVSPost2010Prop32
280
     0
102
RTVSPost2010PropOp32
 70
     1
102
RTVSPost2010Prop33
280
     0
102
RTVSPost2010PropOp33
 70
     1
102
RTVSPost2010Prop34
280
     0
102
RTVSPost2010PropOp34
 70
     1
102
RTVSPost2010Prop35
280
     0
102
RTVSPost2010PropOp35
 70
     1
102
RTVSPost2010Prop36
280
     0
102
RTVSPost2010PropOp36
 70
     1
102
RTVSPost2010Prop37
 90
       50
102
RTVSPost2010PropOp37
 70
     1
102
RTVSPost2010Prop38
140
0.0
102
RTVSPost2010PropOp38
 70
     1
102
RTVSPost2010Prop39
140
1.0
102
RTVSPost2010PropOp39
 70
     1
102
RTVSPost2010Prop40
 90
        0
102
RTVSPost2010PropOp40
 70
     1
102
RTVSPost2010Prop41ColorIndex
 90
       18
102
RTVSPost2010Prop41ColorRGB
 90
        0
102
RTVSPost2010PropOp41
 70
     1
102
RTVSPost2010Prop42
 90
       50
102
RTVSPost2010PropOp42
 70
     1
102
RTVSPost2010Prop43
 90
        3
102
RTVSPost2010PropOp43
 70
     1
102
RTVSPost2010Prop44ColorIndex
 90
        5
102
RTVSPost2010Prop44ColorRGB
 90
      255
102
RTVSPost2010PropOp44
 70
     1
102
RTVSPost2010Prop45
280
     0
102
RTVSPost2010PropOp45
 70
     1
102
RTVSPost2010Prop46
 90
       50
102
RTVSPost2010PropOp46
 70
     1
102
RTVSPost2010Prop47
 90
       50
102
RTVSPost2010PropOp47
 70
     1
102
RTVSPost2010Prop48
 90
       50
102
RTVSPost2010PropOp48
 70
     1
102
RTVSPost2010Prop49
280
     0
102
RTVSPost2010PropOp49
 70
     1
102
RTVSPost2010Prop50
 90
       50
102
RTVSPost2010PropOp50
 70
     1
102
RTVSPost2010Prop51ColorIndex
 90
      256
102
RTVSPost2010Prop51ColorRGB
 90
-16777216
102
RTVSPost2010PropOp51
 70
     0
102
RTVSPost2010Prop52
140
1.0
102
RTVSPost2010PropOp52
 70
     0
102
RTVSPost2010Prop53
 90
        2
102
RTVSPost2010PropOp53
 70
     1
102
RTVSPost2010Prop54
  1
strokes_ogs.tif
102
RTVSPost2010PropOp54
 70
     1
102
RTVSPost2010Prop55
280
     0
102
RTVSPost2010PropOp55
 70
     1
102
RTVSPost2010Prop56
140
1.0
102
RTVSPost2010PropOp56
 70
     1
102
RTVSPost2010Prop57
140
1.0
102
RTVSPost2010PropOp57
 70
     1
  0
XRECORD
  5
1C7
102
{ACAD_REACTORS
330
1C6
102
}
330
1C6
100
AcDbXrecord
280
     1
102
RTVSPropertyOp0
 70
     1
102
RTVSPropertyOp1
 70
     1
102
RTVSPropertyOp2
 70
     1
102
RTVSPropertyOp3
 70
     1
102
RTVSPropertyOp4
 70
     1
102
RTVSPropertyOp5
 70
     1
102
RTVSPropertyOp6
 70
     1
102
RTVSPropertyOp7
 70
     1
102
RTVSPropertyOp8
 70
     1
102
RTVSPropertyOp9
 70
     1
102
RTVSPropertyOp10
 70
     1
102
RTVSPropertyOp11
 70
     1
102
RTVSPropertyOp12
 70
     1
102
RTVSPropertyOp13
 70
     1
102
RTVSPropertyOp14
 70
     1
102
RTVSPropertyOp15
 70
     1
102
RTVSPropertyOp16
 70
     1
102
RTVSPropertyOp17
 70
     1
102
RTVSPropertyOp18
 70
     1
102
RTVSPropertyOp19
 70
     1
102
RTVSPropertyOp20
 70
     1
102
RTVSPropertyOp21
 70
     1
102
RTVSPropertyOp22
 70
     1
102
RTVSPropertyOp23
 70
     1
102
RTVSPropertyOp24
 70
     1
102
RTVSPropertyOp25
 70
     1
102
RTVSPropertyOp26
 70
     1
102
RTVSPropertyOp27
 70
     1
102
RTVSPropertyOp28
 70
     1
102
RTVSPropertyOp29
 70
     1
102
RTVSPropertyOp30
 70
     1
102
RTVSPropertyOp31
 70
     1
102
RTVSPropertyOp32
 70
     1
102
RTVSPropertyOp33
 70
     1
102
RTVSPropertyOp34
 70
     1
102
RTVSPropertyOp35
 70
     1
102
RTVSPropertyOp36
 70
     1
102
RTVSPropertyOp37
 70
     1
102
RTVSPropertyOp38
 70
     1
102
RTVSPropertyOp39
 70
     1
102
RTVSPropertyOp40
 70
     1
102
RTVSPropertyOp41
 70
     1
102
RTVSPropertyOp42
 70
     1
102
RTVSPropertyOp43
 70
     1
102
RTVSPropertyOp44
 70
     1
102
RTVSPropertyOp45
 70
     1
102
RTVSPropertyOp46
 70
     1
102
RTVSPropertyOp47
 70
     1
102
RTVSPropertyOp48
 70
     1
102
RTVSPropertyOp49
 70
     1
102
RTVSPropertyOp50
 70
     1
102
RTVSPropertyOp51
 70
     0
102
RTVSPropertyOp52
 70
     0
102
RTVSPropertyOp53
 70
     1
102
RTVSPropertyOp54
 70
     1
102
RTVSPropertyOp55
 70
     1
102
RTVSPropertyOp56
 70
     1
102
RTVSPropertyOp57
 70
     1
102
RTVSPost2010Prop28
280
     0
102
RTVSPost2010PropOp28
 70
     1
102
RTVSPost2010Prop29
280
     1
102
RTVSPost2010PropOp29
 70
     1
102
RTVSPost2010Prop30
280
     1
102
RTVSPost2010PropOp30
 70
     1
102
RTVSPost2010Prop31
280
     0
102
RTVSPost2010PropOp31
 70
     1
102
RTVSPost2010Prop32
280
     0
102
RTVSPost2010PropOp32
 70
     1
102
RTVSPost2010Prop33
280
     0
102
RTVSPost2010PropOp33
 70
     1
102
RTVSPost2010Prop34
280
     0
102
RTVSPost2010PropOp34
 70
     1
102
RTVSPost2010Prop35
280
     0
102
RTVSPost2010PropOp35
 70
     1
102
RTVSPost2010Prop36
280
     0
102
RTVSPost2010PropOp36
 70
     1
102
RTVSPost2010Prop37
 90
       50
102
RTVSPost2010PropOp37
 70
     1
102
RTVSPost2010Prop38
140
0.0
102
RTVSPost2010PropOp38
 70
     1
102
RTVSPost2010Prop39
140
1.0
102
RTVSPost2010PropOp39
 70
     1
102
RTVSPost2010Prop40
 90
        0
102
RTVSPost2010PropOp40
 70
     1
102
RTVSPost2010Prop41ColorIndex
 90
       18
102
RTVSPost2010Prop41ColorRGB
 90
        0
102
RTVSPost2010PropOp41
 70
     1
102
RTVSPost2010Prop42
 90
       50
102
RTVSPost2010PropOp42
 70
     1
102
RTVSPost2010Prop43
 90
        3
102
RTVSPost2010PropOp43
 70
     1
102
RTVSPost2010Prop44ColorIndex
 90
        5
102
RTVSPost2010Prop44ColorRGB
 90
      255
102
RTVSPost2010PropOp44
 70
     1
102
RTVSPost2010Prop45
280
     0
102
RTVSPost2010PropOp45
 70
     1
102
RTVSPost2010Prop46
 90
       50
102
RTVSPost2010PropOp46
 70
     1
102
RTVSPost2010Prop47
 90
       50
102
RTVSPost2010PropOp47
 70
     1
102
RTVSPost2010Prop48
 90
       50
102
RTVSPost2010PropOp48
 70
     1
102
RTVSPost2010Prop49
280
     0
102
RTVSPost2010PropOp49
 70
     1
102
RTVSPost2010Prop50
 90
       50
102
RTVSPost2010PropOp50
 70
     1
102
RTVSPost2010Prop51ColorIndex
 90
      256
102
RTVSPost2010Prop51ColorRGB
 90
-16777216
102
RTVSPost2010PropOp51
 70
     0
102
RTVSPost2010Prop52
140
1.0
102
RTVSPost2010PropOp52
 70
     0
102
RTVSPost2010Prop53
 90
        2
102
RTVSPost2010PropOp53
 70
     1
102
RTVSPost2010Prop54
  1
strokes_ogs.tif
102
RTVSPost2010PropOp54
 70
     1
102
RTVSPost2010Prop55
280
     0
102
RTVSPost2010PropOp55
 70
     1
102
RTVSPost2010Prop56
140
1.0
102
RTVSPost2010PropOp56
 70
     1
102
RTVSPost2010Prop57
140
1.0
102
RTVSPost2010PropOp57
 70
     1
  0
XRECORD
  5
1B9
102
{ACAD_REACTORS
330
1B8
102
}
330
1B8
100
AcDbXrecord
280
     1
102
RTVSPropertyOp0
 70
     1
102
RTVSPropertyOp1
 70
     1
102
RTVSPropertyOp2
 70
     1
102
RTVSPropertyOp3
 70
     1
102
RTVSPropertyOp4
 70
     1
102
RTVSPropertyOp5
 70
     1
102
RTVSPropertyOp6
 70
     1
102
RTVSPropertyOp7
 70
     1
102
RTVSPropertyOp8
 70
     1
102
RTVSPropertyOp9
 70
     1
102
RTVSPropertyOp10
 70
     1
102
RTVSPropertyOp11
 70
     1
102
RTVSPropertyOp12
 70
     1
102
RTVSPropertyOp13
 70
     1
102
RTVSPropertyOp14
 70
     1
102
RTVSPropertyOp15
 70
     1
102
RTVSPropertyOp16
 70
     1
102
RTVSPropertyOp17
 70
     1
102
RTVSPropertyOp18
 70
     1
102
RTVSPropertyOp19
 70
     1
102
RTVSPropertyOp20
 70
     1
102
RTVSPropertyOp21
 70
     1
102
RTVSPropertyOp22
 70
     1
102
RTVSPropertyOp23
 70
     1
102
RTVSPropertyOp24
 70
     1
102
RTVSPropertyOp25
 70
     1
102
RTVSPropertyOp26
 70
     1
102
RTVSPropertyOp27
 70
     1
102
RTVSPropertyOp28
 70
     1
102
RTVSPropertyOp29
 70
     1
102
RTVSPropertyOp30
 70
     1
102
RTVSPropertyOp31
 70
     1
102
RTVSPropertyOp32
 70
     1
102
RTVSPropertyOp33
 70
     1
102
RTVSPropertyOp34
 70
     1
102
RTVSPropertyOp35
 70
     1
102
RTVSPropertyOp36
 70
     1
102
RTVSPropertyOp37
 70
     1
102
RTVSPropertyOp38
 70
     1
102
RTVSPropertyOp39
 70
     1
102
RTVSPropertyOp40
 70
     1
102
RTVSPropertyOp41
 70
     1
102
RTVSPropertyOp42
 70
     1
102
RTVSPropertyOp43
 70
     1
102
RTVSPropertyOp44
 70
     1
102
RTVSPropertyOp45
 70
     1
102
RTVSPropertyOp46
 70
     1
102
RTVSPropertyOp47
 70
     1
102
RTVSPropertyOp48
 70
     1
102
RTVSPropertyOp49
 70
     1
102
RTVSPropertyOp50
 70
     1
102
RTVSPropertyOp51
 70
     0
102
RTVSPropertyOp52
 70
     0
102
RTVSPropertyOp53
 70
     1
102
RTVSPropertyOp54
 70
     1
102
RTVSPropertyOp55
 70
     1
102
RTVSPropertyOp56
 70
     1
102
RTVSPropertyOp57
 70
     1
102
RTVSPost2010Prop28
280
     0
102
RTVSPost2010PropOp28
 70
     1
102
RTVSPost2010Prop29
280
     1
102
RTVSPost2010PropOp29
 70
     1
102
RTVSPost2010Prop30
280
     1
102
RTVSPost2010PropOp30
 70
     1
102
RTVSPost2010Prop31
280
     0
102
RTVSPost2010PropOp31
 70
     1
102
RTVSPost2010Prop32
280
     0
102
RTVSPost2010PropOp32
 70
     1
102
RTVSPost2010Prop33
280
     0
102
RTVSPost2010PropOp33
 70
     1
102
RTVSPost2010Prop34
280
     0
102
RTVSPost2010PropOp34
 70
     1
102
RTVSPost2010Prop35
280
     0
102
RTVSPost2010PropOp35
 70
     1
102
RTVSPost2010Prop36
280
     0
102
RTVSPost2010PropOp36
 70
     1
102
RTVSPost2010Prop37
 90
       50
102
RTVSPost2010PropOp37
 70
     1
102
RTVSPost2010Prop38
140
0.0
102
RTVSPost2010PropOp38
 70
     1
102
RTVSPost2010Prop39
140
1.0
102
RTVSPost2010PropOp39
 70
     1
102
RTVSPost2010Prop40
 90
        0
102
RTVSPost2010PropOp40
 70
     1
102
RTVSPost2010Prop41ColorIndex
 90
       18
102
RTVSPost2010Prop41ColorRGB
 90
        0
102
RTVSPost2010PropOp41
 70
     1
102
RTVSPost2010Prop42
 90
       50
102
RTVSPost2010PropOp42
 70
     1
102
RTVSPost2010Prop43
 90
        3
102
RTVSPost2010PropOp43
 70
     1
102
RTVSPost2010Prop44ColorIndex
 90
        5
102
RTVSPost2010Prop44ColorRGB
 90
      255
102
RTVSPost2010PropOp44
 70
     1
102
RTVSPost2010Prop45
280
     0
102
RTVSPost2010PropOp45
 70
     1
102
RTVSPost2010Prop46
 90
       50
102
RTVSPost2010PropOp46
 70
     1
102
RTVSPost2010Prop47
 90
       50
102
RTVSPost2010PropOp47
 70
     1
102
RTVSPost2010Prop48
 90
       50
102
RTVSPost2010PropOp48
 70
     1
102
RTVSPost2010Prop49
280
     0
102
RTVSPost2010PropOp49
 70
     1
102
RTVSPost2010Prop50
 90
       50
102
RTVSPost2010PropOp50
 70
     1
102
RTVSPost2010Prop51ColorIndex
 90
      256
102
RTVSPost2010Prop51ColorRGB
 90
-16777216
102
RTVSPost2010PropOp51
 70
     0
102
RTVSPost2010Prop52
140
1.0
102
RTVSPost2010PropOp52
 70
     0
102
RTVSPost2010Prop53
 90
        2
102
RTVSPost2010PropOp53
 70
     1
102
RTVSPost2010Prop54
  1
strokes_ogs.tif
102
RTVSPost2010PropOp54
 70
     1
102
RTVSPost2010Prop55
280
     0
102
RTVSPost2010PropOp55
 70
     1
102
RTVSPost2010Prop56
140
1.0
102
RTVSPost2010PropOp56
 70
     1
102
RTVSPost2010Prop57
140
1.0
102
RTVSPost2010PropOp57
 70
     1
  0
XRECORD
  5
1D9
102
{ACAD_REACTORS
330
1D8
102
}
330
1D8
100
AcDbXrecord
280
     1
102
RTVSPropertyOp0
 70
     1
102
RTVSPropertyOp1
 70
     1
102
RTVSPropertyOp2
 70
     1
102
RTVSPropertyOp3
 70
     1
102
RTVSPropertyOp4
 70
     1
102
RTVSPropertyOp5
 70
     1
102
RTVSPropertyOp6
 70
     1
102
RTVSPropertyOp7
 70
     1
102
RTVSPropertyOp8
 70
     1
102
RTVSPropertyOp9
 70
     1
102
RTVSPropertyOp10
 70
     1
102
RTVSPropertyOp11
 70
     1
102
RTVSPropertyOp12
 70
     1
102
RTVSPropertyOp13
 70
     1
102
RTVSPropertyOp14
 70
     1
102
RTVSPropertyOp15
 70
     1
102
RTVSPropertyOp16
 70
     1
102
RTVSPropertyOp17
 70
     1
102
RTVSPropertyOp18
 70
     1
102
RTVSPropertyOp19
 70
     1
102
RTVSPropertyOp20
 70
     1
102
RTVSPropertyOp21
 70
     1
102
RTVSPropertyOp22
 70
     1
102
RTVSPropertyOp23
 70
     1
102
RTVSPropertyOp24
 70
     1
102
RTVSPropertyOp25
 70
     1
102
RTVSPropertyOp26
 70
     1
102
RTVSPropertyOp27
 70
     1
102
RTVSPropertyOp28
 70
     1
102
RTVSPropertyOp29
 70
     1
102
RTVSPropertyOp30
 70
     1
102
RTVSPropertyOp31
 70
     1
102
RTVSPropertyOp32
 70
     1
102
RTVSPropertyOp33
 70
     1
102
RTVSPropertyOp34
 70
     1
102
RTVSPropertyOp35
 70
     1
102
RTVSPropertyOp36
 70
     1
102
RTVSPropertyOp37
 70
     1
102
RTVSPropertyOp38
 70
     1
102
RTVSPropertyOp39
 70
     1
102
RTVSPropertyOp40
 70
     1
102
RTVSPropertyOp41
 70
     1
102
RTVSPropertyOp42
 70
     1
102
RTVSPropertyOp43
 70
     1
102
RTVSPropertyOp44
 70
     1
102
RTVSPropertyOp45
 70
     1
102
RTVSPropertyOp46
 70
     1
102
RTVSPropertyOp47
 70
     1
102
RTVSPropertyOp48
 70
     1
102
RTVSPropertyOp49
 70
     1
102
RTVSPropertyOp50
 70
     1
102
RTVSPropertyOp51
 70
     0
102
RTVSPropertyOp52
 70
     0
102
RTVSPropertyOp53
 70
     1
102
RTVSPropertyOp54
 70
     1
102
RTVSPropertyOp55
 70
     1
102
RTVSPropertyOp56
 70
     1
102
RTVSPropertyOp57
 70
     1
102
RTVSPost2010Prop28
280
     0
102
RTVSPost2010PropOp28
 70
     1
102
RTVSPost2010Prop29
280
     1
102
RTVSPost2010PropOp29
 70
     1
102
RTVSPost2010Prop30
280
     1
102
RTVSPost2010PropOp30
 70
     1
102
RTVSPost2010Prop31
280
     0
102
RTVSPost2010PropOp31
 70
     1
102
RTVSPost2010Prop32
280
     0
102
RTVSPost2010PropOp32
 70
     1
102
RTVSPost2010Prop33
280
     0
102
RTVSPost2010PropOp33
 70
     1
102
RTVSPost2010Prop34
280
     0
102
RTVSPost2010PropOp34
 70
     1
102
RTVSPost2010Prop35
280
     0
102
RTVSPost2010PropOp35
 70
     1
102
RTVSPost2010Prop36
280
     0
102
RTVSPost2010PropOp36
 70
     1
102
RTVSPost2010Prop37
 90
       50
102
RTVSPost2010PropOp37
 70
     1
102
RTVSPost2010Prop38
140
0.0
102
RTVSPost2010PropOp38
 70
     1
102
RTVSPost2010Prop39
140
1.0
102
RTVSPost2010PropOp39
 70
     1
102
RTVSPost2010Prop40
 90
        0
102
RTVSPost2010PropOp40
 70
     1
102
RTVSPost2010Prop41ColorIndex
 90
       18
102
RTVSPost2010Prop41ColorRGB
 90
        0
102
RTVSPost2010PropOp41
 70
     1
102
RTVSPost2010Prop42
 90
       50
102
RTVSPost2010PropOp42
 70
     1
102
RTVSPost2010Prop43
 90
        3
102
RTVSPost2010PropOp43
 70
     1
102
RTVSPost2010Prop44ColorIndex
 90
        5
102
RTVSPost2010Prop44ColorRGB
 90
      255
102
RTVSPost2010PropOp44
 70
     1
102
RTVSPost2010Prop45
280
     0
102
RTVSPost2010PropOp45
 70
     1
102
RTVSPost2010Prop46
 90
       50
102
RTVSPost2010PropOp46
 70
     1
102
RTVSPost2010Prop47
 90
       50
102
RTVSPost2010PropOp47
 70
     1
102
RTVSPost2010Prop48
 90
       50
102
RTVSPost2010PropOp48
 70
     1
102
RTVSPost2010Prop49
280
     0
102
RTVSPost2010PropOp49
 70
     1
102
RTVSPost2010Prop50
 90
       50
102
RTVSPost2010PropOp50
 70
     1
102
RTVSPost2010Prop51ColorIndex
 90
      256
102
RTVSPost2010Prop51ColorRGB
 90
-16777216
102
RTVSPost2010PropOp51
 70
     0
102
RTVSPost2010Prop52
140
1.0
102
RTVSPost2010PropOp52
 70
     0
102
RTVSPost2010Prop53
 90
        2
102
RTVSPost2010PropOp53
 70
     1
102
RTVSPost2010Prop54
  1
strokes_ogs.tif
102
RTVSPost2010PropOp54
 70
     1
102
RTVSPost2010Prop55
280
     0
102
RTVSPost2010PropOp55
 70
     1
102
RTVSPost2010Prop56
140
1.0
102
RTVSPost2010PropOp56
 70
     1
102
RTVSPost2010Prop57
140
1.0
102
RTVSPost2010PropOp57
 70
     1
  0
ENDSEC
  0
EOF
