  0
SECTION
  2
HEADER
  9
$ACADVER
  1
AC1015
  9
$ACADMAINTVER
 70
     6
  9
$DWGCODEPAGE
  3
ANSI_1252
  9
$INSBASE
 10
0.0
 20
0.0
 30
0.0
  9
$EXTMIN
 10
-8.199718
 20
-9.869003
 30
0.0
  9
$EXTMAX
 10
434.224335
 20
410.075958
 30
0.0
  9
$LIMMIN
 10
-8.199718
 20
-9.869003
  9
$LIMMAX
 10
434.224335
 20
410.075958
  9
$ORTHOMODE
 70
     0
  9
$REGENMODE
 70
     1
  9
$FILLMODE
 70
     1
  9
$QTEXTMODE
 70
     0
  9
$MIRRTEXT
 70
     1
  9
$LTSCALE
 40
1.0
  9
$ATTMODE
 70
     1
  9
$TEXTSIZE
 40
2.5
  9
$TRACEWID
 40
1.0
  9
$TEXTSTYLE
  7
Standard
  9
$CLAYER
  8
0
  9
$CELTYPE
  6
ByLayer
  9
$CECOLOR
 62
   256
  9
$CELTSCALE
 40
1.0
  9
$DISPSILH
 70
     0
  9
$DIMSCALE
 40
1.0
  9
$DIMASZ
 40
2.5
  9
$DIMEXO
 40
0.625
  9
$DIMDLI
 40
3.75
  9
$DIMRND
 40
0.0
  9
$DIMDLE
 40
0.0
  9
$DIMEXE
 40
1.25
  9
$DIMTP
 40
0.0
  9
$DIMTM
 40
0.0
  9
$DIMTXT
 40
2.5
  9
$DIMCEN
 40
2.5
  9
$DIMTSZ
 40
0.0
  9
$DIMTOL
 70
     0
  9
$DIMLIM
 70
     0
  9
$DIMTIH
 70
     0
  9
$DIMTOH
 70
     0
  9
$DIMSE1
 70
     0
  9
$DIMSE2
 70
     0
  9
$DIMTAD
 70
     1
  9
$DIMZIN
 70
     8
  9
$DIMBLK
  1

  9
$DIMASO
 70
     1
  9
$DIMSHO
 70
     1
  9
$DIMPOST
  1

  9
$DIMAPOST
  1

  9
$DIMALT
 70
     0
  9
$DIMALTD
 70
     3
  9
$DIMALTF
 40
0.03937
  9
$DIMLFAC
 40
1.0
  9
$DIMTOFL
 70
     1
  9
$DIMTVP
 40
0.0
  9
$DIMTIX
 70
     0
  9
$DIMSOXD
 70
     0
  9
$DIMSAH
 70
     0
  9
$DIMBLK1
  1

  9
$DIMBLK2
  1

  9
$DIMSTYLE
  2
ISO-25
  9
$DIMCLRD
 70
     0
  9
$DIMCLRE
 70
     0
  9
$DIMCLRT
 70
     0
  9
$DIMTFAC
 40
1.0
  9
$DIMGAP
 40
0.625
  9
$DIMJUST
 70
     0
  9
$DIMSD1
 70
     0
  9
$DIMSD2
 70
     0
  9
$DIMTOLJ
 70
     0
  9
$DIMTZIN
 70
     8
  9
$DIMALTZ
 70
     0
  9
$DIMALTTZ
 70
     0
  9
$DIMUPT
 70
     0
  9
$DIMDEC
 70
     2
  9
$DIMTDEC
 70
     2
  9
$DIMALTU
 70
     2
  9
$DIMALTTD
 70
     3
  9
$DIMTXSTY
  7
Standard
  9
$DIMAUNIT
 70
     0
  9
$DIMADEC
 70
     0
  9
$DIMALTRND
 40
0.0
  9
$DIMAZIN
 70
     0
  9
$DIMDSEP
 70
    44
  9
$DIMATFIT
 70
     3
  9
$DIMFRAC
 70
     0
  9
$DIMLDRBLK
  1

  9
$DIMLUNIT
 70
     2
  9
$DIMLWD
 70
    -2
  9
$DIMLWE
 70
    -2
  9
$DIMTMOVE
 70
     0
  9
$LUNITS
 70
     2
  9
$LUPREC
 70
     4
  9
$SKETCHINC
 40
1.0
  9
$FILLETRAD
 40
10.0
  9
$AUNITS
 70
     0
  9
$AUPREC
 70
     0
  9
$MENU
  1
.
  9
$ELEVATION
 40
0.0
  9
$PELEVATION
 40
0.0
  9
$THICKNESS
 40
0.0
  9
$LIMCHECK
 70
     0
  9
$CHAMFERA
 40
0.0
  9
$CHAMFERB
 40
0.0
  9
$CHAMFERC
 40
0.0
  9
$CHAMFERD
 40
0.0
  9
$SKPOLY
 70
     0
  9
$TDCREATE
 40
2459018.399511516
  9
$TDUCREATE
 40
2459018.316178183
  9
$TDUPDATE
 40
2459018.399512153
  9
$TDUUPDATE
 40
2459018.31617882
  9
$TDINDWG
 40
0.0000000116
  9
$TDUSRTIMER
 40
0.0000000116
  9
$USRTIMER
 70
     1
  9
$ANGBASE
 50
0.0
  9
$ANGDIR
 70
     0
  9
$PDMODE
 70
     0
  9
$PDSIZE
 40
0.0
  9
$PLINEWID
 40
0.0
  9
$SPLFRAME
 70
     0
  9
$SPLINETYPE
 70
     6
  9
$SPLINESEGS
 70
     8
  9
$HANDSEED
  5
23C
  9
$SURFTAB1
 70
     6
  9
$SURFTAB2
 70
     6
  9
$SURFTYPE
 70
     6
  9
$SURFU
 70
     6
  9
$SURFV
 70
     6
  9
$UCSBASE
  2

  9
$UCSNAME
  2

  9
$UCSORG
 10
0.0
 20
0.0
 30
0.0
  9
$UCSXDIR
 10
1.0
 20
0.0
 30
0.0
  9
$UCSYDIR
 10
0.0
 20
1.0
 30
0.0
  9
$UCSORTHOREF
  2

  9
$UCSORTHOVIEW
 70
     0
  9
$UCSORGTOP
 10
0.0
 20
0.0
 30
0.0
  9
$UCSORGBOTTOM
 10
0.0
 20
0.0
 30
0.0
  9
$UCSORGLEFT
 10
0.0
 20
0.0
 30
0.0
  9
$UCSORGRIGHT
 10
0.0
 20
0.0
 30
0.0
  9
$UCSORGFRONT
 10
0.0
 20
0.0
 30
0.0
  9
$UCSORGBACK
 10
0.0
 20
0.0
 30
0.0
  9
$PUCSBASE
  2

  9
$PUCSNAME
  2

  9
$PUCSORG
 10
0.0
 20
0.0
 30
0.0
  9
$PUCSXDIR
 10
1.0
 20
0.0
 30
0.0
  9
$PUCSYDIR
 10
0.0
 20
1.0
 30
0.0
  9
$PUCSORTHOREF
  2

  9
$PUCSORTHOVIEW
 70
     0
  9
$PUCSORGTOP
 10
0.0
 20
0.0
 30
0.0
  9
$PUCSORGBOTTOM
 10
0.0
 20
0.0
 30
0.0
  9
$PUCSORGLEFT
 10
0.0
 20
0.0
 30
0.0
  9
$PUCSORGRIGHT
 10
0.0
 20
0.0
 30
0.0
  9
$PUCSORGFRONT
 10
0.0
 20
0.0
 30
0.0
  9
$PUCSORGBACK
 10
0.0
 20
0.0
 30
0.0
  9
$USERI1
 70
     0
  9
$USERI2
 70
     0
  9
$USERI3
 70
     0
  9
$USERI4
 70
     0
  9
$USERI5
 70
     0
  9
$USERR1
 40
0.0
  9
$USERR2
 40
0.0
  9
$USERR3
 40
0.0
  9
$USERR4
 40
0.0
  9
$USERR5
 40
0.0
  9
$WORLDVIEW
 70
     1
  9
$SHADEDGE
 70
     3
  9
$SHADEDIF
 70
    70
  9
$TILEMODE
 70
     1
  9
$MAXACTVP
 70
    64
  9
$PINSBASE
 10
0.0
 20
0.0
 30
0.0
  9
$PLIMCHECK
 70
     0
  9
$PEXTMIN
 10
1.000000E+20
 20
1.000000E+20
 30
1.000000E+20
  9
$PEXTMAX
 10
-1.000000E+20
 20
-1.000000E+20
 30
-1.000000E+20
  9
$PLIMMIN
 10
0.0
 20
0.0
  9
$PLIMMAX
 10
420.0
 20
297.0
  9
$UNITMODE
 70
     0
  9
$VISRETAIN
 70
     1
  9
$PLINEGEN
 70
     0
  9
$PSLTSCALE
 70
     1
  9
$TREEDEPTH
 70
  3020
  9
$CMLSTYLE
  2
Standard
  9
$CMLJUST
 70
     0
  9
$CMLSCALE
 40
20.0
  9
$PROXYGRAPHICS
 70
     1
  9
$MEASUREMENT
 70
     1
  9
$CELWEIGHT
370
    -1
  9
$ENDCAPS
280
     0
  9
$JOINSTYLE
280
     0
  9
$LWDISPLAY
290
     0
  9
$INSUNITS
 70
     4
  9
$HYPERLINKBASE
  1

  9
$STYLESHEET
  1

  9
$XEDIT
290
     1
  9
$CEPSNTYPE
380
     0
  9
$PSTYLEMODE
290
     1
  9
$FINGERPRINTGUID
  2
{27e62183-602d-446a-9cdc-e29269122e10}
  9
$VERSIONGUID
  2
{FAEB1C32-E019-11D5-929B-00C0DF256EC4}
  9
$EXTNAMES
290
     1
  9
$PSVPSCALE
 40
0.0
  9
$OLESTARTUP
290
     0
  0
ENDSEC
  0
SECTION
  2
CLASSES
  0
CLASS
  1
ACDBDICTIONARYWDFLT
  2
AcDbDictionaryWithDefault
  3
ObjectDBX Classes
 90
        0
280
     0
281
     0
  0
CLASS
  1
VISUALSTYLE
  2
AcDbVisualStyle
  3
ObjectDBX Classes
 90
     4095
280
     0
281
     0
  0
CLASS
  1
MATERIAL
  2
AcDbMaterial
  3
ObjectDBX Classes
 90
     1153
280
     0
281
     0
  0
CLASS
  1
SCALE
  2
AcDbScale
  3
ObjectDBX Classes
 90
     1153
280
     0
281
     0
  0
CLASS
  1
TABLESTYLE
  2
AcDbTableStyle
  3
ObjectDBX Classes
 90
     4095
280
     0
281
     0
  0
CLASS
  1
MLEADERSTYLE
  2
AcDbMLeaderStyle
  3
ACDB_MLEADERSTYLE_CLASS
 90
     4095
280
     0
281
     0
  0
CLASS
  1
SUN
  2
AcDbSun
  3
SCENEOE
 90
     1153
280
     0
281
     0
  0
CLASS
  1
DICTIONARYVAR
  2
AcDbDictionaryVar
  3
ObjectDBX Classes
 90
        0
280
     0
281
     0
  0
CLASS
  1
ACDBPLACEHOLDER
  2
AcDbPlaceHolder
  3
ObjectDBX Classes
 90
        0
280
     0
281
     0
  0
CLASS
  1
LAYOUT
  2
AcDbLayout
  3
ObjectDBX Classes
 90
        0
280
     0
281
     0
  0
ENDSEC
  0
SECTION
  2
TABLES
  0
TABLE
  2
VPORT
  5
8
102
{ACAD_XDICTIONARY
360
1FF
102
}
330
0
100
AcDbSymbolTable
 70
     1
  0
VPORT
  5
29
330
8
100
AcDbSymbolTableRecord
100
AcDbViewportTableRecord
  2
*Active
 70
     0
 10
0.0
 20
0.0
 11
1.0
 21
1.0
 12
344.186916
 22
148.5
 13
0.0
 23
0.0
 14
10.0
 24
10.0
 15
10.0
 25
10.0
 16
0.0
 26
0.0
 36
1.0
 17
0.0
 27
0.0
 37
0.0
 40
297.0
 41
1.972973
 42
50.0
 43
0.0
 44
0.0
 50
0.0
 51
0.0
 71
     0
 72
   100
 73
     1
 74
     3
 75
     0
 76
     0
 77
     0
 78
     0
281
     0
 65
     1
110
0.0
120
0.0
130
0.0
111
1.0
121
0.0
131
0.0
112
0.0
122
1.0
132
0.0
 79
     0
146
0.0
  0
ENDTAB
  0
TABLE
  2
LTYPE
  5
5
330
0
100
AcDbSymbolTable
 70
     1
  0
LTYPE
  5
14
330
5
100
AcDbSymbolTableRecord
100
AcDbLinetypeTableRecord
  2
ByBlock
 70
     0
  3

 72
    65
 73
     0
 40
0.0
  0
LTYPE
  5
15
330
5
100
AcDbSymbolTableRecord
100
AcDbLinetypeTableRecord
  2
ByLayer
 70
     0
  3

 72
    65
 73
     0
 40
0.0
  0
LTYPE
  5
16
330
5
100
AcDbSymbolTableRecord
100
AcDbLinetypeTableRecord
  2
Continuous
 70
     0
  3
Solid line
 72
    65
 73
     0
 40
0.0
  0
ENDTAB
  0
TABLE
  2
LAYER
  5
2
330
0
100
AcDbSymbolTable
 70
     1
  0
LAYER
  5
10
330
2
100
AcDbSymbolTableRecord
100
AcDbLayerTableRecord
  2
0
 70
     0
 62
   106
  6
Continuous
370
     0
390
F
  0
ENDTAB
  0
TABLE
  2
STYLE
  5
3
330
0
100
AcDbSymbolTable
 70
     4
  0
STYLE
  5
11
330
3
100
AcDbSymbolTableRecord
100
AcDbTextStyleTableRecord
  2
Standard
 70
     0
 40
0.0
 41
1.0
 50
0.0
 71
     0
 42
2.5
  3
txt
  4

  0
STYLE
  5
6E
330
3
100
AcDbSymbolTableRecord
100
AcDbTextStyleTableRecord
  2
Default
 70
     0
 40
0.0
 41
1.0
 50
0.0
 71
     0
 42
2.5
  3

  4

1001
ACAD
1000
txt
1071
        0
  0
STYLE
  5
6F
330
3
100
AcDbSymbolTableRecord
100
AcDbTextStyleTableRecord
  2
ISO
 70
     0
 40
0.0
 41
1.0
 50
0.0
 71
     0
 42
2.5
  3

  4

1001
ACAD
1000
txt
1071
        0
  0
STYLE
  5
70
330
3
100
AcDbSymbolTableRecord
100
AcDbTextStyleTableRecord
  2
zucchetti
 70
     0
 40
0.0
 41
1.0
 50
0.0
 71
     0
 42
2.5
  3

  4

1001
ACAD
1000
Arial
1071
        0
  0
ENDTAB
  0
TABLE
  2
VIEW
  5
6
330
0
100
AcDbSymbolTable
 70
     0
  0
ENDTAB
  0
TABLE
  2
UCS
  5
7
330
0
100
AcDbSymbolTable
 70
     0
  0
ENDTAB
  0
TABLE
  2
APPID
  5
9
330
0
100
AcDbSymbolTable
 70
     2
  0
APPID
  5
12
330
9
100
AcDbSymbolTableRecord
100
AcDbRegAppTableRecord
  2
ACAD
 70
     0
  0
APPID
  5
239
330
9
100
AcDbSymbolTableRecord
100
AcDbRegAppTableRecord
  2
ACAD_MLEADERVER
 70
     0
  0
ENDTAB
  0
TABLE
  2
DIMSTYLE
  5
A
330
0
100
AcDbSymbolTable
 70
     4
100
AcDbDimStyleTable
  0
DIMSTYLE
105
27
330
A
100
AcDbSymbolTableRecord
100
AcDbDimStyleTableRecord
  2
ISO-25
 70
     0
 41
2.5
 42
0.625
 43
3.75
 44
1.25
 73
     0
 74
     0
 77
     1
 78
     8
140
2.5
141
2.5
143
0.03937
147
0.625
171
     3
172
     1
178
     0
271
     2
272
     2
274
     3
278
    44
283
     0
284
     8
340
11
  0
DIMSTYLE
105
71
330
A
100
AcDbSymbolTableRecord
100
AcDbDimStyleTableRecord
  2
Default
 70
     0
  3
<>
 41
4.375
 42
1.05
 44
2.1
 73
     0
 74
     0
 77
     1
 78
     8
140
3.5
146
0.4
147
1.75
172
     1
271
     2
178
     3
271
     2
272
     3
284
     8
340
6E
341
72
342
72
  0
DIMSTYLE
105
79
330
A
100
AcDbSymbolTableRecord
100
AcDbDimStyleTableRecord
  2
ISO
 70
     0
  3
<>
 41
4.375
 42
1.05
 44
2.1
 73
     0
 74
     0
 77
     1
 78
     8
140
3.5
146
0.4
147
1.75
172
     1
271
     2
178
     3
271
     2
272
     3
284
     8
340
6F
341
72
342
72
  0
DIMSTYLE
105
7A
330
A
100
AcDbSymbolTableRecord
100
AcDbDimStyleTableRecord
  2
zucchetti
 70
     0
  3
<>
 41
3.0
 42
0.9
 44
1.8
 73
     0
 74
     0
 77
     1
 78
     8
140
3.0
146
0.6
147
1.5
172
     1
176
     3
177
     3
271
     2
178
     3
271
     2
272
     2
284
     8
340
70
  0
ENDTAB
  0
TABLE
  2
BLOCK_RECORD
  5
1
330
0
100
AcDbSymbolTable
 70
     7
  0
BLOCK_RECORD
  5
1F
330
1
100
AcDbSymbolTableRecord
100
AcDbBlockTableRecord
  2
*Model_Space
340
22
  0
BLOCK_RECORD
  5
1B
330
1
100
AcDbSymbolTableRecord
100
AcDbBlockTableRecord
  2
*Paper_Space
340
1E
  0
BLOCK_RECORD
  5
23
330
1
100
AcDbSymbolTableRecord
100
AcDbBlockTableRecord
  2
*Paper_Space0
340
26
  0
BLOCK_RECORD
  5
72
330
1
100
AcDbSymbolTableRecord
100
AcDbBlockTableRecord
  2
_Closed
340
0
  0
BLOCK_RECORD
  5
7B
330
1
100
AcDbSymbolTableRecord
100
AcDbBlockTableRecord
  2
d
340
0
102
{BLKREFS
331
D5
102
}
  0
BLOCK_RECORD
  5
D6
330
1
100
AcDbSymbolTableRecord
100
AcDbBlockTableRecord
  2
a
340
0
102
{BLKREFS
331
FA
102
}
  0
BLOCK_RECORD
  5
FB
330
1
100
AcDbSymbolTableRecord
100
AcDbBlockTableRecord
  2
c
340
0
102
{BLKREFS
331
152
102
}
  0
BLOCK_RECORD
  5
153
330
1
100
AcDbSymbolTableRecord
100
AcDbBlockTableRecord
  2
b
340
0
102
{BLKREFS
331
1AB
102
}
  0
BLOCK_RECORD
  5
1AC
330
1
100
AcDbSymbolTableRecord
100
AcDbBlockTableRecord
  2
e
340
0
102
{BLKREFS
331
1F3
102
}
  0
ENDTAB
  0
ENDSEC
  0
SECTION
  2
BLOCKS
  0
BLOCK
  5
20
330
1F
100
AcDbEntity
  8
0
100
AcDbBlockBegin
  2
*Model_Space
 70
     0
 10
0.0
 20
0.0
 30
0.0
  3
*Model_Space
  1

  0
ENDBLK
  5
21
330
1F
100
AcDbEntity
  8
0
100
AcDbBlockEnd
  0
BLOCK
  5
1C
330
1B
100
AcDbEntity
 67
     1
  8
0
100
AcDbBlockBegin
  2
*Paper_Space
 70
     0
 10
0.0
 20
0.0
 30
0.0
  3
*Paper_Space
  1

  0
ENDBLK
  5
1D
330
1B
100
AcDbEntity
 67
     1
  8
0
100
AcDbBlockEnd
  0
BLOCK
  5
24
330
23
100
AcDbEntity
  8
0
100
AcDbBlockBegin
  2
*Paper_Space0
 70
     0
 10
0.0
 20
0.0
 30
0.0
  3
*Paper_Space0
  1

  0
ENDBLK
  5
25
330
23
100
AcDbEntity
  8
0
100
AcDbBlockEnd
  0
BLOCK
  5
73
330
72
100
AcDbEntity
  8
0
100
AcDbBlockBegin
  2
_Closed
 70
     0
 10
0.0
 20
0.0
 30
0.0
  3
_Closed
  1

  0
LINE
  5
75
330
72
100
AcDbEntity
  8
0
  6
ByBlock
 62
     0
370
    -2
100
AcDbLine
 10
-1.0
 20
0.166667
 30
0.0
 11
0.0
 21
0.0
 31
0.0
  0
LINE
  5
76
330
72
100
AcDbEntity
  8
0
  6
ByBlock
 62
     0
370
    -2
100
AcDbLine
 10
0.0
 20
0.0
 30
0.0
 11
-1.0
 21
-0.166667
 31
0.0
  0
LINE
  5
77
330
72
100
AcDbEntity
  8
0
  6
ByBlock
 62
     0
370
    -2
100
AcDbLine
 10
-1.0
 20
0.166667
 30
0.0
 11
-1.0
 21
-0.166667
 31
0.0
  0
LINE
  5
78
330
72
100
AcDbEntity
  8
0
  6
ByBlock
 62
     0
370
    -2
100
AcDbLine
 10
0.0
 20
0.0
 30
0.0
 11
-1.0
 21
0.0
 31
0.0
  0
ENDBLK
  5
74
330
72
100
AcDbEntity
  8
0
100
AcDbBlockEnd
  0
BLOCK
  5
D3
330
7B
100
AcDbEntity
  8
0
100
AcDbBlockBegin
  2
d
 70
     0
 10
77.388954
 20
37.596413
 30
0.0
  3
d
  1

  0
SPLINE
  5
7C
330
7B
100
AcDbEntity
  8
0
  6
Continuous
 62
     0
370
     0
100
AcDbSpline
210
0.0
220
0.0
230
1.0
 70
    12
 71
     2
 72
    10
 73
     7
 74
     0
 42
0.000000001
 43
0.0
 40
0.0
 40
0.0
 40
0.0
 40
0.333333333333333
 40
0.333333333333333
 40
0.666666666666667
 40
0.666666666666667
 40
1.0
 40
1.0
 40
1.0
 10
348.4434880922127
 20
124.1450280956855
 30
0.0
 41
1.0
 10
346.7832667469676
 20
129.7435882330813
 30
0.0
 41
0.866025403784439
 10
349.4331792469483
 20
132.1938973315356
 30
0.0
 41
1.0
 10
352.083091746929
 20
134.64420642999
 30
0.0
 41
0.866025403784439
 10
356.3932255921547
 20
131.4959553910485
 30
0.0
 41
1.0
 10
360.7033594373804
 20
128.347704352107
 30
0.0
 41
0.866025403784439
 10
362.3635807826254
 20
122.7491442147112
 30
0.0
 41
1.0
  0
SPLINE
  5
7D
330
7B
100
AcDbEntity
  8
0
  6
Continuous
 62
     0
370
     0
100
AcDbSpline
210
0.0
220
0.0
230
1.0
 70
    12
 71
     2
 72
     8
 73
     5
 74
     0
 42
0.000000001
 43
0.0
 40
0.0
 40
0.0
 40
0.0
 40
0.5
 40
0.5
 40
1.0
 40
1.0
 40
1.0
 10
362.3635807826254
 20
122.7491442147112
 30
0.0
 41
1.0
 10
365.2391685044001
 20
113.0521536075119
 30
0.0
 41
0.707106781186548
 10
358.2791221591938
 20
113.750095547999
 30
0.0
 41
1.0
 10
351.3190758139874
 20
114.4480374884861
 30
0.0
 41
0.707106781186548
 10
348.4434880922127
 20
124.1450280956855
 30
0.0
 41
1.0
  0
SPLINE
  5
7E
330
7B
100
AcDbEntity
  8
0
  6
Continuous
 62
     0
370
     0
100
AcDbSpline
210
0.0
220
0.0
230
1.0
 70
     8
 71
     3
 72
    18
 73
    14
 74
     0
 42
0.000000001
 43
0.0
 40
12.72953594327099
 40
12.72953594327099
 40
12.72953594327099
 40
12.72953594327099
 40
12.73927225764048
 40
14.86248430058055
 40
16.98569634352064
 40
19.10890838646072
 40
21.2321204294008
 40
23.35533247234088
 40
25.47854451528096
 40
27.60175655822103
 40
29.7249686011611
 40
31.84818064410118
 40
33.97139268704132
 40
33.97139268704132
 40
33.97139268704132
 40
33.97139268704132
 10
350.1406790483391
 20
133.0525460646692
 30
0.0
 10
350.1423222477374
 20
133.0534947663701
 30
0.0
 10
350.502462864116
 20
133.2610466336525
 30
0.0
 10
351.2921076596771
 20
133.5520668410343
 30
0.0
 10
352.6400175449155
 20
133.6039753713049
 30
0.0
 10
354.1022798651671
 20
133.2702672570763
 30
0.0
 10
355.6227008070416
 20
132.5637663514202
 30
0.0
 10
357.1428514175917
 20
131.5116231850923
 30
0.0
 10
358.6043131690848
 20
130.1542710038919
 30
0.0
 10
359.9509229039393
 20
128.543872097906
 30
0.0
 10
361.1309311657866
 20
126.7423131921009
 30
0.0
 10
362.0989908987319
 20
124.8188271854009
 30
0.0
 10
362.5782637063581
 20
123.5044974392725
 30
0.0
 10
362.7717704769478
 20
122.851958369562
 30
0.0
  0
SPLINE
  5
7F
330
7B
100
AcDbEntity
  8
0
  6
Continuous
 62
     0
370
     0
100
AcDbSpline
210
0.0
220
0.0
230
1.0
 70
     8
 71
     3
 72
    13
 73
     9
 74
     0
 42
0.000000001
 43
0.0
 40
33.97139268704134
 40
33.97139268704134
 40
33.97139268704134
 40
33.97139268704134
 40
36.09460472998136
 40
38.21781677292142
 40
40.34102881586151
 40
42.4642408588016
 40
44.58745290174168
 40
46.70093504848334
 40
46.70093504848334
 40
46.70093504848334
 40
46.70093504848334
 10
362.7717704769478
 20
122.851958369562
 30
0.0
 10
362.9652772475375
 20
122.1994192998516
 30
0.0
 10
363.26003152227
 20
120.9035927671383
 30
0.0
 10
363.4083942728037
 20
119.0623046186334
 30
0.0
 10
363.2572868645112
 20
117.394227791503
 30
0.0
 10
362.8125162702027
 20
115.9634655432455
 30
0.0
 10
362.0922766554463
 20
114.8267403165111
 30
0.0
 10
361.4473434910512
 20
114.2925100477581
 30
0.0
 10
361.0906506608883
 20
114.0865733589628
 30
0.0
  0
SPLINE
  5
80
330
7B
100
AcDbEntity
  8
0
  6
Continuous
 62
     0
370
     0
100
AcDbSpline
210
0.0
220
0.0
230
1.0
 70
     8
 71
     3
 72
    13
 73
     9
 74
     0
 42
0.000000001
 43
0.0
 40
17.22130628185954
 40
17.22130628185954
 40
17.22130628185954
 40
17.22130628185954
 40
18.93475944347771
 40
20.65610121106659
 40
22.37744297865547
 40
24.09878474624435
 40
25.82012651383323
 40
27.5414682814222
 40
27.5414682814222
 40
27.5414682814222
 40
27.5414682814222
 10
373.7835253224827
 20
123.7819440622158
 30
0.0
 10
374.0734399755517
 20
123.9493263803625
 30
0.0
 10
374.597632164108
 20
124.3835409121957
 30
0.0
 10
375.1830323611553
 20
125.3074545071788
 30
0.0
 10
375.5445354012782
 20
126.4703571564475
 30
0.0
 10
375.6673532947762
 20
127.8261456278138
 30
0.0
 10
375.5467662189999
 20
129.3227177302515
 30
0.0
 10
375.3071942514091
 20
130.3759466015893
 30
0.0
 10
375.14991477577
 20
130.9063208226326
 30
0.0
  0
SPLINE
  5
81
330
7B
100
AcDbEntity
  8
0
  6
Continuous
 62
     0
370
     0
100
AcDbSpline
210
0.0
220
0.0
230
1.0
 70
     8
 71
     3
 72
    18
 73
    14
 74
     0
 42
0.000000001
 43
0.0
 40
27.54146828142222
 40
27.54146828142222
 40
27.54146828142222
 40
27.54146828142222
 40
29.26281004901102
 40
30.9841518165999
 40
32.70549358418879
 40
34.42683535177766
 40
36.14817711936655
 40
37.86951888695543
 40
39.59086065454431
 40
41.3122024221332
 40
43.03354418972209
 40
44.75488595731098
 40
44.76969360633476
 40
44.76969360633476
 40
44.76969360633476
 40
44.76969360633476
 10
375.14991477577
 20
130.9063208226326
 30
0.0
 10
374.9926353001309
 20
131.4366950436757
 30
0.0
 10
374.6030893651653
 20
132.5049630565106
 30
0.0
 10
373.8162645593924
 20
134.0683443770248
 30
0.0
 10
372.8571710862928
 20
135.5326251315148
 30
0.0
 10
371.7626663702923
 20
136.8415338313572
 30
0.0
 10
370.574811613371
 20
137.9447698507804
 30
0.0
 10
369.3392554093622
 20
138.7999364425902
 30
0.0
 10
368.1034794840031
 20
139.3741700554065
 30
0.0
 10
366.9149740364926
 20
139.6454031345513
 30
0.0
 10
365.8194125772578
 20
139.6032126396282
 30
0.0
 10
365.1763147806728
 20
139.3662017010631
 30
0.0
 10
364.8825434583994
 20
139.1966307197292
 30
0.0
 10
364.8800400016546
 20
139.1951807706965
 30
0.0
  0
SPLINE
  5
82
330
7B
100
AcDbEntity
  8
0
  6
Continuous
 62
     0
370
    30
100
AcDbSpline
210
0.0
220
0.0
230
1.0
 70
     8
 71
     3
 72
    14
 73
    10
 74
     0
 42
0.000000001
 43
0.0
 40
15.0445792414932
 40
15.0445792414932
 40
15.0445792414932
 40
15.0445792414932
 40
15.84406084208528
 40
17.82457183330833
 40
19.80508033514272
 40
21.78558673258414
 40
23.7660881774068
 40
25.74659124287389
 40
27.72710275259179
 40
27.72710275259179
 40
27.72710275259179
 40
27.72710275259179
 10
367.8609891146837
 20
139.4641888964501
 30
0.0
 10
368.0435787988924
 20
139.4144109711382
 30
0.0
 10
368.6860632190207
 20
139.2038051386764
 30
0.0
 10
369.8158670293702
 20
138.6235903488763
 30
0.0
 10
371.2079223766061
 20
137.5452567719452
 30
0.0
 10
372.5121655749606
 20
136.1668985943395
 30
0.0
 10
373.6632782993402
 20
134.5573309847657
 30
0.0
 10
374.6031292887784
 20
132.7984086804974
 30
0.0
 10
375.0583300762318
 20
131.5820650387346
 30
0.0
 10
375.2365885015154
 20
130.9809826672556
 30
0.0
  0
SPLINE
  5
83
330
7B
100
AcDbEntity
  8
0
  6
Continuous
 62
     0
370
    30
100
AcDbSpline
210
0.0
220
0.0
230
1.0
 70
     8
 71
     3
 72
    10
 73
     6
 74
     0
 42
0.000000001
 43
0.0
 40
0.0
 40
0.0
 40
0.0
 40
0.0
 40
1.980513790506301
 40
3.961026682382898
 40
5.732207793903164
 40
5.732207793903164
 40
5.732207793903164
 40
5.732207793903164
 10
375.2365885015154
 20
130.9809826672556
 30
0.0
 10
375.414858703614
 20
130.37992136858
 30
0.0
 10
375.6752006333959
 20
129.1831238463832
 30
0.0
 10
375.750141466825
 20
127.569555132991
 30
0.0
 10
375.6105486159419
 20
126.6344540295497
 30
0.0
 10
375.5039742905915
 20
126.2288498446117
 30
0.0
  0
ELLIPSE
  5
84
330
7B
100
AcDbEntity
  8
0
  6
Continuous
 62
     0
370
     0
100
AcDbEllipse
 10
360.637968
 20
126.469188
 30
0.0
 11
5.474999999999995
 21
-9.482978171439594
 31
0.0
210
0.0
220
0.0
230
1.0
 40
0.57735
 41
0.0000000228501555
 42
1.177194567100427
  0
ELLIPSE
  5
85
330
7B
100
AcDbEntity
  8
0
  6
Continuous
 62
     0
370
     0
100
AcDbEllipse
 10
360.637968
 20
126.469188
 30
0.0
 11
5.474999999999995
 21
-9.482978171439594
 31
0.0
210
0.0
220
0.0
230
1.0
 40
0.57735
 41
1.177194567100427
 42
3.141592676439949
  0
SPLINE
  5
86
330
7B
100
AcDbEntity
  8
0
  6
Continuous
 62
     0
370
    30
100
AcDbSpline
210
0.0
220
0.0
230
1.0
 70
    12
 71
     2
 72
     6
 73
     3
 74
     0
 42
0.000000001
 43
0.0
 40
0.0
 40
0.0
 40
0.0
 40
0.3956066897897327
 40
0.3956066897897327
 40
0.3956066897897327
 10
369.4565352016666
 20
139.7255566921627
 30
0.0
 41
1.0
 10
364.307142782612
 20
142.6985597914669
 30
0.0
 41
0.7682589664867001
 10
362.726732136003
 20
137.9519709890744
 30
0.0
 41
0.9032311455999924
  0
SPLINE
  5
87
330
7B
100
AcDbEntity
  8
0
  6
Continuous
 62
     0
370
    30
100
AcDbSpline
210
0.0
220
0.0
230
1.0
 70
    12
 71
     2
 72
     8
 73
     5
 74
     0
 42
0.000000001
 43
0.0
 40
0.1043934404740753
 40
0.1043934404740753
 40
0.1043934404740753
 40
0.5
 40
0.5
 40
1.0
 40
1.0
 40
1.0
 10
371.6267339512255
 20
122.5367198497307
 30
0.0
 41
0.9032310567138204
 10
376.5276030135321
 20
121.5321043280985
 30
0.0
 41
0.7682590427934721
 10
376.5276030135321
 20
127.4781079782469
 30
0.0
 41
1.0
 10
376.5276030135321
 20
135.6430737875241
 30
0.0
 41
0.7071067811865471
 10
369.4565352016666
 20
139.7255566921627
 30
0.0
 41
1.0
  0
SPLINE
  5
88
330
7B
100
AcDbEntity
  8
0
  6
Continuous
 62
     0
370
    30
100
AcDbSpline
210
0.0
220
0.0
230
1.0
 70
     8
 71
     3
 72
    15
 73
    11
 74
     0
 42
0.000000001
 43
0.0
 40
0.0
 40
0.0
 40
0.0
 40
0.0
 40
2.058359946920772
 40
4.116719893841545
 40
6.175079840762317
 40
8.233439787683086
 40
10.29179973460386
 40
12.35015968152464
 40
14.40851962844541
 40
14.81885432784605
 40
14.81885432784605
 40
14.81885432784605
 40
14.81885432784605
 10
370.1636419828532
 20
140.9503015635543
 30
0.0
 10
369.6553790291232
 20
141.2437473167095
 30
0.0
 10
368.6360362532064
 20
141.7164726484134
 30
0.0
 10
367.1679769508746
 20
142.049665618077
 30
0.0
 10
365.8144365355899
 20
141.9958061307813
 30
0.0
 10
364.6281951771106
 20
141.5565226668046
 30
0.0
 10
363.6546346530868
 20
140.7488148918692
 30
0.0
 10
362.9312232278227
 20
139.6036908781934
 30
0.0
 10
362.6046367615903
 20
138.5490838634599
 30
0.0
 10
362.4972798154149
 20
137.9168979042942
 30
0.0
 10
362.4813973795111
 20
137.8103268511117
 30
0.0
  0
SPLINE
  5
89
330
7B
100
AcDbEntity
  8
0
  6
Continuous
 62
     0
370
    30
100
AcDbSpline
210
0.0
220
0.0
230
1.0
 70
     8
 71
     3
 72
    23
 73
    19
 74
     0
 42
0.000000001
 43
0.0
 40
34.58178760879537
 40
34.58178760879537
 40
34.58178760879537
 40
34.58178760879537
 40
34.99211909765314
 40
37.05047904457391
 40
39.10883899149468
 40
41.16719893841544
 40
43.22555888533623
 40
45.28391883225699
 40
47.34227877917777
 40
49.40063872609854
 40
51.4589986730193
 40
53.51735861994008
 40
55.57571856686084
 40
57.63407851378163
 40
59.69243846070242
 40
61.75079840762317
 40
63.80915835454392
 40
65.86751830146468
 40
65.86751830146468
 40
65.86751830146468
 40
65.86751830146468
 10
371.3813987587839
 20
122.3950754600722
 30
0.0
 10
371.4816324269744
 20
122.3555448666443
 30
0.0
 10
372.0827992004949
 20
122.1324260635641
 30
0.0
 10
373.159408135846
 20
121.887954346377
 30
0.0
 10
374.5128203348704
 20
121.941887859365
 30
0.0
 10
375.699096048566
 20
122.3811514883483
 30
0.0
 10
376.6726473679847
 20
123.188864577565
 30
0.0
 10
377.396061256453
 20
124.3339871691092
 30
0.0
 10
377.8415373442428
 20
125.7725128322538
 30
0.0
 10
377.9919561593259
 20
127.4491598762619
 30
0.0
 10
377.8415374738851
 20
129.2994955321798
 30
0.0
 10
377.3960607378837
 20
131.2524130479754
 30
0.0
 10
376.6726493126196
 20
133.2328606238734
 30
0.0
 10
375.6990887885958
 20
135.164739260044
 30
0.0
 10
374.5128474301165
 20
136.9737762593044
 30
0.0
 10
373.1593070148318
 20
138.5905695928474
 30
0.0
 10
371.6912477124999
 20
139.9525454899592
 30
0.0
 10
370.6719049365832
 20
140.6568558103992
 30
0.0
 10
370.1636419828532
 20
140.9503015635543
 30
0.0
  0
SPLINE
  5
8A
330
7B
100
AcDbEntity
  8
0
  6
Continuous
 62
     0
370
    30
100
AcDbSpline
210
0.0
220
0.0
230
1.0
 70
    12
 71
     2
 72
     8
 73
     5
 74
     0
 42
0.000000001
 43
0.0
 40
0.0
 40
0.0
 40
0.0
 40
0.5
 40
0.5
 40
1.0
 40
1.0
 40
1.0
 10
377.3054204728372
 20
52.40124736194241
 30
0.0
 41
1.0
 10
426.4492708490824
 20
24.02803211820259
 30
0.0
 41
0.7071067811865471
 10
426.4492708490824
 20
80.77446260568229
 30
0.0
 41
1.0
 10
426.4492708490824
 20
137.520893093162
 30
0.0
 41
0.7071067811865471
 10
377.3054204728372
 20
165.8941083369018
 30
0.0
 41
1.0
  0
SPLINE
  5
8B
330
7B
100
AcDbEntity
  8
0
  6
Continuous
 62
     0
370
    30
100
AcDbSpline
210
0.0
220
0.0
230
1.0
 70
    12
 71
     2
 72
     6
 73
     3
 74
     0
 42
0.000000001
 43
0.0
 40
0.9001731707335323
 40
0.9001731707335323
 40
0.9001731707335323
 40
1.0
 40
1.0
 40
1.0
 10
362.8917587550172
 20
63.21857970413909
 30
0.0
 41
0.9063959695267076
 10
369.9365552237085
 20
56.65566369714897
 30
0.0
 41
0.9415227973044066
 10
377.3054204728372
 20
52.40124736194241
 30
0.0
 41
1.0
  0
SPLINE
  5
8C
330
7B
100
AcDbEntity
  8
0
  6
Continuous
 62
     0
370
    30
100
AcDbSpline
210
0.0
220
0.0
230
1.0
 70
    12
 71
     2
 72
     8
 73
     5
 74
     0
 42
0.000000001
 43
0.0
 40
0.0
 40
0.0
 40
0.0
 40
0.5
 40
0.5
 40
0.7000246733659257
 40
0.7000246733659257
 40
0.7000246733659257
 10
377.3054204728372
 20
165.8941083369018
 30
0.0
 41
1.0
 10
328.161570096592
 20
194.2673235806417
 30
0.0
 41
0.7071067811865471
 10
328.161570096592
 20
137.520893093162
 30
0.0
 41
1.0
 10
328.161570096592
 20
119.3380877373933
 30
0.0
 41
0.882828259151489
 10
337.3131946542363
 20
99.25761248662796
 30
0.0
 41
0.8594054750667393
  0
SPLINE
  5
8D
330
7B
100
AcDbEntity
  8
0
  6
Continuous
 62
     0
370
    30
100
AcDbSpline
210
0.0
220
0.0
230
1.0
 70
    12
 71
     2
 72
     6
 73
     3
 74
     0
 42
0.000000001
 43
0.0
 40
0.7497398410928019
 40
0.7497398410928019
 40
0.7497398410928019
 40
1.0
 40
1.0
 40
1.0
 10
371.8006810182189
 20
145.6156853033071
 30
0.0
 41
0.8535535491836042
 10
374.0796663778099
 20
146.9359992923428
 30
0.0
 41
0.8534009930338096
 10
377.3054204728372
 20
145.0736092972393
 30
0.0
 41
1.0
  0
SPLINE
  5
8E
330
7B
100
AcDbEntity
  8
0
  6
Continuous
 62
     0
370
    30
100
AcDbSpline
210
0.0
220
0.0
230
1.0
 70
    12
 71
     2
 72
     8
 73
     5
 74
     0
 42
0.000000001
 43
0.0
 40
0.0
 40
0.0
 40
0.0
 40
0.5
 40
0.5
 40
0.7499999927163772
 40
0.7499999927163772
 40
0.7499999927163772
 10
377.3054204728372
 20
145.0736092972393
 30
0.0
 41
1.0
 10
385.0835950658892
 20
140.5828781021368
 30
0.0
 41
0.707106781186548
 10
385.0835950658892
 20
131.6014157119318
 30
0.0
 41
1.0
 10
385.0835950658893
 20
127.8811723069488
 30
0.0
 41
0.8535533948599214
 10
382.8054206055841
 20
126.565867542047
 30
0.0
 41
0.8535533905932741
  0
SPLINE
  5
8F
330
7B
100
AcDbEntity
  8
0
  6
Continuous
 62
     0
370
    30
100
AcDbSpline
210
0.0
220
0.0
230
1.0
 70
    12
 71
     2
 72
     8
 73
     5
 74
     0
 42
0.000000001
 43
0.0
 40
0.0
 40
0.0
 40
0.0
 40
0.25
 40
0.25
 40
0.5
 40
0.5
 40
0.5
 10
377.6589738634304
 20
52.19712321671045
 30
0.0
 41
1.0
 10
427.1563776302689
 20
23.61978382773867
 30
0.0
 41
0.707106781186548
 10
427.1563776302688
 20
80.77446260568223
 30
0.0
 41
1.0
 10
427.1563776302689
 20
137.9291413836258
 30
0.0
 41
0.707106781186548
 10
377.6589738634304
 20
166.5064807725976
 30
0.0
 41
1.0
  0
SPLINE
  5
90
330
7B
100
AcDbEntity
  8
0
  6
Continuous
 62
     0
370
    30
100
AcDbSpline
210
0.0
220
0.0
230
1.0
 70
    12
 71
     2
 72
     6
 73
     3
 74
     0
 42
0.000000001
 43
0.0
 40
0.5
 40
0.5
 40
0.5
 40
0.7500000005204571
 40
0.7500000005204571
 40
0.7500000005204571
 10
377.6589738634304
 20
166.5064807725976
 30
0.0
 41
1.0
 10
328.161570096592
 20
195.0838201615693
 30
0.0
 41
0.707106781186548
 10
328.161570096592
 20
137.9291412153538
 30
0.0
 41
0.9999999987804931
  0
ELLIPSE
  5
91
330
7B
100
AcDbEntity
  8
0
  6
Continuous
 62
     0
370
    30
100
AcDbEllipse
 10
384.730034
 20
113.43428
 30
0.0
 11
34.99994985466004
 21
-60.62169141063413
 31
0.0
210
0.0
220
0.0
230
1.0
 40
0.57735
 41
0.0000000228501555
 42
2.356194490192345
  0
ELLIPSE
  5
92
330
7B
100
AcDbEntity
  8
0
  6
Continuous
 62
     0
370
    30
100
AcDbEllipse
 10
384.730034
 20
113.43428
 30
0.0
 11
34.99994985466004
 21
-60.62169141063413
 31
0.0
210
0.0
220
0.0
230
1.0
 40
0.57735
 41
2.356194490192345
 42
3.141592676439949
  0
ELLIPSE
  5
93
330
7B
100
AcDbEntity
  8
0
  6
Continuous
 62
     0
370
    30
100
AcDbEllipse
 10
370.097813
 20
92.738997
 30
0.0
 11
-10.125
 21
17.53701442663488
 31
0.0
210
0.0
220
0.0
230
-1.0
 40
0.57735
 41
6.23524083055964
 42
9.200429642693107
  0
ELLIPSE
  5
94
330
7B
100
AcDbEntity
  8
0
  6
Continuous
 62
     0
370
    30
100
AcDbEllipse
 10
370.097812
 20
92.738996
 30
0.0
 11
-11.1
 21
19.22576396401453
 31
0.0
210
0.0
220
0.0
230
-1.0
 40
0.57735
 41
0.7853893928147642
 42
3.303815768158548
  0
ELLIPSE
  5
95
330
7B
100
AcDbEntity
  8
0
  6
Continuous
 62
     0
370
    30
100
AcDbEllipse
 10
370.097812
 20
92.738996
 30
0.0
 11
-11.1
 21
19.22576396401453
 31
0.0
210
0.0
220
0.0
230
-1.0
 40
0.57735
 41
5.944368586253736
 42
7.06857469999435
  0
SPLINE
  5
96
330
7B
100
AcDbEntity
  8
0
  6
Continuous
 62
     0
370
     0
100
AcDbSpline
210
0.0
220
0.0
230
1.0
 70
     8
 71
     3
 72
    11
 73
     7
 74
     0
 42
0.000000001
 43
0.0
 40
3.227887909111399
 40
3.227887909111399
 40
3.227887909111399
 40
3.227887909111399
 40
4.137919383804777
 40
5.196549339213012
 40
6.247062749096754
 40
7.289625586379314
 40
7.289625586379314
 40
7.289625586379314
 40
7.289625586379314
 10
352.7977383996025
 20
14.20049589692745
 30
0.0
 10
352.8775828130628
 20
14.39705933853432
 30
0.0
 10
353.0105475851051
 20
14.86147647060934
 30
0.0
 10
353.1336173128336
 20
15.63751211568952
 30
0.0
 10
353.2052588006435
 20
16.48564009363076
 30
0.0
 10
353.2322864907554
 20
17.06304375383668
 30
0.0
 10
353.2446033340146
 20
17.34964800363177
 30
0.0
  0
SPLINE
  5
97
330
7B
100
AcDbEntity
  8
0
  6
Continuous
 62
     0
370
     0
100
AcDbSpline
210
0.0
220
0.0
230
1.0
 70
     8
 71
     3
 72
     9
 73
     5
 74
     0
 42
0.000000001
 43
0.0
 40
0.0
 40
0.0
 40
0.0
 40
0.0
 40
0.511467668584195
 40
0.9767093772670588
 40
0.9767093772670588
 40
0.9767093772670588
 40
0.9767093772670588
 10
353.2446033337168
 20
17.34964799568692
 30
0.0
 10
353.2935660738409
 20
17.44388576435487
 30
0.0
 10
353.3695372762278
 20
17.62743960824287
 30
0.0
 10
353.4024121433551
 20
17.81496727679863
 30
0.0
 10
353.406455971739
 20
17.90453220745044
 30
0.0
  0
SPLINE
  5
98
330
7B
100
AcDbEntity
  8
0
  6
Continuous
 62
     0
370
     0
100
AcDbSpline
210
0.0
220
0.0
230
1.0
 70
     8
 71
     3
 72
     8
 73
     4
 74
     0
 42
0.000000001
 43
0.0
 40
0.0
 40
0.0
 40
0.0
 40
0.0
 40
47.29217280920903
 40
47.29217280920903
 40
47.29217280920903
 40
47.29217280920903
 10
353.2445978817961
 20
17.34964908493546
 30
0.0
 10
353.821716400937
 20
30.3838321509329
 30
0.0
 10
354.3679061967508
 20
43.4363200681241
 30
0.0
 10
354.9199252657296
 20
56.48531544745495
 30
0.0
  0
SPLINE
  5
99
330
7B
100
AcDbEntity
  8
0
  6
Continuous
 62
     0
370
     0
100
AcDbSpline
210
0.0
220
0.0
230
1.0
 70
     8
 71
     3
 72
    10
 73
     6
 74
     0
 42
0.000000001
 43
0.0
 40
0.0
 40
0.0
 40
0.0
 40
0.0
 40
0.5886838453317622
 40
0.8845321192462456
 40
1.120079910137722
 40
1.120079910137722
 40
1.120079910137722
 40
1.120079910137722
 10
354.9199252657297
 20
56.48531544745495
 30
0.0
 10
354.9612380610147
 20
56.58386753842235
 30
0.0
 10
355.0108388131372
 20
56.72906752632389
 30
0.0
 10
355.0447718362347
 20
56.89676182114733
 30
0.0
 10
355.0520511768975
 20
56.97320793266706
 30
0.0
 10
355.0534152631275
 20
57.00572660765705
 30
0.0
  0
ARC
  5
9A
330
7B
100
AcDbEntity
  8
0
  6
Continuous
 62
     0
370
     0
100
AcDbCircle
 10
364.348013
 20
55.720516
 30
0.0
 40
9.459056764974648
100
AcDbArc
 50
155.332211
 51
175.362362
  0
SPLINE
  5
9B
330
7B
100
AcDbEntity
  8
0
  6
Continuous
 62
     0
370
     0
100
AcDbSpline
210
0.0
220
0.0
230
1.0
 70
     8
 71
     3
 72
    18
 73
    14
 74
     0
 42
0.000000001
 43
0.0
 40
0.0
 40
0.0
 40
0.0
 40
0.0
 40
1.785301210585795
 40
2.669713658688727
 40
3.544791626131593
 40
4.395230002139404
 40
5.153606341993546
 40
5.76876986313969
 40
6.250149103393017
 40
6.672513495201361
 40
7.06533283583037
 40
7.78215390267276
 40
8.459215863564634
 40
8.459215863564634
 40
8.459215863564634
 40
8.459215863564634
 10
343.4557062529126
 20
16.5415856406144
 30
0.0
 10
343.465316237213
 20
16.04964930817778
 30
0.0
 10
343.49035250371
 20
15.30734528557583
 30
0.0
 10
343.5478865543664
 20
14.3082138037675
 30
0.0
 10
343.5981368638242
 20
13.56841411339147
 30
0.0
 10
343.6686186087224
 20
12.85229555204241
 30
0.0
 10
343.7849448353413
 20
12.18811259141037
 30
0.0
 10
343.9577003678092
 20
11.61363262850277
 30
0.0
 10
344.1801177916171
 20
11.15456545610331
 30
0.0
 10
344.4070526329406
 20
10.78754731520799
 30
0.0
 10
344.6974545480102
 20
10.37431762336915
 30
0.0
 10
345.0871314358338
 20
9.958467547175175
 30
0.0
 10
345.4149553599978
 20
9.722007306580565
 30
0.0
 10
345.5745809011389
 20
9.629040516356412
 30
0.0
  0
SPLINE
  5
9C
330
7B
100
AcDbEntity
  8
0
  6
Continuous
 62
     0
370
     0
100
AcDbSpline
210
0.0
220
0.0
230
1.0
 70
     8
 71
     3
 72
    18
 73
    14
 74
     0
 42
0.000000001
 43
0.0
 40
0.0
 40
0.0
 40
0.0
 40
0.0
 40
0.6770372965134648
 40
1.393847088312089
 40
1.786669397060051
 40
2.209049071396433
 40
2.690457331473354
 40
3.305641855231371
 40
4.064000159642917
 40
4.914388930957124
 40
5.789419118207619
 40
6.673785693074803
 40
8.459005372701752
 40
8.459005372701752
 40
8.459005372701752
 40
8.459005372701752
 10
345.5745809011389
 20
9.629040516356412
 30
0.0
 10
345.7342005922045
 20
9.53779717902816
 30
0.0
 10
346.0659991614808
 20
9.393643975749484
 30
0.0
 10
346.4702230570535
 20
9.351408243846862
 30
0.0
 10
346.7764979216211
 20
9.420357790467449
 30
0.0
 10
347.0185819605072
 20
9.516769466734658
 30
0.0
 10
347.2586968689847
 20
9.708978142939259
 30
0.0
 10
347.4472560577643
 20
10.07497978047475
 30
0.0
 10
347.5751797426741
 20
10.59820481690338
 30
0.0
 10
347.6530607904604
 20
11.2286781149803
 30
0.0
 10
347.7087429799202
 20
11.90730987409324
 30
0.0
 10
347.772654867484
 20
12.83631294993428
 30
0.0
 10
347.8005624819593
 20
13.54803132728874
 30
0.0
 10
347.8112726282879
 20
14.02821973603822
 30
0.0
  0
SPLINE
  5
9D
330
7B
100
AcDbEntity
  8
0
  6
Continuous
 62
     0
370
     0
100
AcDbSpline
210
0.0
220
0.0
230
1.0
 70
     8
 71
     3
 72
     8
 73
     4
 74
     0
 42
0.000000001
 43
0.0
 40
0.0
 40
0.0
 40
0.0
 40
0.0
 40
47.55430553066725
 40
47.55430553066725
 40
47.55430553066725
 40
47.55430553066725
 10
347.811272628288
 20
14.02821973603821
 30
0.0
 10
348.0714237419934
 20
26.83303203697068
 30
0.0
 10
348.3699126720575
 20
39.61989608827352
 30
0.0
 10
348.6607290973205
 20
52.41413929191594
 30
0.0
  0
SPLINE
  5
9E
330
7B
100
AcDbEntity
  8
0
  6
Continuous
 62
     0
370
     0
100
AcDbSpline
210
0.0
220
0.0
230
1.0
 70
     8
 71
     3
 72
    14
 73
    10
 74
     0
 42
0.000000001
 43
0.0
 40
0.0
 40
0.0
 40
0.0
 40
0.0
 40
3.351074094330854
 40
6.122432219086837
 40
8.43879038255608
 40
10.45632617913405
 40
12.27572296654524
 40
13.95495729661453
 40
15.53190000898418
 40
15.53190000898418
 40
15.53190000898418
 40
15.53190000898418
 10
348.6606999574923
 20
52.41415454161512
 30
0.0
 10
348.6801798989012
 20
53.31627361399916
 30
0.0
 10
348.8895484323241
 20
54.87913776147271
 30
0.0
 10
349.5953585333956
 20
56.71772343748349
 30
0.0
 10
350.4698288548024
 20
58.02013764533231
 30
0.0
 10
351.4306434881912
 20
58.94729684548402
 30
0.0
 10
352.442686923495
 20
59.61780166624253
 30
0.0
 10
353.4951801128501
 20
60.09561212767051
 30
0.0
 10
354.2380662279706
 20
60.31838468261563
 30
0.0
 10
354.6121640173944
 20
60.40615065764852
 30
0.0
  0
SPLINE
  5
9F
330
7B
100
AcDbEntity
  8
0
  6
Continuous
 62
     0
370
     0
100
AcDbSpline
210
0.0
220
0.0
230
1.0
 70
     8
 71
     3
 72
    31
 73
    27
 74
     0
 42
0.000000001
 43
0.0
 40
0.0
 40
0.0
 40
0.0
 40
0.0
 40
6.56131549463748
 40
10.56837088364783
 40
15.6261432361097
 40
18.80297789239336
 40
22.27253870460704
 40
28.1824417941173
 40
30.54140454465704
 40
32.64834952045916
 40
36.34887581274038
 40
42.6221346360555
 40
48.17892770478821
 40
53.44913729782306
 40
58.71924236209077
 40
64.27595803767218
 40
70.54880114304356
 40
74.24899760938668
 40
76.35579970617844
 40
78.71454413890467
 40
84.62396407396875
 40
88.09336299265861
 40
91.27077869534006
 40
96.32947538724909
 40
100.3370074805238
 40
106.8985736757575
 40
106.8985736757575
 40
106.8985736757575
 40
106.8985736757575
 10
354.6121639244097
 20
60.40615083701722
 30
0.0
 10
356.1687277405694
 20
60.77127905438984
 30
0.0
 10
358.541390967967
 20
61.89032705184167
 30
0.0
 10
361.2411938235293
 20
64.58050593145032
 30
0.0
 10
362.680601595282
 20
67.30635496456559
 30
0.0
 10
363.3200720439779
 20
70.28670989201923
 30
0.0
 10
363.3337915213546
 20
73.71776741096478
 30
0.0
 10
362.4485231520004
 20
77.10569285794824
 30
0.0
 10
361.0625806828466
 20
80.024941972151
 30
0.0
 10
359.7583658055071
 20
82.28383783986459
 30
0.0
 10
357.4382441391692
 20
85.50850310177589
 30
0.0
 10
353.8135034041968
 20
89.3158433415719
 30
0.0
 10
349.5005277535746
 20
92.86889420866373
 30
0.0
 10
345.517518252957
 20
95.50522319256032
 30
0.0
 10
341.8895296191847
 20
97.26131435037337
 30
0.0
 10
338.673526733669
 20
98.05254872765835
 30
0.0
 10
336.4925805100341
 20
97.59580586733026
 30
0.0
 10
335.2578075744672
 20
96.42288010475875
 30
0.0
 10
334.6025721509967
 20
95.29501536095592
 30
0.0
 10
333.9340993376916
 20
93.56161507232144
 30
0.0
 10
333.5360285674835
 20
90.91471981069847
 30
0.0
 10
333.5412253549545
 20
87.47305770492918
 30
0.0
 10
333.8307504323355
 20
83.95627277155165
 30
0.0
 10
334.5036049922906
 20
80.0108101137179
 30
0.0
 10
335.8783360031679
 20
74.9685852000855
 30
0.0
 10
337.2399742587021
 20
71.69421956355255
 30
0.0
 10
338.2485133831875
 20
69.84877508745706
 30
0.0
  0
SPLINE
  5
A0
330
7B
100
AcDbEntity
  8
0
  6
Continuous
 62
     0
370
     0
100
AcDbSpline
210
0.0
220
0.0
230
1.0
 70
     8
 71
     3
 72
    14
 73
    10
 74
     0
 42
0.000000001
 43
0.0
 40
0.0
 40
0.0
 40
0.0
 40
0.0
 40
1.576988025420239
 40
3.256289132435781
 40
5.075283189511372
 40
7.093057195190395
 40
9.409417996480371
 40
12.18082556357823
 40
15.53182913021579
 40
15.53182913021579
 40
15.53182913021579
 40
15.53182913021579
 10
338.2485133244497
 20
69.84877499880955
 30
0.0
 10
338.4909032243734
 20
69.40524690772949
 30
0.0
 10
338.9851662634573
 20
68.46847340909062
 30
0.0
 10
339.7218616116096
 20
66.9581230689545
 30
0.0
 10
340.4676909563291
 20
65.27378292067881
 30
0.0
 10
341.2097698388879
 20
63.36371779842608
 30
0.0
 10
341.916803824713
 20
61.14875246350323
 30
0.0
 10
342.5105234471544
 20
58.56021520579026
 30
0.0
 10
342.6919487577138
 20
56.77186881916606
 30
0.0
 10
342.7087393938793
 20
55.84883888019549
 30
0.0
  0
SPLINE
  5
A1
330
7B
100
AcDbEntity
  8
0
  6
Continuous
 62
     0
370
     0
100
AcDbSpline
210
0.0
220
0.0
230
1.0
 70
     8
 71
     3
 72
     8
 73
     4
 74
     0
 42
0.000000001
 43
0.0
 40
0.0
 40
0.0
 40
0.0
 40
0.0
 40
47.5544546717761
 40
47.5544546717761
 40
47.5544546717761
 40
47.5544546717761
 10
342.7087140749765
 20
55.84885506871554
 30
0.0
 10
342.9593235440165
 20
42.74214318935331
 30
0.0
 10
343.222289545483
 20
29.63125133464264
 30
0.0
 10
343.4557062529126
 20
16.54158564061436
 30
0.0
  0
SPLINE
  5
A2
330
7B
100
AcDbEntity
  8
0
  6
Continuous
 62
     0
370
     0
100
AcDbSpline
210
0.0
220
0.0
230
1.0
 70
     8
 71
     3
 72
    20
 73
    16
 74
     0
 42
0.000000001
 43
0.0
 40
0.0
 40
0.0
 40
0.0
 40
0.0
 40
0.2854427463314906
 40
0.5761515093445286
 40
1.184437173306685
 40
1.834163980773667
 40
2.501939318582465
 40
3.861818999841592
 40
5.260655509517038
 40
6.699945680817458
 40
8.186371515568206
 40
9.699688671990046
 40
10.46160013442681
 40
10.84500370109371
 40
10.87851231782144
 40
10.87851231782144
 40
10.87851231782144
 40
10.87851231782144
 10
354.9199252657296
 20
56.48531544745492
 30
0.0
 10
354.9075988768096
 20
56.4667657293294
 30
0.0
 10
354.8811520847972
 20
56.42810514928814
 30
0.0
 10
354.8190502636995
 20
56.34284245259003
 30
0.0
 10
354.7197528600483
 20
56.21081310824258
 30
0.0
 10
354.560528282553
 20
56.0012248456631
 30
0.0
 10
354.3134939761736
 20
55.70061943106484
 30
0.0
 10
353.9540333082036
 20
55.30751082975171
 30
0.0
 10
353.4404530916184
 20
54.79467877886641
 30
0.0
 10
352.8439504726208
 20
54.2401856373707
 30
0.0
 10
352.1553238590917
 20
53.63151206143526
 30
0.0
 10
351.5284727098298
 20
53.09870179107932
 30
0.0
 10
351.0692822504416
 20
52.71714453488778
 30
0.0
 10
350.859979875844
 20
52.54514640805269
 30
0.0
 10
350.78561644533
 20
52.4842232054643
 30
0.0
 10
350.7796373218069
 20
52.47932593914872
 30
0.0
  0
SPLINE
  5
A3
330
7B
100
AcDbEntity
  8
0
  6
Continuous
 62
     0
370
     0
100
AcDbSpline
210
0.0
220
0.0
230
1.0
 70
     8
 71
     3
 72
    13
 73
     9
 74
     0
 42
0.000000001
 43
0.0
 40
0.0
 40
0.0
 40
0.0
 40
0.0
 40
1.980492681750932
 40
3.968975245909421
 40
5.962432643341041
 40
7.960863071161583
 40
9.96281716779341
 40
10.50276680384652
 40
10.50276680384652
 40
10.50276680384652
 40
10.50276680384652
 10
350.779637321807
 20
52.47932593914872
 30
0.0
 10
350.7968938086759
 20
53.01598941579084
 30
0.0
 10
350.8985519833448
 20
54.05381947358703
 30
0.0
 10
351.2517070970125
 20
55.46944489153009
 30
0.0
 10
351.8063602180633
 20
56.72281643719239
 30
0.0
 10
352.5607182522795
 20
57.79602325111759
 30
0.0
 10
353.2810321840077
 20
58.46128306405083
 30
0.0
 10
353.7362724117329
 20
58.7784640854631
 30
0.0
 10
353.8352824528758
 20
58.84332379137751
 30
0.0
  0
SPLINE
  5
A4
330
7B
100
AcDbEntity
  8
0
  6
Continuous
 62
     0
370
     0
100
AcDbSpline
210
0.0
220
0.0
230
1.0
 70
     8
 71
     9
 72
    30
 73
    20
 74
     0
 42
0.000000001
 43
0.0
 40
0.2499999949532699
 40
0.2499999949532699
 40
0.2499999949532699
 40
0.2499999949532699
 40
0.2499999949532699
 40
0.2499999949532699
 40
0.2499999949532699
 40
0.2499999949532699
 40
0.2499999949532699
 40
0.2499999949532699
 40
0.37499999475916
 40
0.37499999475916
 40
0.37499999475916
 40
0.37499999475916
 40
0.37499999475916
 40
0.499999995807328
 40
0.499999995807328
 40
0.499999995807328
 40
0.499999995807328
 40
0.499999995807328
 40
0.7206857518207923
 40
0.7206857518207923
 40
0.7206857518207923
 40
0.7206857518207923
 40
0.7206857518207923
 40
0.7206857518207923
 40
0.7206857518207923
 40
0.7206857518207923
 40
0.7206857518207923
 40
0.7206857518207923
 10
353.2445978817961
 20
17.34964908493544
 30
0.0
 10
353.189027024101
 20
17.24261929611453
 30
0.0
 10
353.1245037161141
 20
17.1371386097323
 30
0.0
 10
353.0521166912926
 20
17.03332947488632
 30
0.0
 10
352.9728416221689
 20
16.93121958390549
 30
0.0
 10
352.8993291030374
 20
16.82801777317431
 30
0.0
 10
352.7456783044445
 20
16.62288137566644
 30
0.0
 10
352.5847680435086
 20
16.41958774303994
 30
0.0
 10
352.4158969355064
 20
16.21844957992428
 30
0.0
 10
352.2385165417364
 20
16.01978405972696
 30
0.0
 10
352.1476422221447
 20
15.92110859556027
 30
0.0
 10
351.890171142838
 20
15.65014487315422
 30
0.0
 10
351.6154505811108
 20
15.38476464952127
 30
0.0
 10
351.3232040309746
 20
15.12563652252456
 30
0.0
 10
351.0140038566428
 20
14.87318374797775
 30
0.0
 10
350.8129440780673
 20
14.71363373539941
 30
0.0
 10
350.6079184174611
 20
14.5557787243547
 30
0.0
 10
350.3985625407563
 20
14.3998288992382
 30
0.0
 10
350.1847905303742
 20
14.24590696385133
 30
0.0
 10
349.9666480399713
 20
14.09407563978324
 30
0.0
  0
SPLINE
  5
A5
330
7B
100
AcDbEntity
  8
0
  6
Continuous
 62
     0
370
     0
100
AcDbSpline
210
0.0
220
0.0
230
1.0
 70
     8
 71
     3
 72
     8
 73
     4
 74
     0
 42
0.000000001
 43
0.0
 40
0.0
 40
0.0
 40
0.0
 40
0.0
 40
47.55042619357243
 40
47.55042619357243
 40
47.55042619357243
 40
47.55042619357243
 10
349.9666480399713
 20
14.09407563978321
 30
0.0
 10
350.2156975089126
 20
26.8986452082594
 30
0.0
 10
350.5004291274021
 20
39.68468593718093
 30
0.0
 10
350.779603418429
 20
52.47926150915656
 30
0.0
  0
SPLINE
  5
A6
330
7B
100
AcDbEntity
  8
0
  6
Continuous
 62
     0
370
     0
100
AcDbSpline
210
0.0
220
0.0
230
1.0
 70
     8
 71
     3
 72
    14
 73
    10
 74
     0
 42
0.000000001
 43
0.0
 40
3.834050076889822
 40
3.834050076889822
 40
3.834050076889822
 40
3.834050076889822
 40
4.594256315121038
 40
5.360219037500472
 40
6.121944849088246
 40
6.882558494898632
 40
7.643773707418659
 40
9.170001009433241
 40
10.70191835675889
 40
10.70191835675889
 40
10.70191835675889
 40
10.70191835675889
 10
349.1991381517526
 20
9.174411191191526
 30
0.0
 10
349.3128424737162
 20
9.281656918803211
 30
0.0
 10
349.5034313891183
 20
9.5392961231161
 30
0.0
 10
349.6791580108166
 20
10.01266078610398
 30
0.0
 10
349.7829163101071
 20
10.54225416816078
 30
0.0
 10
349.8379725299721
 20
11.10539170966072
 30
0.0
 10
349.8855053831331
 20
11.87949050937854
 30
0.0
 10
349.9351643168663
 20
12.86914809924892
 30
0.0
 10
349.9587059767962
 20
13.6816877751543
 30
0.0
 10
349.9665818828046
 20
14.09410733932808
 30
0.0
  0
SPLINE
  5
A7
330
7B
100
AcDbEntity
  8
0
  6
Continuous
 62
     0
370
     0
100
AcDbSpline
210
0.0
220
0.0
230
1.0
 70
     8
 71
     3
 72
     9
 73
     5
 74
     0
 42
0.000000001
 43
0.0
 40
1.308993798790878
 40
1.308993798790878
 40
1.308993798790878
 40
1.308993798790878
 40
1.779542241561375
 40
2.372723010967543
 40
2.372723010967543
 40
2.372723010967543
 40
2.372723010967543
 10
343.0724376280077
 20
17.09412057725241
 30
0.0
 10
343.0740068213063
 20
17.00415317462567
 30
0.0
 10
343.1350002875114
 20
16.80166903411018
 30
0.0
 10
343.3222827133297
 20
16.62393971311539
 30
0.0
 10
343.4557057574624
 20
16.54158538384064
 30
0.0
  0
SPLINE
  5
A8
330
7B
100
AcDbEntity
  8
0
  6
Continuous
 62
     0
370
     0
100
AcDbSpline
210
0.0
220
0.0
230
1.0
 70
     8
 71
     3
 72
     9
 73
     5
 74
     0
 42
0.000000001
 43
0.0
 40
0.0
 40
0.0
 40
0.0
 40
0.0
 40
0.5931807694061679
 40
1.055872988209372
 40
1.055872988209372
 40
1.055872988209372
 40
1.055872988209372
 10
342.7089218220415
 20
55.84895847810463
 30
0.0
 10
342.5812663165058
 20
55.93071342158606
 30
0.0
 10
342.4044430380145
 20
56.10416438780716
 30
0.0
 10
342.3470816688265
 20
56.30025496611495
 30
0.0
 10
342.3454631309066
 20
56.38658032230502
 30
0.0
  0
SPLINE
  5
A9
330
7B
100
AcDbEntity
  8
0
  6
Continuous
 62
     0
370
     0
100
AcDbSpline
210
0.0
220
0.0
230
1.0
 70
     8
 71
     3
 72
     9
 73
     5
 74
     0
 42
0.000000001
 43
0.0
 40
1.312502223864013
 40
1.312502223864013
 40
1.312502223864013
 40
1.312502223864013
 40
1.857007550403663
 40
2.47602330959479
 40
2.47602330959479
 40
2.47602330959479
 40
2.47602330959479
 10
345.8854629802515
 20
8.941968860419465
 30
0.0
 10
345.7935536020728
 20
8.994948347754525
 30
0.0
 10
345.6332461620648
 20
9.1709056069676
 30
0.0
 10
345.5743252293166
 20
9.459404056847404
 30
0.0
 10
345.5743212993935
 20
9.6288956208181
 30
0.0
  0
SPLINE
  5
AA
330
7B
100
AcDbEntity
  8
0
  6
Continuous
 62
     0
370
     0
100
AcDbSpline
210
0.0
220
0.0
230
1.0
 70
     8
 71
     3
 72
    11
 73
     7
 74
     0
 42
0.000000001
 43
0.0
 40
0.0
 40
0.0
 40
0.0
 40
0.0
 40
0.6188901402975335
 40
1.237773680010924
 40
1.856650619140169
 40
2.475520957685269
 40
2.475520957685269
 40
2.475520957685269
 40
2.475520957685269
 10
347.8112730239116
 20
14.02821999076018
 30
0.0
 10
347.9600086718863
 20
13.94775423579553
 30
0.0
 10
348.3155925435732
 20
13.82021283842721
 30
0.0
 10
348.9257940876798
 20
13.76663145099981
 30
0.0
 10
349.5179968033218
 20
13.85694935159307
 30
0.0
 10
349.8390967699562
 20
14.00516817320685
 30
0.0
 10
349.9666480399713
 20
14.09407563978326
 30
0.0
  0
SPLINE
  5
AB
330
7B
100
AcDbEntity
  8
0
  6
Continuous
 62
     0
370
     0
100
AcDbSpline
210
0.0
220
0.0
230
1.0
 70
     8
 71
     3
 72
    11
 73
     7
 74
     0
 42
0.000000001
 43
0.0
 40
0.0
 40
0.0
 40
0.0
 40
0.0
 40
0.5930143785153783
 40
1.186028745946305
 40
1.779043102292777
 40
2.372057447554798
 40
2.372057447554798
 40
2.372057447554798
 40
2.372057447554798
 10
348.6609130249149
 20
52.41426259133652
 30
0.0
 10
348.8090623198322
 20
52.33686332422715
 30
0.0
 10
349.1597880724468
 20
52.21467847695895
 30
0.0
 10
349.756870101653
 20
52.16375440968348
 30
0.0
 10
350.3361076852668
 20
52.2507670635008
 30
0.0
 10
350.6525721059568
 20
52.39342080036204
 30
0.0
 10
350.7796034378563
 20
52.4792623995117
 30
0.0
  0
SPLINE
  5
AC
330
7B
100
AcDbEntity
  8
0
  6
Continuous
 62
     0
370
     0
100
AcDbSpline
210
0.0
220
0.0
230
1.0
 70
     8
 71
     3
 72
    11
 73
     7
 74
     0
 42
0.000000001
 43
0.0
 40
0.0
 40
0.0
 40
0.0
 40
0.0
 40
0.5714883867551164
 40
1.142975828572379
 40
1.714462325451787
 40
1.926033243580819
 40
1.926033243580819
 40
1.926033243580819
 40
1.926033243580819
 10
354.6124285087467
 20
60.40638705751267
 30
0.0
 10
354.6945128901191
 20
60.2513869109136
 30
0.0
 10
354.8965926898449
 20
59.97089971854275
 30
0.0
 10
355.2681719730132
 20
59.70480087992586
 30
0.0
 10
355.5781676800436
 20
59.64168611928685
 30
0.0
 10
355.7482971882734
 20
59.66739962541814
 30
0.0
 10
355.7931362461482
 20
59.67871262878074
 30
0.0
  0
SPLINE
  5
AD
330
7B
100
AcDbEntity
  8
0
  6
Continuous
 62
     0
370
     0
100
AcDbSpline
210
0.0
220
0.0
230
1.0
 70
     8
 71
     3
 72
     9
 73
     5
 74
     0
 42
0.000000001
 43
0.0
 40
0.0000000000256795
 40
0.0000000000256795
 40
0.0000000000256795
 40
0.0000000000256795
 40
0.5190360511316039
 40
0.6820337535740869
 40
0.6820337535740869
 40
0.6820337535740869
 40
0.6820337535740869
 10
338.2489288645967
 20
69.84893172917756
 30
0.0
 10
338.1957261007806
 20
69.77198621240633
 30
0.0
 10
338.1620645878442
 20
69.6837362688007
 30
0.0
 10
338.1800790026473
 20
69.6215581689303
 30
0.0
 10
338.1872572345491
 20
69.60825372295163
 30
0.0
  0
SPLINE
  5
AE
330
7B
100
AcDbEntity
  8
0
  6
Continuous
 62
     0
370
     0
100
AcDbSpline
210
0.0
220
0.0
230
1.0
 70
     8
 71
     3
 72
    25
 73
    21
 74
     0
 42
0.000000001
 43
0.0
 40
39.26310974408469
 40
39.26310974408469
 40
39.26310974408469
 40
39.26310974408469
 40
40.65789846652445
 40
44.69218082389791
 40
48.71049901796344
 40
52.72215664610776
 40
56.7305738906297
 40
60.738812164035
 40
64.75076830891909
 40
68.76871791331719
 40
72.80327450625964
 40
76.85208732699766
 40
80.91446989423429
 40
84.9879176238427
 40
89.06898950787198
 40
93.15310110820946
 40
97.2351348364054
 40
101.3104330072903
 40
105.3751217418822
 40
109.0759998332799
 40
109.0759998332799
 40
109.0759998332799
 40
109.0759998332799
 10
336.9978637393269
 20
99.07535161088586
 30
0.0
 10
337.1676693695106
 20
99.17515205749626
 30
0.0
 10
337.8561680511636
 20
99.51521887053367
 30
0.0
 10
339.2425946851166
 20
99.77983797061074
 30
0.0
 10
341.3773252095983
 20
99.51433386648932
 30
0.0
 10
343.8560058610065
 20
98.67224694458497
 30
0.0
 10
346.6052103216547
 20
97.28094971904977
 30
0.0
 10
349.5363763184246
 20
95.39393507499881
 30
0.0
 10
352.5334724160684
 20
93.07670009155848
 30
0.0
 10
355.4832256960814
 20
90.40682416623534
 30
0.0
 10
358.2531397806188
 20
87.44591483536834
 30
0.0
 10
360.7073845593609
 20
84.24180683500532
 30
0.0
 10
362.7211988989488
 20
80.85702287999345
 30
0.0
 10
364.1745247782667
 20
77.36675696495485
 30
0.0
 10
364.9678197425499
 20
73.87227476899615
 30
0.0
 10
365.0400437621735
 20
70.49806347433721
 30
0.0
 10
364.3852377912648
 20
67.37877513552785
 30
0.0
 10
363.0552406151874
 20
64.64028183596838
 30
0.0
 10
361.197931166919
 20
62.45227468038324
 30
0.0
 10
359.69185285859
 20
61.36099929170009
 30
0.0
 10
358.9238407308062
 20
60.928506026508
 30
0.0
  0
SPLINE
  5
AF
330
7B
100
AcDbEntity
  8
0
  6
Continuous
 62
     0
370
    30
100
AcDbSpline
210
0.0
220
0.0
230
1.0
 70
     8
 71
     3
 72
    17
 73
    13
 74
     0
 42
0.000000001
 43
0.0
 40
0.0
 40
0.0
 40
0.0
 40
0.0
 40
2.395628802139828
 40
5.296276711880001
 40
7.117130441874318
 40
9.50429275837712
 40
13.88555573092288
 40
18.26684492747035
 40
20.65401356219686
 40
22.47486999040697
 40
25.37552048099178
 40
27.77115058700731
 40
27.77115058700731
 40
27.77115058700731
 40
27.77115058700731
 10
372.6282197902725
 20
98.33156328767771
 30
0.0
 10
372.037620916041
 20
98.86865471711016
 30
0.0
 10
370.7113602901311
 20
100.0387298061264
 30
0.0
 10
368.8921693626058
 20
101.5348499420797
 30
0.0
 10
367.0713512353637
 20
102.9344009836206
 30
0.0
 10
364.8851058990542
 20
104.5082068244212
 30
0.0
 10
362.1271923222631
 20
106.2637524656202
 30
0.0
 10
359.6166122998188
 20
107.5499748108916
 30
0.0
 10
357.9018498509118
 20
108.2284160728397
 30
0.0
 10
356.6081438728065
 20
108.627035984463
 30
0.0
 10
355.4636151332359
 20
108.8420198467366
 30
0.0
 10
354.7493132683593
 20
108.8500637496037
 30
0.0
 10
354.4554832937235
 20
108.8235974327881
 30
0.0
  0
SPLINE
  5
B0
330
7B
100
AcDbEntity
  8
0
  6
Continuous
 62
     0
370
    30
100
AcDbSpline
210
0.0
220
0.0
230
1.0
 70
     8
 71
     3
 72
     9
 73
     5
 74
     0
 42
0.000000001
 43
0.0
 40
0.0
 40
0.0
 40
0.0
 40
0.0
 40
3.025329141424465
 40
3.723428486638205
 40
3.723428486638205
 40
3.723428486638205
 40
3.723428486638205
 10
354.4554832937235
 20
108.8235974327881
 30
0.0
 10
354.0844909996838
 20
108.7902116195018
 30
0.0
 10
353.6735312357417
 20
108.6842655045761
 30
0.0
 10
353.3165438469438
 20
108.4974626762779
 30
0.0
 10
353.251483533344
 20
108.459588713048
 30
0.0
  0
ELLIPSE
  5
B1
330
7B
100
AcDbEntity
  8
0
  6
Continuous
 62
     0
370
    30
100
AcDbEllipse
 10
367.516876
 20
91.292305
 30
0.0
 11
10.99999939420043
 21
-19.0525592330162
 31
0.0
210
0.0
220
0.0
230
1.0
 40
0.57735
 41
0.0000000228501547
 42
0.437514339201563
  0
SPLINE
  5
B2
330
7B
100
AcDbEntity
  8
0
  6
Continuous
 62
     0
370
    30
100
AcDbSpline
210
0.0
220
0.0
230
1.0
 70
     8
 71
     3
 72
    17
 73
    13
 74
     0
 42
0.000000001
 43
0.0
 40
0.0
 40
0.0
 40
0.0
 40
0.0
 40
3.743625567551753
 40
6.040791801742719
 40
9.201928507603732
 40
11.59771248503951
 40
13.63128343488012
 40
17.13201494195247
 40
20.24742271140173
 40
23.19426013041368
 40
26.11208903074562
 40
29.13741745567274
 40
29.13741745567274
 40
29.13741745567274
 40
29.13741745567274
 10
382.141340735269
 20
76.72513964411024
 30
0.0
 10
382.4423076173243
 20
77.50940614125217
 30
0.0
 10
382.7746903284785
 20
78.87011886528214
 30
0.0
 10
382.8744775359298
 20
81.09604192958557
 30
0.0
 10
382.6468646232237
 20
83.09118802044131
 30
0.0
 10
382.1263668359193
 20
85.06645883144284
 30
0.0
 10
381.3462175551275
 20
87.14734380678743
 30
0.0
 10
380.1891156759274
 20
89.41927939315252
 30
0.0
 10
378.5604215336098
 20
91.883821746981
 30
0.0
 10
376.7739794889866
 20
94.13376896785834
 30
0.0
 10
374.8021680910796
 20
96.28103404869898
 30
0.0
 10
373.3741055133968
 20
97.65334772740667
 30
0.0
 10
372.6282197902725
 20
98.33156328767771
 30
0.0
  0
ELLIPSE
  5
B3
330
7B
100
AcDbEntity
  8
0
  6
Continuous
 62
     0
370
    30
100
AcDbEllipse
 10
377.30542
 20
96.900311
 30
0.0
 11
11.1
 21
-19.22576396401453
 31
0.0
210
0.0
220
0.0
230
1.0
 40
0.57735
 41
0.0000000228501555
 42
2.356194490192343
  0
ELLIPSE
  5
B4
330
7B
100
AcDbEntity
  8
0
  6
Continuous
 62
     0
370
    30
100
AcDbEllipse
 10
377.30542
 20
96.900311
 30
0.0
 11
11.1
 21
-19.22576396401453
 31
0.0
210
0.0
220
0.0
230
1.0
 40
0.57735
 41
2.356194490192343
 42
3.141592676439949
  0
LINE
  5
B5
330
7B
100
AcDbEntity
  8
0
  6
Continuous
 62
     0
370
    30
100
AcDbLine
 10
371.80542
 20
145.618426
 30
0.0
 11
364.663642
 21
141.495119
 31
0.0
  0
LINE
  5
B6
330
7B
100
AcDbEntity
  8
0
  6
Continuous
 62
     0
370
    30
100
AcDbLine
 10
382.805421
 20
126.565868
 30
0.0
 11
375.665888
 21
122.443857
 31
0.0
  0
LINE
  5
B7
330
7B
100
AcDbEntity
  8
0
  6
Continuous
 62
     0
370
    30
100
AcDbLine
 10
342.674109
 20
169.982203
 30
0.0
 11
349.730083
 21
174.055971
 31
0.0
  0
LINE
  5
B8
330
7B
100
AcDbEntity
  8
0
  6
Continuous
 62
     0
370
    30
100
AcDbLine
 10
412.674011
 20
48.738821
 30
0.0
 11
419.729985
 21
52.812589
 31
0.0
  0
LINE
  5
B9
330
7B
100
AcDbEntity
  8
0
  6
Continuous
 62
     0
370
    30
100
AcDbLine
 10
359.453273
 20
136.062039
 30
0.0
 11
364.883538
 21
139.197204
 31
0.0
  0
LINE
  5
BA
330
7B
100
AcDbEntity
  8
0
  6
Continuous
 62
     0
370
    30
100
AcDbLine
 10
368.353262
 20
120.64678
 30
0.0
 11
373.783538
 21
123.781951
 31
0.0
  0
SPLINE
  5
BB
330
7B
100
AcDbEntity
  8
0
  6
Continuous
 62
     0
370
    30
100
AcDbSpline
210
0.0
220
0.0
230
1.0
 70
     8
 71
     3
 72
    23
 73
    19
 74
     0
 42
0.000000001
 43
0.0
 40
0.0
 40
0.0
 40
0.0
 40
0.0
 40
0.669566690449779
 40
2.009631459406542
 40
4.947143746209416
 40
6.86236814579213
 40
10.17346833747301
 40
12.42220142746062
 40
14.8931340599963
 40
17.35950400738192
 40
19.82140625996439
 40
22.28562653590011
 40
24.54822993864549
 40
27.39931284554794
 40
29.09630919113538
 40
32.00993715761148
 40
33.39409819844575
 40
34.16765733942533
 40
34.16765733942533
 40
34.16765733942533
 40
34.16765733942533
 10
355.1629803474728
 20
135.9521730716755
 30
0.0
 10
355.2804559737217
 20
136.0199976619972
 30
0.0
 10
355.6441600656535
 20
136.205014381776
 30
0.0
 10
356.6132732631741
 20
136.5195848443679
 30
0.0
 10
357.9775309467918
 20
136.5249177641655
 30
0.0
 10
359.8906112694602
 20
135.9725217746131
 30
0.0
 10
361.6883514849517
 20
134.9438246555758
 30
0.0
 10
363.5380524941682
 20
133.3276077206738
 30
0.0
 10
365.0602664692207
 20
131.5582812578512
 30
0.0
 10
366.4062286077914
 20
129.4801652534578
 30
0.0
 10
367.4623584022736
 20
127.2535571843146
 30
0.0
 10
368.1567569770862
 20
125.051160681025
 30
0.0
 10
368.5164795401292
 20
122.8027549837054
 30
0.0
 10
368.4602405550264
 20
120.9481667733568
 30
0.0
 10
368.0258484067973
 20
119.1809031479871
 30
0.0
 10
367.3783804931291
 20
118.0222823702228
 30
0.0
 10
366.614208468984
 20
117.3065671873769
 30
0.0
 10
366.2486663356451
 20
117.064555103867
 30
0.0
 10
366.1129521664369
 20
116.9862004851428
 30
0.0
  0
LINE
  5
BC
330
7B
100
AcDbEntity
  8
0
  6
Continuous
 62
     0
370
    30
100
AcDbLine
 10
350.140666
 20
133.052539
 30
0.0
 11
355.162968
 21
135.952166
 31
0.0
  0
LINE
  5
BD
330
7B
100
AcDbEntity
  8
0
  6
Continuous
 62
     0
370
    30
100
AcDbLine
 10
361.094967
 20
114.089065
 30
0.0
 11
366.112968
 21
116.98621
 31
0.0
  0
SPLINE
  5
BE
330
7B
100
AcDbEntity
  8
0
  6
Continuous
 62
     0
370
    30
100
AcDbSpline
210
0.0
220
0.0
230
1.0
 70
     8
 71
     3
 72
    11
 73
     7
 74
     0
 42
0.000000001
 43
0.0
 40
0.0
 40
0.0
 40
0.0
 40
0.0
 40
1.015224636795994
 40
2.274010924733541
 40
3.751677283196783
 40
4.688919573791186
 40
4.688919573791186
 40
4.688919573791186
 40
4.688919573791186
 10
373.7835252162138
 20
123.7819440008615
 30
0.0
 10
373.9635848575433
 20
123.8859014821164
 30
0.0
 10
374.3448148579504
 20
124.1593197803524
 30
0.0
 10
374.8755702569192
 20
124.7479535374253
 30
0.0
 10
375.2665207099807
 20
125.4661556426001
 30
0.0
 10
375.4462945775524
 20
126.0089070058657
 30
0.0
 10
375.503991359192
 20
126.2288453597595
 30
0.0
  0
SPLINE
  5
BF
330
7B
100
AcDbEntity
  8
0
  6
Continuous
 62
     0
370
    30
100
AcDbSpline
210
0.0
220
0.0
230
1.0
 70
     8
 71
     3
 72
    11
 73
     7
 74
     0
 42
0.000000001
 43
0.0
 40
0.0
 40
0.0
 40
0.0
 40
0.0
 40
1.015233710268442
 40
2.274074332972671
 40
3.751782299236825
 40
4.686251767657488
 40
4.686251767657488
 40
4.686251767657488
 40
4.686251767657488
 10
364.8835481183927
 20
139.1972093891225
 30
0.0
 10
365.0636092478659
 20
139.3011677496592
 30
0.0
 10
365.4910318342913
 20
139.4946095547569
 30
0.0
 10
366.2662005328276
 20
139.6599564284626
 30
0.0
 10
367.0830772640396
 20
139.6393474447157
 30
0.0
 10
367.6423241267671
 20
139.5240391912643
 30
0.0
 10
367.8609960623909
 20
139.4642143811944
 30
0.0
  0
SPLINE
  5
C0
330
7B
100
AcDbEntity
  8
0
  6
Continuous
 62
     0
370
    30
100
AcDbSpline
210
0.0
220
0.0
230
1.0
 70
     8
 71
     3
 72
    15
 73
    11
 74
     0
 42
0.000000001
 43
0.0
 40
0.0
 40
0.0
 40
0.0
 40
0.0
 40
1.045424469248504
 40
2.498896324151649
 40
4.150259098275276
 40
6.216274985036769
 40
8.806015580318187
 40
10.1072919717968
 40
11.80438150879672
 40
12.82268001968325
 40
12.82268001968325
 40
12.82268001968325
 40
12.82268001968325
 10
348.368004284744
 20
124.1822266230069
 30
0.0
 10
348.2737749364051
 20
124.4999846585393
 30
0.0
 10
348.0747420143111
 20
125.2577069922085
 30
0.0
 10
347.8517848111935
 20
126.4933303745157
 30
0.0
 10
347.7470172758053
 20
127.96985514451
 30
0.0
 10
347.876131325897
 20
129.6344272122475
 30
0.0
 10
348.3028163631498
 20
130.9864674321223
 30
0.0
 10
348.9322115319327
 20
132.0269282487441
 30
0.0
 10
349.507172706227
 20
132.6355286939408
 30
0.0
 10
349.9620622202667
 20
132.9494215919475
 30
0.0
 10
350.1406790483391
 20
133.0525460646692
 30
0.0
  0
SPLINE
  5
C1
330
7B
100
AcDbEntity
  8
0
  6
Continuous
 62
     0
370
    30
100
AcDbSpline
210
0.0
220
0.0
230
1.0
 70
     8
 71
     3
 72
    17
 73
    13
 74
     0
 42
0.000000001
 43
0.0
 40
0.0
 40
0.0
 40
0.0
 40
0.0
 40
0.9618765268456859
 40
2.214588889394918
 40
5.491945053735897
 40
7.878291868493729
 40
11.07510646429961
 40
13.54890327695456
 40
16.22258585529052
 40
19.30248798743127
 40
20.53465946130713
 40
21.34495365660945
 40
21.34495365660945
 40
21.34495365660945
 40
21.34495365660945
 10
361.0906508698602
 20
114.0865734796128
 30
0.0
 10
360.9219220647561
 20
113.989157850115
 30
0.0
 10
360.5157620724094
 20
113.7942130083392
 30
0.0
 10
359.4227847773855
 20
113.4847558710783
 30
0.0
 10
357.8747585005669
 20
113.5549094983917
 30
0.0
 10
355.7711834001037
 20
114.3447286787836
 30
0.0
 10
353.8462336048427
 20
115.6424120456554
 30
0.0
 10
351.979134497744
 20
117.4947964188346
 30
0.0
 10
350.3466993235793
 20
119.678514221042
 30
0.0
 10
349.2466796852065
 20
121.753805731301
 30
0.0
 10
348.6419580537689
 20
123.313333610844
 30
0.0
 10
348.4410511021092
 20
123.9358998289396
 30
0.0
 10
348.3680042823482
 20
124.1822266310857
 30
0.0
  0
ARC
  5
C2
330
7B
100
AcDbEntity
  8
0
  6
Continuous
 62
     0
370
    30
100
AcDbCircle
 10
371.15676
 20
93.173897
 30
0.0
 40
20.44992269281069
100
AcDbArc
 50
124.753991
 51
132.046958
  0
LINE
  5
C3
330
7B
100
AcDbEntity
  8
0
  6
Continuous
 62
     0
370
    30
100
AcDbLine
 10
388.405421
 20
77.674547
 30
0.0
 11
381.197813
 21
73.513233
 31
0.0
  0
LINE
  5
C4
330
7B
100
AcDbEntity
  8
0
  6
Continuous
 62
     0
370
    30
100
AcDbLine
 10
366.20542
 20
116.126075
 30
0.0
 11
358.997812
 21
111.96476
 31
0.0
  0
LINE
  5
C5
330
7B
100
AcDbEntity
  8
0
  6
Continuous
 62
     0
370
    30
100
AcDbLine
 10
378.517014
 20
72.239826
 30
0.0
 11
359.030643
 21
60.989365
 31
0.0
  0
LINE
  5
C6
330
7B
100
AcDbEntity
  8
0
  6
Continuous
 62
     0
370
    30
100
AcDbLine
 10
353.259368
 20
108.464141
 30
0.0
 11
337.024939
 21
99.09119
 31
0.0
  0
SPLINE
  5
C7
330
7B
100
AcDbEntity
  8
0
  6
Continuous
 62
     0
370
    30
100
AcDbSpline
210
0.0
220
0.0
230
1.0
 70
     8
 71
     3
 72
    14
 73
    10
 74
     0
 42
0.000000001
 43
0.0
 40
0.0
 40
0.0
 40
0.0
 40
0.0
 40
1.175241556893299
 40
3.1421681957846
 40
5.184389252993218
 40
7.894147481318059
 40
11.69293748051297
 40
13.45202654623547
 40
14.75835728675904
 40
14.75835728675904
 40
14.75835728675904
 40
14.75835728675904
 10
338.1872573368147
 20
69.60825333802569
 30
0.0
 10
338.3661993035237
 20
69.27659459702782
 30
0.0
 10
338.839220702162
 20
68.37351320566803
 30
0.0
 10
339.5867905929895
 20
66.82773578605772
 30
0.0
 10
340.4713290806815
 20
64.764219768044
 30
0.0
 10
341.426318371769
 20
62.09892248636376
 30
0.0
 10
342.0455833987579
 20
59.55838730527103
 30
0.0
 10
342.2948923090446
 20
57.57633129833901
 30
0.0
 10
342.3389171204615
 20
56.73512603753974
 30
0.0
 10
342.3454886345319
 20
56.38652033477797
 30
0.0
  0
SPLINE
  5
C8
330
7B
100
AcDbEntity
  8
0
  6
Continuous
 62
     0
370
    30
100
AcDbSpline
210
0.0
220
0.0
230
1.0
 70
     8
 71
     3
 72
    23
 73
    19
 74
     0
 42
0.000000001
 43
0.0
 40
0.0
 40
0.0
 40
0.0
 40
0.0
 40
1.70455623739367
 40
3.579658051552968
 40
6.139165784766744
 40
9.965728090486536
 40
12.90407174041838
 40
15.42217914745973
 40
17.44739334081415
 40
20.2170294889947
 40
22.98605051977639
 40
25.72016372375894
 40
28.07563370240979
 40
30.24335831929161
 40
32.86682103739538
 40
34.42332572677945
 40
36.33023784719621
 40
38.35470202327073
 40
38.35470202327073
 40
38.35470202327073
 40
38.35470202327073
 10
338.1871836061956
 20
69.60839043088862
 30
0.0
 10
337.9269828242778
 20
70.09237288879606
 30
0.0
 10
337.4021815788637
 20
71.13069140264273
 30
0.0
 10
336.5892953039261
 20
72.97861355395854
 30
0.0
 10
335.6333748768095
 20
75.55336511750038
 30
0.0
 10
334.7733529042167
 20
78.55093099186806
 30
0.0
 10
334.1398606823678
 20
81.54420249306102
 30
0.0
 10
333.7719317780014
 20
83.91563844744832
 30
0.0
 10
333.5278656507981
 20
86.1671725584323
 30
0.0
 10
333.4014595653671
 20
88.39486665777582
 30
0.0
 10
333.4233611998498
 20
90.65927817443912
 30
0.0
 10
333.5980006468002
 20
92.61674896243466
 30
0.0
 10
333.8966278001371
 20
94.24380073452173
 30
0.0
 10
334.3201532892638
 20
95.68259918529148
 30
0.0
 10
334.8340822498894
 20
96.80973560254341
 30
0.0
 10
335.460905187458
 20
97.75209066223792
 30
0.0
 10
336.1369182505364
 20
98.49038577708558
 30
0.0
 10
336.711707288907
 20
98.91026067278887
 30
0.0
 10
337.0251310831719
 20
99.09120844376324
 30
0.0
  0
ARC
  5
C9
330
7B
100
AcDbEntity
  8
0
  6
Continuous
 62
     0
370
    30
100
AcDbCircle
 10
352.721754
 20
71.918398
 30
0.0
 40
12.61916327133185
100
AcDbArc
 50
284.084261
 51
299.992539
  0
SPLINE
  5
CA
330
7B
100
AcDbEntity
  8
0
  6
Continuous
 62
     0
370
    30
100
AcDbSpline
210
0.0
220
0.0
230
1.0
 70
     8
 71
     3
 72
     9
 73
     5
 74
     0
 42
0.000000001
 43
0.0
 40
0.0
 40
0.0
 40
0.0
 40
0.0
 40
1.620067801686884
 40
3.494969692590673
 40
3.494969692590673
 40
3.494969692590673
 40
3.494969692590673
 10
355.7922918029861
 20
59.67850012330712
 30
0.0
 10
355.4448103127209
 20
59.59128210029849
 30
0.0
 10
354.7399686974883
 20
59.35884086948849
 30
0.0
 10
354.1337666982127
 20
59.03888699294454
 30
0.0
 10
353.8352235123727
 20
58.84327062369937
 30
0.0
  0
SPLINE
  5
CB
330
7B
100
AcDbEntity
  8
0
  6
Continuous
 62
     0
370
    30
100
AcDbSpline
210
0.0
220
0.0
230
1.0
 70
     8
 71
     3
 72
    21
 73
    17
 74
     0
 42
0.000000001
 43
0.0
 40
0.0
 40
0.0
 40
0.0
 40
0.0
 40
0.635545813478338
 40
1.090813928561027
 40
1.757612885448407
 40
2.151742156353662
 40
2.443885222119277
 40
2.722893806110411
 40
2.90691695594785
 40
3.089575340503683
 40
3.184458173544687
 40
3.279501598652375
 40
3.472447003140777
 40
3.674405809510382
 40
3.88426909703562
 40
4.01432686020226
 40
4.01432686020226
 40
4.01432686020226
 40
4.01432686020226
 10
345.8850836144508
 20
8.94218776631432
 30
0.0
 10
346.0533397808641
 20
8.844997827644562
 30
0.0
 10
346.3510011824561
 20
8.701860783188607
 30
0.0
 10
346.8546194817719
 20
8.545235081163113
 30
0.0
 10
347.3056302224824
 20
8.485829798229418
 30
0.0
 10
347.7053320484401
 20
8.503622208285023
 30
0.0
 10
347.9851174666072
 20
8.548618628388198
 30
0.0
 10
348.1993743467773
 20
8.605284645391706
 30
0.0
 10
348.3750543966538
 20
8.666397314161983
 30
0.0
 10
348.4975906485869
 20
8.717106215288112
 30
0.0
 10
348.5948413004556
 20
8.762523703276884
 30
0.0
 10
348.6928357266777
 20
8.811992357595926
 30
0.0
 10
348.8151546838071
 20
8.880605411010762
 30
0.0
 10
348.9669201218514
 20
8.97977786549609
 30
0.0
 10
349.0982080187664
 20
9.082131430405695
 30
0.0
 10
349.1748391833581
 20
9.151110039861663
 30
0.0
 10
349.2033994694705
 20
9.178182901481392
 30
0.0
  0
SPLINE
  5
CC
330
7B
100
AcDbEntity
  8
0
  6
Continuous
 62
     0
370
    30
100
AcDbSpline
210
0.0
220
0.0
230
1.0
 70
     8
 71
     3
 72
    22
 73
    18
 74
     0
 42
0.000000001
 43
0.0
 40
0.0
 40
0.0
 40
0.0
 40
0.0
 40
0.8817061609357141
 40
1.515563336629852
 40
2.061499638760266
 40
2.618042184093583
 40
3.19644448185894
 40
3.632746972831556
 40
4.196526534635733
 40
5.015291112181421
 40
5.882733877185358
 40
6.470583418466918
 40
7.067403884741749
 40
7.969412502634069
 40
8.573183143059182
 40
9.177558419918064
 40
9.87059661506372
 40
9.87059661506372
 40
9.87059661506372
 40
9.87059661506372
 10
345.8854734213181
 20
8.941962842024964
 30
0.0
 10
345.6521851664591
 20
9.076430077292358
 30
0.0
 10
345.2674587146903
 20
9.353495152724932
 30
0.0
 10
344.7962144919655
 20
9.822126688114935
 30
0.0
 10
344.4386357662412
 20
10.2665054704741
 30
0.0
 10
344.1308930267147
 20
10.73262753681155
 30
0.0
 10
343.8745298859881
 20
11.19054079114204
 30
0.0
 10
343.6631102865302
 20
11.67190703565653
 30
0.0
 10
343.4796057720609
 20
12.24050816626372
 30
0.0
 10
343.3333686907065
 20
12.94004414561036
 30
0.0
 10
343.2517099484214
 20
13.6226963085746
 30
0.0
 10
343.2039347187772
 20
14.2184757645057
 30
0.0
 10
343.1638578322388
 20
14.8131808448035
 30
0.0
 10
343.1298447077464
 20
15.41029262484086
 30
0.0
 10
343.1030906965605
 20
16.00582179014515
 30
0.0
 10
343.0842957690053
 20
16.53887903429467
 30
0.0
 10
343.0760373407986
 20
16.90259826242207
 30
0.0
 10
343.0724494159945
 20
17.09347353678199
 30
0.0
  0
SPLINE
  5
CD
330
7B
100
AcDbEntity
  8
0
  6
Continuous
 62
     0
370
    30
100
AcDbSpline
210
0.0
220
0.0
230
1.0
 70
     8
 71
     3
 72
    11
 73
     7
 74
     0
 42
0.000000001
 43
0.0
 40
0.0
 40
0.0
 40
0.0
 40
0.0
 40
7.142661581033165
 40
20.95354251229778
 40
32.6013632978224
 40
47.55220638091468
 40
47.55220638091468
 40
47.55220638091468
 40
47.55220638091468
 10
343.0724376280076
 20
17.09412057725243
 30
0.0
 10
343.038153899643
 20
19.05972981356786
 30
0.0
 10
342.9363751693701
 20
24.82643211417437
 30
0.0
 10
342.7705847026663
 20
33.80479823661011
 30
0.0
 10
342.5602784382448
 20
44.93793753914704
 30
0.0
 10
342.4226602975725
 20
52.2670683049989
 30
0.0
 10
342.3454630418769
 20
56.38658507200583
 30
0.0
  0
SPLINE
  5
CE
330
7B
100
AcDbEntity
  8
0
  6
Continuous
 62
     0
370
    30
100
AcDbSpline
210
0.0
220
0.0
230
1.0
 70
     8
 71
     3
 72
    24
 73
    20
 74
     0
 42
0.000000001
 43
0.0
 40
0.0
 40
0.0
 40
0.0
 40
0.0
 40
0.2140838135083695
 40
0.5352248642932933
 40
1.017086423191885
 40
1.948243654698547
 40
2.573743522816545
 40
3.201159304023593
 40
3.620902901513426
 40
4.466319445253299
 40
4.89317083500999
 40
5.323611885957591
 40
5.758944308296711
 40
5.981055249431723
 40
6.178582361982958
 40
6.280872018490461
 40
6.385774740921402
 40
6.604607112402094
 40
6.825510774516548
 40
6.825510774516548
 40
6.825510774516548
 40
6.825510774516548
 10
349.2074262919347
 20
9.182176244046559
 30
0.0
 10
349.2506498804743
 20
9.223104028869557
 30
0.0
 10
349.3585366981889
 20
9.326339674699625
 30
0.0
 10
349.5594719324072
 20
9.522494443175432
 30
0.0
 10
349.9021182913876
 20
9.86766336289321
 30
0.0
 10
350.2996365448909
 20
10.29266753915284
 30
0.0
 10
350.7192740571597
 20
10.77911810802389
 30
0.0
 10
351.0322398366731
 20
11.17015959330043
 30
0.0
 10
351.3769214420223
 20
11.63110851268308
 30
0.0
 10
351.6741467848659
 20
12.06530256707887
 30
0.0
 10
351.958585630168
 20
12.52453014627937
 30
0.0
 10
352.1661631476485
 20
12.88413926548536
 30
0.0
 10
352.3330675145199
 20
13.19537154216599
 30
0.0
 10
352.4597515758109
 20
13.44508428190173
 30
0.0
 10
352.5355137633103
 20
13.60075926746082
 30
0.0
 10
352.5927106266685
 20
13.7225617281004
 30
0.0
 10
352.6518392614266
 20
13.85203353643274
 30
0.0
 10
352.7236031043387
 20
14.01553192303493
 30
0.0
 10
352.7815192927123
 20
14.1593445270578
 30
0.0
 10
352.8064403584193
 20
14.22248281899726
 30
0.0
  0
SPLINE
  5
CF
330
7B
100
AcDbEntity
  8
0
  6
Continuous
 62
     0
370
    30
100
AcDbSpline
210
0.0
220
0.0
230
1.0
 70
     8
 71
     3
 72
     8
 73
     4
 74
     0
 42
0.000000001
 43
0.0
 40
12.9241077110141
 40
12.9241077110141
 40
12.9241077110141
 40
12.9241077110141
 40
13.60922253690156
 40
13.60922253690156
 40
13.60922253690156
 40
13.60922253690156
 10
355.7563659866785
 20
59.66939035769722
 30
0.0
 10
355.6961561730724
 20
59.54409274420978
 30
0.0
 10
355.6370184794176
 20
59.41084294470374
 30
0.0
 10
355.5825807679817
 20
59.27660779700804
 30
0.0
  0
ARC
  5
D0
330
7B
100
AcDbEntity
  8
0
  6
Continuous
 62
     0
370
    30
100
AcDbCircle
 10
361.096463
 20
56.751269
 30
0.0
 40
6.048401312152622
100
AcDbArc
 50
162.339223
 51
177.58884
  0
SPLINE
  5
D1
330
7B
100
AcDbEntity
  8
0
  6
Continuous
 62
     0
370
    30
100
AcDbSpline
210
0.0
220
0.0
230
1.0
 70
     8
 71
     3
 72
     9
 73
     5
 74
     0
 42
0.000000001
 43
0.0
 40
0.0034062464020409
 40
0.0034062464020409
 40
0.0034062464020409
 40
0.0034062464020409
 40
26.05116387021006
 40
47.15293824674651
 40
47.15293824674651
 40
47.15293824674651
 40
47.15293824674651
 10
355.0533216014223
 20
57.00340197885139
 30
0.0
 10
354.7562411297052
 20
49.80646021843983
 30
0.0
 10
354.2286395768032
 20
36.7779728545032
 30
0.0
 10
353.6703673203301
 20
23.7418503882071
 30
0.0
 10
353.4064796535611
 20
17.90453113822318
 30
0.0
  0
SPLINE
  5
D2
330
7B
100
AcDbEntity
  8
0
  6
Continuous
 62
     0
370
    30
100
AcDbSpline
210
0.0
220
0.0
230
1.0
 70
     8
 71
     3
 72
    15
 73
    11
 74
     0
 42
0.000000001
 43
0.0
 40
0.053513796979844
 40
0.053513796979844
 40
0.053513796979844
 40
0.053513796979844
 40
0.553455405519654
 40
1.10973482941877
 40
1.878069829564933
 40
2.263885665233687
 40
2.648405982126551
 40
3.223076759253436
 40
3.789527362935522
 40
4.123277629655551
 40
4.123277629655551
 40
4.123277629655551
 40
4.123277629655551
 10
352.8311825443906
 20
14.28670920719158
 30
0.0
 10
352.8900021092806
 20
14.44106279748379
 30
0.0
 10
353.0028243046264
 20
14.76784369487401
 30
0.0
 10
353.1515777742469
 20
15.32424664202017
 30
0.0
 10
353.2463039818736
 20
15.84055282888222
 30
0.0
 10
353.3041643512565
 20
16.30112177527272
 30
0.0
 10
353.3416745201562
 20
16.69841795773453
 30
0.0
 10
353.3706721699042
 20
17.14376501329463
 30
0.0
 10
353.390948653351
 20
17.56108263464104
 30
0.0
 10
353.4021821158477
 20
17.81217600734142
 30
0.0
 10
353.4064410015661
 20
17.90412628501608
 30
0.0
  0
ENDBLK
  5
D4
330
7B
100
AcDbEntity
  8
0
100
AcDbBlockEnd
  0
BLOCK
  5
F8
330
D6
100
AcDbEntity
  8
0
100
AcDbBlockBegin
  2
a
 70
     0
 10
92.647194
 20
86.131638
 30
0.0
  3
a
  1

  0
ARC
  5
D7
330
D6
100
AcDbEntity
  8
0
  6
Continuous
 62
     0
370
     0
100
AcDbCircle
 10
191.427307
 20
373.076134
 30
0.0
 40
10.64999998807905
100
AcDbArc
 50
22.44828
 51
202.44828
  0
ARC
  5
D8
330
D6
100
AcDbEntity
  8
0
  6
Continuous
 62
     0
370
     0
100
AcDbCircle
 10
191.427307
 20
373.076134
 30
0.0
 40
10.64999998807905
100
AcDbArc
 50
202.44828
 51
22.44828
  0
ARC
  5
D9
330
D6
100
AcDbEntity
  8
0
  6
Continuous
 62
     0
370
    30
100
AcDbCircle
 10
191.427307
 20
373.076134
 30
0.0
 40
10.94999999999999
100
AcDbArc
 50
22.44828
 51
202.44828
  0
ARC
  5
DA
330
D6
100
AcDbEntity
  8
0
  6
Continuous
 62
     0
370
    30
100
AcDbCircle
 10
191.427307
 20
373.076134
 30
0.0
 40
10.94999999999999
100
AcDbArc
 50
202.44828
 51
22.44828
  0
ARC
  5
DB
330
D6
100
AcDbEntity
  8
0
  6
Continuous
 62
     0
370
    30
100
AcDbCircle
 10
191.427307
 20
373.076135
 30
0.0
 40
10.99999999999999
100
AcDbArc
 50
90.0
 51
270.0
  0
ARC
  5
DC
330
D6
100
AcDbEntity
  8
0
  6
Continuous
 62
     0
370
    30
100
AcDbCircle
 10
191.427307
 20
373.076135
 30
0.0
 40
10.99999999999999
100
AcDbArc
 50
270.0
 51
90.0
  0
ARC
  5
DD
330
D6
100
AcDbEntity
  8
0
  6
Continuous
 62
     0
370
    30
100
AcDbCircle
 10
191.427307
 20
340.076035
 30
0.0
 40
69.49989970932009
100
AcDbArc
 50
274.103893
 51
90.0
  0
ARC
  5
DE
330
D6
100
AcDbEntity
  8
0
  6
Continuous
 62
     0
370
    30
100
AcDbCircle
 10
191.427307
 20
340.076035
 30
0.0
 40
69.49989970932009
100
AcDbArc
 50
90.0
 51
265.813229
  0
ARC
  5
DF
330
D6
100
AcDbEntity
  8
0
  6
Continuous
 62
     0
370
    30
100
AcDbCircle
 10
191.427307
 20
340.076035
 30
0.0
 40
69.99989970932006
100
AcDbArc
 50
274.064886
 51
90.0
  0
ARC
  5
E0
330
D6
100
AcDbEntity
  8
0
  6
Continuous
 62
     0
370
    30
100
AcDbCircle
 10
191.427307
 20
340.076035
 30
0.0
 40
69.99989970932006
100
AcDbArc
 50
90.0
 51
265.852833
  0
ARC
  5
E1
330
D6
100
AcDbEntity
  8
0
  6
Continuous
 62
     0
370
    30
100
AcDbCircle
 10
191.427307
 20
325.076135
 30
0.0
 40
22.2
100
AcDbArc
 50
298.116792
 51
90.000503
  0
ARC
  5
E2
330
D6
100
AcDbEntity
  8
0
  6
Continuous
 62
     0
370
    30
100
AcDbCircle
 10
191.427307
 20
325.076135
 30
0.0
 40
22.2
100
AcDbArc
 50
90.000503
 51
241.09528
  0
SPLINE
  5
E3
330
D6
100
AcDbEntity
  8
0
  6
Continuous
 62
     0
370
     0
100
AcDbSpline
210
0.0
220
0.0
230
1.0
 70
     8
 71
     3
 72
    18
 73
    14
 74
     0
 42
0.000000001
 43
0.0
 40
0.0
 40
0.0
 40
0.0
 40
0.0
 40
1.785301210585795
 40
2.669713658688727
 40
3.544791626131593
 40
4.395230002139404
 40
5.153606341993546
 40
5.76876986313969
 40
6.250149103393017
 40
6.672513495201361
 40
7.06533283583037
 40
7.78215390267276
 40
8.459215863564634
 40
8.459215863564634
 40
8.459215863564634
 40
8.459215863564634
 10
188.2985902451485
 20
247.4638436359222
 30
0.0
 10
188.3129555405303
 20
246.8689171460352
 30
0.0
 10
188.3503799305462
 20
245.9795051775404
 30
0.0
 10
188.4362227171496
 20
244.8009840885849
 30
0.0
 10
188.5110998791844
 20
243.9342630394003
 30
0.0
 10
188.6159749344142
 20
243.112237439542
 30
0.0
 10
188.7886450457949
 20
242.3891978125509
 30
0.0
 10
189.0440872523849
 20
241.8188920223571
 30
0.0
 10
189.3710822976233
 20
241.4263740339464
 30
0.0
 10
189.7026544653172
 20
241.1479754506837
 30
0.0
 10
190.124472041135
 20
240.8583469172999
 30
0.0
 10
190.6857124957945
 20
240.6347339540213
 30
0.0
 10
191.1520205119712
 20
240.5796319834301
 30
0.0
 10
191.3777053910024
 20
240.5785839603331
 30
0.0
  0
SPLINE
  5
E4
330
D6
100
AcDbEntity
  8
0
  6
Continuous
 62
     0
370
     0
100
AcDbSpline
210
0.0
220
0.0
230
1.0
 70
     8
 71
     3
 72
    18
 73
    14
 74
     0
 42
0.000000001
 43
0.0
 40
0.0
 40
0.0
 40
0.0
 40
0.0
 40
0.6770372965134648
 40
1.393847088312089
 40
1.786669397060051
 40
2.209049071396433
 40
2.690457331473354
 40
3.305641855231371
 40
4.064000159642917
 40
4.914388930957124
 40
5.789419118207619
 40
6.673785693074803
 40
8.459005372701752
 40
8.459005372701752
 40
8.459005372701752
 40
8.459005372701752
 10
191.3777053910024
 20
240.5785839603331
 30
0.0
 10
191.603381998967
 20
240.579642592893
 30
0.0
 10
192.0696744142075
 20
240.6347670933999
 30
0.0
 10
192.6308833261508
 20
240.8584185516289
 30
0.0
 10
193.0526725329521
 20
241.1480843283959
 30
0.0
 10
193.3842194959238
 20
241.4265317319047
 30
0.0
 10
193.7111737220626
 20
241.8191056684136
 30
0.0
 10
193.966575620578
 20
242.3894347143804
 30
0.0
 10
194.1392371420586
 20
243.1124577107365
 30
0.0
 10
194.2441233528568
 20
243.9344426428883
 30
0.0
 10
194.3190173319676
 20
244.8011141347777
 30
0.0
 10
194.4048791156622
 20
245.9795751420208
 30
0.0
 10
194.4423087991811
 20
246.8689445946376
 30
0.0
 10
194.4566730458733
 20
247.4638439151508
 30
0.0
  0
SPLINE
  5
E5
330
D6
100
AcDbEntity
  8
0
  6
Continuous
 62
     0
370
     0
100
AcDbSpline
210
0.0
220
0.0
230
1.0
 70
     8
 71
     3
 72
     8
 73
     4
 74
     0
 42
0.000000001
 43
0.0
 40
0.0
 40
0.0
 40
0.0
 40
0.0
 40
47.55430553066725
 40
47.55430553066725
 40
47.55430553066725
 40
47.55430553066725
 10
194.4566730458733
 20
247.4638439151508
 30
0.0
 10
194.8055828216237
 20
263.3114272689659
 30
0.0
 10
195.2024853912609
 20
279.1579124600602
 30
0.0
 10
195.5852279484258
 20
295.004700497839
 30
0.0
  0
SPLINE
  5
E6
330
D6
100
AcDbEntity
  8
0
  6
Continuous
 62
     0
370
     0
100
AcDbSpline
210
0.0
220
0.0
230
1.0
 70
     8
 71
     3
 72
    14
 73
    10
 74
     0
 42
0.000000001
 43
0.0
 40
0.0
 40
0.0
 40
0.0
 40
0.0
 40
3.351074094330854
 40
6.122432219086837
 40
8.43879038255608
 40
10.45632617913405
 40
12.27572296654524
 40
13.95495729661453
 40
15.53190000898418
 40
15.53190000898418
 40
15.53190000898418
 40
15.53190000898418
 10
195.5851895975766
 20
295.0047014289507
 30
0.0
 10
195.6108271018397
 20
296.1214302418334
 30
0.0
 10
195.8870679587619
 20
298.1637350383052
 30
0.0
 10
196.8058092231344
 20
300.8351915712883
 30
0.0
 10
197.9236600285904
 20
302.9298236040216
 30
0.0
 10
199.1276829688001
 20
304.5899814768482
 30
0.0
 10
200.3699697561771
 20
305.9378428287338
 30
0.0
 10
201.6348518705814
 20
307.0436957839236
 30
0.0
 10
202.5093816370235
 20
307.6657652848704
 30
0.0
 10
202.9451640187835
 20
307.9445115107063
 30
0.0
  0
SPLINE
  5
E7
330
D6
100
AcDbEntity
  8
0
  6
Continuous
 62
     0
370
     0
100
AcDbSpline
210
0.0
220
0.0
230
1.0
 70
     8
 71
     3
 72
    31
 73
    27
 74
     0
 42
0.000000001
 43
0.0
 40
0.0
 40
0.0
 40
0.0
 40
0.0
 40
6.56131549463748
 40
10.56837088364783
 40
15.6261432361097
 40
18.80297789239336
 40
22.27253870460704
 40
28.1824417941173
 40
30.54140454465704
 40
32.64834952045916
 40
36.34887581274038
 40
42.6221346360555
 40
48.17892770478821
 40
53.44913729782306
 40
58.71924236209077
 40
64.27595803767218
 40
70.54880114304356
 40
74.24899760938668
 40
76.35579970617844
 40
78.71454413890467
 40
84.62396407396875
 40
88.09336299265861
 40
91.27077869534006
 40
96.32947538724909
 40
100.3370074805238
 40
106.8985736757575
 40
106.8985736757575
 40
106.8985736757575
 40
106.8985736757575
 10
202.9451639104667
 20
307.9445116878205
 30
0.0
 10
204.7583879055937
 20
309.1042677648188
 30
0.0
 10
207.3981389999724
 20
311.4368408973529
 30
0.0
 10
210.2785074892342
 20
315.7029432655064
 30
0.0
 10
211.7718055124492
 20
319.516895915918
 30
0.0
 10
212.428673309069
 20
323.3717642342222
 30
0.0
 10
212.4423351149111
 20
327.577895004355
 30
0.0
 10
211.5352282631198
 20
331.446111735554
 30
0.0
 10
210.0830097813042
 20
334.5492379529458
 30
0.0
 10
208.6979352139169
 20
336.8529536984394
 30
0.0
 10
206.1850691293083
 20
339.9300536187567
 30
0.0
 10
202.081237197427
 20
343.0523208729505
 30
0.0
 10
196.7593731493932
 20
345.1317719818284
 30
0.0
 10
191.3792370988483
 20
345.7968793610289
 30
0.0
 10
185.9988476092542
 20
345.1326288756706
 30
0.0
 10
180.6765672650962
 20
343.0534662258247
 30
0.0
 10
176.5721117538692
 20
339.9317791030015
 30
0.0
 10
174.0588392321734
 20
336.8550880850382
 30
0.0
 10
172.6734715262331
 20
334.5516952297117
 30
0.0
 10
171.2209680297417
 20
331.4489002789734
 30
0.0
 10
170.313478879364
 20
327.5811182728185
 30
0.0
 10
170.3262055924921
 20
323.3750122891818
 30
0.0
 10
170.9826569964821
 20
319.5195742366907
 30
0.0
 10
172.4757531733056
 20
315.7047052359688
 30
0.0
 10
175.3562720026681
 20
311.4377033418584
 30
0.0
 10
177.9963686339125
 20
309.1047138086869
 30
0.0
 10
179.809793456098
 20
307.944795119321
 30
0.0
  0
SPLINE
  5
E8
330
D6
100
AcDbEntity
  8
0
  6
Continuous
 62
     0
370
     0
100
AcDbSpline
210
0.0
220
0.0
230
1.0
 70
     8
 71
     3
 72
    14
 73
    10
 74
     0
 42
0.000000001
 43
0.0
 40
0.0
 40
0.0
 40
0.0
 40
0.0
 40
1.576988025420239
 40
3.256289132435781
 40
5.075283189511372
 40
7.093057195190395
 40
9.409417996480371
 40
12.18082556357823
 40
15.53182913021579
 40
15.53182913021579
 40
15.53182913021579
 40
15.53182913021579
 10
179.8097933504834
 20
307.9447949466697
 30
0.0
 10
180.2456275701076
 20
307.6660248694982
 30
0.0
 10
181.1202103700357
 20
307.0438023846868
 30
0.0
 10
182.3848578255434
 20
305.9377337307611
 30
0.0
 10
183.6279661571394
 20
304.5905741168184
 30
0.0
 10
184.8314150188253
 20
302.9299515059687
 30
0.0
 10
185.9495656572879
 20
300.8353861842681
 30
0.0
 10
186.8681264871627
 20
298.163826112201
 30
0.0
 10
187.1444114792088
 20
296.121555971582
 30
0.0
 10
187.1700552602227
 20
295.0048507960078
 30
0.0
  0
SPLINE
  5
E9
330
D6
100
AcDbEntity
  8
0
  6
Continuous
 62
     0
370
     0
100
AcDbSpline
210
0.0
220
0.0
230
1.0
 70
     8
 71
     3
 72
     8
 73
     4
 74
     0
 42
0.000000001
 43
0.0
 40
0.0
 40
0.0
 40
0.0
 40
0.0
 40
47.5544546717761
 40
47.5544546717761
 40
47.5544546717761
 40
47.5544546717761
 10
187.1700165914836
 20
295.0048498572435
 30
0.0
 10
187.5527644008222
 20
279.1580118565383
 30
0.0
 10
187.9496718895513
 20
263.3114767439822
 30
0.0
 10
188.2985902451485
 20
247.4638436359221
 30
0.0
  0
ARC
  5
EA
330
D6
100
AcDbEntity
  8
0
  6
Continuous
 62
     0
370
     0
100
AcDbCircle
 10
192.849474
 20
16.675517
 30
0.0
 40
230.833190996779
100
AcDbArc
 50
91.129661
 51
91.480243
  0
ARC
  5
EB
330
D6
100
AcDbEntity
  8
0
  6
Continuous
 62
     0
370
     0
100
AcDbCircle
 10
190.43918
 20
139.933569
 30
0.0
 40
155.105736808018
100
AcDbArc
 50
91.207705
 51
91.719111
  0
SPLINE
  5
EC
330
D6
100
AcDbEntity
  8
0
  6
Continuous
 62
     0
370
     0
100
AcDbSpline
210
0.0
220
0.0
230
1.0
 70
     8
 71
     3
 72
    11
 73
     7
 74
     0
 42
0.000000001
 43
0.0
 40
0.0
 40
0.0
 40
0.0
 40
0.0
 40
0.618995895606267
 40
1.237998412407487
 40
1.857007550403663
 40
2.47602330959479
 40
2.47602330959479
 40
2.47602330959479
 40
2.47602330959479
 10
191.3773036832378
 20
239.0863827354351
 30
0.0
 10
191.3773586709842
 20
239.0652427628919
 30
0.0
 10
191.3774700296421
 20
239.110654681632
 30
0.0
 10
191.3776073772254
 20
239.4325020339755
 30
0.0
 10
191.3776927504475
 20
239.9506972531042
 30
0.0
 10
191.3777048698059
 20
240.3710028426312
 30
0.0
 10
191.3776993135865
 20
240.5785839890044
 30
0.0
  0
LINE
  5
ED
330
D6
100
AcDbEntity
  8
0
  6
Continuous
 62
     0
370
     0
100
AcDbLine
 10
194.456673
 20
247.463844
 30
0.0
 11
195.86793
 21
247.431677
 31
0.0
  0
ARC
  5
EE
330
D6
100
AcDbEntity
  8
0
  6
Continuous
 62
     0
370
     0
100
AcDbCircle
 10
192.345906
 20
141.210438
 30
0.0
 40
153.8283729767249
100
AcDbArc
 50
88.278027
 51
88.793383
  0
SPLINE
  5
EF
330
D6
100
AcDbEntity
  8
0
  6
Continuous
 62
     0
370
     0
100
AcDbSpline
210
0.0
220
0.0
230
1.0
 70
     8
 71
     3
 72
    11
 73
     7
 74
     0
 42
0.000000001
 43
0.0
 40
0.0
 40
0.0
 40
0.0
 40
0.0
 40
0.5714883867551164
 40
1.142975828572379
 40
1.714462325451787
 40
2.285947877393339
 40
2.285947877393339
 40
2.285947877393339
 40
2.285947877393339
 10
202.9450609144687
 20
307.9445109122839
 30
0.0
 10
203.040681234755
 20
307.7922531752601
 30
0.0
 10
203.2197174775937
 20
307.4848721710247
 30
0.0
 10
203.4097341496543
 20
307.0862394243292
 30
0.0
 10
203.4982603433647
 20
306.7994835016766
 30
0.0
 10
203.481226343365
 20
306.7082377898572
 30
0.0
 10
203.4545927861586
 20
306.6907451173341
 30
0.0
  0
SPLINE
  5
F0
330
D6
100
AcDbEntity
  8
0
  6
Continuous
 62
     0
370
     0
100
AcDbSpline
210
0.0
220
0.0
230
1.0
 70
     8
 71
     3
 72
    11
 73
     7
 74
     0
 42
0.000000001
 43
0.0
 40
0.0000000000256795
 40
0.0000000000256795
 40
0.0000000000256795
 40
0.0000000000256795
 40
0.5190360511316039
 40
1.038071195164162
 40
1.557105432097672
 40
2.076138769741436
 40
2.076138769741436
 40
2.076138769741436
 40
2.076138769741436
 10
179.8098960074191
 20
307.944795727064
 30
0.0
 10
179.7142353247582
 20
307.7925164524331
 30
0.0
 10
179.5350879862645
 20
307.4850908956754
 30
0.0
 10
179.3448539718749
 20
307.0864240896435
 30
0.0
 10
179.2560965702539
 20
306.7996896515526
 30
0.0
 10
179.2729899395234
 20
306.708503640143
 30
0.0
 10
179.2995615399376
 20
306.6910509392475
 30
0.0
  0
ARC
  5
F1
330
D6
100
AcDbEntity
  8
0
  6
Continuous
 62
     0
370
    30
100
AcDbCircle
 10
191.37731
 20
325.07927
 30
0.0
 40
21.99996798025327
100
AcDbArc
 50
303.296257
 51
236.702296
  0
SPLINE
  5
F2
330
D6
100
AcDbEntity
  8
0
  6
Continuous
 62
     0
370
    30
100
AcDbSpline
210
0.0
220
0.0
230
1.0
 70
     8
 71
     3
 72
    14
 73
    10
 74
     0
 42
0.000000001
 43
0.0
 40
0.0
 40
0.0
 40
0.0
 40
0.0
 40
1.08458136191994
 40
3.119042330972868
 40
4.817021354057505
 40
7.164285608179965
 40
11.02720387602506
 40
12.7334938281533
 40
13.98190580458594
 40
13.98190580458594
 40
13.98190580458594
 40
13.98190580458594
 10
179.2995536227153
 20
306.691055900348
 30
0.0
 10
179.5959376117555
 20
306.4962910231374
 30
0.0
 10
180.4291407002953
 20
305.9016899951725
 30
0.0
 10
181.6172977763484
 20
304.8402428444841
 30
0.0
 10
182.937880166594
 20
303.3134112536162
 30
0.0
 10
184.3730368978469
 20
301.0997275617027
 30
0.0
 10
185.3189499500906
 20
298.6125691680757
 30
0.0
 10
185.7051918616676
 20
296.3692874874978
 30
0.0
 10
185.7717374487466
 20
295.3854902405754
 30
0.0
 10
185.7815897680654
 20
294.9696004117423
 30
0.0
  0
SPLINE
  5
F3
330
D6
100
AcDbEntity
  8
0
  6
Continuous
 62
     0
370
    30
100
AcDbSpline
210
0.0
220
0.0
230
1.0
 70
     8
 71
     3
 72
    14
 73
    10
 74
     0
 42
0.000000001
 43
0.0
 40
0.0
 40
0.0
 40
0.0
 40
0.0
 40
1.084525543169793
 40
3.118962404383596
 40
5.029924991860261
 40
7.164240926822976
 40
11.02722084570864
 40
12.7335460745357
 40
13.98203190887261
 40
13.98203190887261
 40
13.98203190887261
 40
13.98203190887261
 10
203.454601499293
 20
306.6907508414639
 30
0.0
 10
203.1582566076965
 20
306.4960223250214
 30
0.0
 10
202.3251382381693
 20
305.9015046687354
 30
0.0
 10
201.0845172564358
 20
304.7932446519215
 30
0.0
 10
199.774286439629
 20
303.2557547514241
 30
0.0
 10
198.3559773477317
 20
301.0328193490151
 30
0.0
 10
197.4355169404061
 20
298.6125324489377
 30
0.0
 10
197.0492646146149
 20
296.3691995142269
 30
0.0
 10
196.9827164237058
 20
295.3853657906406
 30
0.0
 10
196.9728635647168
 20
294.969451382229
 30
0.0
  0
SPLINE
  5
F4
330
D6
100
AcDbEntity
  8
0
  6
Continuous
 62
     0
370
    30
100
AcDbSpline
210
0.0
220
0.0
230
1.0
 70
     8
 71
     3
 72
    10
 73
     6
 74
     0
 42
0.000000001
 43
0.0
 40
0.0
 40
0.0
 40
0.0
 40
0.0
 40
20.9529113272941
 40
35.51157148236566
 40
47.55049531625166
 40
47.55049531625166
 40
47.55049531625166
 40
47.55049531625166
 10
196.9729007738521
 20
294.9694405365827
 30
0.0
 10
196.8079011369245
 20
287.9870964837743
 30
0.0
 10
196.5267108738425
 20
276.1532633678502
 30
0.0
 10
196.1567543809979
 20
260.3074313686459
 30
0.0
 10
195.9607270967754
 20
251.4437424570422
 30
0.0
 10
195.874294920076
 20
247.4317018160713
 30
0.0
  0
SPLINE
  5
F5
330
D6
100
AcDbEntity
  8
0
  6
Continuous
 62
     0
370
    30
100
AcDbSpline
210
0.0
220
0.0
230
1.0
 70
     8
 71
     3
 72
    21
 73
    17
 74
     0
 42
0.000000001
 43
0.0
 40
0.0
 40
0.0
 40
0.0
 40
0.0
 40
0.9794182839534424
 40
1.903342028444734
 40
2.652158856821093
 40
3.123083538599133
 40
3.616371707950963
 40
4.129216505305111
 40
4.826374016417404
 40
5.563706502653792
 40
6.372549900708425
 40
7.150773043599616
 40
7.75889533978542
 40
8.367358805108218
 40
9.587260672310087
 40
10.73236556206385
 40
10.73236556206385
 40
10.73236556206385
 40
10.73236556206385
 10
191.3773561757877
 20
239.0787163869591
 30
0.0
 10
191.7030765850806
 20
239.0785157879682
 30
0.0
 10
192.3389992201804
 20
239.1529146572606
 30
0.0
 10
193.1732065939385
 20
239.4617680525315
 30
0.0
 10
193.7812720250898
 20
239.8425119329715
 30
0.0
 10
194.2195560879546
 20
240.2093579231491
 30
0.0
 10
194.5666566979548
 20
240.5596322584827
 30
0.0
 10
194.9076763652715
 20
241.0157423921891
 30
0.0
 10
195.2010826037296
 20
241.5976789256288
 30
0.0
 10
195.4299085179437
 20
242.3113964593144
 30
0.0
 10
195.5754960526849
 20
243.0733990112922
 30
0.0
 10
195.6587564240037
 20
243.8005708869652
 30
0.0
 10
195.7172175409539
 20
244.4629293607638
 30
0.0
 10
195.7800630541864
 20
245.2726679194892
 30
0.0
 10
195.8392557223646
 20
246.2621441414345
 30
0.0
 10
195.865431397469
 20
247.0501117540258
 30
0.0
 10
195.8742948737966
 20
247.4317018125215
 30
0.0
  0
SPLINE
  5
F6
330
D6
100
AcDbEntity
  8
0
  6
Continuous
 62
     0
370
    30
100
AcDbSpline
210
0.0
220
0.0
230
1.0
 70
     8
 71
     3
 72
    21
 73
    17
 74
     0
 42
0.000000001
 43
0.0
 40
0.0
 40
0.0
 40
0.0
 40
0.0
 40
0.9794387786011591
 40
1.903385252096707
 40
2.652252435318835
 40
3.123215917737972
 40
3.616559787282802
 40
4.129465613202838
 40
4.826549700814823
 40
5.563853831163576
 40
6.372725892221754
 40
7.150970305620926
 40
7.759109583746329
 40
8.36759072684495
 40
9.587526844676365
 40
10.73265904771673
 40
10.73265904771673
 40
10.73265904771673
 40
10.73265904771673
 10
191.3773436646476
 20
239.0787163867804
 30
0.0
 10
191.0516163983621
 20
239.0784984274446
 30
0.0
 10
190.4156749116796
 20
239.1528660041232
 30
0.0
 10
189.5814168437167
 20
239.4616782585375
 30
0.0
 10
188.9732894828223
 20
239.8423986798097
 30
0.0
 10
188.534938557733
 20
240.2092439099958
 30
0.0
 10
188.1877754854112
 20
240.5595326165216
 30
0.0
 10
187.8467318161599
 20
241.0156456006455
 30
0.0
 10
187.5533217105853
 20
241.5975660859785
 30
0.0
 10
187.3244966179937
 20
242.3112597044787
 30
0.0
 10
187.1789177373859
 20
243.073272155982
 30
0.0
 10
187.0956734171007
 20
243.800468553318
 30
0.0
 10
187.037225544353
 20
244.4628470590268
 30
0.0
 10
186.9743946647471
 20
245.2726099075038
 30
0.0
 10
186.9152152334227
 20
246.2621134129526
 30
0.0
 10
186.8890426049385
 20
247.0501016250258
 30
0.0
 10
186.8801790469976
 20
247.4317008016488
 30
0.0
  0
SPLINE
  5
F7
330
D6
100
AcDbEntity
  8
0
  6
Continuous
 62
     0
370
    30
100
AcDbSpline
210
0.0
220
0.0
230
1.0
 70
     8
 71
     3
 72
    10
 73
     6
 74
     0
 42
0.000000001
 43
0.0
 40
0.0
 40
0.0
 40
0.0
 40
0.0
 40
20.95179841091876
 40
32.59892544996863
 40
47.55064484094351
 40
47.55064484094351
 40
47.55064484094351
 40
47.55064484094351
 10
186.8801790006382
 20
247.4317008050265
 30
0.0
 10
186.7297543149324
 20
254.4140076190755
 30
0.0
 10
186.4835829428516
 20
265.2775229319424
 30
0.0
 10
186.1090083922696
 20
281.1232925240567
 30
0.0
 10
185.8992952703114
 20
289.9870813424923
 30
0.0
 10
185.781552249794
 20
294.969589453536
 30
0.0
  0
ENDBLK
  5
F9
330
D6
100
AcDbEntity
  8
0
100
AcDbBlockEnd
  0
BLOCK
  5
150
330
FB
100
AcDbEntity
  8
0
100
AcDbBlockBegin
  2
c
 70
     0
 10
192.908028
 20
86.131638
 30
0.0
  3
c
  1

  0
LINE
  5
FC
330
FB
100
AcDbEntity
  8
0
  6
Continuous
 62
     0
370
    30
100
AcDbLine
 10
347.658458
 20
369.009438
 30
0.0
 11
347.658458
 21
383.726134
 31
0.0
  0
LINE
  5
FD
330
FB
100
AcDbEntity
  8
0
  6
Continuous
 62
     0
370
    30
100
AcDbLine
 10
347.658458
 20
362.426134
 30
0.0
 11
347.658458
 21
369.009438
 31
0.0
  0
LINE
  5
FE
330
FB
100
AcDbEntity
  8
0
  6
Continuous
 62
     0
370
     0
100
AcDbLine
 10
347.358458
 20
368.894884
 30
0.0
 11
347.358458
 21
384.026129
 31
0.0
  0
LINE
  5
FF
330
FB
100
AcDbEntity
  8
0
  6
Continuous
 62
     0
370
     0
100
AcDbLine
 10
347.358458
 20
362.126138
 30
0.0
 11
347.358458
 21
368.894884
 31
0.0
  0
LINE
  5
100
330
FB
100
AcDbEntity
  8
0
  6
Continuous
 62
     0
370
     0
100
AcDbLine
 10
327.958458
 20
369.677675
 30
0.0
 11
327.958458
 21
364.176137
 31
0.0
  0
SPLINE
  5
101
330
FB
100
AcDbEntity
  8
0
  6
Continuous
 62
     0
370
     0
100
AcDbSpline
210
0.0
220
0.0
230
1.0
 70
     8
 71
     3
 72
    17
 73
    13
 74
     0
 42
0.000000001
 43
0.0
 40
37.86951889070549
 40
37.86951889070549
 40
37.86951889070549
 40
37.86951889070549
 40
39.59086065454431
 40
41.3122024221332
 40
43.03354418972209
 40
44.75488595731098
 40
46.47622772489986
 40
48.19756949248874
 40
49.91891126007762
 40
51.6402530276665
 40
53.36159479525539
 40
55.08293657284428
 40
55.08293657284428
 40
55.08293657284428
 40
55.08293657284428
 10
327.9584577563398
 20
381.976130000546
 30
0.0
 10
327.9584577818017
 20
381.9766558107186
 30
0.0
 10
327.9584578327298
 20
381.8629652342166
 30
0.0
 10
327.9584579062
 20
381.3547562958081
 30
0.0
 10
327.9584579739245
 20
380.5284047664979
 30
0.0
 10
327.958458033301
 20
379.4156657560099
 30
0.0
 10
327.9584580820474
 20
378.0593053672955
 30
0.0
 10
327.9584581182905
 20
376.5114322186919
 30
0.0
 10
327.9584581406382
 20
374.8315882434151
 30
0.0
 10
327.958458148228
 20
373.0841123094235
 30
0.0
 10
327.9584581407828
 20
371.3369672730852
 30
0.0
 10
327.9584581259504
 20
370.2151745415623
 30
0.0
 10
327.9584581162434
 20
369.6776747506535
 30
0.0
  0
LINE
  5
102
330
FB
100
AcDbEntity
  8
0
  6
Continuous
 62
     0
370
     0
100
AcDbLine
 10
340.255851
 20
368.894884
 30
0.0
 11
340.255851
 21
362.126134
 31
0.0
  0
LINE
  5
103
330
FB
100
AcDbEntity
  8
0
  6
Continuous
 62
     0
370
     0
100
AcDbLine
 10
340.255851
 20
384.026134
 30
0.0
 11
340.255851
 21
368.894884
 31
0.0
  0
LINE
  5
104
330
FB
100
AcDbEntity
  8
0
  6
Continuous
 62
     0
370
     0
100
AcDbLine
 10
339.955863
 20
369.008439
 30
0.0
 11
339.955863
 21
362.423579
 31
0.0
  0
SPLINE
  5
105
330
FB
100
AcDbEntity
  8
0
  6
Continuous
 62
     0
370
     0
100
AcDbSpline
210
0.0
220
0.0
230
1.0
 70
     8
 71
     3
 72
    16
 73
    12
 74
     0
 42
0.000000001
 43
0.0
 40
12.52349881368185
 40
12.52349881368185
 40
12.52349881368185
 40
12.52349881368185
 40
14.31257385620632
 40
16.69800110019476
 40
19.08342838752072
 40
21.46885384326959
 40
23.85428010447857
 40
26.23969457895968
 40
28.62516467701306
 40
31.01046892436202
 40
33.39599683648494
 40
33.39599683648494
 40
33.39599683648494
 40
33.39599683648494
 10
339.9558625563416
 20
383.7286889789977
 30
0.0
 10
339.9558625625932
 20
383.7291781177076
 30
0.0
 10
339.9558625878485
 20
383.6130390107473
 30
0.0
 10
339.955862803024
 20
383.0045357529313
 30
0.0
 10
339.9558627706987
 20
381.8428090454144
 30
0.0
 10
339.9558629090709
 20
380.2415107672887
 30
0.0
 10
339.9558630433594
 20
378.2808887142829
 30
0.0
 10
339.9558628673779
 20
376.0593582992233
 30
0.0
 10
339.9558634417193
 20
373.6879762095274
 30
0.0
 10
339.9558633900596
 20
371.286992455775
 30
0.0
 10
339.9558629645552
 20
369.743359994346
 30
0.0
 10
339.9558629512828
 20
369.0084388040882
 30
0.0
  0
LINE
  5
106
330
FB
100
AcDbEntity
  8
0
  6
Continuous
 62
     0
370
     0
100
AcDbLine
 10
339.949219
 20
369.299158
 30
0.0
 11
339.949218
 21
382.967407
 31
0.0
  0
LINE
  5
107
330
FB
100
AcDbEntity
  8
0
  6
Continuous
 62
     0
370
     0
100
AcDbLine
 10
339.949218
 20
363.18486
 30
0.0
 11
339.949219
 21
369.299158
 31
0.0
  0
LINE
  5
108
330
FB
100
AcDbEntity
  8
0
  6
Continuous
 62
     0
370
     0
100
AcDbLine
 10
338.949256
 20
369.677675
 30
0.0
 11
338.949256
 21
381.976134
 31
0.0
  0
LINE
  5
109
330
FB
100
AcDbEntity
  8
0
  6
Continuous
 62
     0
370
     0
100
AcDbLine
 10
338.949256
 20
364.176134
 30
0.0
 11
338.949256
 21
369.677675
 31
0.0
  0
LINE
  5
10A
330
FB
100
AcDbEntity
  8
0
  6
Continuous
 62
     0
370
    30
100
AcDbLine
 10
327.784514
 20
383.076135
 30
0.0
 11
327.784514
 21
363.076135
 31
0.0
  0
LINE
  5
10B
330
FB
100
AcDbEntity
  8
0
  6
Continuous
 62
     0
370
    30
100
AcDbLine
 10
327.784514
 20
383.076135
 30
0.0
 11
326.784514
 21
384.076135
 31
0.0
  0
LINE
  5
10C
330
FB
100
AcDbEntity
  8
0
  6
Continuous
 62
     0
370
    30
100
AcDbLine
 10
326.784514
 20
384.076135
 30
0.0
 11
326.784514
 21
362.076135
 31
0.0
  0
LINE
  5
10D
330
FB
100
AcDbEntity
  8
0
  6
Continuous
 62
     0
370
    30
100
AcDbLine
 10
316.684514
 20
409.575934
 30
0.0
 11
316.684514
 21
270.576135
 31
0.0
  0
LINE
  5
10E
330
FB
100
AcDbEntity
  8
0
  6
Continuous
 62
     0
370
    30
100
AcDbLine
 10
316.684514
 20
270.576135
 30
0.0
 11
316.184514
 21
270.076135
 31
0.0
  0
LINE
  5
10F
330
FB
100
AcDbEntity
  8
0
  6
Continuous
 62
     0
370
    30
100
AcDbLine
 10
316.184514
 20
410.075934
 30
0.0
 11
316.184514
 21
270.076135
 31
0.0
  0
LINE
  5
110
330
FB
100
AcDbEntity
  8
0
  6
Continuous
 62
     0
370
    30
100
AcDbLine
 10
316.184514
 20
270.076135
 30
0.0
 11
306.184525
 21
270.076135
 31
0.0
  0
LINE
  5
111
330
FB
100
AcDbEntity
  8
0
  6
Continuous
 62
     0
370
    30
100
AcDbLine
 10
306.184525
 20
410.075934
 30
0.0
 11
306.184525
 21
270.076135
 31
0.0
  0
LINE
  5
112
330
FB
100
AcDbEntity
  8
0
  6
Continuous
 62
     0
370
    30
100
AcDbLine
 10
316.684514
 20
384.076135
 30
0.0
 11
326.784514
 21
384.076135
 31
0.0
  0
LINE
  5
113
330
FB
100
AcDbEntity
  8
0
  6
Continuous
 62
     0
370
    30
100
AcDbLine
 10
326.877611
 20
302.876135
 30
0.0
 11
316.684514
 21
302.876135
 31
0.0
  0
LINE
  5
114
330
FB
100
AcDbEntity
  8
0
  6
Continuous
 62
     0
370
    30
100
AcDbLine
 10
326.877611
 20
302.876135
 30
0.0
 11
326.877611
 21
347.276135
 31
0.0
  0
SPLINE
  5
115
330
FB
100
AcDbEntity
  8
0
  6
Continuous
 62
     0
370
    30
100
AcDbSpline
210
0.0
220
0.0
230
1.0
 70
     8
 71
     3
 72
    14
 73
    10
 74
     0
 42
0.000000001
 43
0.0
 40
0.0
 40
0.0
 40
0.0
 40
0.0
 40
0.9049184552948772
 40
1.801492942412084
 40
2.695865772912382
 40
3.591289155230797
 40
4.490530719158833
 40
5.397766166276412
 40
6.323339661140201
 40
6.323339661140201
 40
6.323339661140201
 40
6.323339661140201
 10
351.7772908496
 20
247.431667610721
 30
0.0
 10
351.7923760137019
 20
247.1304056266009
 30
0.0
 10
351.8325399008909
 20
246.5310112716441
 30
0.0
 10
351.9424734093928
 20
245.6385986689479
 30
0.0
 10
352.109864666624
 20
244.758124294781
 30
0.0
 10
352.3495907711807
 20
243.8931362852416
 30
0.0
 10
352.6793420570348
 20
243.0528261560518
 30
0.0
 10
353.120880808124
 20
242.2529393859366
 30
0.0
 10
353.501666336529
 20
241.7701791493062
 30
0.0
 10
353.7148975386688
 20
241.547199815093
 30
0.0
  0
SPLINE
  5
116
330
FB
100
AcDbEntity
  8
0
  6
Continuous
 62
     0
370
     0
100
AcDbSpline
210
0.0
220
0.0
230
1.0
 70
     8
 71
     3
 72
    17
 73
    13
 74
     0
 42
0.000000001
 43
0.0
 40
0.0
 40
0.0
 40
0.0
 40
0.0
 40
0.4726167524829207
 40
0.9627600994034098
 40
1.478025446153669
 40
2.00854314849567
 40
2.541749624180936
 40
3.074698009138157
 40
4.137856263661176
 40
5.196466414361825
 40
6.2469601989597
 40
7.289503732982064
 40
7.289503732982064
 40
7.289503732982064
 40
7.289503732982064
 10
353.7148975386688
 20
241.547199815093
 30
0.0
 10
353.714094294774
 20
241.5480457490348
 30
0.0
 10
353.7147516403617
 20
241.5710289143663
 30
0.0
 10
353.7077137222024
 20
241.7089645369886
 30
0.0
 10
353.6992510623519
 20
241.9666446610858
 30
0.0
 10
353.6829784916817
 20
242.3387117393289
 30
0.0
 10
353.6668421240171
 20
242.7841236828213
 30
0.0
 10
353.6398328568793
 20
243.430814629076
 30
0.0
 10
353.6070550760593
 20
244.290399909164
 30
0.0
 10
353.5652270776928
 20
245.3386463428889
 30
0.0
 10
353.524572468796
 20
246.3873700792095
 30
0.0
 10
353.4953486249071
 20
247.0844163532959
 30
0.0
 10
353.4828844559451
 20
247.4316719317596
 30
0.0
  0
LINE
  5
117
330
FB
100
AcDbEntity
  8
0
  6
Continuous
 62
     0
370
     0
100
AcDbLine
 10
353.482884
 20
247.431672
 30
0.0
 11
351.777291
 21
247.431668
 31
0.0
  0
LINE
  5
118
330
FB
100
AcDbEntity
  8
0
  6
Continuous
 62
     0
370
    30
100
AcDbLine
 10
349.572304
 20
293.745355
 30
0.0
 11
351.777277
 21
247.431667
 31
0.0
  0
LINE
  5
119
330
FB
100
AcDbEntity
  8
0
  6
Continuous
 62
     0
370
     0
100
AcDbLine
 10
353.482887
 20
247.431672
 30
0.0
 11
351.619786
 21
294.68464
 31
0.0
  0
SPLINE
  5
11A
330
FB
100
AcDbEntity
  8
0
  6
Continuous
 62
     0
370
     0
100
AcDbSpline
210
0.0
220
0.0
230
1.0
 70
     8
 71
     3
 72
    18
 73
    14
 74
     0
 42
0.000000001
 43
0.0
 40
0.0
 40
0.0
 40
0.0
 40
0.0
 40
0.5886881468565112
 40
0.8845396851472759
 40
1.181670850697442
 40
1.481141869176332
 40
1.78244509915871
 40
2.083818556319041
 40
2.385079108074982
 40
2.692363137666486
 40
3.006327798404096
 40
3.622459110589661
 40
4.211102145996554
 40
4.211102145996554
 40
4.211102145996554
 40
4.211102145996554
 10
351.6197855119941
 20
294.6846397836022
 30
0.0
 10
351.4553198767577
 20
294.6700700066146
 30
0.0
 10
351.2150593220354
 20
294.6426881173621
 30
0.0
 10
350.9152747146968
 20
294.58485449948
 30
0.0
 10
350.7005269993047
 20
294.5340089404799
 30
0.0
 10
350.4996427333238
 20
294.4665819833594
 30
0.0
 10
350.3138562828575
 20
294.3900747218824
 30
0.0
 10
350.1440464391753
 20
294.3129899049349
 30
0.0
 10
349.9903778963109
 20
294.2434332568633
 30
0.0
 10
349.8608042666953
 20
294.1429958002065
 30
0.0
 10
349.7227013716218
 20
293.9801316573919
 30
0.0
 10
349.6052442546721
 20
293.7959816435306
 30
0.0
 10
349.5722799790773
 20
293.7458491769983
 30
0.0
 10
349.5723035456367
 20
293.7453545148114
 30
0.0
  0
SPLINE
  5
11B
330
FB
100
AcDbEntity
  8
0
  6
Continuous
 62
     0
370
     0
100
AcDbSpline
210
0.0
220
0.0
230
1.0
 70
     8
 71
     3
 72
    13
 73
     9
 74
     0
 42
0.000000001
 43
0.0
 40
0.0
 40
0.0
 40
0.0
 40
0.0
 40
1.779080120497243
 40
3.558160240843042
 40
7.102676083057125
 40
10.64719192466702
 40
12.4262720442556
 40
14.20535216369273
 40
14.20535216369273
 40
14.20535216369273
 40
14.20535216369273
 10
351.6197855119941
 20
294.6846397836022
 30
0.0
 10
351.5041412637922
 20
295.2401800433044
 30
0.0
 10
351.2255893225025
 20
296.3507889105846
 30
0.0
 10
350.4973810315761
 20
298.5026091879945
 30
0.0
 10
349.2862247448628
 20
300.9986267399198
 30
0.0
 10
347.7869457469832
 20
302.9862089908721
 30
0.0
 10
346.5046216690289
 20
304.1602096927438
 30
0.0
 10
345.8459249860163
 20
304.5999967233907
 30
0.0
 10
345.5172021345655
 20
304.7795281518715
 30
0.0
  0
SPLINE
  5
11C
330
FB
100
AcDbEntity
  8
0
  6
Continuous
 62
     0
370
     0
100
AcDbSpline
210
0.0
220
0.0
230
1.0
 70
     8
 71
     3
 72
    20
 73
    16
 74
     0
 42
0.000000001
 43
0.0
 40
0.0
 40
0.0
 40
0.0
 40
0.0
 40
0.247281644888256
 40
0.4914103110831901
 40
0.9704001646871241
 40
1.890297400195522
 40
2.331779899465022
 40
2.761161694371386
 40
2.970898340889328
 40
3.17600158545514
 40
3.576319523522373
 40
3.968540781052799
 40
4.353385306604801
 40
5.09491177248227
 40
5.61927123762996
 40
5.61927123762996
 40
5.61927123762996
 40
5.61927123762996
 10
345.5172021345655
 20
304.7795281518715
 30
0.0
 10
345.4166715038204
 20
304.7530358003954
 30
0.0
 10
345.2188383011392
 20
304.7004255661136
 30
0.0
 10
344.8290402972161
 20
304.5948006008405
 30
0.0
 10
344.1763701809498
 20
304.4132405257501
 30
0.0
 10
343.4616767031477
 20
304.2049985117258
 30
0.0
 10
342.7927200635571
 20
304.0035445461518
 30
0.0
 10
342.4010933815337
 20
303.8838561101387
 30
0.0
 10
342.1043831968582
 20
303.7921359553267
 30
0.0
 10
341.8309553403753
 20
303.7035398628063
 30
0.0
 10
341.5144098803869
 20
303.5977527707497
 30
0.0
 10
341.1554845289451
 20
303.4822027548225
 30
0.0
 10
340.7141321022953
 20
303.3471619088256
 30
0.0
 10
340.2841586233979
 20
303.223983458566
 30
0.0
 10
340.0495973073065
 20
303.1566194994464
 30
0.0
 10
339.9736397044735
 20
303.1347013405208
 30
0.0
  0
ARC
  5
11D
330
FB
100
AcDbEntity
  8
0
  6
Continuous
 62
     0
370
    30
100
AcDbCircle
 10
339.780293
 20
293.276486
 30
0.0
 40
9.80322940334558
100
AcDbArc
 50
2.741389
 51
62.49734
  0
SPLINE
  5
11E
330
FB
100
AcDbEntity
  8
0
  6
Continuous
 62
     0
370
     0
100
AcDbSpline
210
0.0
220
0.0
230
1.0
 70
     8
 71
     3
 72
    18
 73
    14
 74
     0
 42
0.000000001
 43
0.0
 40
0.0
 40
0.0
 40
0.0
 40
0.0
 40
1.785301210585795
 40
2.669713658688727
 40
3.544791626131593
 40
4.395230002139404
 40
5.153606341993546
 40
5.76876986313969
 40
6.250149103393017
 40
6.672513495201361
 40
7.06533283583037
 40
7.78215390267276
 40
8.459215863564634
 40
8.459215863564634
 40
8.459215863564634
 40
8.459215863564634
 10
361.4265216894315
 20
247.4638436359222
 30
0.0
 10
361.4272964140537
 20
246.8689171460352
 30
0.0
 10
361.4293141748024
 20
245.9795051775404
 30
0.0
 10
361.433791522917
 20
244.8009840885849
 30
0.0
 10
361.4376040125302
 20
243.9342630394003
 30
0.0
 10
361.4428028236409
 20
243.112237439542
 30
0.0
 10
361.4509628001299
 20
242.3891978125509
 30
0.0
 10
361.462091778563
 20
241.8188920223571
 30
0.0
 10
361.4745410722508
 20
241.4263740339464
 30
0.0
 10
361.4851788950766
 20
241.1479754506837
 30
0.0
 10
361.4963061256256
 20
240.8583469172999
 30
0.0
 10
361.5064602160489
 20
240.6347339540213
 30
0.0
 10
361.5091551722196
 20
240.5796319834301
 30
0.0
 10
361.5090954362029
 20
240.5785839603331
 30
0.0
  0
SPLINE
  5
11F
330
FB
100
AcDbEntity
  8
0
  6
Continuous
 62
     0
370
     0
100
AcDbSpline
210
0.0
220
0.0
230
1.0
 70
     8
 71
     3
 72
    19
 73
    15
 74
     0
 42
0.000000001
 43
0.0
 40
53.44928683787876
 40
53.44928683787876
 40
53.44928683787876
 40
53.44928683787876
 40
58.71924236209077
 40
64.27595803767218
 40
70.54880114304356
 40
74.24899760938668
 40
76.35579970617844
 40
78.71454413890467
 40
84.62396407396875
 40
88.09336299265861
 40
91.27077869534006
 40
96.32947538724909
 40
100.3370074805238
 40
106.8985736757575
 40
106.8985736757575
 40
106.8985736757575
 40
106.8985736757575
 10
361.5090951096282
 20
345.5792644455442
 30
0.0
 10
361.5095889745443
 20
345.5793896828401
 30
0.0
 10
361.3416806203191
 20
345.1326106929682
 30
0.0
 10
360.5675221763657
 20
343.0534662258247
 30
0.0
 10
359.5473905728208
 20
339.9317791030015
 30
0.0
 10
358.7803507929136
 20
336.8550880850382
 30
0.0
 10
358.3216259699491
 20
334.5516952297117
 30
0.0
 10
357.8144858556024
 20
331.4489002789734
 30
0.0
 10
357.4699538269049
 20
327.5811182728185
 30
0.0
 10
357.4753311721545
 20
323.3750122891818
 30
0.0
 10
357.7223322563707
 20
319.5195742366907
 30
0.0
 10
358.2638683237357
 20
315.7047052359688
 30
0.0
 10
359.2002237869892
 20
311.4377033418584
 30
0.0
 10
359.9146730148088
 20
309.1047138086869
 30
0.0
 10
360.3018080496959
 20
307.944795119321
 30
0.0
  0
SPLINE
  5
120
330
FB
100
AcDbEntity
  8
0
  6
Continuous
 62
     0
370
     0
100
AcDbSpline
210
0.0
220
0.0
230
1.0
 70
     8
 71
     3
 72
    14
 73
    10
 74
     0
 42
0.000000001
 43
0.0
 40
0.0
 40
0.0
 40
0.0
 40
0.0
 40
1.576988025420239
 40
3.256289132435781
 40
5.075283189511372
 40
7.093057195190395
 40
9.409417996480371
 40
12.18082556357823
 40
15.53182913021579
 40
15.53182913021579
 40
15.53182913021579
 40
15.53182913021579
 10
360.301808027149
 20
307.9447949466697
 30
0.0
 10
360.394851143868
 20
307.6660248694982
 30
0.0
 10
360.5704404123147
 20
307.0438023846868
 30
0.0
 10
360.7932432598487
 20
305.9377337307611
 30
0.0
 10
360.9815895625885
 20
304.5905741168184
 30
0.0
 10
361.1355803516048
 20
302.9299515059687
 30
0.0
 10
361.2538338893788
 20
300.8353861842681
 30
0.0
 10
361.3327483367984
 20
298.163826112201
 30
0.0
 10
361.3524591820168
 20
296.121555971582
 30
0.0
 10
361.3543574165237
 20
295.0048507960078
 30
0.0
  0
ARC
  5
121
330
FB
100
AcDbEntity
  8
0
  6
Continuous
 62
     0
370
     0
100
AcDbCircle
 10
-78805.348534
 20
151.059424
 30
0.0
 40
79166.83375322011
100
AcDbArc
 50
0.069771
 51
0.104178
  0
SPLINE
  5
122
330
FB
100
AcDbEntity
  8
0
  6
Continuous
 62
     0
370
     0
100
AcDbSpline
210
0.0
220
0.0
230
1.0
 70
     8
 71
     3
 72
    20
 73
    16
 74
     0
 42
0.000000001
 43
0.0
 40
0.0
 40
0.0
 40
0.0
 40
0.0
 40
0.2855295240685756
 40
0.576329145402088
 40
1.184817832470749
 40
1.834765451010519
 40
2.502750719041307
 40
3.863071095850881
 40
5.262373019617855
 40
6.702162280478479
 40
8.189109345485747
 40
9.70291415481903
 40
10.46507855225024
 40
10.84862487616007
 40
10.88121576106734
 40
10.88121576106734
 40
10.88121576106734
 40
10.88121576106734
 10
351.6197855119941
 20
294.6846397836022
 30
0.0
 10
351.6702558198037
 20
294.7036669983843
 30
0.0
 10
351.7730606096385
 20
294.7404028871088
 30
0.0
 10
351.9923085287194
 20
294.8112645320418
 30
0.0
 10
352.3035230856163
 20
294.8904621389295
 30
0.0
 10
352.7469424229044
 20
294.9644435520565
 30
0.0
 10
353.3784182792743
 20
295.0529044455335
 30
0.0
 10
354.2012537800065
 20
295.1398204337673
 30
0.0
 10
355.2489720910916
 20
295.1959004016473
 30
0.0
 10
356.3593716692359
 20
295.2049110178305
 30
0.0
 10
357.5515359617762
 20
295.1641177093077
 30
0.0
 10
358.5751140177607
 20
295.0914638456841
 30
0.0
 10
359.2961097747589
 20
295.0201499976361
 30
0.0
 10
359.6184027215139
 20
294.9838860064045
 30
0.0
 10
359.7320403857504
 20
294.9705521029168
 30
0.0
 10
359.7409392086756
 20
294.9695045768804
 30
0.0
  0
SPLINE
  5
123
330
FB
100
AcDbEntity
  8
0
  6
Continuous
 62
     0
370
     0
100
AcDbSpline
210
0.0
220
0.0
230
1.0
 70
     8
 71
     3
 72
    14
 73
    10
 74
     0
 42
0.000000001
 43
0.0
 40
0.0
 40
0.0
 40
0.0
 40
0.0
 40
1.980471530182786
 40
3.968917230539861
 40
5.962338080949067
 40
7.960743603866298
 40
9.962694837674054
 40
11.96500597412962
 40
13.95990483656978
 40
13.95990483656978
 40
13.95990483656978
 40
13.95990483656978
 10
359.7409392086756
 20
294.9695045768804
 30
0.0
 10
359.7313955686095
 20
295.6294255960255
 30
0.0
 10
359.7106725946234
 20
296.9515747672891
 30
0.0
 10
359.6675940066502
 20
298.8917051008029
 30
0.0
 10
359.6049441348997
 20
300.7558880983703
 30
0.0
 10
359.5088301567461
 20
302.5069865773521
 30
0.0
 10
359.3621590043933
 20
304.1101568644191
 30
0.0
 10
359.1463480092493
 20
305.5280978540615
 30
0.0
 10
358.9483919897307
 20
306.3313964185066
 30
0.0
 10
358.8343760431053
 20
306.6910487958614
 30
0.0
  0
SPLINE
  5
124
330
FB
100
AcDbEntity
  8
0
  6
Continuous
 62
     0
370
     0
100
AcDbSpline
210
0.0
220
0.0
230
1.0
 70
     8
 71
     3
 72
    20
 73
    16
 74
     0
 42
0.000000001
 43
0.0
 40
0.1664783450857619
 40
0.1664783450857619
 40
0.1664783450857619
 40
0.1664783450857619
 40
0.383996150892465
 40
0.7675424748022939
 40
1.529706872233502
 40
3.043511681566786
 40
4.530458746574054
 40
5.970248007434678
 40
7.369549931201652
 40
8.729870308011225
 40
9.397855576042014
 40
10.04780319458178
 40
10.65629188165044
 40
10.94709150298396
 40
11.2326213343116
 40
11.2326213343116
 40
11.2326213343116
 40
11.2326213343116
 10
358.8343760431053
 20
306.6910487958614
 30
0.0
 10
358.7478028739028
 20
306.6847055188225
 30
0.0
 10
358.5086714466283
 20
306.6668946876454
 30
0.0
 10
357.9676599293409
 20
306.6247951828065
 30
0.0
 10
356.9066674329632
 20
306.5353481940931
 30
0.0
 10
355.4163143791071
 20
306.3891951033137
 30
0.0
 10
353.6577916335081
 20
306.1856515151117
 30
0.0
 10
351.9124693222605
 20
305.9516772752015
 30
0.0
 10
350.2219208906935
 20
305.6904051298462
 30
0.0
 10
348.8464660431871
 20
305.4500944029984
 30
0.0
 10
347.7919144388137
 20
305.2493721494208
 30
0.0
 10
347.0375251052074
 20
305.0990589928213
 30
0.0
 10
346.3910602443558
 20
304.9667068500268
 30
0.0
 10
345.8856092560701
 20
304.8597479833844
 30
0.0
 10
345.6385044065856
 20
304.8061483186912
 30
0.0
 10
345.5172044158879
 20
304.7795266061193
 30
0.0
  0
SPLINE
  5
125
330
FB
100
AcDbEntity
  8
0
  6
Continuous
 62
     0
370
    30
100
AcDbSpline
210
0.0
220
0.0
230
1.0
 70
     8
 71
     3
 72
    20
 73
    16
 74
     0
 42
0.000000001
 43
0.0
 40
0.0000000009106379
 40
0.0000000009106379
 40
0.0000000009106379
 40
0.0000000009106379
 40
0.102561273379544
 40
0.205306907478947
 40
0.411351449871904
 40
0.825376571144519
 40
1.657925669854811
 40
2.494983249329872
 40
3.335078435991775
 40
4.176822048481946
 40
5.019673252362157
 40
5.862830051197538
 40
6.284255341919001
 40
6.494932416446599
 40
6.704070057592248
 40
6.704070057592248
 40
6.704070057592248
 40
6.704070057592248
 10
353.7148951363581
 20
241.5471975093741
 30
0.0
 10
353.739370110966
 20
241.5218853363108
 30
0.0
 10
353.7883640558013
 20
241.4712154896477
 30
0.0
 10
353.8885999562359
 20
241.3721822363394
 30
0.0
 10
354.0686661245728
 20
241.2031463752112
 30
0.0
 10
354.4461146418699
 20
240.884551655013
 30
0.0
 10
355.0276217639403
 20
240.4847747729123
 30
0.0
 10
355.774670798502
 20
240.0891446235144
 30
0.0
 10
356.5579387490357
 20
239.7716793737038
 30
0.0
 10
357.3645882006759
 20
239.5205759195825
 30
0.0
 10
358.1869824953491
 20
239.3274095632705
 30
0.0
 10
358.880684013714
 20
239.2075774882329
 30
0.0
 10
359.36881658876
 20
239.1415796714572
 30
0.0
 10
359.6477604330536
 20
239.1083957448736
 30
0.0
 10
359.7872220815609
 20
239.0937031952709
 30
0.0
 10
359.8566976748858
 20
239.0863872594032
 30
0.0
  0
SPLINE
  5
126
330
FB
100
AcDbEntity
  8
0
  6
Continuous
 62
     0
370
     0
100
AcDbSpline
210
0.0
220
0.0
230
1.0
 70
     8
 71
     3
 72
    19
 73
    15
 74
     0
 42
0.000000001
 43
0.0
 40
0.0
 40
0.0
 40
0.0
 40
0.0
 40
0.7701032459876829
 40
1.537983116660308
 40
2.303328914983717
 40
3.067138272398178
 40
3.831241251380738
 40
4.594312891941182
 40
5.360276803786542
 40
6.122005224119288
 40
6.882625434997057
 40
7.643851879447314
 40
9.170119454295746
 40
10.70211366325266
 40
10.70211366325266
 40
10.70211366325266
 40
10.70211366325266
 10
359.8566976897035
 20
239.0863874004989
 30
0.0
 10
359.8573015266065
 20
239.0863238738951
 30
0.0
 10
359.8483066085909
 20
239.1343702723
 30
0.0
 10
359.816804460319
 20
239.3523642441445
 30
0.0
 10
359.7726730096462
 20
239.7086271035315
 30
0.0
 10
359.7208146470405
 20
240.180234727187
 30
0.0
 10
359.6805734796234
 20
240.7395281197856
 30
0.0
 10
359.6673791816031
 20
241.4027547428209
 30
0.0
 10
359.6822338708406
 20
242.1223976506689
 30
0.0
 10
359.7051038448624
 20
242.8671766790804
 30
0.0
 10
359.7307258468657
 20
243.6213790964593
 30
0.0
 10
359.7601443460696
 20
244.6324429897416
 30
0.0
 10
359.7827864189236
 20
245.9022584609924
 30
0.0
 10
359.7898450442302
 20
246.9211308539523
 30
0.0
 10
359.7896934137764
 20
247.4316774645071
 30
0.0
  0
LINE
  5
127
330
FB
100
AcDbEntity
  8
0
  6
Continuous
 62
     0
370
     0
100
AcDbLine
 10
359.789693
 20
247.431677
 30
0.0
 11
353.482887
 21
247.431672
 31
0.0
  0
ARC
  5
128
330
FB
100
AcDbEntity
  8
0
  6
Continuous
 62
     0
370
     0
100
AcDbCircle
 10
-76578.61434
 20
192.455159
 30
0.0
 40
76938.42366722904
100
AcDbArc
 50
0.040941
 51
0.076342
  0
SPLINE
  5
129
330
FB
100
AcDbEntity
  8
0
  6
Continuous
 62
     0
370
     0
100
AcDbSpline
210
0.0
220
0.0
230
1.0
 70
     8
 71
     3
 72
    11
 73
     7
 74
     0
 42
0.000000001
 43
0.0
 40
0.0
 40
0.0
 40
0.0
 40
0.0
 40
0.5931807360776029
 40
1.186361483264728
 40
1.779542241561375
 40
2.372723010967543
 40
2.372723010967543
 40
2.372723010967543
 40
2.372723010967543
 10
359.7896853980416
 20
247.4316774751408
 30
0.0
 10
359.9886594009019
 20
247.4315114878101
 30
0.0
 10
360.3987793212295
 20
247.432934218439
 30
0.0
 10
360.9353125386593
 20
247.4400145480153
 30
0.0
 10
361.3119678810857
 20
247.4508796651092
 30
0.0
 10
361.4157151756364
 20
247.4595551517316
 30
0.0
 10
361.42652235425
 20
247.4638436359221
 30
0.0
  0
SPLINE
  5
12A
330
FB
100
AcDbEntity
  8
0
  6
Continuous
 62
     0
370
     0
100
AcDbSpline
210
0.0
220
0.0
230
1.0
 70
     8
 71
     3
 72
    11
 73
     7
 74
     0
 42
0.000000001
 43
0.0
 40
0.0
 40
0.0
 40
0.0
 40
0.0
 40
0.5931807694061679
 40
1.186361527702815
 40
1.77954227488994
 40
2.372723010967543
 40
2.372723010967543
 40
2.372723010967543
 40
2.372723010967543
 10
361.3540810046446
 20
295.0048498572443
 30
0.0
 10
361.3396077436697
 20
295.0002394618651
 30
0.0
 10
361.232084042446
 20
294.9909172184655
 30
0.0
 10
360.8605413468215
 20
294.9791455065044
 30
0.0
 10
360.3364463362137
 20
294.9712858761035
 30
0.0
 10
359.9360293007002
 20
294.9694746464543
 30
0.0
 10
359.7410310644062
 20
294.9694936689896
 30
0.0
  0
SPLINE
  5
12B
330
FB
100
AcDbEntity
  8
0
  6
Continuous
 62
     0
370
     0
100
AcDbSpline
210
0.0
220
0.0
230
1.0
 70
     8
 71
     3
 72
    11
 73
     7
 74
     0
 42
0.000000001
 43
0.0
 40
0.0000000000256795
 40
0.0000000000256795
 40
0.0000000000256795
 40
0.0000000000256795
 40
0.5190360511316039
 40
1.038071195164162
 40
1.557105432097672
 40
2.076138769741436
 40
2.076138769741436
 40
2.076138769741436
 40
2.076138769741436
 10
360.3013230215687
 20
307.944795727064
 30
0.0
 10
360.2809024132336
 20
307.7925164524331
 30
0.0
 10
360.1742103396165
 20
307.4850908956754
 30
0.0
 10
359.8387158564938
 20
307.0864240896435
 30
0.0
 10
359.3722546831099
 20
306.7996896515526
 30
0.0
 10
359.0125492559517
 20
306.708503640143
 30
0.0
 10
358.8343743425426
 20
306.6910509392475
 30
0.0
  0
SPLINE
  5
12C
330
FB
100
AcDbEntity
  8
0
  6
Continuous
 62
     0
370
     0
100
AcDbSpline
210
0.0
220
0.0
230
1.0
 70
     8
 71
     3
 72
    22
 73
    18
 74
     0
 42
0.000000001
 43
0.0
 40
0.0
 40
0.0
 40
0.0
 40
0.0
 40
4.03419432468705
 40
8.086104993727794
 40
12.15079806965172
 40
16.22607215439413
 40
20.30811046575879
 40
24.39219737972338
 40
28.47326161474173
 40
32.5467010625328
 40
36.6090541022249
 40
40.65789846652445
 40
44.69218082389791
 40
48.71049901796344
 40
52.72215664610776
 40
56.7305738906297
 40
56.73063592476992
 40
56.73063592476992
 40
56.73063592476992
 40
56.73063592476992
 10
358.8343744777309
 20
306.6910505231928
 30
0.0
 10
358.612274386069
 20
307.4193225358158
 30
0.0
 10
358.1369526819287
 20
309.0810000537722
 30
0.0
 10
357.4122710045352
 20
312.0975921687252
 30
0.0
 10
356.7712730177228
 20
315.5673033071481
 30
0.0
 10
356.2977522391602
 20
319.3876285324299
 30
0.0
 10
356.0567633574245
 20
323.4296603292153
 30
0.0
 10
356.0840120854608
 20
327.5379189026891
 30
0.0
 10
356.3743282250455
 20
331.5479041061692
 30
0.0
 10
356.887139176941
 20
335.3081849779111
 30
0.0
 10
357.5516422980449
 20
338.695578125474
 30
0.0
 10
358.2815584754183
 20
341.6144831117457
 30
0.0
 10
358.9832013247552
 20
343.9870257892799
 30
0.0
 10
359.5593474458836
 20
345.7474797075664
 30
0.0
 10
359.9247508214555
 20
346.8342335104742
 30
0.0
 10
360.0098363500452
 20
347.079342309542
 30
0.0
 10
360.0094782234398
 20
347.0792376229829
 30
0.0
 10
360.0094782178873
 20
347.0792376213334
 30
0.0
  0
SPLINE
  5
12D
330
FB
100
AcDbEntity
  8
0
  6
Continuous
 62
     0
370
    30
100
AcDbSpline
210
0.0
220
0.0
230
1.0
 70
     8
 71
     3
 72
    12
 73
     8
 74
     0
 42
0.000000001
 43
0.0
 40
13.88557529350366
 40
13.88557529350366
 40
13.88557529350366
 40
13.88557529350366
 40
18.26684492747035
 40
20.65401356219686
 40
22.47486999040697
 40
25.37552048099178
 40
27.77115058700731
 40
27.77115058700731
 40
27.77115058700731
 40
27.77115058700731
 10
338.0310610090512
 20
347.0793089413805
 30
0.0
 10
338.0310610705274
 20
347.0793089250441
 30
0.0
 10
337.9248926349001
 20
346.8517578297984
 30
0.0
 10
337.5914985128277
 20
346.1367617566351
 30
0.0
 10
337.2187719395716
 20
345.3374545095287
 30
0.0
 10
336.7417126193226
 20
344.3143914474134
 30
0.0
 10
336.3089918078176
 20
343.3864346091514
 30
0.0
 10
336.0991443131456
 20
342.9364034337776
 30
0.0
  0
ARC
  5
12E
330
FB
100
AcDbEntity
  8
0
  6
Continuous
 62
     0
370
    30
100
AcDbCircle
 10
390.48223
 20
317.578282
 30
0.0
 40
60.00461925796724
100
AcDbArc
 50
155.000976
 51
179.99902
  0
LINE
  5
12F
330
FB
100
AcDbEntity
  8
0
  6
Continuous
 62
     0
370
    30
100
AcDbLine
 10
330.477611
 20
317.579309
 30
0.0
 11
330.47761
 21
303.079309
 31
0.0
  0
LINE
  5
130
330
FB
100
AcDbEntity
  8
0
  6
Continuous
 62
     0
370
    30
100
AcDbLine
 10
330.47761
 20
303.079309
 30
0.0
 11
339.414068
 21
303.079309
 31
0.0
  0
ARC
  5
131
330
FB
100
AcDbEntity
  8
0
  6
Continuous
 62
     0
370
     0
100
AcDbCircle
 10
342.057599
 20
279.221949
 30
0.0
 40
24.00337239005339
100
AcDbArc
 50
94.981201
 51
96.322904
  0
SPLINE
  5
132
330
FB
100
AcDbEntity
  8
0
  6
Continuous
 62
     0
370
     0
100
AcDbSpline
210
0.0
220
0.0
230
1.0
 70
     8
 71
     3
 72
    14
 73
    10
 74
     0
 42
0.000000001
 43
0.0
 40
0.0
 40
0.0
 40
0.0
 40
0.0
 40
1.139330982487529
 40
2.088900472116514
 40
2.937317310650728
 40
3.752548400459619
 40
4.574751295082848
 40
5.41069697647846
 40
6.241503998632771
 40
6.241503998632771
 40
6.241503998632771
 40
6.241503998632771
 10
339.9736397044735
 20
303.1347013405208
 30
0.0
 10
340.2133191454447
 20
303.1556274029994
 30
0.0
 10
340.7843095365328
 20
303.1914045938923
 30
0.0
 10
341.7552026655645
 20
303.1415209829324
 30
0.0
 10
342.624634176287
 20
302.9687004039504
 30
0.0
 10
343.3399195832213
 20
302.6937353473438
 30
0.0
 10
343.8774688804716
 20
302.3650355099454
 30
0.0
 10
344.222732203849
 20
302.0627517894409
 30
0.0
 10
344.3074978448553
 20
301.9717911761107
 30
0.0
 10
344.3073243415611
 20
301.9718461143399
 30
0.0
  0
SPLINE
  5
133
330
FB
100
AcDbEntity
  8
0
  6
Continuous
 62
     0
370
    30
100
AcDbSpline
210
0.0
220
0.0
230
1.0
 70
     8
 71
     3
 72
    20
 73
    16
 74
     0
 42
0.000000001
 43
0.0
 40
0.1322577196719294
 40
0.1322577196719294
 40
0.1322577196719294
 40
0.1322577196719294
 40
1.36437310082573
 40
3.976183273897255
 40
7.575200994471642
 40
9.036750510166293
 40
10.98577345941175
 40
14.57585455533752
 40
18.08839447869271
 40
21.79228674045501
 40
26.01325427781318
 40
29.33575689054741
 40
33.44768895059394
 40
36.74746297277991
 40
37.25911920195125
 40
37.25911920195125
 40
37.25911920195125
 40
37.25911920195125
 10
330.4777147062355
 20
317.7017488149963
 30
0.0
 10
330.4783666801426
 20
318.0825332422903
 30
0.0
 10
330.4899265834011
 20
319.286752212883
 30
0.0
 10
330.5756615561594
 20
321.6978839905079
 30
0.0
 10
330.7954914912689
 20
324.2526463081654
 30
0.0
 10
331.09129808106
 20
326.5674064115312
 30
0.0
 10
331.4529551722917
 20
328.8459872391543
 30
0.0
 10
332.036924954684
 20
331.6711696218974
 30
0.0
 10
332.8612106676734
 20
334.7254160986017
 30
0.0
 10
333.7838987948385
 20
337.5093262541743
 30
0.0
 10
334.6386962913662
 20
339.6794085696463
 30
0.0
 10
335.352633500555
 20
341.3185517072833
 30
0.0
 10
335.7834930547797
 20
342.2565772076502
 30
0.0
 10
335.9027121482781
 20
342.5138443096898
 30
0.0
 10
335.9094610420843
 20
342.5284358026533
 30
0.0
 10
335.9094574380197
 20
342.5284301894783
 30
0.0
  0
LINE
  5
134
330
FB
100
AcDbEntity
  8
0
  6
Continuous
 62
     0
370
    30
100
AcDbLine
 10
316.684513
 20
362.076135
 30
0.0
 11
326.784514
 21
362.076135
 31
0.0
  0
LINE
  5
135
330
FB
100
AcDbEntity
  8
0
  6
Continuous
 62
     0
370
    30
100
AcDbLine
 10
316.184514
 20
410.075934
 30
0.0
 11
306.184525
 21
410.075934
 31
0.0
  0
LINE
  5
136
330
FB
100
AcDbEntity
  8
0
  6
Continuous
 62
     0
370
    30
100
AcDbLine
 10
316.684514
 20
409.575934
 30
0.0
 11
316.184514
 21
410.075934
 31
0.0
  0
LINE
  5
137
330
FB
100
AcDbEntity
  8
0
  6
Continuous
 62
     0
370
    30
100
AcDbLine
 10
326.784514
 20
362.076135
 30
0.0
 11
327.784514
 21
363.076135
 31
0.0
  0
ARC
  5
138
330
FB
100
AcDbEntity
  8
0
  6
Continuous
 62
     0
370
    30
100
AcDbCircle
 10
338.949232
 20
363.176109
 30
0.0
 40
1.000024867145973
100
AcDbArc
 50
0.501412
 51
89.998588
  0
ARC
  5
139
330
FB
100
AcDbEntity
  8
0
  6
Continuous
 62
     0
370
    30
100
AcDbCircle
 10
338.949232
 20
382.976158
 30
0.0
 40
1.000024867384773
100
AcDbArc
 50
270.001412
 51
359.498588
  0
LINE
  5
13A
330
FB
100
AcDbEntity
  8
0
  6
Continuous
 62
     0
370
    30
100
AcDbLine
 10
338.949256
 20
381.976134
 30
0.0
 11
327.958458
 21
381.976134
 31
0.0
  0
LINE
  5
13B
330
FB
100
AcDbEntity
  8
0
  6
Continuous
 62
     0
370
    30
100
AcDbLine
 10
338.949256
 20
364.176134
 30
0.0
 11
327.958458
 21
364.176134
 31
0.0
  0
LINE
  5
13C
330
FB
100
AcDbEntity
  8
0
  6
Continuous
 62
     0
370
    30
100
AcDbLine
 10
339.955862
 20
362.423572
 30
0.0
 11
339.949218
 21
363.18486
 31
0.0
  0
LINE
  5
13D
330
FB
100
AcDbEntity
  8
0
  6
Continuous
 62
     0
370
    30
100
AcDbLine
 10
339.955862
 20
383.728695
 30
0.0
 11
339.949218
 21
382.967407
 31
0.0
  0
ARC
  5
13E
330
FB
100
AcDbEntity
  8
0
  6
Continuous
 62
     0
370
    30
100
AcDbCircle
 10
340.255866
 20
362.426149
 30
0.0
 40
0.3000150264155209
100
AcDbArc
 50
180.50324
 51
269.997158
  0
ARC
  5
13F
330
FB
100
AcDbEntity
  8
0
  6
Continuous
 62
     0
370
    30
100
AcDbCircle
 10
340.255866
 20
383.726119
 30
0.0
 40
0.3000150269736311
100
AcDbArc
 50
90.002843
 51
179.496516
  0
LINE
  5
140
330
FB
100
AcDbEntity
  8
0
  6
Continuous
 62
     0
370
    30
100
AcDbLine
 10
347.358458
 20
384.026134
 30
0.0
 11
340.255851
 21
384.026134
 31
0.0
  0
LINE
  5
141
330
FB
100
AcDbEntity
  8
0
  6
Continuous
 62
     0
370
    30
100
AcDbLine
 10
347.358458
 20
362.126134
 30
0.0
 11
340.255851
 21
362.126134
 31
0.0
  0
ARC
  5
142
330
FB
100
AcDbEntity
  8
0
  6
Continuous
 62
     0
370
    30
100
AcDbCircle
 10
327.958554
 20
364.476383
 30
0.0
 40
0.3002496665650527
100
AcDbArc
 50
234.566991
 51
269.981692
  0
ARC
  5
143
330
FB
100
AcDbEntity
  8
0
  6
Continuous
 62
     0
370
    30
100
AcDbCircle
 10
327.958553
 20
381.675887
 30
0.0
 40
0.3002469270369477
100
AcDbArc
 50
90.018142
 51
125.436721
  0
ARC
  5
144
330
FB
100
AcDbEntity
  8
0
  6
Continuous
 62
     0
370
    30
100
AcDbCircle
 10
347.358443
 20
362.426149
 30
0.0
 40
0.3000152343460411
100
AcDbArc
 50
270.002907
 51
359.992835
  0
ARC
  5
145
330
FB
100
AcDbEntity
  8
0
  6
Continuous
 62
     0
370
    30
100
AcDbCircle
 10
347.358443
 20
383.726118
 30
0.0
 40
0.3000152347493407
100
AcDbArc
 50
0.007326
 51
89.997093
  0
ARC
  5
146
330
FB
100
AcDbEntity
  8
0
  6
Continuous
 62
     0
370
    30
100
AcDbCircle
 10
325.49136
 20
325.279211
 30
0.0
 40
20.5
100
AcDbArc
 50
273.877412
 51
284.07736
  0
ARC
  5
147
330
FB
100
AcDbEntity
  8
0
  6
Continuous
 62
     0
370
    30
100
AcDbCircle
 10
325.49136
 20
324.873059
 30
0.0
 40
20.5
100
AcDbArc
 50
59.456113
 51
86.122588
  0
LINE
  5
148
330
FB
100
AcDbEntity
  8
0
  6
Continuous
 62
     0
370
    30
100
AcDbLine
 10
316.684514
 20
347.276135
 30
0.0
 11
326.877611
 21
347.276135
 31
0.0
  0
SPLINE
  5
149
330
FB
100
AcDbEntity
  8
0
  6
Continuous
 62
     0
370
    30
100
AcDbSpline
210
0.0
220
0.0
230
1.0
 70
     8
 71
     3
 72
    16
 73
    12
 74
     0
 42
0.000000001
 43
0.0
 40
0.0
 40
0.0
 40
0.0
 40
0.0
 40
0.6488601671129173
 40
1.515291553825367
 40
2.60688969614931
 40
3.263983480204787
 40
3.700305068000092
 40
4.349732050633826
 40
4.706658187040001
 40
4.884931716786864
 40
5.06333491935715
 40
5.06333491935715
 40
5.06333491935715
 40
5.06333491935715
 10
339.4140683767497
 20
303.0793088779675
 30
0.0
 10
339.6303358473322
 20
303.0793088679982
 30
0.0
 10
340.1354188783828
 20
303.0653469731525
 30
0.0
 10
341.0019874969271
 20
302.9927693236799
 30
0.0
 10
341.8606735926561
 20
302.8359124103795
 30
0.0
 10
342.5659249050724
 20
302.6530118221642
 30
0.0
 10
343.1210607295889
 20
302.4813859913321
 30
0.0
 10
343.5728604742123
 20
302.3157871130906
 30
0.0
 10
343.9346484475096
 20
302.1571906335129
 30
0.0
 10
344.148591232155
 20
302.0532065051016
 30
0.0
 10
344.2548847231585
 20
301.9998898113186
 30
0.0
 10
344.307324606361
 20
301.9718459312046
 30
0.0
  0
LINE
  5
14A
330
FB
100
AcDbEntity
  8
0
  6
Continuous
 62
     0
370
    30
100
AcDbLine
 10
338.031061
 20
347.079309
 30
0.0
 11
360.009484
 21
347.079308
 31
0.0
  0
ARC
  5
14B
330
FB
100
AcDbEntity
  8
0
  6
Continuous
 62
     0
370
    30
100
AcDbCircle
 10
360.009423
 20
345.579204
 30
0.0
 40
1.50003367684954
100
AcDbArc
 50
0.003411
 51
89.997884
  0
ARC
  5
14C
330
FB
100
AcDbEntity
  8
0
  6
Continuous
 62
     0
370
    30
100
AcDbCircle
 10
360.009456
 20
240.578584
 30
0.0
 40
1.500000723680884
100
AcDbArc
 50
264.154863
 51
0.000426
  0
LINE
  5
14D
330
FB
100
AcDbEntity
  8
0
  6
Continuous
 62
     0
370
    30
100
AcDbLine
 10
361.509097
 20
240.593451
 30
0.0
 11
361.509097
 21
345.579259
 31
0.0
  0
LINE
  5
14E
330
FB
100
AcDbEntity
  8
0
  6
Continuous
 62
     0
370
    30
100
AcDbLine
 10
349.572303
 20
293.745354
 30
0.0
 11
349.558274
 21
293.980231
 31
0.0
  0
LINE
  5
14F
330
FB
100
AcDbEntity
  8
0
  6
Continuous
 62
     0
370
    30
100
AcDbLine
 10
351.777291
 20
247.431668
 30
0.0
 11
351.782121
 21
247.336261
 31
0.0
  0
ENDBLK
  5
151
330
FB
100
AcDbEntity
  8
0
100
AcDbBlockEnd
  0
BLOCK
  5
1A9
330
153
100
AcDbEntity
  8
0
100
AcDbBlockBegin
  2
b
 70
     0
 10
70.058914
 20
0.0
 30
0.0
  3
b
  1

  0
SPLINE
  5
154
330
153
100
AcDbEntity
  8
0
  6
Continuous
 62
     0
370
    30
100
AcDbSpline
210
0.0
220
0.0
230
1.0
 70
    12
 71
     2
 72
     8
 73
     5
 74
     0
 42
0.000000001
 43
0.0
 40
0.6234333585667837
 40
0.6234333585667837
 40
0.6234333585667837
 40
0.666666666666667
 40
0.666666666666667
 40
1.0
 40
1.0
 40
1.0
 10
5.651280424409605
 20
383.7261336146042
 30
0.0
 41
0.9697544701944063
 10
5.651280393686381
 20
383.7261336149417
 30
0.0
 41
0.9826235050127656
 10
5.651280363229631
 20
383.6337622704281
 30
0.0
 41
1.0
 10
5.651280096789066
 20
382.8256828264119
 30
0.0
 41
0.866025403784439
 10
5.651279994158756
 20
377.1428287824524
 30
0.0
 41
1.0
  0
LINE
  5
155
330
153
100
AcDbEntity
  8
0
  6
Continuous
 62
     0
370
    30
100
AcDbLine
 10
5.65128
 20
377.142829
 30
0.0
 11
5.65128
 21
362.426134
 31
0.0
  0
LINE
  5
156
330
153
100
AcDbEntity
  8
0
  6
Continuous
 62
     0
370
     0
100
AcDbLine
 10
5.95128
 20
384.026129
 30
0.0
 11
5.95128
 21
377.257384
 31
0.0
  0
LINE
  5
157
330
153
100
AcDbEntity
  8
0
  6
Continuous
 62
     0
370
     0
100
AcDbLine
 10
5.95128
 20
377.257384
 30
0.0
 11
5.95128
 21
362.126138
 31
0.0
  0
SPLINE
  5
158
330
153
100
AcDbEntity
  8
0
  6
Continuous
 62
     0
370
     0
100
AcDbSpline
210
0.0
220
0.0
230
1.0
 70
     8
 71
     3
 72
    17
 73
    13
 74
     0
 42
0.000000001
 43
0.0
 40
10.32805059928333
 40
10.32805059928333
 40
10.32805059928333
 40
10.32805059928333
 40
12.04939237312217
 40
13.77073414071106
 40
15.49207590829995
 40
17.21341767588882
 40
18.93475944347771
 40
20.65610121106659
 40
22.37744297865547
 40
24.09878474624435
 40
25.82012651383323
 40
27.5414682814222
 40
27.5414682814222
 40
27.5414682814222
 40
27.5414682814222
 10
25.35128040283985
 20
364.1761372525133
 30
0.0
 10
25.35128037737803
 20
364.1756117617769
 30
0.0
 10
25.35128032644982
 20
364.2893018813648
 30
0.0
 10
25.35128025297971
 20
364.7975109572421
 30
0.0
 10
25.35128018525512
 20
365.623862623652
 30
0.0
 10
25.3512801258787
 20
366.7366009486414
 30
0.0
 10
25.35128007713224
 20
368.0929639422509
 30
0.0
 10
25.35128004088907
 20
369.6408273567724
 30
0.0
 10
25.35128001854196
 20
371.3207076634824
 30
0.0
 10
25.35128001094969
 20
373.0680480058236
 30
0.0
 10
25.35128001840405
 20
374.815699073947
 30
0.0
 10
25.35128003321373
 20
375.9362327696539
 30
0.0
 10
25.35128004293631
 20
376.474592493029
 30
0.0
  0
LINE
  5
159
330
153
100
AcDbEntity
  8
0
  6
Continuous
 62
     0
370
     0
100
AcDbLine
 10
25.35128
 20
376.474592
 30
0.0
 11
25.35128
 21
381.97613
 31
0.0
  0
LINE
  5
15A
330
153
100
AcDbEntity
  8
0
  6
Continuous
 62
     0
370
     0
100
AcDbLine
 10
13.053887
 20
362.126134
 30
0.0
 11
13.053887
 21
377.257384
 31
0.0
  0
LINE
  5
15B
330
153
100
AcDbEntity
  8
0
  6
Continuous
 62
     0
370
     0
100
AcDbLine
 10
13.053887
 20
377.257384
 30
0.0
 11
13.053887
 21
384.026134
 31
0.0
  0
SPLINE
  5
15C
330
153
100
AcDbEntity
  8
0
  6
Continuous
 62
     0
370
     0
100
AcDbSpline
210
0.0
220
0.0
230
1.0
 70
     8
 71
     3
 72
    16
 73
    12
 74
     0
 42
0.000000001
 43
0.0
 40
12.5234989309831
 40
12.5234989309831
 40
12.5234989309831
 40
12.5234989309831
 40
14.31256813192214
 40
16.69799542440829
 40
19.08342267302632
 40
21.46884850520087
 40
23.85427371430498
 40
26.23969798909771
 40
28.62512826061312
 40
31.01056519575693
 40
33.39599714928826
 40
33.39599714928826
 40
33.39599714928826
 40
33.39599714928826
 10
13.35387561501996
 20
362.4235787526326
 30
0.0
 10
13.3538756029041
 20
362.4230891217163
 30
0.0
 10
13.35387556249438
 20
362.5392285203851
 30
0.0
 10
13.35387535548936
 20
363.147731354345
 30
0.0
 10
13.35387539869031
 20
364.3094588541654
 30
0.0
 10
13.35387522702081
 20
365.9107555576163
 30
0.0
 10
13.35387508324721
 20
367.8713759510434
 30
0.0
 10
13.35387532867578
 20
370.0929066024736
 30
0.0
 10
13.3538745188059
 20
372.4643093603873
 30
0.0
 10
13.35387461115553
 20
374.86529285713
 30
0.0
 10
13.35387519462496
 20
376.4089368211344
 30
0.0
 10
13.35387520789683
 20
377.143828448962
 30
0.0
  0
LINE
  5
15D
330
153
100
AcDbEntity
  8
0
  6
Continuous
 62
     0
370
     0
100
AcDbLine
 10
13.353875
 20
377.143828
 30
0.0
 11
13.353876
 21
383.728689
 31
0.0
  0
LINE
  5
15E
330
153
100
AcDbEntity
  8
0
  6
Continuous
 62
     0
370
     0
100
AcDbLine
 10
13.36052
 20
382.967407
 30
0.0
 11
13.360519
 21
376.85311
 31
0.0
  0
LINE
  5
15F
330
153
100
AcDbEntity
  8
0
  6
Continuous
 62
     0
370
     0
100
AcDbLine
 10
13.360519
 20
376.85311
 30
0.0
 11
13.36052
 21
363.18486
 31
0.0
  0
LINE
  5
160
330
153
100
AcDbEntity
  8
0
  6
Continuous
 62
     0
370
     0
100
AcDbLine
 10
14.360482
 20
381.976134
 30
0.0
 11
14.360482
 21
376.474592
 31
0.0
  0
LINE
  5
161
330
153
100
AcDbEntity
  8
0
  6
Continuous
 62
     0
370
     0
100
AcDbLine
 10
14.360482
 20
376.474592
 30
0.0
 11
14.360482
 21
364.176134
 31
0.0
  0
LINE
  5
162
330
153
100
AcDbEntity
  8
0
  6
Continuous
 62
     0
370
    30
100
AcDbLine
 10
25.525225
 20
363.076135
 30
0.0
 11
25.525225
 21
383.076135
 31
0.0
  0
LINE
  5
163
330
153
100
AcDbEntity
  8
0
  6
Continuous
 62
     0
370
    30
100
AcDbLine
 10
25.525225
 20
383.076135
 30
0.0
 11
26.525225
 21
384.076135
 31
0.0
  0
LINE
  5
164
330
153
100
AcDbEntity
  8
0
  6
Continuous
 62
     0
370
    30
100
AcDbLine
 10
26.525225
 20
362.076135
 30
0.0
 11
26.525225
 21
384.076135
 31
0.0
  0
LINE
  5
165
330
153
100
AcDbEntity
  8
0
  6
Continuous
 62
     0
370
    30
100
AcDbLine
 10
36.625225
 20
270.576135
 30
0.0
 11
36.625225
 21
409.575934
 31
0.0
  0
LINE
  5
166
330
153
100
AcDbEntity
  8
0
  6
Continuous
 62
     0
370
    30
100
AcDbLine
 10
36.625225
 20
270.576135
 30
0.0
 11
37.125225
 21
270.076135
 31
0.0
  0
LINE
  5
167
330
153
100
AcDbEntity
  8
0
  6
Continuous
 62
     0
370
    30
100
AcDbLine
 10
37.125225
 20
270.076135
 30
0.0
 11
37.125225
 21
410.075934
 31
0.0
  0
LINE
  5
168
330
153
100
AcDbEntity
  8
0
  6
Continuous
 62
     0
370
    30
100
AcDbLine
 10
37.125225
 20
270.076135
 30
0.0
 11
47.125214
 21
270.076135
 31
0.0
  0
LINE
  5
169
330
153
100
AcDbEntity
  8
0
  6
Continuous
 62
     0
370
    30
100
AcDbLine
 10
47.125214
 20
270.076135
 30
0.0
 11
47.125214
 21
410.075934
 31
0.0
  0
LINE
  5
16A
330
153
100
AcDbEntity
  8
0
  6
Continuous
 62
     0
370
    30
100
AcDbLine
 10
36.625225
 20
384.076135
 30
0.0
 11
26.525225
 21
384.076135
 31
0.0
  0
LINE
  5
16B
330
153
100
AcDbEntity
  8
0
  6
Continuous
 62
     0
370
    30
100
AcDbLine
 10
26.432127
 20
347.276135
 30
0.0
 11
26.432127
 21
302.876135
 31
0.0
  0
LINE
  5
16C
330
153
100
AcDbEntity
  8
0
  6
Continuous
 62
     0
370
    30
100
AcDbLine
 10
26.432127
 20
302.876135
 30
0.0
 11
36.625225
 21
302.876135
 31
0.0
  0
SPLINE
  5
16D
330
153
100
AcDbEntity
  8
0
  6
Continuous
 62
     0
370
    30
100
AcDbSpline
210
0.0
220
0.0
230
1.0
 70
     8
 71
     3
 72
    14
 73
    10
 74
     0
 42
0.000000001
 43
0.0
 40
0.0
 40
0.0
 40
0.0
 40
0.0
 40
0.9049184552948772
 40
1.801492942412084
 40
2.695865772912382
 40
3.591289155230797
 40
4.490530719158833
 40
5.397766166276412
 40
6.323339661140201
 40
6.323339661140201
 40
6.323339661140201
 40
6.323339661140201
 10
1.532447313958201
 20
247.431667610721
 30
0.0
 10
1.517362149872397
 20
247.1304056266009
 30
0.0
 10
1.477198262669333
 20
246.5310112716441
 30
0.0
 10
1.367264754182031
 20
245.6385986689479
 30
0.0
 10
1.1998734969374
 20
244.758124294781
 30
0.0
 10
0.9601473923735
 20
243.8931362852416
 30
0.0
 10
0.6303961065300285
 20
243.0528261560518
 30
0.0
 10
0.1888573554144841
 20
242.2529393859366
 30
0.0
 10
-0.1919281729898614
 20
241.7701791493062
 30
0.0
 10
-0.4051593751128024
 20
241.547199815093
 30
0.0
  0
SPLINE
  5
16E
330
153
100
AcDbEntity
  8
0
  6
Continuous
 62
     0
370
     0
100
AcDbSpline
210
0.0
220
0.0
230
1.0
 70
     8
 71
     3
 72
    17
 73
    13
 74
     0
 42
0.000000001
 43
0.0
 40
0.0
 40
0.0
 40
0.0
 40
0.0
 40
0.4726244886823568
 40
0.9627706082521101
 40
1.478041065759224
 40
2.008566755115204
 40
2.541783168462975
 40
3.074741430963043
 40
4.137919383804777
 40
5.196549339213012
 40
6.247062749096754
 40
7.289625586379314
 40
7.289625586379314
 40
7.289625586379314
 40
7.289625586379314
 10
-0.4051599990569343
 20
241.5471991603556
 30
0.0
 10
-0.4043559351063379
 20
241.5480398735696
 30
0.0
 10
-0.405014175816035
 20
241.5710087341769
 30
0.0
 10
-0.3979771646743302
 20
241.7089205189825
 30
0.0
 10
-0.389515385646007
 20
241.966578804311
 30
0.0
 10
-0.3732428004370973
 20
242.338634542407
 30
0.0
 10
-0.3571068359232044
 20
242.7840451745422
 30
0.0
 10
-0.3300969678294337
 20
243.4307422448879
 30
0.0
 10
-0.2973188111371314
 20
244.2903417313312
 30
0.0
 10
-0.2554899032563611
 20
245.3386071529919
 30
0.0
 10
-0.2148345700245216
 20
246.3873503902203
 30
0.0
 10
-0.1856101735324103
 20
247.0844096278528
 30
0.0
 10
-0.1731457728708961
 20
247.4316716354217
 30
0.0
  0
LINE
  5
16F
330
153
100
AcDbEntity
  8
0
  6
Continuous
 62
     0
370
     0
100
AcDbLine
 10
-0.173146
 20
247.431672
 30
0.0
 11
1.532447
 21
247.431668
 31
0.0
  0
LINE
  5
170
330
153
100
AcDbEntity
  8
0
  6
Continuous
 62
     0
370
     0
100
AcDbLine
 10
-0.173148
 20
247.431672
 30
0.0
 11
1.689945
 21
294.684421
 31
0.0
  0
SPLINE
  5
171
330
153
100
AcDbEntity
  8
0
  6
Continuous
 62
     0
370
     0
100
AcDbSpline
210
0.0
220
0.0
230
1.0
 70
     8
 71
     3
 72
    18
 73
    14
 74
     0
 42
0.000000001
 43
0.0
 40
0.0
 40
0.0
 40
0.0
 40
0.0
 40
0.5886838453317622
 40
0.8845321192462456
 40
1.181659349571153
 40
1.481125556011782
 40
1.782423695282216
 40
2.083792641279629
 40
2.385049514986653
 40
2.692329625376379
 40
3.006290732232936
 40
3.622419217598221
 40
4.21106197224687
 40
4.21106197224687
 40
4.21106197224687
 40
4.21106197224687
 10
1.689944639833527
 20
294.6844206894872
 30
0.0
 10
1.854410477306601
 20
294.6698685823224
 30
0.0
 10
2.094671540443869
 20
294.6425134953074
 30
0.0
 10
2.394457882485753
 20
294.5847147867779
 30
0.0
 10
2.609206475613291
 20
294.5338949274822
 30
0.0
 10
2.810091974390758
 20
294.4664923262525
 30
0.0
 10
2.995879623754746
 20
294.3900075605253
 30
0.0
 10
3.165690367198664
 20
294.3129426566633
 30
0.0
 10
3.319359200617555
 20
294.2434020511087
 30
0.0
 10
3.448933544143756
 20
294.1429774842672
 30
0.0
 10
3.587037415415764
 20
293.9801257890612
 30
0.0
 10
3.704494219836207
 20
293.7959824179013
 30
0.0
 10
3.737458210719112
 20
293.7458489484165
 30
0.0
 10
3.737434617929125
 20
293.7453545148032
 30
0.0
  0
LINE
  5
172
330
153
100
AcDbEntity
  8
0
  6
Continuous
 62
     0
370
    30
100
AcDbLine
 10
3.737435
 20
293.745355
 30
0.0
 11
1.532461
 21
247.431667
 31
0.0
  0
ARC
  5
173
330
153
100
AcDbEntity
  8
0
  6
Continuous
 62
     0
370
    30
100
AcDbCircle
 10
13.529445
 20
293.276486
 30
0.0
 40
9.803229403345654
100
AcDbArc
 50
117.50266
 51
177.258611
  0
SPLINE
  5
174
330
153
100
AcDbEntity
  8
0
  6
Continuous
 62
     0
370
     0
100
AcDbSpline
210
0.0
220
0.0
230
1.0
 70
     8
 71
     3
 72
    13
 73
     9
 74
     0
 42
0.000000001
 43
0.0
 40
0.0
 40
0.0
 40
0.0
 40
0.0
 40
1.77909413409512
 40
3.558188268038661
 40
7.102732081090538
 40
10.64727589353769
 40
12.42637002672335
 40
14.20546415975742
 40
14.20546415975742
 40
14.20546415975742
 40
14.20546415975742
 10
1.689944639833513
 20
294.6844206894872
 30
0.0
 10
1.805593103353061
 20
295.2399742108794
 30
0.0
 10
2.084154470369015
 20
296.3506095781962
 30
0.0
 10
2.812385105298915
 20
298.5024815624366
 30
0.0
 10
4.023575398234058
 20
300.9985602800752
 30
0.0
 10
5.522894001240601
 20
302.9861945289305
 30
0.0
 10
6.805251316652324
 20
304.1602290843856
 30
0.0
 10
7.463964951634011
 20
304.6000302736796
 30
0.0
 10
7.792696263935973
 20
304.7795679987433
 30
0.0
  0
SPLINE
  5
175
330
153
100
AcDbEntity
  8
0
  6
Continuous
 62
     0
370
     0
100
AcDbSpline
210
0.0
220
0.0
230
1.0
 70
     8
 71
     3
 72
    20
 73
    16
 74
     0
 42
0.000000001
 43
0.0
 40
0.0
 40
0.0
 40
0.0
 40
0.0
 40
0.247274885007831
 40
0.4913972686932581
 40
0.970375910186371
 40
1.89025622491184
 40
2.331732890782868
 40
2.761110491008481
 40
2.970845753849009
 40
3.175948138499253
 40
3.576264963288304
 40
3.968485993400146
 40
4.353331183781302
 40
5.094861437606909
 40
5.619236185892031
 40
5.619236185892031
 40
5.619236185892031
 40
5.619236185892031
 10
7.792696263935973
 20
304.7795679987433
 30
0.0
 10
7.893222423150874
 20
304.7530747466712
 30
0.0
 10
8.09104693918885
 20
304.7004627442856
 30
0.0
 10
8.480828013900627
 20
304.5948343720368
 30
0.0
 10
9.133471650179608
 20
304.4132684282603
 30
0.0
 10
9.848136320613548
 20
304.2050208097403
 30
0.0
 10
10.51706784873802
 20
304.0035622979742
 30
0.0
 10
10.9086814712986
 20
303.8838711617084
 30
0.0
 10
11.20538311374299
 20
303.7921491002475
 30
0.0
 10
11.47880451375799
 20
303.7035513081403
 30
0.0
 10
11.79534195733228
 20
303.597762079487
 30
0.0
 10
12.15425956523212
 20
303.4822098310957
 30
0.0
 10
12.59560514293145
 20
303.3471662536904
 30
0.0
 10
13.02557856333753
 20
303.2239849073385
 30
0.0
 10
13.26014201269223
 20
303.1566196030119
 30
0.0
 10
13.33610099069431
 20
303.1347008793393
 30
0.0
  0
SPLINE
  5
176
330
153
100
AcDbEntity
  8
0
  6
Continuous
 62
     0
370
     0
100
AcDbSpline
210
0.0
220
0.0
230
1.0
 70
     8
 71
     3
 72
    18
 73
    14
 74
     0
 42
0.000000001
 43
0.0
 40
0.0
 40
0.0
 40
0.0
 40
0.0
 40
0.6770372965134648
 40
1.393847088312089
 40
1.786669397060051
 40
2.209049071396433
 40
2.690457331473354
 40
3.305641855231371
 40
4.064000159642917
 40
4.914388930957124
 40
5.789419118207619
 40
6.673785693074803
 40
8.459005372701752
 40
8.459005372701752
 40
8.459005372701752
 40
8.459005372701752
 10
-8.199357272686882
 20
240.5785839603331
 30
0.0
 10
-8.199297558589407
 20
240.579642592893
 30
0.0
 10
-8.196355957565629
 20
240.6347670933999
 30
0.0
 10
-8.185905978685923
 20
240.8584185516289
 30
0.0
 10
-8.174557136638839
 20
241.1480843283959
 30
0.0
 10
-8.16374558307615
 20
241.4265317319047
 30
0.0
 10
-8.151126063409649
 20
241.8191056684136
 30
0.0
 10
-8.139865011006862
 20
242.3894347143804
 30
0.0
 10
-8.131615129886455
 20
243.1124577107365
 30
0.0
 10
-8.126360911238379
 20
243.9344426428883
 30
0.0
 10
-8.122508386106063
 20
244.8011141347777
 30
0.0
 10
-8.117985115364178
 20
245.9795751420208
 30
0.0
 10
-8.115947473634819
 20
246.8689445946376
 30
0.0
 10
-8.11516528676188
 20
247.4638439151508
 30
0.0
  0
ARC
  5
177
330
153
100
AcDbEntity
  8
0
  6
Continuous
 62
     0
370
     0
100
AcDbCircle
 10
78997.84213
 20
150.321317
 30
0.0
 40
79006.01701685444
100
AcDbArc
 50
179.895074
 51
179.929551
  0
SPLINE
  5
178
330
153
100
AcDbEntity
  8
0
  6
Continuous
 62
     0
370
     0
100
AcDbSpline
210
0.0
220
0.0
230
1.0
 70
     8
 71
     3
 72
    14
 73
    10
 74
     0
 42
0.000000001
 43
0.0
 40
0.0
 40
0.0
 40
0.0
 40
0.0
 40
3.351074094330854
 40
6.122432219086837
 40
8.43879038255608
 40
10.45632617913405
 40
12.27572296654524
 40
13.95495729661453
 40
15.53190000898418
 40
15.53190000898418
 40
15.53190000898418
 40
15.53190000898418
 10
-8.042410238583102
 20
295.0047014289507
 30
0.0
 10
-8.040498946632113
 20
296.1214302418334
 30
0.0
 10
-8.020647996128346
 20
298.1637350383052
 30
0.0
 10
-7.941223083265072
 20
300.8351915712883
 30
0.0
 10
-7.822386149157708
 20
302.9298236040216
 30
0.0
 10
-7.667612056531965
 20
304.5899814768482
 30
0.0
 10
-7.478653346293612
 20
305.9378428287338
 30
0.0
 10
-7.255085373296424
 20
307.0436957839236
 30
0.0
 10
-7.07901555866323
 20
307.6657652848704
 30
0.0
 10
-6.985743792015086
 20
307.9445115107063
 30
0.0
  0
SPLINE
  5
179
330
153
100
AcDbEntity
  8
0
  6
Continuous
 62
     0
370
     0
100
AcDbSpline
210
0.0
220
0.0
230
1.0
 70
     8
 71
     3
 72
    20
 73
    16
 74
     0
 42
0.000000001
 43
0.0
 40
0.0
 40
0.0
 40
0.0
 40
0.0
 40
6.56131549463748
 40
10.56837088364783
 40
15.6261432361097
 40
18.80297789239336
 40
22.27253870460704
 40
28.1824417941173
 40
30.54140454465704
 40
32.64834952045916
 40
36.34887581274038
 40
42.6221346360555
 40
48.17892770478821
 40
53.44913729782306
 40
53.44928683787876
 40
53.44928683787876
 40
53.44928683787876
 40
53.44928683787876
 10
-6.985743815198447
 20
307.9445116878205
 30
0.0
 10
-6.597654230071669
 20
309.1042677648188
 30
0.0
 10
-5.881952924708031
 20
311.4368408973529
 30
0.0
 10
-4.944223725804875
 20
315.7029432655064
 30
0.0
 10
-4.40189182169604
 20
319.516895915918
 30
0.0
 10
-4.154411865746098
 20
323.3717642342222
 30
0.0
 10
-4.148671401210521
 20
327.577895004355
 30
0.0
 10
-4.493523044048885
 20
331.446111735554
 30
0.0
 10
-5.001323135300936
 20
334.5492379529458
 30
0.0
 10
-5.460686875152348
 20
336.8529536984394
 30
0.0
 10
-6.228968207593653
 20
339.9300536187567
 30
0.0
 10
-7.2512936038124
 20
343.0523208729505
 30
0.0
 10
-8.028897982447404
 20
345.1317719818284
 30
0.0
 10
-8.198860850102164
 20
345.5791330200796
 30
0.0
 10
-8.199356932216453
 20
345.5792644419905
 30
0.0
 10
-8.199356946225976
 20
345.5792644455442
 30
0.0
  0
SPLINE
  5
17A
330
153
100
AcDbEntity
  8
0
  6
Continuous
 62
     0
370
     0
100
AcDbSpline
210
0.0
220
0.0
230
1.0
 70
     8
 71
     3
 72
    20
 73
    16
 74
     0
 42
0.000000001
 43
0.0
 40
0.0
 40
0.0
 40
0.0
 40
0.0
 40
0.2854427463314906
 40
0.5761515093445286
 40
1.184437173306685
 40
1.834163980773667
 40
2.501939318582465
 40
3.861818999841592
 40
5.260655509517038
 40
6.699945680817458
 40
8.186371515568206
 40
9.699688671990046
 40
10.46160013442681
 40
10.84500370109371
 40
10.87851231782144
 40
10.87851231782144
 40
10.87851231782144
 40
10.87851231782144
 10
1.689944639833527
 20
294.6844206894872
 30
0.0
 10
1.639489913452906
 20
294.7034406690914
 30
0.0
 10
1.53671757302925
 20
294.7401629535545
 30
0.0
 10
1.317544630010389
 20
294.8109982215077
 30
0.0
 10
1.006455678636911
 20
294.8901710355827
 30
0.0
 10
0.5632145717858776
 20
294.9641312047253
 30
0.0
 10
-0.0680566628662973
 20
295.0525578539863
 30
0.0
 10
-0.8905915318435689
 20
295.1394578899807
 30
0.0
 10
-1.937923000425286
 20
295.1955448664926
 30
0.0
 10
-3.047876322887333
 20
295.2045944991538
 30
0.0
 10
-4.239552034750147
 20
295.1638678128853
 30
0.0
 10
-5.26278065124653
 20
295.0912890789243
 30
0.0
 10
-5.983539926173023
 20
295.0200413703789
 30
0.0
 10
-6.3059350247879
 20
294.9837835157132
 30
0.0
 10
-6.419780557991544
 20
294.9704307826299
 30
0.0
 10
-6.428929698346977
 20
294.9693541423625
 30
0.0
  0
SPLINE
  5
17B
330
153
100
AcDbEntity
  8
0
  6
Continuous
 62
     0
370
     0
100
AcDbSpline
210
0.0
220
0.0
230
1.0
 70
     8
 71
     3
 72
    14
 73
    10
 74
     0
 42
0.000000001
 43
0.0
 40
0.0
 40
0.0
 40
0.0
 40
0.0
 40
1.980492681750932
 40
3.968975245909421
 40
5.962432643341041
 40
7.960863071161583
 40
9.96281716779341
 40
11.96510822825302
 40
13.95997198812722
 40
13.95997198812722
 40
13.95997198812722
 40
13.95997198812722
 10
-6.428929698346963
 20
294.9693541423625
 30
0.0
 10
-6.419379670050915
 20
295.6292821329822
 30
0.0
 10
-6.398586996933972
 20
296.9514496798232
 30
0.0
 10
-6.355247621170761
 20
298.8916086302459
 30
0.0
 10
-6.292197928405244
 20
300.7558182615485
 30
0.0
 10
-6.195487158788012
 20
302.5069236722605
 30
0.0
 10
-6.048047118033423
 20
304.1100633718136
 30
0.0
 10
-5.831378566050518
 20
305.5279257601835
 30
0.0
 10
-5.632809930260493
 20
306.3311415237009
 30
0.0
 10
-5.518484347560872
 20
306.690743957575
 30
0.0
  0
SPLINE
  5
17C
330
153
100
AcDbEntity
  8
0
  6
Continuous
 62
     0
370
     0
100
AcDbSpline
210
0.0
220
0.0
230
1.0
 70
     8
 71
     3
 72
    20
 73
    16
 74
     0
 42
0.000000001
 43
0.0
 40
0.1678015079039024
 40
0.1678015079039024
 40
0.1678015079039024
 40
0.1678015079039024
 40
0.38387756056123
 40
0.767281127228131
 40
1.529192589664891
 40
3.042509746086731
 40
4.528935580837479
 40
5.968225752137899
 40
7.367062261813345
 40
8.726941943072472
 40
9.39471728088127
 40
10.04444408834825
 40
10.65272975231041
 40
10.94343851532345
 40
11.2288815839434
 40
11.2288815839434
 40
11.2288815839434
 40
11.2288815839434
 10
-5.518484347560872
 20
306.690743957575
 30
0.0
 10
-5.432487698929805
 20
306.6844374442928
 30
0.0
 10
-5.193992857826231
 20
306.6666609117893
 30
0.0
 10
-4.6536634767441
 20
306.6245911016846
 30
0.0
 10
-3.593042014516783
 20
306.5351251210067
 30
0.0
 10
-2.103210102265052
 20
306.3889600091957
 30
0.0
 10
-0.3452290244349285
 20
306.1854157602029
 30
0.0
 10
1.399519550539935
 20
305.9514587536784
 30
0.0
 10
3.089492576402947
 20
305.6902262987256
 30
0.0
 10
4.464497682916644
 20
305.4499632479109
 30
0.0
 10
5.518678402973237
 20
305.2492915417951
 30
0.0
 10
6.27284402071232
 20
305.0990136858284
 30
0.0
 10
6.919111788016025
 20
304.9666952053553
 30
0.0
 10
7.424401866143633
 20
304.8597657898313
 30
0.0
 10
7.671430437492617
 20
304.8061808636812
 30
0.0
 10
7.792693870792952
 20
304.7795663772375
 30
0.0
  0
LINE
  5
17D
330
153
100
AcDbEntity
  8
0
  6
Continuous
 62
     0
370
     0
100
AcDbLine
 10
-0.173148
 20
247.431672
 30
0.0
 11
-6.478261
 21
247.431677
 31
0.0
  0
ARC
  5
17E
330
153
100
AcDbEntity
  8
0
  6
Continuous
 62
     0
370
     0
100
AcDbCircle
 10
76775.017119
 20
191.668589
 30
0.0
 40
76781.51562948382
100
AcDbArc
 50
179.922915
 51
179.958389
  0
SPLINE
  5
17F
330
153
100
AcDbEntity
  8
0
  6
Continuous
 62
     0
370
    30
100
AcDbSpline
210
0.0
220
0.0
230
1.0
 70
     8
 71
     3
 72
    20
 73
    16
 74
     0
 42
0.000000001
 43
0.0
 40
0.0000000009106379
 40
0.0000000009106379
 40
0.0000000009106379
 40
0.0000000009106379
 40
0.102561273379544
 40
0.205306907478947
 40
0.411351449871904
 40
0.825376571144519
 40
1.657925669854811
 40
2.494983249329872
 40
3.335078435991775
 40
4.176822048481946
 40
5.019673252362157
 40
5.862830051197538
 40
6.284255341919001
 40
6.494932416446599
 40
6.704070057592248
 40
6.704070057592248
 40
6.704070057592248
 40
6.704070057592248
 10
-0.4051569728127191
 20
241.5471975093741
 30
0.0
 10
-0.4296319474206882
 20
241.5218853363108
 30
0.0
 10
-0.4786258922558773
 20
241.4712154896477
 30
0.0
 10
-0.578861792690347
 20
241.3721822363394
 30
0.0
 10
-0.7589279610270125
 20
241.2031463752112
 30
0.0
 10
-1.136376478323754
 20
240.884551655013
 30
0.0
 10
-1.717883600393492
 20
240.4847747729123
 30
0.0
 10
-2.464932634954593
 20
240.0891446235144
 30
0.0
 10
-3.248200585487609
 20
239.7716793737038
 30
0.0
 10
-4.05485003712721
 20
239.5205759195825
 30
0.0
 10
-4.877244331799858
 20
239.3274095632705
 30
0.0
 10
-5.57094585016435
 20
239.2075774882329
 30
0.0
 10
-6.059078425210174
 20
239.1415796714572
 30
0.0
 10
-6.338022269503654
 20
239.1083957448736
 30
0.0
 10
-6.477483918010904
 20
239.0937031952709
 30
0.0
 10
-6.546959511335814
 20
239.0863872594032
 30
0.0
  0
SPLINE
  5
180
330
153
100
AcDbEntity
  8
0
  6
Continuous
 62
     0
370
     0
100
AcDbSpline
210
0.0
220
0.0
230
1.0
 70
     8
 71
     3
 72
    19
 73
    15
 74
     0
 42
0.000000001
 43
0.0
 40
0.0
 40
0.0
 40
0.0
 40
0.0
 40
0.770100923438034
 40
1.537968502136899
 40
2.303298808631458
 40
3.067094279044167
 40
3.831187879342552
 40
4.594256315121038
 40
5.360219037500472
 40
6.121944849088246
 40
6.882558494898632
 40
7.643773707418659
 40
9.170001009433241
 40
10.70191835675889
 40
10.70191835675889
 40
10.70191835675889
 40
10.70191835675889
 10
-6.546959507887394
 20
239.0863872597663
 30
0.0
 10
-6.547470979854296
 20
239.0863334260092
 30
0.0
 10
-6.538285465406631
 20
239.1343992812659
 30
0.0
 10
-6.506525945396547
 20
239.3524204965159
 30
0.0
 10
-6.462160505235474
 20
239.7087087580999
 30
0.0
 10
-6.410069446763089
 20
240.1803422499834
 30
0.0
 10
-6.369660039219511
 20
240.7396573230507
 30
0.0
 10
-6.356341856801293
 20
241.4028904918937
 30
0.0
 10
-6.371097531165333
 20
242.1225353110851
 30
0.0
 10
-6.393888560993986
 20
242.8673113091331
 30
0.0
 10
-6.419453280676407
 20
243.6215064665479
 30
0.0
 10
-6.448812915312857
 20
244.6325504346667
 30
0.0
 10
-6.471392962943554
 20
245.9023227046574
 30
0.0
 10
-6.478425999003434
 20
246.9211560071986
 30
0.0
 10
-6.478269147082159
 20
247.4316770074272
 30
0.0
  0
ARC
  5
181
330
153
100
AcDbEntity
  8
0
  6
Continuous
 62
     0
370
    30
100
AcDbCircle
 10
-6.694232
 20
240.580186
 30
0.0
 40
1.505487282350439
100
AcDbArc
 50
180.060979
 51
211.690417
  0
SPLINE
  5
182
330
153
100
AcDbEntity
  8
0
  6
Continuous
 62
     0
370
     0
100
AcDbSpline
210
0.0
220
0.0
230
1.0
 70
     8
 71
     3
 72
    11
 73
     7
 74
     0
 42
0.000000001
 43
0.0
 40
0.0
 40
0.0
 40
0.0
 40
0.0
 40
0.6188901402975335
 40
1.237773680010924
 40
1.856650619140169
 40
2.475520957685269
 40
2.475520957685269
 40
2.475520957685269
 40
2.475520957685269
 10
-8.115164695044342
 20
247.4638439151508
 30
0.0
 10
-8.104255424512914
 20
247.4595566004734
 30
0.0
 10
-8.000352357161447
 20
247.4508836103159
 30
0.0
 10
-7.623634951794287
 20
247.4400203039691
 30
0.0
 10
-7.087186556796354
 20
247.4329388374257
 30
0.0
 10
-6.677178535388578
 20
247.4315130195516
 30
0.0
 10
-6.478261201283544
 20
247.4316770179512
 30
0.0
  0
SPLINE
  5
183
330
153
100
AcDbEntity
  8
0
  6
Continuous
 62
     0
370
     0
100
AcDbSpline
210
0.0
220
0.0
230
1.0
 70
     8
 71
     3
 72
    11
 73
     7
 74
     0
 42
0.000000001
 43
0.0
 40
0.0
 40
0.0
 40
0.0
 40
0.0
 40
0.5930143785153783
 40
1.186028745946305
 40
1.779043102292777
 40
2.372057447554798
 40
2.372057447554798
 40
2.372057447554798
 40
2.372057447554798
 10
-8.042126312709925
 20
295.0047004978384
 30
0.0
 10
-8.027554095206966
 20
295.0000912874366
 30
0.0
 10
-7.919879029117993
 20
294.9907714973303
 30
0.0
 10
-7.548277424416483
 20
294.9790016335124
 30
0.0
 10
-7.024265489501062
 20
294.9711408104958
 30
0.0
 10
-6.623962491332037
 20
294.9693263807414
 30
0.0
 10
-6.429020650240773
 20
294.9693433148385
 30
0.0
  0
SPLINE
  5
184
330
153
100
AcDbEntity
  8
0
  6
Continuous
 62
     0
370
     0
100
AcDbSpline
210
0.0
220
0.0
230
1.0
 70
     8
 71
     3
 72
    11
 73
     7
 74
     0
 42
0.000000001
 43
0.0
 40
0.0
 40
0.0
 40
0.0
 40
0.0
 40
0.5714883867551164
 40
1.142975828572379
 40
1.714462325451787
 40
2.285947877393339
 40
2.285947877393339
 40
2.285947877393339
 40
2.285947877393339
 10
-6.985266640438226
 20
307.9445109122839
 30
0.0
 10
-6.964802119508334
 20
307.7922531752601
 30
0.0
 10
-6.858054376719096
 20
307.4848721710247
 30
0.0
 10
-6.522578595332021
 20
307.0862394243292
 30
0.0
 10
-6.056217839404866
 20
306.7994835016766
 30
0.0
 10
-5.696611133211263
 20
306.7082377898572
 30
0.0
 10
-5.51848443284841
 20
306.6907451173341
 30
0.0
  0
SPLINE
  5
185
330
153
100
AcDbEntity
  8
0
  6
Continuous
 62
     0
370
     0
100
AcDbSpline
210
0.0
220
0.0
230
1.0
 70
     8
 71
     3
 72
    21
 73
    17
 74
     0
 42
0.000000001
 43
0.0
 40
56.73063592476992
 40
56.73063592476992
 40
56.73063592476992
 40
56.73063592476992
 40
60.738812164035
 40
64.75076830891909
 40
68.76871791331719
 40
72.80327450625964
 40
76.85208732699766
 40
80.91446989423429
 40
84.9879176238427
 40
89.06898950787198
 40
93.15310110820946
 40
97.2351348364054
 40
101.3104330072903
 40
105.3751217418822
 40
109.4270592844747
 40
113.4612718495398
 40
113.4612718495398
 40
113.4612718495398
 40
113.4612718495398
 10
-6.699740054449513
 20
347.0792376213334
 30
0.0
 10
-6.699381408286472
 20
347.0791310453456
 30
0.0
 10
-6.612868346731497
 20
346.8336183163539
 30
0.0
 10
-6.244699147844898
 20
345.7466979648606
 30
0.0
 10
-5.668042766471402
 20
343.985915126681
 30
0.0
 10
-4.963434655134378
 20
341.6135733897607
 30
0.0
 10
-4.232993241707973
 20
338.6943301414591
 30
0.0
 10
-3.567204941188322
 20
335.3070267314575
 30
0.0
 10
-3.053892273818519
 20
331.5466853019879
 30
0.0
 10
-2.762864283794499
 20
327.5367523767021
 30
0.0
 10
-2.736020476809671
 20
323.4284306823411
 30
0.0
 10
-2.977420334237308
 20
319.3864804319558
 30
0.0
 10
-3.451618582702793
 20
315.5662730957712
 30
0.0
 10
-4.093572763461196
 20
312.0967737776614
 30
0.0
 10
-4.819472115323265
 20
309.0804099903587
 30
0.0
 10
-5.295821705072314
 20
307.4189316651061
 30
0.0
 10
-5.518482850090138
 20
306.6907454509151
 30
0.0
  0
LINE
  5
186
330
153
100
AcDbEntity
  8
0
  6
Continuous
 62
     0
370
    30
100
AcDbLine
 10
17.210594
 20
342.936404
 30
0.0
 11
15.278677
 21
347.079309
 31
0.0
  0
LINE
  5
187
330
153
100
AcDbEntity
  8
0
  6
Continuous
 62
     0
370
    30
100
AcDbLine
 10
22.832128
 20
303.079309
 30
0.0
 11
13.89567
 21
303.079309
 31
0.0
  0
LINE
  5
188
330
153
100
AcDbEntity
  8
0
  6
Continuous
 62
     0
370
    30
100
AcDbLine
 10
22.832128
 20
303.079309
 30
0.0
 11
22.832128
 21
317.579307
 31
0.0
  0
ARC
  5
189
330
153
100
AcDbEntity
  8
0
  6
Continuous
 62
     0
370
    30
100
AcDbCircle
 10
-37.172459
 20
317.578294
 30
0.0
 40
60.00458459007597
100
AcDbArc
 50
0.000968
 51
24.999027
  0
ARC
  5
18A
330
153
100
AcDbEntity
  8
0
  6
Continuous
 62
     0
370
     0
100
AcDbCircle
 10
11.252026
 20
279.220705
 30
0.0
 40
24.00462123278898
100
AcDbArc
 50
83.677155
 51
85.018782
  0
SPLINE
  5
18B
330
153
100
AcDbEntity
  8
0
  6
Continuous
 62
     0
370
     0
100
AcDbSpline
210
0.0
220
0.0
230
1.0
 70
     8
 71
     3
 72
    14
 73
    10
 74
     0
 42
0.000000001
 43
0.0
 40
0.0
 40
0.0
 40
0.0
 40
0.0
 40
1.139329060135858
 40
2.08889503459168
 40
2.937309693723849
 40
3.752540388544994
 40
4.574744398373056
 40
5.410692279444844
 40
6.241502908212453
 40
6.241502908212453
 40
6.241502908212453
 40
6.241502908212453
 10
13.33610099069431
 20
303.1347008793393
 30
0.0
 10
13.09642238198207
 20
303.1556268460455
 30
0.0
 10
12.52543442295896
 20
303.1914039132453
 30
0.0
 10
11.55454475517319
 20
303.1415203445833
 30
0.0
 10
10.68511490159805
 20
302.9687005865996
 30
0.0
 10
9.96982787262715
 20
302.6937366832196
 30
0.0
 10
9.432274862104165
 20
302.3650376641145
 30
0.0
 10
9.087008075542336
 20
302.0627534041082
 30
0.0
 10
9.002240535397327
 20
301.9717912861715
 30
0.0
 10
9.002413821661392
 20
301.9718461148968
 30
0.0
  0
SPLINE
  5
18C
330
153
100
AcDbEntity
  8
0
  6
Continuous
 62
     0
370
    30
100
AcDbSpline
210
0.0
220
0.0
230
1.0
 70
     8
 71
     3
 72
    20
 73
    16
 74
     0
 42
0.000000001
 43
0.0
 40
37.25911920195125
 40
37.25911920195125
 40
37.25911920195125
 40
37.25911920195125
 40
40.76743347410005
 40
45.27818091286478
 40
48.64246075310879
 40
52.53773331853132
 40
55.97719957828239
 40
59.52787426685585
 40
63.18955061916076
 40
65.33454873136426
 40
66.65350444429872
 40
68.93174030585774
 40
70.23609284365008
 40
72.90826426073238
 40
74.36697836481673
 40
74.36697836481673
 40
74.36697836481673
 40
74.36697836481673
 10
17.40028072120754
 20
342.5284301894783
 30
0.0
 10
17.40030533125012
 20
342.5283917011712
 30
0.0
 10
17.49811064856184
 20
342.317198845465
 30
0.0
 10
17.94868226738244
 20
341.3392029115396
 30
0.0
 10
18.67623456339112
 20
339.6644082300712
 30
0.0
 10
19.48565969683071
 20
337.604467525907
 30
0.0
 10
20.36096856153043
 20
334.9978255490673
 30
0.0
 10
21.18349794383738
 20
332.0326922999301
 30
0.0
 10
21.80173986667033
 20
329.1358703869352
 30
0.0
 10
22.17935562511271
 20
326.8228519662622
 30
0.0
 10
22.42902360975722
 20
324.9295894615811
 30
0.0
 10
22.59477064683918
 20
323.3010427078486
 30
0.0
 10
22.74575665009689
 20
321.2353242082244
 30
0.0
 10
22.81624083790557
 20
319.4681772293915
 30
0.0
 10
22.83108966816874
 20
318.1703319967677
 30
0.0
 10
22.8319860695772
 20
317.7193593336357
 30
0.0
  0
LINE
  5
18D
330
153
100
AcDbEntity
  8
0
  6
Continuous
 62
     0
370
    30
100
AcDbLine
 10
36.625225
 20
362.076135
 30
0.0
 11
26.525225
 21
362.076135
 31
0.0
  0
LINE
  5
18E
330
153
100
AcDbEntity
  8
0
  6
Continuous
 62
     0
370
    30
100
AcDbLine
 10
37.125225
 20
410.075934
 30
0.0
 11
47.125214
 21
410.075934
 31
0.0
  0
LINE
  5
18F
330
153
100
AcDbEntity
  8
0
  6
Continuous
 62
     0
370
    30
100
AcDbLine
 10
36.625225
 20
409.575934
 30
0.0
 11
37.125225
 21
410.075934
 31
0.0
  0
LINE
  5
190
330
153
100
AcDbEntity
  8
0
  6
Continuous
 62
     0
370
    30
100
AcDbLine
 10
26.525225
 20
362.076135
 30
0.0
 11
25.525225
 21
363.076135
 31
0.0
  0
ARC
  5
191
330
153
100
AcDbEntity
  8
0
  6
Continuous
 62
     0
370
    30
100
AcDbCircle
 10
14.360506
 20
363.176109
 30
0.0
 40
1.000024867145078
100
AcDbArc
 50
90.001412
 51
179.498588
  0
ARC
  5
192
330
153
100
AcDbEntity
  8
0
  6
Continuous
 62
     0
370
    30
100
AcDbCircle
 10
14.360506
 20
382.976158
 30
0.0
 40
1.000024867385015
100
AcDbArc
 50
180.501412
 51
269.998588
  0
LINE
  5
193
330
153
100
AcDbEntity
  8
0
  6
Continuous
 62
     0
370
    30
100
AcDbLine
 10
14.360482
 20
381.976134
 30
0.0
 11
25.35128
 21
381.976134
 31
0.0
  0
LINE
  5
194
330
153
100
AcDbEntity
  8
0
  6
Continuous
 62
     0
370
    30
100
AcDbLine
 10
14.360482
 20
364.176134
 30
0.0
 11
25.35128
 21
364.176134
 31
0.0
  0
LINE
  5
195
330
153
100
AcDbEntity
  8
0
  6
Continuous
 62
     0
370
    30
100
AcDbLine
 10
13.353876
 20
362.423572
 30
0.0
 11
13.36052
 21
363.18486
 31
0.0
  0
LINE
  5
196
330
153
100
AcDbEntity
  8
0
  6
Continuous
 62
     0
370
    30
100
AcDbLine
 10
13.353876
 20
383.728695
 30
0.0
 11
13.36052
 21
382.967407
 31
0.0
  0
ARC
  5
197
330
153
100
AcDbEntity
  8
0
  6
Continuous
 62
     0
370
    30
100
AcDbCircle
 10
13.053872
 20
362.426149
 30
0.0
 40
0.3000150264152381
100
AcDbArc
 50
270.002842
 51
359.49676
  0
ARC
  5
198
330
153
100
AcDbEntity
  8
0
  6
Continuous
 62
     0
370
    30
100
AcDbCircle
 10
13.053872
 20
383.726119
 30
0.0
 40
0.3000150269730087
100
AcDbArc
 50
0.503484
 51
89.997157
  0
LINE
  5
199
330
153
100
AcDbEntity
  8
0
  6
Continuous
 62
     0
370
    30
100
AcDbLine
 10
5.95128
 20
384.026134
 30
0.0
 11
13.053887
 21
384.026134
 31
0.0
  0
LINE
  5
19A
330
153
100
AcDbEntity
  8
0
  6
Continuous
 62
     0
370
    30
100
AcDbLine
 10
5.95128
 20
362.126134
 30
0.0
 11
13.053887
 21
362.126134
 31
0.0
  0
ARC
  5
19B
330
153
100
AcDbEntity
  8
0
  6
Continuous
 62
     0
370
    30
100
AcDbCircle
 10
25.351184
 20
364.476383
 30
0.0
 40
0.3002496665775219
100
AcDbArc
 50
270.018308
 51
305.433009
  0
ARC
  5
19C
330
153
100
AcDbEntity
  8
0
  6
Continuous
 62
     0
370
    30
100
AcDbCircle
 10
25.351185
 20
381.675887
 30
0.0
 40
0.3002469270210663
100
AcDbArc
 50
54.563279
 51
89.981858
  0
ARC
  5
19D
330
153
100
AcDbEntity
  8
0
  6
Continuous
 62
     0
370
    30
100
AcDbCircle
 10
5.951296
 20
362.426149
 30
0.0
 40
0.3000152343483452
100
AcDbArc
 50
180.007165
 51
269.997093
  0
ARC
  5
19E
330
153
100
AcDbEntity
  8
0
  6
Continuous
 62
     0
370
    30
100
AcDbCircle
 10
5.951296
 20
383.726118
 30
0.0
 40
0.3000152347455176
100
AcDbArc
 50
90.002907
 51
179.992674
  0
ARC
  5
19F
330
153
100
AcDbEntity
  8
0
  6
Continuous
 62
     0
370
    30
100
AcDbCircle
 10
27.818378
 20
325.279211
 30
0.0
 40
20.5
100
AcDbArc
 50
255.92264
 51
266.122588
  0
ARC
  5
1A0
330
153
100
AcDbEntity
  8
0
  6
Continuous
 62
     0
370
    30
100
AcDbCircle
 10
27.818378
 20
324.873059
 30
0.0
 40
20.5
100
AcDbArc
 50
93.877412
 51
120.543887
  0
LINE
  5
1A1
330
153
100
AcDbEntity
  8
0
  6
Continuous
 62
     0
370
    30
100
AcDbLine
 10
36.625225
 20
347.276135
 30
0.0
 11
26.432127
 21
347.276135
 31
0.0
  0
SPLINE
  5
1A2
330
153
100
AcDbEntity
  8
0
  6
Continuous
 62
     0
370
    30
100
AcDbSpline
210
0.0
220
0.0
230
1.0
 70
     8
 71
     3
 72
    16
 73
    12
 74
     0
 42
0.000000001
 43
0.0
 40
0.0
 40
0.0
 40
0.0
 40
0.0
 40
0.6488601671129173
 40
1.515291553825367
 40
2.60688969614931
 40
3.263983480204787
 40
3.700305068000092
 40
4.349732050633826
 40
4.706658187040001
 40
4.884931716786864
 40
5.06333491935715
 40
5.06333491935715
 40
5.06333491935715
 40
5.06333491935715
 10
13.89566978680076
 20
303.0793088779675
 30
0.0
 10
13.67940231621944
 20
303.0793088679982
 30
0.0
 10
13.17431928517175
 20
303.0653469731525
 30
0.0
 10
12.30775066663035
 20
302.9927693236799
 30
0.0
 10
11.44906457089724
 20
302.8359124103795
 30
0.0
 10
10.74381325847823
 20
302.6530118221642
 30
0.0
 10
10.1886774339613
 20
302.4813859913321
 30
0.0
 10
9.73687768933349
 20
302.3157871130906
 30
0.0
 10
9.375089716043888
 20
302.1571906335129
 30
0.0
 10
9.161146931417619
 20
302.0532065051016
 30
0.0
 10
9.054853440461102
 20
301.9998898113186
 30
0.0
 10
9.00241355724949
 20
301.9718459312046
 30
0.0
  0
LINE
  5
1A3
330
153
100
AcDbEntity
  8
0
  6
Continuous
 62
     0
370
    30
100
AcDbLine
 10
15.278677
 20
347.079309
 30
0.0
 11
-6.699746
 21
347.079308
 31
0.0
  0
ARC
  5
1A4
330
153
100
AcDbEntity
  8
0
  6
Continuous
 62
     0
370
    30
100
AcDbCircle
 10
-6.699685
 20
345.579204
 30
0.0
 40
1.500033674959205
100
AcDbArc
 50
90.002116
 51
179.996589
  0
SPLINE
  5
1A5
330
153
100
AcDbEntity
  8
0
  6
Continuous
 62
     0
370
    30
100
AcDbSpline
210
0.0
220
0.0
230
1.0
 70
     8
 71
     3
 72
    17
 73
    13
 74
     0
 42
0.000000001
 43
0.0
 40
0.0
 40
0.0
 40
0.0
 40
0.0
 40
0.1972588835251349
 40
0.581983579029471
 40
0.8126946081202211
 40
1.119909377675391
 40
1.259345642073491
 40
1.329061044226006
 40
1.468516972399402
 40
1.538264271969816
 40
1.608027354017424
 40
1.67780922422185
 40
1.67780922422185
 40
1.67780922422185
 40
1.67780922422185
 10
-6.546957197121174
 20
239.0863819868218
 30
0.0
 10
-6.612323704283682
 20
239.0796902906552
 30
0.0
 10
-6.806713408729905
 20
239.0729939142543
 30
0.0
 10
-7.076475618742734
 20
239.1155431799695
 30
0.0
 10
-7.364896983697179
 20
239.2250956477161
 30
0.0
 10
-7.559272683133614
 20
239.342310559962
 30
0.0
 10
-7.69211976697261
 20
239.4520812766999
 30
0.0
 10
-7.776236497777617
 20
239.5322998187657
 30
0.0
 10
-7.839236057320605
 20
239.6008652173492
 30
0.0
 10
-7.896428123926569
 20
239.6742015178191
 30
0.0
 10
-7.939027062043792
 20
239.7294869962776
 30
0.0
 10
-7.959892916799845
 20
239.7718387804289
 30
0.0
 10
-7.975249498534907
 20
239.7893096286249
 30
0.0
  0
LINE
  5
1A6
330
153
100
AcDbEntity
  8
0
  6
Continuous
 62
     0
370
    30
100
AcDbLine
 10
-8.199359
 20
240.578689
 30
0.0
 11
-8.199359
 21
345.579259
 31
0.0
  0
LINE
  5
1A7
330
153
100
AcDbEntity
  8
0
  6
Continuous
 62
     0
370
    30
100
AcDbLine
 10
3.737435
 20
293.745354
 30
0.0
 11
3.751464
 21
293.980231
 31
0.0
  0
LINE
  5
1A8
330
153
100
AcDbEntity
  8
0
  6
Continuous
 62
     0
370
    30
100
AcDbLine
 10
1.532447
 20
247.431668
 30
0.0
 11
1.527618
 21
247.336261
 31
0.0
  0
ENDBLK
  5
1AA
330
153
100
AcDbEntity
  8
0
100
AcDbBlockEnd
  0
BLOCK
  5
1F1
330
1AC
100
AcDbEntity
  8
0
100
AcDbBlockBegin
  2
e
 70
     0
 10
0.0
 20
154.804138
 30
0.0
  3
e
  1

  0
SPLINE
  5
1AD
330
1AC
100
AcDbEntity
  8
0
  6
Continuous
 62
     0
370
    30
100
AcDbSpline
210
0.0
220
0.0
230
1.0
 70
    12
 71
     2
 72
    10
 73
     7
 74
     0
 42
0.000000001
 43
0.0
 40
0.125
 40
0.125
 40
0.125
 40
0.333333333333333
 40
0.333333333333333
 40
0.666666666666667
 40
0.666666666666667
 40
1.0
 40
1.0
 40
1.0
 10
180.7773278140876
 20
90.39650298187108
 30
0.0
 41
0.9371994080239558
 10
180.7701636476233
 20
90.39650282309982
 30
0.0
 41
0.9162658773652744
 10
182.9839498041318
 20
90.39650269722517
 30
0.0
 41
1.0
 10
186.7314920007065
 20
90.39650248414202
 30
0.0
 41
0.866025403784439
 10
192.8269417402679
 20
90.39650251946429
 30
0.0
 41
1.0
 10
198.9223914798294
 20
90.39650255478657
 30
0.0
 41
0.866025403784439
 10
201.2702990228162
 20
90.39650280319199
 30
0.0
 41
1.0
  0
LINE
  5
1AE
330
1AC
100
AcDbEntity
  8
0
  6
Continuous
 62
     0
370
    30
100
AcDbLine
 10
201.270299
 20
90.396503
 30
0.0
 11
202.077307
 21
90.396503
 31
0.0
  0
LINE
  5
1AF
330
1AC
100
AcDbEntity
  8
0
  6
Continuous
 62
     0
370
     0
100
AcDbLine
 10
180.477312
 20
90.696503
 30
0.0
 11
201.547566
 21
90.696503
 31
0.0
  0
LINE
  5
1B0
330
1AC
100
AcDbEntity
  8
0
  6
Continuous
 62
     0
370
     0
100
AcDbLine
 10
201.547566
 20
90.696503
 30
0.0
 11
202.377303
 21
90.696503
 31
0.0
  0
SPLINE
  5
1B1
330
1AC
100
AcDbEntity
  8
0
  6
Continuous
 62
     0
370
     0
100
AcDbSpline
210
0.0
220
0.0
230
1.0
 70
     8
 71
     3
 72
     9
 73
     5
 74
     0
 42
0.000000001
 43
0.0
 40
24.09878474499442
 40
24.09878474499442
 40
24.09878474499442
 40
24.09878474499442
 40
25.82012651383323
 40
27.5414682814222
 40
27.5414682814222
 40
27.5414682814222
 40
27.5414682814222
 10
200.3273034606966
 20
110.0965029593831
 30
0.0
 10
200.3278292695185
 20
110.0965029339213
 30
0.0
 10
200.2141386841375
 20
110.0965028829931
 30
0.0
 10
199.8753327584061
 20
110.0965028340131
 30
0.0
 10
199.6529059908743
 20
110.0965028104806
 30
0.0
  0
LINE
  5
1B2
330
1AC
100
AcDbEntity
  8
0
  6
Continuous
 62
     0
370
     0
100
AcDbLine
 10
199.652906
 20
110.096503
 30
0.0
 11
182.527311
 21
110.096503
 31
0.0
  0
LINE
  5
1B3
330
1AC
100
AcDbEntity
  8
0
  6
Continuous
 62
     0
370
     0
100
AcDbLine
 10
202.377307
 20
97.79911
 30
0.0
 11
201.547566
 21
97.79911
 31
0.0
  0
LINE
  5
1B4
330
1AC
100
AcDbEntity
  8
0
  6
Continuous
 62
     0
370
     0
100
AcDbLine
 10
201.547566
 20
97.79911
 30
0.0
 11
180.477307
 21
97.79911
 31
0.0
  0
SPLINE
  5
1B5
330
1AC
100
AcDbEntity
  8
0
  6
Continuous
 62
     0
370
     0
100
AcDbSpline
210
0.0
220
0.0
230
1.0
 70
     8
 71
     3
 72
     9
 73
     5
 74
     0
 42
0.000000001
 43
0.0
 40
29.22149750562722
 40
29.22149750562722
 40
29.22149750562722
 40
29.22149750562722
 40
31.01056519575693
 40
33.39599714928826
 40
33.39599714928826
 40
33.39599714928826
 40
33.39599714928826
 10
202.0799642109296
 20
98.09909762997921
 30
0.0
 10
202.0805041737911
 20
98.09909756965249
 30
0.0
 10
201.9644475212364
 20
98.09909761458569
 30
0.0
 10
201.5763437890423
 20
98.09909804911527
 30
0.0
 10
201.272718606536
 20
98.09909801699214
 30
0.0
  0
LINE
  5
1B6
330
1AC
100
AcDbEntity
  8
0
  6
Continuous
 62
     0
370
     0
100
AcDbLine
 10
201.272719
 20
98.099098
 30
0.0
 11
180.774678
 21
98.099098
 31
0.0
  0
SPLINE
  5
1B7
330
1AC
100
AcDbEntity
  8
0
  6
Continuous
 62
     0
370
     0
100
AcDbSpline
210
0.0
220
0.0
230
1.0
 70
    12
 71
     2
 72
     8
 73
     5
 74
     0
 42
0.000000001
 43
0.0
 40
0.0648312757852288
 40
0.0648312757852288
 40
0.0648312757852288
 40
0.2500000000000002
 40
0.2500000000000002
 40
0.4999999999999994
 40
0.4999999999999994
 40
0.4999999999999994
 10
181.5360336221946
 20
98.10574234745488
 30
0.0
 41
0.8874847220228581
 10
181.5360335390992
 20
98.10574205827794
 30
0.0
 41
0.7830613453646211
 10
187.6503311309054
 20
98.10574194785593
 30
0.0
 41
1.0
 10
196.7920893523163
 20
98.10574178275907
 30
0.0
 41
0.707106781186548
 10
200.569065308091
 20
98.10574218235801
 30
0.0
 41
1.0
  0
LINE
  5
1B8
330
1AC
100
AcDbEntity
  8
0
  6
Continuous
 62
     0
370
     0
100
AcDbLine
 10
200.569065
 20
98.105742
 30
0.0
 11
201.318581
 21
98.105742
 31
0.0
  0
LINE
  5
1B9
330
1AC
100
AcDbEntity
  8
0
  6
Continuous
 62
     0
370
     0
100
AcDbLine
 10
182.527307
 20
99.105704
 30
0.0
 11
199.652906
 21
99.105704
 31
0.0
  0
LINE
  5
1BA
330
1AC
100
AcDbEntity
  8
0
  6
Continuous
 62
     0
370
     0
100
AcDbLine
 10
199.652906
 20
99.105704
 30
0.0
 11
200.327307
 21
99.105704
 31
0.0
  0
LINE
  5
1BB
330
1AC
100
AcDbEntity
  8
0
  6
Continuous
 62
     0
370
    30
100
AcDbLine
 10
191.427307
 20
110.270447
 30
0.0
 11
181.427307
 21
110.270447
 31
0.0
  0
LINE
  5
1BC
330
1AC
100
AcDbEntity
  8
0
  6
Continuous
 62
     0
370
    30
100
AcDbLine
 10
201.427307
 20
110.270447
 30
0.0
 11
191.427307
 21
110.270447
 31
0.0
  0
LINE
  5
1BD
330
1AC
100
AcDbEntity
  8
0
  6
Continuous
 62
     0
370
    30
100
AcDbLine
 10
191.427307
 20
111.270447
 30
0.0
 11
180.427307
 21
111.270447
 31
0.0
  0
SPLINE
  5
1BE
330
1AC
100
AcDbEntity
  8
0
  6
Continuous
 62
     0
370
    30
100
AcDbSpline
210
0.0
220
0.0
230
1.0
 70
     8
 71
     3
 72
    15
 73
    11
 74
     0
 42
0.000000001
 43
0.0
 40
49.40063872609853
 40
49.40063872609853
 40
49.40063872609853
 40
49.40063872609853
 40
51.4589986730193
 40
53.51735861994008
 40
55.57571856686084
 40
57.63407851378163
 40
59.69243846070242
 40
61.75079840762317
 40
63.80915835454392
 40
65.86751830146468
 40
65.86751830146468
 40
65.86751830146468
 40
65.86751830146468
 10
202.4273071289062
 20
111.2704472115651
 30
0.0
 10
202.4273071594632
 20
111.2704471800954
 30
0.0
 10
202.2854910628068
 20
111.270447117156
 30
0.0
 10
201.6554918210319
 20
111.2704470263751
 30
0.0
 10
200.6324335722478
 20
111.2704469427108
 30
0.0
 10
199.2556110753822
 20
111.2704468693786
 30
0.0
 10
197.578012457973
 20
111.2704468091963
 30
0.0
 10
195.6638172454572
 20
111.2704467644769
 30
0.0
 10
193.5876678697315
 20
111.2704467369388
 30
0.0
 10
192.146099491323
 20
111.2704467307398
 30
0.0
 10
191.4273071289062
 20
111.2704467307398
 30
0.0
  0
LINE
  5
1BF
330
1AC
100
AcDbEntity
  8
0
  6
Continuous
 62
     0
370
    30
100
AcDbLine
 10
260.927207
 20
121.370449
 30
0.0
 11
191.427307
 21
121.370446
 31
0.0
  0
LINE
  5
1C0
330
1AC
100
AcDbEntity
  8
0
  6
Continuous
 62
     0
370
    30
100
AcDbLine
 10
191.427307
 20
121.370446
 30
0.0
 11
121.927407
 21
121.370449
 31
0.0
  0
LINE
  5
1C1
330
1AC
100
AcDbEntity
  8
0
  6
Continuous
 62
     0
370
    30
100
AcDbLine
 10
261.427207
 20
121.870449
 30
0.0
 11
191.427307
 21
121.870446
 31
0.0
  0
LINE
  5
1C2
330
1AC
100
AcDbEntity
  8
0
  6
Continuous
 62
     0
370
    30
100
AcDbLine
 10
191.427307
 20
121.870446
 30
0.0
 11
121.427407
 21
121.870449
 31
0.0
  0
LINE
  5
1C3
330
1AC
100
AcDbEntity
  8
0
  6
Continuous
 62
     0
370
    30
100
AcDbLine
 10
261.427207
 20
131.870438
 30
0.0
 11
191.427307
 21
131.870438
 31
0.0
  0
LINE
  5
1C4
330
1AC
100
AcDbEntity
  8
0
  6
Continuous
 62
     0
370
    30
100
AcDbLine
 10
191.427307
 20
131.870438
 30
0.0
 11
121.427407
 21
131.870438
 31
0.0
  0
LINE
  5
1C5
330
1AC
100
AcDbEntity
  8
0
  6
Continuous
 62
     0
370
    30
100
AcDbLine
 10
202.33421
 20
111.177352
 30
0.0
 11
213.627307
 21
111.177352
 31
0.0
  0
LINE
  5
1C6
330
1AC
100
AcDbEntity
  8
0
  6
Continuous
 62
     0
370
    30
100
AcDbLine
 10
169.227307
 20
111.177352
 30
0.0
 11
180.520404
 21
111.177352
 31
0.0
  0
SPLINE
  5
1C7
330
1AC
100
AcDbEntity
  8
0
  6
Continuous
 62
     0
370
    30
100
AcDbSpline
210
0.0
220
0.0
230
1.0
 70
     8
 71
     3
 72
    23
 73
    19
 74
     0
 42
0.000000001
 43
0.0
 40
20.59948389513439
 40
20.59948389513439
 40
20.59948389513439
 40
20.59948389513439
 40
22.27253870460704
 40
28.1824417941173
 40
30.54140454465704
 40
32.64834952045916
 40
36.34887581274038
 40
42.6221346360555
 40
48.17892770478821
 40
53.44913729782306
 40
58.71924236209077
 40
64.27595803767218
 40
70.54880114304356
 40
74.24899760938668
 40
76.35579970617844
 40
78.71454413890467
 40
84.62396407396875
 40
86.30101833919575
 40
86.30101833919575
 40
86.30101833919575
 40
86.30101833919575
 10
212.4090801547084
 20
80.58362689724527
 30
0.0
 10
212.4090742244299
 20
80.58364254437313
 30
0.0
 10
212.3035070630226
 20
80.54377625528784
 30
0.0
 10
211.5352282631198
 20
80.25170221114561
 30
0.0
 10
210.0830097813042
 20
79.74390192077311
 30
0.0
 10
208.6979352139169
 20
79.28453801967956
 30
0.0
 10
206.1850691293083
 20
78.51625644289308
 30
0.0
 10
202.081237197427
 20
77.4939307308115
 30
0.0
 10
196.7593731493932
 20
76.71632602865472
 30
0.0
 10
191.3792370988483
 20
76.46363599529256
 30
0.0
 10
185.9988476092542
 20
76.71327478390577
 30
0.0
 10
180.6765672650962
 20
77.48744032161954
 30
0.0
 10
176.5721117538692
 20
78.50757224102915
 30
0.0
 10
174.0588392321734
 20
79.27461226528138
 30
0.0
 10
172.6734715262331
 20
79.73333724948674
 30
0.0
 10
171.2209680297417
 20
80.2404775629519
 30
0.0
 10
170.4520539214793
 20
80.5323991776641
 30
0.0
 10
170.3461813189671
 20
80.57232761564777
 30
0.0
 10
170.3461753797603
 20
80.57231195662051
 30
0.0
  0
SPLINE
  5
1C8
330
1AC
100
AcDbEntity
  8
0
  6
Continuous
 62
     0
370
     0
100
AcDbSpline
210
0.0
220
0.0
230
1.0
 70
     8
 71
     3
 72
    25
 73
    21
 74
     0
 42
0.000000001
 43
0.0
 40
21.94463992690374
 40
21.94463992690374
 40
21.94463992690374
 40
21.94463992690374
 40
24.39219737972338
 40
28.47326161474173
 40
32.5467010625328
 40
36.6090541022249
 40
40.65789846652445
 40
44.69218082389791
 40
48.71049901796344
 40
52.72215664610776
 40
56.7305738906297
 40
60.738812164035
 40
64.75076830891909
 40
68.76871791331719
 40
72.80327450625964
 40
76.85208732699766
 40
80.91446989423429
 40
84.9879176238427
 40
89.06898950787198
 40
91.51380275850605
 40
91.51380275850605
 40
91.51380275850605
 40
91.51380275850605
 10
169.3775951003732
 20
81.97482339149784
 30
0.0
 10
169.3775816530034
 20
81.97478505594236
 30
0.0
 10
169.4987393006864
 20
81.93213083452387
 30
0.0
 10
170.2183488566754
 20
81.68063523300702
 30
0.0
 10
171.7606683977949
 20
81.16782404932752
 30
0.0
 10
173.9430922450865
 20
80.5033206847592
 30
0.0
 10
176.6838631447221
 20
79.77340425999355
 30
0.0
 10
179.8970299942602
 20
79.07176116649754
 30
0.0
 10
183.4921411322697
 20
78.49561481126989
 30
0.0
 10
187.3629284710524
 20
78.13021121899705
 30
0.0
 10
191.3784990989732
 20
78.002602808993
 30
0.0
 10
195.3940429971944
 20
78.13235363306576
 30
0.0
 10
199.2644056809181
 20
78.50052494587644
 30
0.0
 10
202.8593302366544
 20
79.07718156135533
 30
0.0
 10
206.0719720498494
 20
79.78178991681975
 30
0.0
 10
208.8123567681174
 20
80.51223157763634
 30
0.0
 10
210.9945319233585
 20
81.17802012160563
 30
0.0
 10
212.5365323576649
 20
81.69133302074816
 30
0.0
 10
213.2561035697625
 20
81.9433795713753
 30
0.0
 10
213.3771159851145
 20
81.98596700696199
 30
0.0
 10
213.3771120783107
 20
81.98597812290508
 30
0.0
  0
SPLINE
  5
1C9
330
1AC
100
AcDbEntity
  8
0
  6
Continuous
 62
     0
370
    30
100
AcDbSpline
210
0.0
220
0.0
230
1.0
 70
     8
 71
     3
 72
     9
 73
     5
 74
     0
 42
0.000000001
 43
0.0
 40
23.03684870423131
 40
23.03684870423131
 40
23.03684870423131
 40
23.03684870423131
 40
25.37552048099178
 40
27.77115058700731
 40
27.77115058700731
 40
27.77115058700731
 40
27.77115058700731
 10
182.5273070866801
 20
100.8906225579273
 30
0.0
 10
181.8253974563569
 20
101.0344552824937
 30
0.0
 10
180.4424253314331
 20
101.3591650573896
 30
0.0
 10
179.1526321731086
 20
101.7459707422265
 30
0.0
 10
178.5272463159385
 20
101.9558182839064
 30
0.0
  0
SPLINE
  5
1CA
330
1AC
100
AcDbEntity
  8
0
  6
Continuous
 62
     0
370
    30
100
AcDbSpline
210
0.0
220
0.0
230
1.0
 70
     8
 71
     3
 72
     9
 73
     5
 74
     0
 42
0.000000001
 43
0.0
 40
0.0
 40
0.0
 40
0.0
 40
0.0
 40
2.395628802139828
 40
4.623107672531739
 40
4.623107672531739
 40
4.623107672531739
 40
4.623107672531739
 10
204.2273767347905
 20
101.9558182839064
 30
0.0
 10
203.6019911976107
 20
101.7459708635544
 30
0.0
 10
202.342491316986
 20
101.3682500530456
 30
0.0
 10
200.9941380511729
 20
101.0497425142647
 30
0.0
 10
200.3273070866802
 20
100.911250761823
 30
0.0
  0
SPLINE
  5
1CB
330
1AC
100
AcDbEntity
  8
0
  6
Continuous
 62
     0
370
    30
100
AcDbSpline
210
0.0
220
0.0
230
1.0
 70
     8
 71
     3
 72
    17
 73
    13
 74
     0
 42
0.000000001
 43
0.0
 40
0.0
 40
0.0
 40
0.0
 40
0.0
 40
3.025329141424465
 40
5.943158566686924
 40
8.889996447329276
 40
12.00540465269575
 40
15.50613691843195
 40
17.53970842721733
 40
19.93549259401517
 40
23.09662942783238
 40
25.39380381357061
 40
29.13741533417248
 40
29.13741533417248
 40
29.13741533417248
 40
29.13741533417248
 10
178.5272463159384
 20
101.9558182839064
 30
0.0
 10
177.7374941796265
 20
102.2209081112931
 30
0.0
 10
176.263871507691
 20
102.766871325354
 30
0.0
 10
174.3212182675349
 20
103.6127809506195
 30
0.0
 10
172.6405711272191
 20
104.4585445779292
 30
0.0
 10
171.188034501207
 20
105.3093294008828
 30
0.0
 10
170.235348319769
 20
105.9930322465613
 30
0.0
 10
169.6641169323092
 20
106.5250982138307
 30
0.0
 10
169.3566082038882
 20
106.9536839990469
 30
0.0
 10
169.3610322686444
 20
107.2800017327039
 30
0.0
 10
169.7437088941238
 20
107.5215545027641
 30
0.0
 10
170.2697840387695
 20
107.5775715384029
 30
0.0
 10
170.6951944664123
 20
107.5773532030258
 30
0.0
  0
SPLINE
  5
1CC
330
1AC
100
AcDbEntity
  8
0
  6
Continuous
 62
     0
370
    30
100
AcDbSpline
210
0.0
220
0.0
230
1.0
 70
     8
 71
     3
 72
    17
 73
    13
 74
     0
 42
0.000000001
 43
0.0
 40
0.0
 40
0.0
 40
0.0
 40
0.0
 40
3.743625567551753
 40
6.040791801742719
 40
9.201928507603732
 40
11.59771248503951
 40
13.63128343488012
 40
17.13201494195247
 40
20.24742271140173
 40
23.19426013041368
 40
26.11208903074562
 40
29.13741745567274
 40
29.13741745567274
 40
29.13741745567274
 40
29.13741745567274
 10
212.0594292926277
 20
107.5773514953728
 30
0.0
 10
212.4848413943154
 20
107.5775707888339
 30
0.0
 10
213.0109165936265
 20
107.5215556419673
 30
0.0
 10
213.393592200662
 20
107.2800003242523
 30
0.0
 10
213.3980156936778
 20
106.9536834490771
 30
0.0
 10
213.090506450667
 20
106.5250975537039
 30
0.0
 10
212.5192746539029
 20
105.9930315463517
 30
0.0
 10
211.5665882000242
 20
105.3093287138683
 30
0.0
 10
210.114051410825
 20
104.458544039256
 30
0.0
 10
208.4334042356516
 20
103.6127805443252
 30
0.0
 10
206.490751153791
 20
102.7668711138396
 30
0.0
 10
205.0171287098704
 20
102.220908039291
 30
0.0
 10
204.2273767347905
 20
101.9558182839064
 30
0.0
  0
LINE
  5
1CD
330
1AC
100
AcDbEntity
  8
0
  6
Continuous
 62
     0
370
     0
100
AcDbLine
 10
182.527307
 20
101.955818
 30
0.0
 11
178.527246
 21
101.955818
 31
0.0
  0
LINE
  5
1CE
330
1AC
100
AcDbEntity
  8
0
  6
Continuous
 62
     0
370
     0
100
AcDbLine
 10
204.227377
 20
101.955818
 30
0.0
 11
200.327307
 21
101.955818
 31
0.0
  0
LINE
  5
1CF
330
1AC
100
AcDbEntity
  8
0
  6
Continuous
 62
     0
370
    30
100
AcDbLine
 10
212.059427
 20
107.577351
 30
0.0
 11
211.108579
 21
107.577351
 31
0.0
  0
LINE
  5
1D0
330
1AC
100
AcDbEntity
  8
0
  6
Continuous
 62
     0
370
    30
100
AcDbLine
 10
171.746034
 20
107.577354
 30
0.0
 11
170.695192
 21
107.577354
 31
0.0
  0
SPLINE
  5
1D1
330
1AC
100
AcDbEntity
  8
0
  6
Continuous
 62
     0
370
    30
100
AcDbSpline
210
0.0
220
0.0
230
1.0
 70
     8
 71
     3
 72
    15
 73
    11
 74
     0
 42
0.000000001
 43
0.0
 40
46.47816493646139
 40
46.47816493646139
 40
46.47816493646139
 40
46.47816493646139
 40
48.64246075310879
 40
52.53773331853132
 40
55.97719957828239
 40
59.52787426685585
 40
63.18955061916076
 40
65.33454873136426
 40
66.65350444429872
 40
66.82342550466852
 40
66.82342550466852
 40
66.82342550466852
 40
66.82342550466852
 10
200.3273070866802
 20
102.9967809687494
 30
0.0
 10
200.9743008082583
 20
103.1238211829515
 30
0.0
 10
202.7373172196934
 20
103.5122428528897
 30
0.0
 10
205.2405082642186
 20
104.230884407684
 30
0.0
 10
207.6315008399738
 20
105.1061934908372
 30
0.0
 10
209.4373511094093
 20
105.9287230816905
 30
0.0
 10
210.467679498208
 20
106.5469651761846
 30
0.0
 10
210.8812641276696
 20
106.9245810538106
 30
0.0
 10
210.9758969841736
 20
107.0825804570172
 30
0.0
 10
210.9941394765457
 20
107.141360624315
 30
0.0
 10
210.9959541528408
 20
107.1479914273357
 30
0.0
  0
SPLINE
  5
1D2
330
1AC
100
AcDbEntity
  8
0
  6
Continuous
 62
     0
370
    30
100
AcDbSpline
210
0.0
220
0.0
230
1.0
 70
     8
 71
     3
 72
    14
 73
    10
 74
     0
 42
0.000000001
 43
0.0
 40
7.681294723157895
 40
7.681294723157895
 40
7.681294723157895
 40
7.681294723157895
 40
9.036750510166293
 40
10.98577345941175
 40
14.57585455533752
 40
18.08839447869271
 40
21.79228674045501
 40
26.01325427781318
 40
28.04116110136752
 40
28.04116110136752
 40
28.04116110136752
 40
28.04116110136752
 10
171.8577578205389
 20
107.1512749664178
 30
0.0
 10
171.871849644691
 20
107.0986070541072
 30
0.0
 10
171.9477373086996
 20
106.9581846651302
 30
0.0
 10
172.3167381235091
 20
106.6020083121419
 30
0.0
 10
173.2533417342173
 20
106.0180383653167
 30
0.0
 10
175.0119607710286
 20
105.1937524419502
 30
0.0
 10
177.4773073044938
 20
104.2710640853329
 30
0.0
 10
180.0998163442329
 20
103.5146554346223
 30
0.0
 10
181.9210811143896
 20
103.1160743000136
 30
0.0
 10
182.5273070866801
 20
102.996986519046
 30
0.0
  0
LINE
  5
1D3
330
1AC
100
AcDbEntity
  8
0
  6
Continuous
 62
     0
370
    30
100
AcDbLine
 10
180.427307
 20
121.370447
 30
0.0
 11
180.427307
 21
111.270447
 31
0.0
  0
LINE
  5
1D4
330
1AC
100
AcDbEntity
  8
0
  6
Continuous
 62
     0
370
    30
100
AcDbLine
 10
202.427307
 20
121.370447
 30
0.0
 11
202.427307
 21
111.270447
 31
0.0
  0
LINE
  5
1D5
330
1AC
100
AcDbEntity
  8
0
  6
Continuous
 62
     0
370
    30
100
AcDbLine
 10
121.427407
 20
121.870449
 30
0.0
 11
121.427407
 21
131.870438
 31
0.0
  0
LINE
  5
1D6
330
1AC
100
AcDbEntity
  8
0
  6
Continuous
 62
     0
370
    30
100
AcDbLine
 10
261.427207
 20
121.870449
 30
0.0
 11
261.427207
 21
131.870438
 31
0.0
  0
LINE
  5
1D7
330
1AC
100
AcDbEntity
  8
0
  6
Continuous
 62
     0
370
    30
100
AcDbLine
 10
121.927407
 20
121.370449
 30
0.0
 11
121.427407
 21
121.870449
 31
0.0
  0
LINE
  5
1D8
330
1AC
100
AcDbEntity
  8
0
  6
Continuous
 62
     0
370
    30
100
AcDbLine
 10
260.927207
 20
121.370449
 30
0.0
 11
261.427207
 21
121.870449
 31
0.0
  0
LINE
  5
1D9
330
1AC
100
AcDbEntity
  8
0
  6
Continuous
 62
     0
370
    30
100
AcDbLine
 10
181.427307
 20
110.270447
 30
0.0
 11
180.427307
 21
111.270447
 31
0.0
  0
LINE
  5
1DA
330
1AC
100
AcDbEntity
  8
0
  6
Continuous
 62
     0
370
    30
100
AcDbLine
 10
202.427307
 20
111.270447
 30
0.0
 11
201.427307
 21
110.270447
 31
0.0
  0
ARC
  5
1DB
330
1AC
100
AcDbEntity
  8
0
  6
Continuous
 62
     0
370
    30
100
AcDbCircle
 10
201.327332
 20
99.105729
 30
0.0
 40
1.000024867383864
100
AcDbArc
 50
180.001412
 51
269.498588
  0
ARC
  5
1DC
330
1AC
100
AcDbEntity
  8
0
  6
Continuous
 62
     0
370
    30
100
AcDbCircle
 10
181.527282
 20
99.105729
 30
0.0
 40
1.000024887257351
100
AcDbArc
 50
270.501411
 51
359.998586
  0
LINE
  5
1DD
330
1AC
100
AcDbEntity
  8
0
  6
Continuous
 62
     0
370
    30
100
AcDbLine
 10
182.527307
 20
99.105704
 30
0.0
 11
182.527307
 21
110.096503
 31
0.0
  0
LINE
  5
1DE
330
1AC
100
AcDbEntity
  8
0
  6
Continuous
 62
     0
370
    30
100
AcDbLine
 10
200.327307
 20
99.105704
 30
0.0
 11
200.327307
 21
110.096503
 31
0.0
  0
LINE
  5
1DF
330
1AC
100
AcDbEntity
  8
0
  6
Continuous
 62
     0
370
    30
100
AcDbLine
 10
202.07992
 20
98.099098
 30
0.0
 11
201.318581
 21
98.105742
 31
0.0
  0
LINE
  5
1E0
330
1AC
100
AcDbEntity
  8
0
  6
Continuous
 62
     0
370
    30
100
AcDbLine
 10
180.774699
 20
98.099098
 30
0.0
 11
181.536034
 21
98.105742
 31
0.0
  0
ARC
  5
1E1
330
1AC
100
AcDbEntity
  8
0
  6
Continuous
 62
     0
370
    30
100
AcDbCircle
 10
202.077292
 20
97.799095
 30
0.0
 40
0.300015051352696
100
AcDbArc
 50
0.002847
 51
89.484112
  0
ARC
  5
1E2
330
1AC
100
AcDbEntity
  8
0
  6
Continuous
 62
     0
370
    30
100
AcDbCircle
 10
180.777322
 20
97.799095
 30
0.0
 40
0.3000150497634106
100
AcDbArc
 50
90.512017
 51
179.997154
  0
LINE
  5
1E3
330
1AC
100
AcDbEntity
  8
0
  6
Continuous
 62
     0
370
    30
100
AcDbLine
 10
180.477307
 20
90.696503
 30
0.0
 11
180.477307
 21
97.79911
 31
0.0
  0
LINE
  5
1E4
330
1AC
100
AcDbEntity
  8
0
  6
Continuous
 62
     0
370
    30
100
AcDbLine
 10
202.377307
 20
90.696503
 30
0.0
 11
202.377307
 21
97.79911
 31
0.0
  0
ARC
  5
1E5
330
1AC
100
AcDbEntity
  8
0
  6
Continuous
 62
     0
370
    30
100
AcDbCircle
 10
200.027052
 20
110.096405
 30
0.0
 40
0.3002550780715124
100
AcDbArc
 50
0.018635
 51
35.425699
  0
ARC
  5
1E6
330
1AC
100
AcDbEntity
  8
0
  6
Continuous
 62
     0
370
    30
100
AcDbCircle
 10
182.82756
 20
110.096406
 30
0.0
 40
0.3002529965875839
100
AcDbArc
 50
144.571502
 51
179.98149
  0
ARC
  5
1E7
330
1AC
100
AcDbEntity
  8
0
  6
Continuous
 62
     0
370
    30
100
AcDbCircle
 10
202.077292
 20
90.696518
 30
0.0
 40
0.3000152333016251
100
AcDbArc
 50
270.006607
 51
359.997093
  0
ARC
  5
1E8
330
1AC
100
AcDbEntity
  8
0
  6
Continuous
 62
     0
370
    30
100
AcDbCircle
 10
180.777322
 20
90.696518
 30
0.0
 40
0.3000152356321223
100
AcDbArc
 50
180.002907
 51
269.996321
  0
ARC
  5
1E9
330
1AC
100
AcDbEntity
  8
0
  6
Continuous
 62
     0
370
    30
100
AcDbCircle
 10
191.630383
 20
112.563603
 30
0.0
 40
20.5
100
AcDbArc
 50
183.877412
 51
195.313075
  0
ARC
  5
1EA
330
1AC
100
AcDbEntity
  8
0
  6
Continuous
 62
     0
370
    30
100
AcDbCircle
 10
191.224231
 20
112.563603
 30
0.0
 40
20.5
100
AcDbArc
 50
344.681991
 51
356.122588
  0
LINE
  5
1EB
330
1AC
100
AcDbEntity
  8
0
  6
Continuous
 62
     0
370
    30
100
AcDbLine
 10
213.627307
 20
121.370449
 30
0.0
 11
213.627307
 21
111.177352
 31
0.0
  0
LINE
  5
1EC
330
1AC
100
AcDbEntity
  8
0
  6
Continuous
 62
     0
370
    30
100
AcDbLine
 10
169.227307
 20
121.370449
 30
0.0
 11
169.227307
 21
111.177352
 31
0.0
  0
LINE
  5
1ED
330
1AC
100
AcDbEntity
  8
0
  6
Continuous
 62
     0
370
    30
100
AcDbLine
 10
213.377312
 20
107.106368
 30
0.0
 11
213.37731
 21
81.98577
 31
0.0
  0
LINE
  5
1EE
330
1AC
100
AcDbEntity
  8
0
  6
Continuous
 62
     0
370
    30
100
AcDbLine
 10
169.377312
 20
107.106368
 30
0.0
 11
169.37731
 21
81.974569
 31
0.0
  0
SPLINE
  5
1EF
330
1AC
100
AcDbEntity
  8
0
  6
Continuous
 62
     0
370
    30
100
AcDbSpline
210
0.0
220
0.0
230
1.0
 70
     8
 71
     3
 72
    16
 73
    12
 74
     0
 42
0.000000001
 43
0.0
 40
0.0
 40
0.0
 40
0.0
 40
0.0
 40
0.3828392111366671
 40
0.7161437297997282
 40
0.938155039666346
 40
1.049160319225851
 40
1.271264632872668
 40
1.382400018366953
 40
1.493601898731495
 40
1.604803450546839
 40
2.076892344441541
 40
2.076892344441541
 40
2.076892344441541
 40
2.076892344441541
 10
169.3774656246102
 20
81.97494759413158
 30
0.0
 10
169.3774661028383
 20
81.84766530150318
 30
0.0
 10
169.4081432567077
 20
81.60846174899547
 30
0.0
 10
169.5209072574579
 20
81.31478620086729
 30
0.0
 10
169.6376004942867
 20
81.12502087968952
 30
0.0
 10
169.7516042278273
 20
80.97900852093956
 30
0.0
 10
169.8551145278309
 20
80.8728324276489
 30
0.0
 10
169.9704189168306
 20
80.778681155219
 30
0.0
 10
170.0598176980193
 20
80.71548180007757
 30
0.0
 10
170.2722478309159
 20
80.59165145292404
 30
0.0
 10
170.3279000633993
 20
80.57500216126962
 30
0.0
 10
170.3458972846124
 20
80.57104666451039
 30
0.0
  0
SPLINE
  5
1F0
330
1AC
100
AcDbEntity
  8
0
  6
Continuous
 62
     0
370
    30
100
AcDbSpline
210
0.0
220
0.0
230
1.0
 70
     8
 71
     3
 72
    20
 73
    16
 74
     0
 42
0.000000001
 43
0.0
 40
0.0
 40
0.0
 40
0.0
 40
0.0
 40
0.3827022018971741
 40
0.7158866925331455
 40
0.9378179204705963
 40
1.159772205576238
 40
1.270803737836621
 40
1.381897134450472
 40
1.49305281407114
 40
1.60417635559933
 40
1.656455661658221
 40
1.708690197593376
 40
1.735028864716733
 40
1.761351455066948
 40
1.827587372247609
 40
1.827587372247609
 40
1.827587372247609
 40
1.827587372247609
 10
213.3772128591069
 20
81.98607097498848
 30
0.0
 10
213.377211935421
 20
81.85883393892406
 30
0.0
 10
213.3465533870796
 20
81.61971583917509
 30
0.0
 10
213.2338780159636
 20
81.32613500578738
 30
0.0
 10
213.097808516939
 20
81.1047961044159
 30
0.0
 10
212.9783553647266
 20
80.96285292191277
 30
0.0
 10
212.8710314835593
 20
80.86071387944764
 30
0.0
 10
212.7850068034974
 20
80.79024463570883
 30
0.0
 10
212.693970555094
 20
80.72638882040923
 30
0.0
 10
212.6152522519611
 20
80.67941893926644
 30
0.0
 10
212.5517239902955
 20
80.64602366054076
 30
0.0
 10
212.5123155392485
 20
80.62701760739513
 30
0.0
 10
212.4807341144458
 20
80.61280763070363
 30
0.0
 10
212.4450247169119
 20
80.5974069278786
 30
0.0
 10
212.4144620802111
 20
80.58562199417008
 30
0.0
 10
212.409104546293
 20
80.58356341837693
 30
0.0
  0
ENDBLK
  5
1F2
330
1AC
100
AcDbEntity
  8
0
100
AcDbBlockEnd
  0
ENDSEC
  0
SECTION
  2
ENTITIES
  0
INSERT
  5
D5
330
1F
100
AcDbEntity
  8
0
  6
Continuous
 62
     7
370
     0
100
AcDbBlockReference
  2
d
 10
77.388954
 20
37.596413
 30
0.0
  0
INSERT
  5
FA
330
1F
100
AcDbEntity
  8
0
  6
Continuous
 62
     7
370
     0
100
AcDbBlockReference
  2
a
 10
92.647194
 20
86.131638
 30
0.0
  0
INSERT
  5
152
330
1F
100
AcDbEntity
  8
0
  6
Continuous
 62
     7
370
     0
100
AcDbBlockReference
  2
c
 10
192.908028
 20
86.131638
 30
0.0
  0
INSERT
  5
1AB
330
1F
100
AcDbEntity
  8
0
  6
Continuous
 62
     7
370
     0
100
AcDbBlockReference
  2
b
 10
70.058914
 20
0.0
 30
0.0
  0
INSERT
  5
1F3
330
1F
100
AcDbEntity
  8
0
  6
Continuous
 62
     7
370
     0
100
AcDbBlockReference
  2
e
 10
0.0
 20
154.804138
 30
0.0
  0
ENDSEC
  0
SECTION
  2
OBJECTS
  0
DICTIONARY
  5
C
330
0
100
AcDbDictionary
281
     1
  3
ACAD_GROUP
350
D
  3
ACAD_LAYOUT
350
1A
  3
ACAD_MATERIAL
350
43
  3
ACAD_MLEADERSTYLE
350
6B
  3
ACAD_MLINESTYLE
350
17
  3
ACAD_PLOTSETTINGS
350
19
  3
ACAD_PLOTSTYLENAME
350
E
  3
ACAD_SCALELIST
350
47
  3
ACAD_TABLESTYLE
350
69
  3
ACAD_VISUALSTYLE
350
2A
  3
AcDbVariableDictionary
350
1F4
  0
DICTIONARY
  5
1FF
330
8
100
AcDbDictionary
280
     1
281
     1
  3
ACAD_XREC_ROUNDTRIP
360
200
  0
DICTIONARY
  5
D
102
{ACAD_REACTORS
330
C
102
}
330
C
100
AcDbDictionary
281
     1
  0
DICTIONARY
  5
1A
102
{ACAD_REACTORS
330
C
102
}
330
C
100
AcDbDictionary
281
     1
  3
Layout1
350
1E
  3
Layout2
350
26
  3
Model
350
22
  0
DICTIONARY
  5
43
102
{ACAD_REACTORS
330
C
102
}
330
C
100
AcDbDictionary
281
     1
  3
ByBlock
350
45
  3
ByLayer
350
44
  3
Global
350
46
  0
DICTIONARY
  5
6B
102
{ACAD_REACTORS
330
C
102
}
330
C
100
AcDbDictionary
281
     1
  3
Standard
350
6C
  0
DICTIONARY
  5
17
102
{ACAD_REACTORS
330
C
102
}
330
C
100
AcDbDictionary
281
     1
  3
Standard
350
18
  0
DICTIONARY
  5
19
102
{ACAD_REACTORS
330
C
102
}
330
C
100
AcDbDictionary
281
     1
  0
ACDBDICTIONARYWDFLT
  5
E
102
{ACAD_REACTORS
330
C
102
}
330
C
100
AcDbDictionary
281
     1
  3
Normal
350
F
100
AcDbDictionaryWithDefault
340
F
  0
DICTIONARY
  5
47
102
{ACAD_REACTORS
330
C
102
}
330
C
100
AcDbDictionary
281
     1
  3
A0
350
48
  3
A1
350
49
  3
A2
350
4A
  3
A3
350
4B
  3
A4
350
4C
  3
A5
350
4D
  3
A6
350
4E
  3
A7
350
4F
  3
A8
350
50
  3
A9
350
51
  3
B0
350
52
  3
B1
350
53
  3
B2
350
54
  3
B3
350
55
  3
B4
350
56
  3
B5
350
57
  3
B6
350
58
  3
B7
350
59
  3
B8
350
5A
  3
B9
350
5B
  3
C0
350
5C
  3
C1
350
5D
  3
C2
350
5E
  3
C3
350
5F
  3
C4
350
60
  3
C5
350
61
  3
C6
350
62
  3
C7
350
63
  3
C8
350
64
  3
C9
350
65
  3
D0
350
66
  3
D1
350
67
  3
D2
350
68
  0
DICTIONARY
  5
69
102
{ACAD_REACTORS
330
C
102
}
330
C
100
AcDbDictionary
281
     1
  3
Standard
350
6A
  0
DICTIONARY
  5
2A
102
{ACAD_REACTORS
330
C
102
}
330
C
100
AcDbDictionary
281
     1
  3
2dWireframe
350
2F
  3
Basic
350
32
  3
Brighten
350
36
  3
ColorChange
350
3A
  3
Conceptual
350
34
  3
Dim
350
35
  3
EdgeColorOff
350
3D
  3
Facepattern
350
39
  3
Flat
350
2B
  3
FlatWithEdges
350
2C
  3
Gouraud
350
2D
  3
GouraudWithEdges
350
2E
  3
Hidden
350
31
  3
JitterOff
350
3B
  3
Linepattern
350
38
  3
OverhangOff
350
3C
  3
Realistic
350
33
  3
Shaded
350
42
  3
Shaded with edges
350
41
  3
Shades of Gray
350
3E
  3
Sketchy
350
3F
  3
Thicken
350
37
  3
Wireframe
350
30
  3
X-Ray
350
40
  0
DICTIONARY
  5
1F4
102
{ACAD_REACTORS
330
C
102
}
330
C
100
AcDbDictionary
281
     1
  3
CANNOSCALE
350
201
  3
CENTEREXE
350
1FB
  3
CENTERLTYPEFILE
350
1FC
  3
CMLEADERSTYLE
350
1F6
  3
CTABLESTYLE
350
1F5
  3
DIMASSOC
350
1FD
  3
HIDETEXT
350
1FE
  3
MSLTSCALE
350
202
  3
PSOLHEIGHT
350
1F8
  3
PSOLWIDTH
350
1F7
  0
XRECORD
  5
200
102
{ACAD_REACTORS
330
1FF
102
}
330
1FF
100
AcDbXrecord
280
     1
102
VTR_0.000_0.000_1.000_1.000_VISUALSTYLE
340
2F
102
VTR_0.000_0.000_1.000_1.000_GRIDDISPLAY
 70
     3
102
VTR_0.000_0.000_1.000_1.000_GRIDMAJOR
 70
     5
102
VTR_0.000_0.000_1.000_1.000_DEFAULTLIGHTING
280
     1
102
VTR_0.000_0.000_1.000_1.000_DEFAULTLIGHTINGTYPE
 70
     1
102
VTR_0.000_0.000_1.000_1.000_BRIGHTNESS
141
0.0
102
VTR_0.000_0.000_1.000_1.000_CONTRAST
142
0.0
  0
LAYOUT
  5
1E
102
{ACAD_REACTORS
330
1A
102
}
330
1A
100
AcDbPlotSettings
  1

  2
none_device
  4

  6

 40
0.0
 41
0.0
 42
0.0
 43
0.0
 44
0.0
 45
0.0
 46
0.0
 47
0.0
 48
0.0
 49
0.0
140
0.0
141
0.0
142
1.0
143
1.0
 70
   688
 72
     1
 73
     0
 74
     5
  7

 75
    16
147
1.0
148
0.0
149
0.0
100
AcDbLayout
  1
Layout1
 70
     1
 71
     1
 10
0.0
 20
0.0
 11
420.0
 21
297.0
 12
0.0
 22
0.0
 32
0.0
 14
1.000000E+20
 24
1.000000E+20
 34
1.000000E+20
 15
-1.000000E+20
 25
-1.000000E+20
 35
-1.000000E+20
146
0.0
 13
0.0
 23
0.0
 33
0.0
 16
1.0
 26
0.0
 36
0.0
 17
0.0
 27
1.0
 37
0.0
 76
     0
330
1B
  0
LAYOUT
  5
26
102
{ACAD_REACTORS
330
1A
102
}
330
1A
100
AcDbPlotSettings
  1

  2
none_device
  4

  6

 40
0.0
 41
0.0
 42
0.0
 43
0.0
 44
0.0
 45
0.0
 46
0.0
 47
0.0
 48
0.0
 49
0.0
140
0.0
141
0.0
142
1.0
143
1.0
 70
   688
 72
     1
 73
     0
 74
     5
  7

 75
    16
147
1.0
148
0.0
149
0.0
100
AcDbLayout
  1
Layout2
 70
     1
 71
     2
 10
0.0
 20
0.0
 11
0.0
 21
0.0
 12
0.0
 22
0.0
 32
0.0
 14
0.0
 24
0.0
 34
0.0
 15
0.0
 25
0.0
 35
0.0
146
0.0
 13
0.0
 23
0.0
 33
0.0
 16
1.0
 26
0.0
 36
0.0
 17
0.0
 27
1.0
 37
0.0
 76
     0
330
23
  0
LAYOUT
  5
22
102
{ACAD_REACTORS
330
1A
102
}
330
1A
100
AcDbPlotSettings
  1

  2
none_device
  4
Letter_(8.50_x_11.00_Inches)
  6

 40
6.35
 41
6.35
 42
6.350005
 43
6.350005
 44
215.9
 45
279.4
 46
0.0
 47
0.0
 48
0.0
 49
0.0
140
0.0
141
0.0
142
1.0
143
1.0
 70
  1712
 72
     1
 73
     0
 74
     0
  7

 75
     0
147
1.0
148
0.0
149
0.0
100
AcDbLayout
  1
Model
 70
     1
 71
     0
 10
-8.199718
 20
-9.869003
 11
434.224335
 21
410.075958
 12
0.0
 22
0.0
 32
0.0
 14
-8.199718
 24
-9.869003
 34
0.0
 15
434.224335
 25
410.075958
 35
0.0
146
0.0
 13
0.0
 23
0.0
 33
0.0
 16
1.0
 26
0.0
 36
0.0
 17
0.0
 27
1.0
 37
0.0
 76
     0
330
1F
331
29
  0
MATERIAL
  5
45
102
{ACAD_REACTORS
330
43
102
}
102
{ACAD_XDICTIONARY
360
235
102
}
330
43
100
AcDbMaterial
  1
ByBlock
  0
MATERIAL
  5
44
102
{ACAD_REACTORS
330
43
102
}
102
{ACAD_XDICTIONARY
360
233
102
}
330
43
100
AcDbMaterial
  1
ByLayer
  0
MATERIAL
  5
46
102
{ACAD_REACTORS
330
43
102
}
102
{ACAD_XDICTIONARY
360
237
102
}
330
43
100
AcDbMaterial
  1
Global
  0
MLEADERSTYLE
  5
6C
102
{ACAD_REACTORS
330
6B
102
}
102
{ACAD_XDICTIONARY
360
23A
102
}
330
6B
100
AcDbMLeaderStyle
170
     2
171
     1
172
     0
 90
        2
 40
0.0
 41
0.0
173
     1
 91
-1056964608
340
14
 92
       -2
290
     1
 42
2.0
291
     1
 43
8.0
  3
Standard
341
0
 44
4.0
300

342
11
174
     1
178
     6
175
     1
176
     0
 93
-1056964608
 45
4.0
292
     0
297
     0
 46
4.0
343
0
 94
-1056964608
 47
1.0
 49
1.0
140
1.0
293
     1
141
0.0
294
     1
177
     0
142
1.0
295
     0
296
     0
143
3.75
1001
ACAD_MLEADERVER
1070
     2
  0
MLINESTYLE
  5
18
102
{ACAD_REACTORS
330
17
102
}
330
17
100
AcDbMlineStyle
  2
Standard
 70
     0
  3

 62
   256
 51
90.0
 52
90.0
 71
     2
 49
0.5
 62
   256
  6
BYLAYER
 49
-0.5
 62
   256
  6
BYLAYER
  0
ACDBPLACEHOLDER
  5
F
102
{ACAD_REACTORS
330
E
102
}
330
E
  0
SCALE
  5
48
102
{ACAD_REACTORS
330
47
102
}
330
47
100
AcDbScale
 70
     0
300
1:1
140
1.0
141
1.0
290
     1
  0
SCALE
  5
49
102
{ACAD_REACTORS
330
47
102
}
330
47
100
AcDbScale
 70
     0
300
1:2
140
1.0
141
2.0
290
     0
  0
SCALE
  5
4A
102
{ACAD_REACTORS
330
47
102
}
330
47
100
AcDbScale
 70
     0
300
1:4
140
1.0
141
4.0
290
     0
  0
SCALE
  5
4B
102
{ACAD_REACTORS
330
47
102
}
330
47
100
AcDbScale
 70
     0
300
1:5
140
1.0
141
5.0
290
     0
  0
SCALE
  5
4C
102
{ACAD_REACTORS
330
47
102
}
330
47
100
AcDbScale
 70
     0
300
1:8
140
1.0
141
8.0
290
     0
  0
SCALE
  5
4D
102
{ACAD_REACTORS
330
47
102
}
330
47
100
AcDbScale
 70
     0
300
1:10
140
1.0
141
10.0
290
     0
  0
SCALE
  5
4E
102
{ACAD_REACTORS
330
47
102
}
330
47
100
AcDbScale
 70
     0
300
1:16
140
1.0
141
16.0
290
     0
  0
SCALE
  5
4F
102
{ACAD_REACTORS
330
47
102
}
330
47
100
AcDbScale
 70
     0
300
1:20
140
1.0
141
20.0
290
     0
  0
SCALE
  5
50
102
{ACAD_REACTORS
330
47
102
}
330
47
100
AcDbScale
 70
     0
300
1:30
140
1.0
141
30.0
290
     0
  0
SCALE
  5
51
102
{ACAD_REACTORS
330
47
102
}
330
47
100
AcDbScale
 70
     0
300
1:40
140
1.0
141
40.0
290
     0
  0
SCALE
  5
52
102
{ACAD_REACTORS
330
47
102
}
330
47
100
AcDbScale
 70
     0
300
1:50
140
1.0
141
50.0
290
     0
  0
SCALE
  5
53
102
{ACAD_REACTORS
330
47
102
}
330
47
100
AcDbScale
 70
     0
300
1:100
140
1.0
141
100.0
290
     0
  0
SCALE
  5
54
102
{ACAD_REACTORS
330
47
102
}
330
47
100
AcDbScale
 70
     0
300
2:1
140
2.0
141
1.0
290
     0
  0
SCALE
  5
55
102
{ACAD_REACTORS
330
47
102
}
330
47
100
AcDbScale
 70
     0
300
4:1
140
4.0
141
1.0
290
     0
  0
SCALE
  5
56
102
{ACAD_REACTORS
330
47
102
}
330
47
100
AcDbScale
 70
     0
300
8:1
140
8.0
141
1.0
290
     0
  0
SCALE
  5
57
102
{ACAD_REACTORS
330
47
102
}
330
47
100
AcDbScale
 70
     0
300
10:1
140
10.0
141
1.0
290
     0
  0
SCALE
  5
58
102
{ACAD_REACTORS
330
47
102
}
330
47
100
AcDbScale
 70
     0
300
100:1
140
100.0
141
1.0
290
     0
  0
SCALE
  5
59
102
{ACAD_REACTORS
330
47
102
}
330
47
100
AcDbScale
 70
     0
300
1/128" = 1'-0"
140
0.007812
141
12.0
290
     0
  0
SCALE
  5
5A
102
{ACAD_REACTORS
330
47
102
}
330
47
100
AcDbScale
 70
     0
300
1/64" = 1'-0"
140
0.015625
141
12.0
290
     0
  0
SCALE
  5
5B
102
{ACAD_REACTORS
330
47
102
}
330
47
100
AcDbScale
 70
     0
300
1/32" = 1'-0"
140
0.03125
141
12.0
290
     0
  0
SCALE
  5
5C
102
{ACAD_REACTORS
330
47
102
}
330
47
100
AcDbScale
 70
     0
300
1/16" = 1'-0"
140
0.0625
141
12.0
290
     0
  0
SCALE
  5
5D
102
{ACAD_REACTORS
330
47
102
}
330
47
100
AcDbScale
 70
     0
300
3/32" = 1'-0"
140
0.09375
141
12.0
290
     0
  0
SCALE
  5
5E
102
{ACAD_REACTORS
330
47
102
}
330
47
100
AcDbScale
 70
     0
300
1/8" = 1'-0"
140
0.125
141
12.0
290
     0
  0
SCALE
  5
5F
102
{ACAD_REACTORS
330
47
102
}
330
47
100
AcDbScale
 70
     0
300
3/16" = 1'-0"
140
0.1875
141
12.0
290
     0
  0
SCALE
  5
60
102
{ACAD_REACTORS
330
47
102
}
330
47
100
AcDbScale
 70
     0
300
1/4" = 1'-0"
140
0.25
141
12.0
290
     0
  0
SCALE
  5
61
102
{ACAD_REACTORS
330
47
102
}
330
47
100
AcDbScale
 70
     0
300
3/8" = 1'-0"
140
0.375
141
12.0
290
     0
  0
SCALE
  5
62
102
{ACAD_REACTORS
330
47
102
}
330
47
100
AcDbScale
 70
     0
300
1/2" = 1'-0"
140
0.5
141
12.0
290
     0
  0
SCALE
  5
63
102
{ACAD_REACTORS
330
47
102
}
330
47
100
AcDbScale
 70
     0
300
3/4" = 1'-0"
140
0.75
141
12.0
290
     0
  0
SCALE
  5
64
102
{ACAD_REACTORS
330
47
102
}
330
47
100
AcDbScale
 70
     0
300
1" = 1'-0"
140
1.0
141
12.0
290
     0
  0
SCALE
  5
65
102
{ACAD_REACTORS
330
47
102
}
330
47
100
AcDbScale
 70
     0
300
1-1/2" = 1'-0"
140
1.5
141
12.0
290
     0
  0
SCALE
  5
66
102
{ACAD_REACTORS
330
47
102
}
330
47
100
AcDbScale
 70
     0
300
3" = 1'-0"
140
3.0
141
12.0
290
     0
  0
SCALE
  5
67
102
{ACAD_REACTORS
330
47
102
}
330
47
100
AcDbScale
 70
     0
300
6" = 1'-0"
140
6.0
141
12.0
290
     0
  0
SCALE
  5
68
102
{ACAD_REACTORS
330
47
102
}
330
47
100
AcDbScale
 70
     0
300
1'-0" = 1'-0"
140
12.0
141
12.0
290
     0
  0
TABLESTYLE
  5
6A
102
{ACAD_REACTORS
330
69
102
}
330
69
100
AcDbTableStyle
  3
Standard
 70
     0
 71
     0
 40
1.5
 41
1.5
280
     0
281
     0
  7
Standard
140
4.5
170
     2
 62
     0
 63
   257
283
     0
274
    -2
284
     1
 64
     0
275
    -2
285
     1
 65
     0
276
    -2
286
     1
 66
     0
277
    -2
287
     1
 67
     0
278
    -2
288
     1
 68
     0
279
    -2
289
     1
 69
     0
  7
Standard
140
6.0
170
     5
 62
     0
 63
   257
283
     0
274
    -2
284
     1
 64
     0
275
    -2
285
     1
 65
     0
276
    -2
286
     1
 66
     0
277
    -2
287
     1
 67
     0
278
    -2
288
     1
 68
     0
279
    -2
289
     1
 69
     0
  7
Standard
140
4.5
170
     5
 62
     0
 63
   257
283
     0
274
    -2
284
     1
 64
     0
275
    -2
285
     1
 65
     0
276
    -2
286
     1
 66
     0
277
    -2
287
     1
 67
     0
278
    -2
288
     1
 68
     0
279
    -2
289
     1
 69
     0
  0
VISUALSTYLE
  5
2F
102
{ACAD_REACTORS
330
2A
102
}
102
{ACAD_XDICTIONARY
360
20B
102
}
330
2A
100
AcDbVisualStyle
  2
2dWireframe
 70
     4
 71
     0
 72
     2
 73
     0
 90
        0
 40
0.6
 41
30.0
 62
     5
 63
     7
 74
     1
 91
        4
 64
     7
 65
   257
 75
     1
175
     1
 42
1.0
 92
        0
 66
   257
 43
1.0
 76
     1
 77
     6
 78
     2
 67
     7
 79
     5
170
     0
171
     0
290
     0
174
     0
 93
        1
 44
0.0
173
     0
291
     0
 45
0.0
1001
ACAD
1000
AcDbSavedByObjectVersion
1070
     0
  0
VISUALSTYLE
  5
32
102
{ACAD_REACTORS
330
2A
102
}
102
{ACAD_XDICTIONARY
360
211
102
}
330
2A
100
AcDbVisualStyle
  2
Basic
 70
     7
 71
     1
 72
     0
 73
     1
 90
        0
 40
0.6
 41
30.0
 62
     5
 63
     7
 74
     0
 91
        4
 64
     7
 65
   257
 75
     1
175
     1
 42
1.0
 92
        8
 66
     7
 43
1.0
 76
     1
 77
     6
 78
     2
 67
     7
 79
     5
170
     0
171
     0
290
     0
174
     0
 93
        1
 44
0.0
173
     0
291
     1
 45
0.0
1001
ACAD
1000
AcDbSavedByObjectVersion
1070
     0
  0
VISUALSTYLE
  5
36
102
{ACAD_REACTORS
330
2A
102
}
102
{ACAD_XDICTIONARY
360
219
102
}
330
2A
100
AcDbVisualStyle
  2
Brighten
 70
    12
 71
     2
 72
     2
 73
     0
 90
        0
 40
0.6
 41
30.0
 62
     5
 63
     7
 74
     1
 91
        4
 64
     7
 65
   257
 75
     1
175
     1
 42
1.0
 92
        8
 66
     7
 43
1.0
 76
     1
 77
     6
 78
     2
 67
     7
 79
     5
170
     0
171
     0
290
     0
174
     0
 93
        1
 44
50.0
173
     0
291
     1
 45
0.0
1001
ACAD
1000
AcDbSavedByObjectVersion
1070
     0
  0
VISUALSTYLE
  5
3A
102
{ACAD_REACTORS
330
2A
102
}
102
{ACAD_XDICTIONARY
360
221
102
}
330
2A
100
AcDbVisualStyle
  2
ColorChange
 70
    16
 71
     2
 72
     2
 73
     3
 90
        0
 40
0.6
 41
30.0
 62
     5
 63
     8
 74
     1
 91
        4
 64
     7
 65
   257
 75
     1
175
     1
 42
1.0
 92
        8
 66
     8
 43
1.0
 76
     1
 77
     6
 78
     2
 67
     7
 79
     5
170
     0
171
     0
290
     0
174
     0
 93
        1
 44
0.0
173
     0
291
     1
 45
0.0
1001
ACAD
1000
AcDbSavedByObjectVersion
1070
     0
  0
VISUALSTYLE
  5
34
102
{ACAD_REACTORS
330
2A
102
}
102
{ACAD_XDICTIONARY
360
215
102
}
330
2A
100
AcDbVisualStyle
  2
Conceptual
 70
     9
 71
     3
 72
     2
 73
     0
 90
        0
 40
0.6
 41
30.0
 62
     5
 63
     7
 74
     2
 91
        2
 64
     7
 65
   257
 75
     1
175
     1
 42
179.0
 92
        8
 66
     7
 43
1.0
 76
     1
 77
     6
 78
     2
 67
     7
 79
     3
170
     0
171
     0
290
     0
174
     0
 93
        1
 44
0.0
173
     0
291
     0
 45
0.0
1001
ACAD
1000
AcDbSavedByObjectVersion
1070
     0
  0
VISUALSTYLE
  5
35
102
{ACAD_REACTORS
330
2A
102
}
102
{ACAD_XDICTIONARY
360
217
102
}
330
2A
100
AcDbVisualStyle
  2
Dim
 70
    11
 71
     2
 72
     2
 73
     0
 90
        0
 40
0.6
 41
30.0
 62
     5
 63
     7
 74
     1
 91
        4
 64
     7
 65
   257
 75
     1
175
     1
 42
1.0
 92
        8
 66
     7
 43
1.0
 76
     1
 77
     6
 78
     2
 67
     7
 79
     5
170
     0
171
     0
290
     0
174
     0
 93
        1
 44
-50.0
173
     0
291
     1
 45
0.0
1001
ACAD
1000
AcDbSavedByObjectVersion
1070
     0
  0
VISUALSTYLE
  5
3D
102
{ACAD_REACTORS
330
2A
102
}
102
{ACAD_XDICTIONARY
360
227
102
}
330
2A
100
AcDbVisualStyle
  2
EdgeColorOff
 70
    22
 71
     2
 72
     2
 73
     0
 90
        0
 40
0.6
 41
30.0
 62
     5
 63
     7
 74
     1
 91
        4
 64
     7
 65
   257
 75
     1
175
     1
 42
1.0
 92
        8
 66
     7
 43
1.0
 76
     1
 77
     6
 78
     2
 67
     7
 79
     5
170
     0
171
     0
290
     0
174
     0
 93
        1
 44
0.0
173
     0
291
     1
 45
0.0
1001
ACAD
1000
AcDbSavedByObjectVersion
1070
     0
  0
VISUALSTYLE
  5
39
102
{ACAD_REACTORS
330
2A
102
}
102
{ACAD_XDICTIONARY
360
21F
102
}
330
2A
100
AcDbVisualStyle
  2
Facepattern
 70
    15
 71
     2
 72
     2
 73
     0
 90
        0
 40
0.6
 41
30.0
 62
     5
 63
     7
 74
     1
 91
        4
 64
     7
 65
   257
 75
     1
175
     1
 42
1.0
 92
        8
 66
     7
 43
1.0
 76
     1
 77
     6
 78
     2
 67
     7
 79
     5
170
     0
171
     0
290
     0
174
     0
 93
        1
 44
0.0
173
     0
291
     1
 45
0.0
1001
ACAD
1000
AcDbSavedByObjectVersion
1070
     0
  0
VISUALSTYLE
  5
2B
102
{ACAD_REACTORS
330
2A
102
}
102
{ACAD_XDICTIONARY
360
203
102
}
330
2A
100
AcDbVisualStyle
  2
Flat
 70
     0
 71
     2
 72
     1
 73
     1
 90
        2
 40
0.6
 41
30.0
 62
     5
 63
     7
 74
     0
 91
        0
 64
     7
 65
   257
 75
     1
175
     1
 42
1.0
 92
        8
 66
     7
 43
1.0
 76
     1
 77
     6
 78
     2
 67
     7
 79
     5
170
     0
171
     0
290
     0
174
     0
 93
       13
 44
0.0
173
     0
291
     1
 45
0.0
1001
ACAD
1000
AcDbSavedByObjectVersion
1070
     0
  0
VISUALSTYLE
  5
2C
102
{ACAD_REACTORS
330
2A
102
}
102
{ACAD_XDICTIONARY
360
205
102
}
330
2A
100
AcDbVisualStyle
  2
FlatWithEdges
 70
     1
 71
     2
 72
     1
 73
     1
 90
        2
 40
0.6
 41
30.0
 62
     5
 63
     7
 74
     1
 91
        0
 64
     7
 65
   257
 75
     1
175
     1
 42
1.0
 92
        0
 66
   257
 43
1.0
 76
     1
 77
     6
 78
     2
 67
     7
 79
     5
170
     0
171
     0
290
     0
174
     0
 93
       13
 44
0.0
173
     0
291
     1
 45
0.0
1001
ACAD
1000
AcDbSavedByObjectVersion
1070
     0
  0
VISUALSTYLE
  5
2D
102
{ACAD_REACTORS
330
2A
102
}
102
{ACAD_XDICTIONARY
360
207
102
}
330
2A
100
AcDbVisualStyle
  2
Gouraud
 70
     2
 71
     2
 72
     2
 73
     1
 90
        2
 40
0.6
 41
30.0
 62
     5
 63
     7
 74
     0
 91
        0
 64
     7
 65
   257
 75
     1
175
     1
 42
1.0
 92
        0
 66
     7
 43
1.0
 76
     1
 77
     6
 78
     2
 67
     7
 79
     5
170
     0
171
     0
290
     0
174
     0
 93
       13
 44
0.0
173
     0
291
     1
 45
0.0
1001
ACAD
1000
AcDbSavedByObjectVersion
1070
     0
  0
VISUALSTYLE
  5
2E
102
{ACAD_REACTORS
330
2A
102
}
102
{ACAD_XDICTIONARY
360
209
102
}
330
2A
100
AcDbVisualStyle
  2
GouraudWithEdges
 70
     3
 71
     2
 72
     2
 73
     1
 90
        2
 40
0.6
 41
30.0
 62
     5
 63
     7
 74
     1
 91
        0
 64
     7
 65
   257
 75
     1
175
     1
 42
1.0
 92
        0
 66
   257
 43
1.0
 76
     1
 77
     6
 78
     2
 67
     7
 79
     5
170
     0
171
     0
290
     0
174
     0
 93
       13
 44
0.0
173
     0
291
     1
 45
0.0
1001
ACAD
1000
AcDbSavedByObjectVersion
1070
     0
  0
VISUALSTYLE
  5
31
102
{ACAD_REACTORS
330
2A
102
}
102
{ACAD_XDICTIONARY
360
20F
102
}
330
2A
100
AcDbVisualStyle
  2
Hidden
 70
     6
 71
     1
 72
     2
 73
     2
 90
        0
 40
0.6
 41
30.0
 62
     5
 63
     7
 74
     2
 91
        2
 64
     7
 65
   257
 75
     2
175
     1
 42
40.0
 92
        0
 66
   257
 43
1.0
 76
     1
 77
     6
 78
     2
 67
     7
 79
     3
170
     0
171
     0
290
     0
174
     0
 93
        1
 44
0.0
173
     0
291
     0
 45
0.0
1001
ACAD
1000
AcDbSavedByObjectVersion
1070
     0
  0
VISUALSTYLE
  5
3B
102
{ACAD_REACTORS
330
2A
102
}
102
{ACAD_XDICTIONARY
360
223
102
}
330
2A
100
AcDbVisualStyle
  2
JitterOff
 70
    20
 71
     2
 72
     2
 73
     0
 90
        0
 40
0.6
 41
30.0
 62
     5
 63
     7
 74
     1
 91
        4
 64
     7
 65
   257
 75
     1
175
     1
 42
1.0
 92
       10
 66
     7
 43
1.0
 76
     1
 77
     6
 78
     2
 67
     7
 79
     5
170
     0
171
     0
290
     0
174
     0
 93
        1
 44
0.0
173
     0
291
     1
 45
0.0
1001
ACAD
1000
AcDbSavedByObjectVersion
1070
     0
  0
VISUALSTYLE
  5
38
102
{ACAD_REACTORS
330
2A
102
}
102
{ACAD_XDICTIONARY
360
21D
102
}
330
2A
100
AcDbVisualStyle
  2
Linepattern
 70
    14
 71
     2
 72
     2
 73
     0
 90
        0
 40
0.6
 41
30.0
 62
     5
 63
     7
 74
     1
 91
        4
 64
     7
 65
   257
 75
     7
175
     7
 42
1.0
 92
        8
 66
     7
 43
1.0
 76
     1
 77
     6
 78
     2
 67
     7
 79
     5
170
     0
171
     0
290
     0
174
     0
 93
        1
 44
0.0
173
     0
291
     1
 45
0.0
1001
ACAD
1000
AcDbSavedByObjectVersion
1070
     0
  0
VISUALSTYLE
  5
3C
102
{ACAD_REACTORS
330
2A
102
}
102
{ACAD_XDICTIONARY
360
225
102
}
330
2A
100
AcDbVisualStyle
  2
OverhangOff
 70
    21
 71
     2
 72
     2
 73
     0
 90
        0
 40
0.6
 41
30.0
 62
     5
 63
     7
 74
     1
 91
        4
 64
     7
 65
   257
 75
     1
175
     1
 42
1.0
 92
        9
 66
     7
 43
1.0
 76
     1
 77
     6
 78
     2
 67
     7
 79
     5
170
     0
171
     0
290
     0
174
     0
 93
        1
 44
0.0
173
     0
291
     1
 45
0.0
1001
ACAD
1000
AcDbSavedByObjectVersion
1070
     0
  0
VISUALSTYLE
  5
33
102
{ACAD_REACTORS
330
2A
102
}
102
{ACAD_XDICTIONARY
360
213
102
}
330
2A
100
AcDbVisualStyle
  2
Realistic
 70
     8
 71
     2
 72
     3
 73
     0
 90
        2
 40
0.6
 41
30.0
 62
     5
 63
     7
 74
     0
 91
        0
 64
     7
 65
   257
 75
     1
175
     1
 42
1.0
 92
        8
 66
   257
 43
1.0
 76
     1
 77
     6
 78
     2
 67
     7
 79
     3
170
     0
171
     0
290
     0
174
     0
 93
       13
 44
0.0
173
     0
291
     0
 45
0.0
1001
ACAD
1000
AcDbSavedByObjectVersion
1070
     0
  0
VISUALSTYLE
  5
42
102
{ACAD_REACTORS
330
2A
102
}
102
{ACAD_XDICTIONARY
360
231
102
}
330
2A
100
AcDbVisualStyle
  2
Shaded
 70
    27
 71
     2
 72
     2
 73
     1
 90
        2
 40
0.6
 41
30.0
 62
     5
 63
     7
 74
     0
 91
        4
 64
     7
 65
   257
 75
     1
175
     1
 42
1.0
 92
        8
 66
   257
 43
1.0
 76
     1
 77
     6
 78
     2
 67
     8
 79
     3
170
     0
171
     0
290
     0
174
     0
 93
        5
 44
0.0
173
     0
291
     0
 45
0.0
1001
ACAD
1000
AcDbSavedByObjectVersion
1070
     0
  0
VISUALSTYLE
  5
41
102
{ACAD_REACTORS
330
2A
102
}
102
{ACAD_XDICTIONARY
360
22F
102
}
330
2A
100
AcDbVisualStyle
  2
Shaded with edges
 70
    26
 71
     2
 72
     2
 73
     1
 90
        2
 40
0.6
 41
30.0
 62
     5
 63
     7
 74
     1
 91
       10
 64
     7
 65
   257
 75
     2
175
     1
 42
1.0
 92
        8
 66
   257
 43
1.0
 76
     1
 77
     6
 78
     2
 67
     7
 79
     3
170
     0
171
     0
290
     0
174
     0
 93
        5
 44
0.0
173
     0
291
     0
 45
0.0
1001
ACAD
1000
AcDbSavedByObjectVersion
1070
     0
  0
VISUALSTYLE
  5
3E
102
{ACAD_REACTORS
330
2A
102
}
102
{ACAD_XDICTIONARY
360
229
102
}
330
2A
100
AcDbVisualStyle
  2
Shades of Gray
 70
    23
 71
     2
 72
     2
 73
     3
 90
        0
 40
0.6
 41
30.0
 62
     5
 63
     7
 74
     2
 91
        2
 64
     7
 65
     7
 75
     1
175
     1
 42
40.0
 92
        8
 66
     7
 43
1.0
 76
     1
 77
     6
 78
     2
 67
     7
 79
     3
170
     0
171
     0
290
     0
174
     0
 93
        1
 44
0.0
173
     0
291
     0
 45
0.0
1001
ACAD
1000
AcDbSavedByObjectVersion
1070
     0
  0
VISUALSTYLE
  5
3F
102
{ACAD_REACTORS
330
2A
102
}
102
{ACAD_XDICTIONARY
360
22B
102
}
330
2A
100
AcDbVisualStyle
  2
Sketchy
 70
    24
 71
     1
 72
     2
 73
     2
 90
        0
 40
0.6
 41
30.0
 62
     5
 63
     7
 74
     2
 91
        2
 64
     7
 65
     7
 75
     1
175
     1
 42
40.0
 92
       11
 66
     7
 43
1.0
 76
     1
 77
     6
 78
     2
 67
     7
 79
     6
170
     0
171
     0
290
     0
174
     0
 93
        1
 44
0.0
173
     0
291
     0
 45
0.0
1001
ACAD
1000
AcDbSavedByObjectVersion
1070
     0
  0
VISUALSTYLE
  5
37
102
{ACAD_REACTORS
330
2A
102
}
102
{ACAD_XDICTIONARY
360
21B
102
}
330
2A
100
AcDbVisualStyle
  2
Thicken
 70
    13
 71
     2
 72
     2
 73
     0
 90
        0
 40
0.6
 41
30.0
 62
     5
 63
     7
 74
     1
 91
        4
 64
     7
 65
   257
 75
     1
175
     1
 42
1.0
 92
       12
 66
     7
 43
1.0
 76
     1
 77
     6
 78
     2
 67
     7
 79
     5
170
     0
171
     0
290
     0
174
     0
 93
        1
 44
0.0
173
     0
291
     1
 45
0.0
1001
ACAD
1000
AcDbSavedByObjectVersion
1070
     0
  0
VISUALSTYLE
  5
30
102
{ACAD_REACTORS
330
2A
102
}
102
{ACAD_XDICTIONARY
360
20D
102
}
330
2A
100
AcDbVisualStyle
  2
Wireframe
 70
     5
 71
     0
 72
     2
 73
     0
 90
        0
 40
0.6
 41
30.0
 62
     5
 63
     7
 74
     1
 91
        4
 64
     7
 65
   257
 75
     1
175
     1
 42
1.0
 92
        0
 66
   257
 43
1.0
 76
     1
 77
     6
 78
     2
 67
     7
 79
     3
170
     0
171
     0
290
     0
174
     0
 93
        1
 44
0.0
173
     0
291
     0
 45
0.0
1001
ACAD
1000
AcDbSavedByObjectVersion
1070
     0
  0
VISUALSTYLE
  5
40
102
{ACAD_REACTORS
330
2A
102
}
102
{ACAD_XDICTIONARY
360
22D
102
}
330
2A
100
AcDbVisualStyle
  2
X-Ray
 70
    25
 71
     2
 72
     2
 73
     1
 90
        1
 40
0.5
 41
30.0
 62
     5
 63
     7
 74
     1
 91
        0
 64
     7
 65
   257
 75
     1
175
     1
 42
1.0
 92
        8
 66
     7
 43
1.0
 76
     1
 77
     6
 78
     2
 67
     7
 79
     3
170
     0
171
     0
290
     0
174
     0
 93
       13
 44
0.0
173
     0
291
     0
 45
0.0
1001
ACAD
1000
AcDbSavedByObjectVersion
1070
     0
  0
DICTIONARYVAR
  5
201
102
{ACAD_REACTORS
330
1F4
102
}
330
1F4
100
DictionaryVariables
280
     0
  1
1:1
  0
DICTIONARYVAR
  5
1FB
102
{ACAD_REACTORS
330
1F4
102
}
330
1F4
100
DictionaryVariables
280
     0
  1
3.500000
  0
DICTIONARYVAR
  5
1FC
102
{ACAD_REACTORS
330
1F4
102
}
330
1F4
100
DictionaryVariables
280
     0
  1
acadiso.lin
  0
DICTIONARYVAR
  5
1F6
102
{ACAD_REACTORS
330
1F4
102
}
330
1F4
100
DictionaryVariables
280
     0
  1
Standard
  0
DICTIONARYVAR
  5
1F5
102
{ACAD_REACTORS
330
1F4
102
}
330
1F4
100
DictionaryVariables
280
     0
  1
Standard
  0
DICTIONARYVAR
  5
1FD
102
{ACAD_REACTORS
330
1F4
102
}
330
1F4
100
DictionaryVariables
280
     0
  1
2
  0
DICTIONARYVAR
  5
1FE
102
{ACAD_REACTORS
330
1F4
102
}
330
1F4
100
DictionaryVariables
280
     0
  1
1
  0
DICTIONARYVAR
  5
202
102
{ACAD_REACTORS
330
1F4
102
}
330
1F4
100
DictionaryVariables
280
     0
  1
1
  0
DICTIONARYVAR
  5
1F8
102
{ACAD_REACTORS
330
1F4
102
}
330
1F4
100
DictionaryVariables
280
     0
  1
80.000000
  0
DICTIONARYVAR
  5
1F7
102
{ACAD_REACTORS
330
1F4
102
}
330
1F4
100
DictionaryVariables
280
     0
  1
5.000000
  0
DICTIONARY
  5
235
330
45
100
AcDbDictionary
280
     1
281
     1
  3
ACAD_XREC_ROUNDTRIP
360
236
  0
DICTIONARY
  5
233
330
44
100
AcDbDictionary
280
     1
281
     1
  3
ACAD_XREC_ROUNDTRIP
360
234
  0
DICTIONARY
  5
237
330
46
100
AcDbDictionary
280
     1
281
     1
  3
ACAD_XREC_ROUNDTRIP
360
238
  0
DICTIONARY
  5
23A
330
6C
100
AcDbDictionary
280
     1
281
     1
  3
ACAD_XREC_ROUNDTRIP
360
23B
  0
DICTIONARY
  5
20B
330
2F
100
AcDbDictionary
280
     1
281
     1
  3
ACAD_XREC_ROUNDTRIP
360
20C
  0
DICTIONARY
  5
211
330
32
100
AcDbDictionary
280
     1
281
     1
  3
ACAD_XREC_ROUNDTRIP
360
212
  0
DICTIONARY
  5
219
330
36
100
AcDbDictionary
280
     1
281
     1
  3
ACAD_XREC_ROUNDTRIP
360
21A
  0
DICTIONARY
  5
221
330
3A
100
AcDbDictionary
280
     1
281
     1
  3
ACAD_XREC_ROUNDTRIP
360
222
  0
DICTIONARY
  5
215
330
34
100
AcDbDictionary
280
     1
281
     1
  3
ACAD_XREC_ROUNDTRIP
360
216
  0
DICTIONARY
  5
217
330
35
100
AcDbDictionary
280
     1
281
     1
  3
ACAD_XREC_ROUNDTRIP
360
218
  0
DICTIONARY
  5
227
330
3D
100
AcDbDictionary
280
     1
281
     1
  3
ACAD_XREC_ROUNDTRIP
360
228
  0
DICTIONARY
  5
21F
330
39
100
AcDbDictionary
280
     1
281
     1
  3
ACAD_XREC_ROUNDTRIP
360
220
  0
DICTIONARY
  5
203
330
2B
100
AcDbDictionary
280
     1
281
     1
  3
ACAD_XREC_ROUNDTRIP
360
204
  0
DICTIONARY
  5
205
330
2C
100
AcDbDictionary
280
     1
281
     1
  3
ACAD_XREC_ROUNDTRIP
360
206
  0
DICTIONARY
  5
207
330
2D
100
AcDbDictionary
280
     1
281
     1
  3
ACAD_XREC_ROUNDTRIP
360
208
  0
DICTIONARY
  5
209
330
2E
100
AcDbDictionary
280
     1
281
     1
  3
ACAD_XREC_ROUNDTRIP
360
20A
  0
DICTIONARY
  5
20F
330
31
100
AcDbDictionary
280
     1
281
     1
  3
ACAD_XREC_ROUNDTRIP
360
210
  0
DICTIONARY
  5
223
330
3B
100
AcDbDictionary
280
     1
281
     1
  3
ACAD_XREC_ROUNDTRIP
360
224
  0
DICTIONARY
  5
21D
330
38
100
AcDbDictionary
280
     1
281
     1
  3
ACAD_XREC_ROUNDTRIP
360
21E
  0
DICTIONARY
  5
225
330
3C
100
AcDbDictionary
280
     1
281
     1
  3
ACAD_XREC_ROUNDTRIP
360
226
  0
DICTIONARY
  5
213
330
33
100
AcDbDictionary
280
     1
281
     1
  3
ACAD_XREC_ROUNDTRIP
360
214
  0
DICTIONARY
  5
231
330
42
100
AcDbDictionary
280
     1
281
     1
  3
ACAD_XREC_ROUNDTRIP
360
232
  0
DICTIONARY
  5
22F
330
41
100
AcDbDictionary
280
     1
281
     1
  3
ACAD_XREC_ROUNDTRIP
360
230
  0
DICTIONARY
  5
229
330
3E
100
AcDbDictionary
280
     1
281
     1
  3
ACAD_XREC_ROUNDTRIP
360
22A
  0
DICTIONARY
  5
22B
330
3F
100
AcDbDictionary
280
     1
281
     1
  3
ACAD_XREC_ROUNDTRIP
360
22C
  0
DICTIONARY
  5
21B
330
37
100
AcDbDictionary
280
     1
281
     1
  3
ACAD_XREC_ROUNDTRIP
360
21C
  0
DICTIONARY
  5
20D
330
30
100
AcDbDictionary
280
     1
281
     1
  3
ACAD_XREC_ROUNDTRIP
360
20E
  0
DICTIONARY
  5
22D
330
40
100
AcDbDictionary
280
     1
281
     1
  3
ACAD_XREC_ROUNDTRIP
360
22E
  0
XRECORD
  5
236
102
{ACAD_REACTORS
330
235
102
}
330
235
100
AcDbXrecord
280
     1
102
MATERIAL
148
0.0
149
0.0
149
0.0
 93
        0
 94
      127
282
     0
 72
     1
 77
     1
171
     1
175
     1
179
     1
273
     0
  0
XRECORD
  5
234
102
{ACAD_REACTORS
330
233
102
}
330
233
100
AcDbXrecord
280
     1
102
MATERIAL
148
0.0
149
0.0
149
0.0
 93
        0
 94
      127
282
     0
 72
     1
 77
     1
171
     1
175
     1
179
     1
273
     0
  0
XRECORD
  5
238
102
{ACAD_REACTORS
330
237
102
}
330
237
100
AcDbXrecord
280
     1
102
MATERIAL
148
0.0
149
0.0
149
0.0
 93
        0
 94
      127
282
     0
 72
     1
 77
     1
171
     1
175
     1
179
     1
273
     0
  0
XRECORD
  5
23B
102
{ACAD_REACTORS
330
23A
102
}
330
23A
100
AcDbXrecord
280
     1
102
ACAD_ROUNDTRIP_2010_MLEADER_STYLE
  0
XRECORD
  5
20C
102
{ACAD_REACTORS
330
20B
102
}
330
20B
100
AcDbXrecord
280
     1
102
RTVSPropertyOp0
 70
     1
102
RTVSPropertyOp1
 70
     1
102
RTVSPropertyOp2
 70
     1
102
RTVSPropertyOp3
 70
     1
102
RTVSPropertyOp4
 70
     1
102
RTVSPropertyOp5
 70
     1
102
RTVSPropertyOp6
 70
     1
102
RTVSPropertyOp7
 70
     1
102
RTVSPropertyOp8
 70
     1
102
RTVSPropertyOp9
 70
     1
102
RTVSPropertyOp10
 70
     1
102
RTVSPropertyOp11
 70
     1
102
RTVSPropertyOp12
 70
     1
102
RTVSPropertyOp13
 70
     1
102
RTVSPropertyOp14
 70
     1
102
RTVSPropertyOp15
 70
     1
102
RTVSPropertyOp16
 70
     1
102
RTVSPropertyOp17
 70
     1
102
RTVSPropertyOp18
 70
     1
102
RTVSPropertyOp19
 70
     1
102
RTVSPropertyOp20
 70
     1
102
RTVSPropertyOp21
 70
     1
102
RTVSPropertyOp22
 70
     1
102
RTVSPropertyOp23
 70
     1
102
RTVSPropertyOp24
 70
     1
102
RTVSPropertyOp25
 70
     1
102
RTVSPropertyOp26
 70
     1
102
RTVSPropertyOp27
 70
     1
102
RTVSPropertyOp28
 70
     1
102
RTVSPropertyOp29
 70
     1
102
RTVSPropertyOp30
 70
     1
102
RTVSPropertyOp31
 70
     1
102
RTVSPropertyOp32
 70
     1
102
RTVSPropertyOp33
 70
     1
102
RTVSPropertyOp34
 70
     1
102
RTVSPropertyOp35
 70
     1
102
RTVSPropertyOp36
 70
     1
102
RTVSPropertyOp37
 70
     1
102
RTVSPropertyOp38
 70
     1
102
RTVSPropertyOp39
 70
     1
102
RTVSPropertyOp40
 70
     1
102
RTVSPropertyOp41
 70
     1
102
RTVSPropertyOp42
 70
     1
102
RTVSPropertyOp43
 70
     1
102
RTVSPropertyOp44
 70
     1
102
RTVSPropertyOp45
 70
     1
102
RTVSPropertyOp46
 70
     1
102
RTVSPropertyOp47
 70
     1
102
RTVSPropertyOp48
 70
     1
102
RTVSPropertyOp49
 70
     1
102
RTVSPropertyOp50
 70
     1
102
RTVSPropertyOp51
 70
     0
102
RTVSPropertyOp52
 70
     0
102
RTVSPropertyOp53
 70
     1
102
RTVSPropertyOp54
 70
     1
102
RTVSPropertyOp55
 70
     1
102
RTVSPropertyOp56
 70
     1
102
RTVSPropertyOp57
 70
     1
102
RTVSPost2010Prop28
280
     1
102
RTVSPost2010PropOp28
 70
     1
102
RTVSPost2010Prop29
280
     1
102
RTVSPost2010PropOp29
 70
     1
102
RTVSPost2010Prop30
280
     0
102
RTVSPost2010PropOp30
 70
     1
102
RTVSPost2010Prop31
280
     0
102
RTVSPost2010PropOp31
 70
     1
102
RTVSPost2010Prop32
280
     0
102
RTVSPost2010PropOp32
 70
     1
102
RTVSPost2010Prop33
280
     0
102
RTVSPost2010PropOp33
 70
     1
102
RTVSPost2010Prop34
280
     0
102
RTVSPost2010PropOp34
 70
     1
102
RTVSPost2010Prop35
280
     0
102
RTVSPost2010PropOp35
 70
     1
102
RTVSPost2010Prop36
280
     0
102
RTVSPost2010PropOp36
 70
     1
102
RTVSPost2010Prop37
 90
       50
102
RTVSPost2010PropOp37
 70
     1
102
RTVSPost2010Prop38
140
0.0
102
RTVSPost2010PropOp38
 70
     1
102
RTVSPost2010Prop39
140
1.0
102
RTVSPost2010PropOp39
 70
     1
102
RTVSPost2010Prop40
 90
        0
102
RTVSPost2010PropOp40
 70
     1
102
RTVSPost2010Prop41ColorIndex
 90
       18
102
RTVSPost2010Prop41ColorRGB
 90
        0
102
RTVSPost2010PropOp41
 70
     1
102
RTVSPost2010Prop42
 90
       50
102
RTVSPost2010PropOp42
 70
     1
102
RTVSPost2010Prop43
 90
        3
102
RTVSPost2010PropOp43
 70
     1
102
RTVSPost2010Prop44ColorIndex
 90
        5
102
RTVSPost2010Prop44ColorRGB
 90
      255
102
RTVSPost2010PropOp44
 70
     1
102
RTVSPost2010Prop45
280
     0
102
RTVSPost2010PropOp45
 70
     1
102
RTVSPost2010Prop46
 90
       50
102
RTVSPost2010PropOp46
 70
     1
102
RTVSPost2010Prop47
 90
       50
102
RTVSPost2010PropOp47
 70
     1
102
RTVSPost2010Prop48
 90
       50
102
RTVSPost2010PropOp48
 70
     1
102
RTVSPost2010Prop49
280
     0
102
RTVSPost2010PropOp49
 70
     1
102
RTVSPost2010Prop50
 90
       50
102
RTVSPost2010PropOp50
 70
     1
102
RTVSPost2010Prop51ColorIndex
 90
      256
102
RTVSPost2010Prop51ColorRGB
 90
-16777216
102
RTVSPost2010PropOp51
 70
     0
102
RTVSPost2010Prop52
140
1.0
102
RTVSPost2010PropOp52
 70
     0
102
RTVSPost2010Prop53
 90
        2
102
RTVSPost2010PropOp53
 70
     1
102
RTVSPost2010Prop54
  1
strokes_ogs.tif
102
RTVSPost2010PropOp54
 70
     1
102
RTVSPost2010Prop55
280
     0
102
RTVSPost2010PropOp55
 70
     1
102
RTVSPost2010Prop56
140
1.0
102
RTVSPost2010PropOp56
 70
     1
102
RTVSPost2010Prop57
140
1.0
102
RTVSPost2010PropOp57
 70
     1
  0
XRECORD
  5
212
102
{ACAD_REACTORS
330
211
102
}
330
211
100
AcDbXrecord
280
     1
102
RTVSPropertyOp0
 70
     1
102
RTVSPropertyOp1
 70
     1
102
RTVSPropertyOp2
 70
     1
102
RTVSPropertyOp3
 70
     1
102
RTVSPropertyOp4
 70
     1
102
RTVSPropertyOp5
 70
     1
102
RTVSPropertyOp6
 70
     1
102
RTVSPropertyOp7
 70
     1
102
RTVSPropertyOp8
 70
     1
102
RTVSPropertyOp9
 70
     1
102
RTVSPropertyOp10
 70
     1
102
RTVSPropertyOp11
 70
     1
102
RTVSPropertyOp12
 70
     1
102
RTVSPropertyOp13
 70
     1
102
RTVSPropertyOp14
 70
     1
102
RTVSPropertyOp15
 70
     1
102
RTVSPropertyOp16
 70
     1
102
RTVSPropertyOp17
 70
     1
102
RTVSPropertyOp18
 70
     1
102
RTVSPropertyOp19
 70
     1
102
RTVSPropertyOp20
 70
     1
102
RTVSPropertyOp21
 70
     1
102
RTVSPropertyOp22
 70
     1
102
RTVSPropertyOp23
 70
     1
102
RTVSPropertyOp24
 70
     1
102
RTVSPropertyOp25
 70
     1
102
RTVSPropertyOp26
 70
     1
102
RTVSPropertyOp27
 70
     1
102
RTVSPropertyOp28
 70
     1
102
RTVSPropertyOp29
 70
     1
102
RTVSPropertyOp30
 70
     1
102
RTVSPropertyOp31
 70
     1
102
RTVSPropertyOp32
 70
     1
102
RTVSPropertyOp33
 70
     1
102
RTVSPropertyOp34
 70
     1
102
RTVSPropertyOp35
 70
     1
102
RTVSPropertyOp36
 70
     1
102
RTVSPropertyOp37
 70
     1
102
RTVSPropertyOp38
 70
     1
102
RTVSPropertyOp39
 70
     1
102
RTVSPropertyOp40
 70
     1
102
RTVSPropertyOp41
 70
     1
102
RTVSPropertyOp42
 70
     1
102
RTVSPropertyOp43
 70
     1
102
RTVSPropertyOp44
 70
     1
102
RTVSPropertyOp45
 70
     1
102
RTVSPropertyOp46
 70
     1
102
RTVSPropertyOp47
 70
     1
102
RTVSPropertyOp48
 70
     1
102
RTVSPropertyOp49
 70
     1
102
RTVSPropertyOp50
 70
     1
102
RTVSPropertyOp51
 70
     0
102
RTVSPropertyOp52
 70
     0
102
RTVSPropertyOp53
 70
     1
102
RTVSPropertyOp54
 70
     1
102
RTVSPropertyOp55
 70
     1
102
RTVSPropertyOp56
 70
     1
102
RTVSPropertyOp57
 70
     1
102
RTVSPost2010Prop28
280
     0
102
RTVSPost2010PropOp28
 70
     1
102
RTVSPost2010Prop29
280
     1
102
RTVSPost2010PropOp29
 70
     1
102
RTVSPost2010Prop30
280
     1
102
RTVSPost2010PropOp30
 70
     1
102
RTVSPost2010Prop31
280
     0
102
RTVSPost2010PropOp31
 70
     1
102
RTVSPost2010Prop32
280
     0
102
RTVSPost2010PropOp32
 70
     1
102
RTVSPost2010Prop33
280
     0
102
RTVSPost2010PropOp33
 70
     1
102
RTVSPost2010Prop34
280
     0
102
RTVSPost2010PropOp34
 70
     1
102
RTVSPost2010Prop35
280
     0
102
RTVSPost2010PropOp35
 70
     1
102
RTVSPost2010Prop36
280
     0
102
RTVSPost2010PropOp36
 70
     1
102
RTVSPost2010Prop37
 90
       50
102
RTVSPost2010PropOp37
 70
     1
102
RTVSPost2010Prop38
140
0.0
102
RTVSPost2010PropOp38
 70
     1
102
RTVSPost2010Prop39
140
1.0
102
RTVSPost2010PropOp39
 70
     1
102
RTVSPost2010Prop40
 90
        0
102
RTVSPost2010PropOp40
 70
     1
102
RTVSPost2010Prop41ColorIndex
 90
       18
102
RTVSPost2010Prop41ColorRGB
 90
        0
102
RTVSPost2010PropOp41
 70
     1
102
RTVSPost2010Prop42
 90
       50
102
RTVSPost2010PropOp42
 70
     1
102
RTVSPost2010Prop43
 90
        3
102
RTVSPost2010PropOp43
 70
     1
102
RTVSPost2010Prop44ColorIndex
 90
        5
102
RTVSPost2010Prop44ColorRGB
 90
      255
102
RTVSPost2010PropOp44
 70
     1
102
RTVSPost2010Prop45
280
     0
102
RTVSPost2010PropOp45
 70
     1
102
RTVSPost2010Prop46
 90
       50
102
RTVSPost2010PropOp46
 70
     1
102
RTVSPost2010Prop47
 90
       50
102
RTVSPost2010PropOp47
 70
     1
102
RTVSPost2010Prop48
 90
       50
102
RTVSPost2010PropOp48
 70
     1
102
RTVSPost2010Prop49
280
     0
102
RTVSPost2010PropOp49
 70
     1
102
RTVSPost2010Prop50
 90
       50
102
RTVSPost2010PropOp50
 70
     1
102
RTVSPost2010Prop51ColorIndex
 90
      256
102
RTVSPost2010Prop51ColorRGB
 90
-16777216
102
RTVSPost2010PropOp51
 70
     0
102
RTVSPost2010Prop52
140
1.0
102
RTVSPost2010PropOp52
 70
     0
102
RTVSPost2010Prop53
 90
        2
102
RTVSPost2010PropOp53
 70
     1
102
RTVSPost2010Prop54
  1
strokes_ogs.tif
102
RTVSPost2010PropOp54
 70
     1
102
RTVSPost2010Prop55
280
     0
102
RTVSPost2010PropOp55
 70
     1
102
RTVSPost2010Prop56
140
1.0
102
RTVSPost2010PropOp56
 70
     1
102
RTVSPost2010Prop57
140
1.0
102
RTVSPost2010PropOp57
 70
     1
  0
XRECORD
  5
21A
102
{ACAD_REACTORS
330
219
102
}
330
219
100
AcDbXrecord
280
     1
102
RTVSPropertyOp0
 70
     1
102
RTVSPropertyOp1
 70
     1
102
RTVSPropertyOp2
 70
     1
102
RTVSPropertyOp3
 70
     1
102
RTVSPropertyOp4
 70
     1
102
RTVSPropertyOp5
 70
     1
102
RTVSPropertyOp6
 70
     1
102
RTVSPropertyOp7
 70
     1
102
RTVSPropertyOp8
 70
     1
102
RTVSPropertyOp9
 70
     1
102
RTVSPropertyOp10
 70
     1
102
RTVSPropertyOp11
 70
     1
102
RTVSPropertyOp12
 70
     1
102
RTVSPropertyOp13
 70
     1
102
RTVSPropertyOp14
 70
     1
102
RTVSPropertyOp15
 70
     1
102
RTVSPropertyOp16
 70
     1
102
RTVSPropertyOp17
 70
     1
102
RTVSPropertyOp18
 70
     1
102
RTVSPropertyOp19
 70
     1
102
RTVSPropertyOp20
 70
     1
102
RTVSPropertyOp21
 70
     1
102
RTVSPropertyOp22
 70
     1
102
RTVSPropertyOp23
 70
     1
102
RTVSPropertyOp24
 70
     1
102
RTVSPropertyOp25
 70
     1
102
RTVSPropertyOp26
 70
     1
102
RTVSPropertyOp27
 70
     1
102
RTVSPropertyOp28
 70
     1
102
RTVSPropertyOp29
 70
     1
102
RTVSPropertyOp30
 70
     1
102
RTVSPropertyOp31
 70
     1
102
RTVSPropertyOp32
 70
     1
102
RTVSPropertyOp33
 70
     1
102
RTVSPropertyOp34
 70
     1
102
RTVSPropertyOp35
 70
     1
102
RTVSPropertyOp36
 70
     1
102
RTVSPropertyOp37
 70
     1
102
RTVSPropertyOp38
 70
     1
102
RTVSPropertyOp39
 70
     1
102
RTVSPropertyOp40
 70
     1
102
RTVSPropertyOp41
 70
     1
102
RTVSPropertyOp42
 70
     1
102
RTVSPropertyOp43
 70
     1
102
RTVSPropertyOp44
 70
     1
102
RTVSPropertyOp45
 70
     1
102
RTVSPropertyOp46
 70
     1
102
RTVSPropertyOp47
 70
     1
102
RTVSPropertyOp48
 70
     1
102
RTVSPropertyOp49
 70
     1
102
RTVSPropertyOp50
 70
     1
102
RTVSPropertyOp51
 70
     0
102
RTVSPropertyOp52
 70
     0
102
RTVSPropertyOp53
 70
     1
102
RTVSPropertyOp54
 70
     1
102
RTVSPropertyOp55
 70
     1
102
RTVSPropertyOp56
 70
     1
102
RTVSPropertyOp57
 70
     1
102
RTVSPost2010Prop28
280
     0
102
RTVSPost2010PropOp28
 70
     1
102
RTVSPost2010Prop29
280
     1
102
RTVSPost2010PropOp29
 70
     1
102
RTVSPost2010Prop30
280
     1
102
RTVSPost2010PropOp30
 70
     1
102
RTVSPost2010Prop31
280
     0
102
RTVSPost2010PropOp31
 70
     1
102
RTVSPost2010Prop32
280
     0
102
RTVSPost2010PropOp32
 70
     1
102
RTVSPost2010Prop33
280
     0
102
RTVSPost2010PropOp33
 70
     1
102
RTVSPost2010Prop34
280
     0
102
RTVSPost2010PropOp34
 70
     1
102
RTVSPost2010Prop35
280
     0
102
RTVSPost2010PropOp35
 70
     1
102
RTVSPost2010Prop36
280
     0
102
RTVSPost2010PropOp36
 70
     1
102
RTVSPost2010Prop37
 90
       50
102
RTVSPost2010PropOp37
 70
     1
102
RTVSPost2010Prop38
140
0.0
102
RTVSPost2010PropOp38
 70
     1
102
RTVSPost2010Prop39
140
1.0
102
RTVSPost2010PropOp39
 70
     1
102
RTVSPost2010Prop40
 90
        0
102
RTVSPost2010PropOp40
 70
     1
102
RTVSPost2010Prop41ColorIndex
 90
       18
102
RTVSPost2010Prop41ColorRGB
 90
        0
102
RTVSPost2010PropOp41
 70
     1
102
RTVSPost2010Prop42
 90
       50
102
RTVSPost2010PropOp42
 70
     1
102
RTVSPost2010Prop43
 90
        3
102
RTVSPost2010PropOp43
 70
     1
102
RTVSPost2010Prop44ColorIndex
 90
        5
102
RTVSPost2010Prop44ColorRGB
 90
      255
102
RTVSPost2010PropOp44
 70
     1
102
RTVSPost2010Prop45
280
     0
102
RTVSPost2010PropOp45
 70
     1
102
RTVSPost2010Prop46
 90
       50
102
RTVSPost2010PropOp46
 70
     1
102
RTVSPost2010Prop47
 90
       50
102
RTVSPost2010PropOp47
 70
     1
102
RTVSPost2010Prop48
 90
       50
102
RTVSPost2010PropOp48
 70
     1
102
RTVSPost2010Prop49
280
     0
102
RTVSPost2010PropOp49
 70
     1
102
RTVSPost2010Prop50
 90
       50
102
RTVSPost2010PropOp50
 70
     1
102
RTVSPost2010Prop51ColorIndex
 90
      256
102
RTVSPost2010Prop51ColorRGB
 90
-16777216
102
RTVSPost2010PropOp51
 70
     0
102
RTVSPost2010Prop52
140
1.0
102
RTVSPost2010PropOp52
 70
     0
102
RTVSPost2010Prop53
 90
        2
102
RTVSPost2010PropOp53
 70
     1
102
RTVSPost2010Prop54
  1
strokes_ogs.tif
102
RTVSPost2010PropOp54
 70
     1
102
RTVSPost2010Prop55
280
     0
102
RTVSPost2010PropOp55
 70
     1
102
RTVSPost2010Prop56
140
1.0
102
RTVSPost2010PropOp56
 70
     1
102
RTVSPost2010Prop57
140
1.0
102
RTVSPost2010PropOp57
 70
     1
  0
XRECORD
  5
222
102
{ACAD_REACTORS
330
221
102
}
330
221
100
AcDbXrecord
280
     1
102
RTVSPropertyOp0
 70
     1
102
RTVSPropertyOp1
 70
     1
102
RTVSPropertyOp2
 70
     1
102
RTVSPropertyOp3
 70
     1
102
RTVSPropertyOp4
 70
     1
102
RTVSPropertyOp5
 70
     1
102
RTVSPropertyOp6
 70
     1
102
RTVSPropertyOp7
 70
     1
102
RTVSPropertyOp8
 70
     1
102
RTVSPropertyOp9
 70
     1
102
RTVSPropertyOp10
 70
     1
102
RTVSPropertyOp11
 70
     1
102
RTVSPropertyOp12
 70
     1
102
RTVSPropertyOp13
 70
     1
102
RTVSPropertyOp14
 70
     1
102
RTVSPropertyOp15
 70
     1
102
RTVSPropertyOp16
 70
     1
102
RTVSPropertyOp17
 70
     1
102
RTVSPropertyOp18
 70
     1
102
RTVSPropertyOp19
 70
     1
102
RTVSPropertyOp20
 70
     1
102
RTVSPropertyOp21
 70
     1
102
RTVSPropertyOp22
 70
     1
102
RTVSPropertyOp23
 70
     1
102
RTVSPropertyOp24
 70
     1
102
RTVSPropertyOp25
 70
     1
102
RTVSPropertyOp26
 70
     1
102
RTVSPropertyOp27
 70
     1
102
RTVSPropertyOp28
 70
     1
102
RTVSPropertyOp29
 70
     1
102
RTVSPropertyOp30
 70
     1
102
RTVSPropertyOp31
 70
     1
102
RTVSPropertyOp32
 70
     1
102
RTVSPropertyOp33
 70
     1
102
RTVSPropertyOp34
 70
     1
102
RTVSPropertyOp35
 70
     1
102
RTVSPropertyOp36
 70
     1
102
RTVSPropertyOp37
 70
     1
102
RTVSPropertyOp38
 70
     1
102
RTVSPropertyOp39
 70
     1
102
RTVSPropertyOp40
 70
     1
102
RTVSPropertyOp41
 70
     1
102
RTVSPropertyOp42
 70
     1
102
RTVSPropertyOp43
 70
     1
102
RTVSPropertyOp44
 70
     1
102
RTVSPropertyOp45
 70
     1
102
RTVSPropertyOp46
 70
     1
102
RTVSPropertyOp47
 70
     1
102
RTVSPropertyOp48
 70
     1
102
RTVSPropertyOp49
 70
     1
102
RTVSPropertyOp50
 70
     1
102
RTVSPropertyOp51
 70
     0
102
RTVSPropertyOp52
 70
     0
102
RTVSPropertyOp53
 70
     1
102
RTVSPropertyOp54
 70
     1
102
RTVSPropertyOp55
 70
     1
102
RTVSPropertyOp56
 70
     1
102
RTVSPropertyOp57
 70
     1
102
RTVSPost2010Prop28
280
     0
102
RTVSPost2010PropOp28
 70
     1
102
RTVSPost2010Prop29
280
     1
102
RTVSPost2010PropOp29
 70
     1
102
RTVSPost2010Prop30
280
     1
102
RTVSPost2010PropOp30
 70
     1
102
RTVSPost2010Prop31
280
     0
102
RTVSPost2010PropOp31
 70
     1
102
RTVSPost2010Prop32
280
     0
102
RTVSPost2010PropOp32
 70
     1
102
RTVSPost2010Prop33
280
     0
102
RTVSPost2010PropOp33
 70
     1
102
RTVSPost2010Prop34
280
     0
102
RTVSPost2010PropOp34
 70
     1
102
RTVSPost2010Prop35
280
     0
102
RTVSPost2010PropOp35
 70
     1
102
RTVSPost2010Prop36
280
     0
102
RTVSPost2010PropOp36
 70
     1
102
RTVSPost2010Prop37
 90
       50
102
RTVSPost2010PropOp37
 70
     1
102
RTVSPost2010Prop38
140
0.0
102
RTVSPost2010PropOp38
 70
     1
102
RTVSPost2010Prop39
140
1.0
102
RTVSPost2010PropOp39
 70
     1
102
RTVSPost2010Prop40
 90
        0
102
RTVSPost2010PropOp40
 70
     1
102
RTVSPost2010Prop41ColorIndex
 90
       18
102
RTVSPost2010Prop41ColorRGB
 90
        0
102
RTVSPost2010PropOp41
 70
     1
102
RTVSPost2010Prop42
 90
       50
102
RTVSPost2010PropOp42
 70
     1
102
RTVSPost2010Prop43
 90
        3
102
RTVSPost2010PropOp43
 70
     1
102
RTVSPost2010Prop44ColorIndex
 90
        5
102
RTVSPost2010Prop44ColorRGB
 90
      255
102
RTVSPost2010PropOp44
 70
     1
102
RTVSPost2010Prop45
280
     0
102
RTVSPost2010PropOp45
 70
     1
102
RTVSPost2010Prop46
 90
       50
102
RTVSPost2010PropOp46
 70
     1
102
RTVSPost2010Prop47
 90
       50
102
RTVSPost2010PropOp47
 70
     1
102
RTVSPost2010Prop48
 90
       50
102
RTVSPost2010PropOp48
 70
     1
102
RTVSPost2010Prop49
280
     0
102
RTVSPost2010PropOp49
 70
     1
102
RTVSPost2010Prop50
 90
       50
102
RTVSPost2010PropOp50
 70
     1
102
RTVSPost2010Prop51ColorIndex
 90
      256
102
RTVSPost2010Prop51ColorRGB
 90
-16777216
102
RTVSPost2010PropOp51
 70
     0
102
RTVSPost2010Prop52
140
1.0
102
RTVSPost2010PropOp52
 70
     0
102
RTVSPost2010Prop53
 90
        2
102
RTVSPost2010PropOp53
 70
     1
102
RTVSPost2010Prop54
  1
strokes_ogs.tif
102
RTVSPost2010PropOp54
 70
     1
102
RTVSPost2010Prop55
280
     0
102
RTVSPost2010PropOp55
 70
     1
102
RTVSPost2010Prop56
140
1.0
102
RTVSPost2010PropOp56
 70
     1
102
RTVSPost2010Prop57
140
1.0
102
RTVSPost2010PropOp57
 70
     1
  0
XRECORD
  5
216
102
{ACAD_REACTORS
330
215
102
}
330
215
100
AcDbXrecord
280
     1
102
RTVSPropertyOp0
 70
     1
102
RTVSPropertyOp1
 70
     1
102
RTVSPropertyOp2
 70
     1
102
RTVSPropertyOp3
 70
     1
102
RTVSPropertyOp4
 70
     1
102
RTVSPropertyOp5
 70
     1
102
RTVSPropertyOp6
 70
     1
102
RTVSPropertyOp7
 70
     1
102
RTVSPropertyOp8
 70
     1
102
RTVSPropertyOp9
 70
     1
102
RTVSPropertyOp10
 70
     1
102
RTVSPropertyOp11
 70
     1
102
RTVSPropertyOp12
 70
     1
102
RTVSPropertyOp13
 70
     1
102
RTVSPropertyOp14
 70
     1
102
RTVSPropertyOp15
 70
     1
102
RTVSPropertyOp16
 70
     1
102
RTVSPropertyOp17
 70
     1
102
RTVSPropertyOp18
 70
     1
102
RTVSPropertyOp19
 70
     1
102
RTVSPropertyOp20
 70
     1
102
RTVSPropertyOp21
 70
     1
102
RTVSPropertyOp22
 70
     1
102
RTVSPropertyOp23
 70
     1
102
RTVSPropertyOp24
 70
     1
102
RTVSPropertyOp25
 70
     1
102
RTVSPropertyOp26
 70
     1
102
RTVSPropertyOp27
 70
     1
102
RTVSPropertyOp28
 70
     1
102
RTVSPropertyOp29
 70
     1
102
RTVSPropertyOp30
 70
     1
102
RTVSPropertyOp31
 70
     1
102
RTVSPropertyOp32
 70
     1
102
RTVSPropertyOp33
 70
     1
102
RTVSPropertyOp34
 70
     1
102
RTVSPropertyOp35
 70
     1
102
RTVSPropertyOp36
 70
     1
102
RTVSPropertyOp37
 70
     1
102
RTVSPropertyOp38
 70
     1
102
RTVSPropertyOp39
 70
     1
102
RTVSPropertyOp40
 70
     1
102
RTVSPropertyOp41
 70
     1
102
RTVSPropertyOp42
 70
     1
102
RTVSPropertyOp43
 70
     1
102
RTVSPropertyOp44
 70
     1
102
RTVSPropertyOp45
 70
     1
102
RTVSPropertyOp46
 70
     1
102
RTVSPropertyOp47
 70
     1
102
RTVSPropertyOp48
 70
     1
102
RTVSPropertyOp49
 70
     1
102
RTVSPropertyOp50
 70
     1
102
RTVSPropertyOp51
 70
     0
102
RTVSPropertyOp52
 70
     0
102
RTVSPropertyOp53
 70
     1
102
RTVSPropertyOp54
 70
     1
102
RTVSPropertyOp55
 70
     1
102
RTVSPropertyOp56
 70
     1
102
RTVSPropertyOp57
 70
     1
102
RTVSPost2010Prop28
280
     0
102
RTVSPost2010PropOp28
 70
     1
102
RTVSPost2010Prop29
280
     1
102
RTVSPost2010PropOp29
 70
     1
102
RTVSPost2010Prop30
280
     1
102
RTVSPost2010PropOp30
 70
     1
102
RTVSPost2010Prop31
280
     0
102
RTVSPost2010PropOp31
 70
     1
102
RTVSPost2010Prop32
280
     0
102
RTVSPost2010PropOp32
 70
     1
102
RTVSPost2010Prop33
280
     0
102
RTVSPost2010PropOp33
 70
     1
102
RTVSPost2010Prop34
280
     0
102
RTVSPost2010PropOp34
 70
     1
102
RTVSPost2010Prop35
280
     0
102
RTVSPost2010PropOp35
 70
     1
102
RTVSPost2010Prop36
280
     0
102
RTVSPost2010PropOp36
 70
     1
102
RTVSPost2010Prop37
 90
       50
102
RTVSPost2010PropOp37
 70
     1
102
RTVSPost2010Prop38
140
0.0
102
RTVSPost2010PropOp38
 70
     1
102
RTVSPost2010Prop39
140
1.0
102
RTVSPost2010PropOp39
 70
     1
102
RTVSPost2010Prop40
 90
        0
102
RTVSPost2010PropOp40
 70
     1
102
RTVSPost2010Prop41ColorIndex
 90
       18
102
RTVSPost2010Prop41ColorRGB
 90
        0
102
RTVSPost2010PropOp41
 70
     1
102
RTVSPost2010Prop42
 90
       50
102
RTVSPost2010PropOp42
 70
     1
102
RTVSPost2010Prop43
 90
        3
102
RTVSPost2010PropOp43
 70
     1
102
RTVSPost2010Prop44ColorIndex
 90
        5
102
RTVSPost2010Prop44ColorRGB
 90
      255
102
RTVSPost2010PropOp44
 70
     1
102
RTVSPost2010Prop45
280
     0
102
RTVSPost2010PropOp45
 70
     1
102
RTVSPost2010Prop46
 90
       50
102
RTVSPost2010PropOp46
 70
     1
102
RTVSPost2010Prop47
 90
       50
102
RTVSPost2010PropOp47
 70
     1
102
RTVSPost2010Prop48
 90
       50
102
RTVSPost2010PropOp48
 70
     1
102
RTVSPost2010Prop49
280
     0
102
RTVSPost2010PropOp49
 70
     1
102
RTVSPost2010Prop50
 90
       50
102
RTVSPost2010PropOp50
 70
     1
102
RTVSPost2010Prop51ColorIndex
 90
      256
102
RTVSPost2010Prop51ColorRGB
 90
-16777216
102
RTVSPost2010PropOp51
 70
     0
102
RTVSPost2010Prop52
140
1.0
102
RTVSPost2010PropOp52
 70
     0
102
RTVSPost2010Prop53
 90
        2
102
RTVSPost2010PropOp53
 70
     1
102
RTVSPost2010Prop54
  1
strokes_ogs.tif
102
RTVSPost2010PropOp54
 70
     1
102
RTVSPost2010Prop55
280
     0
102
RTVSPost2010PropOp55
 70
     1
102
RTVSPost2010Prop56
140
1.0
102
RTVSPost2010PropOp56
 70
     1
102
RTVSPost2010Prop57
140
1.0
102
RTVSPost2010PropOp57
 70
     1
  0
XRECORD
  5
218
102
{ACAD_REACTORS
330
217
102
}
330
217
100
AcDbXrecord
280
     1
102
RTVSPropertyOp0
 70
     1
102
RTVSPropertyOp1
 70
     1
102
RTVSPropertyOp2
 70
     1
102
RTVSPropertyOp3
 70
     1
102
RTVSPropertyOp4
 70
     1
102
RTVSPropertyOp5
 70
     1
102
RTVSPropertyOp6
 70
     1
102
RTVSPropertyOp7
 70
     1
102
RTVSPropertyOp8
 70
     1
102
RTVSPropertyOp9
 70
     1
102
RTVSPropertyOp10
 70
     1
102
RTVSPropertyOp11
 70
     1
102
RTVSPropertyOp12
 70
     1
102
RTVSPropertyOp13
 70
     1
102
RTVSPropertyOp14
 70
     1
102
RTVSPropertyOp15
 70
     1
102
RTVSPropertyOp16
 70
     1
102
RTVSPropertyOp17
 70
     1
102
RTVSPropertyOp18
 70
     1
102
RTVSPropertyOp19
 70
     1
102
RTVSPropertyOp20
 70
     1
102
RTVSPropertyOp21
 70
     1
102
RTVSPropertyOp22
 70
     1
102
RTVSPropertyOp23
 70
     1
102
RTVSPropertyOp24
 70
     1
102
RTVSPropertyOp25
 70
     1
102
RTVSPropertyOp26
 70
     1
102
RTVSPropertyOp27
 70
     1
102
RTVSPropertyOp28
 70
     1
102
RTVSPropertyOp29
 70
     1
102
RTVSPropertyOp30
 70
     1
102
RTVSPropertyOp31
 70
     1
102
RTVSPropertyOp32
 70
     1
102
RTVSPropertyOp33
 70
     1
102
RTVSPropertyOp34
 70
     1
102
RTVSPropertyOp35
 70
     1
102
RTVSPropertyOp36
 70
     1
102
RTVSPropertyOp37
 70
     1
102
RTVSPropertyOp38
 70
     1
102
RTVSPropertyOp39
 70
     1
102
RTVSPropertyOp40
 70
     1
102
RTVSPropertyOp41
 70
     1
102
RTVSPropertyOp42
 70
     1
102
RTVSPropertyOp43
 70
     1
102
RTVSPropertyOp44
 70
     1
102
RTVSPropertyOp45
 70
     1
102
RTVSPropertyOp46
 70
     1
102
RTVSPropertyOp47
 70
     1
102
RTVSPropertyOp48
 70
     1
102
RTVSPropertyOp49
 70
     1
102
RTVSPropertyOp50
 70
     1
102
RTVSPropertyOp51
 70
     0
102
RTVSPropertyOp52
 70
     0
102
RTVSPropertyOp53
 70
     1
102
RTVSPropertyOp54
 70
     1
102
RTVSPropertyOp55
 70
     1
102
RTVSPropertyOp56
 70
     1
102
RTVSPropertyOp57
 70
     1
102
RTVSPost2010Prop28
280
     0
102
RTVSPost2010PropOp28
 70
     1
102
RTVSPost2010Prop29
280
     1
102
RTVSPost2010PropOp29
 70
     1
102
RTVSPost2010Prop30
280
     1
102
RTVSPost2010PropOp30
 70
     1
102
RTVSPost2010Prop31
280
     0
102
RTVSPost2010PropOp31
 70
     1
102
RTVSPost2010Prop32
280
     0
102
RTVSPost2010PropOp32
 70
     1
102
RTVSPost2010Prop33
280
     0
102
RTVSPost2010PropOp33
 70
     1
102
RTVSPost2010Prop34
280
     0
102
RTVSPost2010PropOp34
 70
     1
102
RTVSPost2010Prop35
280
     0
102
RTVSPost2010PropOp35
 70
     1
102
RTVSPost2010Prop36
280
     0
102
RTVSPost2010PropOp36
 70
     1
102
RTVSPost2010Prop37
 90
       50
102
RTVSPost2010PropOp37
 70
     1
102
RTVSPost2010Prop38
140
0.0
102
RTVSPost2010PropOp38
 70
     1
102
RTVSPost2010Prop39
140
1.0
102
RTVSPost2010PropOp39
 70
     1
102
RTVSPost2010Prop40
 90
        0
102
RTVSPost2010PropOp40
 70
     1
102
RTVSPost2010Prop41ColorIndex
 90
       18
102
RTVSPost2010Prop41ColorRGB
 90
        0
102
RTVSPost2010PropOp41
 70
     1
102
RTVSPost2010Prop42
 90
       50
102
RTVSPost2010PropOp42
 70
     1
102
RTVSPost2010Prop43
 90
        3
102
RTVSPost2010PropOp43
 70
     1
102
RTVSPost2010Prop44ColorIndex
 90
        5
102
RTVSPost2010Prop44ColorRGB
 90
      255
102
RTVSPost2010PropOp44
 70
     1
102
RTVSPost2010Prop45
280
     0
102
RTVSPost2010PropOp45
 70
     1
102
RTVSPost2010Prop46
 90
       50
102
RTVSPost2010PropOp46
 70
     1
102
RTVSPost2010Prop47
 90
       50
102
RTVSPost2010PropOp47
 70
     1
102
RTVSPost2010Prop48
 90
       50
102
RTVSPost2010PropOp48
 70
     1
102
RTVSPost2010Prop49
280
     0
102
RTVSPost2010PropOp49
 70
     1
102
RTVSPost2010Prop50
 90
       50
102
RTVSPost2010PropOp50
 70
     1
102
RTVSPost2010Prop51ColorIndex
 90
      256
102
RTVSPost2010Prop51ColorRGB
 90
-16777216
102
RTVSPost2010PropOp51
 70
     0
102
RTVSPost2010Prop52
140
1.0
102
RTVSPost2010PropOp52
 70
     0
102
RTVSPost2010Prop53
 90
        2
102
RTVSPost2010PropOp53
 70
     1
102
RTVSPost2010Prop54
  1
strokes_ogs.tif
102
RTVSPost2010PropOp54
 70
     1
102
RTVSPost2010Prop55
280
     0
102
RTVSPost2010PropOp55
 70
     1
102
RTVSPost2010Prop56
140
1.0
102
RTVSPost2010PropOp56
 70
     1
102
RTVSPost2010Prop57
140
1.0
102
RTVSPost2010PropOp57
 70
     1
  0
XRECORD
  5
228
102
{ACAD_REACTORS
330
227
102
}
330
227
100
AcDbXrecord
280
     1
102
RTVSPropertyOp0
 70
     0
102
RTVSPropertyOp1
 70
     0
102
RTVSPropertyOp2
 70
     0
102
RTVSPropertyOp3
 70
     0
102
RTVSPropertyOp4
 70
     0
102
RTVSPropertyOp5
 70
     0
102
RTVSPropertyOp6
 70
     0
102
RTVSPropertyOp7
 70
     0
102
RTVSPropertyOp8
 70
     0
102
RTVSPropertyOp9
 70
     0
102
RTVSPropertyOp10
 70
     0
102
RTVSPropertyOp11
 70
     0
102
RTVSPropertyOp12
 70
     0
102
RTVSPropertyOp13
 70
     0
102
RTVSPropertyOp14
 70
     2
102
RTVSPropertyOp15
 70
     0
102
RTVSPropertyOp16
 70
     0
102
RTVSPropertyOp17
 70
     0
102
RTVSPropertyOp18
 70
     0
102
RTVSPropertyOp19
 70
     0
102
RTVSPropertyOp20
 70
     0
102
RTVSPropertyOp21
 70
     0
102
RTVSPropertyOp22
 70
     0
102
RTVSPropertyOp23
 70
     0
102
RTVSPropertyOp24
 70
     0
102
RTVSPropertyOp25
 70
     0
102
RTVSPropertyOp26
 70
     0
102
RTVSPropertyOp27
 70
     0
102
RTVSPropertyOp28
 70
     0
102
RTVSPropertyOp29
 70
     0
102
RTVSPropertyOp30
 70
     0
102
RTVSPropertyOp31
 70
     0
102
RTVSPropertyOp32
 70
     0
102
RTVSPropertyOp33
 70
     0
102
RTVSPropertyOp34
 70
     0
102
RTVSPropertyOp35
 70
     0
102
RTVSPropertyOp36
 70
     0
102
RTVSPropertyOp37
 70
     0
102
RTVSPropertyOp38
 70
     0
102
RTVSPropertyOp39
 70
     0
102
RTVSPropertyOp40
 70
     0
102
RTVSPropertyOp41
 70
     0
102
RTVSPropertyOp42
 70
     0
102
RTVSPropertyOp43
 70
     0
102
RTVSPropertyOp44
 70
     0
102
RTVSPropertyOp45
 70
     0
102
RTVSPropertyOp46
 70
     0
102
RTVSPropertyOp47
 70
     0
102
RTVSPropertyOp48
 70
     0
102
RTVSPropertyOp49
 70
     0
102
RTVSPropertyOp50
 70
     0
102
RTVSPropertyOp51
 70
     0
102
RTVSPropertyOp52
 70
     0
102
RTVSPropertyOp53
 70
     0
102
RTVSPropertyOp54
 70
     0
102
RTVSPropertyOp55
 70
     0
102
RTVSPropertyOp56
 70
     0
102
RTVSPropertyOp57
 70
     0
102
RTVSPost2010Prop28
280
     0
102
RTVSPost2010PropOp28
 70
     0
102
RTVSPost2010Prop29
280
     1
102
RTVSPost2010PropOp29
 70
     0
102
RTVSPost2010Prop30
280
     1
102
RTVSPost2010PropOp30
 70
     0
102
RTVSPost2010Prop31
280
     0
102
RTVSPost2010PropOp31
 70
     0
102
RTVSPost2010Prop32
280
     0
102
RTVSPost2010PropOp32
 70
     0
102
RTVSPost2010Prop33
280
     0
102
RTVSPost2010PropOp33
 70
     0
102
RTVSPost2010Prop34
280
     0
102
RTVSPost2010PropOp34
 70
     0
102
RTVSPost2010Prop35
280
     0
102
RTVSPost2010PropOp35
 70
     0
102
RTVSPost2010Prop36
280
     0
102
RTVSPost2010PropOp36
 70
     0
102
RTVSPost2010Prop37
 90
       50
102
RTVSPost2010PropOp37
 70
     0
102
RTVSPost2010Prop38
140
0.0
102
RTVSPost2010PropOp38
 70
     0
102
RTVSPost2010Prop39
140
1.0
102
RTVSPost2010PropOp39
 70
     0
102
RTVSPost2010Prop40
 90
        0
102
RTVSPost2010PropOp40
 70
     0
102
RTVSPost2010Prop41ColorIndex
 90
       18
102
RTVSPost2010Prop41ColorRGB
 90
        0
102
RTVSPost2010PropOp41
 70
     0
102
RTVSPost2010Prop42
 90
       50
102
RTVSPost2010PropOp42
 70
     0
102
RTVSPost2010Prop43
 90
        3
102
RTVSPost2010PropOp43
 70
     0
102
RTVSPost2010Prop44ColorIndex
 90
        5
102
RTVSPost2010Prop44ColorRGB
 90
      255
102
RTVSPost2010PropOp44
 70
     0
102
RTVSPost2010Prop45
280
     0
102
RTVSPost2010PropOp45
 70
     0
102
RTVSPost2010Prop46
 90
       50
102
RTVSPost2010PropOp46
 70
     0
102
RTVSPost2010Prop47
 90
       50
102
RTVSPost2010PropOp47
 70
     0
102
RTVSPost2010Prop48
 90
       50
102
RTVSPost2010PropOp48
 70
     0
102
RTVSPost2010Prop49
280
     0
102
RTVSPost2010PropOp49
 70
     0
102
RTVSPost2010Prop50
 90
       50
102
RTVSPost2010PropOp50
 70
     0
102
RTVSPost2010Prop51ColorIndex
 90
      256
102
RTVSPost2010Prop51ColorRGB
 90
-16777216
102
RTVSPost2010PropOp51
 70
     0
102
RTVSPost2010Prop52
140
1.0
102
RTVSPost2010PropOp52
 70
     0
102
RTVSPost2010Prop53
 90
        2
102
RTVSPost2010PropOp53
 70
     0
102
RTVSPost2010Prop54
  1
strokes_ogs.tif
102
RTVSPost2010PropOp54
 70
     0
102
RTVSPost2010Prop55
280
     0
102
RTVSPost2010PropOp55
 70
     0
102
RTVSPost2010Prop56
140
1.0
102
RTVSPost2010PropOp56
 70
     0
102
RTVSPost2010Prop57
140
1.0
102
RTVSPost2010PropOp57
 70
     0
  0
XRECORD
  5
220
102
{ACAD_REACTORS
330
21F
102
}
330
21F
100
AcDbXrecord
280
     1
102
RTVSPropertyOp0
 70
     1
102
RTVSPropertyOp1
 70
     1
102
RTVSPropertyOp2
 70
     1
102
RTVSPropertyOp3
 70
     1
102
RTVSPropertyOp4
 70
     1
102
RTVSPropertyOp5
 70
     1
102
RTVSPropertyOp6
 70
     1
102
RTVSPropertyOp7
 70
     1
102
RTVSPropertyOp8
 70
     1
102
RTVSPropertyOp9
 70
     1
102
RTVSPropertyOp10
 70
     1
102
RTVSPropertyOp11
 70
     1
102
RTVSPropertyOp12
 70
     1
102
RTVSPropertyOp13
 70
     1
102
RTVSPropertyOp14
 70
     1
102
RTVSPropertyOp15
 70
     1
102
RTVSPropertyOp16
 70
     1
102
RTVSPropertyOp17
 70
     1
102
RTVSPropertyOp18
 70
     1
102
RTVSPropertyOp19
 70
     1
102
RTVSPropertyOp20
 70
     1
102
RTVSPropertyOp21
 70
     1
102
RTVSPropertyOp22
 70
     1
102
RTVSPropertyOp23
 70
     1
102
RTVSPropertyOp24
 70
     1
102
RTVSPropertyOp25
 70
     1
102
RTVSPropertyOp26
 70
     1
102
RTVSPropertyOp27
 70
     1
102
RTVSPropertyOp28
 70
     1
102
RTVSPropertyOp29
 70
     1
102
RTVSPropertyOp30
 70
     1
102
RTVSPropertyOp31
 70
     1
102
RTVSPropertyOp32
 70
     1
102
RTVSPropertyOp33
 70
     1
102
RTVSPropertyOp34
 70
     1
102
RTVSPropertyOp35
 70
     1
102
RTVSPropertyOp36
 70
     1
102
RTVSPropertyOp37
 70
     1
102
RTVSPropertyOp38
 70
     1
102
RTVSPropertyOp39
 70
     1
102
RTVSPropertyOp40
 70
     1
102
RTVSPropertyOp41
 70
     1
102
RTVSPropertyOp42
 70
     1
102
RTVSPropertyOp43
 70
     1
102
RTVSPropertyOp44
 70
     1
102
RTVSPropertyOp45
 70
     1
102
RTVSPropertyOp46
 70
     1
102
RTVSPropertyOp47
 70
     1
102
RTVSPropertyOp48
 70
     1
102
RTVSPropertyOp49
 70
     1
102
RTVSPropertyOp50
 70
     1
102
RTVSPropertyOp51
 70
     0
102
RTVSPropertyOp52
 70
     0
102
RTVSPropertyOp53
 70
     1
102
RTVSPropertyOp54
 70
     1
102
RTVSPropertyOp55
 70
     1
102
RTVSPropertyOp56
 70
     1
102
RTVSPropertyOp57
 70
     1
102
RTVSPost2010Prop28
280
     0
102
RTVSPost2010PropOp28
 70
     1
102
RTVSPost2010Prop29
280
     1
102
RTVSPost2010PropOp29
 70
     1
102
RTVSPost2010Prop30
280
     1
102
RTVSPost2010PropOp30
 70
     1
102
RTVSPost2010Prop31
280
     0
102
RTVSPost2010PropOp31
 70
     1
102
RTVSPost2010Prop32
280
     0
102
RTVSPost2010PropOp32
 70
     1
102
RTVSPost2010Prop33
280
     0
102
RTVSPost2010PropOp33
 70
     1
102
RTVSPost2010Prop34
280
     0
102
RTVSPost2010PropOp34
 70
     1
102
RTVSPost2010Prop35
280
     0
102
RTVSPost2010PropOp35
 70
     1
102
RTVSPost2010Prop36
280
     0
102
RTVSPost2010PropOp36
 70
     1
102
RTVSPost2010Prop37
 90
       50
102
RTVSPost2010PropOp37
 70
     1
102
RTVSPost2010Prop38
140
0.0
102
RTVSPost2010PropOp38
 70
     1
102
RTVSPost2010Prop39
140
1.0
102
RTVSPost2010PropOp39
 70
     1
102
RTVSPost2010Prop40
 90
        0
102
RTVSPost2010PropOp40
 70
     1
102
RTVSPost2010Prop41ColorIndex
 90
       18
102
RTVSPost2010Prop41ColorRGB
 90
        0
102
RTVSPost2010PropOp41
 70
     1
102
RTVSPost2010Prop42
 90
       50
102
RTVSPost2010PropOp42
 70
     1
102
RTVSPost2010Prop43
 90
        3
102
RTVSPost2010PropOp43
 70
     1
102
RTVSPost2010Prop44ColorIndex
 90
        5
102
RTVSPost2010Prop44ColorRGB
 90
      255
102
RTVSPost2010PropOp44
 70
     1
102
RTVSPost2010Prop45
280
     0
102
RTVSPost2010PropOp45
 70
     1
102
RTVSPost2010Prop46
 90
       50
102
RTVSPost2010PropOp46
 70
     1
102
RTVSPost2010Prop47
 90
       50
102
RTVSPost2010PropOp47
 70
     1
102
RTVSPost2010Prop48
 90
       50
102
RTVSPost2010PropOp48
 70
     1
102
RTVSPost2010Prop49
280
     0
102
RTVSPost2010PropOp49
 70
     1
102
RTVSPost2010Prop50
 90
       50
102
RTVSPost2010PropOp50
 70
     1
102
RTVSPost2010Prop51ColorIndex
 90
      256
102
RTVSPost2010Prop51ColorRGB
 90
-16777216
102
RTVSPost2010PropOp51
 70
     0
102
RTVSPost2010Prop52
140
1.0
102
RTVSPost2010PropOp52
 70
     0
102
RTVSPost2010Prop53
 90
        2
102
RTVSPost2010PropOp53
 70
     1
102
RTVSPost2010Prop54
  1
strokes_ogs.tif
102
RTVSPost2010PropOp54
 70
     1
102
RTVSPost2010Prop55
280
     0
102
RTVSPost2010PropOp55
 70
     1
102
RTVSPost2010Prop56
140
1.0
102
RTVSPost2010PropOp56
 70
     1
102
RTVSPost2010Prop57
140
1.0
102
RTVSPost2010PropOp57
 70
     1
  0
XRECORD
  5
204
102
{ACAD_REACTORS
330
203
102
}
330
203
100
AcDbXrecord
280
     1
102
RTVSPropertyOp0
 70
     1
102
RTVSPropertyOp1
 70
     1
102
RTVSPropertyOp2
 70
     1
102
RTVSPropertyOp3
 70
     1
102
RTVSPropertyOp4
 70
     1
102
RTVSPropertyOp5
 70
     1
102
RTVSPropertyOp6
 70
     1
102
RTVSPropertyOp7
 70
     1
102
RTVSPropertyOp8
 70
     1
102
RTVSPropertyOp9
 70
     1
102
RTVSPropertyOp10
 70
     1
102
RTVSPropertyOp11
 70
     1
102
RTVSPropertyOp12
 70
     1
102
RTVSPropertyOp13
 70
     1
102
RTVSPropertyOp14
 70
     1
102
RTVSPropertyOp15
 70
     1
102
RTVSPropertyOp16
 70
     1
102
RTVSPropertyOp17
 70
     1
102
RTVSPropertyOp18
 70
     1
102
RTVSPropertyOp19
 70
     1
102
RTVSPropertyOp20
 70
     1
102
RTVSPropertyOp21
 70
     1
102
RTVSPropertyOp22
 70
     1
102
RTVSPropertyOp23
 70
     1
102
RTVSPropertyOp24
 70
     1
102
RTVSPropertyOp25
 70
     1
102
RTVSPropertyOp26
 70
     1
102
RTVSPropertyOp27
 70
     1
102
RTVSPropertyOp28
 70
     1
102
RTVSPropertyOp29
 70
     1
102
RTVSPropertyOp30
 70
     1
102
RTVSPropertyOp31
 70
     1
102
RTVSPropertyOp32
 70
     1
102
RTVSPropertyOp33
 70
     1
102
RTVSPropertyOp34
 70
     1
102
RTVSPropertyOp35
 70
     1
102
RTVSPropertyOp36
 70
     1
102
RTVSPropertyOp37
 70
     1
102
RTVSPropertyOp38
 70
     1
102
RTVSPropertyOp39
 70
     1
102
RTVSPropertyOp40
 70
     1
102
RTVSPropertyOp41
 70
     1
102
RTVSPropertyOp42
 70
     1
102
RTVSPropertyOp43
 70
     1
102
RTVSPropertyOp44
 70
     1
102
RTVSPropertyOp45
 70
     1
102
RTVSPropertyOp46
 70
     1
102
RTVSPropertyOp47
 70
     1
102
RTVSPropertyOp48
 70
     1
102
RTVSPropertyOp49
 70
     1
102
RTVSPropertyOp50
 70
     1
102
RTVSPropertyOp51
 70
     0
102
RTVSPropertyOp52
 70
     0
102
RTVSPropertyOp53
 70
     1
102
RTVSPropertyOp54
 70
     1
102
RTVSPropertyOp55
 70
     1
102
RTVSPropertyOp56
 70
     1
102
RTVSPropertyOp57
 70
     1
102
RTVSPost2010Prop28
280
     0
102
RTVSPost2010PropOp28
 70
     1
102
RTVSPost2010Prop29
280
     1
102
RTVSPost2010PropOp29
 70
     1
102
RTVSPost2010Prop30
280
     1
102
RTVSPost2010PropOp30
 70
     1
102
RTVSPost2010Prop31
280
     0
102
RTVSPost2010PropOp31
 70
     1
102
RTVSPost2010Prop32
280
     0
102
RTVSPost2010PropOp32
 70
     1
102
RTVSPost2010Prop33
280
     0
102
RTVSPost2010PropOp33
 70
     1
102
RTVSPost2010Prop34
280
     0
102
RTVSPost2010PropOp34
 70
     1
102
RTVSPost2010Prop35
280
     0
102
RTVSPost2010PropOp35
 70
     1
102
RTVSPost2010Prop36
280
     0
102
RTVSPost2010PropOp36
 70
     1
102
RTVSPost2010Prop37
 90
       50
102
RTVSPost2010PropOp37
 70
     1
102
RTVSPost2010Prop38
140
0.0
102
RTVSPost2010PropOp38
 70
     1
102
RTVSPost2010Prop39
140
1.0
102
RTVSPost2010PropOp39
 70
     1
102
RTVSPost2010Prop40
 90
        0
102
RTVSPost2010PropOp40
 70
     1
102
RTVSPost2010Prop41ColorIndex
 90
       18
102
RTVSPost2010Prop41ColorRGB
 90
        0
102
RTVSPost2010PropOp41
 70
     1
102
RTVSPost2010Prop42
 90
       50
102
RTVSPost2010PropOp42
 70
     1
102
RTVSPost2010Prop43
 90
        3
102
RTVSPost2010PropOp43
 70
     1
102
RTVSPost2010Prop44ColorIndex
 90
        5
102
RTVSPost2010Prop44ColorRGB
 90
      255
102
RTVSPost2010PropOp44
 70
     1
102
RTVSPost2010Prop45
280
     0
102
RTVSPost2010PropOp45
 70
     1
102
RTVSPost2010Prop46
 90
       50
102
RTVSPost2010PropOp46
 70
     1
102
RTVSPost2010Prop47
 90
       50
102
RTVSPost2010PropOp47
 70
     1
102
RTVSPost2010Prop48
 90
       50
102
RTVSPost2010PropOp48
 70
     1
102
RTVSPost2010Prop49
280
     0
102
RTVSPost2010PropOp49
 70
     1
102
RTVSPost2010Prop50
 90
       50
102
RTVSPost2010PropOp50
 70
     1
102
RTVSPost2010Prop51ColorIndex
 90
      256
102
RTVSPost2010Prop51ColorRGB
 90
-16777216
102
RTVSPost2010PropOp51
 70
     0
102
RTVSPost2010Prop52
140
1.0
102
RTVSPost2010PropOp52
 70
     0
102
RTVSPost2010Prop53
 90
        2
102
RTVSPost2010PropOp53
 70
     1
102
RTVSPost2010Prop54
  1
strokes_ogs.tif
102
RTVSPost2010PropOp54
 70
     1
102
RTVSPost2010Prop55
280
     0
102
RTVSPost2010PropOp55
 70
     1
102
RTVSPost2010Prop56
140
1.0
102
RTVSPost2010PropOp56
 70
     1
102
RTVSPost2010Prop57
140
1.0
102
RTVSPost2010PropOp57
 70
     1
  0
XRECORD
  5
206
102
{ACAD_REACTORS
330
205
102
}
330
205
100
AcDbXrecord
280
     1
102
RTVSPropertyOp0
 70
     1
102
RTVSPropertyOp1
 70
     1
102
RTVSPropertyOp2
 70
     1
102
RTVSPropertyOp3
 70
     1
102
RTVSPropertyOp4
 70
     1
102
RTVSPropertyOp5
 70
     1
102
RTVSPropertyOp6
 70
     1
102
RTVSPropertyOp7
 70
     1
102
RTVSPropertyOp8
 70
     1
102
RTVSPropertyOp9
 70
     1
102
RTVSPropertyOp10
 70
     1
102
RTVSPropertyOp11
 70
     1
102
RTVSPropertyOp12
 70
     1
102
RTVSPropertyOp13
 70
     1
102
RTVSPropertyOp14
 70
     1
102
RTVSPropertyOp15
 70
     1
102
RTVSPropertyOp16
 70
     1
102
RTVSPropertyOp17
 70
     1
102
RTVSPropertyOp18
 70
     1
102
RTVSPropertyOp19
 70
     1
102
RTVSPropertyOp20
 70
     1
102
RTVSPropertyOp21
 70
     1
102
RTVSPropertyOp22
 70
     1
102
RTVSPropertyOp23
 70
     1
102
RTVSPropertyOp24
 70
     1
102
RTVSPropertyOp25
 70
     1
102
RTVSPropertyOp26
 70
     1
102
RTVSPropertyOp27
 70
     1
102
RTVSPropertyOp28
 70
     1
102
RTVSPropertyOp29
 70
     1
102
RTVSPropertyOp30
 70
     1
102
RTVSPropertyOp31
 70
     1
102
RTVSPropertyOp32
 70
     1
102
RTVSPropertyOp33
 70
     1
102
RTVSPropertyOp34
 70
     1
102
RTVSPropertyOp35
 70
     1
102
RTVSPropertyOp36
 70
     1
102
RTVSPropertyOp37
 70
     1
102
RTVSPropertyOp38
 70
     1
102
RTVSPropertyOp39
 70
     1
102
RTVSPropertyOp40
 70
     1
102
RTVSPropertyOp41
 70
     1
102
RTVSPropertyOp42
 70
     1
102
RTVSPropertyOp43
 70
     1
102
RTVSPropertyOp44
 70
     1
102
RTVSPropertyOp45
 70
     1
102
RTVSPropertyOp46
 70
     1
102
RTVSPropertyOp47
 70
     1
102
RTVSPropertyOp48
 70
     1
102
RTVSPropertyOp49
 70
     1
102
RTVSPropertyOp50
 70
     1
102
RTVSPropertyOp51
 70
     0
102
RTVSPropertyOp52
 70
     0
102
RTVSPropertyOp53
 70
     1
102
RTVSPropertyOp54
 70
     1
102
RTVSPropertyOp55
 70
     1
102
RTVSPropertyOp56
 70
     1
102
RTVSPropertyOp57
 70
     1
102
RTVSPost2010Prop28
280
     0
102
RTVSPost2010PropOp28
 70
     1
102
RTVSPost2010Prop29
280
     1
102
RTVSPost2010PropOp29
 70
     1
102
RTVSPost2010Prop30
280
     1
102
RTVSPost2010PropOp30
 70
     1
102
RTVSPost2010Prop31
280
     0
102
RTVSPost2010PropOp31
 70
     1
102
RTVSPost2010Prop32
280
     0
102
RTVSPost2010PropOp32
 70
     1
102
RTVSPost2010Prop33
280
     0
102
RTVSPost2010PropOp33
 70
     1
102
RTVSPost2010Prop34
280
     0
102
RTVSPost2010PropOp34
 70
     1
102
RTVSPost2010Prop35
280
     0
102
RTVSPost2010PropOp35
 70
     1
102
RTVSPost2010Prop36
280
     0
102
RTVSPost2010PropOp36
 70
     1
102
RTVSPost2010Prop37
 90
       50
102
RTVSPost2010PropOp37
 70
     1
102
RTVSPost2010Prop38
140
0.0
102
RTVSPost2010PropOp38
 70
     1
102
RTVSPost2010Prop39
140
1.0
102
RTVSPost2010PropOp39
 70
     1
102
RTVSPost2010Prop40
 90
        0
102
RTVSPost2010PropOp40
 70
     1
102
RTVSPost2010Prop41ColorIndex
 90
       18
102
RTVSPost2010Prop41ColorRGB
 90
        0
102
RTVSPost2010PropOp41
 70
     1
102
RTVSPost2010Prop42
 90
       50
102
RTVSPost2010PropOp42
 70
     1
102
RTVSPost2010Prop43
 90
        3
102
RTVSPost2010PropOp43
 70
     1
102
RTVSPost2010Prop44ColorIndex
 90
        5
102
RTVSPost2010Prop44ColorRGB
 90
      255
102
RTVSPost2010PropOp44
 70
     1
102
RTVSPost2010Prop45
280
     0
102
RTVSPost2010PropOp45
 70
     1
102
RTVSPost2010Prop46
 90
       50
102
RTVSPost2010PropOp46
 70
     1
102
RTVSPost2010Prop47
 90
       50
102
RTVSPost2010PropOp47
 70
     1
102
RTVSPost2010Prop48
 90
       50
102
RTVSPost2010PropOp48
 70
     1
102
RTVSPost2010Prop49
280
     0
102
RTVSPost2010PropOp49
 70
     1
102
RTVSPost2010Prop50
 90
       50
102
RTVSPost2010PropOp50
 70
     1
102
RTVSPost2010Prop51ColorIndex
 90
      256
102
RTVSPost2010Prop51ColorRGB
 90
-16777216
102
RTVSPost2010PropOp51
 70
     0
102
RTVSPost2010Prop52
140
1.0
102
RTVSPost2010PropOp52
 70
     0
102
RTVSPost2010Prop53
 90
        2
102
RTVSPost2010PropOp53
 70
     1
102
RTVSPost2010Prop54
  1
strokes_ogs.tif
102
RTVSPost2010PropOp54
 70
     1
102
RTVSPost2010Prop55
280
     0
102
RTVSPost2010PropOp55
 70
     1
102
RTVSPost2010Prop56
140
1.0
102
RTVSPost2010PropOp56
 70
     1
102
RTVSPost2010Prop57
140
1.0
102
RTVSPost2010PropOp57
 70
     1
  0
XRECORD
  5
208
102
{ACAD_REACTORS
330
207
102
}
330
207
100
AcDbXrecord
280
     1
102
RTVSPropertyOp0
 70
     1
102
RTVSPropertyOp1
 70
     1
102
RTVSPropertyOp2
 70
     1
102
RTVSPropertyOp3
 70
     1
102
RTVSPropertyOp4
 70
     1
102
RTVSPropertyOp5
 70
     1
102
RTVSPropertyOp6
 70
     1
102
RTVSPropertyOp7
 70
     1
102
RTVSPropertyOp8
 70
     1
102
RTVSPropertyOp9
 70
     1
102
RTVSPropertyOp10
 70
     1
102
RTVSPropertyOp11
 70
     1
102
RTVSPropertyOp12
 70
     1
102
RTVSPropertyOp13
 70
     1
102
RTVSPropertyOp14
 70
     1
102
RTVSPropertyOp15
 70
     1
102
RTVSPropertyOp16
 70
     1
102
RTVSPropertyOp17
 70
     1
102
RTVSPropertyOp18
 70
     1
102
RTVSPropertyOp19
 70
     1
102
RTVSPropertyOp20
 70
     1
102
RTVSPropertyOp21
 70
     1
102
RTVSPropertyOp22
 70
     1
102
RTVSPropertyOp23
 70
     1
102
RTVSPropertyOp24
 70
     1
102
RTVSPropertyOp25
 70
     1
102
RTVSPropertyOp26
 70
     1
102
RTVSPropertyOp27
 70
     1
102
RTVSPropertyOp28
 70
     1
102
RTVSPropertyOp29
 70
     1
102
RTVSPropertyOp30
 70
     1
102
RTVSPropertyOp31
 70
     1
102
RTVSPropertyOp32
 70
     1
102
RTVSPropertyOp33
 70
     1
102
RTVSPropertyOp34
 70
     1
102
RTVSPropertyOp35
 70
     1
102
RTVSPropertyOp36
 70
     1
102
RTVSPropertyOp37
 70
     1
102
RTVSPropertyOp38
 70
     1
102
RTVSPropertyOp39
 70
     1
102
RTVSPropertyOp40
 70
     1
102
RTVSPropertyOp41
 70
     1
102
RTVSPropertyOp42
 70
     1
102
RTVSPropertyOp43
 70
     1
102
RTVSPropertyOp44
 70
     1
102
RTVSPropertyOp45
 70
     1
102
RTVSPropertyOp46
 70
     1
102
RTVSPropertyOp47
 70
     1
102
RTVSPropertyOp48
 70
     1
102
RTVSPropertyOp49
 70
     1
102
RTVSPropertyOp50
 70
     1
102
RTVSPropertyOp51
 70
     0
102
RTVSPropertyOp52
 70
     0
102
RTVSPropertyOp53
 70
     1
102
RTVSPropertyOp54
 70
     1
102
RTVSPropertyOp55
 70
     1
102
RTVSPropertyOp56
 70
     1
102
RTVSPropertyOp57
 70
     1
102
RTVSPost2010Prop28
280
     0
102
RTVSPost2010PropOp28
 70
     1
102
RTVSPost2010Prop29
280
     1
102
RTVSPost2010PropOp29
 70
     1
102
RTVSPost2010Prop30
280
     1
102
RTVSPost2010PropOp30
 70
     1
102
RTVSPost2010Prop31
280
     0
102
RTVSPost2010PropOp31
 70
     1
102
RTVSPost2010Prop32
280
     0
102
RTVSPost2010PropOp32
 70
     1
102
RTVSPost2010Prop33
280
     0
102
RTVSPost2010PropOp33
 70
     1
102
RTVSPost2010Prop34
280
     0
102
RTVSPost2010PropOp34
 70
     1
102
RTVSPost2010Prop35
280
     0
102
RTVSPost2010PropOp35
 70
     1
102
RTVSPost2010Prop36
280
     0
102
RTVSPost2010PropOp36
 70
     1
102
RTVSPost2010Prop37
 90
       50
102
RTVSPost2010PropOp37
 70
     1
102
RTVSPost2010Prop38
140
0.0
102
RTVSPost2010PropOp38
 70
     1
102
RTVSPost2010Prop39
140
1.0
102
RTVSPost2010PropOp39
 70
     1
102
RTVSPost2010Prop40
 90
        0
102
RTVSPost2010PropOp40
 70
     1
102
RTVSPost2010Prop41ColorIndex
 90
       18
102
RTVSPost2010Prop41ColorRGB
 90
        0
102
RTVSPost2010PropOp41
 70
     1
102
RTVSPost2010Prop42
 90
       50
102
RTVSPost2010PropOp42
 70
     1
102
RTVSPost2010Prop43
 90
        3
102
RTVSPost2010PropOp43
 70
     1
102
RTVSPost2010Prop44ColorIndex
 90
        5
102
RTVSPost2010Prop44ColorRGB
 90
      255
102
RTVSPost2010PropOp44
 70
     1
102
RTVSPost2010Prop45
280
     0
102
RTVSPost2010PropOp45
 70
     1
102
RTVSPost2010Prop46
 90
       50
102
RTVSPost2010PropOp46
 70
     1
102
RTVSPost2010Prop47
 90
       50
102
RTVSPost2010PropOp47
 70
     1
102
RTVSPost2010Prop48
 90
       50
102
RTVSPost2010PropOp48
 70
     1
102
RTVSPost2010Prop49
280
     0
102
RTVSPost2010PropOp49
 70
     1
102
RTVSPost2010Prop50
 90
       50
102
RTVSPost2010PropOp50
 70
     1
102
RTVSPost2010Prop51ColorIndex
 90
      256
102
RTVSPost2010Prop51ColorRGB
 90
-16777216
102
RTVSPost2010PropOp51
 70
     0
102
RTVSPost2010Prop52
140
1.0
102
RTVSPost2010PropOp52
 70
     0
102
RTVSPost2010Prop53
 90
        2
102
RTVSPost2010PropOp53
 70
     1
102
RTVSPost2010Prop54
  1
strokes_ogs.tif
102
RTVSPost2010PropOp54
 70
     1
102
RTVSPost2010Prop55
280
     0
102
RTVSPost2010PropOp55
 70
     1
102
RTVSPost2010Prop56
140
1.0
102
RTVSPost2010PropOp56
 70
     1
102
RTVSPost2010Prop57
140
1.0
102
RTVSPost2010PropOp57
 70
     1
  0
XRECORD
  5
20A
102
{ACAD_REACTORS
330
209
102
}
330
209
100
AcDbXrecord
280
     1
102
RTVSPropertyOp0
 70
     1
102
RTVSPropertyOp1
 70
     1
102
RTVSPropertyOp2
 70
     1
102
RTVSPropertyOp3
 70
     1
102
RTVSPropertyOp4
 70
     1
102
RTVSPropertyOp5
 70
     1
102
RTVSPropertyOp6
 70
     1
102
RTVSPropertyOp7
 70
     1
102
RTVSPropertyOp8
 70
     1
102
RTVSPropertyOp9
 70
     1
102
RTVSPropertyOp10
 70
     1
102
RTVSPropertyOp11
 70
     1
102
RTVSPropertyOp12
 70
     1
102
RTVSPropertyOp13
 70
     1
102
RTVSPropertyOp14
 70
     1
102
RTVSPropertyOp15
 70
     1
102
RTVSPropertyOp16
 70
     1
102
RTVSPropertyOp17
 70
     1
102
RTVSPropertyOp18
 70
     1
102
RTVSPropertyOp19
 70
     1
102
RTVSPropertyOp20
 70
     1
102
RTVSPropertyOp21
 70
     1
102
RTVSPropertyOp22
 70
     1
102
RTVSPropertyOp23
 70
     1
102
RTVSPropertyOp24
 70
     1
102
RTVSPropertyOp25
 70
     1
102
RTVSPropertyOp26
 70
     1
102
RTVSPropertyOp27
 70
     1
102
RTVSPropertyOp28
 70
     1
102
RTVSPropertyOp29
 70
     1
102
RTVSPropertyOp30
 70
     1
102
RTVSPropertyOp31
 70
     1
102
RTVSPropertyOp32
 70
     1
102
RTVSPropertyOp33
 70
     1
102
RTVSPropertyOp34
 70
     1
102
RTVSPropertyOp35
 70
     1
102
RTVSPropertyOp36
 70
     1
102
RTVSPropertyOp37
 70
     1
102
RTVSPropertyOp38
 70
     1
102
RTVSPropertyOp39
 70
     1
102
RTVSPropertyOp40
 70
     1
102
RTVSPropertyOp41
 70
     1
102
RTVSPropertyOp42
 70
     1
102
RTVSPropertyOp43
 70
     1
102
RTVSPropertyOp44
 70
     1
102
RTVSPropertyOp45
 70
     1
102
RTVSPropertyOp46
 70
     1
102
RTVSPropertyOp47
 70
     1
102
RTVSPropertyOp48
 70
     1
102
RTVSPropertyOp49
 70
     1
102
RTVSPropertyOp50
 70
     1
102
RTVSPropertyOp51
 70
     0
102
RTVSPropertyOp52
 70
     0
102
RTVSPropertyOp53
 70
     1
102
RTVSPropertyOp54
 70
     1
102
RTVSPropertyOp55
 70
     1
102
RTVSPropertyOp56
 70
     1
102
RTVSPropertyOp57
 70
     1
102
RTVSPost2010Prop28
280
     0
102
RTVSPost2010PropOp28
 70
     1
102
RTVSPost2010Prop29
280
     1
102
RTVSPost2010PropOp29
 70
     1
102
RTVSPost2010Prop30
280
     1
102
RTVSPost2010PropOp30
 70
     1
102
RTVSPost2010Prop31
280
     0
102
RTVSPost2010PropOp31
 70
     1
102
RTVSPost2010Prop32
280
     0
102
RTVSPost2010PropOp32
 70
     1
102
RTVSPost2010Prop33
280
     0
102
RTVSPost2010PropOp33
 70
     1
102
RTVSPost2010Prop34
280
     0
102
RTVSPost2010PropOp34
 70
     1
102
RTVSPost2010Prop35
280
     0
102
RTVSPost2010PropOp35
 70
     1
102
RTVSPost2010Prop36
280
     0
102
RTVSPost2010PropOp36
 70
     1
102
RTVSPost2010Prop37
 90
       50
102
RTVSPost2010PropOp37
 70
     1
102
RTVSPost2010Prop38
140
0.0
102
RTVSPost2010PropOp38
 70
     1
102
RTVSPost2010Prop39
140
1.0
102
RTVSPost2010PropOp39
 70
     1
102
RTVSPost2010Prop40
 90
        0
102
RTVSPost2010PropOp40
 70
     1
102
RTVSPost2010Prop41ColorIndex
 90
       18
102
RTVSPost2010Prop41ColorRGB
 90
        0
102
RTVSPost2010PropOp41
 70
     1
102
RTVSPost2010Prop42
 90
       50
102
RTVSPost2010PropOp42
 70
     1
102
RTVSPost2010Prop43
 90
        3
102
RTVSPost2010PropOp43
 70
     1
102
RTVSPost2010Prop44ColorIndex
 90
        5
102
RTVSPost2010Prop44ColorRGB
 90
      255
102
RTVSPost2010PropOp44
 70
     1
102
RTVSPost2010Prop45
280
     0
102
RTVSPost2010PropOp45
 70
     1
102
RTVSPost2010Prop46
 90
       50
102
RTVSPost2010PropOp46
 70
     1
102
RTVSPost2010Prop47
 90
       50
102
RTVSPost2010PropOp47
 70
     1
102
RTVSPost2010Prop48
 90
       50
102
RTVSPost2010PropOp48
 70
     1
102
RTVSPost2010Prop49
280
     0
102
RTVSPost2010PropOp49
 70
     1
102
RTVSPost2010Prop50
 90
       50
102
RTVSPost2010PropOp50
 70
     1
102
RTVSPost2010Prop51ColorIndex
 90
      256
102
RTVSPost2010Prop51ColorRGB
 90
-16777216
102
RTVSPost2010PropOp51
 70
     0
102
RTVSPost2010Prop52
140
1.0
102
RTVSPost2010PropOp52
 70
     0
102
RTVSPost2010Prop53
 90
        2
102
RTVSPost2010PropOp53
 70
     1
102
RTVSPost2010Prop54
  1
strokes_ogs.tif
102
RTVSPost2010PropOp54
 70
     1
102
RTVSPost2010Prop55
280
     0
102
RTVSPost2010PropOp55
 70
     1
102
RTVSPost2010Prop56
140
1.0
102
RTVSPost2010PropOp56
 70
     1
102
RTVSPost2010Prop57
140
1.0
102
RTVSPost2010PropOp57
 70
     1
  0
XRECORD
  5
210
102
{ACAD_REACTORS
330
20F
102
}
330
20F
100
AcDbXrecord
280
     1
102
RTVSPropertyOp0
 70
     1
102
RTVSPropertyOp1
 70
     1
102
RTVSPropertyOp2
 70
     1
102
RTVSPropertyOp3
 70
     1
102
RTVSPropertyOp4
 70
     1
102
RTVSPropertyOp5
 70
     1
102
RTVSPropertyOp6
 70
     1
102
RTVSPropertyOp7
 70
     1
102
RTVSPropertyOp8
 70
     1
102
RTVSPropertyOp9
 70
     1
102
RTVSPropertyOp10
 70
     1
102
RTVSPropertyOp11
 70
     1
102
RTVSPropertyOp12
 70
     1
102
RTVSPropertyOp13
 70
     1
102
RTVSPropertyOp14
 70
     1
102
RTVSPropertyOp15
 70
     1
102
RTVSPropertyOp16
 70
     1
102
RTVSPropertyOp17
 70
     1
102
RTVSPropertyOp18
 70
     1
102
RTVSPropertyOp19
 70
     1
102
RTVSPropertyOp20
 70
     1
102
RTVSPropertyOp21
 70
     1
102
RTVSPropertyOp22
 70
     1
102
RTVSPropertyOp23
 70
     1
102
RTVSPropertyOp24
 70
     1
102
RTVSPropertyOp25
 70
     1
102
RTVSPropertyOp26
 70
     1
102
RTVSPropertyOp27
 70
     1
102
RTVSPropertyOp28
 70
     1
102
RTVSPropertyOp29
 70
     1
102
RTVSPropertyOp30
 70
     1
102
RTVSPropertyOp31
 70
     1
102
RTVSPropertyOp32
 70
     1
102
RTVSPropertyOp33
 70
     1
102
RTVSPropertyOp34
 70
     1
102
RTVSPropertyOp35
 70
     1
102
RTVSPropertyOp36
 70
     1
102
RTVSPropertyOp37
 70
     1
102
RTVSPropertyOp38
 70
     1
102
RTVSPropertyOp39
 70
     1
102
RTVSPropertyOp40
 70
     1
102
RTVSPropertyOp41
 70
     1
102
RTVSPropertyOp42
 70
     1
102
RTVSPropertyOp43
 70
     1
102
RTVSPropertyOp44
 70
     1
102
RTVSPropertyOp45
 70
     1
102
RTVSPropertyOp46
 70
     1
102
RTVSPropertyOp47
 70
     1
102
RTVSPropertyOp48
 70
     1
102
RTVSPropertyOp49
 70
     1
102
RTVSPropertyOp50
 70
     1
102
RTVSPropertyOp51
 70
     0
102
RTVSPropertyOp52
 70
     0
102
RTVSPropertyOp53
 70
     1
102
RTVSPropertyOp54
 70
     1
102
RTVSPropertyOp55
 70
     1
102
RTVSPropertyOp56
 70
     1
102
RTVSPropertyOp57
 70
     1
102
RTVSPost2010Prop28
280
     0
102
RTVSPost2010PropOp28
 70
     1
102
RTVSPost2010Prop29
280
     1
102
RTVSPost2010PropOp29
 70
     1
102
RTVSPost2010Prop30
280
     1
102
RTVSPost2010PropOp30
 70
     1
102
RTVSPost2010Prop31
280
     0
102
RTVSPost2010PropOp31
 70
     1
102
RTVSPost2010Prop32
280
     0
102
RTVSPost2010PropOp32
 70
     1
102
RTVSPost2010Prop33
280
     0
102
RTVSPost2010PropOp33
 70
     1
102
RTVSPost2010Prop34
280
     0
102
RTVSPost2010PropOp34
 70
     1
102
RTVSPost2010Prop35
280
     0
102
RTVSPost2010PropOp35
 70
     1
102
RTVSPost2010Prop36
280
     0
102
RTVSPost2010PropOp36
 70
     1
102
RTVSPost2010Prop37
 90
       50
102
RTVSPost2010PropOp37
 70
     1
102
RTVSPost2010Prop38
140
0.0
102
RTVSPost2010PropOp38
 70
     1
102
RTVSPost2010Prop39
140
1.0
102
RTVSPost2010PropOp39
 70
     1
102
RTVSPost2010Prop40
 90
        0
102
RTVSPost2010PropOp40
 70
     1
102
RTVSPost2010Prop41ColorIndex
 90
       18
102
RTVSPost2010Prop41ColorRGB
 90
        0
102
RTVSPost2010PropOp41
 70
     1
102
RTVSPost2010Prop42
 90
       50
102
RTVSPost2010PropOp42
 70
     1
102
RTVSPost2010Prop43
 90
        3
102
RTVSPost2010PropOp43
 70
     1
102
RTVSPost2010Prop44ColorIndex
 90
        5
102
RTVSPost2010Prop44ColorRGB
 90
      255
102
RTVSPost2010PropOp44
 70
     1
102
RTVSPost2010Prop45
280
     0
102
RTVSPost2010PropOp45
 70
     1
102
RTVSPost2010Prop46
 90
       50
102
RTVSPost2010PropOp46
 70
     1
102
RTVSPost2010Prop47
 90
       50
102
RTVSPost2010PropOp47
 70
     1
102
RTVSPost2010Prop48
 90
       50
102
RTVSPost2010PropOp48
 70
     1
102
RTVSPost2010Prop49
280
     0
102
RTVSPost2010PropOp49
 70
     1
102
RTVSPost2010Prop50
 90
       50
102
RTVSPost2010PropOp50
 70
     1
102
RTVSPost2010Prop51ColorIndex
 90
      256
102
RTVSPost2010Prop51ColorRGB
 90
-16777216
102
RTVSPost2010PropOp51
 70
     0
102
RTVSPost2010Prop52
140
1.0
102
RTVSPost2010PropOp52
 70
     0
102
RTVSPost2010Prop53
 90
        2
102
RTVSPost2010PropOp53
 70
     1
102
RTVSPost2010Prop54
  1
strokes_ogs.tif
102
RTVSPost2010PropOp54
 70
     1
102
RTVSPost2010Prop55
280
     0
102
RTVSPost2010PropOp55
 70
     1
102
RTVSPost2010Prop56
140
1.0
102
RTVSPost2010PropOp56
 70
     1
102
RTVSPost2010Prop57
140
1.0
102
RTVSPost2010PropOp57
 70
     1
  0
XRECORD
  5
224
102
{ACAD_REACTORS
330
223
102
}
330
223
100
AcDbXrecord
280
     1
102
RTVSPropertyOp0
 70
     0
102
RTVSPropertyOp1
 70
     0
102
RTVSPropertyOp2
 70
     0
102
RTVSPropertyOp3
 70
     0
102
RTVSPropertyOp4
 70
     0
102
RTVSPropertyOp5
 70
     0
102
RTVSPropertyOp6
 70
     0
102
RTVSPropertyOp7
 70
     0
102
RTVSPropertyOp8
 70
     0
102
RTVSPropertyOp9
 70
     0
102
RTVSPropertyOp10
 70
     0
102
RTVSPropertyOp11
 70
     0
102
RTVSPropertyOp12
 70
     0
102
RTVSPropertyOp13
 70
     0
102
RTVSPropertyOp14
 70
     2
102
RTVSPropertyOp15
 70
     0
102
RTVSPropertyOp16
 70
     0
102
RTVSPropertyOp17
 70
     0
102
RTVSPropertyOp18
 70
     0
102
RTVSPropertyOp19
 70
     0
102
RTVSPropertyOp20
 70
     0
102
RTVSPropertyOp21
 70
     0
102
RTVSPropertyOp22
 70
     0
102
RTVSPropertyOp23
 70
     0
102
RTVSPropertyOp24
 70
     0
102
RTVSPropertyOp25
 70
     0
102
RTVSPropertyOp26
 70
     0
102
RTVSPropertyOp27
 70
     0
102
RTVSPropertyOp28
 70
     0
102
RTVSPropertyOp29
 70
     0
102
RTVSPropertyOp30
 70
     0
102
RTVSPropertyOp31
 70
     0
102
RTVSPropertyOp32
 70
     0
102
RTVSPropertyOp33
 70
     0
102
RTVSPropertyOp34
 70
     0
102
RTVSPropertyOp35
 70
     0
102
RTVSPropertyOp36
 70
     0
102
RTVSPropertyOp37
 70
     0
102
RTVSPropertyOp38
 70
     0
102
RTVSPropertyOp39
 70
     0
102
RTVSPropertyOp40
 70
     0
102
RTVSPropertyOp41
 70
     0
102
RTVSPropertyOp42
 70
     0
102
RTVSPropertyOp43
 70
     0
102
RTVSPropertyOp44
 70
     0
102
RTVSPropertyOp45
 70
     0
102
RTVSPropertyOp46
 70
     0
102
RTVSPropertyOp47
 70
     0
102
RTVSPropertyOp48
 70
     0
102
RTVSPropertyOp49
 70
     0
102
RTVSPropertyOp50
 70
     0
102
RTVSPropertyOp51
 70
     0
102
RTVSPropertyOp52
 70
     0
102
RTVSPropertyOp53
 70
     0
102
RTVSPropertyOp54
 70
     0
102
RTVSPropertyOp55
 70
     0
102
RTVSPropertyOp56
 70
     0
102
RTVSPropertyOp57
 70
     0
102
RTVSPost2010Prop28
280
     0
102
RTVSPost2010PropOp28
 70
     0
102
RTVSPost2010Prop29
280
     1
102
RTVSPost2010PropOp29
 70
     0
102
RTVSPost2010Prop30
280
     1
102
RTVSPost2010PropOp30
 70
     0
102
RTVSPost2010Prop31
280
     0
102
RTVSPost2010PropOp31
 70
     0
102
RTVSPost2010Prop32
280
     0
102
RTVSPost2010PropOp32
 70
     0
102
RTVSPost2010Prop33
280
     0
102
RTVSPost2010PropOp33
 70
     0
102
RTVSPost2010Prop34
280
     0
102
RTVSPost2010PropOp34
 70
     0
102
RTVSPost2010Prop35
280
     0
102
RTVSPost2010PropOp35
 70
     0
102
RTVSPost2010Prop36
280
     0
102
RTVSPost2010PropOp36
 70
     0
102
RTVSPost2010Prop37
 90
       50
102
RTVSPost2010PropOp37
 70
     0
102
RTVSPost2010Prop38
140
0.0
102
RTVSPost2010PropOp38
 70
     0
102
RTVSPost2010Prop39
140
1.0
102
RTVSPost2010PropOp39
 70
     0
102
RTVSPost2010Prop40
 90
        0
102
RTVSPost2010PropOp40
 70
     0
102
RTVSPost2010Prop41ColorIndex
 90
       18
102
RTVSPost2010Prop41ColorRGB
 90
        0
102
RTVSPost2010PropOp41
 70
     0
102
RTVSPost2010Prop42
 90
       50
102
RTVSPost2010PropOp42
 70
     0
102
RTVSPost2010Prop43
 90
        3
102
RTVSPost2010PropOp43
 70
     0
102
RTVSPost2010Prop44ColorIndex
 90
        5
102
RTVSPost2010Prop44ColorRGB
 90
      255
102
RTVSPost2010PropOp44
 70
     0
102
RTVSPost2010Prop45
280
     0
102
RTVSPost2010PropOp45
 70
     0
102
RTVSPost2010Prop46
 90
       50
102
RTVSPost2010PropOp46
 70
     0
102
RTVSPost2010Prop47
 90
       50
102
RTVSPost2010PropOp47
 70
     0
102
RTVSPost2010Prop48
 90
       50
102
RTVSPost2010PropOp48
 70
     0
102
RTVSPost2010Prop49
280
     0
102
RTVSPost2010PropOp49
 70
     0
102
RTVSPost2010Prop50
 90
       50
102
RTVSPost2010PropOp50
 70
     0
102
RTVSPost2010Prop51ColorIndex
 90
      256
102
RTVSPost2010Prop51ColorRGB
 90
-16777216
102
RTVSPost2010PropOp51
 70
     0
102
RTVSPost2010Prop52
140
1.0
102
RTVSPost2010PropOp52
 70
     0
102
RTVSPost2010Prop53
 90
        2
102
RTVSPost2010PropOp53
 70
     0
102
RTVSPost2010Prop54
  1
strokes_ogs.tif
102
RTVSPost2010PropOp54
 70
     0
102
RTVSPost2010Prop55
280
     0
102
RTVSPost2010PropOp55
 70
     0
102
RTVSPost2010Prop56
140
1.0
102
RTVSPost2010PropOp56
 70
     0
102
RTVSPost2010Prop57
140
1.0
102
RTVSPost2010PropOp57
 70
     0
  0
XRECORD
  5
21E
102
{ACAD_REACTORS
330
21D
102
}
330
21D
100
AcDbXrecord
280
     1
102
RTVSPropertyOp0
 70
     1
102
RTVSPropertyOp1
 70
     1
102
RTVSPropertyOp2
 70
     1
102
RTVSPropertyOp3
 70
     1
102
RTVSPropertyOp4
 70
     1
102
RTVSPropertyOp5
 70
     1
102
RTVSPropertyOp6
 70
     1
102
RTVSPropertyOp7
 70
     1
102
RTVSPropertyOp8
 70
     1
102
RTVSPropertyOp9
 70
     1
102
RTVSPropertyOp10
 70
     1
102
RTVSPropertyOp11
 70
     1
102
RTVSPropertyOp12
 70
     1
102
RTVSPropertyOp13
 70
     1
102
RTVSPropertyOp14
 70
     1
102
RTVSPropertyOp15
 70
     1
102
RTVSPropertyOp16
 70
     1
102
RTVSPropertyOp17
 70
     1
102
RTVSPropertyOp18
 70
     1
102
RTVSPropertyOp19
 70
     1
102
RTVSPropertyOp20
 70
     1
102
RTVSPropertyOp21
 70
     1
102
RTVSPropertyOp22
 70
     1
102
RTVSPropertyOp23
 70
     1
102
RTVSPropertyOp24
 70
     1
102
RTVSPropertyOp25
 70
     1
102
RTVSPropertyOp26
 70
     1
102
RTVSPropertyOp27
 70
     1
102
RTVSPropertyOp28
 70
     1
102
RTVSPropertyOp29
 70
     1
102
RTVSPropertyOp30
 70
     1
102
RTVSPropertyOp31
 70
     1
102
RTVSPropertyOp32
 70
     1
102
RTVSPropertyOp33
 70
     1
102
RTVSPropertyOp34
 70
     1
102
RTVSPropertyOp35
 70
     1
102
RTVSPropertyOp36
 70
     1
102
RTVSPropertyOp37
 70
     1
102
RTVSPropertyOp38
 70
     1
102
RTVSPropertyOp39
 70
     1
102
RTVSPropertyOp40
 70
     1
102
RTVSPropertyOp41
 70
     1
102
RTVSPropertyOp42
 70
     1
102
RTVSPropertyOp43
 70
     1
102
RTVSPropertyOp44
 70
     1
102
RTVSPropertyOp45
 70
     1
102
RTVSPropertyOp46
 70
     1
102
RTVSPropertyOp47
 70
     1
102
RTVSPropertyOp48
 70
     1
102
RTVSPropertyOp49
 70
     1
102
RTVSPropertyOp50
 70
     1
102
RTVSPropertyOp51
 70
     0
102
RTVSPropertyOp52
 70
     0
102
RTVSPropertyOp53
 70
     1
102
RTVSPropertyOp54
 70
     1
102
RTVSPropertyOp55
 70
     1
102
RTVSPropertyOp56
 70
     1
102
RTVSPropertyOp57
 70
     1
102
RTVSPost2010Prop28
280
     0
102
RTVSPost2010PropOp28
 70
     1
102
RTVSPost2010Prop29
280
     1
102
RTVSPost2010PropOp29
 70
     1
102
RTVSPost2010Prop30
280
     1
102
RTVSPost2010PropOp30
 70
     1
102
RTVSPost2010Prop31
280
     0
102
RTVSPost2010PropOp31
 70
     1
102
RTVSPost2010Prop32
280
     0
102
RTVSPost2010PropOp32
 70
     1
102
RTVSPost2010Prop33
280
     0
102
RTVSPost2010PropOp33
 70
     1
102
RTVSPost2010Prop34
280
     0
102
RTVSPost2010PropOp34
 70
     1
102
RTVSPost2010Prop35
280
     0
102
RTVSPost2010PropOp35
 70
     1
102
RTVSPost2010Prop36
280
     0
102
RTVSPost2010PropOp36
 70
     1
102
RTVSPost2010Prop37
 90
       50
102
RTVSPost2010PropOp37
 70
     1
102
RTVSPost2010Prop38
140
0.0
102
RTVSPost2010PropOp38
 70
     1
102
RTVSPost2010Prop39
140
1.0
102
RTVSPost2010PropOp39
 70
     1
102
RTVSPost2010Prop40
 90
        0
102
RTVSPost2010PropOp40
 70
     1
102
RTVSPost2010Prop41ColorIndex
 90
       18
102
RTVSPost2010Prop41ColorRGB
 90
        0
102
RTVSPost2010PropOp41
 70
     1
102
RTVSPost2010Prop42
 90
       50
102
RTVSPost2010PropOp42
 70
     1
102
RTVSPost2010Prop43
 90
        3
102
RTVSPost2010PropOp43
 70
     1
102
RTVSPost2010Prop44ColorIndex
 90
        5
102
RTVSPost2010Prop44ColorRGB
 90
      255
102
RTVSPost2010PropOp44
 70
     1
102
RTVSPost2010Prop45
280
     0
102
RTVSPost2010PropOp45
 70
     1
102
RTVSPost2010Prop46
 90
       50
102
RTVSPost2010PropOp46
 70
     1
102
RTVSPost2010Prop47
 90
       50
102
RTVSPost2010PropOp47
 70
     1
102
RTVSPost2010Prop48
 90
       50
102
RTVSPost2010PropOp48
 70
     1
102
RTVSPost2010Prop49
280
     0
102
RTVSPost2010PropOp49
 70
     1
102
RTVSPost2010Prop50
 90
       50
102
RTVSPost2010PropOp50
 70
     1
102
RTVSPost2010Prop51ColorIndex
 90
      256
102
RTVSPost2010Prop51ColorRGB
 90
-16777216
102
RTVSPost2010PropOp51
 70
     0
102
RTVSPost2010Prop52
140
1.0
102
RTVSPost2010PropOp52
 70
     0
102
RTVSPost2010Prop53
 90
        2
102
RTVSPost2010PropOp53
 70
     1
102
RTVSPost2010Prop54
  1
strokes_ogs.tif
102
RTVSPost2010PropOp54
 70
     1
102
RTVSPost2010Prop55
280
     0
102
RTVSPost2010PropOp55
 70
     1
102
RTVSPost2010Prop56
140
1.0
102
RTVSPost2010PropOp56
 70
     1
102
RTVSPost2010Prop57
140
1.0
102
RTVSPost2010PropOp57
 70
     1
  0
XRECORD
  5
226
102
{ACAD_REACTORS
330
225
102
}
330
225
100
AcDbXrecord
280
     1
102
RTVSPropertyOp0
 70
     0
102
RTVSPropertyOp1
 70
     0
102
RTVSPropertyOp2
 70
     0
102
RTVSPropertyOp3
 70
     0
102
RTVSPropertyOp4
 70
     0
102
RTVSPropertyOp5
 70
     0
102
RTVSPropertyOp6
 70
     0
102
RTVSPropertyOp7
 70
     0
102
RTVSPropertyOp8
 70
     0
102
RTVSPropertyOp9
 70
     0
102
RTVSPropertyOp10
 70
     0
102
RTVSPropertyOp11
 70
     0
102
RTVSPropertyOp12
 70
     0
102
RTVSPropertyOp13
 70
     0
102
RTVSPropertyOp14
 70
     2
102
RTVSPropertyOp15
 70
     0
102
RTVSPropertyOp16
 70
     0
102
RTVSPropertyOp17
 70
     0
102
RTVSPropertyOp18
 70
     0
102
RTVSPropertyOp19
 70
     0
102
RTVSPropertyOp20
 70
     0
102
RTVSPropertyOp21
 70
     0
102
RTVSPropertyOp22
 70
     0
102
RTVSPropertyOp23
 70
     0
102
RTVSPropertyOp24
 70
     0
102
RTVSPropertyOp25
 70
     0
102
RTVSPropertyOp26
 70
     0
102
RTVSPropertyOp27
 70
     0
102
RTVSPropertyOp28
 70
     0
102
RTVSPropertyOp29
 70
     0
102
RTVSPropertyOp30
 70
     0
102
RTVSPropertyOp31
 70
     0
102
RTVSPropertyOp32
 70
     0
102
RTVSPropertyOp33
 70
     0
102
RTVSPropertyOp34
 70
     0
102
RTVSPropertyOp35
 70
     0
102
RTVSPropertyOp36
 70
     0
102
RTVSPropertyOp37
 70
     0
102
RTVSPropertyOp38
 70
     0
102
RTVSPropertyOp39
 70
     0
102
RTVSPropertyOp40
 70
     0
102
RTVSPropertyOp41
 70
     0
102
RTVSPropertyOp42
 70
     0
102
RTVSPropertyOp43
 70
     0
102
RTVSPropertyOp44
 70
     0
102
RTVSPropertyOp45
 70
     0
102
RTVSPropertyOp46
 70
     0
102
RTVSPropertyOp47
 70
     0
102
RTVSPropertyOp48
 70
     0
102
RTVSPropertyOp49
 70
     0
102
RTVSPropertyOp50
 70
     0
102
RTVSPropertyOp51
 70
     0
102
RTVSPropertyOp52
 70
     0
102
RTVSPropertyOp53
 70
     0
102
RTVSPropertyOp54
 70
     0
102
RTVSPropertyOp55
 70
     0
102
RTVSPropertyOp56
 70
     0
102
RTVSPropertyOp57
 70
     0
102
RTVSPost2010Prop28
280
     0
102
RTVSPost2010PropOp28
 70
     0
102
RTVSPost2010Prop29
280
     1
102
RTVSPost2010PropOp29
 70
     0
102
RTVSPost2010Prop30
280
     1
102
RTVSPost2010PropOp30
 70
     0
102
RTVSPost2010Prop31
280
     0
102
RTVSPost2010PropOp31
 70
     0
102
RTVSPost2010Prop32
280
     0
102
RTVSPost2010PropOp32
 70
     0
102
RTVSPost2010Prop33
280
     0
102
RTVSPost2010PropOp33
 70
     0
102
RTVSPost2010Prop34
280
     0
102
RTVSPost2010PropOp34
 70
     0
102
RTVSPost2010Prop35
280
     0
102
RTVSPost2010PropOp35
 70
     0
102
RTVSPost2010Prop36
280
     0
102
RTVSPost2010PropOp36
 70
     0
102
RTVSPost2010Prop37
 90
       50
102
RTVSPost2010PropOp37
 70
     0
102
RTVSPost2010Prop38
140
0.0
102
RTVSPost2010PropOp38
 70
     0
102
RTVSPost2010Prop39
140
1.0
102
RTVSPost2010PropOp39
 70
     0
102
RTVSPost2010Prop40
 90
        0
102
RTVSPost2010PropOp40
 70
     0
102
RTVSPost2010Prop41ColorIndex
 90
       18
102
RTVSPost2010Prop41ColorRGB
 90
        0
102
RTVSPost2010PropOp41
 70
     0
102
RTVSPost2010Prop42
 90
       50
102
RTVSPost2010PropOp42
 70
     0
102
RTVSPost2010Prop43
 90
        3
102
RTVSPost2010PropOp43
 70
     0
102
RTVSPost2010Prop44ColorIndex
 90
        5
102
RTVSPost2010Prop44ColorRGB
 90
      255
102
RTVSPost2010PropOp44
 70
     0
102
RTVSPost2010Prop45
280
     0
102
RTVSPost2010PropOp45
 70
     0
102
RTVSPost2010Prop46
 90
       50
102
RTVSPost2010PropOp46
 70
     0
102
RTVSPost2010Prop47
 90
       50
102
RTVSPost2010PropOp47
 70
     0
102
RTVSPost2010Prop48
 90
       50
102
RTVSPost2010PropOp48
 70
     0
102
RTVSPost2010Prop49
280
     0
102
RTVSPost2010PropOp49
 70
     0
102
RTVSPost2010Prop50
 90
       50
102
RTVSPost2010PropOp50
 70
     0
102
RTVSPost2010Prop51ColorIndex
 90
      256
102
RTVSPost2010Prop51ColorRGB
 90
-16777216
102
RTVSPost2010PropOp51
 70
     0
102
RTVSPost2010Prop52
140
1.0
102
RTVSPost2010PropOp52
 70
     0
102
RTVSPost2010Prop53
 90
        2
102
RTVSPost2010PropOp53
 70
     0
102
RTVSPost2010Prop54
  1
strokes_ogs.tif
102
RTVSPost2010PropOp54
 70
     0
102
RTVSPost2010Prop55
280
     0
102
RTVSPost2010PropOp55
 70
     0
102
RTVSPost2010Prop56
140
1.0
102
RTVSPost2010PropOp56
 70
     0
102
RTVSPost2010Prop57
140
1.0
102
RTVSPost2010PropOp57
 70
     0
  0
XRECORD
  5
214
102
{ACAD_REACTORS
330
213
102
}
330
213
100
AcDbXrecord
280
     1
102
RTVSPropertyOp0
 70
     1
102
RTVSPropertyOp1
 70
     1
102
RTVSPropertyOp2
 70
     1
102
RTVSPropertyOp3
 70
     1
102
RTVSPropertyOp4
 70
     1
102
RTVSPropertyOp5
 70
     1
102
RTVSPropertyOp6
 70
     1
102
RTVSPropertyOp7
 70
     1
102
RTVSPropertyOp8
 70
     1
102
RTVSPropertyOp9
 70
     1
102
RTVSPropertyOp10
 70
     1
102
RTVSPropertyOp11
 70
     1
102
RTVSPropertyOp12
 70
     1
102
RTVSPropertyOp13
 70
     1
102
RTVSPropertyOp14
 70
     1
102
RTVSPropertyOp15
 70
     1
102
RTVSPropertyOp16
 70
     1
102
RTVSPropertyOp17
 70
     1
102
RTVSPropertyOp18
 70
     1
102
RTVSPropertyOp19
 70
     1
102
RTVSPropertyOp20
 70
     1
102
RTVSPropertyOp21
 70
     1
102
RTVSPropertyOp22
 70
     1
102
RTVSPropertyOp23
 70
     1
102
RTVSPropertyOp24
 70
     1
102
RTVSPropertyOp25
 70
     1
102
RTVSPropertyOp26
 70
     1
102
RTVSPropertyOp27
 70
     1
102
RTVSPropertyOp28
 70
     1
102
RTVSPropertyOp29
 70
     1
102
RTVSPropertyOp30
 70
     1
102
RTVSPropertyOp31
 70
     1
102
RTVSPropertyOp32
 70
     1
102
RTVSPropertyOp33
 70
     1
102
RTVSPropertyOp34
 70
     1
102
RTVSPropertyOp35
 70
     1
102
RTVSPropertyOp36
 70
     1
102
RTVSPropertyOp37
 70
     1
102
RTVSPropertyOp38
 70
     1
102
RTVSPropertyOp39
 70
     1
102
RTVSPropertyOp40
 70
     1
102
RTVSPropertyOp41
 70
     1
102
RTVSPropertyOp42
 70
     1
102
RTVSPropertyOp43
 70
     1
102
RTVSPropertyOp44
 70
     1
102
RTVSPropertyOp45
 70
     1
102
RTVSPropertyOp46
 70
     1
102
RTVSPropertyOp47
 70
     1
102
RTVSPropertyOp48
 70
     1
102
RTVSPropertyOp49
 70
     1
102
RTVSPropertyOp50
 70
     1
102
RTVSPropertyOp51
 70
     0
102
RTVSPropertyOp52
 70
     0
102
RTVSPropertyOp53
 70
     1
102
RTVSPropertyOp54
 70
     1
102
RTVSPropertyOp55
 70
     1
102
RTVSPropertyOp56
 70
     1
102
RTVSPropertyOp57
 70
     1
102
RTVSPost2010Prop28
280
     0
102
RTVSPost2010PropOp28
 70
     1
102
RTVSPost2010Prop29
280
     1
102
RTVSPost2010PropOp29
 70
     1
102
RTVSPost2010Prop30
280
     1
102
RTVSPost2010PropOp30
 70
     1
102
RTVSPost2010Prop31
280
     0
102
RTVSPost2010PropOp31
 70
     1
102
RTVSPost2010Prop32
280
     0
102
RTVSPost2010PropOp32
 70
     1
102
RTVSPost2010Prop33
280
     0
102
RTVSPost2010PropOp33
 70
     1
102
RTVSPost2010Prop34
280
     0
102
RTVSPost2010PropOp34
 70
     1
102
RTVSPost2010Prop35
280
     0
102
RTVSPost2010PropOp35
 70
     1
102
RTVSPost2010Prop36
280
     0
102
RTVSPost2010PropOp36
 70
     1
102
RTVSPost2010Prop37
 90
       50
102
RTVSPost2010PropOp37
 70
     1
102
RTVSPost2010Prop38
140
0.0
102
RTVSPost2010PropOp38
 70
     1
102
RTVSPost2010Prop39
140
1.0
102
RTVSPost2010PropOp39
 70
     1
102
RTVSPost2010Prop40
 90
        0
102
RTVSPost2010PropOp40
 70
     1
102
RTVSPost2010Prop41ColorIndex
 90
       18
102
RTVSPost2010Prop41ColorRGB
 90
        0
102
RTVSPost2010PropOp41
 70
     1
102
RTVSPost2010Prop42
 90
       50
102
RTVSPost2010PropOp42
 70
     1
102
RTVSPost2010Prop43
 90
        3
102
RTVSPost2010PropOp43
 70
     1
102
RTVSPost2010Prop44ColorIndex
 90
        5
102
RTVSPost2010Prop44ColorRGB
 90
      255
102
RTVSPost2010PropOp44
 70
     1
102
RTVSPost2010Prop45
280
     0
102
RTVSPost2010PropOp45
 70
     1
102
RTVSPost2010Prop46
 90
       50
102
RTVSPost2010PropOp46
 70
     1
102
RTVSPost2010Prop47
 90
       50
102
RTVSPost2010PropOp47
 70
     1
102
RTVSPost2010Prop48
 90
       50
102
RTVSPost2010PropOp48
 70
     1
102
RTVSPost2010Prop49
280
     0
102
RTVSPost2010PropOp49
 70
     1
102
RTVSPost2010Prop50
 90
       50
102
RTVSPost2010PropOp50
 70
     1
102
RTVSPost2010Prop51ColorIndex
 90
      256
102
RTVSPost2010Prop51ColorRGB
 90
-16777216
102
RTVSPost2010PropOp51
 70
     0
102
RTVSPost2010Prop52
140
1.0
102
RTVSPost2010PropOp52
 70
     0
102
RTVSPost2010Prop53
 90
        2
102
RTVSPost2010PropOp53
 70
     1
102
RTVSPost2010Prop54
  1
strokes_ogs.tif
102
RTVSPost2010PropOp54
 70
     1
102
RTVSPost2010Prop55
280
     0
102
RTVSPost2010PropOp55
 70
     1
102
RTVSPost2010Prop56
140
1.0
102
RTVSPost2010PropOp56
 70
     1
102
RTVSPost2010Prop57
140
1.0
102
RTVSPost2010PropOp57
 70
     1
  0
XRECORD
  5
232
102
{ACAD_REACTORS
330
231
102
}
330
231
100
AcDbXrecord
280
     1
102
RTVSPropertyOp0
 70
     1
102
RTVSPropertyOp1
 70
     1
102
RTVSPropertyOp2
 70
     1
102
RTVSPropertyOp3
 70
     1
102
RTVSPropertyOp4
 70
     1
102
RTVSPropertyOp5
 70
     1
102
RTVSPropertyOp6
 70
     1
102
RTVSPropertyOp7
 70
     1
102
RTVSPropertyOp8
 70
     1
102
RTVSPropertyOp9
 70
     1
102
RTVSPropertyOp10
 70
     1
102
RTVSPropertyOp11
 70
     1
102
RTVSPropertyOp12
 70
     1
102
RTVSPropertyOp13
 70
     1
102
RTVSPropertyOp14
 70
     1
102
RTVSPropertyOp15
 70
     1
102
RTVSPropertyOp16
 70
     1
102
RTVSPropertyOp17
 70
     1
102
RTVSPropertyOp18
 70
     1
102
RTVSPropertyOp19
 70
     1
102
RTVSPropertyOp20
 70
     1
102
RTVSPropertyOp21
 70
     1
102
RTVSPropertyOp22
 70
     1
102
RTVSPropertyOp23
 70
     1
102
RTVSPropertyOp24
 70
     1
102
RTVSPropertyOp25
 70
     1
102
RTVSPropertyOp26
 70
     1
102
RTVSPropertyOp27
 70
     1
102
RTVSPropertyOp28
 70
     1
102
RTVSPropertyOp29
 70
     1
102
RTVSPropertyOp30
 70
     1
102
RTVSPropertyOp31
 70
     1
102
RTVSPropertyOp32
 70
     1
102
RTVSPropertyOp33
 70
     1
102
RTVSPropertyOp34
 70
     1
102
RTVSPropertyOp35
 70
     1
102
RTVSPropertyOp36
 70
     1
102
RTVSPropertyOp37
 70
     1
102
RTVSPropertyOp38
 70
     1
102
RTVSPropertyOp39
 70
     1
102
RTVSPropertyOp40
 70
     1
102
RTVSPropertyOp41
 70
     1
102
RTVSPropertyOp42
 70
     1
102
RTVSPropertyOp43
 70
     1
102
RTVSPropertyOp44
 70
     1
102
RTVSPropertyOp45
 70
     1
102
RTVSPropertyOp46
 70
     1
102
RTVSPropertyOp47
 70
     1
102
RTVSPropertyOp48
 70
     1
102
RTVSPropertyOp49
 70
     1
102
RTVSPropertyOp50
 70
     1
102
RTVSPropertyOp51
 70
     0
102
RTVSPropertyOp52
 70
     0
102
RTVSPropertyOp53
 70
     1
102
RTVSPropertyOp54
 70
     1
102
RTVSPropertyOp55
 70
     1
102
RTVSPropertyOp56
 70
     1
102
RTVSPropertyOp57
 70
     1
102
RTVSPost2010Prop28
280
     0
102
RTVSPost2010PropOp28
 70
     1
102
RTVSPost2010Prop29
280
     1
102
RTVSPost2010PropOp29
 70
     1
102
RTVSPost2010Prop30
280
     1
102
RTVSPost2010PropOp30
 70
     1
102
RTVSPost2010Prop31
280
     0
102
RTVSPost2010PropOp31
 70
     1
102
RTVSPost2010Prop32
280
     0
102
RTVSPost2010PropOp32
 70
     1
102
RTVSPost2010Prop33
280
     0
102
RTVSPost2010PropOp33
 70
     1
102
RTVSPost2010Prop34
280
     0
102
RTVSPost2010PropOp34
 70
     1
102
RTVSPost2010Prop35
280
     0
102
RTVSPost2010PropOp35
 70
     1
102
RTVSPost2010Prop36
280
     0
102
RTVSPost2010PropOp36
 70
     1
102
RTVSPost2010Prop37
 90
       50
102
RTVSPost2010PropOp37
 70
     1
102
RTVSPost2010Prop38
140
0.0
102
RTVSPost2010PropOp38
 70
     1
102
RTVSPost2010Prop39
140
1.0
102
RTVSPost2010PropOp39
 70
     1
102
RTVSPost2010Prop40
 90
        0
102
RTVSPost2010PropOp40
 70
     1
102
RTVSPost2010Prop41ColorIndex
 90
       18
102
RTVSPost2010Prop41ColorRGB
 90
        0
102
RTVSPost2010PropOp41
 70
     1
102
RTVSPost2010Prop42
 90
       50
102
RTVSPost2010PropOp42
 70
     1
102
RTVSPost2010Prop43
 90
        3
102
RTVSPost2010PropOp43
 70
     1
102
RTVSPost2010Prop44ColorIndex
 90
        5
102
RTVSPost2010Prop44ColorRGB
 90
      255
102
RTVSPost2010PropOp44
 70
     1
102
RTVSPost2010Prop45
280
     0
102
RTVSPost2010PropOp45
 70
     1
102
RTVSPost2010Prop46
 90
       50
102
RTVSPost2010PropOp46
 70
     1
102
RTVSPost2010Prop47
 90
       50
102
RTVSPost2010PropOp47
 70
     1
102
RTVSPost2010Prop48
 90
       50
102
RTVSPost2010PropOp48
 70
     1
102
RTVSPost2010Prop49
280
     0
102
RTVSPost2010PropOp49
 70
     1
102
RTVSPost2010Prop50
 90
       50
102
RTVSPost2010PropOp50
 70
     1
102
RTVSPost2010Prop51ColorIndex
 90
      256
102
RTVSPost2010Prop51ColorRGB
 90
-16777216
102
RTVSPost2010PropOp51
 70
     0
102
RTVSPost2010Prop52
140
1.0
102
RTVSPost2010PropOp52
 70
     0
102
RTVSPost2010Prop53
 90
        2
102
RTVSPost2010PropOp53
 70
     1
102
RTVSPost2010Prop54
  1
strokes_ogs.tif
102
RTVSPost2010PropOp54
 70
     1
102
RTVSPost2010Prop55
280
     0
102
RTVSPost2010PropOp55
 70
     1
102
RTVSPost2010Prop56
140
1.0
102
RTVSPost2010PropOp56
 70
     1
102
RTVSPost2010Prop57
140
1.0
102
RTVSPost2010PropOp57
 70
     1
  0
XRECORD
  5
230
102
{ACAD_REACTORS
330
22F
102
}
330
22F
100
AcDbXrecord
280
     1
102
RTVSPropertyOp0
 70
     1
102
RTVSPropertyOp1
 70
     1
102
RTVSPropertyOp2
 70
     1
102
RTVSPropertyOp3
 70
     1
102
RTVSPropertyOp4
 70
     1
102
RTVSPropertyOp5
 70
     1
102
RTVSPropertyOp6
 70
     1
102
RTVSPropertyOp7
 70
     1
102
RTVSPropertyOp8
 70
     1
102
RTVSPropertyOp9
 70
     1
102
RTVSPropertyOp10
 70
     1
102
RTVSPropertyOp11
 70
     1
102
RTVSPropertyOp12
 70
     1
102
RTVSPropertyOp13
 70
     1
102
RTVSPropertyOp14
 70
     1
102
RTVSPropertyOp15
 70
     1
102
RTVSPropertyOp16
 70
     1
102
RTVSPropertyOp17
 70
     1
102
RTVSPropertyOp18
 70
     1
102
RTVSPropertyOp19
 70
     1
102
RTVSPropertyOp20
 70
     1
102
RTVSPropertyOp21
 70
     1
102
RTVSPropertyOp22
 70
     1
102
RTVSPropertyOp23
 70
     1
102
RTVSPropertyOp24
 70
     1
102
RTVSPropertyOp25
 70
     1
102
RTVSPropertyOp26
 70
     1
102
RTVSPropertyOp27
 70
     1
102
RTVSPropertyOp28
 70
     1
102
RTVSPropertyOp29
 70
     1
102
RTVSPropertyOp30
 70
     1
102
RTVSPropertyOp31
 70
     1
102
RTVSPropertyOp32
 70
     1
102
RTVSPropertyOp33
 70
     1
102
RTVSPropertyOp34
 70
     1
102
RTVSPropertyOp35
 70
     1
102
RTVSPropertyOp36
 70
     1
102
RTVSPropertyOp37
 70
     1
102
RTVSPropertyOp38
 70
     1
102
RTVSPropertyOp39
 70
     1
102
RTVSPropertyOp40
 70
     1
102
RTVSPropertyOp41
 70
     1
102
RTVSPropertyOp42
 70
     1
102
RTVSPropertyOp43
 70
     1
102
RTVSPropertyOp44
 70
     1
102
RTVSPropertyOp45
 70
     1
102
RTVSPropertyOp46
 70
     1
102
RTVSPropertyOp47
 70
     1
102
RTVSPropertyOp48
 70
     1
102
RTVSPropertyOp49
 70
     1
102
RTVSPropertyOp50
 70
     1
102
RTVSPropertyOp51
 70
     0
102
RTVSPropertyOp52
 70
     0
102
RTVSPropertyOp53
 70
     1
102
RTVSPropertyOp54
 70
     1
102
RTVSPropertyOp55
 70
     1
102
RTVSPropertyOp56
 70
     1
102
RTVSPropertyOp57
 70
     1
102
RTVSPost2010Prop28
280
     0
102
RTVSPost2010PropOp28
 70
     1
102
RTVSPost2010Prop29
280
     1
102
RTVSPost2010PropOp29
 70
     1
102
RTVSPost2010Prop30
280
     1
102
RTVSPost2010PropOp30
 70
     1
102
RTVSPost2010Prop31
280
     0
102
RTVSPost2010PropOp31
 70
     1
102
RTVSPost2010Prop32
280
     0
102
RTVSPost2010PropOp32
 70
     1
102
RTVSPost2010Prop33
280
     0
102
RTVSPost2010PropOp33
 70
     1
102
RTVSPost2010Prop34
280
     0
102
RTVSPost2010PropOp34
 70
     1
102
RTVSPost2010Prop35
280
     0
102
RTVSPost2010PropOp35
 70
     1
102
RTVSPost2010Prop36
280
     0
102
RTVSPost2010PropOp36
 70
     1
102
RTVSPost2010Prop37
 90
       50
102
RTVSPost2010PropOp37
 70
     1
102
RTVSPost2010Prop38
140
0.0
102
RTVSPost2010PropOp38
 70
     1
102
RTVSPost2010Prop39
140
1.0
102
RTVSPost2010PropOp39
 70
     1
102
RTVSPost2010Prop40
 90
        0
102
RTVSPost2010PropOp40
 70
     1
102
RTVSPost2010Prop41ColorIndex
 90
       18
102
RTVSPost2010Prop41ColorRGB
 90
        0
102
RTVSPost2010PropOp41
 70
     1
102
RTVSPost2010Prop42
 90
       50
102
RTVSPost2010PropOp42
 70
     1
102
RTVSPost2010Prop43
 90
        3
102
RTVSPost2010PropOp43
 70
     1
102
RTVSPost2010Prop44ColorIndex
 90
        5
102
RTVSPost2010Prop44ColorRGB
 90
      255
102
RTVSPost2010PropOp44
 70
     1
102
RTVSPost2010Prop45
280
     0
102
RTVSPost2010PropOp45
 70
     1
102
RTVSPost2010Prop46
 90
       50
102
RTVSPost2010PropOp46
 70
     1
102
RTVSPost2010Prop47
 90
       50
102
RTVSPost2010PropOp47
 70
     1
102
RTVSPost2010Prop48
 90
       50
102
RTVSPost2010PropOp48
 70
     1
102
RTVSPost2010Prop49
280
     0
102
RTVSPost2010PropOp49
 70
     1
102
RTVSPost2010Prop50
 90
       50
102
RTVSPost2010PropOp50
 70
     1
102
RTVSPost2010Prop51ColorIndex
 90
      256
102
RTVSPost2010Prop51ColorRGB
 90
-16777216
102
RTVSPost2010PropOp51
 70
     0
102
RTVSPost2010Prop52
140
1.0
102
RTVSPost2010PropOp52
 70
     0
102
RTVSPost2010Prop53
 90
        2
102
RTVSPost2010PropOp53
 70
     1
102
RTVSPost2010Prop54
  1
strokes_ogs.tif
102
RTVSPost2010PropOp54
 70
     1
102
RTVSPost2010Prop55
280
     0
102
RTVSPost2010PropOp55
 70
     1
102
RTVSPost2010Prop56
140
1.0
102
RTVSPost2010PropOp56
 70
     1
102
RTVSPost2010Prop57
140
1.0
102
RTVSPost2010PropOp57
 70
     1
  0
XRECORD
  5
22A
102
{ACAD_REACTORS
330
229
102
}
330
229
100
AcDbXrecord
280
     1
102
RTVSPropertyOp0
 70
     1
102
RTVSPropertyOp1
 70
     1
102
RTVSPropertyOp2
 70
     1
102
RTVSPropertyOp3
 70
     1
102
RTVSPropertyOp4
 70
     1
102
RTVSPropertyOp5
 70
     1
102
RTVSPropertyOp6
 70
     1
102
RTVSPropertyOp7
 70
     1
102
RTVSPropertyOp8
 70
     1
102
RTVSPropertyOp9
 70
     1
102
RTVSPropertyOp10
 70
     1
102
RTVSPropertyOp11
 70
     1
102
RTVSPropertyOp12
 70
     1
102
RTVSPropertyOp13
 70
     1
102
RTVSPropertyOp14
 70
     1
102
RTVSPropertyOp15
 70
     1
102
RTVSPropertyOp16
 70
     1
102
RTVSPropertyOp17
 70
     1
102
RTVSPropertyOp18
 70
     1
102
RTVSPropertyOp19
 70
     1
102
RTVSPropertyOp20
 70
     1
102
RTVSPropertyOp21
 70
     1
102
RTVSPropertyOp22
 70
     1
102
RTVSPropertyOp23
 70
     1
102
RTVSPropertyOp24
 70
     1
102
RTVSPropertyOp25
 70
     1
102
RTVSPropertyOp26
 70
     1
102
RTVSPropertyOp27
 70
     1
102
RTVSPropertyOp28
 70
     1
102
RTVSPropertyOp29
 70
     1
102
RTVSPropertyOp30
 70
     1
102
RTVSPropertyOp31
 70
     1
102
RTVSPropertyOp32
 70
     1
102
RTVSPropertyOp33
 70
     1
102
RTVSPropertyOp34
 70
     1
102
RTVSPropertyOp35
 70
     1
102
RTVSPropertyOp36
 70
     1
102
RTVSPropertyOp37
 70
     1
102
RTVSPropertyOp38
 70
     1
102
RTVSPropertyOp39
 70
     1
102
RTVSPropertyOp40
 70
     1
102
RTVSPropertyOp41
 70
     1
102
RTVSPropertyOp42
 70
     1
102
RTVSPropertyOp43
 70
     1
102
RTVSPropertyOp44
 70
     1
102
RTVSPropertyOp45
 70
     1
102
RTVSPropertyOp46
 70
     1
102
RTVSPropertyOp47
 70
     1
102
RTVSPropertyOp48
 70
     1
102
RTVSPropertyOp49
 70
     1
102
RTVSPropertyOp50
 70
     1
102
RTVSPropertyOp51
 70
     0
102
RTVSPropertyOp52
 70
     0
102
RTVSPropertyOp53
 70
     1
102
RTVSPropertyOp54
 70
     1
102
RTVSPropertyOp55
 70
     1
102
RTVSPropertyOp56
 70
     1
102
RTVSPropertyOp57
 70
     1
102
RTVSPost2010Prop28
280
     0
102
RTVSPost2010PropOp28
 70
     1
102
RTVSPost2010Prop29
280
     1
102
RTVSPost2010PropOp29
 70
     1
102
RTVSPost2010Prop30
280
     1
102
RTVSPost2010PropOp30
 70
     1
102
RTVSPost2010Prop31
280
     0
102
RTVSPost2010PropOp31
 70
     1
102
RTVSPost2010Prop32
280
     0
102
RTVSPost2010PropOp32
 70
     1
102
RTVSPost2010Prop33
280
     0
102
RTVSPost2010PropOp33
 70
     1
102
RTVSPost2010Prop34
280
     0
102
RTVSPost2010PropOp34
 70
     1
102
RTVSPost2010Prop35
280
     0
102
RTVSPost2010PropOp35
 70
     1
102
RTVSPost2010Prop36
280
     0
102
RTVSPost2010PropOp36
 70
     1
102
RTVSPost2010Prop37
 90
       50
102
RTVSPost2010PropOp37
 70
     1
102
RTVSPost2010Prop38
140
0.0
102
RTVSPost2010PropOp38
 70
     1
102
RTVSPost2010Prop39
140
1.0
102
RTVSPost2010PropOp39
 70
     1
102
RTVSPost2010Prop40
 90
        0
102
RTVSPost2010PropOp40
 70
     1
102
RTVSPost2010Prop41ColorIndex
 90
       18
102
RTVSPost2010Prop41ColorRGB
 90
        0
102
RTVSPost2010PropOp41
 70
     1
102
RTVSPost2010Prop42
 90
       50
102
RTVSPost2010PropOp42
 70
     1
102
RTVSPost2010Prop43
 90
        3
102
RTVSPost2010PropOp43
 70
     1
102
RTVSPost2010Prop44ColorIndex
 90
        5
102
RTVSPost2010Prop44ColorRGB
 90
      255
102
RTVSPost2010PropOp44
 70
     1
102
RTVSPost2010Prop45
280
     0
102
RTVSPost2010PropOp45
 70
     1
102
RTVSPost2010Prop46
 90
       50
102
RTVSPost2010PropOp46
 70
     1
102
RTVSPost2010Prop47
 90
       50
102
RTVSPost2010PropOp47
 70
     1
102
RTVSPost2010Prop48
 90
       50
102
RTVSPost2010PropOp48
 70
     1
102
RTVSPost2010Prop49
280
     0
102
RTVSPost2010PropOp49
 70
     1
102
RTVSPost2010Prop50
 90
       50
102
RTVSPost2010PropOp50
 70
     1
102
RTVSPost2010Prop51ColorIndex
 90
      256
102
RTVSPost2010Prop51ColorRGB
 90
-16777216
102
RTVSPost2010PropOp51
 70
     0
102
RTVSPost2010Prop52
140
1.0
102
RTVSPost2010PropOp52
 70
     0
102
RTVSPost2010Prop53
 90
        2
102
RTVSPost2010PropOp53
 70
     1
102
RTVSPost2010Prop54
  1
strokes_ogs.tif
102
RTVSPost2010PropOp54
 70
     1
102
RTVSPost2010Prop55
280
     0
102
RTVSPost2010PropOp55
 70
     1
102
RTVSPost2010Prop56
140
1.0
102
RTVSPost2010PropOp56
 70
     1
102
RTVSPost2010Prop57
140
1.0
102
RTVSPost2010PropOp57
 70
     1
  0
XRECORD
  5
22C
102
{ACAD_REACTORS
330
22B
102
}
330
22B
100
AcDbXrecord
280
     1
102
RTVSPropertyOp0
 70
     1
102
RTVSPropertyOp1
 70
     1
102
RTVSPropertyOp2
 70
     1
102
RTVSPropertyOp3
 70
     1
102
RTVSPropertyOp4
 70
     1
102
RTVSPropertyOp5
 70
     1
102
RTVSPropertyOp6
 70
     1
102
RTVSPropertyOp7
 70
     1
102
RTVSPropertyOp8
 70
     1
102
RTVSPropertyOp9
 70
     1
102
RTVSPropertyOp10
 70
     1
102
RTVSPropertyOp11
 70
     1
102
RTVSPropertyOp12
 70
     1
102
RTVSPropertyOp13
 70
     1
102
RTVSPropertyOp14
 70
     1
102
RTVSPropertyOp15
 70
     1
102
RTVSPropertyOp16
 70
     1
102
RTVSPropertyOp17
 70
     1
102
RTVSPropertyOp18
 70
     1
102
RTVSPropertyOp19
 70
     1
102
RTVSPropertyOp20
 70
     1
102
RTVSPropertyOp21
 70
     1
102
RTVSPropertyOp22
 70
     1
102
RTVSPropertyOp23
 70
     1
102
RTVSPropertyOp24
 70
     1
102
RTVSPropertyOp25
 70
     1
102
RTVSPropertyOp26
 70
     1
102
RTVSPropertyOp27
 70
     1
102
RTVSPropertyOp28
 70
     1
102
RTVSPropertyOp29
 70
     1
102
RTVSPropertyOp30
 70
     1
102
RTVSPropertyOp31
 70
     1
102
RTVSPropertyOp32
 70
     1
102
RTVSPropertyOp33
 70
     1
102
RTVSPropertyOp34
 70
     1
102
RTVSPropertyOp35
 70
     1
102
RTVSPropertyOp36
 70
     1
102
RTVSPropertyOp37
 70
     1
102
RTVSPropertyOp38
 70
     1
102
RTVSPropertyOp39
 70
     1
102
RTVSPropertyOp40
 70
     1
102
RTVSPropertyOp41
 70
     1
102
RTVSPropertyOp42
 70
     1
102
RTVSPropertyOp43
 70
     1
102
RTVSPropertyOp44
 70
     1
102
RTVSPropertyOp45
 70
     1
102
RTVSPropertyOp46
 70
     1
102
RTVSPropertyOp47
 70
     1
102
RTVSPropertyOp48
 70
     1
102
RTVSPropertyOp49
 70
     1
102
RTVSPropertyOp50
 70
     1
102
RTVSPropertyOp51
 70
     0
102
RTVSPropertyOp52
 70
     0
102
RTVSPropertyOp53
 70
     1
102
RTVSPropertyOp54
 70
     1
102
RTVSPropertyOp55
 70
     1
102
RTVSPropertyOp56
 70
     1
102
RTVSPropertyOp57
 70
     1
102
RTVSPost2010Prop28
280
     0
102
RTVSPost2010PropOp28
 70
     1
102
RTVSPost2010Prop29
280
     1
102
RTVSPost2010PropOp29
 70
     1
102
RTVSPost2010Prop30
280
     1
102
RTVSPost2010PropOp30
 70
     1
102
RTVSPost2010Prop31
280
     0
102
RTVSPost2010PropOp31
 70
     1
102
RTVSPost2010Prop32
280
     0
102
RTVSPost2010PropOp32
 70
     1
102
RTVSPost2010Prop33
280
     0
102
RTVSPost2010PropOp33
 70
     1
102
RTVSPost2010Prop34
280
     0
102
RTVSPost2010PropOp34
 70
     1
102
RTVSPost2010Prop35
280
     0
102
RTVSPost2010PropOp35
 70
     1
102
RTVSPost2010Prop36
280
     0
102
RTVSPost2010PropOp36
 70
     1
102
RTVSPost2010Prop37
 90
       50
102
RTVSPost2010PropOp37
 70
     1
102
RTVSPost2010Prop38
140
0.0
102
RTVSPost2010PropOp38
 70
     1
102
RTVSPost2010Prop39
140
1.0
102
RTVSPost2010PropOp39
 70
     1
102
RTVSPost2010Prop40
 90
        0
102
RTVSPost2010PropOp40
 70
     1
102
RTVSPost2010Prop41ColorIndex
 90
       18
102
RTVSPost2010Prop41ColorRGB
 90
        0
102
RTVSPost2010PropOp41
 70
     1
102
RTVSPost2010Prop42
 90
       50
102
RTVSPost2010PropOp42
 70
     1
102
RTVSPost2010Prop43
 90
        3
102
RTVSPost2010PropOp43
 70
     1
102
RTVSPost2010Prop44ColorIndex
 90
        5
102
RTVSPost2010Prop44ColorRGB
 90
      255
102
RTVSPost2010PropOp44
 70
     1
102
RTVSPost2010Prop45
280
     0
102
RTVSPost2010PropOp45
 70
     1
102
RTVSPost2010Prop46
 90
       50
102
RTVSPost2010PropOp46
 70
     1
102
RTVSPost2010Prop47
 90
       50
102
RTVSPost2010PropOp47
 70
     1
102
RTVSPost2010Prop48
 90
       50
102
RTVSPost2010PropOp48
 70
     1
102
RTVSPost2010Prop49
280
     0
102
RTVSPost2010PropOp49
 70
     1
102
RTVSPost2010Prop50
 90
       50
102
RTVSPost2010PropOp50
 70
     1
102
RTVSPost2010Prop51ColorIndex
 90
      256
102
RTVSPost2010Prop51ColorRGB
 90
-16777216
102
RTVSPost2010PropOp51
 70
     0
102
RTVSPost2010Prop52
140
1.0
102
RTVSPost2010PropOp52
 70
     0
102
RTVSPost2010Prop53
 90
        2
102
RTVSPost2010PropOp53
 70
     1
102
RTVSPost2010Prop54
  1
strokes_ogs.tif
102
RTVSPost2010PropOp54
 70
     1
102
RTVSPost2010Prop55
280
     0
102
RTVSPost2010PropOp55
 70
     1
102
RTVSPost2010Prop56
140
1.0
102
RTVSPost2010PropOp56
 70
     1
102
RTVSPost2010Prop57
140
1.0
102
RTVSPost2010PropOp57
 70
     1
  0
XRECORD
  5
21C
102
{ACAD_REACTORS
330
21B
102
}
330
21B
100
AcDbXrecord
280
     1
102
RTVSPropertyOp0
 70
     1
102
RTVSPropertyOp1
 70
     1
102
RTVSPropertyOp2
 70
     1
102
RTVSPropertyOp3
 70
     1
102
RTVSPropertyOp4
 70
     1
102
RTVSPropertyOp5
 70
     1
102
RTVSPropertyOp6
 70
     1
102
RTVSPropertyOp7
 70
     1
102
RTVSPropertyOp8
 70
     1
102
RTVSPropertyOp9
 70
     1
102
RTVSPropertyOp10
 70
     1
102
RTVSPropertyOp11
 70
     1
102
RTVSPropertyOp12
 70
     1
102
RTVSPropertyOp13
 70
     1
102
RTVSPropertyOp14
 70
     1
102
RTVSPropertyOp15
 70
     1
102
RTVSPropertyOp16
 70
     1
102
RTVSPropertyOp17
 70
     1
102
RTVSPropertyOp18
 70
     1
102
RTVSPropertyOp19
 70
     1
102
RTVSPropertyOp20
 70
     1
102
RTVSPropertyOp21
 70
     1
102
RTVSPropertyOp22
 70
     1
102
RTVSPropertyOp23
 70
     1
102
RTVSPropertyOp24
 70
     1
102
RTVSPropertyOp25
 70
     1
102
RTVSPropertyOp26
 70
     1
102
RTVSPropertyOp27
 70
     1
102
RTVSPropertyOp28
 70
     1
102
RTVSPropertyOp29
 70
     1
102
RTVSPropertyOp30
 70
     1
102
RTVSPropertyOp31
 70
     1
102
RTVSPropertyOp32
 70
     1
102
RTVSPropertyOp33
 70
     1
102
RTVSPropertyOp34
 70
     1
102
RTVSPropertyOp35
 70
     1
102
RTVSPropertyOp36
 70
     1
102
RTVSPropertyOp37
 70
     1
102
RTVSPropertyOp38
 70
     1
102
RTVSPropertyOp39
 70
     1
102
RTVSPropertyOp40
 70
     1
102
RTVSPropertyOp41
 70
     1
102
RTVSPropertyOp42
 70
     1
102
RTVSPropertyOp43
 70
     1
102
RTVSPropertyOp44
 70
     1
102
RTVSPropertyOp45
 70
     1
102
RTVSPropertyOp46
 70
     1
102
RTVSPropertyOp47
 70
     1
102
RTVSPropertyOp48
 70
     1
102
RTVSPropertyOp49
 70
     1
102
RTVSPropertyOp50
 70
     1
102
RTVSPropertyOp51
 70
     0
102
RTVSPropertyOp52
 70
     0
102
RTVSPropertyOp53
 70
     1
102
RTVSPropertyOp54
 70
     1
102
RTVSPropertyOp55
 70
     1
102
RTVSPropertyOp56
 70
     1
102
RTVSPropertyOp57
 70
     1
102
RTVSPost2010Prop28
280
     0
102
RTVSPost2010PropOp28
 70
     1
102
RTVSPost2010Prop29
280
     1
102
RTVSPost2010PropOp29
 70
     1
102
RTVSPost2010Prop30
280
     1
102
RTVSPost2010PropOp30
 70
     1
102
RTVSPost2010Prop31
280
     0
102
RTVSPost2010PropOp31
 70
     1
102
RTVSPost2010Prop32
280
     0
102
RTVSPost2010PropOp32
 70
     1
102
RTVSPost2010Prop33
280
     0
102
RTVSPost2010PropOp33
 70
     1
102
RTVSPost2010Prop34
280
     0
102
RTVSPost2010PropOp34
 70
     1
102
RTVSPost2010Prop35
280
     0
102
RTVSPost2010PropOp35
 70
     1
102
RTVSPost2010Prop36
280
     0
102
RTVSPost2010PropOp36
 70
     1
102
RTVSPost2010Prop37
 90
       50
102
RTVSPost2010PropOp37
 70
     1
102
RTVSPost2010Prop38
140
0.0
102
RTVSPost2010PropOp38
 70
     1
102
RTVSPost2010Prop39
140
1.0
102
RTVSPost2010PropOp39
 70
     1
102
RTVSPost2010Prop40
 90
        0
102
RTVSPost2010PropOp40
 70
     1
102
RTVSPost2010Prop41ColorIndex
 90
       18
102
RTVSPost2010Prop41ColorRGB
 90
        0
102
RTVSPost2010PropOp41
 70
     1
102
RTVSPost2010Prop42
 90
       50
102
RTVSPost2010PropOp42
 70
     1
102
RTVSPost2010Prop43
 90
        3
102
RTVSPost2010PropOp43
 70
     1
102
RTVSPost2010Prop44ColorIndex
 90
        5
102
RTVSPost2010Prop44ColorRGB
 90
      255
102
RTVSPost2010PropOp44
 70
     1
102
RTVSPost2010Prop45
280
     0
102
RTVSPost2010PropOp45
 70
     1
102
RTVSPost2010Prop46
 90
       50
102
RTVSPost2010PropOp46
 70
     1
102
RTVSPost2010Prop47
 90
       50
102
RTVSPost2010PropOp47
 70
     1
102
RTVSPost2010Prop48
 90
       50
102
RTVSPost2010PropOp48
 70
     1
102
RTVSPost2010Prop49
280
     0
102
RTVSPost2010PropOp49
 70
     1
102
RTVSPost2010Prop50
 90
       50
102
RTVSPost2010PropOp50
 70
     1
102
RTVSPost2010Prop51ColorIndex
 90
      256
102
RTVSPost2010Prop51ColorRGB
 90
-16777216
102
RTVSPost2010PropOp51
 70
     0
102
RTVSPost2010Prop52
140
1.0
102
RTVSPost2010PropOp52
 70
     0
102
RTVSPost2010Prop53
 90
        2
102
RTVSPost2010PropOp53
 70
     1
102
RTVSPost2010Prop54
  1
strokes_ogs.tif
102
RTVSPost2010PropOp54
 70
     1
102
RTVSPost2010Prop55
280
     0
102
RTVSPost2010PropOp55
 70
     1
102
RTVSPost2010Prop56
140
1.0
102
RTVSPost2010PropOp56
 70
     1
102
RTVSPost2010Prop57
140
1.0
102
RTVSPost2010PropOp57
 70
     1
  0
XRECORD
  5
20E
102
{ACAD_REACTORS
330
20D
102
}
330
20D
100
AcDbXrecord
280
     1
102
RTVSPropertyOp0
 70
     1
102
RTVSPropertyOp1
 70
     1
102
RTVSPropertyOp2
 70
     1
102
RTVSPropertyOp3
 70
     1
102
RTVSPropertyOp4
 70
     1
102
RTVSPropertyOp5
 70
     1
102
RTVSPropertyOp6
 70
     1
102
RTVSPropertyOp7
 70
     1
102
RTVSPropertyOp8
 70
     1
102
RTVSPropertyOp9
 70
     1
102
RTVSPropertyOp10
 70
     1
102
RTVSPropertyOp11
 70
     1
102
RTVSPropertyOp12
 70
     1
102
RTVSPropertyOp13
 70
     1
102
RTVSPropertyOp14
 70
     1
102
RTVSPropertyOp15
 70
     1
102
RTVSPropertyOp16
 70
     1
102
RTVSPropertyOp17
 70
     1
102
RTVSPropertyOp18
 70
     1
102
RTVSPropertyOp19
 70
     1
102
RTVSPropertyOp20
 70
     1
102
RTVSPropertyOp21
 70
     1
102
RTVSPropertyOp22
 70
     1
102
RTVSPropertyOp23
 70
     1
102
RTVSPropertyOp24
 70
     1
102
RTVSPropertyOp25
 70
     1
102
RTVSPropertyOp26
 70
     1
102
RTVSPropertyOp27
 70
     1
102
RTVSPropertyOp28
 70
     1
102
RTVSPropertyOp29
 70
     1
102
RTVSPropertyOp30
 70
     1
102
RTVSPropertyOp31
 70
     1
102
RTVSPropertyOp32
 70
     1
102
RTVSPropertyOp33
 70
     1
102
RTVSPropertyOp34
 70
     1
102
RTVSPropertyOp35
 70
     1
102
RTVSPropertyOp36
 70
     1
102
RTVSPropertyOp37
 70
     1
102
RTVSPropertyOp38
 70
     1
102
RTVSPropertyOp39
 70
     1
102
RTVSPropertyOp40
 70
     1
102
RTVSPropertyOp41
 70
     1
102
RTVSPropertyOp42
 70
     1
102
RTVSPropertyOp43
 70
     1
102
RTVSPropertyOp44
 70
     1
102
RTVSPropertyOp45
 70
     1
102
RTVSPropertyOp46
 70
     1
102
RTVSPropertyOp47
 70
     1
102
RTVSPropertyOp48
 70
     1
102
RTVSPropertyOp49
 70
     1
102
RTVSPropertyOp50
 70
     1
102
RTVSPropertyOp51
 70
     0
102
RTVSPropertyOp52
 70
     0
102
RTVSPropertyOp53
 70
     1
102
RTVSPropertyOp54
 70
     1
102
RTVSPropertyOp55
 70
     1
102
RTVSPropertyOp56
 70
     1
102
RTVSPropertyOp57
 70
     1
102
RTVSPost2010Prop28
280
     0
102
RTVSPost2010PropOp28
 70
     1
102
RTVSPost2010Prop29
280
     1
102
RTVSPost2010PropOp29
 70
     1
102
RTVSPost2010Prop30
280
     1
102
RTVSPost2010PropOp30
 70
     1
102
RTVSPost2010Prop31
280
     0
102
RTVSPost2010PropOp31
 70
     1
102
RTVSPost2010Prop32
280
     0
102
RTVSPost2010PropOp32
 70
     1
102
RTVSPost2010Prop33
280
     0
102
RTVSPost2010PropOp33
 70
     1
102
RTVSPost2010Prop34
280
     0
102
RTVSPost2010PropOp34
 70
     1
102
RTVSPost2010Prop35
280
     0
102
RTVSPost2010PropOp35
 70
     1
102
RTVSPost2010Prop36
280
     0
102
RTVSPost2010PropOp36
 70
     1
102
RTVSPost2010Prop37
 90
       50
102
RTVSPost2010PropOp37
 70
     1
102
RTVSPost2010Prop38
140
0.0
102
RTVSPost2010PropOp38
 70
     1
102
RTVSPost2010Prop39
140
1.0
102
RTVSPost2010PropOp39
 70
     1
102
RTVSPost2010Prop40
 90
        0
102
RTVSPost2010PropOp40
 70
     1
102
RTVSPost2010Prop41ColorIndex
 90
       18
102
RTVSPost2010Prop41ColorRGB
 90
        0
102
RTVSPost2010PropOp41
 70
     1
102
RTVSPost2010Prop42
 90
       50
102
RTVSPost2010PropOp42
 70
     1
102
RTVSPost2010Prop43
 90
        3
102
RTVSPost2010PropOp43
 70
     1
102
RTVSPost2010Prop44ColorIndex
 90
        5
102
RTVSPost2010Prop44ColorRGB
 90
      255
102
RTVSPost2010PropOp44
 70
     1
102
RTVSPost2010Prop45
280
     0
102
RTVSPost2010PropOp45
 70
     1
102
RTVSPost2010Prop46
 90
       50
102
RTVSPost2010PropOp46
 70
     1
102
RTVSPost2010Prop47
 90
       50
102
RTVSPost2010PropOp47
 70
     1
102
RTVSPost2010Prop48
 90
       50
102
RTVSPost2010PropOp48
 70
     1
102
RTVSPost2010Prop49
280
     0
102
RTVSPost2010PropOp49
 70
     1
102
RTVSPost2010Prop50
 90
       50
102
RTVSPost2010PropOp50
 70
     1
102
RTVSPost2010Prop51ColorIndex
 90
      256
102
RTVSPost2010Prop51ColorRGB
 90
-16777216
102
RTVSPost2010PropOp51
 70
     0
102
RTVSPost2010Prop52
140
1.0
102
RTVSPost2010PropOp52
 70
     0
102
RTVSPost2010Prop53
 90
        2
102
RTVSPost2010PropOp53
 70
     1
102
RTVSPost2010Prop54
  1
strokes_ogs.tif
102
RTVSPost2010PropOp54
 70
     1
102
RTVSPost2010Prop55
280
     0
102
RTVSPost2010PropOp55
 70
     1
102
RTVSPost2010Prop56
140
1.0
102
RTVSPost2010PropOp56
 70
     1
102
RTVSPost2010Prop57
140
1.0
102
RTVSPost2010PropOp57
 70
     1
  0
XRECORD
  5
22E
102
{ACAD_REACTORS
330
22D
102
}
330
22D
100
AcDbXrecord
280
     1
102
RTVSPropertyOp0
 70
     1
102
RTVSPropertyOp1
 70
     1
102
RTVSPropertyOp2
 70
     1
102
RTVSPropertyOp3
 70
     1
102
RTVSPropertyOp4
 70
     1
102
RTVSPropertyOp5
 70
     1
102
RTVSPropertyOp6
 70
     1
102
RTVSPropertyOp7
 70
     1
102
RTVSPropertyOp8
 70
     1
102
RTVSPropertyOp9
 70
     1
102
RTVSPropertyOp10
 70
     1
102
RTVSPropertyOp11
 70
     1
102
RTVSPropertyOp12
 70
     1
102
RTVSPropertyOp13
 70
     1
102
RTVSPropertyOp14
 70
     1
102
RTVSPropertyOp15
 70
     1
102
RTVSPropertyOp16
 70
     1
102
RTVSPropertyOp17
 70
     1
102
RTVSPropertyOp18
 70
     1
102
RTVSPropertyOp19
 70
     1
102
RTVSPropertyOp20
 70
     1
102
RTVSPropertyOp21
 70
     1
102
RTVSPropertyOp22
 70
     1
102
RTVSPropertyOp23
 70
     1
102
RTVSPropertyOp24
 70
     1
102
RTVSPropertyOp25
 70
     1
102
RTVSPropertyOp26
 70
     1
102
RTVSPropertyOp27
 70
     1
102
RTVSPropertyOp28
 70
     1
102
RTVSPropertyOp29
 70
     1
102
RTVSPropertyOp30
 70
     1
102
RTVSPropertyOp31
 70
     1
102
RTVSPropertyOp32
 70
     1
102
RTVSPropertyOp33
 70
     1
102
RTVSPropertyOp34
 70
     1
102
RTVSPropertyOp35
 70
     1
102
RTVSPropertyOp36
 70
     1
102
RTVSPropertyOp37
 70
     1
102
RTVSPropertyOp38
 70
     1
102
RTVSPropertyOp39
 70
     1
102
RTVSPropertyOp40
 70
     1
102
RTVSPropertyOp41
 70
     1
102
RTVSPropertyOp42
 70
     1
102
RTVSPropertyOp43
 70
     1
102
RTVSPropertyOp44
 70
     1
102
RTVSPropertyOp45
 70
     1
102
RTVSPropertyOp46
 70
     1
102
RTVSPropertyOp47
 70
     1
102
RTVSPropertyOp48
 70
     1
102
RTVSPropertyOp49
 70
     1
102
RTVSPropertyOp50
 70
     1
102
RTVSPropertyOp51
 70
     0
102
RTVSPropertyOp52
 70
     0
102
RTVSPropertyOp53
 70
     1
102
RTVSPropertyOp54
 70
     1
102
RTVSPropertyOp55
 70
     1
102
RTVSPropertyOp56
 70
     1
102
RTVSPropertyOp57
 70
     1
102
RTVSPost2010Prop28
280
     0
102
RTVSPost2010PropOp28
 70
     1
102
RTVSPost2010Prop29
280
     1
102
RTVSPost2010PropOp29
 70
     1
102
RTVSPost2010Prop30
280
     1
102
RTVSPost2010PropOp30
 70
     1
102
RTVSPost2010Prop31
280
     0
102
RTVSPost2010PropOp31
 70
     1
102
RTVSPost2010Prop32
280
     0
102
RTVSPost2010PropOp32
 70
     1
102
RTVSPost2010Prop33
280
     0
102
RTVSPost2010PropOp33
 70
     1
102
RTVSPost2010Prop34
280
     0
102
RTVSPost2010PropOp34
 70
     1
102
RTVSPost2010Prop35
280
     0
102
RTVSPost2010PropOp35
 70
     1
102
RTVSPost2010Prop36
280
     0
102
RTVSPost2010PropOp36
 70
     1
102
RTVSPost2010Prop37
 90
       50
102
RTVSPost2010PropOp37
 70
     1
102
RTVSPost2010Prop38
140
0.0
102
RTVSPost2010PropOp38
 70
     1
102
RTVSPost2010Prop39
140
1.0
102
RTVSPost2010PropOp39
 70
     1
102
RTVSPost2010Prop40
 90
        0
102
RTVSPost2010PropOp40
 70
     1
102
RTVSPost2010Prop41ColorIndex
 90
       18
102
RTVSPost2010Prop41ColorRGB
 90
        0
102
RTVSPost2010PropOp41
 70
     1
102
RTVSPost2010Prop42
 90
       50
102
RTVSPost2010PropOp42
 70
     1
102
RTVSPost2010Prop43
 90
        3
102
RTVSPost2010PropOp43
 70
     1
102
RTVSPost2010Prop44ColorIndex
 90
        5
102
RTVSPost2010Prop44ColorRGB
 90
      255
102
RTVSPost2010PropOp44
 70
     1
102
RTVSPost2010Prop45
280
     0
102
RTVSPost2010PropOp45
 70
     1
102
RTVSPost2010Prop46
 90
       50
102
RTVSPost2010PropOp46
 70
     1
102
RTVSPost2010Prop47
 90
       50
102
RTVSPost2010PropOp47
 70
     1
102
RTVSPost2010Prop48
 90
       50
102
RTVSPost2010PropOp48
 70
     1
102
RTVSPost2010Prop49
280
     0
102
RTVSPost2010PropOp49
 70
     1
102
RTVSPost2010Prop50
 90
       50
102
RTVSPost2010PropOp50
 70
     1
102
RTVSPost2010Prop51ColorIndex
 90
      256
102
RTVSPost2010Prop51ColorRGB
 90
-16777216
102
RTVSPost2010PropOp51
 70
     0
102
RTVSPost2010Prop52
140
1.0
102
RTVSPost2010PropOp52
 70
     0
102
RTVSPost2010Prop53
 90
        2
102
RTVSPost2010PropOp53
 70
     1
102
RTVSPost2010Prop54
  1
strokes_ogs.tif
102
RTVSPost2010PropOp54
 70
     1
102
RTVSPost2010Prop55
280
     0
102
RTVSPost2010PropOp55
 70
     1
102
RTVSPost2010Prop56
140
1.0
102
RTVSPost2010PropOp56
 70
     1
102
RTVSPost2010Prop57
140
1.0
102
RTVSPost2010PropOp57
 70
     1
  0
ENDSEC
  0
EOF
