  0
SECTION
  2
HEADER
  9
$ACADVER
  1
AC1015
  9
$ACADMAINTVER
 70
     6
  9
$DWGCODEPAGE
  3
ANSI_1252
  9
$INSBASE
 10
0.0
 20
0.0
 30
0.0
  9
$EXTMIN
 10
-124.37162
 20
-276.302734
 30
0.0
  9
$EXTMAX
 10
595.451599
 20
434.828217
 30
0.0
  9
$LIMMIN
 10
-124.37162
 20
-276.302734
  9
$LIMMAX
 10
595.451599
 20
434.828217
  9
$ORTHOMODE
 70
     0
  9
$REGENMODE
 70
     1
  9
$FILLMODE
 70
     1
  9
$QTEXTMODE
 70
     0
  9
$MIRRTEXT
 70
     1
  9
$LTSCALE
 40
1.0
  9
$ATTMODE
 70
     1
  9
$TEXTSIZE
 40
2.5
  9
$TRACEWID
 40
1.0
  9
$TEXTSTYLE
  7
Standard
  9
$CLAYER
  8
0
  9
$CELTYPE
  6
ByLayer
  9
$CECOLOR
 62
   256
  9
$CELTSCALE
 40
1.0
  9
$DISPSILH
 70
     0
  9
$DIMSCALE
 40
1.0
  9
$DIMASZ
 40
2.5
  9
$DIMEXO
 40
0.625
  9
$DIMDLI
 40
3.75
  9
$DIMRND
 40
0.0
  9
$DIMDLE
 40
0.0
  9
$DIMEXE
 40
1.25
  9
$DIMTP
 40
0.0
  9
$DIMTM
 40
0.0
  9
$DIMTXT
 40
2.5
  9
$DIMCEN
 40
2.5
  9
$DIMTSZ
 40
0.0
  9
$DIMTOL
 70
     0
  9
$DIMLIM
 70
     0
  9
$DIMTIH
 70
     0
  9
$DIMTOH
 70
     0
  9
$DIMSE1
 70
     0
  9
$DIMSE2
 70
     0
  9
$DIMTAD
 70
     1
  9
$DIMZIN
 70
     8
  9
$DIMBLK
  1

  9
$DIMASO
 70
     1
  9
$DIMSHO
 70
     1
  9
$DIMPOST
  1

  9
$DIMAPOST
  1

  9
$DIMALT
 70
     0
  9
$DIMALTD
 70
     3
  9
$DIMALTF
 40
0.03937
  9
$DIMLFAC
 40
1.0
  9
$DIMTOFL
 70
     1
  9
$DIMTVP
 40
0.0
  9
$DIMTIX
 70
     0
  9
$DIMSOXD
 70
     0
  9
$DIMSAH
 70
     0
  9
$DIMBLK1
  1

  9
$DIMBLK2
  1

  9
$DIMSTYLE
  2
ISO-25
  9
$DIMCLRD
 70
     0
  9
$DIMCLRE
 70
     0
  9
$DIMCLRT
 70
     0
  9
$DIMTFAC
 40
1.0
  9
$DIMGAP
 40
0.625
  9
$DIMJUST
 70
     0
  9
$DIMSD1
 70
     0
  9
$DIMSD2
 70
     0
  9
$DIMTOLJ
 70
     0
  9
$DIMTZIN
 70
     8
  9
$DIMALTZ
 70
     0
  9
$DIMALTTZ
 70
     0
  9
$DIMUPT
 70
     0
  9
$DIMDEC
 70
     2
  9
$DIMTDEC
 70
     2
  9
$DIMALTU
 70
     2
  9
$DIMALTTD
 70
     3
  9
$DIMTXSTY
  7
Standard
  9
$DIMAUNIT
 70
     0
  9
$DIMADEC
 70
     0
  9
$DIMALTRND
 40
0.0
  9
$DIMAZIN
 70
     0
  9
$DIMDSEP
 70
    44
  9
$DIMATFIT
 70
     3
  9
$DIMFRAC
 70
     0
  9
$DIMLDRBLK
  1

  9
$DIMLUNIT
 70
     2
  9
$DIMLWD
 70
    -2
  9
$DIMLWE
 70
    -2
  9
$DIMTMOVE
 70
     0
  9
$LUNITS
 70
     2
  9
$LUPREC
 70
     4
  9
$SKETCHINC
 40
1.0
  9
$FILLETRAD
 40
10.0
  9
$AUNITS
 70
     0
  9
$AUPREC
 70
     0
  9
$MENU
  1
.
  9
$ELEVATION
 40
0.0
  9
$PELEVATION
 40
0.0
  9
$THICKNESS
 40
0.0
  9
$LIMCHECK
 70
     0
  9
$CHAMFERA
 40
0.0
  9
$CHAMFERB
 40
0.0
  9
$CHAMFERC
 40
0.0
  9
$CHAMFERD
 40
0.0
  9
$SKPOLY
 70
     0
  9
$TDCREATE
 40
2459107.397201562
  9
$TDUCREATE
 40
2459107.313868229
  9
$TDUPDATE
 40
2459107.397202292
  9
$TDUUPDATE
 40
2459107.313868959
  9
$TDINDWG
 40
0.0000000116
  9
$TDUSRTIMER
 40
0.0000000116
  9
$USRTIMER
 70
     1
  9
$ANGBASE
 50
0.0
  9
$ANGDIR
 70
     0
  9
$PDMODE
 70
     0
  9
$PDSIZE
 40
0.0
  9
$PLINEWID
 40
0.0
  9
$SPLFRAME
 70
     0
  9
$SPLINETYPE
 70
     6
  9
$SPLINESEGS
 70
     8
  9
$HANDSEED
  5
24E
  9
$SURFTAB1
 70
     6
  9
$SURFTAB2
 70
     6
  9
$SURFTYPE
 70
     6
  9
$SURFU
 70
     6
  9
$SURFV
 70
     6
  9
$UCSBASE
  2

  9
$UCSNAME
  2

  9
$UCSORG
 10
0.0
 20
0.0
 30
0.0
  9
$UCSXDIR
 10
1.0
 20
0.0
 30
0.0
  9
$UCSYDIR
 10
0.0
 20
1.0
 30
0.0
  9
$UCSORTHOREF
  2

  9
$UCSORTHOVIEW
 70
     0
  9
$UCSORGTOP
 10
0.0
 20
0.0
 30
0.0
  9
$UCSORGBOTTOM
 10
0.0
 20
0.0
 30
0.0
  9
$UCSORGLEFT
 10
0.0
 20
0.0
 30
0.0
  9
$UCSORGRIGHT
 10
0.0
 20
0.0
 30
0.0
  9
$UCSORGFRONT
 10
0.0
 20
0.0
 30
0.0
  9
$UCSORGBACK
 10
0.0
 20
0.0
 30
0.0
  9
$PUCSBASE
  2

  9
$PUCSNAME
  2

  9
$PUCSORG
 10
0.0
 20
0.0
 30
0.0
  9
$PUCSXDIR
 10
1.0
 20
0.0
 30
0.0
  9
$PUCSYDIR
 10
0.0
 20
1.0
 30
0.0
  9
$PUCSORTHOREF
  2

  9
$PUCSORTHOVIEW
 70
     0
  9
$PUCSORGTOP
 10
0.0
 20
0.0
 30
0.0
  9
$PUCSORGBOTTOM
 10
0.0
 20
0.0
 30
0.0
  9
$PUCSORGLEFT
 10
0.0
 20
0.0
 30
0.0
  9
$PUCSORGRIGHT
 10
0.0
 20
0.0
 30
0.0
  9
$PUCSORGFRONT
 10
0.0
 20
0.0
 30
0.0
  9
$PUCSORGBACK
 10
0.0
 20
0.0
 30
0.0
  9
$USERI1
 70
     0
  9
$USERI2
 70
     0
  9
$USERI3
 70
     0
  9
$USERI4
 70
     0
  9
$USERI5
 70
     0
  9
$USERR1
 40
0.0
  9
$USERR2
 40
0.0
  9
$USERR3
 40
0.0
  9
$USERR4
 40
0.0
  9
$USERR5
 40
0.0
  9
$WORLDVIEW
 70
     1
  9
$SHADEDGE
 70
     3
  9
$SHADEDIF
 70
    70
  9
$TILEMODE
 70
     1
  9
$MAXACTVP
 70
    64
  9
$PINSBASE
 10
0.0
 20
0.0
 30
0.0
  9
$PLIMCHECK
 70
     0
  9
$PEXTMIN
 10
1.000000E+20
 20
1.000000E+20
 30
1.000000E+20
  9
$PEXTMAX
 10
-1.000000E+20
 20
-1.000000E+20
 30
-1.000000E+20
  9
$PLIMMIN
 10
0.0
 20
0.0
  9
$PLIMMAX
 10
420.0
 20
297.0
  9
$UNITMODE
 70
     0
  9
$VISRETAIN
 70
     1
  9
$PLINEGEN
 70
     0
  9
$PSLTSCALE
 70
     1
  9
$TREEDEPTH
 70
  3020
  9
$CMLSTYLE
  2
Standard
  9
$CMLJUST
 70
     0
  9
$CMLSCALE
 40
20.0
  9
$PROXYGRAPHICS
 70
     1
  9
$MEASUREMENT
 70
     1
  9
$CELWEIGHT
370
    -1
  9
$ENDCAPS
280
     0
  9
$JOINSTYLE
280
     0
  9
$LWDISPLAY
290
     0
  9
$INSUNITS
 70
     4
  9
$HYPERLINKBASE
  1

  9
$STYLESHEET
  1

  9
$XEDIT
290
     1
  9
$CEPSNTYPE
380
     0
  9
$PSTYLEMODE
290
     1
  9
$FINGERPRINTGUID
  2
{e2c21ff6-d8d3-449a-8b2e-70b2f95079bc}
  9
$VERSIONGUID
  2
{FAEB1C32-E019-11D5-929B-00C0DF256EC4}
  9
$EXTNAMES
290
     1
  9
$PSVPSCALE
 40
0.0
  9
$OLESTARTUP
290
     0
  0
ENDSEC
  0
SECTION
  2
CLASSES
  0
CLASS
  1
ACDBDICTIONARYWDFLT
  2
AcDbDictionaryWithDefault
  3
ObjectDBX Classes
 90
        0
280
     0
281
     0
  0
CLASS
  1
VISUALSTYLE
  2
AcDbVisualStyle
  3
ObjectDBX Classes
 90
     4095
280
     0
281
     0
  0
CLASS
  1
MATERIAL
  2
AcDbMaterial
  3
ObjectDBX Classes
 90
     1153
280
     0
281
     0
  0
CLASS
  1
SCALE
  2
AcDbScale
  3
ObjectDBX Classes
 90
     1153
280
     0
281
     0
  0
CLASS
  1
TABLESTYLE
  2
AcDbTableStyle
  3
ObjectDBX Classes
 90
     4095
280
     0
281
     0
  0
CLASS
  1
MLEADERSTYLE
  2
AcDbMLeaderStyle
  3
ACDB_MLEADERSTYLE_CLASS
 90
     4095
280
     0
281
     0
  0
CLASS
  1
SUN
  2
AcDbSun
  3
SCENEOE
 90
     1153
280
     0
281
     0
  0
CLASS
  1
DICTIONARYVAR
  2
AcDbDictionaryVar
  3
ObjectDBX Classes
 90
        0
280
     0
281
     0
  0
CLASS
  1
ACDBPLACEHOLDER
  2
AcDbPlaceHolder
  3
ObjectDBX Classes
 90
        0
280
     0
281
     0
  0
CLASS
  1
LAYOUT
  2
AcDbLayout
  3
ObjectDBX Classes
 90
        0
280
     0
281
     0
  0
ENDSEC
  0
SECTION
  2
TABLES
  0
TABLE
  2
VPORT
  5
8
102
{ACAD_XDICTIONARY
360
211
102
}
330
0
100
AcDbSymbolTable
 70
     1
  0
VPORT
  5
29
330
8
100
AcDbSymbolTableRecord
100
AcDbViewportTableRecord
  2
*Active
 70
     0
 10
0.0
 20
0.0
 11
1.0
 21
1.0
 12
344.186916
 22
148.5
 13
0.0
 23
0.0
 14
10.0
 24
10.0
 15
10.0
 25
10.0
 16
0.0
 26
0.0
 36
1.0
 17
0.0
 27
0.0
 37
0.0
 40
297.0
 41
1.972973
 42
50.0
 43
0.0
 44
0.0
 50
0.0
 51
0.0
 71
     0
 72
   100
 73
     1
 74
     3
 75
     0
 76
     0
 77
     0
 78
     0
281
     0
 65
     1
110
0.0
120
0.0
130
0.0
111
1.0
121
0.0
131
0.0
112
0.0
122
1.0
132
0.0
 79
     0
146
0.0
  0
ENDTAB
  0
TABLE
  2
LTYPE
  5
5
330
0
100
AcDbSymbolTable
 70
     1
  0
LTYPE
  5
14
330
5
100
AcDbSymbolTableRecord
100
AcDbLinetypeTableRecord
  2
ByBlock
 70
     0
  3

 72
    65
 73
     0
 40
0.0
  0
LTYPE
  5
15
330
5
100
AcDbSymbolTableRecord
100
AcDbLinetypeTableRecord
  2
ByLayer
 70
     0
  3

 72
    65
 73
     0
 40
0.0
  0
LTYPE
  5
16
330
5
100
AcDbSymbolTableRecord
100
AcDbLinetypeTableRecord
  2
Continuous
 70
     0
  3
Solid line
 72
    65
 73
     0
 40
0.0
  0
ENDTAB
  0
TABLE
  2
LAYER
  5
2
330
0
100
AcDbSymbolTable
 70
     1
  0
LAYER
  5
10
330
2
100
AcDbSymbolTableRecord
100
AcDbLayerTableRecord
  2
0
 70
     0
 62
   106
  6
Continuous
370
     0
390
F
  0
ENDTAB
  0
TABLE
  2
STYLE
  5
3
330
0
100
AcDbSymbolTable
 70
     4
  0
STYLE
  5
11
330
3
100
AcDbSymbolTableRecord
100
AcDbTextStyleTableRecord
  2
Standard
 70
     0
 40
0.0
 41
1.0
 50
0.0
 71
     0
 42
2.5
  3
txt
  4

  0
STYLE
  5
6E
330
3
100
AcDbSymbolTableRecord
100
AcDbTextStyleTableRecord
  2
Default
 70
     0
 40
0.0
 41
1.0
 50
0.0
 71
     0
 42
2.5
  3

  4

1001
ACAD
1000
txt
1071
        0
  0
STYLE
  5
6F
330
3
100
AcDbSymbolTableRecord
100
AcDbTextStyleTableRecord
  2
ISO
 70
     0
 40
0.0
 41
1.0
 50
0.0
 71
     0
 42
2.5
  3

  4

1001
ACAD
1000
txt
1071
        0
  0
STYLE
  5
70
330
3
100
AcDbSymbolTableRecord
100
AcDbTextStyleTableRecord
  2
zucchetti
 70
     0
 40
0.0
 41
1.0
 50
0.0
 71
     0
 42
2.5
  3

  4

1001
ACAD
1000
Arial
1071
        0
  0
ENDTAB
  0
TABLE
  2
VIEW
  5
6
330
0
100
AcDbSymbolTable
 70
     0
  0
ENDTAB
  0
TABLE
  2
UCS
  5
7
330
0
100
AcDbSymbolTable
 70
     0
  0
ENDTAB
  0
TABLE
  2
APPID
  5
9
330
0
100
AcDbSymbolTable
 70
     2
  0
APPID
  5
12
330
9
100
AcDbSymbolTableRecord
100
AcDbRegAppTableRecord
  2
ACAD
 70
     0
  0
APPID
  5
24B
330
9
100
AcDbSymbolTableRecord
100
AcDbRegAppTableRecord
  2
ACAD_MLEADERVER
 70
     0
  0
ENDTAB
  0
TABLE
  2
DIMSTYLE
  5
A
330
0
100
AcDbSymbolTable
 70
     4
100
AcDbDimStyleTable
  0
DIMSTYLE
105
27
330
A
100
AcDbSymbolTableRecord
100
AcDbDimStyleTableRecord
  2
ISO-25
 70
     0
 41
2.5
 42
0.625
 43
3.75
 44
1.25
 73
     0
 74
     0
 77
     1
 78
     8
140
2.5
141
2.5
143
0.03937
147
0.625
171
     3
172
     1
178
     0
271
     2
272
     2
274
     3
278
    44
283
     0
284
     8
340
11
  0
DIMSTYLE
105
71
330
A
100
AcDbSymbolTableRecord
100
AcDbDimStyleTableRecord
  2
Default
 70
     0
  3
<>
 41
4.375
 42
1.05
 44
2.1
 73
     0
 74
     0
 77
     1
 78
     8
140
3.5
146
0.4
147
1.75
172
     1
271
     2
178
     3
271
     2
272
     3
284
     8
340
6E
341
72
342
72
  0
DIMSTYLE
105
79
330
A
100
AcDbSymbolTableRecord
100
AcDbDimStyleTableRecord
  2
ISO
 70
     0
  3
<>
 41
4.375
 42
1.05
 44
2.1
 73
     0
 74
     0
 77
     1
 78
     8
140
3.5
146
0.4
147
1.75
172
     1
271
     2
178
     3
271
     2
272
     3
284
     8
340
6F
341
72
342
72
  0
DIMSTYLE
105
7A
330
A
100
AcDbSymbolTableRecord
100
AcDbDimStyleTableRecord
  2
zucchetti
 70
     0
  3
<>
 41
3.0
 42
0.9
 44
1.8
 73
     0
 74
     0
 77
     1
 78
     8
140
3.0
146
0.6
147
1.5
172
     1
176
     3
177
     3
271
     2
178
     3
271
     2
272
     2
284
     8
340
70
  0
ENDTAB
  0
TABLE
  2
BLOCK_RECORD
  5
1
330
0
100
AcDbSymbolTable
 70
     8
  0
BLOCK_RECORD
  5
1F
330
1
100
AcDbSymbolTableRecord
100
AcDbBlockTableRecord
  2
*Model_Space
340
22
  0
BLOCK_RECORD
  5
1B
330
1
100
AcDbSymbolTableRecord
100
AcDbBlockTableRecord
  2
*Paper_Space
340
1E
  0
BLOCK_RECORD
  5
23
330
1
100
AcDbSymbolTableRecord
100
AcDbBlockTableRecord
  2
*Paper_Space0
340
26
  0
BLOCK_RECORD
  5
72
330
1
100
AcDbSymbolTableRecord
100
AcDbBlockTableRecord
  2
_Closed
340
0
  0
BLOCK_RECORD
  5
7B
330
1
100
AcDbSymbolTableRecord
100
AcDbBlockTableRecord
  2
a
340
0
102
{BLKREFS
331
9E
102
}
  0
BLOCK_RECORD
  5
9F
330
1
100
AcDbSymbolTableRecord
100
AcDbBlockTableRecord
  2
b
340
0
102
{BLKREFS
331
D7
102
}
  0
BLOCK_RECORD
  5
D8
330
1
100
AcDbSymbolTableRecord
100
AcDbBlockTableRecord
  2
c
340
0
102
{BLKREFS
331
11D
102
}
  0
BLOCK_RECORD
  5
11E
330
1
100
AcDbSymbolTableRecord
100
AcDbBlockTableRecord
  2
d
340
0
102
{BLKREFS
331
165
102
}
  0
BLOCK_RECORD
  5
166
330
1
100
AcDbSymbolTableRecord
100
AcDbBlockTableRecord
  2
e
340
0
102
{BLKREFS
331
1B1
102
}
  0
BLOCK_RECORD
  5
1B2
330
1
100
AcDbSymbolTableRecord
100
AcDbBlockTableRecord
  2
f
340
0
102
{BLKREFS
331
205
102
}
  0
ENDTAB
  0
ENDSEC
  0
SECTION
  2
BLOCKS
  0
BLOCK
  5
20
330
1F
100
AcDbEntity
  8
0
100
AcDbBlockBegin
  2
*Model_Space
 70
     0
 10
0.0
 20
0.0
 30
0.0
  3
*Model_Space
  1

  0
ENDBLK
  5
21
330
1F
100
AcDbEntity
  8
0
100
AcDbBlockEnd
  0
BLOCK
  5
1C
330
1B
100
AcDbEntity
 67
     1
  8
0
100
AcDbBlockBegin
  2
*Paper_Space
 70
     0
 10
0.0
 20
0.0
 30
0.0
  3
*Paper_Space
  1

  0
ENDBLK
  5
1D
330
1B
100
AcDbEntity
 67
     1
  8
0
100
AcDbBlockEnd
  0
BLOCK
  5
24
330
23
100
AcDbEntity
  8
0
100
AcDbBlockBegin
  2
*Paper_Space0
 70
     0
 10
0.0
 20
0.0
 30
0.0
  3
*Paper_Space0
  1

  0
ENDBLK
  5
25
330
23
100
AcDbEntity
  8
0
100
AcDbBlockEnd
  0
BLOCK
  5
73
330
72
100
AcDbEntity
  8
0
100
AcDbBlockBegin
  2
_Closed
 70
     0
 10
0.0
 20
0.0
 30
0.0
  3
_Closed
  1

  0
LINE
  5
75
330
72
100
AcDbEntity
  8
0
  6
ByBlock
 62
     0
370
    -2
100
AcDbLine
 10
-1.0
 20
0.166667
 30
0.0
 11
0.0
 21
0.0
 31
0.0
  0
LINE
  5
76
330
72
100
AcDbEntity
  8
0
  6
ByBlock
 62
     0
370
    -2
100
AcDbLine
 10
0.0
 20
0.0
 30
0.0
 11
-1.0
 21
-0.166667
 31
0.0
  0
LINE
  5
77
330
72
100
AcDbEntity
  8
0
  6
ByBlock
 62
     0
370
    -2
100
AcDbLine
 10
-1.0
 20
0.166667
 30
0.0
 11
-1.0
 21
-0.166667
 31
0.0
  0
LINE
  5
78
330
72
100
AcDbEntity
  8
0
  6
ByBlock
 62
     0
370
    -2
100
AcDbLine
 10
0.0
 20
0.0
 30
0.0
 11
-1.0
 21
0.0
 31
0.0
  0
ENDBLK
  5
74
330
72
100
AcDbEntity
  8
0
100
AcDbBlockEnd
  0
BLOCK
  5
9C
330
7B
100
AcDbEntity
  8
0
100
AcDbBlockBegin
  2
a
 70
     0
 10
53.617249
 20
37.751434
 30
0.0
  3
a
  1

  0
ARC
  5
7C
330
7B
100
AcDbEntity
  8
0
  6
Continuous
 62
     0
370
     0
100
AcDbCircle
 10
127.374336
 20
99.211598
 30
0.0
 40
14.12735913525288
100
AcDbArc
 50
46.39465
 51
56.636962
  0
ARC
  5
7D
330
7B
100
AcDbEntity
  8
0
  6
Continuous
 62
     0
370
     0
100
AcDbCircle
 10
167.06583
 20
99.213336
 30
0.0
 40
14.12445266775402
100
AcDbArc
 50
123.361106
 51
133.603788
  0
SPLINE
  5
7E
330
7B
100
AcDbEntity
  8
0
  6
Continuous
 62
     0
370
     0
100
AcDbSpline
210
0.0
220
0.0
230
1.0
 70
     8
 71
     3
 72
    19
 73
    15
 74
     0
 42
0.000000001
 43
0.0
 40
0.0
 40
0.0
 40
0.0
 40
0.0
 40
1.201308529367107
 40
2.402747184967449
 40
3.604261195023195
 40
4.20520648542558
 40
4.806233988361022
 40
5.408078512926807
 40
6.01105082724652
 40
6.31496465085846
 40
6.619995787069243
 40
7.230942810196423
 40
7.844482882266558
 40
8.460019288708956
 40
8.460019288708956
 40
8.460019288708956
 40
8.460019288708956
 10
144.1422922236433
 20
51.78355499650064
 30
0.0
 10
144.1511043346789
 20
51.38321607742954
 30
0.0
 10
144.180334104619
 20
50.58269390947649
 30
0.0
 10
144.2571861299053
 20
49.38366888714779
 30
0.0
 10
144.3412245438394
 20
48.38575177148169
 30
0.0
 10
144.4391055715163
 20
47.59032658562268
 30
0.0
 10
144.5563614778386
 20
46.99976229697967
 30
0.0
 10
144.742050365487
 20
46.42508773722176
 30
0.0
 10
144.9998297212712
 20
45.98475499108986
 30
0.0
 10
145.2822638693168
 20
45.69445404431076
 30
0.0
 10
145.5896933972259
 20
45.42823671203334
 30
0.0
 10
146.0214670850102
 20
45.14938270253808
 30
0.0
 10
146.6048801990108
 20
44.94313470961455
 30
0.0
 10
147.0161875204026
 20
44.89827538898933
 30
0.0
 10
147.2213663153797
 20
44.89827969199547
 30
0.0
  0
SPLINE
  5
7F
330
7B
100
AcDbEntity
  8
0
  6
Continuous
 62
     0
370
     0
100
AcDbSpline
210
0.0
220
0.0
230
1.0
 70
     8
 71
     3
 72
    19
 73
    15
 74
     0
 42
0.000000001
 43
0.0
 40
0.0
 40
0.0
 40
0.0
 40
0.0
 40
0.6155212461680514
 40
1.229045235639201
 40
1.839976234965928
 40
2.144999002640032
 40
2.448904921406438
 40
3.0518626949222
 40
3.653692696932374
 40
4.254705690234839
 40
4.855636365808048
 40
6.057120988631596
 40
7.258530204541062
 40
8.459809248800736
 40
8.459809248800736
 40
8.459809248800736
 40
8.459809248800736
 10
147.2213786682549
 20
44.89827969225647
 30
0.0
 10
147.4265524097942
 20
44.89828405995465
 30
0.0
 10
147.8378464667355
 20
44.9431593164694
 30
0.0
 10
148.4212287442992
 20
45.14943561186683
 30
0.0
 10
148.8529637979425
 20
45.42831670185203
 30
0.0
 10
149.1603552726334
 20
45.69455559370692
 30
0.0
 10
149.4427510519331
 20
45.98487394260752
 30
0.0
 10
149.7004959402018
 20
46.4252053200438
 30
0.0
 10
149.886183781042
 20
46.99986209962321
 30
0.0
 10
150.0034538604618
 20
47.59040801262458
 30
0.0
 10
150.1013645759443
 20
48.38580950416832
 30
0.0
 10
150.1854341962323
 20
49.38369937323296
 30
0.0
 10
150.2623180637293
 20
50.58269276120954
 30
0.0
 10
150.2915592545581
 20
51.38319495888621
 30
0.0
 10
150.3003750279226
 20
51.78352396100969
 30
0.0
  0
SPLINE
  5
80
330
7B
100
AcDbEntity
  8
0
  6
Continuous
 62
     0
370
     0
100
AcDbSpline
210
0.0
220
0.0
230
1.0
 70
     8
 71
     3
 72
     8
 73
     4
 74
     0
 42
0.000000001
 43
0.0
 40
0.0
 40
0.0
 40
0.0
 40
0.0
 40
47.55430546411325
 40
47.55430546411325
 40
47.55430546411325
 40
47.55430546411325
 10
150.3003750279226
 20
51.78352396100968
 30
0.0
 10
150.6493597050343
 20
67.6311055400744
 30
0.0
 10
151.046335723017
 20
83.47758867651169
 30
0.0
 10
151.4291507607542
 20
99.32437480430404
 30
0.0
  0
SPLINE
  5
81
330
7B
100
AcDbEntity
  8
0
  6
Continuous
 62
     0
370
     0
100
AcDbSpline
210
0.0
220
0.0
230
1.0
 70
     8
 71
     3
 72
    14
 73
    10
 74
     0
 42
0.000000001
 43
0.0
 40
0.0
 40
0.0
 40
0.0
 40
0.0
 40
2.202449043862926
 40
4.407614529988809
 40
6.61760498461073
 40
8.834220870431878
 40
11.06041317940926
 40
13.29428199347736
 40
15.53506428000646
 40
15.53506428000646
 40
15.53506428000646
 40
15.53506428000646
 10
151.4291123683251
 20
99.3243739820931
 30
0.0
 10
151.4468363896604
 20
100.0583084880411
 30
0.0
 10
151.5882390926819
 20
101.5266928647814
 30
0.0
 10
152.1120389266007
 20
103.6763716538002
 30
0.0
 10
152.9330192523865
 20
105.7353521908131
 30
0.0
 10
154.033520036795
 20
107.6653117404427
 30
0.0
 10
155.3944416768546
 20
109.426341197261
 30
0.0
 10
156.9820664790099
 20
110.9859960836427
 30
0.0
 10
158.1698162425153
 20
111.8680941506799
 30
0.0
 10
158.789071416783
 20
112.2641483907522
 30
0.0
  0
SPLINE
  5
82
330
7B
100
AcDbEntity
  8
0
  6
Continuous
 62
     0
370
     0
100
AcDbSpline
210
0.0
220
0.0
230
1.0
 70
     8
 71
     3
 72
    35
 73
    31
 74
     0
 42
0.000000001
 43
0.0
 40
0.0
 40
0.0
 40
0.0
 40
0.0
 40
3.842553044939223
 40
7.664987140178404
 40
11.46970859298695
 40
15.2608840327312
 40
19.04363759555922
 40
22.82376401864989
 40
26.60753882794128
 40
30.4007460517766
 40
34.20808272081521
 40
38.03372712295518
 40
41.87959806736609
 40
45.74849768660261
 40
49.62627423926556
 40
53.50877529369348
 40
57.39089106357641
 40
61.26904887813672
 40
65.13758184538766
 40
68.98387127952655
 40
72.80944131617571
 40
76.61684384179975
 40
80.41007844577194
 40
84.19392074791796
 40
87.97394791961561
 40
91.7566822502056
 40
95.54789920655986
 40
99.35263460253216
 40
103.1750576592479
 40
107.0176622043638
 40
107.0176622043638
 40
107.0176622043638
 40
107.0176622043638
 10
158.7890703709714
 20
112.2641479682759
 30
0.0
 10
159.8509853170945
 20
112.9433127942938
 30
0.0
 10
161.8460573356385
 20
114.4892330200315
 30
0.0
 10
164.3594792539147
 20
117.2997110771406
 30
0.0
 10
166.318644693643
 20
120.5227132778936
 30
0.0
 10
167.6547930541728
 20
124.0647624984388
 30
0.0
 10
168.3094886288753
 20
127.8099003498445
 30
0.0
 10
168.2498638625449
 20
131.6174328959298
 30
0.0
 10
167.478999437789
 20
135.338114615719
 30
0.0
 10
166.0352782941136
 20
138.8347076381676
 30
0.0
 10
163.9791643666383
 20
141.9949734287379
 30
0.0
 10
161.3797177445048
 20
144.729904706524
 30
0.0
 10
158.3091923693801
 20
146.9661633705271
 30
0.0
 10
154.8498761679792
 20
148.630187324189
 30
0.0
 10
151.1100143140443
 20
149.6649997156933
 30
0.0
 10
147.2234207898685
 20
150.015833216005
 30
0.0
 10
143.3365857578341
 20
149.6655742729301
 30
0.0
 10
139.5964298169339
 20
148.6313342759415
 30
0.0
 10
136.1366339686675
 20
146.9672237625576
 30
0.0
 10
133.0653564587821
 20
144.7314937809414
 30
0.0
 10
130.4654303143046
 20
141.9964294736728
 30
0.0
 10
128.4089862981368
 20
138.836190293265
 30
0.0
 10
126.964791164328
 20
135.3396290942266
 30
0.0
 10
126.1939495769443
 20
131.61892386006
 30
0.0
 10
126.1338511911309
 20
127.8114381278677
 30
0.0
 10
126.7883329930842
 20
124.0662698996718
 30
0.0
 10
128.1240456768113
 20
120.5239343682342
 30
0.0
 10
130.083280792969
 20
117.3007481068799
 30
0.0
 10
132.5967190208173
 20
114.4899401546438
 30
0.0
 10
134.5919083595062
 20
112.9438052678707
 30
0.0
 10
135.6539065262926
 20
112.2645496449501
 30
0.0
  0
SPLINE
  5
83
330
7B
100
AcDbEntity
  8
0
  6
Continuous
 62
     0
370
     0
100
AcDbSpline
210
0.0
220
0.0
230
1.0
 70
     8
 71
     3
 72
    14
 73
    10
 74
     0
 42
0.000000001
 43
0.0
 40
0.0
 40
0.0
 40
0.0
 40
0.0
 40
2.24056531891082
 40
4.47475665392111
 40
6.701008957944321
 40
8.917472874916836
 40
11.12743481330227
 40
13.33256461810859
 40
15.53499704911237
 40
15.53499704911237
 40
15.53499704911237
 40
15.53499704911237
 10
135.653905468197
 20
112.2645500815069
 30
0.0
 10
136.2731409121295
 20
111.868486561989
 30
0.0
 10
137.4607753583901
 20
110.986017302274
 30
0.0
 10
139.048878809042
 20
109.4266730289451
 30
0.0
 10
140.4100065048624
 20
107.6655696275999
 30
0.0
 10
141.5101685214797
 20
105.7354348157825
 30
0.0
 10
142.331214438517
 20
103.6765509320628
 30
0.0
 10
142.8548664437386
 20
101.5268537900032
 30
0.0
 10
142.9963027444241
 20
100.0584953156306
 30
0.0
 10
143.014019317864
 20
99.32456615215621
 30
0.0
  0
SPLINE
  5
84
330
7B
100
AcDbEntity
  8
0
  6
Continuous
 62
     0
370
     0
100
AcDbSpline
210
0.0
220
0.0
230
1.0
 70
     8
 71
     3
 72
     8
 73
     4
 74
     0
 42
0.000000001
 43
0.0
 40
0.0
 40
0.0
 40
0.0
 40
0.0
 40
47.55445460730034
 40
47.55445460730034
 40
47.55445460730034
 40
47.55445460730034
 10
143.0139806078049
 20
99.32456695603707
 30
0.0
 10
143.3966399447983
 20
83.4777269733229
 30
0.0
 10
143.7934599929583
 20
67.6311898788874
 30
0.0
 10
144.1422922236433
 20
51.78355499650058
 30
0.0
  0
ELLIPSE
  5
85
330
7B
100
AcDbEntity
  8
0
  6
Continuous
 62
     0
370
     0
100
AcDbEllipse
 10
143.125043
 20
99.324566
 30
0.0
 11
-1.499585984336654
 21
-0.03524025512206312
 31
0.0
210
0.0
220
0.0
230
-1.0
 40
0.001744
 41
6.204932688369723
 42
7.779918813561801
  0
ELLIPSE
  5
86
330
7B
100
AcDbEntity
  8
0
  6
Continuous
 62
     0
370
     0
100
AcDbEllipse
 10
135.967054
 20
112.264548
 30
0.0
 11
0.8234885789750228
 21
1.253741026008841
 31
0.0
210
0.0
220
0.0
230
1.0
 40
0.17565
 41
1.685658561903149
 42
3.141591636581085
  0
ELLIPSE
  5
87
330
7B
100
AcDbEntity
  8
0
  6
Continuous
 62
     0
370
     0
100
AcDbEllipse
 10
158.475151
 20
112.26415
 30
0.0
 11
0.8234447453470013
 21
-1.25376981593928
 31
0.0
210
0.0
220
0.0
230
1.0
 40
0.176091
 41
0.0000000073940116
 42
1.455654545871455
  0
ARC
  5
88
330
7B
100
AcDbEntity
  8
0
  6
Continuous
 62
     0
370
    30
100
AcDbCircle
 10
147.221406
 20
129.398965
 30
0.0
 40
21.99996798051518
100
AcDbArc
 50
303.295966
 51
236.702006
  0
ELLIPSE
  5
89
330
7B
100
AcDbEntity
  8
0
  6
Continuous
 62
     0
370
     0
100
AcDbEllipse
 10
151.317298
 20
99.324375
 30
0.0
 11
1.499585634580564
 21
-0.03525513522318775
 31
0.0
210
0.0
220
0.0
230
1.0
 40
0.001757
 41
6.204856647029001
 42
7.779390320337534
  0
LINE
  5
8A
330
7B
100
AcDbEntity
  8
0
  6
Continuous
 62
     0
370
     0
100
AcDbLine
 10
147.221004
 20
43.39828
 30
0.0
 11
147.220971
 21
44.89828
 31
0.0
  0
ELLIPSE
  5
8B
330
7B
100
AcDbEntity
  8
0
  6
Continuous
 62
     0
370
     0
100
AcDbEllipse
 10
150.218446
 20
51.783524
 30
0.0
 11
1.499655418516185
 21
-0.03215005000069036
 31
0.0
210
0.0
220
0.0
230
1.0
 40
0.001172
 41
6.190289905278134
 42
7.799347644019019
  0
ELLIPSE
  5
8C
330
7B
100
AcDbEntity
  8
0
  6
Continuous
 62
     0
370
     0
100
AcDbEllipse
 10
144.223432
 20
51.783555
 30
0.0
 11
-1.499655729279276
 21
-0.03213555102758058
 31
0.0
210
0.0
220
0.0
230
-1.0
 40
0.001161
 41
6.190363224452631
 42
7.799874485015811
  0
ARC
  5
8D
330
7B
100
AcDbEntity
  8
0
  6
Continuous
 62
     0
370
    30
100
AcDbCircle
 10
147.221405
 20
129.399002
 30
0.0
 40
22.10000004088621
100
AcDbArc
 50
299.919018
 51
90.0
  0
ARC
  5
8E
330
7B
100
AcDbEntity
  8
0
  6
Continuous
 62
     0
370
    30
100
AcDbCircle
 10
147.221405
 20
129.399002
 30
0.0
 40
22.10000004088621
100
AcDbArc
 50
90.0
 51
240.079236
  0
ARC
  5
8F
330
7B
100
AcDbEntity
  8
0
  6
Continuous
 62
     0
370
     0
100
AcDbCircle
 10
147.221405
 20
150.899002
 30
0.0
 40
89.0
100
AcDbArc
 50
273.041942
 51
180.0
  0
ARC
  5
90
330
7B
100
AcDbEntity
  8
0
  6
Continuous
 62
     0
370
     0
100
AcDbCircle
 10
147.221405
 20
150.899002
 30
0.0
 40
89.0
100
AcDbArc
 50
180.0
 51
266.957521
  0
ARC
  5
91
330
7B
100
AcDbEntity
  8
0
  6
Continuous
 62
     0
370
    30
100
AcDbCircle
 10
147.221405
 20
150.899002
 30
0.0
 40
90.0
100
AcDbArc
 50
272.993728
 51
180.0
  0
ARC
  5
92
330
7B
100
AcDbEntity
  8
0
  6
Continuous
 62
     0
370
    30
100
AcDbCircle
 10
147.221405
 20
150.899002
 30
0.0
 40
90.0
100
AcDbArc
 50
180.0
 51
267.005734
  0
CIRCLE
  5
93
330
7B
100
AcDbEntity
  8
0
  6
Continuous
 62
     0
370
    30
100
AcDbCircle
 10
147.221407
 20
177.399002
 30
0.0
 40
10.65000065233946
  0
CIRCLE
  5
94
330
7B
100
AcDbEntity
  8
0
  6
Continuous
 62
     0
370
    30
100
AcDbCircle
 10
147.221407
 20
177.399002
 30
0.0
 40
10.9500006642604
  0
CIRCLE
  5
95
330
7B
100
AcDbEntity
  8
0
  6
Continuous
 62
     0
370
    30
100
AcDbCircle
 10
147.221407
 20
177.399002
 30
0.0
 40
10.99999954011361
  0
SPLINE
  5
96
330
7B
100
AcDbEntity
  8
0
  6
Continuous
 62
     0
370
    30
100
AcDbSpline
210
0.0
220
0.0
230
1.0
 70
     8
 71
     3
 72
    19
 73
    15
 74
     0
 42
0.000000001
 43
0.0
 40
0.0
 40
0.0
 40
0.0
 40
0.0
 40
1.01440362086728
 40
1.78107665651909
 40
2.375773133786853
 40
2.967590741189004
 40
3.628848037109224
 40
4.016951238163053
 40
4.737222963634005
 40
5.549953443612493
 40
7.03620196314231
 40
7.571636921173219
 40
8.100081427566709
 40
10.73255194125837
 40
10.73255194125837
 40
10.73255194125837
 40
10.73255194125837
 10
147.2210160362702
 20
43.39827969461854
 30
0.0
 10
147.5583234264108
 20
43.39828711717706
 30
0.0
 10
148.1535595299375
 20
43.47019707836199
 30
0.0
 10
148.9022302271683
 20
43.7382549062589
 30
0.0
 10
149.4720429899803
 20
44.0569908919372
 30
0.0
 10
149.9623804880985
 20
44.43143669554971
 30
0.0
 10
150.3549056750099
 20
44.81460837044781
 30
0.0
 10
150.7160162861205
 20
45.28246281381212
 30
0.0
 10
151.020466130703
 20
45.8491409709612
 30
0.0
 10
151.3364846266068
 20
46.80826439316527
 30
0.0
 10
151.4666921771081
 20
47.74718361206016
 30
0.0
 10
151.5447570946781
 20
48.59338003473832
 30
0.0
 10
151.6452258804865
 20
49.82147451668401
 30
0.0
 10
151.6992961431694
 20
50.87419298846112
 30
0.0
 10
151.7181014123529
 20
51.751374324925
 30
0.0
  0
SPLINE
  5
97
330
7B
100
AcDbEntity
  8
0
  6
Continuous
 62
     0
370
    30
100
AcDbSpline
210
0.0
220
0.0
230
1.0
 70
     8
 71
     3
 72
    19
 73
    15
 74
     0
 42
0.000000001
 43
0.0
 40
0.0
 40
0.0
 40
0.0
 40
0.0
 40
1.014406483172769
 40
1.781076027878725
 40
2.375814432701061
 40
2.967676042756048
 40
3.629023834988823
 40
4.01720316951058
 40
4.737451779863988
 40
5.550100085487999
 40
7.036270320704878
 40
7.571719252627304
 40
8.100175577156415
 40
10.73284639098591
 40
10.73284639098591
 40
10.73284639098591
 40
10.73284639098591
 10
147.2210035245545
 20
43.39827969434526
 30
0.0
 10
146.8836951274232
 20
43.39827238104681
 30
0.0
 10
146.2884556905188
 20
43.47015612422652
 30
0.0
 10
145.5397544807545
 20
43.7381741771411
 30
0.0
 10
144.9698926573627
 20
44.05688402545047
 30
0.0
 10
144.4794794094109
 20
44.43133187700278
 30
0.0
 10
144.0868751528028
 20
44.814527651334
 30
0.0
 10
143.7257224341227
 20
45.28241286866501
 30
0.0
 10
143.4212758853486
 20
45.84908336013615
 30
0.0
 10
143.1052796388311
 20
46.80815123780269
 30
0.0
 10
142.9751030916295
 20
47.74702651723106
 30
0.0
 10
142.8970649560522
 20
48.59320795340426
 30
0.0
 10
142.7966253385571
 20
49.82138068152832
 30
0.0
 10
142.742574474763
 20
50.87417068751063
 30
0.0
 10
142.7237762542767
 20
51.75141903552527
 30
0.0
  0
SPLINE
  5
98
330
7B
100
AcDbEntity
  8
0
  6
Continuous
 62
     0
370
    30
100
AcDbSpline
210
0.0
220
0.0
230
1.0
 70
     8
 71
     3
 72
     9
 73
     5
 74
     0
 42
0.000000001
 43
0.0
 40
0.0
 40
0.0
 40
0.0
 40
0.0
 40
26.20461199166862
 40
47.55064555610684
 40
47.55064555610684
 40
47.55064555610684
 40
47.55064555610684
 10
142.7237762542765
 20
51.75141903553471
 30
0.0
 10
142.5366431608515
 20
60.48427740325299
 30
0.0
 10
142.1708423559927
 20
76.33026737793926
 30
0.0
 10
141.7926388186669
 20
92.17594598638692
 30
0.0
 10
141.6254192743853
 20
99.28931444785366
 30
0.0
  0
SPLINE
  5
99
330
7B
100
AcDbEntity
  8
0
  6
Continuous
 62
     0
370
    30
100
AcDbSpline
210
0.0
220
0.0
230
1.0
 70
     8
 71
     3
 72
     9
 73
     5
 74
     0
 42
0.000000001
 43
0.0
 40
0.0
 40
0.0
 40
0.0
 40
0.0
 40
26.20452966338199
 40
47.55049605632563
 40
47.55049605632563
 40
47.55049605632563
 40
47.55049605632563
 10
151.7181014123531
 20
51.7513743249349
 30
0.0
 10
151.9053183461368
 20
60.48420333082167
 30
0.0
 10
152.2712723182406
 20
76.33013966089726
 30
0.0
 10
152.6496318353281
 20
92.17576436359714
 30
0.0
 10
152.8169209858975
 20
99.28910863630627
 30
0.0
  0
SPLINE
  5
9A
330
7B
100
AcDbEntity
  8
0
  6
Continuous
 62
     0
370
    30
100
AcDbSpline
210
0.0
220
0.0
230
1.0
 70
     8
 71
     3
 72
    13
 73
     9
 74
     0
 42
0.000000001
 43
0.0
 40
0.0
 40
0.0
 40
0.0
 40
0.0
 40
1.27893982319431
 40
2.987923181090905
 40
7.268992036795323
 40
11.11486234682022
 40
12.81676747405072
 40
13.98181856066764
 40
13.98181856066764
 40
13.98181856066764
 40
13.98181856066764
 10
152.8168838829139
 20
99.28911941178274
 30
0.0
 10
152.8269006717439
 20
99.71518592774328
 30
0.0
 10
152.8954460896889
 20
100.7100491821127
 30
0.0
 10
153.3124084403627
 20
103.1010167980831
 30
0.0
 10
154.5415250865618
 20
106.1772767601546
 30
0.0
 10
156.5531463339582
 20
108.7849922090751
 30
0.0
 10
158.2158719946264
 20
110.2523294044057
 30
0.0
 10
158.9802973621701
 20
110.8013290307368
 30
0.0
 10
159.2985968027614
 20
111.0103799481815
 30
0.0
  0
SPLINE
  5
9B
330
7B
100
AcDbEntity
  8
0
  6
Continuous
 62
     0
370
    30
100
AcDbSpline
210
0.0
220
0.0
230
1.0
 70
     8
 71
     3
 72
    13
 73
     9
 74
     0
 42
0.000000001
 43
0.0
 40
0.0
 40
0.0
 40
0.0
 40
0.0
 40
1.278923774778023
 40
2.987883661558589
 40
7.268905500277457
 40
11.11477233743307
 40
12.8167041045072
 40
13.98169157930797
 40
13.98169157930797
 40
13.98169157930797
 40
13.98169157930797
 10
141.6254566845578
 20
99.28932533611645
 30
0.0
 10
141.6154442487622
 20
99.71538662132059
 30
0.0
 10
141.5469084286979
 20
100.7102374310574
 30
0.0
 10
141.1299627670899
 20
103.1011827733717
 30
0.0
 10
139.9008436646135
 20
106.1774340814761
 30
0.0
 10
137.8891470126948
 20
108.7852259913157
 30
0.0
 10
136.226337613571
 20
110.2526759544099
 30
0.0
 10
135.4618711876374
 20
110.801736158149
 30
0.0
 10
135.1435650354809
 20
111.010807620501
 30
0.0
  0
ENDBLK
  5
9D
330
7B
100
AcDbEntity
  8
0
100
AcDbBlockEnd
  0
BLOCK
  5
D5
330
9F
100
AcDbEntity
  8
0
100
AcDbBlockBegin
  2
b
 70
     0
 10
0.0
 20
-54.378555
 30
0.0
  3
b
  1

  0
SPLINE
  5
A0
330
9F
100
AcDbEntity
  8
0
  6
Continuous
 62
     0
370
    30
100
AcDbSpline
210
0.0
220
0.0
230
1.0
 70
     8
 71
     3
 72
    25
 73
    21
 74
     0
 42
0.000000001
 43
0.0
 40
20.61930027924547
 40
20.61930027924547
 40
20.61930027924547
 40
20.61930027924547
 40
22.82376401864989
 40
26.60753882794128
 40
30.4007460517766
 40
34.20808272081521
 40
38.03372712295518
 40
41.87959806736609
 40
45.74849768660261
 40
49.62627423926556
 40
53.50877529369348
 40
57.39089106357641
 40
61.26904887813672
 40
65.13758184538766
 40
68.98387127952655
 40
72.80944131617571
 40
76.61684384179975
 40
80.41007844577194
 40
84.19392074791796
 40
86.4003488327632
 40
86.4003488327632
 40
86.4003488327632
 40
86.4003488327632
 10
168.2524912419618
 20
-123.9629263263229
 30
0.0
 10
168.252497257925
 20
-123.9629423050396
 30
0.0
 10
168.1429156623977
 20
-124.0043385477212
 30
0.0
 10
167.478999437789
 20
-124.2541009548327
 30
0.0
 10
166.0352782941136
 20
-124.770774287367
 30
0.0
 10
163.9791643666383
 20
-125.4458656622894
 30
0.0
 10
161.3797177445048
 20
-126.1940550402046
 30
0.0
 10
158.3091923693801
 20
-126.9204675676687
 30
0.0
 10
154.8498761679792
 20
-127.5246462743431
 30
0.0
 10
151.1100143140444
 20
-127.9090011843375
 30
0.0
 10
147.2234207898685
 20
-128.0460203518803
 30
0.0
 10
143.3365857578341
 20
-127.9112364102319
 30
0.0
 10
139.5964298169339
 20
-127.5291149848413
 30
0.0
 10
136.1366339686675
 20
-126.9270760269769
 30
0.0
 10
133.0653564587821
 20
-126.2022489705444
 30
0.0
 10
130.4654303143046
 20
-125.4553397077025
 30
0.0
 10
128.4089862981368
 20
-124.7812275774559
 30
0.0
 10
126.964791164328
 20
-124.2651330913177
 30
0.0
 10
126.3007545872448
 20
-124.0156713354736
 30
0.0
 10
126.1910421609904
 20
-123.9742880629641
 30
0.0
 10
126.1910472608112
 20
-123.974274513416
 30
0.0
  0
SPLINE
  5
A1
330
9F
100
AcDbEntity
  8
0
  6
Continuous
 62
     0
370
     0
100
AcDbSpline
210
0.0
220
0.0
230
1.0
 70
     8
 71
     3
 72
    25
 73
    21
 74
     0
 42
0.000000001
 43
0.0
 40
21.94274486945
 40
21.94274486945
 40
21.94274486945
 40
21.94274486945
 40
23.3325390180121
 40
28.1865997306912
 40
31.65077471870194
 40
35.17005316295101
 40
40.52516576235791
 40
45.08449179228545
 40
49.40095951828991
 40
50.98784248892994
 40
53.5600897172287
 40
57.63180409922852
 40
61.71794092077714
 40
65.77414287274777
 40
70.60732300077261
 40
75.54753558958703
 40
80.67002611278147
 40
84.95256755626764
 40
89.22417508003764
 40
91.475264143946
 40
91.475264143946
 40
91.475264143946
 40
91.475264143946
 10
125.2214780025841
 20
-122.571161407294
 30
0.0
 10
125.2214841373154
 20
-122.5711439882776
 30
0.0
 10
125.2875875460894
 20
-122.5943097365607
 30
0.0
 10
125.8536148409148
 20
-122.7943197046106
 30
0.0
 10
127.2529005738705
 20
-123.2625020112523
 30
0.0
 10
129.2832582861725
 20
-123.8969283140318
 30
0.0
 10
132.2087524731232
 20
-124.70671253866
 30
0.0
 10
136.0069670994642
 20
-125.5321768427882
 30
0.0
 10
139.1675848740292
 20
-126.0130728005529
 30
0.0
 10
141.8654626163222
 20
-126.2863679621146
 30
0.0
 10
144.5594298322715
 20
-126.4748672553053
 30
0.0
 10
148.1597096385472
 20
-126.5379075910788
 30
0.0
 10
152.2209875127689
 20
-126.3445262329822
 30
0.0
 10
156.3311045714847
 20
-125.8863229200153
 30
0.0
 10
160.3065378434806
 20
-125.1516032845475
 30
0.0
 10
163.9359046441512
 20
-124.247506060585
 30
0.0
 10
166.6403175756379
 20
-123.4340406185422
 30
0.0
 10
168.3893372331437
 20
-122.8522404669277
 30
0.0
 10
169.1096273751775
 20
-122.5994207393268
 30
0.0
 10
169.2212957723542
 20
-122.560139359236
 30
0.0
 10
169.2212927528104
 20
-122.5601307542272
 30
0.0
  0
SPLINE
  5
A2
330
9F
100
AcDbEntity
  8
0
  6
Continuous
 62
     0
370
    30
100
AcDbSpline
210
0.0
220
0.0
230
1.0
 70
     8
 71
     3
 72
    14
 73
    10
 74
     0
 42
0.000000001
 43
0.0
 40
0.0
 40
0.0
 40
0.0
 40
0.0
 40
4.158825118104418
 40
8.317588845840767
 40
12.47670393802152
 40
16.63642018897949
 40
20.79666226232271
 40
24.95719017941661
 40
29.11752450153855
 40
29.11752450153855
 40
29.11752450153855
 40
29.11752450153855
 10
126.5392530280114
 20
-96.9688545281956
 30
0.0
 10
126.0666658538236
 20
-96.96885460546514
 30
0.0
 10
125.3670059850031
 20
-97.05514728433945
 30
0.0
 10
125.1018580503283
 20
-97.4778194175733
 30
0.0
 10
125.6122026109349
 20
-98.18676404369785
 30
0.0
 10
126.8538310186954
 20
-99.13665564969642
 30
0.0
 10
128.7609419714945
 20
-100.2542119264474
 30
0.0
 10
131.2621910008478
 20
-101.4477453920899
 30
0.0
 10
133.2853650310358
 20
-102.2259531191341
 30
0.0
 10
134.3714338218372
 20
-102.5903904634447
 30
0.0
  0
ELLIPSE
  5
A3
330
9F
100
AcDbEntity
  8
0
  6
Continuous
 62
     0
370
    30
100
AcDbEllipse
 10
147.221409
 20
-94.26349
 30
0.0
 11
-21.99999999997423
 21
6.605597507366975E-5
 31
0.0
210
0.0
220
0.0
230
1.0
 40
0.466308
 41
2.088210603406175
 42
2.194566023244709
  0
ELLIPSE
  5
A4
330
9F
100
AcDbEntity
  8
0
  6
Continuous
 62
     0
370
    30
100
AcDbEllipse
 10
147.221409
 20
-94.26349
 30
0.0
 11
-21.99999999997423
 21
6.605597507366975E-5
 31
0.0
210
0.0
220
0.0
230
1.0
 40
0.466308
 41
0.9470395082992578
 42
1.053386471986393
  0
SPLINE
  5
A5
330
9F
100
AcDbEntity
  8
0
  6
Continuous
 62
     0
370
    30
100
AcDbSpline
210
0.0
220
0.0
230
1.0
 70
     8
 71
     3
 72
    14
 73
    10
 74
     0
 42
0.000000001
 43
0.0
 40
0.0
 40
0.0
 40
0.0
 40
0.0
 40
4.160334632249885
 40
8.320862856030622
 40
12.48110524863525
 40
16.64082177771166
 40
20.79993724334342
 40
24.95870119173145
 40
29.11752654309027
 40
29.11752654309027
 40
29.11752654309027
 40
29.11752654309027
 10
160.071564240358
 20
-102.590390463439
 30
0.0
 10
161.1576251990714
 20
-102.2259531043471
 30
0.0
 10
163.1807815847113
 20
-101.4477453279312
 30
0.0
 10
165.6819991217182
 20
-100.2542118705028
 30
0.0
 10
167.5890742206058
 20
-99.13665537156203
 30
0.0
 10
168.8306633636315
 20
-98.18676415372352
 30
0.0
 10
169.3409663045336
 20
-97.47781883376251
 30
0.0
 10
169.0757759860563
 20
-97.05514683555043
 30
0.0
 10
168.3760883950729
 20
-96.96885809880268
 30
0.0
 10
167.9034878536849
 20
-96.9688579434926
 30
0.0
  0
LINE
  5
A6
330
9F
100
AcDbEntity
  8
0
  6
Continuous
 62
     0
370
     0
100
AcDbLine
 10
156.271728
 20
-102.59039
 30
0.0
 11
160.071564
 21
-102.59039
 31
0.0
  0
LINE
  5
A7
330
9F
100
AcDbEntity
  8
0
  6
Continuous
 62
     0
370
     0
100
AcDbLine
 10
134.371434
 20
-102.59039
 30
0.0
 11
138.171086
 21
-102.59039
 31
0.0
  0
LINE
  5
A8
330
9F
100
AcDbEntity
  8
0
  6
Continuous
 62
     0
370
    30
100
AcDbLine
 10
169.321405
 20
-93.968857
 30
0.0
 11
156.121407
 21
-93.968857
 31
0.0
  0
LINE
  5
A9
330
9F
100
AcDbEntity
  8
0
  6
Continuous
 62
     0
370
    30
100
AcDbLine
 10
138.321407
 20
-93.968857
 30
0.0
 11
125.121405
 21
-93.968857
 31
0.0
  0
ARC
  5
AA
330
9F
100
AcDbEntity
  8
0
  6
Continuous
 62
     0
370
    30
100
AcDbCircle
 10
58.221417
 20
-84.668846
 30
0.0
 40
1.000011948291776
100
AcDbArc
 50
180.000685
 51
269.999315
  0
LINE
  5
AB
330
9F
100
AcDbEntity
  8
0
  6
Continuous
 62
     0
370
    30
100
AcDbLine
 10
57.221405
 20
-84.668858
 30
0.0
 11
57.221405
 21
-73.668858
 31
0.0
  0
LINE
  5
AC
330
9F
100
AcDbEntity
  8
0
  6
Continuous
 62
     0
370
    30
100
AcDbLine
 10
236.221405
 20
-85.668858
 30
0.0
 11
58.221405
 21
-85.668858
 31
0.0
  0
LINE
  5
AD
330
9F
100
AcDbEntity
  8
0
  6
Continuous
 62
     0
370
     0
100
AcDbLine
 10
237.221405
 20
-84.668858
 30
0.0
 11
57.221405
 21
-84.668858
 31
0.0
  0
LINE
  5
AE
330
9F
100
AcDbEntity
  8
0
  6
Continuous
 62
     0
370
    30
100
AcDbLine
 10
237.221405
 20
-73.668858
 30
0.0
 11
57.221405
 21
-73.668858
 31
0.0
  0
LINE
  5
AF
330
9F
100
AcDbEntity
  8
0
  6
Continuous
 62
     0
370
    30
100
AcDbLine
 10
158.171408
 20
-107.772318
 30
0.0
 11
136.271406
 21
-107.772318
 31
0.0
  0
LINE
  5
B0
330
9F
100
AcDbEntity
  8
0
  6
Continuous
 62
     0
370
     0
100
AcDbLine
 10
158.171408
 20
-103.369711
 30
0.0
 11
136.271406
 21
-103.369711
 31
0.0
  0
LINE
  5
B1
330
9F
100
AcDbEntity
  8
0
  6
Continuous
 62
     0
370
     0
100
AcDbLine
 10
157.874025
 20
-103.069722
 30
0.0
 11
136.568789
 21
-103.069722
 31
0.0
  0
LINE
  5
B2
330
9F
100
AcDbEntity
  8
0
  6
Continuous
 62
     0
370
     0
100
AcDbLine
 10
157.112681
 20
-103.063078
 30
0.0
 11
137.330133
 21
-103.063078
 31
0.0
  0
LINE
  5
B3
330
9F
100
AcDbEntity
  8
0
  6
Continuous
 62
     0
370
     0
100
AcDbLine
 10
156.121407
 20
-102.063082
 30
0.0
 11
138.321407
 21
-102.063082
 31
0.0
  0
LINE
  5
B4
330
9F
100
AcDbEntity
  8
0
  6
Continuous
 62
     0
370
    30
100
AcDbLine
 10
157.221406
 20
-89.168855
 30
0.0
 11
137.221407
 21
-89.168855
 31
0.0
  0
LINE
  5
B5
330
9F
100
AcDbEntity
  8
0
  6
Continuous
 62
     0
370
    30
100
AcDbLine
 10
158.221406
 20
-88.168855
 30
0.0
 11
136.221407
 21
-88.168855
 31
0.0
  0
LINE
  5
B6
330
9F
100
AcDbEntity
  8
0
  6
Continuous
 62
     0
370
    30
100
AcDbLine
 10
126.539253
 20
-96.968855
 30
0.0
 11
127.296754
 21
-96.968855
 31
0.0
  0
LINE
  5
B7
330
9F
100
AcDbEntity
  8
0
  6
Continuous
 62
     0
370
    30
100
AcDbLine
 10
167.146055
 20
-96.968858
 30
0.0
 11
167.903488
 21
-96.968858
 31
0.0
  0
SPLINE
  5
B8
330
9F
100
AcDbEntity
  8
0
  6
Continuous
 62
     0
370
    30
100
AcDbSpline
210
0.0
220
0.0
230
1.0
 70
     8
 71
     3
 72
    13
 73
     9
 74
     0
 42
0.000000001
 43
0.0
 40
7.695826628146286
 40
7.695826628146286
 40
7.695826628146286
 40
7.695826628146286
 40
7.700796967603695
 40
11.71768404387046
 40
15.6442596256022
 40
19.7239848603516
 40
23.80277140055253
 40
28.53305141192867
 40
28.53305141192867
 40
28.53305141192867
 40
28.53305141192867
 10
167.0376786630102
 20
-97.43895492558671
 30
0.0
 10
167.0376284510835
 20
-97.43916188677224
 30
0.0
 10
166.9968159948793
 20
-97.60668472965972
 30
0.0
 10
166.6244725174408
 20
-98.02688948854484
 30
0.0
 10
165.2256257867024
 20
-98.86855588075514
 30
0.0
 10
163.0520512813003
 20
-99.83181696817314
 30
0.0
 10
160.0244528535621
 20
-100.8574901995645
 30
0.0
 10
157.5380615185359
 20
-101.4627413990213
 30
0.0
 10
156.1214073156859
 20
-101.7331152652182
 30
0.0
  0
SPLINE
  5
B9
330
9F
100
AcDbEntity
  8
0
  6
Continuous
 62
     0
370
    30
100
AcDbSpline
210
0.0
220
0.0
230
1.0
 70
     8
 71
     3
 72
    13
 73
     9
 74
     0
 42
0.000000001
 43
0.0
 40
9.213190524483455
 40
9.213190524483455
 40
9.213190524483455
 40
9.213190524483455
 40
13.94356093455554
 40
18.02235174972065
 40
22.10207988849913
 40
26.02865167613633
 40
30.04553340338536
 40
30.05044369863597
 40
30.05044369863597
 40
30.05044369863597
 40
30.05044369863597
 10
138.3214065830355
 20
-101.7330851489692
 30
0.0
 10
136.9047248635317
 20
-101.4627021448028
 30
0.0
 10
134.4183087127383
 20
-100.8574365271033
 30
0.0
 10
131.3906998758469
 20
-99.8317511430032
 30
0.0
 10
129.2171399194564
 20
-98.86849382056289
 30
0.0
 10
127.8183112519756
 20
-98.02683883172381
 30
0.0
 10
127.4459830103809
 20
-97.60664929186649
 30
0.0
 10
127.4051747805408
 20
-97.4391342819547
 30
0.0
 10
127.4051251768592
 20
-97.43892982638046
 30
0.0
  0
LINE
  5
BA
330
9F
100
AcDbEntity
  8
0
  6
Continuous
 62
     0
370
    30
100
AcDbLine
 10
158.221406
 20
-88.168855
 30
0.0
 11
158.221406
 21
-85.668859
 31
0.0
  0
LINE
  5
BB
330
9F
100
AcDbEntity
  8
0
  6
Continuous
 62
     0
370
    30
100
AcDbLine
 10
136.221407
 20
-88.168855
 30
0.0
 11
136.221407
 21
-85.668859
 31
0.0
  0
LINE
  5
BC
330
9F
100
AcDbEntity
  8
0
  6
Continuous
 62
     0
370
    30
100
AcDbLine
 10
157.221406
 20
-89.168855
 30
0.0
 11
158.221406
 21
-88.168855
 31
0.0
  0
LINE
  5
BD
330
9F
100
AcDbEntity
  8
0
  6
Continuous
 62
     0
370
    30
100
AcDbLine
 10
137.221407
 20
-89.168855
 30
0.0
 11
136.221407
 21
-88.168855
 31
0.0
  0
LINE
  5
BE
330
9F
100
AcDbEntity
  8
0
  6
Continuous
 62
     0
370
    30
100
AcDbLine
 10
156.121407
 20
-102.063082
 30
0.0
 11
156.121407
 21
-89.168855
 31
0.0
  0
LINE
  5
BF
330
9F
100
AcDbEntity
  8
0
  6
Continuous
 62
     0
370
    30
100
AcDbLine
 10
138.321407
 20
-102.063082
 30
0.0
 11
138.321407
 21
-89.168855
 31
0.0
  0
ARC
  5
C0
330
9F
100
AcDbEntity
  8
0
  6
Continuous
 62
     0
370
    30
100
AcDbCircle
 10
157.121442
 20
-102.063082
 30
0.0
 40
1.000034461682265
100
AcDbArc
 50
179.999997
 51
269.498043
  0
ARC
  5
C1
330
9F
100
AcDbEntity
  8
0
  6
Continuous
 62
     0
370
    30
100
AcDbCircle
 10
137.321372
 20
-102.063082
 30
0.0
 40
1.000034461682265
100
AcDbArc
 50
270.501957
 51
0.000003
  0
LINE
  5
C2
330
9F
100
AcDbEntity
  8
0
  6
Continuous
 62
     0
370
    30
100
AcDbLine
 10
157.874025
 20
-103.069722
 30
0.0
 11
157.112681
 21
-103.063078
 31
0.0
  0
LINE
  5
C3
330
9F
100
AcDbEntity
  8
0
  6
Continuous
 62
     0
370
    30
100
AcDbLine
 10
136.568789
 20
-103.069722
 30
0.0
 11
137.330133
 21
-103.063078
 31
0.0
  0
ARC
  5
C4
330
9F
100
AcDbEntity
  8
0
  6
Continuous
 62
     0
370
    30
100
AcDbCircle
 10
157.871408
 20
-103.369711
 30
0.0
 40
0.3000000749317842
100
AcDbArc
 50
0.0
 51
89.500045
  0
ARC
  5
C5
330
9F
100
AcDbEntity
  8
0
  6
Continuous
 62
     0
370
    30
100
AcDbCircle
 10
136.571406
 20
-103.369711
 30
0.0
 40
0.3000000749317842
100
AcDbArc
 50
90.499955
 51
180.0
  0
LINE
  5
C6
330
9F
100
AcDbEntity
  8
0
  6
Continuous
 62
     0
370
    30
100
AcDbLine
 10
158.171408
 20
-107.772318
 30
0.0
 11
158.171408
 21
-103.369711
 31
0.0
  0
LINE
  5
C7
330
9F
100
AcDbEntity
  8
0
  6
Continuous
 62
     0
370
    30
100
AcDbLine
 10
136.271406
 20
-107.772318
 30
0.0
 11
136.271406
 21
-103.369711
 31
0.0
  0
LINE
  5
C8
330
9F
100
AcDbEntity
  8
0
  6
Continuous
 62
     0
370
    30
100
AcDbLine
 10
157.942598
 20
-107.878291
 30
0.0
 11
136.500216
 21
-107.878291
 31
0.0
  0
ARC
  5
C9
330
9F
100
AcDbEntity
  8
0
  6
Continuous
 62
     0
370
    30
100
AcDbCircle
 10
157.942598
 20
-107.578291
 30
0.0
 40
0.3000002024697762
100
AcDbArc
 50
270.0
 51
319.7027
  0
ARC
  5
CA
330
9F
100
AcDbEntity
  8
0
  6
Continuous
 62
     0
370
    30
100
AcDbCircle
 10
136.500216
 20
-107.578291
 30
0.0
 40
0.3000002024697762
100
AcDbArc
 50
220.2973
 51
270.0
  0
LINE
  5
CB
330
9F
100
AcDbEntity
  8
0
  6
Continuous
 62
     0
370
    30
100
AcDbLine
 10
237.221405
 20
-84.668858
 30
0.0
 11
237.221405
 21
-73.668858
 31
0.0
  0
ARC
  5
CC
330
9F
100
AcDbEntity
  8
0
  6
Continuous
 62
     0
370
    30
100
AcDbCircle
 10
236.221393
 20
-84.668846
 30
0.0
 40
1.000011948388173
100
AcDbArc
 50
270.000685
 51
359.999315
  0
LINE
  5
CD
330
9F
100
AcDbEntity
  8
0
  6
Continuous
 62
     0
370
    30
100
AcDbLine
 10
125.121405
 20
-93.968857
 30
0.0
 11
125.121405
 21
-85.668857
 31
0.0
  0
LINE
  5
CE
330
9F
100
AcDbEntity
  8
0
  6
Continuous
 62
     0
370
    30
100
AcDbLine
 10
169.321405
 20
-93.968857
 30
0.0
 11
169.321405
 21
-85.668857
 31
0.0
  0
ARC
  5
CF
330
9F
100
AcDbEntity
  8
0
  6
Continuous
 62
     0
370
    30
100
AcDbCircle
 10
147.325582
 20
-92.59895
 30
0.0
 40
20.49999999846017
100
AcDbArc
 50
183.831629
 51
193.656582
  0
ARC
  5
D0
330
9F
100
AcDbEntity
  8
0
  6
Continuous
 62
     0
370
    30
100
AcDbCircle
 10
147.117228
 20
-92.59895
 30
0.0
 40
20.49999999896734
100
AcDbArc
 50
346.343347
 51
356.168371
  0
LINE
  5
D1
330
9F
100
AcDbEntity
  8
0
  6
Continuous
 62
     0
370
    30
100
AcDbLine
 10
169.221407
 20
-122.560128
 30
0.0
 11
169.221409
 21
-97.439683
 31
0.0
  0
LINE
  5
D2
330
9F
100
AcDbEntity
  8
0
  6
Continuous
 62
     0
370
    30
100
AcDbLine
 10
125.221407
 20
-122.571288
 30
0.0
 11
125.221409
 21
-97.439655
 31
0.0
  0
SPLINE
  5
D3
330
9F
100
AcDbEntity
  8
0
  6
Continuous
 62
     0
370
    30
100
AcDbSpline
210
0.0
220
0.0
230
1.0
 70
     8
 71
     3
 72
    24
 73
    20
 74
     0
 42
0.000000001
 43
0.0
 40
0.0
 40
0.0
 40
0.0
 40
0.0
 40
0.5469610087581922
 40
0.8801124295460356
 40
1.102214152978338
 40
1.213265083634669
 40
1.324316037856722
 40
1.435373315957246
 40
1.546430549393849
 40
1.601990542678831
 40
1.65755040282733
 40
1.713257533752075
 40
1.770760774197591
 40
1.785029823928833
 40
1.808694922367081
 40
1.822925306589354
 40
1.860392485328355
 40
1.944363808213751
 40
2.501480676648414
 40
2.501480676648414
 40
2.501480676648414
 40
2.501480676648414
 10
125.2214780006649
 20
-122.5711614188676
 30
0.0
 10
125.2214773931007
 20
-122.7525131093494
 30
0.0
 10
125.2756451682342
 20
-123.0471520229357
 30
0.0
 10
125.445096813313
 20
-123.3755004357831
 30
0.0
 10
125.581839991255
 20
-123.5513916491207
 30
0.0
 10
125.6852214334227
 20
-123.65757494626
 30
0.0
 10
125.7684440652642
 20
-123.7312685555901
 30
0.0
 10
125.8568664227712
 20
-123.7985881428474
 30
0.0
 10
125.934567822283
 20
-123.8491171327153
 30
0.0
 10
125.9987309260805
 20
-123.8859551929827
 30
0.0
 10
126.0480749331056
 20
-123.9118857290757
 30
0.0
 10
126.098287063605
 20
-123.9359908751969
 30
0.0
 10
126.1381026626807
 20
-123.9532138512013
 30
0.0
 10
126.1627283429555
 20
-123.9632326231265
 30
0.0
 10
126.1685651681191
 20
-123.9655489452066
 30
0.0
 10
126.1789314416298
 20
-123.9696228927144
 30
0.0
 10
126.1814468311384
 20
-123.9705744051616
 30
0.0
 10
126.198826694181
 20
-123.9772858266697
 30
0.0
 10
126.204663644945
 20
-123.9794736315898
 30
0.0
 10
126.2047405054811
 20
-123.9794449913618
 30
0.0
  0
SPLINE
  5
D4
330
9F
100
AcDbEntity
  8
0
  6
Continuous
 62
     0
370
    30
100
AcDbSpline
210
0.0
220
0.0
230
1.0
 70
     8
 71
     3
 72
    22
 73
    18
 74
     0
 42
0.000000001
 43
0.0
 40
0.0
 40
0.0
 40
0.0
 40
0.0
 40
0.5466850176135035
 40
0.7687054271056314
 40
0.9907260183794695
 40
1.101736381901654
 40
1.21274680570453
 40
1.434767850247665
 40
1.545778470233083
 40
1.65679956862445
 40
1.767955516416828
 40
1.779808391677969
 40
1.791660593309729
 40
1.80032714763401
 40
1.808992258563448
 40
1.830950969699264
 40
1.935922474289567
 40
1.935922474289567
 40
1.935922474289567
 40
1.935922474289567
 10
169.2212927529878
 20
-122.5601307553009
 30
0.0
 10
169.2212936795515
 20
-122.7413919465857
 30
0.0
 10
169.1740020742606
 20
-122.9987867021296
 30
0.0
 10
169.0332912696725
 20
-123.2984383275843
 30
0.0
 10
168.930577950111
 20
-123.4530197660072
 30
0.0
 10
168.8354092724735
 20
-123.5665456099932
 30
0.0
 10
168.7320720208969
 20
-123.6727472398593
 30
0.0
 10
168.6175861789536
 20
-123.7669485305635
 30
0.0
 10
168.4929822925093
 20
-123.8479500110043
 30
0.0
 10
168.3969252808739
 20
-123.9010033264353
 30
0.0
 10
168.3224318159195
 20
-123.9348769819601
 30
0.0
 10
168.2842364857974
 20
-123.9505109344152
 30
0.0
 10
168.2734040481224
 20
-123.9548371735189
 30
0.0
 10
168.268521707922
 20
-123.9567561108088
 30
0.0
 10
168.259424703347
 20
-123.9602958015444
 30
0.0
 10
168.2551344816195
 20
-123.9619049159953
 30
0.0
 10
168.2491387202587
 20
-123.964221751685
 30
0.0
 10
168.2491383907971
 20
-123.9642208983539
 30
0.0
  0
ENDBLK
  5
D6
330
9F
100
AcDbEntity
  8
0
100
AcDbBlockEnd
  0
BLOCK
  5
11B
330
D8
100
AcDbEntity
  8
0
100
AcDbBlockBegin
  2
c
 70
     0
 10
0.0
 20
303.941544
 30
0.0
  3
c
  1

  0
SPLINE
  5
D9
330
D8
100
AcDbEntity
  8
0
  6
Continuous
 62
     0
370
     0
100
AcDbSpline
210
0.0
220
0.0
230
1.0
 70
     8
 71
     3
 72
    51
 73
    47
 74
     0
 42
0.000000001
 43
0.0
 40
-0.2491209316782168
 40
-0.2491209316782168
 40
-0.2491209316782168
 40
-0.2491209316782168
 40
0.0172888062846326
 40
0.283698544247482
 40
0.5361759639872332
 40
0.7886533837269845
 40
1.264355812211928
 40
1.711704342385453
 40
2.135531527316182
 40
2.54362909265288
 40
2.84136522546549
 40
3.139101358278097
 40
3.436837491090706
 40
3.734573623903316
 40
4.121595013275554
 40
4.508616402647792
 40
4.895637792020031
 40
5.271219299416476
 40
5.646800806812919
 40
6.022382314209363
 40
6.387999205790502
 40
6.753616097371641
 40
7.119232988952779
 40
7.475968387484169
 40
7.832703786015561
 40
8.18943918454695
 40
8.537644531245798
 40
8.885849877944647
 40
9.234055224643495
 40
9.573470127642883
 40
9.91288503064227
 40
10.25229993364166
 40
10.58456709066627
 40
10.91683424769088
 40
11.24910140471549
 40
11.5770298933331
 40
11.90495838195071
 40
12.23288687056831
 40
12.55829547015987
 40
12.88370406975143
 40
13.20911266934299
 40
13.53228223902436
 40
13.85545180870572
 40
14.17862137838709
 40
14.49864090275107
 40
14.77421567618841
 40
14.77421567618841
 40
14.77421567618841
 40
14.77421567618841
 10
143.8938480088494
 20
424.9385481274453
 30
0.0
 10
143.8755461979371
 20
424.9664936456059
 30
0.0
 10
143.839608884386
 20
425.0222562351339
 30
0.0
 10
143.7874738495553
 20
425.1058642595565
 30
0.0
 10
143.7359752574223
 20
425.1910720854235
 30
0.0
 10
143.6699677204804
 20
425.3036914051481
 30
0.0
 10
143.5896076359044
 20
425.4469355020162
 30
0.0
 10
143.493317334971
 20
425.6281572653349
 30
0.0
 10
143.3979938257249
 20
425.816533576203
 30
0.0
 10
143.3119737414858
 20
425.994202558132
 30
0.0
 10
143.2369416354279
 20
426.1547951783004
 30
0.0
 10
143.1713440075394
 20
426.2994825972576
 30
0.0
 10
143.1070718308621
 20
426.4456115070177
 30
0.0
 10
143.0379893200496
 20
426.6075882359889
 30
0.0
 10
142.9648500999839
 20
426.7854086651862
 30
0.0
 10
142.8881155965865
 20
426.9799286824652
 30
0.0
 10
142.8143899500277
 20
427.1749045266499
 30
0.0
 10
142.7433805534626
 20
427.3707467207289
 30
0.0
 10
142.675075918145
 20
427.5672131229453
 30
0.0
 10
142.6094060849335
 20
427.7643689463823
 30
0.0
 10
142.5463641485196
 20
427.9619993533984
 30
0.0
 10
142.4858693449942
 20
428.1600575452273
 30
0.0
 10
142.4278112676068
 20
428.358724173459
 30
0.0
 10
142.3721183570086
 20
428.5579590002258
 30
0.0
 10
142.3187206444557
 20
428.757740235553
 30
0.0
 10
142.2675550612329
 20
428.9581385544539
 30
0.0
 10
142.218555814963
 20
429.1591320798118
 30
0.0
 10
142.1716069918974
 20
429.3609208717601
 30
0.0
 10
142.1266270237262
 20
429.5636744978026
 30
0.0
 10
142.0835050313328
 20
429.7675690191745
 30
0.0
 10
142.0422117526031
 20
429.9724150576365
 30
0.0
 10
142.0026723395574
 20
430.1783974796206
 30
0.0
 10
141.9648651469336
 20
430.3853513901092
 30
0.0
 10
141.9288141422623
 20
430.5928032033062
 30
0.0
 10
141.894460336028
 20
430.8009032522664
 30
0.0
 10
141.8618393400845
 20
431.009220797047
 30
0.0
 10
141.8309553308463
 20
431.2174897380351
 30
0.0
 10
141.8017684569849
 20
431.4258408877852
 30
0.0
 10
141.7742923827894
 20
431.6340221252774
 30
0.0
 10
141.7485054961355
 20
431.8419348155628
 30
0.0
 10
141.7243856086883
 20
432.0495423396533
 30
0.0
 10
141.701912968886
 20
432.2567487329115
 30
0.0
 10
141.6810349248194
 20
432.4640449531121
 30
0.0
 10
141.6617228155863
 20
432.6717230366489
 30
0.0
 10
141.6447416667816
 20
432.8706347035841
 30
0.0
 10
141.6345694998413
 20
432.9999651694131
 30
0.0
 10
141.6300433288602
 20
433.0597963932128
 30
0.0
  0
SPLINE
  5
DA
330
D8
100
AcDbEntity
  8
0
  6
Continuous
 62
     0
370
     0
100
AcDbSpline
210
0.0
220
0.0
230
1.0
 70
     8
 71
     3
 72
    10
 73
     6
 74
     0
 42
0.000000001
 43
0.0
 40
0.0
 40
0.0
 40
0.0
 40
0.0
 40
4.634227616789198
 40
9.274292988611274
 40
13.90926336161969
 40
13.90926336161969
 40
13.90926336161969
 40
13.90926336161969
 10
141.6300504833133
 20
433.0597018208407
 30
0.0
 10
141.5953012330294
 20
433.0373837673351
 30
0.0
 10
141.0098989335794
 20
432.983884524331
 30
0.0
 10
138.7231678464879
 20
432.7829851458675
 30
0.0
 10
136.4157909596796
 20
432.4180118157071
 30
0.0
 10
135.1435650354809
 20
432.1531376608748
 30
0.0
  0
SPLINE
  5
DB
330
D8
100
AcDbEntity
  8
0
  6
Continuous
 62
     0
370
     0
100
AcDbSpline
210
0.0
220
0.0
230
1.0
 70
     8
 71
     3
 72
    49
 73
    45
 74
     0
 42
0.000000001
 43
0.0
 40
2.032231000806121
 40
2.032231000806121
 40
2.032231000806121
 40
2.032231000806121
 40
2.220496446246721
 40
2.5405159706107
 40
2.860535494974679
 40
3.183705064656046
 40
3.506874634337414
 40
3.830044204018781
 40
4.155452803610339
 40
4.480861403201897
 40
4.806270002793455
 40
5.134198491411063
 40
5.462126980028669
 40
5.790055468646277
 40
6.122322625670888
 40
6.454589782695499
 40
6.78685693972011
 40
7.126271842719498
 40
7.465686745718886
 40
7.805101648718274
 40
8.153306995417122
 40
8.501512342115971
 40
8.849717688814819
 40
9.206453087346208
 40
9.5631884858776
 40
9.91992388440899
 40
10.28554077599013
 40
10.65115766757127
 40
11.01677455915241
 40
11.39235606654885
 40
11.76793757394529
 40
12.14351908134174
 40
12.53054047071398
 40
12.91756186008621
 40
13.30458324945845
 40
13.70156475987526
 40
14.09854627029208
 40
14.49552778070889
 40
14.90362534604559
 40
15.32745253097632
 40
15.77480106114984
 40
16.25050348963478
 40
16.75545832911429
 40
17.28827780503999
 40
17.28827780503999
 40
17.28827780503999
 40
17.28827780503999
 10
135.1435651998301
 20
432.1531361875504
 30
0.0
 10
135.1502058090076
 20
432.0936057843337
 30
0.0
 10
135.1683481206358
 20
431.9329764329282
 30
0.0
 10
135.1988657726655
 20
431.6715613502413
 30
0.0
 10
135.2357725789935
 20
431.3681233317363
 30
0.0
 10
135.2742561829041
 20
431.064242777227
 30
0.0
 10
135.3143631400638
 20
430.7599804368554
 30
0.0
 10
135.356094200602
 20
430.4556763991582
 30
0.0
 10
135.3994919884628
 20
430.151388119195
 30
0.0
 10
135.4445828233872
 20
429.8471453402299
 30
0.0
 10
135.4914011419458
 20
429.5428882657986
 30
0.0
 10
135.5399752802001
 20
429.2386480969856
 30
0.0
 10
135.5903292686294
 20
428.9344468813563
 30
0.0
 10
135.642577087641
 20
428.6297428505179
 30
0.0
 10
135.6967539782572
 20
428.3245640151795
 30
0.0
 10
135.7529038364733
 20
428.0189365966244
 30
0.0
 10
135.8112228481433
 20
427.7120225844922
 30
0.0
 10
135.8717735699347
 20
427.4038579738169
 30
0.0
 10
135.9346451939645
 20
427.0945130628593
 30
0.0
 10
136.0000131993493
 20
426.7835518979809
 30
0.0
 10
136.0679819258257
 20
426.4710547995462
 30
0.0
 10
136.1386714201765
 20
426.1571397910773
 30
0.0
 10
136.2121591774372
 20
425.8419906806464
 30
0.0
 10
136.2885693868211
 20
425.5257322507148
 30
0.0
 10
136.3680081428156
 20
425.2084735657725
 30
0.0
 10
136.4505814624614
 20
424.8902043439514
 30
0.0
 10
136.5364026498996
 20
424.5710419180677
 30
0.0
 10
136.6255857300849
 20
424.2511123709673
 30
0.0
 10
136.7183051211858
 20
423.9302085568972
 30
0.0
 10
136.8146889417168
 20
423.6084707846869
 30
0.0
 10
136.9148531274699
 20
423.2860241450728
 30
0.0
 10
137.0190116353637
 20
422.9625486774419
 30
0.0
 10
137.1272981434053
 20
422.6381867552955
 30
0.0
 10
137.2398914964207
 20
422.3131799905536
 30
0.0
 10
137.3567791685989
 20
421.9881502879005
 30
0.0
 10
137.4781339612232
 20
421.6633440886549
 30
0.0
 10
137.6040309342031
 20
421.3388553478192
 30
0.0
 10
137.7346262799073
 20
421.0144285347094
 30
0.0
 10
137.8717612964058
 20
420.6859657070022
 30
0.0
 10
138.0180667636409
 20
420.3466684095665
 30
0.0
 10
138.1760851370715
 20
419.9922181602587
 30
0.0
 10
138.3482825413632
 20
419.6203794018063
 30
0.0
 10
138.5371838130458
 20
419.2306969851729
 30
0.0
 10
138.6701122337899
 20
418.9704823012589
 30
0.0
 10
138.7408023792267
 20
418.8359640801623
 30
0.0
  0
SPLINE
  5
DC
330
D8
100
AcDbEntity
  8
0
  6
Continuous
 62
     0
370
     0
100
AcDbSpline
210
0.0
220
0.0
230
1.0
 70
     8
 71
     3
 72
     8
 73
     4
 74
     0
 42
0.000000001
 43
0.0
 40
0.0
 40
0.0
 40
0.0
 40
0.0
 40
47.29239173494235
 40
47.29239173494235
 40
47.29239173494235
 40
47.29239173494235
 10
143.8938480088494
 20
424.9385481274453
 30
0.0
 10
144.0534248453548
 20
425.5595669553443
 30
0.0
 10
144.2047134145018
 20
426.1806324254462
 30
0.0
 10
144.3997828911058
 20
426.801651874013
 30
0.0
  0
ARC
  5
DD
330
D8
100
AcDbEntity
  8
0
  6
Continuous
 62
     0
370
     0
100
AcDbCircle
 10
144.321361
 20
384.665975
 30
0.0
 40
48.4685988240929
100
AcDbArc
 50
91.881242
 51
93.183146
  0
LINE
  5
DE
330
D8
100
AcDbEntity
  8
0
  6
Continuous
 62
     0
370
     0
100
AcDbLine
 10
147.221165
 20
422.891066
 30
0.0
 11
147.220924
 21
425.096042
 31
0.0
  0
SPLINE
  5
DF
330
D8
100
AcDbEntity
  8
0
  6
Continuous
 62
     0
370
     0
100
AcDbSpline
210
0.0
220
0.0
230
1.0
 70
     8
 71
     3
 72
    51
 73
    47
 74
     0
 42
0.000000001
 43
0.0
 40
-0.2491813246247681
 40
-0.2491813246247681
 40
-0.2491813246247681
 40
-0.2491813246247681
 40
0.017162016540933
 40
0.2835053577066304
 40
0.535923783967398
 40
0.7883422102281656
 40
1.263942214575966
 40
1.711200586147008
 40
2.134942605630988
 40
2.542951826897269
 40
2.840615940018559
 40
3.138280053139848
 40
3.435944166261139
 40
3.733608279382429
 40
4.120540898350511
 40
4.507473517318592
 40
4.894406136286674
 40
5.269903759059908
 40
5.645401381833143
 40
6.020899004606378
 40
6.386435538439976
 40
6.751972072273571
 40
7.117508606107169
 40
7.474166979734076
 40
7.83082535336098
 40
8.187483726987887
 40
8.535617365607935
 40
8.883751004227982
 40
9.23188464284803
 40
9.571231343209172
 40
9.910578043570315
 40
10.24992474393146
 40
10.58212092434274
 40
10.91431710475403
 40
11.24651328516531
 40
11.57436584635076
 40
11.90221840753621
 40
12.23007096872165
 40
12.55540209399189
 40
12.88073321926212
 40
13.20606434453236
 40
13.52915835777935
 40
13.85225237102633
 40
14.17534638427331
 40
14.49529944136774
 40
14.77103057224742
 40
14.77103057224742
 40
14.77103057224742
 40
14.77103057224742
 10
150.548658216061
 20
424.9385561391794
 30
0.0
 10
150.5669550943503
 20
424.9664940115154
 30
0.0
 10
150.602882933996
 20
425.0222414419479
 30
0.0
 10
150.6550046522111
 20
425.1058266834568
 30
0.0
 10
150.7064900688507
 20
425.1910105938364
 30
0.0
 10
150.7724811291368
 20
425.3035981721621
 30
0.0
 10
150.8528208137523
 20
425.4467999399565
 30
0.0
 10
150.9490853985688
 20
425.6279639372692
 30
0.0
 10
151.044383601192
 20
425.8162791661182
 30
0.0
 10
151.1303830900121
 20
425.9938939716196
 30
0.0
 10
151.2053992394189
 20
426.1544408529041
 30
0.0
 10
151.2709839263149
 20
426.299088083181
 30
0.0
 10
151.3352444658306
 20
426.445177372075
 30
0.0
 10
151.4043152392656
 20
426.607110370798
 30
0.0
 10
151.4774419422464
 20
426.7848806785814
 30
0.0
 10
151.554163570851
 20
426.9793442741429
 30
0.0
 10
151.6278774770372
 20
427.1742629005369
 30
0.0
 10
151.6988766700212
 20
427.3700481666908
 30
0.0
 10
151.7671724618025
 20
427.5664577031337
 30
0.0
 10
151.8328345925877
 20
427.7635562261435
 30
0.0
 10
151.8958698140102
 20
427.9611286810587
 30
0.0
 10
151.9563589035371
 20
428.1591284879585
 30
0.0
 10
152.0144122929423
 20
428.3577364392493
 30
0.0
 10
152.0701015544276
 20
428.5569124969402
 30
0.0
 10
152.1234964762826
 20
428.7566343449093
 30
0.0
 10
152.1746600642242
 20
428.9569725002261
 30
0.0
 10
152.2236579321125
 20
429.1579046202392
 30
0.0
 10
152.2706059679598
 20
429.3596308375566
 30
0.0
 10
152.3155856481091
 20
429.5623204062263
 30
0.0
 10
152.3587078374441
 20
429.7661494531924
 30
0.0
 10
152.4000019928696
 20
429.9709298327114
 30
0.0
 10
152.4395429305494
 20
430.1768462589125
 30
0.0
 10
152.4773525071577
 20
430.3837349191756
 30
0.0
 10
152.5134068167815
 20
430.591122887171
 30
0.0
 10
152.5477648696827
 20
430.799160669703
 30
0.0
 10
152.5803911341263
 20
431.0074181773607
 30
0.0
 10
152.6112812937203
 20
431.2156280590032
 30
0.0
 10
152.6404751832358
 20
431.4239206315012
 30
0.0
 10
152.6679589898092
 20
431.6320425956237
 30
0.0
 10
152.6937543649117
 20
431.8398966742834
 30
0.0
 10
152.7178836238271
 20
432.0474483327062
 30
0.0
 10
152.7403665369869
 20
432.2546029342777
 30
0.0
 10
152.7612552731063
 20
432.4618438059858
 30
0.0
 10
152.7805781489791
 20
432.6694569786089
 30
0.0
 10
152.7975730998196
 20
432.8683367597503
 30
0.0
 10
152.8077554514852
 20
432.9976659713727
 30
0.0
 10
152.812288216935
 20
433.0575241220558
 30
0.0
  0
SPLINE
  5
E0
330
D8
100
AcDbEntity
  8
0
  6
Continuous
 62
     0
370
     0
100
AcDbSpline
210
0.0
220
0.0
230
1.0
 70
     8
 71
     3
 72
    10
 73
     6
 74
     0
 42
0.000000001
 43
0.0
 40
0.0
 40
0.0
 40
0.0
 40
0.0
 40
4.634265232765267
 40
9.274351897431163
 40
13.90932365833866
 40
13.90932365833866
 40
13.90932365833866
 40
13.90932365833866
 10
152.8122811257138
 20
433.0574304797526
 30
0.0
 10
152.8470448364584
 20
433.0350975806314
 30
0.0
 10
153.4324629610292
 20
432.9812881961764
 30
0.0
 10
155.7191465807361
 20
432.7789879341067
 30
0.0
 10
158.0264464003347
 20
432.4125826427114
 30
0.0
 10
159.2985968027614
 20
432.1469841288647
 30
0.0
  0
SPLINE
  5
E1
330
D8
100
AcDbEntity
  8
0
  6
Continuous
 62
     0
370
     0
100
AcDbSpline
210
0.0
220
0.0
230
1.0
 70
     8
 71
     3
 72
    49
 73
    45
 74
     0
 42
0.000000001
 43
0.0
 40
2.034582187951286
 40
2.034582187951286
 40
2.034582187951286
 40
2.034582187951286
 40
2.220107965080948
 40
2.540061022175372
 40
2.860014079269796
 40
3.18310809251678
 40
3.506202105763765
 40
3.82929611901075
 40
4.154627244280986
 40
4.479958369551222
 40
4.805289494821459
 40
5.133142056006906
 40
5.460994617192354
 40
5.788847178377801
 40
6.121043358789085
 40
6.45323953920037
 40
6.785435719611653
 40
7.124782419972796
 40
7.464129120333938
 40
7.803475820695081
 40
8.151609459315129
 40
8.499743097935175
 40
8.847876736555223
 40
9.20453511018213
 40
9.561193483809035
 40
9.917851857435942
 40
10.28338839126954
 40
10.64892492510314
 40
11.01446145893673
 40
11.38995908170997
 40
11.7654567044832
 40
12.14095432725644
 40
12.52788694622452
 40
12.9148195651926
 40
13.30175218416068
 40
13.6986376683224
 40
14.09552315248412
 40
14.49240863664584
 40
14.90041785791212
 40
15.3241598773961
 40
15.77141824896714
 40
16.24701825331494
 40
16.75185510583648
 40
17.28454178816788
 40
17.28454178816788
 40
17.28454178816788
 40
17.28454178816788
 10
159.2985968027614
 20
432.1469841288647
 30
0.0
 10
159.2920470900845
 20
432.0883229592787
 30
0.0
 10
159.2739925489818
 20
431.928586578297
 30
0.0
 10
159.2435662555357
 20
431.6680854769484
 30
0.0
 10
159.2066507301999
 20
431.3647217709856
 30
0.0
 10
159.1681583652086
 20
431.060919649065
 30
0.0
 10
159.1280430098424
 20
430.7567393580234
 30
0.0
 10
159.0863040146042
 20
430.4525182259924
 30
0.0
 10
159.0428991342273
 20
430.1483132047981
 30
0.0
 10
158.9978020176552
 20
429.8441540926708
 30
0.0
 10
158.9509780200421
 20
429.5399800770233
 30
0.0
 10
158.9023987532802
 20
429.2358224249026
 30
0.0
 10
158.8520402082563
 20
428.9317031121147
 30
0.0
 10
158.7997882194295
 20
428.6270792672565
 30
0.0
 10
158.7456075494744
 20
428.321978837193
 30
0.0
 10
158.6894542437084
 20
428.0164280775382
 30
0.0
 10
158.6311321508933
 20
427.7095897044264
 30
0.0
 10
158.5705786682943
 20
427.4014997419001
 30
0.0
 10
158.5077045537428
 20
427.0922285828121
 30
0.0
 10
158.4423346573772
 20
426.7813422872005
 30
0.0
 10
158.3743646279027
 20
426.4689212563651
 30
0.0
 10
158.3036745151043
 20
426.1550834474535
 30
0.0
 10
158.2301870414464
 20
425.840013141381
 30
0.0
 10
158.1537781357691
 20
425.523835038432
 30
0.0
 10
158.0743418025323
 20
425.2066581126182
 30
0.0
 10
157.9917719479901
 20
424.8884714176634
 30
0.0
 10
157.9059553576819
 20
424.569392198214
 30
0.0
 10
157.8167780837425
 20
424.2495464619085
 30
0.0
 10
157.7240657722352
 20
423.9287270639447
 30
0.0
 10
157.6276903897648
 20
423.6070742299676
 30
0.0
 10
157.5275360822346
 20
423.28471295283
 30
0.0
 10
157.4233890634976
 20
422.9613235871443
 30
0.0
 10
157.3151157573998
 20
422.6370483892827
 30
0.0
 10
157.202537371874
 20
422.3121289900582
 30
0.0
 10
157.0856667053235
 20
421.9871879761145
 30
0.0
 10
156.9643310320452
 20
421.6624717895779
 30
0.0
 10
156.8384555884152
 20
421.3380738218623
 30
0.0
 10
156.7078828124842
 20
421.0137339739733
 30
0.0
 10
156.5707711303328
 20
420.6853531028628
 30
0.0
 10
156.4244898340782
 20
420.3461347372977
 30
0.0
 10
156.2664986453881
 20
419.9917661466477
 30
0.0
 10
156.0943336433625
 20
419.6200170435066
 30
0.0
 10
155.9054725609041
 20
419.2304340723065
 30
0.0
 10
155.7725744739713
 20
418.9702862482118
 30
0.0
 10
155.7019017201565
 20
418.8358038452091
 30
0.0
  0
SPLINE
  5
E2
330
D8
100
AcDbEntity
  8
0
  6
Continuous
 62
     0
370
     0
100
AcDbSpline
210
0.0
220
0.0
230
1.0
 70
     8
 71
     3
 72
     8
 73
     4
 74
     0
 42
0.000000001
 43
0.0
 40
0.0
 40
0.0
 40
0.0
 40
0.0
 40
47.29217280920905
 40
47.29217280920905
 40
47.29217280920905
 40
47.29217280920905
 10
150.548658216061
 20
424.9385561391796
 30
0.0
 10
150.3889205021574
 20
425.5595721204104
 30
0.0
 10
150.237470657507
 20
426.1806347448198
 30
0.0
 10
150.0422403555971
 20
426.8016513545019
 30
0.0
  0
ARC
  5
E3
330
D8
100
AcDbEntity
  8
0
  6
Continuous
 62
     0
370
     0
100
AcDbCircle
 10
150.094697
 20
384.638147
 30
0.0
 40
48.49558029808077
100
AcDbArc
 50
86.787538
 51
88.089296
  0
LINE
  5
E4
330
D8
100
AcDbEntity
  8
0
  6
Continuous
 62
     0
370
     0
100
AcDbLine
 10
147.221099
 20
425.096042
 30
0.0
 11
147.221043
 21
427.033661
 31
0.0
  0
SPLINE
  5
E5
330
D8
100
AcDbEntity
  8
0
  6
Continuous
 62
     0
370
     0
100
AcDbSpline
210
0.0
220
0.0
230
1.0
 70
     8
 71
     3
 72
    15
 73
    11
 74
     0
 42
0.000000001
 43
0.0
 40
0.0
 40
0.0
 40
0.0
 40
0.0
 40
0.957173388802488
 40
1.474993765255191
 40
2.008486163288228
 40
3.07152618144478
 40
4.125716756730592
 40
5.177493230808061
 40
6.229778854023345
 40
7.28134572491256
 40
7.28134572491256
 40
7.28134572491256
 40
7.28134572491256
 10
147.2210424508036
 20
427.0336607215247
 30
0.0
 10
147.5401001200981
 20
427.0334631347091
 30
0.0
 10
148.0426442849582
 20
427.0302919674725
 30
0.0
 10
148.6279625897927
 20
427.0169822380406
 30
0.0
 10
149.1353989859603
 20
426.9974183254608
 30
0.0
 10
149.55356796055
 20
426.9659813678322
 30
0.0
 10
149.8253314742907
 20
426.9256072240053
 30
0.0
 10
149.967041864034
 20
426.8845889718646
 30
0.0
 10
150.0281458354526
 20
426.8435024284604
 30
0.0
 10
150.0372654865562
 20
426.8142859740547
 30
0.0
 10
150.0422403714423
 20
426.8016514607141
 30
0.0
  0
LINE
  5
E6
330
D8
100
AcDbEntity
  8
0
  6
Continuous
 62
     0
370
     0
100
AcDbLine
 10
147.221042
 20
427.03366
 30
0.0
 11
147.220976
 21
433.175462
 31
0.0
  0
SPLINE
  5
E7
330
D8
100
AcDbEntity
  8
0
  6
Continuous
 62
     0
370
     0
100
AcDbSpline
210
0.0
220
0.0
230
1.0
 70
     8
 71
     3
 72
    19
 73
    15
 74
     0
 42
0.000000001
 43
0.0
 40
0.0
 40
0.0
 40
0.0
 40
0.0
 40
0.9402009945476232
 40
1.890374966926983
 40
2.807409653105338
 40
3.23893414388007
 40
3.715856908827084
 40
4.238792899061064
 40
4.717644179907224
 40
5.555328424118946
 40
6.970046455662803
 40
8.219710000794644
 40
9.458574664181844
 40
10.70064831550551
 40
10.70064831550551
 40
10.70064831550551
 40
10.70064831550551
 10
147.2209755728541
 20
433.1754624046378
 30
0.0
 10
147.5343758991283
 20
433.1754052461365
 30
0.0
 10
148.167206061568
 20
433.1632556181562
 30
0.0
 10
149.0523604090822
 20
433.1162606492187
 30
0.0
 10
149.6941631934072
 20
433.0678063247371
 30
0.0
 10
150.145159630865
 20
433.0291175416223
 30
0.0
 10
150.4691484206038
 20
433.0025439968174
 30
0.0
 10
150.7492080651907
 20
432.9903072135282
 30
0.0
 10
151.0258376897574
 20
432.9893379450634
 30
0.0
 10
151.3134713380257
 20
433.0076349869264
 30
0.0
 10
151.482878441551
 20
433.0516828434033
 30
0.0
 10
151.5925438537476
 20
433.083253805604
 30
0.0
 10
151.673143809477
 20
433.1026509612659
 30
0.0
 10
151.702742942536
 20
433.1070881890078
 30
0.0
 10
151.7116318885943
 20
433.1067640105812
 30
0.0
  0
SPLINE
  5
E8
330
D8
100
AcDbEntity
  8
0
  6
Continuous
 62
     0
370
     0
100
AcDbSpline
210
0.0
220
0.0
230
1.0
 70
     8
 71
     9
 72
    30
 73
    20
 74
     0
 42
0.000000001
 43
0.0
 40
0.0
 40
0.0
 40
0.0
 40
0.0
 40
0.0
 40
0.0
 40
0.0
 40
0.0
 40
0.0
 40
0.0
 40
3.648402924025719
 40
3.648402924025719
 40
3.648402924025719
 40
3.648402924025719
 40
3.648402924025719
 40
5.472604386038578
 40
5.472604386038578
 40
5.472604386038578
 40
5.472604386038578
 40
5.472604386038578
 40
7.296805848051437
 40
7.296805848051437
 40
7.296805848051437
 40
7.296805848051437
 40
7.296805848051437
 40
7.296805848051437
 40
7.296805848051437
 40
7.296805848051437
 40
7.296805848051437
 40
7.296805848051437
 10
144.3997828911058
 20
426.801651874013
 30
0.0
 10
144.4047991458191
 20
426.8176215264168
 30
0.0
 10
144.4098360292136
 20
426.8335910470355
 30
0.0
 10
144.4205871537872
 20
426.8495577181643
 30
0.0
 10
144.438257794913
 20
426.865520906834
 30
0.0
 10
144.4667902023857
 20
426.8814642374907
 30
0.0
 10
144.528551164732
 20
426.905330779919
 30
0.0
 10
144.6266973895456
 20
426.9290349547105
 30
0.0
 10
144.7777582914121
 20
426.9523901577754
 30
0.0
 10
145.0100790235089
 20
426.9745945699187
 30
0.0
 10
145.0977801974911
 20
426.9818270734518
 30
0.0
 10
145.2963045726668
 20
426.9958446815281
 30
0.0
 10
145.5474805582259
 20
427.008641918844
 30
0.0
 10
145.859605693191
 20
427.0192951458416
 30
0.0
 10
146.2236974736073
 20
427.0268409265716
 30
0.0
 10
146.4159872707285
 20
427.0297367477754
 30
0.0
 10
146.6141489191762
 20
427.0317846640726
 30
0.0
 10
146.8155429329867
 20
427.0330632998837
 30
0.0
 10
147.0182319045161
 20
427.033660276616
 30
0.0
 10
147.220920955848
 20
427.0336602369246
 30
0.0
  0
SPLINE
  5
E9
330
D8
100
AcDbEntity
  8
0
  6
Continuous
 62
     0
370
     0
100
AcDbSpline
210
0.0
220
0.0
230
1.0
 70
     8
 71
     3
 72
    19
 73
    15
 74
     0
 42
0.000000001
 43
0.0
 40
0.0
 40
0.0
 40
0.0
 40
0.0
 40
0.9402054167346446
 40
1.890358658256295
 40
2.807377551866938
 40
3.238900455450965
 40
3.715834606712846
 40
4.238813300967026
 40
4.717704532756521
 40
5.555439518190988
 40
6.970197808916828
 40
8.219881652221206
 40
9.458761040424454
 40
10.70084437334494
 40
10.70084437334494
 40
10.70084437334494
 40
10.70084437334494
 10
147.2209630969773
 20
433.1754624080581
 30
0.0
 10
146.9075612968161
 20
433.1755205199443
 30
0.0
 10
146.2747303838756
 20
433.1635993566667
 30
0.0
 10
145.3895586176387
 20
433.1169155255238
 30
0.0
 10
144.7477269874243
 20
433.0686852924775
 30
0.0
 10
144.2966913164965
 20
433.0301720517941
 30
0.0
 10
143.9726604337079
 20
433.0037034296686
 30
0.0
 10
143.6925624960929
 20
432.9915443238324
 30
0.0
 10
143.4159013071305
 20
432.990668814731
 30
0.0
 10
143.1282620535819
 20
433.0090836374459
 30
0.0
 10
142.9588969066193
 20
433.0532241074384
 30
0.0
 10
142.8492737964188
 20
433.0848657504353
 30
0.0
 10
142.7687062717104
 20
433.104314519672
 30
0.0
 10
142.7391205324918
 20
433.1087697060361
 30
0.0
 10
142.7302355459068
 20
433.1084500437801
 30
0.0
  0
SPLINE
  5
EA
330
D8
100
AcDbEntity
  8
0
  6
Continuous
 62
     0
370
    30
100
AcDbSpline
210
0.0
220
0.0
230
1.0
 70
     8
 71
     3
 72
    19
 73
    15
 74
     0
 42
0.000000001
 43
0.0
 40
0.0
 40
0.0
 40
0.0
 40
0.0
 40
1.201308529367107
 40
2.402747184967449
 40
3.604261195023195
 40
4.20520648542558
 40
4.806233988361022
 40
5.408078512926807
 40
6.01105082724652
 40
6.31496465085846
 40
6.619995787069243
 40
7.230942810196423
 40
7.844482882266558
 40
8.460019288708956
 40
8.460019288708956
 40
8.460019288708956
 40
8.460019288708956
 10
144.1422922236433
 20
434.7452870602949
 30
0.0
 10
144.1511043346789
 20
434.7457645613403
 30
0.0
 10
144.180334104619
 20
434.7473466880308
 30
0.0
 10
144.2571861299053
 20
434.7514165480266
 30
0.0
 10
144.3412245438394
 20
434.755741432704
 30
0.0
 10
144.4391055715163
 20
434.7606107607201
 30
0.0
 10
144.5563614778386
 20
434.7662592605609
 30
0.0
 10
144.742050365487
 20
434.7747508214577
 30
0.0
 10
144.9998297212712
 20
434.7854985186367
 30
0.0
 10
145.2822638693168
 20
434.7956816693041
 30
0.0
 10
145.5896933972259
 20
434.8055318281002
 30
0.0
 10
146.0214670850102
 20
434.8167302813825
 30
0.0
 10
146.6048801990108
 20
434.8261123869476
 30
0.0
 10
147.0161875204026
 20
434.8282757081909
 30
0.0
 10
147.2213663153797
 20
434.8282216349785
 30
0.0
  0
SPLINE
  5
EB
330
D8
100
AcDbEntity
  8
0
  6
Continuous
 62
     0
370
    30
100
AcDbSpline
210
0.0
220
0.0
230
1.0
 70
     8
 71
     3
 72
    19
 73
    15
 74
     0
 42
0.000000001
 43
0.0
 40
0.0
 40
0.0
 40
0.0
 40
0.0
 40
0.6155212461680514
 40
1.229045235639201
 40
1.839976234965928
 40
2.144999002640032
 40
2.448904921406438
 40
3.0518626949222
 40
3.653692696932374
 40
4.254705690234839
 40
4.855636365808048
 40
6.057120988631596
 40
7.258530204541062
 40
8.459809248800736
 40
8.459809248800736
 40
8.459809248800736
 40
8.459809248800736
 10
147.2213786682549
 20
434.8282216317216
 30
0.0
 10
147.4265524097942
 20
434.8281675150986
 30
0.0
 10
147.8378464667355
 20
434.8257874245526
 30
0.0
 10
148.4212287442992
 20
434.8160983602537
 30
0.0
 10
148.8529637979425
 20
434.8046734973896
 30
0.0
 10
149.1603552726334
 20
434.7946627832926
 30
0.0
 10
149.4427510519331
 20
434.7843324841405
 30
0.0
 10
149.7004959402018
 20
434.7734508365932
 30
0.0
 10
149.886183781042
 20
434.7648619208937
 30
0.0
 10
150.0034538604618
 20
434.7591512885958
 30
0.0
 10
150.1013645759442
 20
434.7542292979235
 30
0.0
 10
150.1854341962323
 20
434.7498589747701
 30
0.0
 10
150.2623180637293
 20
434.7457474655838
 30
0.0
 10
150.2915592545581
 20
434.7441497031921
 30
0.0
 10
150.3003750279226
 20
434.7436675646131
 30
0.0
  0
ARC
  5
EC
330
D8
100
AcDbEntity
  8
0
  6
Continuous
 62
     0
370
    30
100
AcDbCircle
 10
147.10464
 20
376.597827
 30
0.0
 40
58.23359423774647
100
AcDbArc
 50
85.741212
 51
86.85415
  0
ARC
  5
ED
330
D8
100
AcDbEntity
  8
0
  6
Continuous
 62
     0
370
    30
100
AcDbCircle
 10
147.460856
 20
380.880171
 30
0.0
 40
53.936634429362
100
AcDbArc
 50
77.875994
 51
85.780791
  0
SPLINE
  5
EE
330
D8
100
AcDbEntity
  8
0
  6
Continuous
 62
     0
370
    30
100
AcDbSpline
210
0.0
220
0.0
230
1.0
 70
     8
 71
     3
 72
    13
 73
     9
 74
     0
 42
0.000000001
 43
0.0
 40
86.4003488327632
 40
86.4003488327632
 40
86.4003488327632
 40
86.4003488327632
 40
87.97394791961561
 40
91.7566822502056
 40
95.54789920655986
 40
99.35263460253216
 40
103.1750576592479
 40
106.9757712402471
 40
106.9757712402471
 40
106.9757712402471
 40
106.9757712402471
 10
126.1910472608112
 20
430.8017899984395
 30
0.0
 10
126.1910508979446
 20
430.8017803809921
 30
0.0
 10
126.2610371844908
 20
430.8281148500615
 30
0.0
 10
126.7883329930842
 20
431.0272361709042
 30
0.0
 10
128.1240456768113
 20
431.5097119504078
 30
0.0
 10
130.083280792969
 20
432.1630851620571
 30
0.0
 10
132.5875392016151
 20
432.901400636589
 30
0.0
 10
134.5701095368652
 20
433.3880320969767
 30
0.0
 10
135.61919578385
 20
433.6126638899714
 30
0.0
  0
SPLINE
  5
EF
330
D8
100
AcDbEntity
  8
0
  6
Continuous
 62
     0
370
    30
100
AcDbSpline
210
0.0
220
0.0
230
1.0
 70
     8
 71
     3
 72
    13
 73
     9
 74
     0
 42
0.000000001
 43
0.0
 40
0.0
 40
0.0
 40
0.0
 40
0.0
 40
3.842553044939223
 40
7.664987140178404
 40
11.46970859298695
 40
15.2608840327312
 40
19.04363759555922
 40
20.61930027924547
 40
20.61930027924547
 40
20.61930027924547
 40
20.61930027924547
 10
158.7890703709714
 20
433.6137664994394
 30
0.0
 10
159.8509853170945
 20
433.3864976666243
 30
0.0
 10
161.8460573356385
 20
432.8961985845526
 30
0.0
 10
164.3594792539147
 20
432.1539092509865
 30
0.0
 10
166.318644693643
 20
431.4995992535453
 30
0.0
 10
167.6547930541728
 20
431.0163216905635
 30
0.0
 10
168.1823752230769
 20
430.816840369818
 30
0.0
 10
168.2524869419914
 20
430.7904304363471
 30
0.0
 10
168.2524912419618
 20
430.7904418113013
 30
0.0
  0
ARC
  5
F0
330
D8
100
AcDbEntity
  8
0
  6
Continuous
 62
     0
370
    30
100
AcDbCircle
 10
146.955536
 20
380.862191
 30
0.0
 40
53.95481650161929
100
AcDbArc
 50
94.189313
 51
102.090985
  0
ARC
  5
F1
330
D8
100
AcDbEntity
  8
0
  6
Continuous
 62
     0
370
    30
100
AcDbCircle
 10
147.306727
 20
376.63605
 30
0.0
 40
58.19533551792079
100
AcDbArc
 50
93.117058
 51
94.230233
  0
ARC
  5
F2
330
D8
100
AcDbEntity
  8
0
  6
Continuous
 62
     0
370
     0
100
AcDbCircle
 10
143.125236
 20
433.177182
 30
0.0
 40
1.499793979991848
100
AcDbArc
 50
94.252661
 51
184.492623
  0
ELLIPSE
  5
F3
330
D8
100
AcDbEntity
  8
0
  6
Continuous
 62
     0
370
     0
100
AcDbEllipse
 10
135.967054
 20
432.153136
 30
0.0
 11
-0.3131494043807352
 21
1.466948346239906
 31
0.0
210
0.0
220
0.0
230
1.0
 40
0.540457
 41
6.2831840027809
 42
7.739117077458834
  0
ELLIPSE
  5
F4
330
D8
100
AcDbEntity
  8
0
  6
Continuous
 62
     0
370
     0
100
AcDbEllipse
 10
158.475151
 20
432.146983
 30
0.0
 11
-0.3139180524611699
 21
-1.466784052387737
 31
0.0
210
0.0
220
0.0
230
1.0
 40
0.540385
 41
1.68593690930483
 42
3.141591447782272
  0
SPLINE
  5
F5
330
D8
100
AcDbEntity
  8
0
  6
Continuous
 62
     0
370
     0
100
AcDbSpline
210
0.0
220
0.0
230
1.0
 70
     8
 71
     3
 72
    12
 73
     8
 74
     0
 42
0.000000001
 43
0.0
 40
91.475264143946
 40
91.475264143946
 40
91.475264143946
 40
91.475264143946
 40
93.33620108921018
 40
97.63125829908257
 40
102.7397174449275
 40
108.130989611906
 40
113.4172894724584
 40
113.4172894724584
 40
113.4172894724584
 40
113.4172894724584
 10
169.2212927528104
 20
429.3876462391679
 30
0.0
 10
169.221290256605
 20
429.3876391799536
 30
0.0
 10
169.134150675761
 20
429.4182439935456
 30
0.0
 10
168.4466774322366
 20
429.6601971787734
 30
0.0
 10
166.5403845468613
 20
430.2971140168102
 30
0.0
 10
163.4511257168865
 20
431.2120211666406
 30
0.0
 10
160.7529570853959
 20
431.8569456581199
 30
0.0
 10
159.2985961097329
 20
432.1469827173237
 30
0.0
  0
SPLINE
  5
F6
330
D8
100
AcDbEntity
  8
0
  6
Continuous
 62
     0
370
     0
100
AcDbSpline
210
0.0
220
0.0
230
1.0
 70
     8
 71
     3
 72
    12
 73
     8
 74
     0
 42
0.000000001
 43
0.0
 40
0.0
 40
0.0
 40
0.0
 40
0.0
 40
5.594315440448668
 40
10.61069848511555
 40
15.10408009727379
 40
19.16112536503131
 40
21.94274486945
 40
21.94274486945
 40
21.94274486945
 40
21.94274486945
 10
135.1435657259822
 20
432.1531362539645
 30
0.0
 10
133.6043764993866
 20
431.8469681571055
 30
0.0
 10
130.9369389297698
 20
431.203992392569
 30
0.0
 10
128.0055304156401
 20
430.3364929102765
 30
0.0
 10
126.1920078400002
 20
429.7377452430658
 30
0.0
 10
125.3662822032671
 20
429.4497515677014
 30
0.0
 10
125.2214657241556
 20
429.3987118368269
 30
0.0
 10
125.2214780025841
 20
429.3986768920236
 30
0.0
  0
ARC
  5
F7
330
D8
100
AcDbEntity
  8
0
  6
Continuous
 62
     0
370
     0
100
AcDbCircle
 10
151.317105
 20
433.175025
 30
0.0
 40
1.499793595695301
100
AcDbArc
 50
355.503
 51
85.717047
  0
LINE
  5
F8
330
D8
100
AcDbEntity
  8
0
  6
Continuous
 62
     0
370
     0
100
AcDbLine
 10
147.220931
 20
433.175462
 30
0.0
 11
147.221366
 21
434.828222
 31
0.0
  0
LINE
  5
F9
330
D8
100
AcDbEntity
  8
0
  6
Continuous
 62
     0
370
    30
100
AcDbLine
 10
147.221297
 20
403.796372
 30
0.0
 11
126.539253
 21
403.796371
 31
0.0
  0
SPLINE
  5
FA
330
D8
100
AcDbEntity
  8
0
  6
Continuous
 62
     0
370
    30
100
AcDbSpline
210
0.0
220
0.0
230
1.0
 70
     8
 71
     3
 72
     9
 73
     5
 74
     0
 42
0.000000001
 43
0.0
 40
0.0
 40
0.0
 40
0.0
 40
0.0
 40
4.158825118104418
 40
7.660791226305937
 40
7.660791226305937
 40
7.660791226305937
 40
7.660791226305937
 10
126.5392530280114
 20
403.7963706687515
 30
0.0
 10
126.0666658538236
 20
403.7963706320886
 30
0.0
 10
125.4222545606231
 20
403.8758489999654
 30
0.0
 10
125.2214215444031
 20
404.1211554237551
 30
0.0
 10
125.2214184186985
 20
404.2672461270903
 30
0.0
  0
SPLINE
  5
FB
330
D8
100
AcDbEntity
  8
0
  6
Continuous
 62
     0
370
    30
100
AcDbSpline
210
0.0
220
0.0
230
1.0
 70
     8
 71
     3
 72
     9
 73
     5
 74
     0
 42
0.000000001
 43
0.0
 40
21.45644957510447
 40
21.45644957510447
 40
21.45644957510447
 40
21.45644957510447
 40
24.95870119173145
 40
29.11752654309027
 40
29.11752654309027
 40
29.11752654309027
 40
29.11752654309027
 10
169.2213991674255
 20
404.2672813543358
 30
0.0
 10
169.2213991822687
 20
404.1211731933163
 30
0.0
 10
169.0205492231919
 20
403.8758518224955
 30
0.0
 10
168.3760883950729
 20
403.7963741254453
 30
0.0
 10
167.9034878536849
 20
403.7963740840671
 30
0.0
  0
LINE
  5
FC
330
D8
100
AcDbEntity
  8
0
  6
Continuous
 62
     0
370
    30
100
AcDbLine
 10
167.903488
 20
403.796374
 30
0.0
 11
147.221297
 21
403.796372
 31
0.0
  0
LINE
  5
FD
330
D8
100
AcDbEntity
  8
0
  6
Continuous
 62
     0
370
     0
100
AcDbLine
 10
147.221312
 20
422.891066
 30
0.0
 11
147.221297
 21
413.104155
 31
0.0
  0
SPLINE
  5
FE
330
D8
100
AcDbEntity
  8
0
  6
Continuous
 62
     0
370
     0
100
AcDbSpline
210
0.0
220
0.0
230
1.0
 70
     8
 71
     9
 72
    30
 73
    20
 74
     0
 42
0.000000001
 43
0.0
 40
0.2499999949532693
 40
0.2499999949532693
 40
0.2499999949532693
 40
0.2499999949532693
 40
0.2499999949532693
 40
0.2499999949532693
 40
0.2499999949532693
 40
0.2499999949532693
 40
0.2499999949532693
 40
0.2499999949532693
 40
0.37499999475916
 40
0.37499999475916
 40
0.37499999475916
 40
0.37499999475916
 40
0.37499999475916
 40
0.499999995807328
 40
0.499999995807328
 40
0.499999995807328
 40
0.499999995807328
 40
0.499999995807328
 40
0.7206857518207923
 40
0.7206857518207923
 40
0.7206857518207923
 40
0.7206857518207923
 40
0.7206857518207923
 40
0.7206857518207923
 40
0.7206857518207923
 40
0.7206857518207923
 40
0.7206857518207923
 40
0.7206857518207923
 10
150.0422403555971
 20
426.8016513545017
 30
0.0
 10
150.134030082735
 20
426.9720301422656
 30
0.0
 10
150.2175918549032
 20
427.1468416516807
 30
0.0
 10
150.2935455249775
 20
427.3251660340018
 30
0.0
 10
150.3625470599196
 20
427.5062794468631
 30
0.0
 10
150.4369608247648
 20
427.6846556132743
 30
0.0
 10
150.5795511393723
 20
428.0445409711328
 30
0.0
 10
150.714751330797
 20
428.4073026359097
 30
0.0
 10
150.8416827883147
 20
428.7730539046668
 30
0.0
 10
150.9595695918375
 20
429.1417944667639
 30
0.0
 10
151.0161637777202
 20
429.326904347887
 30
0.0
 10
151.1659657131221
 20
429.8408253755649
 30
0.0
 10
151.2967343134894
 20
430.3601075201793
 30
0.0
 10
151.40745600164
 20
430.8841282430631
 30
0.0
 10
151.4980177427879
 20
431.4119650641942
 30
0.0
 10
151.5512582475265
 20
431.7495470346264
 30
0.0
 10
151.5996160633204
 20
432.087854920281
 30
0.0
 10
151.642576892808
 20
432.4268896699723
 30
0.0
 10
151.6799302213135
 20
432.7665622748277
 30
0.0
 10
151.7116318885943
 20
433.1067640105812
 30
0.0
  0
SPLINE
  5
FF
330
D8
100
AcDbEntity
  8
0
  6
Continuous
 62
     0
370
     0
100
AcDbSpline
210
0.0
220
0.0
230
1.0
 70
     8
 71
     9
 72
    20
 73
    10
 74
     0
 42
0.000000001
 43
0.0
 40
0.0
 40
0.0
 40
0.0
 40
0.0
 40
0.0
 40
0.0
 40
0.0
 40
0.0
 40
0.0
 40
0.0
 40
0.2499999949532693
 40
0.2499999949532693
 40
0.2499999949532693
 40
0.2499999949532693
 40
0.2499999949532693
 40
0.2499999949532693
 40
0.2499999949532693
 40
0.2499999949532693
 40
0.2499999949532693
 40
0.2499999949532693
 10
147.2210985405293
 20
425.0960419777919
 30
0.0
 10
147.6081607244687
 20
425.0960418572554
 30
0.0
 10
147.9952229161723
 20
425.1356040459284
 30
0.0
 10
148.377662531866
 20
425.2228343387364
 30
0.0
 10
148.7475466695701
 20
425.3665082669315
 30
0.0
 10
149.0911941568857
 20
425.5775776521748
 30
0.0
 10
149.3878077169774
 20
425.8399300878341
 30
0.0
 10
149.6421696289154
 20
426.1378670946881
 30
0.0
 10
149.8586608993634
 20
426.4608937772982
 30
0.0
 10
150.0422403555971
 20
426.8016513545017
 30
0.0
  0
SPLINE
  5
100
330
D8
100
AcDbEntity
  8
0
  6
Continuous
 62
     0
370
     0
100
AcDbSpline
210
0.0
220
0.0
230
1.0
 70
     8
 71
     3
 72
    16
 73
    12
 74
     0
 42
0.000000001
 43
0.0
 40
0.0
 40
0.0
 40
0.0
 40
0.0
 40
1.539730160996509
 40
3.080508527384353
 40
4.623334042753824
 40
5.39522303958897
 40
6.166796943361055
 40
6.938584681441844
 40
7.71034381318089
 40
9.253414127036839
 40
10.7966984328055
 40
10.7966984328055
 40
10.7966984328055
 40
10.7966984328055
 10
147.2212966132799
 20
413.1041548055414
 30
0.0
 10
147.7345348485534
 20
413.1018552088995
 30
0.0
 10
148.7667103287102
 20
413.2260656774552
 30
0.0
 10
150.2145682931436
 20
413.7639307631309
 30
0.0
 10
151.3194898898271
 20
414.4000767651139
 30
0.0
 10
152.1653436218979
 20
414.9565980288357
 30
0.0
 10
152.7746886391526
 20
415.4074882951568
 30
0.0
 10
153.3358254501005
 20
415.9154064763345
 30
0.0
 10
154.0477921330353
 20
416.626407279075
 30
0.0
 10
154.8612257870572
 20
417.5853392889114
 30
0.0
 10
155.4340576366496
 20
418.4110977585635
 30
0.0
 10
155.7019017201565
 20
418.8358038452091
 30
0.0
  0
SPLINE
  5
101
330
D8
100
AcDbEntity
  8
0
  6
Continuous
 62
     0
370
     0
100
AcDbSpline
210
0.0
220
0.0
230
1.0
 70
     8
 71
     3
 72
    16
 73
    12
 74
     0
 42
0.000000001
 43
0.0
 40
0.0
 40
0.0
 40
0.0
 40
0.0
 40
1.543284002504875
 40
3.086353918586423
 40
3.858114764015034
 40
4.629894105402458
 40
5.401536259293344
 40
6.173306702456757
 40
7.716191491582625
 40
9.256961009899756
 40
10.79668977389726
 40
10.79668977389726
 40
10.79668977389726
 40
10.79668977389726
 10
138.7408023792267
 20
418.8359640801623
 30
0.0
 10
139.0086335816141
 20
418.4112490206887
 30
0.0
 10
139.5814460199863
 20
417.585479973578
 30
0.0
 10
140.3948215858616
 20
416.6264854134677
 30
0.0
 10
141.1068216993437
 20
415.9155365508225
 30
0.0
 10
141.6678398411597
 20
415.4074289098801
 30
0.0
 10
142.2774381076442
 20
414.9569383680428
 30
0.0
 10
143.1229092887544
 20
414.3998194061712
 30
0.0
 10
144.2280563309773
 20
413.7640904367054
 30
0.0
 10
145.6758288522199
 20
413.2260382050486
 30
0.0
 10
146.7080207960361
 20
413.101858426546
 30
0.0
 10
147.2212585792744
 20
413.1041549766467
 30
0.0
  0
SPLINE
  5
102
330
D8
100
AcDbEntity
  8
0
  6
Continuous
 62
     0
370
     0
100
AcDbSpline
210
0.0
220
0.0
230
1.0
 70
     8
 71
     9
 72
    30
 73
    20
 74
     0
 42
0.000000001
 43
0.0
 40
0.2499999949532689
 40
0.2499999949532689
 40
0.2499999949532689
 40
0.2499999949532689
 40
0.2499999949532689
 40
0.2499999949532689
 40
0.2499999949532689
 40
0.2499999949532689
 40
0.2499999949532689
 40
0.2499999949532689
 40
0.37499999475916
 40
0.37499999475916
 40
0.37499999475916
 40
0.37499999475916
 40
0.37499999475916
 40
0.499999995807328
 40
0.499999995807328
 40
0.499999995807328
 40
0.499999995807328
 40
0.499999995807328
 40
0.7208072156149158
 40
0.7208072156149158
 40
0.7208072156149158
 40
0.7208072156149158
 40
0.7208072156149158
 40
0.7208072156149158
 40
0.7208072156149158
 40
0.7208072156149158
 40
0.7208072156149158
 40
0.7208072156149158
 10
144.3997828911058
 20
426.801651874013
 30
0.0
 10
144.307993195343
 20
426.9720306786794
 30
0.0
 10
144.2244314553624
 20
427.1468422034818
 30
0.0
 10
144.1484778181185
 20
427.3251665997893
 30
0.0
 10
144.0794763165163
 20
427.5062800253568
 30
0.0
 10
144.0050625845085
 20
427.6846562054707
 30
0.0
 10
143.8624723361521
 20
428.0445415895867
 30
0.0
 10
143.7272722115084
 20
428.4073032792596
 30
0.0
 10
143.6003408213256
 20
428.7730545713903
 30
0.0
 10
143.4824540856951
 20
429.1417951551957
 30
0.0
 10
143.4258599338968
 20
429.32690504674
 30
0.0
 10
143.2760054571761
 20
429.8410066787262
 30
0.0
 10
143.1451976943577
 20
430.3604731922808
 30
0.0
 10
143.0344512913161
 20
430.8846813920936
 30
0.0
 10
142.9438790851092
 20
431.4127077198814
 30
0.0
 10
142.890619408549
 20
431.7504768468834
 30
0.0
 10
142.842248484629
 20
432.0889729427233
 30
0.0
 10
142.799281907192
 20
432.4281967042127
 30
0.0
 10
142.7619296997706
 20
432.7680587274949
 30
0.0
 10
142.7302355459068
 20
433.1084500437801
 30
0.0
  0
SPLINE
  5
103
330
D8
100
AcDbEntity
  8
0
  6
Continuous
 62
     0
370
     0
100
AcDbSpline
210
0.0
220
0.0
230
1.0
 70
     8
 71
     9
 72
    20
 73
    10
 74
     0
 42
0.000000001
 43
0.0
 40
0.0
 40
0.0
 40
0.0
 40
0.0
 40
0.0
 40
0.0
 40
0.0
 40
0.0
 40
0.0
 40
0.0
 40
0.2499999949532689
 40
0.2499999949532689
 40
0.2499999949532689
 40
0.2499999949532689
 40
0.2499999949532689
 40
0.2499999949532689
 40
0.2499999949532689
 40
0.2499999949532689
 40
0.2499999949532689
 40
0.2499999949532689
 10
147.2209243920441
 20
425.0960419778078
 30
0.0
 10
146.8338622081047
 20
425.0960419285466
 30
0.0
 10
146.4468000235557
 20
425.1356041884947
 30
0.0
 10
146.0643604239474
 20
425.2228345517262
 30
0.0
 10
145.6944763127333
 20
425.3665085480334
 30
0.0
 10
145.3508288643264
 20
425.5775779965572
 30
0.0
 10
145.0542153525832
 20
425.8399304868358
 30
0.0
 10
144.7998534955375
 20
426.137867540529
 30
0.0
 10
144.5833622845895
 20
426.4608942630043
 30
0.0
 10
144.3997828911058
 20
426.801651874013
 30
0.0
  0
ELLIPSE
  5
104
330
D8
100
AcDbEntity
  8
0
  6
Continuous
 62
     0
370
     0
100
AcDbEllipse
 10
134.382684
 20
418.835964
 30
0.0
 11
9.473665970734093
 21
6.169844192780713
 31
0.0
210
0.0
220
0.0
230
1.0
 40
0.222286
 41
5.041306219209797
 42
6.252610579176079
  0
SPLINE
  5
105
330
D8
100
AcDbEntity
  8
0
  6
Continuous
 62
     0
370
     0
100
AcDbSpline
210
0.0
220
0.0
230
1.0
 70
     8
 71
     3
 72
    16
 73
    12
 74
     0
 42
0.000000001
 43
0.0
 40
0.0
 40
0.0
 40
0.0
 40
0.0
 40
0.7200721354848169
 40
1.381009099881515
 40
1.693473883852199
 40
1.994629261538789
 40
2.283432549630382
 40
2.568905394880826
 40
3.135464431981119
 40
3.678694852610641
 40
4.210774072366411
 40
4.210774072366411
 40
4.210774072366411
 40
4.210774072366411
 10
143.8938480088494
 20
424.9385481274453
 30
0.0
 10
144.023568362711
 20
424.7373069129937
 30
0.0
 10
144.2927442573542
 20
424.3648568343078
 30
0.0
 10
144.6735427008048
 20
423.9572380796069
 30
0.0
 10
144.9853955469771
 20
423.687289400787
 30
0.0
 10
145.2170587117612
 20
423.5139986218405
 30
0.0
 10
145.4574396260605
 20
423.3592220315534
 30
0.0
 10
145.7782841513122
 20
423.1874642696421
 30
0.0
 10
146.1759209707143
 20
423.0323738240243
 30
0.0
 10
146.6829951379891
 20
422.9174435272701
 30
0.0
 10
147.0438274665473
 20
422.8910652110394
 30
0.0
 10
147.2211872064586
 20
422.8910663479696
 30
0.0
  0
ELLIPSE
  5
106
330
D8
100
AcDbEntity
  8
0
  6
Continuous
 62
     0
370
     0
100
AcDbEllipse
 10
160.060084
 20
418.835804
 30
0.0
 11
-9.473917514411314
 21
6.170033028163483
 31
0.0
210
0.0
220
0.0
230
-1.0
 40
0.222283
 41
5.041301300067971
 42
6.252601744643406
  0
SPLINE
  5
107
330
D8
100
AcDbEntity
  8
0
  6
Continuous
 62
     0
370
     0
100
AcDbSpline
210
0.0
220
0.0
230
1.0
 70
     8
 71
     3
 72
    16
 73
    12
 74
     0
 42
0.000000001
 43
0.0
 40
0.0
 40
0.0
 40
0.0
 40
0.0
 40
0.7200536857649613
 40
1.380976754885794
 40
1.693435960656269
 40
1.994587343307333
 40
2.283388303449252
 40
2.568859007441618
 40
3.135416240560569
 40
3.678649730891579
 40
4.210733200687343
 40
4.210733200687343
 40
4.210733200687343
 40
4.210733200687343
 10
150.548658216061
 20
424.9385561391796
 30
0.0
 10
150.4189407717292
 20
424.7373184320361
 30
0.0
 10
150.1497697591653
 20
424.3648724856369
 30
0.0
 10
149.7689752313899
 20
423.9572539543601
 30
0.0
 10
149.4571226521368
 20
423.6873027110214
 30
0.0
 10
149.2254585385836
 20
423.514009568232
 30
0.0
 10
148.9850773986053
 20
423.3592311084599
 30
0.0
 10
148.6642294112708
 20
423.1874695825309
 30
0.0
 10
148.2665860054026
 20
423.0323755193674
 30
0.0
 10
147.7595079762922
 20
422.9174438768348
 30
0.0
 10
147.3986729222577
 20
422.8910652129061
 30
0.0
 10
147.2213117656646
 20
422.8910663479546
 30
0.0
  0
ARC
  5
108
330
D8
100
AcDbEntity
  8
0
  6
Continuous
 62
     0
370
     0
100
AcDbCircle
 10
150.218273
 20
433.246073
 30
0.0
 40
1.499843010080948
100
AcDbArc
 50
354.670534
 51
86.862022
  0
ARC
  5
109
330
D8
100
AcDbEntity
  8
0
  6
Continuous
 62
     0
370
     0
100
AcDbCircle
 10
144.223605
 20
433.24765
 30
0.0
 40
1.499843323581844
100
AcDbArc
 50
93.107782
 51
185.325248
  0
LINE
  5
10A
330
D8
100
AcDbEntity
  8
0
  6
Continuous
 62
     0
370
    30
100
AcDbLine
 10
125.121405
 20
400.796372
 30
0.0
 11
169.321405
 21
400.796372
 31
0.0
  0
ARC
  5
10B
330
D8
100
AcDbEntity
  8
0
  6
Continuous
 62
     0
370
    30
100
AcDbCircle
 10
58.221417
 20
391.49636
 30
0.0
 40
1.000011948424791
100
AcDbArc
 50
90.000685
 51
179.999315
  0
LINE
  5
10C
330
D8
100
AcDbEntity
  8
0
  6
Continuous
 62
     0
370
    30
100
AcDbLine
 10
57.221405
 20
391.496371
 30
0.0
 11
57.221405
 21
380.496371
 31
0.0
  0
LINE
  5
10D
330
D8
100
AcDbEntity
  8
0
  6
Continuous
 62
     0
370
    30
100
AcDbLine
 10
58.221405
 20
392.496371
 30
0.0
 11
236.221405
 21
392.496371
 31
0.0
  0
LINE
  5
10E
330
D8
100
AcDbEntity
  8
0
  6
Continuous
 62
     0
370
     0
100
AcDbLine
 10
57.221405
 20
391.496371
 30
0.0
 11
237.221405
 21
391.496371
 31
0.0
  0
LINE
  5
10F
330
D8
100
AcDbEntity
  8
0
  6
Continuous
 62
     0
370
    30
100
AcDbLine
 10
57.221405
 20
380.496371
 30
0.0
 11
237.221405
 21
380.496371
 31
0.0
  0
LINE
  5
110
330
D8
100
AcDbEntity
  8
0
  6
Continuous
 62
     0
370
    30
100
AcDbLine
 10
237.221405
 20
391.496371
 30
0.0
 11
237.221405
 21
380.496371
 31
0.0
  0
ARC
  5
111
330
D8
100
AcDbEntity
  8
0
  6
Continuous
 62
     0
370
    30
100
AcDbCircle
 10
236.221393
 20
391.49636
 30
0.0
 40
1.000011948521188
100
AcDbArc
 50
0.000685
 51
89.999315
  0
LINE
  5
112
330
D8
100
AcDbEntity
  8
0
  6
Continuous
 62
     0
370
    30
100
AcDbLine
 10
125.121405
 20
400.796372
 30
0.0
 11
125.121405
 21
392.496372
 31
0.0
  0
LINE
  5
113
330
D8
100
AcDbEntity
  8
0
  6
Continuous
 62
     0
370
    30
100
AcDbLine
 10
169.321405
 20
400.796372
 30
0.0
 11
169.321405
 21
392.496372
 31
0.0
  0
ARC
  5
114
330
D8
100
AcDbEntity
  8
0
  6
Continuous
 62
     0
370
    30
100
AcDbCircle
 10
147.325582
 20
399.426466
 30
0.0
 40
20.50000000016534
100
AcDbArc
 50
167.692042
 51
176.168371
  0
ARC
  5
115
330
D8
100
AcDbEntity
  8
0
  6
Continuous
 62
     0
370
    30
100
AcDbCircle
 10
147.117228
 20
399.426466
 30
0.0
 40
20.4999999988213
100
AcDbArc
 50
3.831629
 51
12.307968
  0
LINE
  5
116
330
D8
100
AcDbEntity
  8
0
  6
Continuous
 62
     0
370
    30
100
AcDbLine
 10
125.221407
 20
429.398804
 30
0.0
 11
125.221409
 21
404.26717
 31
0.0
  0
LINE
  5
117
330
D8
100
AcDbEntity
  8
0
  6
Continuous
 62
     0
370
    30
100
AcDbLine
 10
169.221407
 20
429.387643
 30
0.0
 11
169.221409
 21
404.267198
 31
0.0
  0
SPLINE
  5
118
330
D8
100
AcDbEntity
  8
0
  6
Continuous
 62
     0
370
    30
100
AcDbSpline
210
0.0
220
0.0
230
1.0
 70
     8
 71
     3
 72
    24
 73
    20
 74
     0
 42
0.000000001
 43
0.0
 40
0.0
 40
0.0
 40
0.0
 40
0.0
 40
0.5469610087581922
 40
0.8801124295460356
 40
1.102214152978338
 40
1.213265083634669
 40
1.324316037856722
 40
1.435373315957246
 40
1.546430549393849
 40
1.601990542678831
 40
1.65755040282733
 40
1.713257533752075
 40
1.770760774197591
 40
1.785029823928833
 40
1.808694922367069
 40
1.822925306589354
 40
1.860392485328384
 40
1.944363808213737
 40
2.501480676648373
 40
2.501480676648373
 40
2.501480676648373
 40
2.501480676648373
 10
125.2214780006649
 20
429.3986769036228
 30
0.0
 10
125.2214773931007
 20
429.580028594115
 30
0.0
 10
125.2756451682342
 20
429.8746675077236
 30
0.0
 10
125.445096813313
 20
430.2030159205899
 30
0.0
 10
125.581839991255
 20
430.3789071339788
 30
0.0
 10
125.6852214334227
 20
430.4850904311634
 30
0.0
 10
125.7684440652642
 20
430.5587840404826
 30
0.0
 10
125.8568664227712
 20
430.6261036279022
 30
0.0
 10
125.934567822283
 20
430.6766326177644
 30
0.0
 10
125.9987309260805
 20
430.7134706782756
 30
0.0
 10
126.0480749331056
 20
430.7394012144478
 30
0.0
 10
126.098287063605
 20
430.7635063609384
 30
0.0
 10
126.1381026626808
 20
430.780729337511
 30
0.0
 10
126.1627283429555
 20
430.7907481110974
 30
0.0
 10
126.1685651681191
 20
430.7930644346561
 30
0.0
 10
126.1789314416298
 20
430.7971383841329
 30
0.0
 10
126.1814468311384
 20
430.7980899006186
 30
0.0
 10
126.1988266941806
 20
430.8048013416808
 30
0.0
 10
126.2046636449528
 20
430.8069891654154
 30
0.0
 10
126.2047405054811
 20
430.8069605414191
 30
0.0
  0
SPLINE
  5
119
330
D8
100
AcDbEntity
  8
0
  6
Continuous
 62
     0
370
    30
100
AcDbSpline
210
0.0
220
0.0
230
1.0
 70
     8
 71
     3
 72
    22
 73
    18
 74
     0
 42
0.000000001
 43
0.0
 40
0.0
 40
0.0
 40
0.0
 40
0.0
 40
0.5466850176135035
 40
0.7687054271056314
 40
0.9907260183794695
 40
1.101736381901654
 40
1.21274680570453
 40
1.434767850247665
 40
1.545778470233083
 40
1.65679956862445
 40
1.767955516416828
 40
1.779808391677968
 40
1.791660593309728
 40
1.800327147634009
 40
1.808992258563449
 40
1.830950969699266
 40
1.935922474117064
 40
1.935922474117064
 40
1.935922474117064
 40
1.935922474117064
 10
169.2212927529878
 20
429.3876462402338
 30
0.0
 10
169.2212936795515
 20
429.5689074315155
 30
0.0
 10
169.1740020742606
 20
429.826302187055
 30
0.0
 10
169.0332912696725
 20
430.1259538125009
 30
0.0
 10
168.930577950111
 20
430.2805352509183
 30
0.0
 10
168.8354092724735
 20
430.3940610948962
 30
0.0
 10
168.7320720208969
 20
430.5002627247648
 30
0.0
 10
168.6175861789536
 20
430.5944640153812
 30
0.0
 10
168.4929822925093
 20
430.6754654959821
 30
0.0
 10
168.3969252808739
 20
430.728518810861
 30
0.0
 10
168.3224318159195
 20
430.7623924672923
 30
0.0
 10
168.2842364857974
 20
430.7780264182852
 30
0.0
 10
168.2734040481224
 20
430.7823526572756
 30
0.0
 10
168.268521707922
 20
430.7842715937936
 30
0.0
 10
168.2594247033467
 20
430.7878112837413
 30
0.0
 10
168.2551344816329
 20
430.7894203940034
 30
0.0
 10
168.2491387201938
 20
430.7917372260825
 30
0.0
 10
168.2491383907323
 20
430.7917363697454
 30
0.0
  0
LINE
  5
11A
330
D8
100
AcDbEntity
  8
0
  6
Continuous
 62
     0
370
    30
100
AcDbLine
 10
135.653904
 20
433.620084
 30
0.0
 11
135.661523
 21
433.62171
 31
0.0
  0
ENDBLK
  5
11C
330
D8
100
AcDbEntity
  8
0
100
AcDbBlockEnd
  0
BLOCK
  5
163
330
11E
100
AcDbEntity
  8
0
100
AcDbBlockBegin
  2
d
 70
     0
 10
-50.749474
 20
0.0
 30
0.0
  3
d
  1

  0
LINE
  5
11F
330
11E
100
AcDbEntity
  8
0
  6
Continuous
 62
     0
370
    30
100
AcDbLine
 10
-112.434467
 20
98.06505
 30
0.0
 11
-114.63944
 21
51.751363
 31
0.0
  0
SPLINE
  5
120
330
11E
100
AcDbEntity
  8
0
  6
Continuous
 62
     0
370
     0
100
AcDbSpline
210
0.0
220
0.0
230
1.0
 70
     8
 71
     3
 72
    51
 73
    47
 74
     0
 42
0.000000001
 43
0.0
 40
-0.2491813246247681
 40
-0.2491813246247681
 40
-0.2491813246247681
 40
-0.2491813246247681
 40
0.017162016540933
 40
0.2835053577066304
 40
0.535923783967398
 40
0.7883422102281656
 40
1.263942214575966
 40
1.711200586147008
 40
2.134942605630988
 40
2.542951826897269
 40
2.840615940018559
 40
3.138280053139848
 40
3.435944166261139
 40
3.733608279382429
 40
4.120540898350511
 40
4.507473517318592
 40
4.894406136286674
 40
5.269903759059908
 40
5.645401381833143
 40
6.020899004606378
 40
6.386435538439976
 40
6.751972072273571
 40
7.117508606107169
 40
7.474166979734076
 40
7.83082535336098
 40
8.187483726987887
 40
8.535617365607935
 40
8.883751004227982
 40
9.23188464284803
 40
9.571231343209172
 40
9.910578043570315
 40
10.24992474393146
 40
10.58212092434274
 40
10.91431710475403
 40
11.24651328516531
 40
11.57436584635076
 40
11.90221840753621
 40
12.23007096872165
 40
12.55540209399189
 40
12.88073321926212
 40
13.20606434453236
 40
13.52915835777935
 40
13.85225237102633
 40
14.17534638427331
 40
14.49529944136774
 40
14.77103057224742
 40
14.77103057224742
 40
14.77103057224742
 40
14.77103057224742
 10
-114.4819566469905
 20
99.00409947015473
 30
0.0
 10
-114.5098945205841
 20
99.01457641570346
 30
0.0
 10
-114.5656419534796
 20
99.03499299210645
 30
0.0
 10
-114.6492271985339
 20
99.06397963937722
 30
0.0
 10
-114.7344111123823
 20
99.09185414291298
 30
0.0
 10
-114.8469986950968
 20
99.12626220849232
 30
0.0
 10
-114.990200468106
 20
99.1652258221899
 30
0.0
 10
-115.1713644714225
 20
99.2063079466351
 30
0.0
 10
-115.3596797059961
 20
99.24197666394561
 30
0.0
 10
-115.5372945165223
 20
99.27093084226873
 30
0.0
 10
-115.6978414021557
 20
99.29540407376716
 30
0.0
 10
-115.8424886362109
 20
99.31626071268246
 30
0.0
 10
-115.9885779287858
 20
99.33620483515733
 30
0.0
 10
-116.1505109314435
 20
99.35715275980594
 30
0.0
 10
-116.3282812433686
 20
99.37877995689436
 30
0.0
 10
-116.5227448432374
 20
99.40059179506946
 30
0.0
 10
-116.7176634737223
 20
99.4204711072518
 30
0.0
 10
-116.9134487437618
 20
99.43836358303554
 30
0.0
 10
-117.1098582838881
 20
99.45433343905012
 30
0.0
 10
-117.3069568103845
 20
99.46843635507932
 30
0.0
 10
-117.5045292685923
 20
99.48072745398835
 30
0.0
 10
-117.7025290785959
 20
99.49124362180984
 30
0.0
 10
-117.9011370328074
 20
99.50000803687347
 30
0.0
 10
-118.1003130932404
 20
99.50705250032532
 30
0.0
 10
-118.3000349437782
 20
99.51242006686496
 30
0.0
 10
-118.5003731014938
 20
99.51613470068816
 30
0.0
 10
-118.7013052237405
 20
99.51823729542535
 30
0.0
 10
-118.9030314431325
 20
99.51875008858154
 30
0.0
 10
-119.1057210137214
 20
99.51767684469593
 30
0.0
 10
-119.3095500624572
 20
99.51504248596436
 30
0.0
 10
-119.5143304436001
 20
99.51089757621432
 30
0.0
 10
-119.7202468712833
 20
99.5052632189254
 30
0.0
 10
-119.9271355328897
 20
99.49818048251834
 30
0.0
 10
-120.1345235020906
 20
99.48970798849676
 30
0.0
 10
-120.342561285694
 20
99.4798600740103
 30
0.0
 10
-120.5508187942892
 20
99.46867965176595
 30
0.0
 10
-120.7590286767361
 20
99.45619518191654
 30
0.0
 10
-120.9673212499072
 20
99.4424003121369
 30
0.0
 10
-121.1754432145717
 20
99.42731437652708
 30
0.0
 10
-121.3832972936439
 20
99.41095274868384
 30
0.0
 10
-121.5908489523506
 20
99.39332049346262
 30
0.0
 10
-121.7980035540793
 20
99.37443151082653
 30
0.0
 10
-122.0052444258181
 20
99.3542476097187
 30
0.0
 10
-122.2128575983461
 20
99.33274656000012
 30
0.0
 10
-122.4117373792774
 20
99.31094530278399
 30
0.0
 10
-122.5410665906938
 20
99.2960544763197
 30
0.0
 10
-122.6009247412674
 20
99.28901037804903
 30
0.0
  0
SPLINE
  5
121
330
11E
100
AcDbEntity
  8
0
  6
Continuous
 62
     0
370
     0
100
AcDbSpline
210
0.0
220
0.0
230
1.0
 70
     8
 71
     3
 72
    10
 73
     6
 74
     0
 42
0.000000001
 43
0.0
 40
0.0
 40
0.0
 40
0.0
 40
0.0
 40
4.634265232765267
 40
9.274351897431163
 40
13.90932365833866
 40
13.90932365833866
 40
13.90932365833866
 40
13.90932365833866
 10
-122.6008310989641
 20
99.28902139773727
 30
0.0
 10
-122.5784982688617
 20
100.8332237739763
 30
0.0
 10
-122.524689045566
 20
103.9346978057599
 30
0.0
 10
-122.3223890631652
 20
108.0460938543055
 30
0.0
 10
-121.9559839656768
 20
110.174864109749
 30
0.0
 10
-121.6903855439589
 20
111.0103799481815
 30
0.0
  0
SPLINE
  5
122
330
11E
100
AcDbEntity
  8
0
  6
Continuous
 62
     0
370
     0
100
AcDbSpline
210
0.0
220
0.0
230
1.0
 70
     8
 71
     3
 72
    49
 73
    45
 74
     0
 42
0.000000001
 43
0.0
 40
2.034582187951286
 40
2.034582187951286
 40
2.034582187951286
 40
2.034582187951286
 40
2.220107965080948
 40
2.540061022175372
 40
2.860014079269796
 40
3.18310809251678
 40
3.506202105763765
 40
3.82929611901075
 40
4.154627244280986
 40
4.479958369551222
 40
4.805289494821459
 40
5.133142056006906
 40
5.460994617192354
 40
5.788847178377801
 40
6.121043358789085
 40
6.45323953920037
 40
6.785435719611653
 40
7.124782419972796
 40
7.464129120333938
 40
7.803475820695081
 40
8.151609459315129
 40
8.499743097935175
 40
8.847876736555223
 40
9.20453511018213
 40
9.561193483809035
 40
9.917851857435942
 40
10.28338839126954
 40
10.64892492510314
 40
11.01446145893673
 40
11.38995908170997
 40
11.7654567044832
 40
12.14095432725644
 40
12.52788694622452
 40
12.9148195651926
 40
13.30175218416068
 40
13.6986376683224
 40
14.09552315248412
 40
14.49240863664584
 40
14.90041785791212
 40
15.3241598773961
 40
15.77141824896714
 40
16.24701825331494
 40
16.75185510583648
 40
17.28454178816788
 40
17.28454178816788
 40
17.28454178816788
 40
17.28454178816788
 10
-121.6903855439589
 20
111.0103799481815
 30
0.0
 10
-121.6317243738986
 20
111.0060781859182
 30
0.0
 10
-121.4719879916099
 20
110.9942339897521
 30
0.0
 10
-121.2114868880617
 20
110.9743380140542
 30
0.0
 10
-120.9081231794348
 20
110.9503021151826
 30
0.0
 10
-120.6043210547409
 20
110.9253506474478
 30
0.0
 10
-120.3001407608144
 20
110.8994685448183
 30
0.0
 10
-119.9959196257876
 20
110.8726695737449
 30
0.0
 10
-119.6917146014839
 20
110.8449411579772
 30
0.0
 10
-119.3875554861327
 20
110.8162832692063
 30
0.0
 10
-119.0833814671448
 20
110.7866903174857
 30
0.0
 10
-118.7792238115662
 20
110.7561615443988
 30
0.0
 10
-118.475104495202
 20
110.7247011246762
 30
0.0
 10
-118.1704806466416
 20
110.6922567907128
 30
0.0
 10
-117.8653802127485
 20
110.6588275948068
 30
0.0
 10
-117.5598294491347
 20
110.6244098509541
 30
0.0
 10
-117.2529910719218
 20
110.5889062283574
 30
0.0
 10
-116.9449011051488
 20
110.5523051689275
 30
0.0
 10
-116.6356299416634
 20
110.5145834043374
 30
0.0
 10
-116.3247436414931
 20
110.4756645235554
 30
0.0
 10
-116.0123226059318
 20
110.4355198963738
 30
0.0
 10
-115.6984847921208
 20
110.3941186221135
 30
0.0
 10
-115.3834144809709
 20
110.3514516311868
 30
0.0
 10
-115.0672363727604
 20
110.3074880818621
 30
0.0
 10
-114.7500594414953
 20
110.2622152717631
 30
0.0
 10
-114.4318727408943
 20
110.2156169836745
 30
0.0
 10
-114.1127935155985
 20
110.1676802516485
 30
0.0
 10
-113.7929477732407
 20
110.1184000006527
 30
0.0
 10
-113.4721283690096
 20
110.0677337587031
 30
0.0
 10
-113.1504755285441
 20
110.0156747975694
 30
0.0
 10
-112.8281142446926
 20
109.9622318625086
 30
0.0
 10
-112.5047248720559
 20
109.9073561110056
 30
0.0
 10
-112.1804496670004
 20
109.851055484655
 30
0.0
 10
-111.8555302603318
 20
109.793327118313
 30
0.0
 10
-111.5305892386973
 20
109.7342567173621
 30
0.0
 10
-111.2058730442166
 20
109.6738474758923
 30
0.0
 10
-110.8814750683023
 20
109.612162842169
 30
0.0
 10
-110.5571352119543
 20
109.5492176860728
 30
0.0
 10
-110.2287543320106
 20
109.4842489095198
 30
0.0
 10
-109.8895359570768
 20
109.4161984582917
 30
0.0
 10
-109.5351673563714
 20
109.3441503571502
 30
0.0
 10
-109.1634182423472
 20
109.2673335357859
 30
0.0
 10
-108.7738352592967
 20
109.1850927006346
 30
0.0
 10
-108.5136874269299
 20
109.128745017352
 30
0.0
 10
-108.3792050195475
 20
109.099220572551
 30
0.0
  0
LINE
  5
123
330
11E
100
AcDbEntity
  8
0
  6
Continuous
 62
     0
370
     0
100
AcDbLine
 10
-114.481957
 20
99.004099
 30
0.0
 11
-116.34505
 21
51.751353
 31
0.0
  0
ARC
  5
124
330
11E
100
AcDbEntity
  8
0
  6
Continuous
 62
     0
370
     0
100
AcDbCircle
 10
76615.062588
 20
-3.966425
 30
0.0
 40
76737.7329784156
100
AcDbArc
 50
179.922905
 51
179.958399
  0
SPLINE
  5
125
330
11E
100
AcDbEntity
  8
0
  6
Continuous
 62
     0
370
    30
100
AcDbSpline
210
0.0
220
0.0
230
1.0
 70
     8
 71
     3
 72
    14
 73
    10
 74
     0
 42
0.000000001
 43
0.0
 40
0.0
 40
0.0
 40
0.0
 40
0.0
 40
0.9118343725061222
 40
1.812967381621847
 40
2.704719619995633
 40
3.590497246180465
 40
4.477336643439316
 40
5.379111974852179
 40
6.323312001412582
 40
6.323312001412582
 40
6.323312001412582
 40
6.323312001412582
 10
-114.6394401622142
 20
51.75136261960211
 30
0.0
 10
-114.6538944213703
 20
51.44776222057816
 30
0.0
 10
-114.6955442457447
 20
50.84460827214694
 30
0.0
 10
-114.8058951779146
 20
49.94929653915196
 30
0.0
 10
-114.9736839159118
 20
49.07149688864448
 30
0.0
 10
-115.2115808833851
 20
48.21458052951229
 30
0.0
 10
-115.5372765373513
 20
47.38260626705517
 30
0.0
 10
-115.9769004940597
 20
46.58149579056763
 30
0.0
 10
-116.3594841414645
 20
46.09430957571405
 30
0.0
 10
-116.5770586727854
 20
45.86689308816636
 30
0.0
  0
LINE
  5
126
330
11E
100
AcDbEntity
  8
0
  6
Continuous
 62
     0
370
     0
100
AcDbLine
 10
-116.577059
 20
45.866893
 30
0.0
 11
-116.34505
 21
51.751353
 31
0.0
  0
SPLINE
  5
127
330
11E
100
AcDbEntity
  8
0
  6
Continuous
 62
     0
370
    30
100
AcDbSpline
210
0.0
220
0.0
230
1.0
 70
     8
 71
     3
 72
    10
 73
     6
 74
     0
 42
0.000000001
 43
0.0
 40
0.0
 40
0.0
 40
0.0
 40
0.0
 40
2.241257425238728
 40
4.488594900825211
 40
6.738313598302074
 40
6.738313598302074
 40
6.738313598302074
 40
6.738313598302074
 10
-116.577058276569
 20
45.86689321212077
 30
0.0
 10
-117.0935175334655
 20
45.32707190742434
 30
0.0
 10
-118.3465425893803
 20
44.44718746837941
 30
0.0
 10
-120.4866010024305
 20
43.71530017303462
 30
0.0
 10
-121.9728529931458
 20
43.48244856269829
 30
0.0
 10
-122.718860340196
 20
43.40607843984063
 30
0.0
  0
SPLINE
  5
128
330
11E
100
AcDbEntity
  8
0
  6
Continuous
 62
     0
370
     0
100
AcDbSpline
210
0.0
220
0.0
230
1.0
 70
     8
 71
     3
 72
    19
 73
    15
 74
     0
 42
0.000000001
 43
0.0
 40
0.0
 40
0.0
 40
0.0
 40
0.0
 40
0.9402009945476232
 40
1.890374966926983
 40
2.807409653105338
 40
3.23893414388007
 40
3.715856908827084
 40
4.238792899061064
 40
4.717644179907224
 40
5.555328424118946
 40
6.970046455662803
 40
8.219710000794644
 40
9.458574664181844
 40
10.70064831550551
 40
10.70064831550551
 40
10.70064831550551
 40
10.70064831550551
 10
-122.7188603367244
 20
43.40607844019604
 30
0.0
 10
-122.7188031919227
 20
43.40608272578302
 30
0.0
 10
-122.7066535947558
 20
43.47818347223017
 30
0.0
 10
-122.6596586787937
 20
43.8049650342935
 30
0.0
 10
-122.6112044010627
 20
44.23268405636043
 30
0.0
 10
-122.572515655464
 20
44.63996497985622
 30
0.0
 10
-122.5459421401574
 20
44.9908156324272
 30
0.0
 10
-122.5337053869403
 20
45.39872579806288
 30
0.0
 10
-122.5327361545521
 20
45.94742988071664
 30
0.0
 10
-122.5510332469444
 20
46.81577464234337
 30
0.0
 10
-122.5950811614666
 20
47.97428478347499
 30
0.0
 10
-122.6266521850887
 20
49.26978252376404
 30
0.0
 10
-122.6460493985226
 20
50.51085214948452
 30
0.0
 10
-122.6504866636888
 20
51.33742089542186
 30
0.0
 10
-122.6501625037442
 20
51.75134988682751
 30
0.0
  0
SPLINE
  5
129
330
11E
100
AcDbEntity
  8
0
  6
Continuous
 62
     0
370
     0
100
AcDbSpline
210
0.0
220
0.0
230
1.0
 70
     8
 71
     3
 72
    19
 73
    15
 74
     0
 42
0.000000001
 43
0.0
 40
0.0
 40
0.0
 40
0.0
 40
0.0
 40
0.6155212461680514
 40
1.229045235639201
 40
1.839976234965928
 40
2.144999002640032
 40
2.448904921406438
 40
3.0518626949222
 40
3.653692696932374
 40
4.254705690234839
 40
4.855636365808048
 40
6.057120988631596
 40
7.258530204541062
 40
8.459809248800736
 40
8.459809248800736
 40
8.459809248800736
 40
8.459809248800736
 10
-124.3716196290522
 20
44.89827969225647
 30
0.0
 10
-124.3715655213979
 20
44.89828405995465
 30
0.0
 10
-124.3691854507916
 20
44.9431593164694
 30
0.0
 10
-124.3594964210098
 20
45.14943561186683
 30
0.0
 10
-124.3480715892077
 20
45.42831670185203
 30
0.0
 10
-124.3380609001849
 20
45.69455559370692
 30
0.0
 10
-124.3277306260669
 20
45.98487394260752
 30
0.0
 10
-124.3168490090335
 20
46.4252053200438
 30
0.0
 10
-124.3082601265697
 20
46.99986209962321
 30
0.0
 10
-124.3025495252115
 20
47.59040801262458
 30
0.0
 10
-124.2976275735871
 20
48.38580950416832
 30
0.0
 10
-124.2932572977277
 20
49.38369937323296
 30
0.0
 10
-124.2891458443117
 20
50.58269276120954
 30
0.0
 10
-124.2875481181893
 20
51.38319495888621
 30
0.0
 10
-124.2870659974946
 20
51.78352396100969
 30
0.0
  0
ARC
  5
12A
330
11E
100
AcDbEntity
  8
0
  6
Continuous
 62
     0
370
     0
100
AcDbCircle
 10
78964.366641
 20
-45.952204
 30
0.0
 40
79088.7140962689
100
AcDbArc
 50
179.894754
 51
179.929195
  0
SPLINE
  5
12B
330
11E
100
AcDbEntity
  8
0
  6
Continuous
 62
     0
370
     0
100
AcDbSpline
210
0.0
220
0.0
230
1.0
 70
     8
 71
     3
 72
    14
 73
    10
 74
     0
 42
0.000000001
 43
0.0
 40
0.0
 40
0.0
 40
0.0
 40
0.0
 40
2.202449043862926
 40
4.407614529988809
 40
6.61760498461073
 40
8.834220870431878
 40
11.06041317940926
 40
13.29428199347736
 40
15.53506428000646
 40
15.53506428000646
 40
15.53506428000646
 40
15.53506428000646
 10
-124.2140304693008
 20
99.3243739820931
 30
0.0
 10
-124.2127058639555
 20
100.0583084880411
 30
0.0
 10
-124.2022611009869
 20
101.5266928647814
 30
0.0
 10
-124.1601657890727
 20
103.6763716538002
 30
0.0
 10
-124.08407441397
 20
105.7353521908131
 30
0.0
 10
-123.9636427516483
 20
107.6653117404427
 30
0.0
 10
-123.781379894847
 20
109.426341197261
 30
0.0
 10
-123.5222626553546
 20
110.9859960836427
 30
0.0
 10
-123.2896993981235
 20
111.8680941506799
 30
0.0
 10
-123.1571677232429
 20
112.2641483907522
 30
0.0
  0
SPLINE
  5
12C
330
11E
100
AcDbEntity
  8
0
  6
Continuous
 62
     0
370
     0
100
AcDbSpline
210
0.0
220
0.0
230
1.0
 70
     8
 71
     3
 72
    22
 73
    18
 74
     0
 42
0.000000001
 43
0.0
 40
0.0
 40
0.0
 40
0.0
 40
0.0
 40
3.842553044939223
 40
7.664987140178404
 40
11.46970859298695
 40
15.2608840327312
 40
19.04363759555922
 40
22.82376401864989
 40
26.60753882794128
 40
30.4007460517766
 40
34.20808272081521
 40
38.03372712295518
 40
41.87959806736609
 40
45.74849768660261
 40
49.62627423926556
 40
53.50877529369348
 40
53.50883110218192
 40
53.50883110218192
 40
53.50883110218192
 40
53.50883110218192
 10
-123.1571679470655
 20
112.2641479682759
 30
0.0
 10
-122.9298991903555
 20
112.9433127942938
 30
0.0
 10
-122.4396002630654
 20
114.4892330200315
 30
0.0
 10
-121.6973111622144
 20
117.2997110771406
 30
0.0
 10
-121.0430013912928
 20
120.5227132778936
 30
0.0
 10
-120.5597240415439
 20
124.0647624984388
 30
0.0
 10
-120.312180731403
 20
127.8099003498445
 30
0.0
 10
-120.3350230962888
 20
131.6174328959298
 30
0.0
 10
-120.6250187565836
 20
135.338114615719
 30
0.0
 10
-121.14169187317
 20
138.8347076381676
 30
0.0
 10
-121.8167830200773
 20
141.9949734287379
 30
0.0
 10
-122.5649721648194
 20
144.729904706524
 30
0.0
 10
-123.2913844603164
 20
146.9661633705271
 30
0.0
 10
-123.8955629430426
 20
148.630187324189
 30
0.0
 10
-124.2799176443293
 20
149.6649997156933
 30
0.0
 10
-124.3712487781116
 20
149.8988506815229
 30
0.0
 10
-124.3716192636149
 20
149.8989409158935
 30
0.0
 10
-124.3716192689309
 20
149.8989409171664
 30
0.0
  0
ELLIPSE
  5
12D
330
11E
100
AcDbEntity
  8
0
  6
Continuous
 62
     0
370
     0
100
AcDbEllipse
 10
-121.690384
 20
112.26415
 30
0.0
 11
1.426189421239576
 21
-0.4647405025864749
 31
0.0
210
0.0
220
0.0
230
-1.0
 40
0.822786
 41
1.308842934803162
 42
2.764497473280604
  0
SPLINE
  5
12E
330
11E
100
AcDbEntity
  8
0
  6
Continuous
 62
     0
370
     0
100
AcDbSpline
210
0.0
220
0.0
230
1.0
 70
     8
 71
     3
 72
    20
 73
    16
 74
     0
 42
0.000000001
 43
0.0
 40
56.70864473622917
 40
56.70864473622917
 40
56.70864473622917
 40
56.70864473622917
 40
57.63180409922852
 40
61.71794092077714
 40
65.77414287274777
 40
70.60732300077261
 40
75.54753558958703
 40
80.67002611278147
 40
84.95256755626764
 40
89.22417508003764
 40
93.33620108921018
 40
97.63125829908257
 40
102.7397174449275
 40
108.130989611906
 40
113.4172894724584
 40
113.4172894724584
 40
113.4172894724584
 40
113.4172894724584
 10
-122.8715745520947
 20
151.3989333032091
 30
0.0
 10
-122.8715125454953
 20
151.3989415745111
 30
0.0
 10
-122.8589737875246
 20
151.363744672443
 30
0.0
 10
-122.7154426852467
 20
150.9527503834377
 30
0.0
 10
-122.2572396116195
 20
149.5874122999724
 30
0.0
 10
-121.5225202497595
 20
147.3034271324686
 30
0.0
 10
-120.6184233293227
 20
143.9889404960073
 30
0.0
 10
-119.8049581761018
 20
140.0858784648102
 30
0.0
 10
-119.2231582846996
 20
135.8819341200634
 30
0.0
 10
-118.9267967854005
 20
131.720924184017
 30
0.0
 10
-118.9132946236939
 20
127.4601711453583
 30
0.0
 10
-119.2035995179485
 20
123.0028064161071
 30
0.0
 10
-119.8405160736934
 20
118.4510080035601
 30
0.0
 10
-120.7554229043042
 20
114.2373738672741
 30
0.0
 10
-121.4003471785388
 20
111.9655677557819
 30
0.0
 10
-121.6903841324179
 20
111.0103797394059
 30
0.0
  0
ELLIPSE
  5
12F
330
11E
100
AcDbEntity
  8
0
  6
Continuous
 62
     0
370
     0
100
AcDbEllipse
 10
-122.718204
 20
99.324375
 30
0.0
 11
1.499997684706676
 21
-0.002635502724719799
 31
0.0
210
0.0
220
0.0
230
-1.0
 40
0.023503
 41
1.492426414785789
 42
3.066960088094326
  0
ARC
  5
130
330
11E
100
AcDbEntity
  8
0
  6
Continuous
 62
     0
370
    30
100
AcDbCircle
 10
-122.87162
 20
44.89828
 30
0.0
 40
1.50000000000003
100
AcDbArc
 50
180.0
 51
275.845111
  0
LINE
  5
131
330
11E
100
AcDbEntity
  8
0
  6
Continuous
 62
     0
370
    30
100
AcDbLine
 10
-102.647556
 20
107.399005
 30
0.0
 11
-93.339773
 21
107.399005
 31
0.0
  0
LINE
  5
132
330
11E
100
AcDbEntity
  8
0
  6
Continuous
 62
     0
370
    30
100
AcDbLine
 10
-100.893175
 20
151.399005
 30
0.0
 11
-98.961307
 21
147.256034
 31
0.0
  0
ARC
  5
133
330
11E
100
AcDbEntity
  8
0
  6
Continuous
 62
     0
370
    30
100
AcDbCircle
 10
-153.347351
 20
121.897263
 30
0.0
 40
60.00757439768684
100
AcDbArc
 50
0.001561
 51
24.998393
  0
LINE
  5
134
330
11E
100
AcDbEntity
  8
0
  6
Continuous
 62
     0
370
    30
100
AcDbLine
 10
-93.339774
 20
121.898898
 30
0.0
 11
-93.339773
 21
107.399005
 31
0.0
  0
ARC
  5
135
330
11E
100
AcDbEntity
  8
0
  6
Continuous
 62
     0
370
    30
100
AcDbCircle
 10
-102.64546
 20
97.598906
 30
0.0
 40
9.80009888682536
100
AcDbArc
 50
90.012252
 51
177.273681
  0
LINE
  5
136
330
11E
100
AcDbEntity
  8
0
  6
Continuous
 62
     0
370
     0
100
AcDbLine
 10
-116.34505
 20
51.751353
 30
0.0
 11
-122.650163
 21
51.75135
 31
0.0
  0
SPLINE
  5
137
330
11E
100
AcDbEntity
  8
0
  6
Continuous
 62
     0
370
     0
100
AcDbSpline
210
0.0
220
0.0
230
1.0
 70
     8
 71
     9
 72
    20
 73
    10
 74
     0
 42
0.000000001
 43
0.0
 40
0.0
 40
0.0
 40
0.0
 40
0.0
 40
0.0
 40
0.0
 40
0.0
 40
0.0
 40
0.0
 40
0.0
 40
0.2499999949532693
 40
0.2499999949532693
 40
0.2499999949532693
 40
0.2499999949532693
 40
0.2499999949532693
 40
0.2499999949532693
 40
0.2499999949532693
 40
0.2499999949532693
 40
0.2499999949532693
 40
0.2499999949532693
 10
-114.639440274668
 20
51.75136263375819
 30
0.0
 10
-114.6394401710506
 20
51.75136064461888
 30
0.0
 10
-114.6790023766418
 20
51.75134594523988
 30
0.0
 10
-114.7662326861669
 20
51.75134618110492
 30
0.0
 10
-114.9099066305303
 20
51.75134751100141
 30
0.0
 10
-115.120976030795
 20
51.75134978887256
 30
0.0
 10
-115.3833284794196
 20
51.75135194775633
 30
0.0
 10
-115.6812654973921
 20
51.75135345828846
 30
0.0
 10
-116.0042921894653
 20
51.75135394808513
 30
0.0
 10
-116.3450497746935
 20
51.75135315968393
 30
0.0
  0
SPLINE
  5
138
330
11E
100
AcDbEntity
  8
0
  6
Continuous
 62
     0
370
     0
100
AcDbSpline
210
0.0
220
0.0
230
1.0
 70
     8
 71
     3
 72
    16
 73
    12
 74
     0
 42
0.000000001
 43
0.0
 40
0.0
 40
0.0
 40
0.0
 40
0.0
 40
1.539730160996509
 40
3.080508527384353
 40
4.623334042753824
 40
5.39522303958897
 40
6.166796943361055
 40
6.938584681441844
 40
7.71034381318089
 40
9.253414127036839
 40
10.7966984328055
 40
10.7966984328055
 40
10.7966984328055
 40
10.7966984328055
 10
-102.6475555348618
 20
107.3990045579018
 30
0.0
 10
-102.6452559606541
 20
107.3990019580723
 30
0.0
 10
-102.7694664759431
 20
107.4359579843657
 30
0.0
 10
-103.3073316315836
 20
107.5887018150561
 30
0.0
 10
-103.9434776900691
 20
107.7764107439499
 30
0.0
 10
-104.4999989987236
 20
107.9585001174296
 30
0.0
 10
-104.9508892982394
 20
108.1085644696071
 30
0.0
 10
-105.4588075107056
 20
108.2632219370089
 30
0.0
 10
-106.1698083540116
 20
108.479283233825
 30
0.0
 10
-107.1287404116933
 20
108.7604264697971
 30
0.0
 10
-107.954498916303
 20
108.9873252876192
 30
0.0
 10
-108.3792050195475
 20
109.0992205725509
 30
0.0
  0
ELLIPSE
  5
139
330
11E
100
AcDbEntity
  8
0
  6
Continuous
 62
     0
370
     0
100
AcDbEllipse
 10
-108.379205
 20
98.667027
 30
0.0
 11
-2.968160857838783
 21
-10.90937403156072
 31
0.0
210
0.0
220
0.0
230
1.0
 40
0.53208
 41
3.614271646704042
 42
4.825572091279478
  0
SPLINE
  5
13A
330
11E
100
AcDbEntity
  8
0
  6
Continuous
 62
     0
370
     0
100
AcDbSpline
210
0.0
220
0.0
230
1.0
 70
     8
 71
     3
 72
    16
 73
    12
 74
     0
 42
0.000000001
 43
0.0
 40
0.0
 40
0.0
 40
0.0
 40
0.0
 40
0.7200536857649613
 40
1.380976754885794
 40
1.693435960656269
 40
1.994587343307333
 40
2.283388303449252
 40
2.568859007441618
 40
3.135416240560569
 40
3.678649730891579
 40
4.210733200687343
 40
4.210733200687343
 40
4.210733200687343
 40
4.210733200687343
 10
-114.4819566469907
 20
99.00409947015476
 30
0.0
 10
-114.2807189334387
 20
98.98720687991042
 30
0.0
 10
-113.9082729732088
 20
98.9399654507427
 30
0.0
 10
-113.5006544208684
 20
98.8388824055001
 30
0.0
 10
-113.2307031593764
 20
98.73543528801683
 30
0.0
 10
-113.0574100028061
 20
98.65182941102621
 30
0.0
 10
-112.9026315298768
 20
98.59120878619686
 30
0.0
 10
-112.7308699849491
 20
98.47741944600048
 30
0.0
 10
-112.575775896119
 20
98.28788391010387
 30
0.0
 10
-112.460844223428
 20
98.10501682784647
 30
0.0
 10
-112.43446554198
 20
98.06504939622907
 30
0.0
 10
-112.4344666692757
 20
98.06505021480899
 30
0.0
  0
ELLIPSE
  5
13B
330
11E
100
AcDbEntity
  8
0
  6
Continuous
 62
     0
370
     0
100
AcDbEllipse
 10
-122.789305
 20
51.783524
 30
0.0
 11
1.499998969076471
 21
-0.001758627170892978
 31
0.0
210
0.0
220
0.0
230
-1.0
 40
0.021433
 41
1.477875839727434
 42
3.086933578468321
  0
LINE
  5
13C
330
11E
100
AcDbEntity
  8
0
  6
Continuous
 62
     0
370
    30
100
AcDbLine
 10
-90.339774
 20
107.299002
 30
0.0
 11
-90.339774
 21
151.499002
 31
0.0
  0
LINE
  5
13D
330
11E
100
AcDbEntity
  8
0
  6
Continuous
 62
     0
370
    30
100
AcDbLine
 10
-82.039774
 20
61.899002
 30
0.0
 11
-82.039774
 21
239.899002
 31
0.0
  0
LINE
  5
13E
330
11E
100
AcDbEntity
  8
0
  6
Continuous
 62
     0
370
     0
100
AcDbLine
 10
-81.039774
 20
60.899002
 30
0.0
 11
-81.039774
 21
240.899002
 31
0.0
  0
LINE
  5
13F
330
11E
100
AcDbEntity
  8
0
  6
Continuous
 62
     0
370
    30
100
AcDbLine
 10
-70.039774
 20
60.899002
 30
0.0
 11
-70.039774
 21
240.899002
 31
0.0
  0
ARC
  5
140
330
11E
100
AcDbEntity
  8
0
  6
Continuous
 62
     0
370
    30
100
AcDbCircle
 10
-103.949206
 20
166.677811
 30
0.0
 40
0.3000002024697762
100
AcDbArc
 50
180.0
 51
229.7027
  0
LINE
  5
141
330
11E
100
AcDbEntity
  8
0
  6
Continuous
 62
     0
370
    30
100
AcDbLine
 10
-104.143233
 20
166.449001
 30
0.0
 11
-99.740626
 21
166.449001
 31
0.0
  0
ARC
  5
142
330
11E
100
AcDbEntity
  8
0
  6
Continuous
 62
     0
370
    30
100
AcDbCircle
 10
-99.740626
 20
166.749001
 30
0.0
 40
0.3000000749317842
100
AcDbArc
 50
270.0
 51
359.500045
  0
LINE
  5
143
330
11E
100
AcDbEntity
  8
0
  6
Continuous
 62
     0
370
    30
100
AcDbLine
 10
-99.440637
 20
166.746383
 30
0.0
 11
-99.433993
 21
167.507728
 31
0.0
  0
ARC
  5
144
330
11E
100
AcDbEntity
  8
0
  6
Continuous
 62
     0
370
    30
100
AcDbCircle
 10
-98.433997
 20
167.498967
 30
0.0
 40
1.000034461682265
100
AcDbArc
 50
89.999997
 51
179.498043
  0
LINE
  5
145
330
11E
100
AcDbEntity
  8
0
  6
Continuous
 62
     0
370
    30
100
AcDbLine
 10
-98.433997
 20
168.499001
 30
0.0
 11
-85.539771
 21
168.499001
 31
0.0
  0
LINE
  5
146
330
11E
100
AcDbEntity
  8
0
  6
Continuous
 62
     0
370
    30
100
AcDbLine
 10
-85.539771
 20
167.399002
 30
0.0
 11
-84.539771
 21
166.399002
 31
0.0
  0
LINE
  5
147
330
11E
100
AcDbEntity
  8
0
  6
Continuous
 62
     0
370
    30
100
AcDbLine
 10
-104.143233
 20
166.449001
 30
0.0
 11
-104.143233
 21
188.349002
 31
0.0
  0
LINE
  5
148
330
11E
100
AcDbEntity
  8
0
  6
Continuous
 62
     0
370
     0
100
AcDbLine
 10
-99.740626
 20
166.449001
 30
0.0
 11
-99.740626
 21
188.349002
 31
0.0
  0
LINE
  5
149
330
11E
100
AcDbEntity
  8
0
  6
Continuous
 62
     0
370
     0
100
AcDbLine
 10
-99.433993
 20
167.507728
 30
0.0
 11
-99.433993
 21
187.290275
 31
0.0
  0
LINE
  5
14A
330
11E
100
AcDbEntity
  8
0
  6
Continuous
 62
     0
370
     0
100
AcDbLine
 10
-98.433997
 20
168.499001
 30
0.0
 11
-98.433997
 21
186.299002
 31
0.0
  0
LINE
  5
14B
330
11E
100
AcDbEntity
  8
0
  6
Continuous
 62
     0
370
    30
100
AcDbLine
 10
-85.539771
 20
167.399002
 30
0.0
 11
-85.539771
 21
187.399001
 31
0.0
  0
LINE
  5
14C
330
11E
100
AcDbEntity
  8
0
  6
Continuous
 62
     0
370
    30
100
AcDbLine
 10
-84.539771
 20
166.399002
 30
0.0
 11
-84.539771
 21
188.399001
 31
0.0
  0
LINE
  5
14D
330
11E
100
AcDbEntity
  8
0
  6
Continuous
 62
     0
370
    30
100
AcDbLine
 10
-90.339774
 20
151.499002
 30
0.0
 11
-82.039774
 21
151.499002
 31
0.0
  0
LINE
  5
14E
330
11E
100
AcDbEntity
  8
0
  6
Continuous
 62
     0
370
    30
100
AcDbLine
 10
-84.539771
 20
166.399002
 30
0.0
 11
-82.039774
 21
166.399002
 31
0.0
  0
ARC
  5
14F
330
11E
100
AcDbEntity
  8
0
  6
Continuous
 62
     0
370
    30
100
AcDbCircle
 10
-88.969868
 20
129.294825
 30
0.0
 40
20.49999999999076
100
AcDbArc
 50
93.831629
 51
119.09687
  0
LINE
  5
150
330
11E
100
AcDbEntity
  8
0
  6
Continuous
 62
     0
370
    30
100
AcDbLine
 10
-84.539771
 20
188.399001
 30
0.0
 11
-82.039774
 21
188.399001
 31
0.0
  0
LINE
  5
151
330
11E
100
AcDbEntity
  8
0
  6
Continuous
 62
     0
370
    30
100
AcDbLine
 10
-85.539771
 20
187.399001
 30
0.0
 11
-84.539771
 21
188.399001
 31
0.0
  0
LINE
  5
152
330
11E
100
AcDbEntity
  8
0
  6
Continuous
 62
     0
370
    30
100
AcDbLine
 10
-98.433997
 20
186.299002
 30
0.0
 11
-85.539771
 21
186.299002
 31
0.0
  0
ARC
  5
153
330
11E
100
AcDbEntity
  8
0
  6
Continuous
 62
     0
370
    30
100
AcDbCircle
 10
-98.433997
 20
187.299036
 30
0.0
 40
1.000034461682265
100
AcDbArc
 50
180.501957
 51
270.000003
  0
LINE
  5
154
330
11E
100
AcDbEntity
  8
0
  6
Continuous
 62
     0
370
    30
100
AcDbLine
 10
-99.440637
 20
188.05162
 30
0.0
 11
-99.433993
 21
187.290275
 31
0.0
  0
LINE
  5
155
330
11E
100
AcDbEntity
  8
0
  6
Continuous
 62
     0
370
    30
100
AcDbLine
 10
-99.440672
 20
166.743758
 30
0.0
 11
-99.440672
 21
188.054245
 31
0.0
  0
ARC
  5
156
330
11E
100
AcDbEntity
  8
0
  6
Continuous
 62
     0
370
    30
100
AcDbCircle
 10
-99.740626
 20
188.049002
 30
0.0
 40
0.3000000749317842
100
AcDbArc
 50
0.499955
 51
90.0
  0
LINE
  5
157
330
11E
100
AcDbEntity
  8
0
  6
Continuous
 62
     0
370
    30
100
AcDbLine
 10
-104.143233
 20
188.349002
 30
0.0
 11
-99.740626
 21
188.349002
 31
0.0
  0
LINE
  5
158
330
11E
100
AcDbEntity
  8
0
  6
Continuous
 62
     0
370
    30
100
AcDbLine
 10
-104.249207
 20
166.677811
 30
0.0
 11
-104.249207
 21
188.120192
 31
0.0
  0
ARC
  5
159
330
11E
100
AcDbEntity
  8
0
  6
Continuous
 62
     0
370
    30
100
AcDbCircle
 10
-103.949206
 20
188.120192
 30
0.0
 40
0.3000002024697762
100
AcDbArc
 50
130.2973
 51
180.0
  0
LINE
  5
15A
330
11E
100
AcDbEntity
  8
0
  6
Continuous
 62
     0
370
    30
100
AcDbLine
 10
-81.039774
 20
60.899002
 30
0.0
 11
-70.039774
 21
60.899002
 31
0.0
  0
LINE
  5
15B
330
11E
100
AcDbEntity
  8
0
  6
Continuous
 62
     0
370
    30
100
AcDbLine
 10
-81.039774
 20
240.899002
 30
0.0
 11
-70.039774
 21
240.899002
 31
0.0
  0
ARC
  5
15C
330
11E
100
AcDbEntity
  8
0
  6
Continuous
 62
     0
370
    30
100
AcDbCircle
 10
-81.039762
 20
61.899014
 30
0.0
 40
1.000011948692648
100
AcDbArc
 50
180.000685
 51
269.999315
  0
ARC
  5
15D
330
11E
100
AcDbEntity
  8
0
  6
Continuous
 62
     0
370
    30
100
AcDbCircle
 10
-81.039762
 20
239.89899
 30
0.0
 40
1.000011948582363
100
AcDbArc
 50
90.000685
 51
179.999315
  0
LINE
  5
15E
330
11E
100
AcDbEntity
  8
0
  6
Continuous
 62
     0
370
    30
100
AcDbLine
 10
-90.339774
 20
107.299002
 30
0.0
 11
-82.039774
 21
107.299002
 31
0.0
  0
ARC
  5
15F
330
11E
100
AcDbEntity
  8
0
  6
Continuous
 62
     0
370
    30
100
AcDbCircle
 10
-88.969868
 20
129.503179
 30
0.0
 40
20.50000000112882
100
AcDbArc
 50
257.692038
 51
266.168371
  0
LINE
  5
160
330
11E
100
AcDbEntity
  8
0
  6
Continuous
 62
     0
370
    30
100
AcDbLine
 10
-122.871575
 20
151.399004
 30
0.0
 11
-100.893175
 21
151.399005
 31
0.0
  0
ARC
  5
161
330
11E
100
AcDbEntity
  8
0
  6
Continuous
 62
     0
370
    30
100
AcDbCircle
 10
-122.871517
 20
149.898832
 30
0.0
 40
1.500101342390716
100
AcDbArc
 50
90.002198
 51
179.996012
  0
LINE
  5
162
330
11E
100
AcDbEntity
  8
0
  6
Continuous
 62
     0
370
    30
100
AcDbLine
 10
-124.371622
 20
44.898319
 30
0.0
 11
-124.371622
 21
149.898934
 31
0.0
  0
ENDBLK
  5
164
330
11E
100
AcDbEntity
  8
0
100
AcDbBlockEnd
  0
BLOCK
  5
1AF
330
166
100
AcDbEntity
  8
0
100
AcDbBlockBegin
  2
e
 70
     0
 10
295.397827
 20
0.0
 30
0.0
  3
e
  1

  0
SPLINE
  5
167
330
166
100
AcDbEntity
  8
0
  6
Continuous
 62
     0
370
     0
100
AcDbSpline
210
0.0
220
0.0
230
1.0
 70
     8
 71
     3
 72
    51
 73
    47
 74
     0
 42
0.000000001
 43
0.0
 40
-0.2491209316782168
 40
-0.2491209316782168
 40
-0.2491209316782168
 40
-0.2491209316782168
 40
0.0172888062846326
 40
0.283698544247482
 40
0.5361759639872332
 40
0.7886533837269845
 40
1.264355812211928
 40
1.711704342385453
 40
2.135531527316182
 40
2.54362909265288
 40
2.84136522546549
 40
3.139101358278097
 40
3.436837491090706
 40
3.734573623903316
 40
4.121595013275554
 40
4.508616402647792
 40
4.895637792020031
 40
5.271219299416476
 40
5.646800806812919
 40
6.022382314209363
 40
6.387999205790502
 40
6.753616097371641
 40
7.119232988952779
 40
7.475968387484169
 40
7.832703786015561
 40
8.18943918454695
 40
8.537644531245798
 40
8.885849877944647
 40
9.234055224643495
 40
9.573470127642883
 40
9.91288503064227
 40
10.25229993364166
 40
10.58456709066627
 40
10.91683424769088
 40
11.24910140471549
 40
11.5770298933331
 40
11.90495838195071
 40
12.23288687056831
 40
12.55829547015987
 40
12.88370406975143
 40
13.20911266934299
 40
13.53228223902436
 40
13.85545180870572
 40
14.17862137838709
 40
14.49864090275107
 40
14.77421567618841
 40
14.77421567618841
 40
14.77421567618841
 40
14.77421567618841
 10
416.3948316116966
 20
99.00435240491767
 30
0.0
 10
416.4227771311155
 20
99.01483310868247
 30
0.0
 10
416.4785397231069
 20
99.03525690890194
 30
0.0
 10
416.5621477510758
 20
99.06425349327861
 30
0.0
 10
416.6473555804127
 20
99.09213736547653
 30
0.0
 10
416.7599749045273
 20
99.12655638979342
 30
0.0
 10
416.9032190066118
 20
99.16553170132569
 30
0.0
 10
417.0844407759357
 20
99.20662512875487
 30
0.0
 10
417.27281709253
 20
99.24230390714808
 30
0.0
 10
417.450486079485
 20
99.27126709944986
 30
0.0
 10
417.6110787040034
 20
99.2957487986187
 30
0.0
 10
417.7557661267399
 20
99.31661302989902
 30
0.0
 10
417.9018950401817
 20
99.3365643588929
 30
0.0
 10
418.0638717730883
 20
99.3575194444318
 30
0.0
 10
418.2416922064283
 20
99.37915324887574
 30
0.0
 10
418.4362122280154
 20
99.40097096438028
 30
0.0
 10
418.6311880762917
 20
99.42085501562704
 30
0.0
 10
418.8270302742569
 20
99.43875128288647
 30
0.0
 10
419.0234966801572
 20
99.45472400722812
 30
0.0
 10
419.2206525070812
 20
99.46882889050201
 30
0.0
 10
419.4182829173903
 20
99.48112107150462
 30
0.0
 10
419.6163411123234
 20
99.49163746327105
 30
0.0
 10
419.8150077434759
 20
99.50040125581057
 30
0.0
 10
420.014242572985
 20
99.50744427483554
 30
0.0
 10
420.2140238108807
 20
99.51280959955405
 30
0.0
 10
420.4144221321803
 20
99.5165211972783
 30
0.0
 10
420.6154156597718
 20
99.51861999610628
 30
0.0
 10
420.8172044537946
 20
99.51912824514433
 30
0.0
 10
421.0199580817559
 20
99.51804970342022
 30
0.0
 10
421.2238526048975
 20
99.51540929787707
 30
0.0
 10
421.4286986449829
 20
99.51125772138835
 30
0.0
 10
421.6346810684488
 20
99.50561614487034
 30
0.0
 10
421.8416349802801
 20
99.49852572295282
 30
0.0
 10
422.0490867946824
 20
99.49004507475678
 30
0.0
 10
422.2571868447133
 20
99.48018849944768
 30
0.0
 10
422.4655043904306
 20
99.46899889570717
 30
0.0
 10
422.6737733322225
 20
99.45650462228541
 30
0.0
 10
422.8821244826449
 20
99.44269927020173
 30
0.0
 10
423.0903057206781
 20
99.42760208988597
 30
0.0
 10
423.2982184113753
 20
99.41122857287026
 30
0.0
 10
423.5058259357488
 20
99.39358396283795
 30
0.0
 10
423.7130323291631
 20
99.37468229063978
 30
0.0
 10
423.9203285493934
 20
99.35448476504148
 30
0.0
 10
424.1280066328338
 20
99.33296872518082
 30
0.0
 10
424.3269182995577
 20
99.31115640924482
 30
0.0
 10
424.4562487651804
 20
99.29626070167896
 30
0.0
 10
424.5160799888702
 20
99.28921759662813
 30
0.0
  0
SPLINE
  5
168
330
166
100
AcDbEntity
  8
0
  6
Continuous
 62
     0
370
     0
100
AcDbSpline
210
0.0
220
0.0
230
1.0
 70
     8
 71
     3
 72
    10
 73
     6
 74
     0
 42
0.000000001
 43
0.0
 40
0.0
 40
0.0
 40
0.0
 40
0.0
 40
4.634227616789198
 40
9.274292988611274
 40
13.90926336161969
 40
13.90926336161969
 40
13.90926336161969
 40
13.90926336161969
 10
424.5159854164981
 20
99.28922872920297
 30
0.0
 10
424.4936674320102
 20
100.8334191024032
 30
0.0
 10
424.4401683501642
 20
103.9348844611898
 30
0.0
 10
424.239269251372
 20
108.0462856507035
 30
0.0
 10
423.874296115127
 20
110.1751776883272
 30
0.0
 10
423.6094220524319
 20
111.010807620501
 30
0.0
  0
SPLINE
  5
169
330
166
100
AcDbEntity
  8
0
  6
Continuous
 62
     0
370
     0
100
AcDbSpline
210
0.0
220
0.0
230
1.0
 70
     8
 71
     3
 72
    49
 73
    45
 74
     0
 42
0.000000001
 43
0.0
 40
2.032231000806121
 40
2.032231000806121
 40
2.032231000806121
 40
2.032231000806121
 40
2.220496446246721
 40
2.5405159706107
 40
2.860535494974679
 40
3.183705064656046
 40
3.506874634337414
 40
3.830044204018781
 40
4.155452803610339
 40
4.480861403201897
 40
4.806270002793455
 40
5.134198491411063
 40
5.462126980028669
 40
5.790055468646277
 40
6.122322625670888
 40
6.454589782695499
 40
6.78685693972011
 40
7.126271842719498
 40
7.465686745718886
 40
7.805101648718274
 40
8.153306995417122
 40
8.501512342115971
 40
8.849717688814819
 40
9.206453087346208
 40
9.5631884858776
 40
9.91992388440899
 40
10.28554077599013
 40
10.65115766757127
 40
11.01677455915241
 40
11.39235606654885
 40
11.76793757394529
 40
12.14351908134174
 40
12.53054047071398
 40
12.91756186008621
 40
13.30458324945845
 40
13.70156475987526
 40
14.09854627029208
 40
14.49552778070889
 40
14.90362534604559
 40
15.32745253097632
 40
15.77480106114984
 40
16.25050348963478
 40
16.75545832911429
 40
17.28827780503999
 40
17.28827780503999
 40
17.28827780503999
 40
17.28827780503999
 10
423.6094205791076
 20
111.0108075125506
 30
0.0
 10
423.5498901754099
 20
111.0064457208205
 30
0.0
 10
423.3892608226911
 20
110.99454323586
 30
0.0
 10
423.127845737798
 20
110.9745866558747
 30
0.0
 10
422.8244077166291
 20
110.9505553592138
 30
0.0
 10
422.5205271593472
 20
110.9256084305163
 30
0.0
 10
422.2162648160913
 20
110.8997305419033
 30
0.0
 10
421.9119607753987
 20
110.872935393501
 30
0.0
 10
421.6076724923266
 20
110.8452101616156
 30
0.0
 10
421.3034297101381
 20
110.8165548449139
 30
0.0
 10
420.9991726323669
 20
110.7869639920547
 30
0.0
 10
420.6949324600962
 20
110.7564368828516
 30
0.0
 10
420.3907312408908
 20
110.7249776830845
 30
0.0
 10
420.0860272063503
 20
110.6925342420843
 30
0.0
 10
419.7808483671824
 20
110.6591056105693
 30
0.0
 10
419.4752209446688
 20
110.6246881406554
 30
0.0
 10
419.1683069284354
 20
110.5891844795349
 30
0.0
 10
418.8601423135135
 20
110.5525830993106
 30
0.0
 10
418.5507973981587
 20
110.5148607614484
 30
0.0
 10
418.2398362287217
 20
110.4759408576061
 30
0.0
 10
417.9273391255613
 20
110.4357947697834
 30
0.0
 10
417.6134241121927
 20
110.3943915482557
 30
0.0
 10
417.2982749966843
 20
110.3517220053562
 30
0.0
 10
416.9820165614908
 20
110.3077552415534
 30
0.0
 10
416.664757871097
 20
110.2624785164901
 30
0.0
 10
416.3464886436295
 20
110.2158756729659
 30
0.0
 10
416.0273262118988
 20
110.1679337116543
 30
0.0
 10
415.7073966587457
 20
110.1186475383233
 30
0.0
 10
415.3864928384078
 20
110.0679746663404
 30
0.0
 10
415.0647550597084
 20
110.0159083464346
 30
0.0
 10
414.7423084133798
 20
109.9624573139576
 30
0.0
 10
414.4188329387966
 20
109.9075726656839
 30
0.0
 10
414.0944710094557
 20
109.8512623291096
 30
0.0
 10
413.7694642372683
 20
109.7935234564818
 30
0.0
 10
413.4444345269233
 20
109.7344416611195
 30
0.0
 10
413.1196283197319
 20
109.6740201547378
 30
0.0
 10
412.7951395706962
 20
109.6123223137829
 30
0.0
 10
412.4707127491258
 20
109.5493637316686
 30
0.0
 10
412.142249912584
 20
109.484381439821
 30
0.0
 10
411.8029526057778
 20
109.4163173537173
 30
0.0
 10
411.4485023464129
 20
109.344254535761
 30
0.0
 10
411.0766635770749
 20
109.2674210513843
 30
0.0
 10
410.6869811485888
 20
109.1851607241353
 30
0.0
 10
410.4267664564006
 20
109.1287991306522
 30
0.0
 10
410.2922482309232
 20
109.0992669752601
 30
0.0
  0
LINE
  5
16A
330
166
100
AcDbEntity
  8
0
  6
Continuous
 62
     0
370
     0
100
AcDbLine
 10
416.394832
 20
99.004352
 30
0.0
 11
418.257933
 21
51.751382
 31
0.0
  0
ARC
  5
16B
330
166
100
AcDbEntity
  8
0
  6
Continuous
 62
     0
370
     0
100
AcDbCircle
 10
-76469.944195
 20
-3.180209
 30
0.0
 40
76894.52854783094
100
AcDbArc
 50
0.040931
 51
0.076352
  0
LINE
  5
16C
330
166
100
AcDbEntity
  8
0
  6
Continuous
 62
     0
370
    30
100
AcDbLine
 10
414.34735
 20
98.06505
 30
0.0
 11
416.552323
 21
51.751363
 31
0.0
  0
SPLINE
  5
16D
330
166
100
AcDbEntity
  8
0
  6
Continuous
 62
     0
370
    30
100
AcDbSpline
210
0.0
220
0.0
230
1.0
 70
     8
 71
     3
 72
    14
 73
    10
 74
     0
 42
0.000000001
 43
0.0
 40
0.0
 40
0.0
 40
0.0
 40
0.0
 40
0.9118343725061222
 40
1.812967381621847
 40
2.704719619995633
 40
3.590497246180465
 40
4.477336643439316
 40
5.379111974852179
 40
6.323312001412582
 40
6.323312001412582
 40
6.323312001412582
 40
6.323312001412582
 10
416.5523231386569
 20
51.75136261960211
 30
0.0
 10
416.5667773977643
 20
51.44776222057816
 30
0.0
 10
416.6084272222001
 20
50.84460827214694
 30
0.0
 10
416.7187781543375
 20
49.94929653915196
 30
0.0
 10
416.8865668923531
 20
49.07149688864448
 30
0.0
 10
417.124463859835
 20
48.21458052951229
 30
0.0
 10
417.4501595137849
 20
47.38260626705517
 30
0.0
 10
417.8897834705392
 20
46.58149579056763
 30
0.0
 10
418.2723671178792
 20
46.09430957571405
 30
0.0
 10
418.4899416492331
 20
45.86689308816636
 30
0.0
  0
SPLINE
  5
16E
330
166
100
AcDbEntity
  8
0
  6
Continuous
 62
     0
370
    30
100
AcDbSpline
210
0.0
220
0.0
230
1.0
 70
     8
 71
     3
 72
    10
 73
     6
 74
     0
 42
0.000000001
 43
0.0
 40
0.0
 40
0.0
 40
0.0
 40
0.0
 40
2.241257425238728
 40
4.488594900825211
 40
6.738313598302074
 40
6.738313598302074
 40
6.738313598302074
 40
6.738313598302074
 10
418.4899412530167
 20
45.86689321212077
 30
0.0
 10
419.0064005099141
 20
45.32707190742434
 30
0.0
 10
420.2594255658305
 20
44.44718746837941
 30
0.0
 10
422.3994839788827
 20
43.71530017303462
 30
0.0
 10
423.885735969599
 20
43.48244856269829
 30
0.0
 10
424.6317433166494
 20
43.40607843984063
 30
0.0
  0
LINE
  5
16F
330
166
100
AcDbEntity
  8
0
  6
Continuous
 62
     0
370
     0
100
AcDbLine
 10
418.257933
 20
51.751382
 30
0.0
 11
418.489941
 21
45.866893
 31
0.0
  0
SPLINE
  5
170
330
166
100
AcDbEntity
  8
0
  6
Continuous
 62
     0
370
     0
100
AcDbSpline
210
0.0
220
0.0
230
1.0
 70
     8
 71
     3
 72
    19
 73
    15
 74
     0
 42
0.000000001
 43
0.0
 40
0.0
 40
0.0
 40
0.0
 40
0.0
 40
0.9402054167346446
 40
1.890358658256295
 40
2.807377551866938
 40
3.238900455450965
 40
3.715834606712846
 40
4.238813300967026
 40
4.717704532756521
 40
5.555439518190988
 40
6.970197808916828
 40
8.219881652221206
 40
9.458761040424454
 40
10.70084437334494
 40
10.70084437334494
 40
10.70084437334494
 40
10.70084437334494
 10
424.6317433165989
 20
43.40607843991015
 30
0.0
 10
424.631801442184
 20
43.40607415126533
 30
0.0
 10
424.6198803097193
 20
43.47815765128561
 30
0.0
 10
424.573196531551
 20
43.80490155613717
 30
0.0
 10
424.5249663452541
 20
44.23257774858973
 30
0.0
 10
424.4864531420878
 20
44.63982883551074
 30
0.0
 10
424.459984549462
 20
44.99067256623306
 30
0.0
 10
424.4478254737003
 20
45.398597767827
 30
0.0
 10
424.4469500006783
 20
45.94733657846803
 30
0.0
 10
424.4653648739247
 20
46.81572479238264
 30
0.0
 10
424.5095054019623
 20
47.97427607805537
 30
0.0
 10
424.5411471063801
 20
49.26980058595549
 30
0.0
 10
424.5605959333882
 20
50.51088649170663
 30
0.0
 10
424.5650511571762
 20
51.33746370781397
 30
0.0
 10
424.564731513402
 20
51.75139601568404
 30
0.0
  0
SPLINE
  5
171
330
166
100
AcDbEntity
  8
0
  6
Continuous
 62
     0
370
     0
100
AcDbSpline
210
0.0
220
0.0
230
1.0
 70
     8
 71
     3
 72
    19
 73
    15
 74
     0
 42
0.000000001
 43
0.0
 40
0.0
 40
0.0
 40
0.0
 40
0.0
 40
1.201308529367107
 40
2.402747184967449
 40
3.604261195023195
 40
4.20520648542558
 40
4.806233988361022
 40
5.408078512926807
 40
6.01105082724652
 40
6.31496465085846
 40
6.619995787069243
 40
7.230942810196423
 40
7.844482882266558
 40
8.460019288708956
 40
8.460019288708956
 40
8.460019288708956
 40
8.460019288708956
 10
426.2015684695998
 20
51.78355499650064
 30
0.0
 10
426.2020459527606
 20
51.38321607742954
 30
0.0
 10
426.2036280431814
 20
50.58269390947649
 30
0.0
 10
426.207697847407
 20
49.38366888714779
 30
0.0
 10
426.2120226847906
 20
48.38575177148169
 30
0.0
 10
426.2168919737589
 20
47.59032658562268
 30
0.0
 10
426.22254044266
 20
46.99976229697967
 30
0.0
 10
426.2310319703203
 20
46.42508773722176
 30
0.0
 10
426.2417796369838
 20
45.98475499108986
 30
0.0
 10
426.2519627626162
 20
45.69445404431076
 30
0.0
 10
426.2618128963375
 20
45.42823671203334
 30
0.0
 10
426.2730113185572
 20
45.14938270253808
 30
0.0
 10
426.282393389605
 20
44.94313470961455
 30
0.0
 10
426.2845566909086
 20
44.89827538898933
 30
0.0
 10
426.2845026087278
 20
44.89827969199547
 30
0.0
  0
SPLINE
  5
172
330
166
100
AcDbEntity
  8
0
  6
Continuous
 62
     0
370
     0
100
AcDbSpline
210
0.0
220
0.0
230
1.0
 70
     8
 71
     3
 72
    21
 73
    17
 74
     0
 42
0.000000001
 43
0.0
 40
53.50883110218192
 40
53.50883110218192
 40
53.50883110218192
 40
53.50883110218192
 40
57.39089106357641
 40
61.26904887813672
 40
65.13758184538766
 40
68.98387127952655
 40
72.80944131617571
 40
76.61684384179975
 40
80.41007844577194
 40
84.19392074791796
 40
87.97394791961561
 40
91.7566822502056
 40
95.54789920655986
 40
99.35263460253216
 40
103.1750576592479
 40
107.0176622043638
 40
107.0176622043638
 40
107.0176622043638
 40
107.0176622043638
 10
426.2845022451883
 20
149.8989409171664
 30
0.0
 10
426.2848721451743
 20
149.8990294597603
 30
0.0
 10
426.1950340125885
 20
149.6655693094482
 30
0.0
 10
425.8129146297537
 20
148.6313342759415
 30
0.0
 10
425.2108758958624
 20
146.9672237625576
 30
0.0
 10
424.4860490714063
 20
144.7314937809414
 30
0.0
 10
423.7391400417644
 20
141.9964294736728
 30
0.0
 10
423.0650281395463
 20
138.836190293265
 30
0.0
 10
422.5489338693756
 20
135.3396290942266
 30
0.0
 10
422.2593483674145
 20
131.61892386006
 30
0.0
 10
422.2363714597182
 20
127.8114381278677
 30
0.0
 10
422.4835214983525
 20
124.0662698996718
 30
0.0
 10
422.9659970646298
 20
120.5239343682342
 30
0.0
 10
423.6193700497483
 20
117.3007481068799
 30
0.0
 10
424.3603917225423
 20
114.4899401546438
 30
0.0
 10
424.8496647329579
 20
112.9438052678707
 30
0.0
 10
425.0763693212002
 20
112.2645496449501
 30
0.0
  0
SPLINE
  5
173
330
166
100
AcDbEntity
  8
0
  6
Continuous
 62
     0
370
     0
100
AcDbSpline
210
0.0
220
0.0
230
1.0
 70
     8
 71
     3
 72
    14
 73
    10
 74
     0
 42
0.000000001
 43
0.0
 40
0.0
 40
0.0
 40
0.0
 40
0.0
 40
2.24056531891082
 40
4.47475665392111
 40
6.701008957944321
 40
8.917472874916836
 40
11.12743481330227
 40
13.33256461810859
 40
15.53499704911237
 40
15.53499704911237
 40
15.53499704911237
 40
15.53499704911237
 10
425.0763690953289
 20
112.2645500815069
 30
0.0
 10
425.208557204252
 20
111.868486561989
 30
0.0
 10
425.4404395088961
 20
110.986017302274
 30
0.0
 10
425.6987303150927
 20
109.4266730289451
 30
0.0
 10
425.8801806437023
 20
107.6655696275999
 30
0.0
 10
425.9999737544674
 20
105.7354348157825
 30
0.0
 10
426.0756362575985
 20
103.6765509320628
 30
0.0
 10
426.117441010572
 20
101.5268537900032
 30
0.0
 10
426.1278147939342
 20
100.0584953156306
 30
0.0
 10
426.1291299772805
 20
99.32456615215621
 30
0.0
  0
ARC
  5
174
330
166
100
AcDbEntity
  8
0
  6
Continuous
 62
     0
370
     0
100
AcDbCircle
 10
-78822.250512
 20
-45.20196
 30
0.0
 40
79248.51142651417
100
AcDbArc
 50
0.070119
 51
0.104491
  0
ELLIPSE
  5
175
330
166
100
AcDbEntity
  8
0
  6
Continuous
 62
     0
370
     0
100
AcDbEllipse
 10
424.633244
 20
99.324566
 30
0.0
 11
-1.499997717484668
 21
-0.002616780614927137
 31
0.0
210
0.0
220
0.0
230
1.0
 40
0.023493
 41
1.492502766788073
 42
3.067488891980149
  0
ELLIPSE
  5
176
330
166
100
AcDbEntity
  8
0
  6
Continuous
 62
     0
370
     0
100
AcDbEllipse
 10
423.609421
 20
112.264548
 30
0.0
 11
1.426549999433771
 21
0.463632504377672
 31
0.0
210
0.0
220
0.0
230
-1.0
 40
0.822832
 41
0.3761703310478633
 42
1.832103405725799
  0
SPLINE
  5
177
330
166
100
AcDbEntity
  8
0
  6
Continuous
 62
     0
370
     0
100
AcDbSpline
210
0.0
220
0.0
230
1.0
 70
     8
 71
     3
 72
    21
 73
    17
 74
     0
 42
0.000000001
 43
0.0
 40
0.0
 40
0.0
 40
0.0
 40
0.0
 40
5.594315440448668
 40
10.61069848511555
 40
15.10408009727379
 40
19.16112536503131
 40
23.3325390180121
 40
28.1865997306912
 40
31.65077471870194
 40
35.17005316295101
 40
40.52516576235791
 40
45.08449179228545
 40
49.40095951828991
 40
50.98784248892994
 40
53.5600897172287
 40
56.70864473622917
 40
56.70864473622917
 40
56.70864473622917
 40
56.70864473622917
 10
423.6094206455216
 20
111.0108074071639
 30
0.0
 10
423.3032526601341
 20
112.0217865513286
 30
0.0
 10
422.6602771117618
 20
114.2996137372856
 30
0.0
 10
421.7927779344313
 20
118.3449203771897
 30
0.0
 10
421.1940305272549
 20
122.4802888486515
 30
0.0
 10
420.8707167170694
 20
126.6381939623825
 30
0.0
 10
420.8208023863174
 20
131.0330386683491
 30
0.0
 10
421.0781205388646
 20
135.1651886127695
 30
0.0
 10
421.5463026233815
 20
138.8475183151601
 30
0.0
 10
422.1807286825931
 20
142.3893488220504
 30
0.0
 10
422.9905126334143
 20
145.7278286959413
 30
0.0
 10
423.8159766505134
 20
148.496068630044
 30
0.0
 10
424.296872406685
 20
149.9473668663375
 30
0.0
 10
424.5701674142988
 20
150.7714076013751
 30
0.0
 10
424.7375247793916
 20
151.2615847564902
 30
0.0
 10
424.7846691019744
 20
151.3989050928585
 30
0.0
 10
424.784457528369
 20
151.3989333032091
 30
0.0
  0
ARC
  5
178
330
166
100
AcDbEntity
  8
0
  6
Continuous
 62
     0
370
    30
100
AcDbCircle
 10
424.784503
 20
44.89828
 30
0.0
 40
1.50000000000003
100
AcDbArc
 50
264.154889
 51
304.248589
  0
LINE
  5
179
330
166
100
AcDbEntity
  8
0
  6
Continuous
 62
     0
370
    30
100
AcDbLine
 10
404.560439
 20
107.399005
 30
0.0
 11
395.252656
 21
107.399005
 31
0.0
  0
LINE
  5
17A
330
166
100
AcDbEntity
  8
0
  6
Continuous
 62
     0
370
    30
100
AcDbLine
 10
395.252656
 20
107.399005
 30
0.0
 11
395.252657
 21
121.89911
 31
0.0
  0
ARC
  5
17B
330
166
100
AcDbEntity
  8
0
  6
Continuous
 62
     0
370
    30
100
AcDbCircle
 10
455.259484
 20
121.897551
 30
0.0
 40
60.00682808211975
100
AcDbArc
 50
155.001441
 51
179.998512
  0
LINE
  5
17C
330
166
100
AcDbEntity
  8
0
  6
Continuous
 62
     0
370
    30
100
AcDbLine
 10
400.87419
 20
147.256164
 30
0.0
 11
402.806058
 21
151.399005
 31
0.0
  0
ARC
  5
17D
330
166
100
AcDbEntity
  8
0
  6
Continuous
 62
     0
370
    30
100
AcDbCircle
 10
404.558343
 20
97.598906
 30
0.0
 40
9.80009888683339
100
AcDbArc
 50
2.726319
 51
89.987748
  0
SPLINE
  5
17E
330
166
100
AcDbEntity
  8
0
  6
Continuous
 62
     0
370
     0
100
AcDbSpline
210
0.0
220
0.0
230
1.0
 70
     8
 71
     3
 72
    16
 73
    12
 74
     0
 42
0.000000001
 43
0.0
 40
0.0
 40
0.0
 40
0.0
 40
0.0
 40
1.543284002504875
 40
3.086353918586423
 40
3.858114764015034
 40
4.629894105402458
 40
5.401536259293344
 40
6.173306702456757
 40
7.716191491582625
 40
9.256961009899756
 40
10.79668977389726
 40
10.79668977389726
 40
10.79668977389726
 40
10.79668977389726
 10
410.2922482309232
 20
109.0992669752601
 30
0.0
 10
409.8675331548513
 20
108.9873753796301
 30
0.0
 10
409.0417640727844
 20
108.7604810615647
 30
0.0
 10
408.0827694648317
 20
108.4793480495404
 30
0.0
 10
407.3718205616187
 20
108.2632718643051
 30
0.0
 10
406.8637128893943
 20
108.1086377625613
 30
0.0
 10
406.4132223143481
 20
107.9585084342128
 30
0.0
 10
405.8561033075639
 20
107.7764952359987
 30
0.0
 10
405.2203742815827
 20
107.5887227428302
 30
0.0
 10
404.6823219799653
 20
107.4359804727686
 30
0.0
 10
404.5581421547279
 20
107.3990080454586
 30
0.0
 10
404.5604386823941
 20
107.3990045581273
 30
0.0
  0
LINE
  5
17F
330
166
100
AcDbEntity
  8
0
  6
Continuous
 62
     0
370
     0
100
AcDbLine
 10
418.257933
 20
51.751382
 30
0.0
 11
424.564732
 21
51.751396
 31
0.0
  0
SPLINE
  5
180
330
166
100
AcDbEntity
  8
0
  6
Continuous
 62
     0
370
     0
100
AcDbSpline
210
0.0
220
0.0
230
1.0
 70
     8
 71
     9
 72
    20
 73
    10
 74
     0
 42
0.000000001
 43
0.0
 40
0.0
 40
0.0
 40
0.0
 40
0.0
 40
0.0
 40
0.0
 40
0.0
 40
0.0
 40
0.0
 40
0.0
 40
0.2499999949532689
 40
0.2499999949532689
 40
0.2499999949532689
 40
0.2499999949532689
 40
0.2499999949532689
 40
0.2499999949532689
 40
0.2499999949532689
 40
0.2499999949532689
 40
0.2499999949532689
 40
0.2499999949532689
 10
416.5523232511341
 20
51.75136263465295
 30
0.0
 10
416.552323218792
 20
51.75136462270395
 30
0.0
 10
416.5918854956587
 20
51.75135390051528
 30
0.0
 10
416.6791158756075
 20
51.75135806607216
 30
0.0
 10
416.822789888083
 20
51.75136319664881
 30
0.0
 10
417.0338593516283
 20
51.75136900560983
 30
0.0
 10
417.2962118548726
 20
51.75137421229454
 30
0.0
 10
417.5941489196844
 20
51.75137833647807
 30
0.0
 10
417.9171756516232
 20
51.7513810507929
 30
0.0
 10
418.2579332706564
 20
51.75138214873016
 30
0.0
  0
ELLIPSE
  5
181
330
166
100
AcDbEntity
  8
0
  6
Continuous
 62
     0
370
     0
100
AcDbEllipse
 10
410.292248
 20
98.667387
 30
0.0
 11
2.96810907350668
 21
-10.90906287524288
 31
0.0
210
0.0
220
0.0
230
-1.0
 40
0.532078
 41
3.614277646589807
 42
4.82558200655609
  0
SPLINE
  5
182
330
166
100
AcDbEntity
  8
0
  6
Continuous
 62
     0
370
     0
100
AcDbSpline
210
0.0
220
0.0
230
1.0
 70
     8
 71
     3
 72
    16
 73
    12
 74
     0
 42
0.000000001
 43
0.0
 40
0.0
 40
0.0
 40
0.0
 40
0.0
 40
0.7200721354848169
 40
1.381009099881515
 40
1.693473883852199
 40
1.994629261538789
 40
2.283432549630382
 40
2.568905394880826
 40
3.135464431981119
 40
3.678694852610641
 40
4.210774072366411
 40
4.210774072366411
 40
4.210774072366411
 40
4.210774072366411
 10
416.3948316116966
 20
99.00435240491768
 30
0.0
 10
416.1935903908354
 20
98.9874365733341
 30
0.0
 10
415.8211402983163
 20
98.94014942512376
 30
0.0
 10
415.4135215225494
 20
98.83901161659097
 30
0.0
 10
415.1435728255744
 20
98.73552683356858
 30
0.0
 10
414.9702820328462
 20
98.65189909329261
 30
0.0
 10
414.8155054294011
 20
98.59125915362603
 30
0.0
 10
414.6437476484903
 20
98.4774479798293
 30
0.0
 10
414.4886571772058
 20
98.287895710605
 30
0.0
 10
414.3737268502928
 20
98.10502080784295
 30
0.0
 10
414.3473485165425
 20
98.06505135227984
 30
0.0
 10
414.3473496457202
 20
98.06505021544847
 30
0.0
  0
ELLIPSE
  5
183
330
166
100
AcDbEntity
  8
0
  6
Continuous
 62
     0
370
     0
100
AcDbEllipse
 10
424.703765
 20
51.783555
 30
0.0
 11
-1.49999898886113
 21
-0.001741670344328226
 31
0.0
210
0.0
220
0.0
230
1.0
 40
0.021424
 41
1.477949412419832
 42
3.087460672983013
  0
LINE
  5
184
330
166
100
AcDbEntity
  8
0
  6
Continuous
 62
     0
370
    30
100
AcDbLine
 10
392.252657
 20
151.499002
 30
0.0
 11
392.252657
 21
107.299002
 31
0.0
  0
LINE
  5
185
330
166
100
AcDbEntity
  8
0
  6
Continuous
 62
     0
370
    30
100
AcDbLine
 10
383.952657
 20
239.899002
 30
0.0
 11
383.952657
 21
150.899002
 31
0.0
  0
LINE
  5
186
330
166
100
AcDbEntity
  8
0
  6
Continuous
 62
     0
370
    30
100
AcDbLine
 10
383.952657
 20
150.899002
 30
0.0
 11
383.952657
 21
61.899002
 31
0.0
  0
LINE
  5
187
330
166
100
AcDbEntity
  8
0
  6
Continuous
 62
     0
370
     0
100
AcDbLine
 10
382.952657
 20
240.899002
 30
0.0
 11
382.952657
 21
150.899002
 31
0.0
  0
LINE
  5
188
330
166
100
AcDbEntity
  8
0
  6
Continuous
 62
     0
370
     0
100
AcDbLine
 10
382.952657
 20
150.899002
 30
0.0
 11
382.952657
 21
60.899002
 31
0.0
  0
LINE
  5
189
330
166
100
AcDbEntity
  8
0
  6
Continuous
 62
     0
370
    30
100
AcDbLine
 10
371.952657
 20
240.899002
 30
0.0
 11
371.952657
 21
150.899002
 31
0.0
  0
LINE
  5
18A
330
166
100
AcDbEntity
  8
0
  6
Continuous
 62
     0
370
    30
100
AcDbLine
 10
371.952657
 20
150.899002
 30
0.0
 11
371.952657
 21
60.899002
 31
0.0
  0
ARC
  5
18B
330
166
100
AcDbEntity
  8
0
  6
Continuous
 62
     0
370
    30
100
AcDbCircle
 10
405.862089
 20
166.677811
 30
0.0
 40
0.3000002024697762
100
AcDbArc
 50
310.2973
 51
0.0
  0
LINE
  5
18C
330
166
100
AcDbEntity
  8
0
  6
Continuous
 62
     0
370
    30
100
AcDbLine
 10
406.056116
 20
166.449001
 30
0.0
 11
401.653509
 21
166.449001
 31
0.0
  0
ARC
  5
18D
330
166
100
AcDbEntity
  8
0
  6
Continuous
 62
     0
370
    30
100
AcDbCircle
 10
401.653509
 20
166.749001
 30
0.0
 40
0.3000000749317842
100
AcDbArc
 50
180.499955
 51
270.0
  0
LINE
  5
18E
330
166
100
AcDbEntity
  8
0
  6
Continuous
 62
     0
370
    30
100
AcDbLine
 10
401.35352
 20
166.746383
 30
0.0
 11
401.346876
 21
167.507728
 31
0.0
  0
ARC
  5
18F
330
166
100
AcDbEntity
  8
0
  6
Continuous
 62
     0
370
    30
100
AcDbCircle
 10
400.34688
 20
167.498967
 30
0.0
 40
1.000034461682265
100
AcDbArc
 50
0.501957
 51
90.000003
  0
LINE
  5
190
330
166
100
AcDbEntity
  8
0
  6
Continuous
 62
     0
370
    30
100
AcDbLine
 10
400.34688
 20
168.499001
 30
0.0
 11
387.452653
 21
168.499001
 31
0.0
  0
LINE
  5
191
330
166
100
AcDbEntity
  8
0
  6
Continuous
 62
     0
370
    30
100
AcDbLine
 10
387.452653
 20
167.399002
 30
0.0
 11
386.452653
 21
166.399002
 31
0.0
  0
LINE
  5
192
330
166
100
AcDbEntity
  8
0
  6
Continuous
 62
     0
370
    30
100
AcDbLine
 10
406.056116
 20
188.349002
 30
0.0
 11
406.056116
 21
166.449001
 31
0.0
  0
LINE
  5
193
330
166
100
AcDbEntity
  8
0
  6
Continuous
 62
     0
370
     0
100
AcDbLine
 10
401.653509
 20
188.349002
 30
0.0
 11
401.653509
 21
166.449001
 31
0.0
  0
LINE
  5
194
330
166
100
AcDbEntity
  8
0
  6
Continuous
 62
     0
370
     0
100
AcDbLine
 10
401.346876
 20
187.290275
 30
0.0
 11
401.346876
 21
167.507728
 31
0.0
  0
LINE
  5
195
330
166
100
AcDbEntity
  8
0
  6
Continuous
 62
     0
370
     0
100
AcDbLine
 10
400.34688
 20
186.299002
 30
0.0
 11
400.34688
 21
168.499001
 31
0.0
  0
LINE
  5
196
330
166
100
AcDbEntity
  8
0
  6
Continuous
 62
     0
370
    30
100
AcDbLine
 10
387.452653
 20
187.399001
 30
0.0
 11
387.452653
 21
167.399002
 31
0.0
  0
LINE
  5
197
330
166
100
AcDbEntity
  8
0
  6
Continuous
 62
     0
370
    30
100
AcDbLine
 10
386.452653
 20
188.399001
 30
0.0
 11
386.452653
 21
166.399002
 31
0.0
  0
LINE
  5
198
330
166
100
AcDbEntity
  8
0
  6
Continuous
 62
     0
370
    30
100
AcDbLine
 10
392.252657
 20
151.499002
 30
0.0
 11
383.952657
 21
151.499002
 31
0.0
  0
LINE
  5
199
330
166
100
AcDbEntity
  8
0
  6
Continuous
 62
     0
370
    30
100
AcDbLine
 10
386.452653
 20
166.399002
 30
0.0
 11
383.952657
 21
166.399002
 31
0.0
  0
ARC
  5
19A
330
166
100
AcDbEntity
  8
0
  6
Continuous
 62
     0
370
    30
100
AcDbCircle
 10
390.882751
 20
129.294825
 30
0.0
 40
20.49999999996016
100
AcDbArc
 50
60.90313
 51
86.168371
  0
LINE
  5
19B
330
166
100
AcDbEntity
  8
0
  6
Continuous
 62
     0
370
    30
100
AcDbLine
 10
386.452653
 20
188.399001
 30
0.0
 11
383.952657
 21
188.399001
 31
0.0
  0
LINE
  5
19C
330
166
100
AcDbEntity
  8
0
  6
Continuous
 62
     0
370
    30
100
AcDbLine
 10
387.452653
 20
187.399001
 30
0.0
 11
386.452653
 21
188.399001
 31
0.0
  0
LINE
  5
19D
330
166
100
AcDbEntity
  8
0
  6
Continuous
 62
     0
370
    30
100
AcDbLine
 10
400.34688
 20
186.299002
 30
0.0
 11
387.452653
 21
186.299002
 31
0.0
  0
ARC
  5
19E
330
166
100
AcDbEntity
  8
0
  6
Continuous
 62
     0
370
    30
100
AcDbCircle
 10
400.34688
 20
187.299036
 30
0.0
 40
1.000034461682265
100
AcDbArc
 50
269.999997
 51
359.498043
  0
LINE
  5
19F
330
166
100
AcDbEntity
  8
0
  6
Continuous
 62
     0
370
    30
100
AcDbLine
 10
401.35352
 20
188.05162
 30
0.0
 11
401.346876
 21
187.290275
 31
0.0
  0
LINE
  5
1A0
330
166
100
AcDbEntity
  8
0
  6
Continuous
 62
     0
370
    30
100
AcDbLine
 10
401.353555
 20
188.054245
 30
0.0
 11
401.353555
 21
166.743758
 31
0.0
  0
ARC
  5
1A1
330
166
100
AcDbEntity
  8
0
  6
Continuous
 62
     0
370
    30
100
AcDbCircle
 10
401.653509
 20
188.049002
 30
0.0
 40
0.3000000749317842
100
AcDbArc
 50
90.0
 51
179.500045
  0
LINE
  5
1A2
330
166
100
AcDbEntity
  8
0
  6
Continuous
 62
     0
370
    30
100
AcDbLine
 10
406.056116
 20
188.349002
 30
0.0
 11
401.653509
 21
188.349002
 31
0.0
  0
LINE
  5
1A3
330
166
100
AcDbEntity
  8
0
  6
Continuous
 62
     0
370
    30
100
AcDbLine
 10
406.162089
 20
188.120192
 30
0.0
 11
406.162089
 21
166.677811
 31
0.0
  0
ARC
  5
1A4
330
166
100
AcDbEntity
  8
0
  6
Continuous
 62
     0
370
    30
100
AcDbCircle
 10
405.862089
 20
188.120192
 30
0.0
 40
0.3000002024697762
100
AcDbArc
 50
360.0
 51
49.7027
  0
LINE
  5
1A5
330
166
100
AcDbEntity
  8
0
  6
Continuous
 62
     0
370
    30
100
AcDbLine
 10
382.952657
 20
60.899002
 30
0.0
 11
371.952657
 21
60.899002
 31
0.0
  0
LINE
  5
1A6
330
166
100
AcDbEntity
  8
0
  6
Continuous
 62
     0
370
    30
100
AcDbLine
 10
382.952657
 20
240.899002
 30
0.0
 11
371.952657
 21
240.899002
 31
0.0
  0
ARC
  5
1A7
330
166
100
AcDbEntity
  8
0
  6
Continuous
 62
     0
370
    30
100
AcDbCircle
 10
382.952645
 20
61.899014
 30
0.0
 40
1.000011948518741
100
AcDbArc
 50
270.000685
 51
359.999315
  0
ARC
  5
1A8
330
166
100
AcDbEntity
  8
0
  6
Continuous
 62
     0
370
    30
100
AcDbCircle
 10
382.952645
 20
239.89899
 30
0.0
 40
1.000011948408463
100
AcDbArc
 50
0.000685
 51
89.999315
  0
LINE
  5
1A9
330
166
100
AcDbEntity
  8
0
  6
Continuous
 62
     0
370
    30
100
AcDbLine
 10
392.252657
 20
107.299002
 30
0.0
 11
383.952657
 21
107.299002
 31
0.0
  0
ARC
  5
1AA
330
166
100
AcDbEntity
  8
0
  6
Continuous
 62
     0
370
    30
100
AcDbCircle
 10
390.882751
 20
129.503179
 30
0.0
 40
20.50000000138865
100
AcDbArc
 50
273.831629
 51
282.307962
  0
LINE
  5
1AB
330
166
100
AcDbEntity
  8
0
  6
Continuous
 62
     0
370
    30
100
AcDbLine
 10
424.784458
 20
151.399004
 30
0.0
 11
402.806058
 21
151.399005
 31
0.0
  0
SPLINE
  5
1AC
330
166
100
AcDbEntity
  8
0
  6
Continuous
 62
     0
370
    30
100
AcDbSpline
210
0.0
220
0.0
230
1.0
 70
     8
 71
     3
 72
    18
 73
    14
 74
     0
 42
0.000000001
 43
0.0
 40
0.0
 40
0.0
 40
0.0
 40
0.0
 40
0.0769714553143956
 40
0.1540164079609054
 40
0.307776790081833
 40
0.4612611706132356
 40
0.6916440019208929
 40
0.9989261799119296
 40
1.152567208241565
 40
1.229387680521809
 40
1.306208153444256
 40
1.383028626970364
 40
1.459849101056789
 40
1.459849101056789
 40
1.459849101056789
 40
1.459849101056789
 10
426.284504489758
 20
44.89831586545571
 30
0.0
 10
426.2845044990402
 20
44.87308277394663
 30
0.0
 10
426.2832072509923
 20
44.82161948241375
 30
0.0
 10
426.2753405259565
 20
44.7194082886077
 30
0.0
 10
426.2557095553028
 20
44.59259616486247
 30
0.0
 10
426.2102523663854
 20
44.41900696239196
 30
0.0
 10
426.1236886200609
 20
44.20472157486495
 30
0.0
 10
425.9999395604415
 20
44.00892566223303
 30
0.0
 10
425.8820625774435
 20
43.87347169086672
 30
0.0
 10
425.8088726405307
 20
43.8018577154956
 30
0.0
 10
425.7517775503986
 20
43.75012534192575
 30
0.0
 10
425.6902941724201
 20
43.70483569193016
 30
0.0
 10
425.652335454929
 20
43.66817768535446
 30
0.0
 10
425.6286795482598
 20
43.65837424881195
 30
0.0
  0
ARC
  5
1AD
330
166
100
AcDbEntity
  8
0
  6
Continuous
 62
     0
370
    30
100
AcDbCircle
 10
424.7844
 20
149.898832
 30
0.0
 40
1.500101343992509
100
AcDbArc
 50
0.003988
 51
89.997802
  0
LINE
  5
1AE
330
166
100
AcDbEntity
  8
0
  6
Continuous
 62
     0
370
    30
100
AcDbLine
 10
426.284505
 20
44.912503
 30
0.0
 11
426.284505
 21
149.898934
 31
0.0
  0
ENDBLK
  5
1B0
330
166
100
AcDbEntity
  8
0
100
AcDbBlockEnd
  0
BLOCK
  5
203
330
1B2
100
AcDbEntity
  8
0
100
AcDbBlockBegin
  2
f
 70
     0
 10
432.490967
 20
-269.372742
 30
0.0
  3
f
  1

  0
SPLINE
  5
1B3
330
1B2
100
AcDbEntity
  8
0
  6
Continuous
 62
     0
370
     0
100
AcDbSpline
210
0.0
220
0.0
230
1.0
 70
     8
 71
     3
 72
    51
 73
    47
 74
     0
 42
0.000000001
 43
0.0
 40
-0.2491813246247681
 40
-0.2491813246247681
 40
-0.2491813246247681
 40
-0.2491813246247681
 40
0.017162016540933
 40
0.2835053577066304
 40
0.535923783967398
 40
0.7883422102281656
 40
1.263942214575966
 40
1.711200586147008
 40
2.134942605630988
 40
2.542951826897269
 40
2.840615940018559
 40
3.138280053139848
 40
3.435944166261139
 40
3.733608279382429
 40
4.120540898350511
 40
4.507473517318592
 40
4.894406136286674
 40
5.269903759059908
 40
5.645401381833143
 40
6.020899004606378
 40
6.386435538439976
 40
6.751972072273571
 40
7.117508606107169
 40
7.474166979734076
 40
7.83082535336098
 40
8.187483726987887
 40
8.535617365607935
 40
8.883751004227982
 40
9.23188464284803
 40
9.571231343209172
 40
9.910578043570315
 40
10.24992474393146
 40
10.58212092434274
 40
10.91431710475403
 40
11.24651328516531
 40
11.57436584635076
 40
11.90221840753621
 40
12.23007096872165
 40
12.55540209399189
 40
12.88073321926212
 40
13.20606434453236
 40
13.52915835777935
 40
13.85225237102633
 40
14.17534638427331
 40
14.49529944136774
 40
14.77103057224742
 40
14.77103057224742
 40
14.77103057224742
 40
14.77103057224742
 10
500.7945514484327
 20
-207.9235788485966
 30
0.0
 10
500.7937444139495
 20
-207.9252738343732
 30
0.0
 10
500.7916710139432
 20
-207.9290212791148
 30
0.0
 10
500.7871784132847
 20
-207.9358833204932
 30
0.0
 10
500.781312034803
 20
-207.9441770945085
 30
0.0
 10
500.7719496437395
 20
-207.9570908047279
 30
0.0
 10
500.7572518218164
 20
-207.9774404190255
 30
0.0
 10
500.7345303682823
 20
-208.0100218111287
 30
0.0
 10
500.7072406603972
 20
-208.0497214320654
 30
0.0
 10
500.6784682024464
 20
-208.0909375976322
 30
0.0
 10
500.6502732402631
 20
-208.1293489319463
 30
0.0
 10
500.6232575324623
 20
-208.1647530636944
 30
0.0
 10
500.5943767239624
 20
-208.2012429391194
 30
0.0
 10
500.5606193993183
 20
-208.2424302280126
 30
0.0
 10
500.5213764585653
 20
-208.2884960310384
 30
0.0
 10
500.4758084974703
 20
-208.3400929978884
 30
0.0
 10
500.4275697110834
 20
-208.393158553352
 30
0.0
 10
500.3766760249993
 20
-208.447917168778
 30
0.0
 10
500.3232692661131
 20
-208.5042360039799
 30
0.0
 10
500.2673689968161
 20
-208.5620939230706
 30
0.0
 10
500.2090984094404
 20
-208.6213742697932
 30
0.0
 10
500.148548976908
 20
-208.682041136049
 30
0.0
 10
500.0857106545515
 20
-208.7441460617245
 30
0.0
 10
500.0206638392448
 20
-208.8076584363634
 30
0.0
 10
499.9534771240876
 20
-208.8725422487141
 30
0.0
 10
499.8841625261723
 20
-208.9388068097888
 30
0.0
 10
499.812785277443
 20
-209.0064174557409
 30
0.0
 10
499.7393291227467
 20
-209.0754334255125
 30
0.0
 10
499.6637672059591
 20
-209.1459162679725
 30
0.0
 10
499.5860923707617
 20
-209.2179145243073
 30
0.0
 10
499.5064318355989
 20
-209.2913277300626
 30
0.0
 10
499.4247439116376
 20
-209.366204846319
 30
0.0
 10
499.3411363383945
 20
-209.4424605646895
 30
0.0
 10
499.2558503938764
 20
-209.5198908300337
 30
0.0
 10
499.1688506062594
 20
-209.5985379034456
 30
0.0
 10
499.0803453765627
 20
-209.6782237484125
 30
0.0
 10
498.9904789195274
 20
-209.7588388787918
 30
0.0
 10
498.8992119350343
 20
-209.8404356778094
 30
0.0
 10
498.8066732986669
 20
-209.9229160068167
 30
0.0
 10
498.7129345447279
 20
-210.0062390572401
 30
0.0
 10
498.6180332190091
 20
-210.0903930632954
 30
0.0
 10
498.5220378836716
 20
-210.1753391068938
 30
0.0
 10
498.4247240906466
 20
-210.2612698198008
 30
0.0
 10
498.3259568771478
 20
-210.3482984412651
 30
0.0
 10
498.2301359533413
 20
-210.4325523851889
 30
0.0
 10
498.1671323074927
 20
-210.4878713784042
 30
0.0
 10
498.1378287872863
 20
-210.5135886828556
 30
0.0
  0
SPLINE
  5
1B4
330
1B2
100
AcDbEntity
  8
0
  6
Continuous
 62
     0
370
     0
100
AcDbSpline
210
0.0
220
0.0
230
1.0
 70
     8
 71
     3
 72
    10
 73
     6
 74
     0
 42
0.000000001
 43
0.0
 40
0.0
 40
0.0
 40
0.0
 40
0.0
 40
4.634265232765267
 40
9.274351897431163
 40
13.90932365833866
 40
13.90932365833866
 40
13.90932365833866
 40
13.90932365833866
 10
498.1378746297005
 20
-210.513548450706
 30
0.0
 10
498.1172001165546
 20
-209.0638334555995
 30
0.0
 10
498.5083450423842
 20
-206.2323248618823
 30
0.0
 10
500.3528720399783
 20
-202.6815916391923
 30
0.0
 10
502.3854610667166
 20
-200.9434695399645
 30
0.0
 10
503.5551335651269
 20
-200.2828468796581
 30
0.0
  0
LINE
  5
1B5
330
1B2
100
AcDbEntity
  8
0
  6
Continuous
 62
     0
370
     0
100
AcDbLine
 10
503.555134
 20
-200.282847
 30
0.0
 11
504.214841
 21
-199.920251
 31
0.0
  0
SPLINE
  5
1B6
330
1B2
100
AcDbEntity
  8
0
  6
Continuous
 62
     0
370
     0
100
AcDbSpline
210
0.0
220
0.0
230
1.0
 70
     8
 71
     3
 72
     8
 73
     4
 74
     0
 42
0.000000001
 43
0.0
 40
0.0
 40
0.0
 40
0.0
 40
0.0
 40
47.29217280920905
 40
47.29217280920905
 40
47.29217280920905
 40
47.29217280920905
 10
500.7945514484327
 20
-207.9235788485966
 30
0.0
 10
500.948008008572
 20
-222.8629012206961
 30
0.0
 10
501.1083178513927
 20
-237.8036784133898
 30
0.0
 10
501.2323173814487
 20
-252.7369163506408
 30
0.0
  0
SPLINE
  5
1B7
330
1B2
100
AcDbEntity
  8
0
  6
Continuous
 62
     0
370
     0
100
AcDbSpline
210
0.0
220
0.0
230
1.0
 70
     8
 71
     3
 72
     8
 73
     4
 74
     0
 42
0.000000001
 43
0.0
 40
0.0
 40
0.0
 40
0.0
 40
0.0
 40
47.55042729655972
 40
47.55042729655972
 40
47.55042729655972
 40
47.55042729655972
 10
499.1045811931939
 20
-254.9415955084909
 30
0.0
 10
498.7577985740979
 20
-240.1288016078142
 30
0.0
 10
498.4519448976375
 20
-225.3234242291593
 30
0.0
 10
498.1378613287028
 20
-210.5135936350791
 30
0.0
  0
SPLINE
  5
1B8
330
1B2
100
AcDbEntity
  8
0
  6
Continuous
 62
     0
370
     0
100
AcDbSpline
210
0.0
220
0.0
230
1.0
 70
     8
 71
     3
 72
    11
 73
     7
 74
     0
 42
0.000000001
 43
0.0
 40
3.728888661192362
 40
3.728888661192362
 40
3.728888661192362
 40
3.728888661192362
 40
4.125716756730592
 40
5.177493230808061
 40
6.229778854023345
 40
7.28134572491256
 40
7.28134572491256
 40
7.28134572491256
 40
7.28134572491256
 10
501.0259142998715
 20
-256.0354301529101
 30
0.0
 10
501.0508693608522
 20
-255.9190238310767
 30
0.0
 10
501.1300195950781
 20
-255.4883732638278
 30
0.0
 10
501.2080187117986
 20
-254.72079042681
 30
0.0
 10
501.2394750949805
 20
-253.733292892639
 30
0.0
 10
501.235204300337
 20
-253.068536127219
 30
0.0
 10
501.2323173357707
 20
-252.7369163939348
 30
0.0
  0
SPLINE
  5
1B9
330
1B2
100
AcDbEntity
  8
0
  6
Continuous
 62
     0
370
     0
100
AcDbSpline
210
0.0
220
0.0
230
1.0
 70
     8
 71
     3
 72
    15
 73
    11
 74
     0
 42
0.000000001
 43
0.0
 40
3.376383037887129
 40
3.376383037887129
 40
3.376383037887129
 40
3.376383037887129
 40
3.715856908827084
 40
4.238792899061064
 40
4.717644179907224
 40
5.555328424118946
 40
6.970046455662803
 40
8.219710000794644
 40
9.458574664181844
 40
10.70064831550551
 40
10.70064831550551
 40
10.70064831550551
 40
10.70064831550551
 10
498.2008840929295
 20
-261.2608243208923
 30
0.0
 10
498.2660506350667
 20
-261.1948661578321
 30
0.0
 10
498.4239483709602
 20
-261.0193219972245
 30
0.0
 10
498.6260003658018
 20
-260.7097259447464
 30
0.0
 10
498.8339875008693
 20
-260.2392479369725
 30
0.0
 10
499.0275457217805
 20
-259.4766358668961
 30
0.0
 10
499.0970500843426
 20
-258.4307400537137
 30
0.0
 10
499.118454369722
 20
-257.242909393879
 30
0.0
 10
499.1247146707302
 20
-256.0977180420269
 30
0.0
 10
499.1136337493205
 20
-255.3285272024099
 30
0.0
 10
499.1045811931939
 20
-254.9415955084909
 30
0.0
  0
SPLINE
  5
1BA
330
1B2
100
AcDbEntity
  8
0
  6
Continuous
 62
     0
370
     0
100
AcDbSpline
210
0.0
220
0.0
230
1.0
 70
     8
 71
     3
 72
    19
 73
    15
 74
     0
 42
0.000000001
 43
0.0
 40
0.0
 40
0.0
 40
0.0
 40
0.0
 40
1.201308529367107
 40
2.402747184967449
 40
3.604261195023195
 40
4.20520648542558
 40
4.806233988361022
 40
5.408078512926807
 40
6.01105082724652
 40
6.31496465085846
 40
6.619995787069243
 40
7.230942810196423
 40
7.844482882266558
 40
8.460019288708956
 40
8.460019288708956
 40
8.460019288708956
 40
8.460019288708956
 10
491.9118274464886
 20
-254.1969029745647
 30
0.0
 10
491.9349321625886
 20
-254.5739818269839
 30
0.0
 10
491.9904126376088
 20
-255.3300529976635
 30
0.0
 10
492.0999968033726
 20
-256.4683412343771
 30
0.0
 10
492.2073316670909
 20
-257.4192262163201
 30
0.0
 10
492.3177217237375
 20
-258.1825693579007
 30
0.0
 10
492.4355301101481
 20
-258.7571106055977
 30
0.0
 10
492.6078814498923
 20
-259.3286288184167
 30
0.0
 10
492.8333843678836
 20
-259.7864250238343
 30
0.0
 10
493.0736334859398
 20
-260.1072853126824
 30
0.0
 10
493.3338352360068
 20
-260.4094739588109
 30
0.0
 10
493.6969346854578
 20
-260.7439321784162
 30
0.0
 10
494.1839160170038
 20
-261.0341220494796
 30
0.0
 10
494.5256845776464
 20
-261.1430283975196
 30
0.0
 10
494.6959076337494
 20
-261.1760135527616
 30
0.0
  0
SPLINE
  5
1BB
330
1B2
100
AcDbEntity
  8
0
  6
Continuous
 62
     0
370
     0
100
AcDbSpline
210
0.0
220
0.0
230
1.0
 70
     8
 71
     3
 72
    19
 73
    15
 74
     0
 42
0.000000001
 43
0.0
 40
0.0
 40
0.0
 40
0.0
 40
0.0
 40
0.6155212461680514
 40
1.229045235639201
 40
1.839976234965928
 40
2.144999002640032
 40
2.448904921406438
 40
3.0518626949222
 40
3.653692696932374
 40
4.254705690234839
 40
4.855636365808048
 40
6.057120988631596
 40
7.258530204541062
 40
8.459809248800736
 40
8.459809248800736
 40
8.459809248800736
 40
8.459809248800736
 10
494.6959178821003
 20
-261.1760155386444
 30
0.0
 10
494.8661367680311
 20
-261.2089998069614
 30
0.0
 10
495.206825325148
 20
-261.232338551222
 30
0.0
 10
495.6878552545337
 20
-261.1297227597344
 30
0.0
 10
496.0411499645535
 20
-260.934076723561
 30
0.0
 10
496.2910227083567
 20
-260.7307208611128
 30
0.0
 10
496.5193738443853
 20
-260.5006596290576
 30
0.0
 10
496.7215661668271
 20
-260.1257526512802
 30
0.0
 10
496.8573218753635
 20
-259.6139622118017
 30
0.0
 10
496.9340850524108
 20
-259.0771458111783
 30
0.0
 10
496.9861319535661
 20
-258.3453044844676
 30
0.0
 10
497.0182668940994
 20
-257.4214735671864
 30
0.0
 10
497.0362290958238
 20
-256.3079327202478
 30
0.0
 10
497.029259023483
 20
-255.5612813283998
 30
0.0
 10
497.0207793864456
 20
-255.1870460385586
 30
0.0
  0
SPLINE
  5
1BC
330
1B2
100
AcDbEntity
  8
0
  6
Continuous
 62
     0
370
     0
100
AcDbSpline
210
0.0
220
0.0
230
1.0
 70
     8
 71
     3
 72
     8
 73
     4
 74
     0
 42
0.000000001
 43
0.0
 40
0.0
 40
0.0
 40
0.0
 40
0.0
 40
47.55430546411325
 40
47.55430546411325
 40
47.55430546411325
 40
47.55430546411325
 10
497.0207793864456
 20
-255.1870460385586
 30
0.0
 10
496.6851011342433
 20
-240.3724204329447
 30
0.0
 10
496.3927611422059
 20
-225.5646236741005
 30
0.0
 10
496.0904826056391
 20
-210.7532615362673
 30
0.0
  0
SPLINE
  5
1BD
330
1B2
100
AcDbEntity
  8
0
  6
Continuous
 62
     0
370
     0
100
AcDbSpline
210
0.0
220
0.0
230
1.0
 70
     8
 71
     3
 72
    14
 73
    10
 74
     0
 42
0.000000001
 43
0.0
 40
0.0
 40
0.0
 40
0.0
 40
0.0
 40
2.202449043862926
 40
4.407614529988809
 40
6.61760498461073
 40
8.834220870431878
 40
11.06041317940926
 40
13.29428199347736
 40
15.53506428000646
 40
15.53506428000646
 40
15.53506428000646
 40
15.53506428000646
 10
496.0904491938518
 20
-210.7532570128126
 30
0.0
 10
496.0764442569935
 20
-210.0672767548651
 30
0.0
 10
496.1406444778423
 20
-208.7094832696368
 30
0.0
 10
496.5123372581774
 20
-206.7644358403601
 30
0.0
 10
497.1531147139553
 20
-204.9418288719507
 30
0.0
 10
498.0556281457188
 20
-203.271591490552
 30
0.0
 10
499.2153796931119
 20
-201.7827146946721
 30
0.0
 10
500.61407178313
 20
-200.4955939744838
 30
0.0
 10
501.6934628843036
 20
-199.7878447880817
 30
0.0
 10
502.2650688318173
 20
-199.4752677577921
 30
0.0
  0
SPLINE
  5
1BE
330
1B2
100
AcDbEntity
  8
0
  6
Continuous
 62
     0
370
     0
100
AcDbSpline
210
0.0
220
0.0
230
1.0
 70
     8
 71
     3
 72
    35
 73
    31
 74
     0
 42
0.000000001
 43
0.0
 40
0.0
 40
0.0
 40
0.0
 40
0.0
 40
3.842553044939223
 40
7.664987140178404
 40
11.46970859298695
 40
15.2608840327312
 40
19.04363759555922
 40
22.82376401864989
 40
26.60753882794128
 40
30.4007460517766
 40
34.20808272081521
 40
38.03372712295518
 40
41.87959806736609
 40
45.74849768660261
 40
49.62627423926556
 40
53.50877529369348
 40
57.39089106357641
 40
61.26904887813672
 40
65.13758184538766
 40
68.98387127952655
 40
72.80944131617571
 40
76.61684384179975
 40
80.41007844577194
 40
84.19392074791796
 40
87.97394791961561
 40
91.7566822502056
 40
95.54789920655986
 40
99.35263460253216
 40
103.1750576592479
 40
107.0176622043638
 40
107.0176622043638
 40
107.0176622043638
 40
107.0176622043638
 10
502.2650678565917
 20
-199.4752680545683
 30
0.0
 10
503.2452726257178
 20
-198.9392521760823
 30
0.0
 10
505.1112753574644
 20
-197.6595681450195
 30
0.0
 10
507.4968893366808
 20
-195.1997432103272
 30
0.0
 10
509.3571929794153
 20
-192.2908303796387
 30
0.0
 10
510.5926329665213
 20
-189.0349527540691
 30
0.0
 10
511.1233455714885
 20
-185.5513463322154
 30
0.0
 10
510.9084082290279
 20
-181.977334293254
 30
0.0
 10
509.9581646066831
 20
-178.4524107261129
 30
0.0
 10
508.3325071139224
 20
-175.0990490155687
 30
0.0
 10
506.1241188873147
 20
-172.0112937999578
 30
0.0
 10
503.4413856295105
 20
-169.2575429399558
 30
0.0
 10
500.400036500573
 20
-166.8890764776776
 30
0.0
 10
497.1272424108806
 20
-164.9572845449594
 30
0.0
 10
493.769442927041
 20
-163.5030564005969
 30
0.0
 10
490.4551586432376
 20
-162.5908409712767
 30
0.0
 10
487.3202181632407
 20
-162.2527422884035
 30
0.0
 10
484.4721742984404
 20
-162.5038569204937
 30
0.0
 10
482.0044676155679
 20
-163.3233539581707
 30
0.0
 10
479.950367772461
 20
-164.7038189657293
 30
0.0
 10
478.3195820727731
 20
-166.6216979691933
 30
0.0
 10
477.1161111147823
 20
-169.0481681234584
 30
0.0
 10
476.3459563859814
 20
-171.9371171758746
 30
0.0
 10
476.017147647405
 20
-175.2141843968108
 30
0.0
 10
476.1328492870189
 20
-178.7688521151285
 30
0.0
 10
476.6883023600927
 20
-182.4629652289876
 30
0.0
 10
477.6695940313388
 20
-186.148670343182
 30
0.0
 10
479.0600812433606
 20
-189.6877961076217
 30
0.0
 10
480.8449007816065
 20
-192.9561800162189
 30
0.0
 10
482.2893473730605
 20
-194.8776381001163
 30
0.0
 10
483.0712184619178
 20
-195.7552261750409
 30
0.0
  0
SPLINE
  5
1BF
330
1B2
100
AcDbEntity
  8
0
  6
Continuous
 62
     0
370
     0
100
AcDbSpline
210
0.0
220
0.0
230
1.0
 70
     8
 71
     3
 72
    14
 73
    10
 74
     0
 42
0.000000001
 43
0.0
 40
0.0
 40
0.0
 40
0.0
 40
0.0
 40
2.24056531891082
 40
4.47475665392111
 40
6.701008957944321
 40
8.917472874916836
 40
11.12743481330227
 40
13.33256461810859
 40
15.53499704911237
 40
15.53499704911237
 40
15.53499704911237
 40
15.53499704911237
 10
483.0712176925565
 20
-195.755225525986
 30
0.0
 10
483.5271151522988
 20
-196.2669337972414
 30
0.0
 10
484.4184681763627
 20
-197.3569348691295
 30
0.0
 10
485.65444873542
 20
-199.1543694827113
 30
0.0
 10
486.7530568383893
 20
-201.0809447382215
 30
0.0
 10
487.6763269453303
 20
-203.1051569324808
 30
0.0
 10
488.3978236500431
 20
-205.1916837685575
 30
0.0
 10
488.8951409630025
 20
-207.3051560445373
 30
0.0
 10
489.065590469286
 20
-208.7084019328172
 30
0.0
 10
489.1089979467819
 20
-209.4000753873393
 30
0.0
  0
SPLINE
  5
1C0
330
1B2
100
AcDbEntity
  8
0
  6
Continuous
 62
     0
370
     0
100
AcDbSpline
210
0.0
220
0.0
230
1.0
 70
     8
 71
     3
 72
     8
 73
     4
 74
     0
 42
0.000000001
 43
0.0
 40
0.0
 40
0.0
 40
0.0
 40
0.0
 40
47.55445460730034
 40
47.55445460730034
 40
47.55445460730034
 40
47.55445460730034
 10
489.1089674055713
 20
-209.4000675240326
 30
0.0
 10
490.0463121602448
 20
-224.3345547539954
 30
0.0
 10
490.9972146338968
 20
-239.2700305414187
 30
0.0
 10
491.9118274464886
 20
-254.1969029745648
 30
0.0
  0
ELLIPSE
  5
1C1
330
1B2
100
AcDbEntity
  8
0
  6
Continuous
 62
     0
370
     0
100
AcDbEllipse
 10
490.034424
 20
-208.958589
 30
0.0
 11
-1.497103956121844
 21
-0.09316514672518686
 31
0.0
210
0.0
220
0.0
230
1.0
 40
0.330321
 41
6.283179828032967
 42
7.167215382371468
  0
ELLIPSE
  5
1C2
330
1B2
100
AcDbEntity
  8
0
  6
Continuous
 62
     0
370
     0
100
AcDbEllipse
 10
484.148183
 20
-195.35514
 30
0.0
 11
1.129050902238972
 21
0.9875444598362988
 31
0.0
210
0.0
220
0.0
230
1.0
 40
0.389537
 41
2.368884065009209
 42
3.141599533222848
  0
ELLIPSE
  5
1C3
330
1B2
100
AcDbEntity
  8
0
  6
Continuous
 62
     0
370
     0
100
AcDbEllipse
 10
502.821797
 20
-198.974358
 30
0.0
 11
0.7376237342473414
 21
-1.306105365839606
 31
0.0
210
0.0
220
0.0
230
-1.0
 40
0.490273
 41
0.0066695829899946
 42
1.462324121467449
  0
SPLINE
  5
1C4
330
1B2
100
AcDbEntity
  8
0
  6
Continuous
 62
     0
370
     0
100
AcDbSpline
210
0.0
220
0.0
230
1.0
 70
     8
 71
     3
 72
    24
 73
    20
 74
     0
 42
0.000000001
 43
0.0
 40
44.08535451647143
 40
44.08535451647143
 40
44.08535451647143
 40
44.08535451647143
 40
45.08449179228545
 40
49.40095951828991
 40
50.98784248892994
 40
53.5600897172287
 40
57.63180409922852
 40
61.71794092077714
 40
65.77414287274777
 40
70.60732300077261
 40
75.54753558958703
 40
80.67002611278147
 40
84.95256755626764
 40
89.22417508003764
 40
93.33620108921018
 40
97.63125829908257
 40
102.7397174449275
 40
108.130989611906
 40
113.4172894724584
 40
113.4172894724584
 40
113.4172894724584
 40
113.4172894724584
 10
482.1568261138307
 20
-161.8372254113025
 30
0.0
 10
482.3488999683801
 20
-161.7313357487653
 30
0.0
 10
483.3937747873349
 20
-161.2001502142283
 30
0.0
 10
484.9082174073228
 20
-160.7349073120773
 30
0.0
 10
486.9607635419498
 20
-160.4798756529816
 30
0.0
 10
489.0682143112756
 20
-160.4532547401601
 30
0.0
 10
492.0121392308964
 20
-160.880132502892
 30
0.0
 10
495.51086062309
 20
-161.9934632599322
 30
0.0
 10
499.2301819907359
 20
-163.7946055513111
 30
0.0
 10
503.0286827803777
 20
-166.3508549245429
 30
0.0
 10
506.6758260946557
 20
-169.7660255628907
 30
0.0
 10
509.5288559164663
 20
-173.6123143981941
 30
0.0
 10
511.4724137696152
 20
-177.6582786671829
 30
0.0
 10
512.5048182512093
 20
-181.6060917107228
 30
0.0
 10
512.7146779094749
 20
-185.6045872003335
 30
0.0
 10
512.0475698936592
 20
-189.7420147138327
 30
0.0
 10
510.2941227462795
 20
-193.9004919662824
 30
0.0
 10
507.3909903017068
 20
-197.6368411203518
 30
0.0
 10
504.8847607362638
 20
-199.5317789531876
 30
0.0
 10
503.555133784991
 20
-200.2828465305583
 30
0.0
  0
ELLIPSE
  5
1C5
330
1B2
100
AcDbEntity
  8
0
  6
Continuous
 62
     0
370
     0
100
AcDbEllipse
 10
496.831001
 20
-210.275941
 30
0.0
 11
1.499669047400504
 21
0.03150790803693172
 31
0.0
210
0.0
220
0.0
230
-1.0
 40
0.355448
 41
0.5201808261636576
 42
2.094714499472172
  0
ELLIPSE
  5
1C6
330
1B2
100
AcDbEntity
  8
0
  6
Continuous
 62
     0
370
     0
100
AcDbEllipse
 10
495.531205
 20
-260.71534
 30
0.0
 11
-0.2853549083013894
 21
-1.472607407392885
 31
0.0
210
0.0
220
0.0
230
-1.0
 40
0.534663
 41
6.283171767067309
 42
7.434328923798986
  0
ELLIPSE
  5
1C7
330
1B2
100
AcDbEntity
  8
0
  6
Continuous
 62
     0
370
    30
100
AcDbEllipse
 10
510.100308
 20
-171.555223
 30
0.0
 11
17.52652920929926
 21
-14.91701140554475
 31
0.0
210
0.0
220
0.0
230
-1.0
 40
0.558321
 41
3.349562825418
 42
4.545634410373675
  0
SPLINE
  5
1C8
330
1B2
100
AcDbEntity
  8
0
  6
Continuous
 62
     0
370
    30
100
AcDbSpline
210
0.0
220
0.0
230
1.0
 70
     8
 71
     3
 72
    14
 73
    10
 74
     0
 42
0.000000001
 43
0.0
 40
0.0
 40
0.0
 40
0.0
 40
0.0
 40
4.160334632249885
 40
8.320862856030622
 40
12.48110524863525
 40
16.64082177771166
 40
20.79993724334342
 40
24.95870119173145
 40
29.11752654309027
 40
29.11752654309027
 40
29.11752654309027
 40
29.11752654309027
 10
515.4041573326741
 20
-159.4295644179667
 30
0.0
 10
516.5394073552492
 20
-160.2254449652699
 30
0.0
 10
518.7216252379841
 20
-161.9604636446846
 30
0.0
 10
521.5868011604069
 20
-164.9317351743533
 30
0.0
 10
523.9337182567016
 20
-168.2258881534521
 30
0.0
 10
525.6484598093149
 20
-171.7740256538789
 30
0.0
 10
526.6309344402961
 20
-175.4784699536563
 30
0.0
 10
526.8131533566465
 20
-179.2041463395333
 30
0.0
 10
526.3893312105595
 20
-181.6016083405684
 30
0.0
 10
526.0495995744424
 20
-182.7480029784153
 30
0.0
  0
ELLIPSE
  5
1C9
330
1B2
100
AcDbEntity
  8
0
  6
Continuous
 62
     0
370
    30
100
AcDbEllipse
 10
508.593192
 20
-172.385969
 30
0.0
 11
-10.62019330071242
 21
19.26684961937222
 31
0.0
210
0.0
220
0.0
230
-1.0
 40
0.771598
 41
2.490670108284438
 42
3.141592663574313
  0
SPLINE
  5
1CA
330
1B2
100
AcDbEntity
  8
0
  6
Continuous
 62
     0
370
     0
100
AcDbSpline
210
0.0
220
0.0
230
1.0
 70
     8
 71
     9
 72
    30
 73
    20
 74
     0
 42
0.000000001
 43
0.0
 40
0.2499999949532693
 40
0.2499999949532693
 40
0.2499999949532693
 40
0.2499999949532693
 40
0.2499999949532693
 40
0.2499999949532693
 40
0.2499999949532693
 40
0.2499999949532693
 40
0.2499999949532693
 40
0.2499999949532693
 40
0.37499999475916
 40
0.37499999475916
 40
0.37499999475916
 40
0.37499999475916
 40
0.37499999475916
 40
0.499999995807328
 40
0.499999995807328
 40
0.499999995807328
 40
0.499999995807328
 40
0.499999995807328
 40
0.7206857518207923
 40
0.7206857518207923
 40
0.7206857518207923
 40
0.7206857518207923
 40
0.7206857518207923
 40
0.7206857518207923
 40
0.7206857518207923
 40
0.7206857518207923
 40
0.7206857518207923
 40
0.7206857518207923
 10
501.2323173814487
 20
-252.7369163506407
 30
0.0
 10
501.2135405446304
 20
-252.8040011222677
 30
0.0
 10
501.1854693441128
 20
-252.8711237858131
 30
0.0
 10
501.1491303735869
 20
-252.9381016222233
 30
0.0
 10
501.1054709906823
 20
-253.0048179034748
 30
0.0
 10
501.0678258504591
 20
-253.0715641477574
 30
0.0
 10
500.985616527093
 20
-253.2050153988741
 30
0.0
 10
500.8956748488285
 20
-253.3381610419637
 30
0.0
 10
500.7972088904421
 20
-253.4708942205603
 30
0.0
 10
500.6895751956583
 20
-253.6030896983036
 30
0.0
 10
500.6333976766446
 20
-253.6690364353506
 30
0.0
 10
500.4713594813252
 20
-253.8509462055244
 30
0.0
 10
500.2905467011799
 20
-254.0314382576012
 30
0.0
 10
500.0904653608967
 20
-254.2101576200538
 30
0.0
 10
499.8715355730466
 20
-254.3868022558215
 30
0.0
 10
499.7276363882205
 20
-254.4990263986966
 30
0.0
 10
499.5792827788431
 20
-254.6106902716066
 30
0.0
 10
499.426047583351
 20
-254.7217107301355
 30
0.0
 10
499.2678057471079
 20
-254.8320260899966
 30
0.0
 10
499.1045811931939
 20
-254.9415955084909
 30
0.0
  0
ARC
  5
1CB
330
1B2
100
AcDbEntity
  8
0
  6
Continuous
 62
     0
370
     0
100
AcDbCircle
 10
500.790389
 20
-252.602079
 30
0.0
 40
0.4620410429878278
100
AcDbArc
 50
343.0324
 51
17.920812
  0
ELLIPSE
  5
1CC
330
1B2
100
AcDbEntity
  8
0
  6
Continuous
 62
     0
370
     0
100
AcDbEllipse
 10
512.09742
 20
-207.8958
 30
0.0
 11
11.13218356388223
 21
-1.974565708840282
 31
0.0
210
0.0
220
0.0
230
1.0
 40
0.991518
 41
3.25550275253797
 42
3.321089360752583
  0
SPLINE
  5
1CD
330
1B2
100
AcDbEntity
  8
0
  6
Continuous
 62
     0
370
     0
100
AcDbSpline
210
0.0
220
0.0
230
1.0
 70
     8
 71
     3
 72
     8
 73
     4
 74
     0
 42
0.000000001
 43
0.0
 40
0.0
 40
0.0
 40
0.0
 40
0.0
 40
0.298775164639583
 40
0.298775164639583
 40
0.298775164639583
 40
0.298775164639583
 10
500.7945514484327
 20
-207.9235788485966
 30
0.0
 10
500.7967028930989
 20
-207.8958544032351
 30
0.0
 10
500.7967142547868
 20
-207.8694576730227
 30
0.0
 10
500.7944013862252
 20
-207.8445883942377
 30
0.0
  0
ELLIPSE
  5
1CE
330
1B2
100
AcDbEntity
  8
0
  6
Continuous
 62
     0
370
     0
100
AcDbEllipse
 10
497.787198
 20
-254.713944
 30
0.0
 11
1.499596732219506
 21
0.03477988954238386
 31
0.0
210
0.0
220
0.0
230
-1.0
 40
0.354808
 41
0.5063919537680186
 42
2.115449692508846
  0
ELLIPSE
  5
1CF
330
1B2
100
AcDbEntity
  8
0
  6
Continuous
 62
     0
370
     0
100
AcDbEllipse
 10
492.813534
 20
-253.75002
 30
0.0
 11
-1.497236558477939
 21
-0.0910092740172095
 31
0.0
210
0.0
220
0.0
230
1.0
 40
0.331894
 41
6.283183145922105
 42
7.187650844264736
  0
ELLIPSE
  5
1D0
330
1B2
100
AcDbEntity
  8
0
  6
Continuous
 62
     0
370
    30
100
AcDbEllipse
 10
510.264439
 20
-171.464751
 30
0.0
 11
9.823678983003711
 21
-17.82183579878604
 31
0.0
210
0.0
220
0.0
230
1.0
 40
0.771598
 41
0.6715351328043617
 42
2.569607792008254
  0
ELLIPSE
  5
1D1
330
1B2
100
AcDbEntity
  8
0
  6
Continuous
 62
     0
370
    30
100
AcDbEllipse
 10
510.264439
 20
-171.464751
 30
0.0
 11
9.823678983003711
 21
-17.82183579878604
 31
0.0
210
0.0
220
0.0
230
1.0
 40
0.771598
 41
2.569607792008254
 42
3.151361000440069
  0
ELLIPSE
  5
1D2
330
1B2
100
AcDbEntity
  8
0
  6
Continuous
 62
     0
370
    30
100
AcDbEllipse
 10
510.264439
 20
-171.464751
 30
0.0
 11
10.66846712167248
 21
-19.35442613669969
 31
0.0
210
0.0
220
0.0
230
1.0
 40
0.771598
 41
6.186738884776599
 42
8.852793099187839
  0
ELLIPSE
  5
1D3
330
1B2
100
AcDbEntity
  8
0
  6
Continuous
 62
     0
370
    30
100
AcDbEllipse
 10
510.264439
 20
-171.464751
 30
0.0
 11
10.66846712167248
 21
-19.35442613669969
 31
0.0
210
0.0
220
0.0
230
1.0
 40
0.771598
 41
2.569607792008251
 42
3.336906083320366
  0
ELLIPSE
  5
1D4
330
1B2
100
AcDbEntity
  8
0
  6
Continuous
 62
     0
370
     0
100
AcDbEllipse
 10
514.025675
 20
-148.749216
 30
0.0
 11
42.96351004851743
 21
-77.94316393572268
 31
0.0
210
0.0
220
0.0
230
1.0
 40
0.771598
 41
5.485737812425564
 42
10.42358942598274
  0
ELLIPSE
  5
1D5
330
1B2
100
AcDbEntity
  8
0
  6
Continuous
 62
     0
370
     0
100
AcDbEllipse
 10
514.025675
 20
-148.749216
 30
0.0
 11
42.96351004851743
 21
-77.94316393572268
 31
0.0
210
0.0
220
0.0
230
1.0
 40
0.771598
 41
4.140404118803151
 42
5.321074971615235
  0
ELLIPSE
  5
1D6
330
1B2
100
AcDbEntity
  8
0
  6
Continuous
 62
     0
370
     0
100
AcDbEllipse
 10
514.582759
 20
-148.442143
 30
0.0
 11
43.4462461164783
 21
-78.81892982264092
 31
0.0
210
0.0
220
0.0
230
1.0
 40
0.771598
 41
6.283184882408626
 42
9.424778444647117
  0
ELLIPSE
  5
1D7
330
1B2
100
AcDbEntity
  8
0
  6
Continuous
 62
     0
370
    30
100
AcDbEllipse
 10
520.710678
 20
-145.064336
 30
0.0
 11
43.44624611647831
 21
-78.81892982264092
 31
0.0
210
0.0
220
0.0
230
1.0
 40
0.771598
 41
-0.0000000099845217
 42
3.14159264360527
  0
ELLIPSE
  5
1D8
330
1B2
100
AcDbEntity
  8
0
  6
Continuous
 62
     0
370
    30
100
AcDbEllipse
 10
500.594788
 20
-130.709723
 30
0.0
 11
5.141139438691052
 21
-9.326907266975823
 31
0.0
210
0.0
220
0.0
230
1.0
 40
0.771598
 41
0.0
 42
6.283185307179586
  0
ELLIPSE
  5
1D9
330
1B2
100
AcDbEntity
  8
0
  6
Continuous
 62
     0
370
    30
100
AcDbEllipse
 10
500.649051
 20
-130.679812
 30
0.0
 11
5.28596026483398
 21
-9.589637043491244
 31
0.0
210
0.0
220
0.0
230
1.0
 40
0.771598
 41
0.0
 42
6.283185307179586
  0
ELLIPSE
  5
1DA
330
1B2
100
AcDbEntity
  8
0
  6
Continuous
 62
     0
370
     0
100
AcDbEllipse
 10
503.101671
 20
-129.327889
 30
0.0
 11
5.285960264833895
 21
-9.589637043491079
 31
0.0
210
0.0
220
0.0
230
1.0
 40
0.771598
 41
-0.000000009984527
 42
3.141592643605271
  0
ELLIPSE
  5
1DB
330
1B2
100
AcDbEntity
  8
0
  6
Continuous
 62
     0
370
    30
100
AcDbEllipse
 10
511.736459
 20
-124.568257
 30
0.0
 11
4.296351181689864
 21
-7.794316714386897
 31
0.0
210
0.0
220
0.0
230
1.0
 40
0.771598
 41
2.468577089950005
 42
3.141592643605275
  0
ELLIPSE
  5
1DC
330
1B2
100
AcDbEntity
  8
0
  6
Continuous
 62
     0
370
    30
100
AcDbEllipse
 10
511.736459
 20
-124.568257
 30
0.0
 11
4.296351181689864
 21
-7.794316714386897
 31
0.0
210
0.0
220
0.0
230
1.0
 40
0.771598
 41
-0.0000000099845217
 42
0.6730302095730964
  0
ELLIPSE
  5
1DD
330
1B2
100
AcDbEntity
  8
0
  6
Continuous
 62
     0
370
    30
100
AcDbEllipse
 10
511.736459
 20
-124.568257
 30
0.0
 11
4.585992423625028
 21
-8.319775522971321
 31
0.0
210
0.0
220
0.0
230
1.0
 40
0.771598
 41
3.18733544295326
 42
3.498899398259863
  0
ELLIPSE
  5
1DE
330
1B2
100
AcDbEntity
  8
0
  6
Continuous
 62
     0
370
    30
100
AcDbEllipse
 10
511.736459
 20
-124.568257
 30
0.0
 11
4.585992423625028
 21
-8.319775522971321
 31
0.0
210
0.0
220
0.0
230
1.0
 40
0.771598
 41
-0.000000009984519
 42
0.1811146858856993
  0
ELLIPSE
  5
1DF
330
1B2
100
AcDbEntity
  8
0
  6
Continuous
 62
     0
370
    30
100
AcDbEllipse
 10
511.736459
 20
-124.568257
 30
0.0
 11
4.585992423625028
 21
-8.319775522971321
 31
0.0
210
0.0
220
0.0
230
1.0
 40
0.771598
 41
5.925878542540473
 42
6.237442167057327
  0
ELLIPSE
  5
1E0
330
1B2
100
AcDbEntity
  8
0
  6
Continuous
 62
     0
370
     0
100
AcDbEllipse
 10
511.152005
 20
-124.890417
 30
0.0
 11
4.585992423625029
 21
-8.319775522971323
 31
0.0
210
0.0
220
0.0
230
1.0
 40
0.771598
 41
3.141592643597285
 42
3.498899398259863
  0
ELLIPSE
  5
1E1
330
1B2
100
AcDbEntity
  8
0
  6
Continuous
 62
     0
370
     0
100
AcDbEllipse
 10
511.152005
 20
-124.890417
 30
0.0
 11
4.585992423625029
 21
-8.319775522971323
 31
0.0
210
0.0
220
0.0
230
1.0
 40
0.771598
 41
5.925878542540467
 42
6.283185297195056
  0
ELLIPSE
  5
1E2
330
1B2
100
AcDbEntity
  8
0
  6
Continuous
 62
     0
370
     0
100
AcDbEllipse
 10
511.012734
 20
-124.967186
 30
0.0
 11
4.706676440615247
 21
-8.538716994700881
 31
0.0
210
0.0
220
0.0
230
1.0
 40
0.771598
 41
5.862527682054925
 42
9.84543556592499
  0
ELLIPSE
  5
1E3
330
1B2
100
AcDbEntity
  8
0
  6
Continuous
 62
     0
370
    30
100
AcDbEllipse
 10
511.012734
 20
-124.967186
 30
0.0
 11
4.827360457605468
 21
-8.757658466430446
 31
0.0
210
0.0
220
0.0
230
1.0
 40
0.771598
 41
5.809734310030557
 42
9.898228937949359
  0
ELLIPSE
  5
1E4
330
1B2
100
AcDbEntity
  8
0
  6
Continuous
 62
     0
370
    30
100
AcDbEllipse
 10
511.569817
 20
-124.660112
 30
0.0
 11
5.310096525565824
 21
-9.633424353347744
 31
0.0
210
0.0
220
0.0
230
1.0
 40
0.771598
 41
5.675300726220298
 42
5.711200445598045
  0
ELLIPSE
  5
1E5
330
1B2
100
AcDbEntity
  8
0
  6
Continuous
 62
     0
370
    30
100
AcDbEllipse
 10
511.569817
 20
-124.660112
 30
0.0
 11
5.310096525565824
 21
-9.633424353347744
 31
0.0
210
0.0
220
0.0
230
1.0
 40
0.771598
 41
5.711200445598045
 42
10.03267075632904
  0
ELLIPSE
  5
1E6
330
1B2
100
AcDbEntity
  8
0
  6
Continuous
 62
     0
370
    30
100
AcDbEllipse
 10
514.888233
 20
-168.916043
 30
0.0
 11
-10.66846712167248
 21
19.35442613669969
 31
0.0
210
0.0
220
0.0
230
-1.0
 40
0.771598
 41
0.0000000099845205
 42
0.5719848615815395
  0
ELLIPSE
  5
1E7
330
1B2
100
AcDbEntity
  8
0
  6
Continuous
 62
     0
370
    30
100
AcDbEllipse
 10
514.888233
 20
-168.916043
 30
0.0
 11
-10.66846712167248
 21
19.35442613669969
 31
0.0
210
0.0
220
0.0
230
-1.0
 40
0.771598
 41
0.5719848615815395
 42
3.141592663574318
  0
ELLIPSE
  5
1E8
330
1B2
100
AcDbEntity
  8
0
  6
Continuous
 62
     0
370
    30
100
AcDbEllipse
 10
512.962524
 20
-123.89243
 30
0.0
 11
5.310096525565824
 21
-9.633424353347744
 31
0.0
210
0.0
220
0.0
230
1.0
 40
0.771598
 41
-0.0000000099845252
 42
3.141592643605268
  0
LINE
  5
1E9
330
1B2
100
AcDbEntity
  8
0
  6
Continuous
 62
     0
370
    30
100
AcDbLine
 10
516.879914
 20
-134.293537
 30
0.0
 11
518.272621
 21
-133.525855
 31
0.0
  0
LINE
  5
1EA
330
1B2
100
AcDbEntity
  8
0
  6
Continuous
 62
     0
370
    30
100
AcDbLine
 10
506.259721
 20
-115.026688
 30
0.0
 11
507.652428
 21
-114.259006
 31
0.0
  0
SPLINE
  5
1EB
330
1B2
100
AcDbEntity
  8
0
  6
Continuous
 62
     0
370
    30
100
AcDbSpline
210
0.0
220
0.0
230
1.0
 70
     8
 71
     3
 72
    25
 73
    21
 74
     0
 42
0.000000001
 43
0.0
 40
0.0
 40
0.0
 40
0.0
 40
0.0
 40
0.7957433999903867
 40
2.401976575810105
 40
4.081210406775478
 40
6.000154074552055
 40
7.341160545994316
 40
8.94789495338401
 40
10.55230999339048
 40
12.68698059989853
 40
15.17512962936112
 40
17.66310294231668
 40
19.79505461798925
 40
21.39325418034247
 40
22.9918791461461
 40
24.41306756517341
 40
26.01536300207696
 40
27.79024545398598
 40
29.2652460435822
 40
29.94565104747917
 40
29.94565104747917
 40
29.94565104747917
 40
29.94565104747917
 10
515.7379969665301
 20
-133.2101928872576
 30
0.0
 10
515.9139441219344
 20
-133.1132080233912
 30
0.0
 10
516.4294024986485
 20
-132.7914923630009
 30
0.0
 10
517.2147527679324
 20
-132.1021858097708
 30
0.0
 10
518.0308739977446
 20
-130.9970884577884
 30
0.0
 10
518.5859630892521
 20
-129.7460290851569
 30
0.0
 10
518.9167798174869
 20
-128.3742995001359
 30
0.0
 10
519.0358595553286
 20
-127.0018711811492
 30
0.0
 10
518.927038046719
 20
-125.3220985845344
 30
0.0
 10
518.46602463253
 20
-123.3386800431558
 30
0.0
 10
517.4947023756205
 20
-121.160619935262
 30
0.0
 10
516.1108969048137
 20
-119.2262105038533
 30
0.0
 10
514.6426037238684
 20
-117.8384434801009
 30
0.0
 10
513.2623820375924
 20
-116.911438407885
 30
0.0
 10
512.0103014136132
 20
-116.3250837766311
 30
0.0
 10
510.7383399825496
 20
-115.95836752938
 30
0.0
 10
509.4302255056123
 20
-115.8145073345117
 30
0.0
 10
508.1607451825795
 20
-115.939470522886
 30
0.0
 10
507.2054244177097
 20
-116.2470262853915
 30
0.0
 10
506.7164655140236
 20
-116.4877095428443
 30
0.0
 10
506.5660122475231
 20
-116.5706417706255
 30
0.0
  0
LINE
  5
1EC
330
1B2
100
AcDbEntity
  8
0
  6
Continuous
 62
     0
370
    30
100
AcDbLine
 10
511.746598
 20
-134.725202
 30
0.0
 11
516.032811
 21
-132.362573
 31
0.0
  0
LINE
  5
1ED
330
1B2
100
AcDbEntity
  8
0
  6
Continuous
 62
     0
370
    30
100
AcDbLine
 10
503.15373
 20
-119.13666
 30
0.0
 11
507.440108
 21
-116.77394
 31
0.0
  0
SPLINE
  5
1EE
330
1B2
100
AcDbEntity
  8
0
  6
Continuous
 62
     0
370
    30
100
AcDbSpline
210
0.0
220
0.0
230
1.0
 70
     8
 71
     3
 72
    23
 73
    19
 74
     0
 42
0.000000001
 43
0.0
 40
0.0
 40
0.0
 40
0.0
 40
0.0
 40
0.9125073018862562
 40
2.433021957864997
 40
4.354377244481245
 40
6.302226984803519
 40
7.795595169670702
 40
10.8489686085253
 40
12.90330299061196
 40
15.57661499929144
 40
18.04594457979346
 40
20.51582214879582
 40
22.98639907537095
 40
25.25180998028543
 40
28.13438707442524
 40
29.98249710842235
 40
32.67894859026526
 40
34.28517197418432
 40
34.28517197418432
 40
34.28517197418432
 40
34.28517197418432
 10
508.3876308768578
 20
-138.9175263459011
 30
0.0
 10
508.5968879901972
 20
-138.8021805008426
 30
0.0
 10
509.1384960955733
 20
-138.4643353925462
 30
0.0
 10
510.0185947571126
 20
-137.7219324772345
 30
0.0
 10
510.9273565124163
 20
-136.5830260078609
 30
0.0
 10
511.6013885928988
 20
-135.2412562042985
 30
0.0
 10
512.1491519321689
 20
-133.4384532607246
 30
0.0
 10
512.329814701531
 20
-131.4190526578641
 30
0.0
 10
512.0345821835004
 20
-128.9428566553136
 30
0.0
 10
511.3391849503317
 20
-126.6624993955489
 30
0.0
 10
510.1594480286442
 20
-124.3981737430784
 30
0.0
 10
508.6542716852771
 20
-122.4432914207344
 30
0.0
 10
506.9166368524924
 20
-120.8807542977973
 30
0.0
 10
504.8897063664899
 20
-119.6518659344691
 30
0.0
 10
502.9271640375771
 20
-119.0023473698458
 30
0.0
 10
500.8603679099871
 20
-118.8218629027829
 30
0.0
 10
499.2231939190517
 20
-119.0848190841734
 30
0.0
 10
498.1838143894354
 20
-119.5353474763131
 30
0.0
 10
497.8157104949535
 20
-119.7382521774693
 30
0.0
  0
LINE
  5
1EF
330
1B2
100
AcDbEntity
  8
0
  6
Continuous
 62
     0
370
    30
100
AcDbLine
 10
505.935011
 20
-140.269449
 30
0.0
 11
508.387631
 21
-138.917526
 31
0.0
  0
LINE
  5
1F0
330
1B2
100
AcDbEntity
  8
0
  6
Continuous
 62
     0
370
    30
100
AcDbLine
 10
495.363091
 20
-121.090175
 30
0.0
 11
497.81571
 21
-119.738252
 31
0.0
  0
LINE
  5
1F1
330
1B2
100
AcDbEntity
  8
0
  6
Continuous
 62
     0
370
    30
100
AcDbLine
 10
558.029004
 20
-227.261073
 30
0.0
 11
564.156923
 21
-223.883266
 31
0.0
  0
LINE
  5
1F2
330
1B2
100
AcDbEntity
  8
0
  6
Continuous
 62
     0
370
    30
100
AcDbLine
 10
471.136513
 20
-69.623213
 30
0.0
 11
477.264432
 21
-66.245406
 31
0.0
  0
SPLINE
  5
1F3
330
1B2
100
AcDbEntity
  8
0
  6
Continuous
 62
     0
370
    30
100
AcDbSpline
210
0.0
220
0.0
230
1.0
 70
     8
 71
     3
 72
    17
 73
    13
 74
     0
 42
0.000000001
 43
0.0
 40
0.0
 40
0.0
 40
0.0
 40
0.0
 40
6.870612794351048
 40
17.8660072059814
 40
24.05235243076024
 40
35.0530456648844
 40
44.80095115614887
 40
54.48862875665964
 40
65.79395868854925
 40
73.57945222881283
 40
83.5728867320673
 40
89.81913792744743
 40
89.81913792744743
 40
89.81913792744743
 40
89.81913792744743
 10
439.7594859731997
 20
-134.1683358292376
 30
0.0
 10
439.6675142216808
 20
-132.0180122783894
 30
0.0
 10
439.6174101565219
 20
-126.4598316977365
 30
0.0
 10
440.2137298012255
 20
-119.1603157382214
 30
0.0
 10
441.6529442426051
 20
-110.9104353616603
 30
0.0
 10
443.7279655822394
 20
-103.3679074607634
 30
0.0
 10
446.9959609304883
 20
-95.43186565135235
 30
0.0
 10
451.1324843101792
 20
-88.06614345789916
 30
0.0
 10
455.8025577093724
 20
-81.91621139085305
 30
0.0
 10
461.1938542834515
 20
-76.46949400453434
 30
0.0
 10
466.124836403777
 20
-72.60185486021311
 30
0.0
 10
469.7193475146472
 20
-70.40437741475318
 30
0.0
 10
471.1364973280375
 20
-69.62322132801509
 30
0.0
  0
SPLINE
  5
1F4
330
1B2
100
AcDbEntity
  8
0
  6
Continuous
 62
     0
370
    30
100
AcDbSpline
210
0.0
220
0.0
230
1.0
 70
     8
 71
     3
 72
    19
 73
    15
 74
     0
 42
0.000000001
 43
0.0
 40
86.4971644607789
 40
86.4971644607789
 40
86.4971644607789
 40
86.4971644607789
 40
93.17508016209526
 40
103.3079161770206
 40
112.5948746143211
 40
122.7263086464742
 40
132.8611433918151
 40
142.1510731867113
 40
152.2854524732985
 40
161.5755913481397
 40
172.555853800448
 40
179.3882345122635
 40
187.3893064050718
 40
192.5335038510999
 40
192.5335038510999
 40
192.5335038510999
 40
192.5335038510999
 10
489.2863180031819
 20
-221.0584375850786
 30
0.0
 10
487.5420456989917
 20
-219.9321119927621
 30
0.0
 10
483.2098816522332
 20
-216.9291045862647
 30
0.0
 10
476.7608004299858
 20
-211.6435432356146
 30
0.0
 10
469.907625519288
 20
-204.9157137835496
 30
0.0
 10
463.5790265849124
 20
-197.5194740345374
 30
0.0
 10
457.8776187859522
 20
-189.5187767593956
 30
0.0
 10
452.8463001319392
 20
-181.0356761094558
 30
0.0
 10
448.6645589121719
 20
-172.418729229545
 30
0.0
 10
445.037644651313
 20
-163.0065982605694
 30
0.0
 10
442.587502753105
 20
-154.4460254823494
 30
0.0
 10
440.9373218668635
 20
-146.2476561537935
 30
0.0
 10
440.1085753554686
 20
-139.913675448766
 30
0.0
 10
439.8283548848868
 20
-135.7785082502247
 30
0.0
 10
439.759486050314
 20
-134.1683376318723
 30
0.0
  0
SPLINE
  5
1F5
330
1B2
100
AcDbEntity
  8
0
  6
Continuous
 62
     0
370
    30
100
AcDbSpline
210
0.0
220
0.0
230
1.0
 70
     8
 71
     3
 72
    14
 73
    10
 74
     0
 42
0.000000001
 43
0.0
 40
0.0
 40
0.0
 40
0.0
 40
0.0
 40
5.674604414800978
 40
14.50136495309514
 40
20.83809385856911
 40
30.11765071703215
 40
46.03846424687342
 40
63.87876923954811
 40
71.90191412664471
 40
71.90191412664471
 40
71.90191412664471
 40
71.90191412664471
 10
558.0290042777416
 20
-227.2610728611886
 30
0.0
 10
556.7415036217911
 20
-227.9707636524747
 30
0.0
 10
553.3761371555835
 20
-229.6504799322516
 30
0.0
 10
548.2936541704026
 20
-231.5572080391817
 30
0.0
 10
542.0794011930781
 20
-233.1538123672076
 30
0.0
 10
533.777534884122
 20
-234.351127690223
 30
0.0
 10
521.9859307750789
 20
-234.0612988501599
 30
0.0
 10
510.3191735245408
 20
-231.2894694376485
 30
0.0
 10
503.1983630523577
 20
-228.4453621777275
 30
0.0
 10
501.0077550241757
 20
-227.4583625712438
 30
0.0
  0
LINE
  5
1F6
330
1B2
100
AcDbEntity
  8
0
  6
Continuous
 62
     0
370
    30
100
AcDbLine
 10
499.595973
 20
-152.110325
 30
0.0
 11
504.219766
 21
-149.561617
 31
0.0
  0
LINE
  5
1F7
330
1B2
100
AcDbEntity
  8
0
  6
Continuous
 62
     0
370
    30
100
AcDbLine
 10
520.932906
 20
-190.819178
 30
0.0
 11
525.5567
 21
-188.270469
 31
0.0
  0
LINE
  5
1F8
330
1B2
100
AcDbEntity
  8
0
  6
Continuous
 62
     0
370
    30
100
AcDbLine
 10
504.184702
 20
-199.936867
 30
0.0
 11
519.213385
 21
-191.652819
 31
0.0
  0
LINE
  5
1F9
330
1B2
100
AcDbEntity
  8
0
  6
Continuous
 62
     0
370
    30
100
AcDbLine
 10
482.173336
 20
-161.828144
 30
0.0
 11
494.674804
 21
-154.937137
 31
0.0
  0
SPLINE
  5
1FA
330
1B2
100
AcDbEntity
  8
0
  6
Continuous
 62
     0
370
    30
100
AcDbSpline
210
0.0
220
0.0
230
1.0
 70
     8
 71
     3
 72
    15
 73
    11
 74
     0
 42
0.000000001
 43
0.0
 40
0.0
 40
0.0
 40
0.0
 40
0.0
 40
1.002620663250887
 40
1.627415334380381
 40
2.269955255958442
 40
2.673023760884137
 40
2.97844763628032
 40
3.135112547941121
 40
3.309957719080748
 40
3.49044473844886
 40
3.49044473844886
 40
3.49044473844886
 40
3.49044473844886
 10
495.2458607862857
 20
-262.187949489982
 30
0.0
 10
495.5531318894405
 20
-262.2474908867459
 30
0.0
 10
496.0647953993169
 20
-262.277777393855
 30
0.0
 10
496.7612769189871
 20
-262.1503237391403
 30
0.0
 10
497.2431547465621
 20
-261.9621999329189
 30
0.0
 10
497.6034511004773
 20
-261.7539104824743
 30
0.0
 10
497.8187301011732
 20
-261.5989537570324
 30
0.0
 10
497.9678026327761
 20
-261.4779191599452
 30
0.0
 10
498.0851743427459
 20
-261.3744020693294
 30
0.0
 10
498.1627437182507
 20
-261.2994797383326
 30
0.0
 10
498.2017550181578
 20
-261.2599688287698
 30
0.0
  0
SPLINE
  5
1FB
330
1B2
100
AcDbEntity
  8
0
  6
Continuous
 62
     0
370
    30
100
AcDbSpline
210
0.0
220
0.0
230
1.0
 70
     8
 71
     3
 72
    21
 73
    17
 74
     0
 42
0.000000001
 43
0.0
 40
0.0
 40
0.0
 40
0.0
 40
0.0
 40
0.8567067276947018
 40
1.592836162997387
 40
2.296424318382111
 40
2.766356933242633
 40
3.218495609659358
 40
3.710958253256896
 40
4.325348489332405
 40
5.199064018001424
 40
6.187570044238035
 40
6.731613071828562
 40
7.520939188809098
 40
8.045853981494988
 40
8.57204442112383
 40
10.31845841447524
 40
10.31845841447524
 40
10.31845841447524
 40
10.31845841447524
 10
495.2458501388932
 20
-262.187947426783
 30
0.0
 10
494.9830507479755
 20
-262.1370234030431
 30
0.0
 10
494.499986071918
 20
-261.9860440730229
 30
0.0
 10
493.8528967673691
 20
-261.627269015525
 30
0.0
 10
493.3669104154
 20
-261.2371073935795
 30
0.0
 10
492.9950748305223
 20
-260.8529380922765
 30
0.0
 10
492.6978897699507
 20
-260.4920421237532
 30
0.0
 10
492.4052681523738
 20
-260.0625236145387
 30
0.0
 10
492.1136498520201
 20
-259.467492124598
 30
0.0
 10
491.8654025591257
 20
-258.6813906628716
 30
0.0
 10
491.72016054585
 20
-257.908030153856
 30
0.0
 10
491.620161838188
 20
-257.1669223792566
 30
0.0
 10
491.5526776961649
 20
-256.5776389914934
 30
0.0
 10
491.4910433891288
 20
-255.9943057983142
 30
0.0
 10
491.4053977158646
 20
-255.1086877072654
 30
0.0
 10
491.349723525888
 20
-254.3909424882045
 30
0.0
 10
491.3162971558612
 20
-253.8410294836823
 30
0.0
  0
SPLINE
  5
1FC
330
1B2
100
AcDbEntity
  8
0
  6
Continuous
 62
     0
370
    30
100
AcDbSpline
210
0.0
220
0.0
230
1.0
 70
     8
 71
     3
 72
     9
 73
     5
 74
     0
 42
0.000000001
 43
0.0
 40
0.0
 40
0.0
 40
0.0
 40
0.0
 40
26.20629796875598
 40
47.5517157478727
 40
47.5517157478727
 40
47.5517157478727
 40
47.5517157478727
 10
491.3162971558623
 20
-253.841029483701
 30
0.0
 10
490.8163448681152
 20
-245.616078226969
 30
0.0
 10
489.8892333123449
 20
-230.6869917893861
 30
0.0
 10
488.9544529459899
 20
-215.7545958650476
 30
0.0
 10
488.5372905327063
 20
-209.0517554404651
 30
0.0
  0
SPLINE
  5
1FD
330
1B2
100
AcDbEntity
  8
0
  6
Continuous
 62
     0
370
    30
100
AcDbSpline
210
0.0
220
0.0
230
1.0
 70
     8
 71
     3
 72
    19
 73
    15
 74
     0
 42
0.000000001
 43
0.0
 40
0.0
 40
0.0
 40
0.0
 40
0.0
 40
1.419909097014168
 40
4.039237042199861
 40
7.034906311903739
 40
11.22130940004368
 40
16.71469451006941
 40
21.97834850661162
 40
27.45839410039479
 40
31.77075994084469
 40
35.61073443899844
 40
38.50646121357537
 40
41.64012856817271
 40
43.44274556017257
 40
43.44274556017257
 40
43.44274556017257
 40
43.44274556017257
 10
483.0191326470626
 20
-196.3426851612093
 30
0.0
 10
482.7292720157291
 20
-196.0112898230366
 30
0.0
 10
481.9280671791543
 20
-195.0381712135174
 30
0.0
 10
480.6508921329593
 20
-193.2062820798877
 30
0.0
 10
479.102969202044
 20
-190.4286603097799
 30
0.0
 10
477.4902736839231
 20
-186.5432059977127
 30
0.0
 10
476.2268836397776
 20
-181.6864523297192
 30
0.0
 10
475.6694664922489
 20
-176.4299756898512
 30
0.0
 10
475.9378385633017
 20
-171.9034663190156
 30
0.0
 10
476.8412199556135
 20
-168.3038359955413
 30
0.0
 10
478.0313330269494
 20
-165.7932135916219
 30
0.0
 10
479.4424202135934
 20
-163.8950707437616
 30
0.0
 10
480.8076756114212
 20
-162.6621350017222
 30
0.0
 10
481.7855239492002
 20
-162.0419196787913
 30
0.0
 10
482.1568872150741
 20
-161.8371917266792
 30
0.0
  0
SPLINE
  5
1FE
330
1B2
100
AcDbEntity
  8
0
  6
Continuous
 62
     0
370
    30
100
AcDbSpline
210
0.0
220
0.0
230
1.0
 70
     8
 71
     3
 72
    13
 73
     9
 74
     0
 42
0.000000001
 43
0.0
 40
0.0
 40
0.0
 40
0.0
 40
0.0
 40
1.284739123502969
 40
3.450220941344531
 40
7.853968120342106
 40
11.41421560043778
 40
13.19625061689007
 40
14.4645053175112
 40
14.4645053175112
 40
14.4645053175112
 40
14.4645053175112
 10
488.5373197064012
 20
-209.0517541232853
 30
0.0
 10
488.5124792439273
 20
-208.6525838783701
 30
0.0
 10
488.4057907149419
 20
-207.5695958495302
 30
0.0
 10
487.9250519871017
 20
-205.0705720221047
 30
0.0
 10
486.748487364037
 20
-201.8758487593608
 30
0.0
 10
485.1225377789517
 20
-199.0674161429307
 30
0.0
 10
483.8752083417278
 20
-197.359014557798
 30
0.0
 10
483.2726375683909
 20
-196.632515324419
 30
0.0
 10
483.01913222952
 20
-196.3426848981269
 30
0.0
  0
SPLINE
  5
1FF
330
1B2
100
AcDbEntity
  8
0
  6
Continuous
 62
     0
370
    30
100
AcDbSpline
210
0.0
220
0.0
230
1.0
 70
     8
 71
     3
 72
    19
 73
    15
 74
     0
 42
0.000000001
 43
0.0
 40
0.0
 40
0.0
 40
0.0
 40
0.0
 40
1.451827384473487
 40
2.332186492333433
 40
2.922383077393134
 40
3.517830518392168
 40
4.118995235122148
 40
4.423357513831285
 40
5.034869766995581
 40
5.655125960947622
 40
5.970102469149627
 40
6.388056289250226
 40
6.666856707737116
 40
7.340045811345234
 40
7.340045811345234
 40
7.340045811345234
 40
7.340045811345234
 10
498.2009060165104
 20
-261.260845981347
 30
0.0
 10
498.4333891750281
 20
-261.0255453818787
 30
0.0
 10
498.8012535670219
 20
-260.6232378094993
 30
0.0
 10
499.2543106841794
 20
-260.0420536685924
 30
0.0
 10
499.5638726737249
 20
-259.5935419163536
 30
0.0
 10
499.8177743198008
 20
-259.1848058245823
 30
0.0
 10
500.0218727819687
 20
-258.8158611744517
 30
0.0
 10
500.2168538573665
 20
-258.4274104012787
 30
0.0
 10
500.4028026644612
 20
-258.0179726939567
 30
0.0
 10
500.5734447928032
 20
-257.583096050837
 30
0.0
 10
500.7094370765071
 20
-257.1951015434781
 30
0.0
 10
500.806293683778
 20
-256.893675616904
 30
0.0
 10
500.9303669895851
 20
-256.4625382146427
 30
0.0
 10
501.0035111531055
 20
-256.1518444438904
 30
0.0
 10
501.0469554199076
 20
-255.9320695927979
 30
0.0
  0
SPLINE
  5
200
330
1B2
100
AcDbEntity
  8
0
  6
Continuous
 62
     0
370
    30
100
AcDbSpline
210
0.0
220
0.0
230
1.0
 70
     8
 71
     3
 72
    14
 73
    10
 74
     0
 42
0.000000001
 43
0.0
 40
0.0784058044584674
 40
0.0784058044584674
 40
0.0784058044584674
 40
0.0784058044584674
 40
0.6699023509912413
 40
1.205347249640133
 40
1.869105424959725
 40
2.403218509618225
 40
2.919361685974485
 40
3.434843629802971
 40
3.468543068086899
 40
3.468543068086899
 40
3.468543068086899
 40
3.468543068086899
 10
501.0617437643044
 20
-255.8556026414272
 30
0.0
 10
501.0983191679316
 20
-255.6622317739162
 30
0.0
 10
501.1564141932128
 20
-255.2926609672418
 30
0.0
 10
501.2163346566191
 20
-254.7105760308736
 30
0.0
 10
501.2461487181056
 20
-254.154059003584
 30
0.0
 10
501.2570254382188
 20
-253.6102931292031
 30
0.0
 10
501.2559207550957
 20
-253.1155655475779
 30
0.0
 10
501.2557744883617
 20
-252.7782174778674
 30
0.0
 10
501.2522313393537
 20
-252.6045095845309
 30
0.0
 10
501.2523924826619
 20
-252.5938763278333
 30
0.0
  0
SPLINE
  5
201
330
1B2
100
AcDbEntity
  8
0
  6
Continuous
 62
     0
370
    30
100
AcDbSpline
210
0.0
220
0.0
230
1.0
 70
     8
 71
     3
 72
    10
 73
     6
 74
     0
 42
0.000000001
 43
0.0
 40
0.0
 40
0.0
 40
0.0
 40
0.0
 40
13.70305487799277
 40
27.40641548605792
 40
47.2730116944163
 40
47.2730116944163
 40
47.2730116944163
 40
47.2730116944163
 10
500.7961230749068
 20
-207.8788189602823
 30
0.0
 10
500.8416580335149
 20
-212.1928240678829
 30
0.0
 10
500.9358853880794
 20
-220.8213566648946
 30
0.0
 10
501.097828746073
 20
-235.7188623626579
 30
0.0
 10
501.201146137846
 20
-246.3152531554163
 30
0.0
 10
501.2523931163822
 20
-252.5939537017618
 30
0.0
  0
SPLINE
  5
202
330
1B2
100
AcDbEntity
  8
0
  6
Continuous
 62
     0
370
    30
100
AcDbSpline
210
0.0
220
0.0
230
1.0
 70
     8
 71
     3
 72
    21
 73
    17
 74
     0
 42
0.000000001
 43
0.0
 40
6.236439595873043
 40
6.236439595873043
 40
6.236439595873043
 40
6.236439595873043
 40
6.396018154995674
 40
7.114483742351233
 40
8.805885187319353
 40
9.54885980253603
 40
10.51182005773791
 40
11.28222693327354
 40
12.06212301603506
 40
12.84209760382015
 40
13.42885289476516
 40
14.60166135315917
 40
15.97837019246663
 40
16.77370004696316
 40
17.40676987917381
 40
18.11131887851235
 40
18.11131887851235
 40
18.11131887851235
 40
18.11131887851235
 10
504.9590101608434
 20
-199.5100564773275
 30
0.0
 10
504.9492078476625
 20
-199.5168912317225
 30
0.0
 10
504.8921431516653
 20
-199.5569320213904
 30
0.0
 10
504.6742650977268
 20
-199.7146542526447
 30
0.0
 10
504.2484179742363
 20
-200.0582864376033
 30
0.0
 10
503.7068915437626
 20
-200.5828632431379
 30
0.0
 10
503.291978592477
 20
-201.036570366542
 30
0.0
 10
502.8785975750054
 20
-201.5540807116224
 30
0.0
 10
502.5123203863853
 20
-202.0743192115259
 30
0.0
 10
502.1968911106584
 20
-202.58774464775
 30
0.0
 10
501.8520878081766
 20
-203.2264378029571
 30
0.0
 10
501.4709634148891
 20
-204.073571294153
 30
0.0
 10
501.1550208647107
 20
-205.0494397032124
 30
0.0
 10
500.9679756803968
 20
-205.8986768530665
 30
0.0
 10
500.8666325504244
 20
-206.5556052918292
 30
0.0
 10
500.8280125288612
 20
-206.9714562214274
 30
0.0
 10
500.814763280789
 20
-207.1900150650806
 30
0.0
  0
ENDBLK
  5
204
330
1B2
100
AcDbEntity
  8
0
100
AcDbBlockEnd
  0
ENDSEC
  0
SECTION
  2
ENTITIES
  0
INSERT
  5
9E
330
1F
100
AcDbEntity
  8
0
  6
Continuous
 62
     7
370
     0
100
AcDbBlockReference
  2
a
 10
53.617249
 20
37.751434
 30
0.0
  0
INSERT
  5
D7
330
1F
100
AcDbEntity
  8
0
  6
Continuous
 62
     7
370
     0
100
AcDbBlockReference
  2
b
 10
0.0
 20
-54.378555
 30
0.0
  0
INSERT
  5
11D
330
1F
100
AcDbEntity
  8
0
  6
Continuous
 62
     7
370
     0
100
AcDbBlockReference
  2
c
 10
0.0
 20
303.941544
 30
0.0
  0
INSERT
  5
165
330
1F
100
AcDbEntity
  8
0
  6
Continuous
 62
     7
370
     0
100
AcDbBlockReference
  2
d
 10
-50.749474
 20
0.0
 30
0.0
  0
INSERT
  5
1B1
330
1F
100
AcDbEntity
  8
0
  6
Continuous
 62
     7
370
     0
100
AcDbBlockReference
  2
e
 10
295.397827
 20
0.0
 30
0.0
  0
INSERT
  5
205
330
1F
100
AcDbEntity
  8
0
  6
Continuous
 62
     7
370
     0
100
AcDbBlockReference
  2
f
 10
432.490967
 20
-269.372742
 30
0.0
  0
ENDSEC
  0
SECTION
  2
OBJECTS
  0
DICTIONARY
  5
C
330
0
100
AcDbDictionary
281
     1
  3
ACAD_GROUP
350
D
  3
ACAD_LAYOUT
350
1A
  3
ACAD_MATERIAL
350
43
  3
ACAD_MLEADERSTYLE
350
6B
  3
ACAD_MLINESTYLE
350
17
  3
ACAD_PLOTSETTINGS
350
19
  3
ACAD_PLOTSTYLENAME
350
E
  3
ACAD_SCALELIST
350
47
  3
ACAD_TABLESTYLE
350
69
  3
ACAD_VISUALSTYLE
350
2A
  3
AcDbVariableDictionary
350
206
  0
DICTIONARY
  5
211
330
8
100
AcDbDictionary
280
     1
281
     1
  3
ACAD_XREC_ROUNDTRIP
360
212
  0
DICTIONARY
  5
D
102
{ACAD_REACTORS
330
C
102
}
330
C
100
AcDbDictionary
281
     1
  0
DICTIONARY
  5
1A
102
{ACAD_REACTORS
330
C
102
}
330
C
100
AcDbDictionary
281
     1
  3
Layout1
350
1E
  3
Layout2
350
26
  3
Model
350
22
  0
DICTIONARY
  5
43
102
{ACAD_REACTORS
330
C
102
}
330
C
100
AcDbDictionary
281
     1
  3
ByBlock
350
45
  3
ByLayer
350
44
  3
Global
350
46
  0
DICTIONARY
  5
6B
102
{ACAD_REACTORS
330
C
102
}
330
C
100
AcDbDictionary
281
     1
  3
Standard
350
6C
  0
DICTIONARY
  5
17
102
{ACAD_REACTORS
330
C
102
}
330
C
100
AcDbDictionary
281
     1
  3
Standard
350
18
  0
DICTIONARY
  5
19
102
{ACAD_REACTORS
330
C
102
}
330
C
100
AcDbDictionary
281
     1
  0
ACDBDICTIONARYWDFLT
  5
E
102
{ACAD_REACTORS
330
C
102
}
330
C
100
AcDbDictionary
281
     1
  3
Normal
350
F
100
AcDbDictionaryWithDefault
340
F
  0
DICTIONARY
  5
47
102
{ACAD_REACTORS
330
C
102
}
330
C
100
AcDbDictionary
281
     1
  3
A0
350
48
  3
A1
350
49
  3
A2
350
4A
  3
A3
350
4B
  3
A4
350
4C
  3
A5
350
4D
  3
A6
350
4E
  3
A7
350
4F
  3
A8
350
50
  3
A9
350
51
  3
B0
350
52
  3
B1
350
53
  3
B2
350
54
  3
B3
350
55
  3
B4
350
56
  3
B5
350
57
  3
B6
350
58
  3
B7
350
59
  3
B8
350
5A
  3
B9
350
5B
  3
C0
350
5C
  3
C1
350
5D
  3
C2
350
5E
  3
C3
350
5F
  3
C4
350
60
  3
C5
350
61
  3
C6
350
62
  3
C7
350
63
  3
C8
350
64
  3
C9
350
65
  3
D0
350
66
  3
D1
350
67
  3
D2
350
68
  0
DICTIONARY
  5
69
102
{ACAD_REACTORS
330
C
102
}
330
C
100
AcDbDictionary
281
     1
  3
Standard
350
6A
  0
DICTIONARY
  5
2A
102
{ACAD_REACTORS
330
C
102
}
330
C
100
AcDbDictionary
281
     1
  3
2dWireframe
350
2F
  3
Basic
350
32
  3
Brighten
350
36
  3
ColorChange
350
3A
  3
Conceptual
350
34
  3
Dim
350
35
  3
EdgeColorOff
350
3D
  3
Facepattern
350
39
  3
Flat
350
2B
  3
FlatWithEdges
350
2C
  3
Gouraud
350
2D
  3
GouraudWithEdges
350
2E
  3
Hidden
350
31
  3
JitterOff
350
3B
  3
Linepattern
350
38
  3
OverhangOff
350
3C
  3
Realistic
350
33
  3
Shaded
350
42
  3
Shaded with edges
350
41
  3
Shades of Gray
350
3E
  3
Sketchy
350
3F
  3
Thicken
350
37
  3
Wireframe
350
30
  3
X-Ray
350
40
  0
DICTIONARY
  5
206
102
{ACAD_REACTORS
330
C
102
}
330
C
100
AcDbDictionary
281
     1
  3
CANNOSCALE
350
213
  3
CENTEREXE
350
20D
  3
CENTERLTYPEFILE
350
20E
  3
CMLEADERSTYLE
350
208
  3
CTABLESTYLE
350
207
  3
DIMASSOC
350
20F
  3
HIDETEXT
350
210
  3
MSLTSCALE
350
214
  3
PSOLHEIGHT
350
20A
  3
PSOLWIDTH
350
209
  0
XRECORD
  5
212
102
{ACAD_REACTORS
330
211
102
}
330
211
100
AcDbXrecord
280
     1
102
VTR_0.000_0.000_1.000_1.000_VISUALSTYLE
340
2F
102
VTR_0.000_0.000_1.000_1.000_GRIDDISPLAY
 70
     3
102
VTR_0.000_0.000_1.000_1.000_GRIDMAJOR
 70
     5
102
VTR_0.000_0.000_1.000_1.000_DEFAULTLIGHTING
280
     1
102
VTR_0.000_0.000_1.000_1.000_DEFAULTLIGHTINGTYPE
 70
     1
102
VTR_0.000_0.000_1.000_1.000_BRIGHTNESS
141
0.0
102
VTR_0.000_0.000_1.000_1.000_CONTRAST
142
0.0
  0
LAYOUT
  5
1E
102
{ACAD_REACTORS
330
1A
102
}
330
1A
100
AcDbPlotSettings
  1

  2
none_device
  4

  6

 40
0.0
 41
0.0
 42
0.0
 43
0.0
 44
0.0
 45
0.0
 46
0.0
 47
0.0
 48
0.0
 49
0.0
140
0.0
141
0.0
142
1.0
143
1.0
 70
   688
 72
     1
 73
     0
 74
     5
  7

 75
    16
147
1.0
148
0.0
149
0.0
100
AcDbLayout
  1
Layout1
 70
     1
 71
     1
 10
0.0
 20
0.0
 11
420.0
 21
297.0
 12
0.0
 22
0.0
 32
0.0
 14
1.000000E+20
 24
1.000000E+20
 34
1.000000E+20
 15
-1.000000E+20
 25
-1.000000E+20
 35
-1.000000E+20
146
0.0
 13
0.0
 23
0.0
 33
0.0
 16
1.0
 26
0.0
 36
0.0
 17
0.0
 27
1.0
 37
0.0
 76
     0
330
1B
  0
LAYOUT
  5
26
102
{ACAD_REACTORS
330
1A
102
}
330
1A
100
AcDbPlotSettings
  1

  2
none_device
  4

  6

 40
0.0
 41
0.0
 42
0.0
 43
0.0
 44
0.0
 45
0.0
 46
0.0
 47
0.0
 48
0.0
 49
0.0
140
0.0
141
0.0
142
1.0
143
1.0
 70
   688
 72
     1
 73
     0
 74
     5
  7

 75
    16
147
1.0
148
0.0
149
0.0
100
AcDbLayout
  1
Layout2
 70
     1
 71
     2
 10
0.0
 20
0.0
 11
0.0
 21
0.0
 12
0.0
 22
0.0
 32
0.0
 14
0.0
 24
0.0
 34
0.0
 15
0.0
 25
0.0
 35
0.0
146
0.0
 13
0.0
 23
0.0
 33
0.0
 16
1.0
 26
0.0
 36
0.0
 17
0.0
 27
1.0
 37
0.0
 76
     0
330
23
  0
LAYOUT
  5
22
102
{ACAD_REACTORS
330
1A
102
}
330
1A
100
AcDbPlotSettings
  1

  2
none_device
  4
Letter_(8.50_x_11.00_Inches)
  6

 40
6.35
 41
6.35
 42
6.350005
 43
6.350005
 44
215.9
 45
279.4
 46
0.0
 47
0.0
 48
0.0
 49
0.0
140
0.0
141
0.0
142
1.0
143
1.0
 70
  1712
 72
     1
 73
     0
 74
     0
  7

 75
     0
147
1.0
148
0.0
149
0.0
100
AcDbLayout
  1
Model
 70
     1
 71
     0
 10
-124.37162
 20
-276.302734
 11
595.451599
 21
434.828217
 12
0.0
 22
0.0
 32
0.0
 14
-124.37162
 24
-276.302734
 34
0.0
 15
595.451599
 25
434.828217
 35
0.0
146
0.0
 13
0.0
 23
0.0
 33
0.0
 16
1.0
 26
0.0
 36
0.0
 17
0.0
 27
1.0
 37
0.0
 76
     0
330
1F
331
29
  0
MATERIAL
  5
45
102
{ACAD_REACTORS
330
43
102
}
102
{ACAD_XDICTIONARY
360
247
102
}
330
43
100
AcDbMaterial
  1
ByBlock
  0
MATERIAL
  5
44
102
{ACAD_REACTORS
330
43
102
}
102
{ACAD_XDICTIONARY
360
245
102
}
330
43
100
AcDbMaterial
  1
ByLayer
  0
MATERIAL
  5
46
102
{ACAD_REACTORS
330
43
102
}
102
{ACAD_XDICTIONARY
360
249
102
}
330
43
100
AcDbMaterial
  1
Global
  0
MLEADERSTYLE
  5
6C
102
{ACAD_REACTORS
330
6B
102
}
102
{ACAD_XDICTIONARY
360
24C
102
}
330
6B
100
AcDbMLeaderStyle
170
     2
171
     1
172
     0
 90
        2
 40
0.0
 41
0.0
173
     1
 91
-1056964608
340
14
 92
       -2
290
     1
 42
2.0
291
     1
 43
8.0
  3
Standard
341
0
 44
4.0
300

342
11
174
     1
178
     6
175
     1
176
     0
 93
-1056964608
 45
4.0
292
     0
297
     0
 46
4.0
343
0
 94
-1056964608
 47
1.0
 49
1.0
140
1.0
293
     1
141
0.0
294
     1
177
     0
142
1.0
295
     0
296
     0
143
3.75
1001
ACAD_MLEADERVER
1070
     2
  0
MLINESTYLE
  5
18
102
{ACAD_REACTORS
330
17
102
}
330
17
100
AcDbMlineStyle
  2
Standard
 70
     0
  3

 62
   256
 51
90.0
 52
90.0
 71
     2
 49
0.5
 62
   256
  6
BYLAYER
 49
-0.5
 62
   256
  6
BYLAYER
  0
ACDBPLACEHOLDER
  5
F
102
{ACAD_REACTORS
330
E
102
}
330
E
  0
SCALE
  5
48
102
{ACAD_REACTORS
330
47
102
}
330
47
100
AcDbScale
 70
     0
300
1:1
140
1.0
141
1.0
290
     1
  0
SCALE
  5
49
102
{ACAD_REACTORS
330
47
102
}
330
47
100
AcDbScale
 70
     0
300
1:2
140
1.0
141
2.0
290
     0
  0
SCALE
  5
4A
102
{ACAD_REACTORS
330
47
102
}
330
47
100
AcDbScale
 70
     0
300
1:4
140
1.0
141
4.0
290
     0
  0
SCALE
  5
4B
102
{ACAD_REACTORS
330
47
102
}
330
47
100
AcDbScale
 70
     0
300
1:5
140
1.0
141
5.0
290
     0
  0
SCALE
  5
4C
102
{ACAD_REACTORS
330
47
102
}
330
47
100
AcDbScale
 70
     0
300
1:8
140
1.0
141
8.0
290
     0
  0
SCALE
  5
4D
102
{ACAD_REACTORS
330
47
102
}
330
47
100
AcDbScale
 70
     0
300
1:10
140
1.0
141
10.0
290
     0
  0
SCALE
  5
4E
102
{ACAD_REACTORS
330
47
102
}
330
47
100
AcDbScale
 70
     0
300
1:16
140
1.0
141
16.0
290
     0
  0
SCALE
  5
4F
102
{ACAD_REACTORS
330
47
102
}
330
47
100
AcDbScale
 70
     0
300
1:20
140
1.0
141
20.0
290
     0
  0
SCALE
  5
50
102
{ACAD_REACTORS
330
47
102
}
330
47
100
AcDbScale
 70
     0
300
1:30
140
1.0
141
30.0
290
     0
  0
SCALE
  5
51
102
{ACAD_REACTORS
330
47
102
}
330
47
100
AcDbScale
 70
     0
300
1:40
140
1.0
141
40.0
290
     0
  0
SCALE
  5
52
102
{ACAD_REACTORS
330
47
102
}
330
47
100
AcDbScale
 70
     0
300
1:50
140
1.0
141
50.0
290
     0
  0
SCALE
  5
53
102
{ACAD_REACTORS
330
47
102
}
330
47
100
AcDbScale
 70
     0
300
1:100
140
1.0
141
100.0
290
     0
  0
SCALE
  5
54
102
{ACAD_REACTORS
330
47
102
}
330
47
100
AcDbScale
 70
     0
300
2:1
140
2.0
141
1.0
290
     0
  0
SCALE
  5
55
102
{ACAD_REACTORS
330
47
102
}
330
47
100
AcDbScale
 70
     0
300
4:1
140
4.0
141
1.0
290
     0
  0
SCALE
  5
56
102
{ACAD_REACTORS
330
47
102
}
330
47
100
AcDbScale
 70
     0
300
8:1
140
8.0
141
1.0
290
     0
  0
SCALE
  5
57
102
{ACAD_REACTORS
330
47
102
}
330
47
100
AcDbScale
 70
     0
300
10:1
140
10.0
141
1.0
290
     0
  0
SCALE
  5
58
102
{ACAD_REACTORS
330
47
102
}
330
47
100
AcDbScale
 70
     0
300
100:1
140
100.0
141
1.0
290
     0
  0
SCALE
  5
59
102
{ACAD_REACTORS
330
47
102
}
330
47
100
AcDbScale
 70
     0
300
1/128" = 1'-0"
140
0.007812
141
12.0
290
     0
  0
SCALE
  5
5A
102
{ACAD_REACTORS
330
47
102
}
330
47
100
AcDbScale
 70
     0
300
1/64" = 1'-0"
140
0.015625
141
12.0
290
     0
  0
SCALE
  5
5B
102
{ACAD_REACTORS
330
47
102
}
330
47
100
AcDbScale
 70
     0
300
1/32" = 1'-0"
140
0.03125
141
12.0
290
     0
  0
SCALE
  5
5C
102
{ACAD_REACTORS
330
47
102
}
330
47
100
AcDbScale
 70
     0
300
1/16" = 1'-0"
140
0.0625
141
12.0
290
     0
  0
SCALE
  5
5D
102
{ACAD_REACTORS
330
47
102
}
330
47
100
AcDbScale
 70
     0
300
3/32" = 1'-0"
140
0.09375
141
12.0
290
     0
  0
SCALE
  5
5E
102
{ACAD_REACTORS
330
47
102
}
330
47
100
AcDbScale
 70
     0
300
1/8" = 1'-0"
140
0.125
141
12.0
290
     0
  0
SCALE
  5
5F
102
{ACAD_REACTORS
330
47
102
}
330
47
100
AcDbScale
 70
     0
300
3/16" = 1'-0"
140
0.1875
141
12.0
290
     0
  0
SCALE
  5
60
102
{ACAD_REACTORS
330
47
102
}
330
47
100
AcDbScale
 70
     0
300
1/4" = 1'-0"
140
0.25
141
12.0
290
     0
  0
SCALE
  5
61
102
{ACAD_REACTORS
330
47
102
}
330
47
100
AcDbScale
 70
     0
300
3/8" = 1'-0"
140
0.375
141
12.0
290
     0
  0
SCALE
  5
62
102
{ACAD_REACTORS
330
47
102
}
330
47
100
AcDbScale
 70
     0
300
1/2" = 1'-0"
140
0.5
141
12.0
290
     0
  0
SCALE
  5
63
102
{ACAD_REACTORS
330
47
102
}
330
47
100
AcDbScale
 70
     0
300
3/4" = 1'-0"
140
0.75
141
12.0
290
     0
  0
SCALE
  5
64
102
{ACAD_REACTORS
330
47
102
}
330
47
100
AcDbScale
 70
     0
300
1" = 1'-0"
140
1.0
141
12.0
290
     0
  0
SCALE
  5
65
102
{ACAD_REACTORS
330
47
102
}
330
47
100
AcDbScale
 70
     0
300
1-1/2" = 1'-0"
140
1.5
141
12.0
290
     0
  0
SCALE
  5
66
102
{ACAD_REACTORS
330
47
102
}
330
47
100
AcDbScale
 70
     0
300
3" = 1'-0"
140
3.0
141
12.0
290
     0
  0
SCALE
  5
67
102
{ACAD_REACTORS
330
47
102
}
330
47
100
AcDbScale
 70
     0
300
6" = 1'-0"
140
6.0
141
12.0
290
     0
  0
SCALE
  5
68
102
{ACAD_REACTORS
330
47
102
}
330
47
100
AcDbScale
 70
     0
300
1'-0" = 1'-0"
140
12.0
141
12.0
290
     0
  0
TABLESTYLE
  5
6A
102
{ACAD_REACTORS
330
69
102
}
330
69
100
AcDbTableStyle
  3
Standard
 70
     0
 71
     0
 40
1.5
 41
1.5
280
     0
281
     0
  7
Standard
140
4.5
170
     2
 62
     0
 63
   257
283
     0
274
    -2
284
     1
 64
     0
275
    -2
285
     1
 65
     0
276
    -2
286
     1
 66
     0
277
    -2
287
     1
 67
     0
278
    -2
288
     1
 68
     0
279
    -2
289
     1
 69
     0
  7
Standard
140
6.0
170
     5
 62
     0
 63
   257
283
     0
274
    -2
284
     1
 64
     0
275
    -2
285
     1
 65
     0
276
    -2
286
     1
 66
     0
277
    -2
287
     1
 67
     0
278
    -2
288
     1
 68
     0
279
    -2
289
     1
 69
     0
  7
Standard
140
4.5
170
     5
 62
     0
 63
   257
283
     0
274
    -2
284
     1
 64
     0
275
    -2
285
     1
 65
     0
276
    -2
286
     1
 66
     0
277
    -2
287
     1
 67
     0
278
    -2
288
     1
 68
     0
279
    -2
289
     1
 69
     0
  0
VISUALSTYLE
  5
2F
102
{ACAD_REACTORS
330
2A
102
}
102
{ACAD_XDICTIONARY
360
21D
102
}
330
2A
100
AcDbVisualStyle
  2
2dWireframe
 70
     4
 71
     0
 72
     2
 73
     0
 90
        0
 40
0.6
 41
30.0
 62
     5
 63
     7
 74
     1
 91
        4
 64
     7
 65
   257
 75
     1
175
     1
 42
1.0
 92
        0
 66
   257
 43
1.0
 76
     1
 77
     6
 78
     2
 67
     7
 79
     5
170
     0
171
     0
290
     0
174
     0
 93
        1
 44
0.0
173
     0
291
     0
 45
0.0
1001
ACAD
1000
AcDbSavedByObjectVersion
1070
     0
  0
VISUALSTYLE
  5
32
102
{ACAD_REACTORS
330
2A
102
}
102
{ACAD_XDICTIONARY
360
223
102
}
330
2A
100
AcDbVisualStyle
  2
Basic
 70
     7
 71
     1
 72
     0
 73
     1
 90
        0
 40
0.6
 41
30.0
 62
     5
 63
     7
 74
     0
 91
        4
 64
     7
 65
   257
 75
     1
175
     1
 42
1.0
 92
        8
 66
     7
 43
1.0
 76
     1
 77
     6
 78
     2
 67
     7
 79
     5
170
     0
171
     0
290
     0
174
     0
 93
        1
 44
0.0
173
     0
291
     1
 45
0.0
1001
ACAD
1000
AcDbSavedByObjectVersion
1070
     0
  0
VISUALSTYLE
  5
36
102
{ACAD_REACTORS
330
2A
102
}
102
{ACAD_XDICTIONARY
360
22B
102
}
330
2A
100
AcDbVisualStyle
  2
Brighten
 70
    12
 71
     2
 72
     2
 73
     0
 90
        0
 40
0.6
 41
30.0
 62
     5
 63
     7
 74
     1
 91
        4
 64
     7
 65
   257
 75
     1
175
     1
 42
1.0
 92
        8
 66
     7
 43
1.0
 76
     1
 77
     6
 78
     2
 67
     7
 79
     5
170
     0
171
     0
290
     0
174
     0
 93
        1
 44
50.0
173
     0
291
     1
 45
0.0
1001
ACAD
1000
AcDbSavedByObjectVersion
1070
     0
  0
VISUALSTYLE
  5
3A
102
{ACAD_REACTORS
330
2A
102
}
102
{ACAD_XDICTIONARY
360
233
102
}
330
2A
100
AcDbVisualStyle
  2
ColorChange
 70
    16
 71
     2
 72
     2
 73
     3
 90
        0
 40
0.6
 41
30.0
 62
     5
 63
     8
 74
     1
 91
        4
 64
     7
 65
   257
 75
     1
175
     1
 42
1.0
 92
        8
 66
     8
 43
1.0
 76
     1
 77
     6
 78
     2
 67
     7
 79
     5
170
     0
171
     0
290
     0
174
     0
 93
        1
 44
0.0
173
     0
291
     1
 45
0.0
1001
ACAD
1000
AcDbSavedByObjectVersion
1070
     0
  0
VISUALSTYLE
  5
34
102
{ACAD_REACTORS
330
2A
102
}
102
{ACAD_XDICTIONARY
360
227
102
}
330
2A
100
AcDbVisualStyle
  2
Conceptual
 70
     9
 71
     3
 72
     2
 73
     0
 90
        0
 40
0.6
 41
30.0
 62
     5
 63
     7
 74
     2
 91
        2
 64
     7
 65
   257
 75
     1
175
     1
 42
179.0
 92
        8
 66
     7
 43
1.0
 76
     1
 77
     6
 78
     2
 67
     7
 79
     3
170
     0
171
     0
290
     0
174
     0
 93
        1
 44
0.0
173
     0
291
     0
 45
0.0
1001
ACAD
1000
AcDbSavedByObjectVersion
1070
     0
  0
VISUALSTYLE
  5
35
102
{ACAD_REACTORS
330
2A
102
}
102
{ACAD_XDICTIONARY
360
229
102
}
330
2A
100
AcDbVisualStyle
  2
Dim
 70
    11
 71
     2
 72
     2
 73
     0
 90
        0
 40
0.6
 41
30.0
 62
     5
 63
     7
 74
     1
 91
        4
 64
     7
 65
   257
 75
     1
175
     1
 42
1.0
 92
        8
 66
     7
 43
1.0
 76
     1
 77
     6
 78
     2
 67
     7
 79
     5
170
     0
171
     0
290
     0
174
     0
 93
        1
 44
-50.0
173
     0
291
     1
 45
0.0
1001
ACAD
1000
AcDbSavedByObjectVersion
1070
     0
  0
VISUALSTYLE
  5
3D
102
{ACAD_REACTORS
330
2A
102
}
102
{ACAD_XDICTIONARY
360
239
102
}
330
2A
100
AcDbVisualStyle
  2
EdgeColorOff
 70
    22
 71
     2
 72
     2
 73
     0
 90
        0
 40
0.6
 41
30.0
 62
     5
 63
     7
 74
     1
 91
        4
 64
     7
 65
   257
 75
     1
175
     1
 42
1.0
 92
        8
 66
     7
 43
1.0
 76
     1
 77
     6
 78
     2
 67
     7
 79
     5
170
     0
171
     0
290
     0
174
     0
 93
        1
 44
0.0
173
     0
291
     1
 45
0.0
1001
ACAD
1000
AcDbSavedByObjectVersion
1070
     0
  0
VISUALSTYLE
  5
39
102
{ACAD_REACTORS
330
2A
102
}
102
{ACAD_XDICTIONARY
360
231
102
}
330
2A
100
AcDbVisualStyle
  2
Facepattern
 70
    15
 71
     2
 72
     2
 73
     0
 90
        0
 40
0.6
 41
30.0
 62
     5
 63
     7
 74
     1
 91
        4
 64
     7
 65
   257
 75
     1
175
     1
 42
1.0
 92
        8
 66
     7
 43
1.0
 76
     1
 77
     6
 78
     2
 67
     7
 79
     5
170
     0
171
     0
290
     0
174
     0
 93
        1
 44
0.0
173
     0
291
     1
 45
0.0
1001
ACAD
1000
AcDbSavedByObjectVersion
1070
     0
  0
VISUALSTYLE
  5
2B
102
{ACAD_REACTORS
330
2A
102
}
102
{ACAD_XDICTIONARY
360
215
102
}
330
2A
100
AcDbVisualStyle
  2
Flat
 70
     0
 71
     2
 72
     1
 73
     1
 90
        2
 40
0.6
 41
30.0
 62
     5
 63
     7
 74
     0
 91
        0
 64
     7
 65
   257
 75
     1
175
     1
 42
1.0
 92
        8
 66
     7
 43
1.0
 76
     1
 77
     6
 78
     2
 67
     7
 79
     5
170
     0
171
     0
290
     0
174
     0
 93
       13
 44
0.0
173
     0
291
     1
 45
0.0
1001
ACAD
1000
AcDbSavedByObjectVersion
1070
     0
  0
VISUALSTYLE
  5
2C
102
{ACAD_REACTORS
330
2A
102
}
102
{ACAD_XDICTIONARY
360
217
102
}
330
2A
100
AcDbVisualStyle
  2
FlatWithEdges
 70
     1
 71
     2
 72
     1
 73
     1
 90
        2
 40
0.6
 41
30.0
 62
     5
 63
     7
 74
     1
 91
        0
 64
     7
 65
   257
 75
     1
175
     1
 42
1.0
 92
        0
 66
   257
 43
1.0
 76
     1
 77
     6
 78
     2
 67
     7
 79
     5
170
     0
171
     0
290
     0
174
     0
 93
       13
 44
0.0
173
     0
291
     1
 45
0.0
1001
ACAD
1000
AcDbSavedByObjectVersion
1070
     0
  0
VISUALSTYLE
  5
2D
102
{ACAD_REACTORS
330
2A
102
}
102
{ACAD_XDICTIONARY
360
219
102
}
330
2A
100
AcDbVisualStyle
  2
Gouraud
 70
     2
 71
     2
 72
     2
 73
     1
 90
        2
 40
0.6
 41
30.0
 62
     5
 63
     7
 74
     0
 91
        0
 64
     7
 65
   257
 75
     1
175
     1
 42
1.0
 92
        0
 66
     7
 43
1.0
 76
     1
 77
     6
 78
     2
 67
     7
 79
     5
170
     0
171
     0
290
     0
174
     0
 93
       13
 44
0.0
173
     0
291
     1
 45
0.0
1001
ACAD
1000
AcDbSavedByObjectVersion
1070
     0
  0
VISUALSTYLE
  5
2E
102
{ACAD_REACTORS
330
2A
102
}
102
{ACAD_XDICTIONARY
360
21B
102
}
330
2A
100
AcDbVisualStyle
  2
GouraudWithEdges
 70
     3
 71
     2
 72
     2
 73
     1
 90
        2
 40
0.6
 41
30.0
 62
     5
 63
     7
 74
     1
 91
        0
 64
     7
 65
   257
 75
     1
175
     1
 42
1.0
 92
        0
 66
   257
 43
1.0
 76
     1
 77
     6
 78
     2
 67
     7
 79
     5
170
     0
171
     0
290
     0
174
     0
 93
       13
 44
0.0
173
     0
291
     1
 45
0.0
1001
ACAD
1000
AcDbSavedByObjectVersion
1070
     0
  0
VISUALSTYLE
  5
31
102
{ACAD_REACTORS
330
2A
102
}
102
{ACAD_XDICTIONARY
360
221
102
}
330
2A
100
AcDbVisualStyle
  2
Hidden
 70
     6
 71
     1
 72
     2
 73
     2
 90
        0
 40
0.6
 41
30.0
 62
     5
 63
     7
 74
     2
 91
        2
 64
     7
 65
   257
 75
     2
175
     1
 42
40.0
 92
        0
 66
   257
 43
1.0
 76
     1
 77
     6
 78
     2
 67
     7
 79
     3
170
     0
171
     0
290
     0
174
     0
 93
        1
 44
0.0
173
     0
291
     0
 45
0.0
1001
ACAD
1000
AcDbSavedByObjectVersion
1070
     0
  0
VISUALSTYLE
  5
3B
102
{ACAD_REACTORS
330
2A
102
}
102
{ACAD_XDICTIONARY
360
235
102
}
330
2A
100
AcDbVisualStyle
  2
JitterOff
 70
    20
 71
     2
 72
     2
 73
     0
 90
        0
 40
0.6
 41
30.0
 62
     5
 63
     7
 74
     1
 91
        4
 64
     7
 65
   257
 75
     1
175
     1
 42
1.0
 92
       10
 66
     7
 43
1.0
 76
     1
 77
     6
 78
     2
 67
     7
 79
     5
170
     0
171
     0
290
     0
174
     0
 93
        1
 44
0.0
173
     0
291
     1
 45
0.0
1001
ACAD
1000
AcDbSavedByObjectVersion
1070
     0
  0
VISUALSTYLE
  5
38
102
{ACAD_REACTORS
330
2A
102
}
102
{ACAD_XDICTIONARY
360
22F
102
}
330
2A
100
AcDbVisualStyle
  2
Linepattern
 70
    14
 71
     2
 72
     2
 73
     0
 90
        0
 40
0.6
 41
30.0
 62
     5
 63
     7
 74
     1
 91
        4
 64
     7
 65
   257
 75
     7
175
     7
 42
1.0
 92
        8
 66
     7
 43
1.0
 76
     1
 77
     6
 78
     2
 67
     7
 79
     5
170
     0
171
     0
290
     0
174
     0
 93
        1
 44
0.0
173
     0
291
     1
 45
0.0
1001
ACAD
1000
AcDbSavedByObjectVersion
1070
     0
  0
VISUALSTYLE
  5
3C
102
{ACAD_REACTORS
330
2A
102
}
102
{ACAD_XDICTIONARY
360
237
102
}
330
2A
100
AcDbVisualStyle
  2
OverhangOff
 70
    21
 71
     2
 72
     2
 73
     0
 90
        0
 40
0.6
 41
30.0
 62
     5
 63
     7
 74
     1
 91
        4
 64
     7
 65
   257
 75
     1
175
     1
 42
1.0
 92
        9
 66
     7
 43
1.0
 76
     1
 77
     6
 78
     2
 67
     7
 79
     5
170
     0
171
     0
290
     0
174
     0
 93
        1
 44
0.0
173
     0
291
     1
 45
0.0
1001
ACAD
1000
AcDbSavedByObjectVersion
1070
     0
  0
VISUALSTYLE
  5
33
102
{ACAD_REACTORS
330
2A
102
}
102
{ACAD_XDICTIONARY
360
225
102
}
330
2A
100
AcDbVisualStyle
  2
Realistic
 70
     8
 71
     2
 72
     3
 73
     0
 90
        2
 40
0.6
 41
30.0
 62
     5
 63
     7
 74
     0
 91
        0
 64
     7
 65
   257
 75
     1
175
     1
 42
1.0
 92
        8
 66
   257
 43
1.0
 76
     1
 77
     6
 78
     2
 67
     7
 79
     3
170
     0
171
     0
290
     0
174
     0
 93
       13
 44
0.0
173
     0
291
     0
 45
0.0
1001
ACAD
1000
AcDbSavedByObjectVersion
1070
     0
  0
VISUALSTYLE
  5
42
102
{ACAD_REACTORS
330
2A
102
}
102
{ACAD_XDICTIONARY
360
243
102
}
330
2A
100
AcDbVisualStyle
  2
Shaded
 70
    27
 71
     2
 72
     2
 73
     1
 90
        2
 40
0.6
 41
30.0
 62
     5
 63
     7
 74
     0
 91
        4
 64
     7
 65
   257
 75
     1
175
     1
 42
1.0
 92
        8
 66
   257
 43
1.0
 76
     1
 77
     6
 78
     2
 67
     8
 79
     3
170
     0
171
     0
290
     0
174
     0
 93
        5
 44
0.0
173
     0
291
     0
 45
0.0
1001
ACAD
1000
AcDbSavedByObjectVersion
1070
     0
  0
VISUALSTYLE
  5
41
102
{ACAD_REACTORS
330
2A
102
}
102
{ACAD_XDICTIONARY
360
241
102
}
330
2A
100
AcDbVisualStyle
  2
Shaded with edges
 70
    26
 71
     2
 72
     2
 73
     1
 90
        2
 40
0.6
 41
30.0
 62
     5
 63
     7
 74
     1
 91
       10
 64
     7
 65
   257
 75
     2
175
     1
 42
1.0
 92
        8
 66
   257
 43
1.0
 76
     1
 77
     6
 78
     2
 67
     7
 79
     3
170
     0
171
     0
290
     0
174
     0
 93
        5
 44
0.0
173
     0
291
     0
 45
0.0
1001
ACAD
1000
AcDbSavedByObjectVersion
1070
     0
  0
VISUALSTYLE
  5
3E
102
{ACAD_REACTORS
330
2A
102
}
102
{ACAD_XDICTIONARY
360
23B
102
}
330
2A
100
AcDbVisualStyle
  2
Shades of Gray
 70
    23
 71
     2
 72
     2
 73
     3
 90
        0
 40
0.6
 41
30.0
 62
     5
 63
     7
 74
     2
 91
        2
 64
     7
 65
     7
 75
     1
175
     1
 42
40.0
 92
        8
 66
     7
 43
1.0
 76
     1
 77
     6
 78
     2
 67
     7
 79
     3
170
     0
171
     0
290
     0
174
     0
 93
        1
 44
0.0
173
     0
291
     0
 45
0.0
1001
ACAD
1000
AcDbSavedByObjectVersion
1070
     0
  0
VISUALSTYLE
  5
3F
102
{ACAD_REACTORS
330
2A
102
}
102
{ACAD_XDICTIONARY
360
23D
102
}
330
2A
100
AcDbVisualStyle
  2
Sketchy
 70
    24
 71
     1
 72
     2
 73
     2
 90
        0
 40
0.6
 41
30.0
 62
     5
 63
     7
 74
     2
 91
        2
 64
     7
 65
     7
 75
     1
175
     1
 42
40.0
 92
       11
 66
     7
 43
1.0
 76
     1
 77
     6
 78
     2
 67
     7
 79
     6
170
     0
171
     0
290
     0
174
     0
 93
        1
 44
0.0
173
     0
291
     0
 45
0.0
1001
ACAD
1000
AcDbSavedByObjectVersion
1070
     0
  0
VISUALSTYLE
  5
37
102
{ACAD_REACTORS
330
2A
102
}
102
{ACAD_XDICTIONARY
360
22D
102
}
330
2A
100
AcDbVisualStyle
  2
Thicken
 70
    13
 71
     2
 72
     2
 73
     0
 90
        0
 40
0.6
 41
30.0
 62
     5
 63
     7
 74
     1
 91
        4
 64
     7
 65
   257
 75
     1
175
     1
 42
1.0
 92
       12
 66
     7
 43
1.0
 76
     1
 77
     6
 78
     2
 67
     7
 79
     5
170
     0
171
     0
290
     0
174
     0
 93
        1
 44
0.0
173
     0
291
     1
 45
0.0
1001
ACAD
1000
AcDbSavedByObjectVersion
1070
     0
  0
VISUALSTYLE
  5
30
102
{ACAD_REACTORS
330
2A
102
}
102
{ACAD_XDICTIONARY
360
21F
102
}
330
2A
100
AcDbVisualStyle
  2
Wireframe
 70
     5
 71
     0
 72
     2
 73
     0
 90
        0
 40
0.6
 41
30.0
 62
     5
 63
     7
 74
     1
 91
        4
 64
     7
 65
   257
 75
     1
175
     1
 42
1.0
 92
        0
 66
   257
 43
1.0
 76
     1
 77
     6
 78
     2
 67
     7
 79
     3
170
     0
171
     0
290
     0
174
     0
 93
        1
 44
0.0
173
     0
291
     0
 45
0.0
1001
ACAD
1000
AcDbSavedByObjectVersion
1070
     0
  0
VISUALSTYLE
  5
40
102
{ACAD_REACTORS
330
2A
102
}
102
{ACAD_XDICTIONARY
360
23F
102
}
330
2A
100
AcDbVisualStyle
  2
X-Ray
 70
    25
 71
     2
 72
     2
 73
     1
 90
        1
 40
0.5
 41
30.0
 62
     5
 63
     7
 74
     1
 91
        0
 64
     7
 65
   257
 75
     1
175
     1
 42
1.0
 92
        8
 66
     7
 43
1.0
 76
     1
 77
     6
 78
     2
 67
     7
 79
     3
170
     0
171
     0
290
     0
174
     0
 93
       13
 44
0.0
173
     0
291
     0
 45
0.0
1001
ACAD
1000
AcDbSavedByObjectVersion
1070
     0
  0
DICTIONARYVAR
  5
213
102
{ACAD_REACTORS
330
206
102
}
330
206
100
DictionaryVariables
280
     0
  1
1:1
  0
DICTIONARYVAR
  5
20D
102
{ACAD_REACTORS
330
206
102
}
330
206
100
DictionaryVariables
280
     0
  1
3.500000
  0
DICTIONARYVAR
  5
20E
102
{ACAD_REACTORS
330
206
102
}
330
206
100
DictionaryVariables
280
     0
  1
acadiso.lin
  0
DICTIONARYVAR
  5
208
102
{ACAD_REACTORS
330
206
102
}
330
206
100
DictionaryVariables
280
     0
  1
Standard
  0
DICTIONARYVAR
  5
207
102
{ACAD_REACTORS
330
206
102
}
330
206
100
DictionaryVariables
280
     0
  1
Standard
  0
DICTIONARYVAR
  5
20F
102
{ACAD_REACTORS
330
206
102
}
330
206
100
DictionaryVariables
280
     0
  1
2
  0
DICTIONARYVAR
  5
210
102
{ACAD_REACTORS
330
206
102
}
330
206
100
DictionaryVariables
280
     0
  1
1
  0
DICTIONARYVAR
  5
214
102
{ACAD_REACTORS
330
206
102
}
330
206
100
DictionaryVariables
280
     0
  1
1
  0
DICTIONARYVAR
  5
20A
102
{ACAD_REACTORS
330
206
102
}
330
206
100
DictionaryVariables
280
     0
  1
80.000000
  0
DICTIONARYVAR
  5
209
102
{ACAD_REACTORS
330
206
102
}
330
206
100
DictionaryVariables
280
     0
  1
5.000000
  0
DICTIONARY
  5
247
330
45
100
AcDbDictionary
280
     1
281
     1
  3
ACAD_XREC_ROUNDTRIP
360
248
  0
DICTIONARY
  5
245
330
44
100
AcDbDictionary
280
     1
281
     1
  3
ACAD_XREC_ROUNDTRIP
360
246
  0
DICTIONARY
  5
249
330
46
100
AcDbDictionary
280
     1
281
     1
  3
ACAD_XREC_ROUNDTRIP
360
24A
  0
DICTIONARY
  5
24C
330
6C
100
AcDbDictionary
280
     1
281
     1
  3
ACAD_XREC_ROUNDTRIP
360
24D
  0
DICTIONARY
  5
21D
330
2F
100
AcDbDictionary
280
     1
281
     1
  3
ACAD_XREC_ROUNDTRIP
360
21E
  0
DICTIONARY
  5
223
330
32
100
AcDbDictionary
280
     1
281
     1
  3
ACAD_XREC_ROUNDTRIP
360
224
  0
DICTIONARY
  5
22B
330
36
100
AcDbDictionary
280
     1
281
     1
  3
ACAD_XREC_ROUNDTRIP
360
22C
  0
DICTIONARY
  5
233
330
3A
100
AcDbDictionary
280
     1
281
     1
  3
ACAD_XREC_ROUNDTRIP
360
234
  0
DICTIONARY
  5
227
330
34
100
AcDbDictionary
280
     1
281
     1
  3
ACAD_XREC_ROUNDTRIP
360
228
  0
DICTIONARY
  5
229
330
35
100
AcDbDictionary
280
     1
281
     1
  3
ACAD_XREC_ROUNDTRIP
360
22A
  0
DICTIONARY
  5
239
330
3D
100
AcDbDictionary
280
     1
281
     1
  3
ACAD_XREC_ROUNDTRIP
360
23A
  0
DICTIONARY
  5
231
330
39
100
AcDbDictionary
280
     1
281
     1
  3
ACAD_XREC_ROUNDTRIP
360
232
  0
DICTIONARY
  5
215
330
2B
100
AcDbDictionary
280
     1
281
     1
  3
ACAD_XREC_ROUNDTRIP
360
216
  0
DICTIONARY
  5
217
330
2C
100
AcDbDictionary
280
     1
281
     1
  3
ACAD_XREC_ROUNDTRIP
360
218
  0
DICTIONARY
  5
219
330
2D
100
AcDbDictionary
280
     1
281
     1
  3
ACAD_XREC_ROUNDTRIP
360
21A
  0
DICTIONARY
  5
21B
330
2E
100
AcDbDictionary
280
     1
281
     1
  3
ACAD_XREC_ROUNDTRIP
360
21C
  0
DICTIONARY
  5
221
330
31
100
AcDbDictionary
280
     1
281
     1
  3
ACAD_XREC_ROUNDTRIP
360
222
  0
DICTIONARY
  5
235
330
3B
100
AcDbDictionary
280
     1
281
     1
  3
ACAD_XREC_ROUNDTRIP
360
236
  0
DICTIONARY
  5
22F
330
38
100
AcDbDictionary
280
     1
281
     1
  3
ACAD_XREC_ROUNDTRIP
360
230
  0
DICTIONARY
  5
237
330
3C
100
AcDbDictionary
280
     1
281
     1
  3
ACAD_XREC_ROUNDTRIP
360
238
  0
DICTIONARY
  5
225
330
33
100
AcDbDictionary
280
     1
281
     1
  3
ACAD_XREC_ROUNDTRIP
360
226
  0
DICTIONARY
  5
243
330
42
100
AcDbDictionary
280
     1
281
     1
  3
ACAD_XREC_ROUNDTRIP
360
244
  0
DICTIONARY
  5
241
330
41
100
AcDbDictionary
280
     1
281
     1
  3
ACAD_XREC_ROUNDTRIP
360
242
  0
DICTIONARY
  5
23B
330
3E
100
AcDbDictionary
280
     1
281
     1
  3
ACAD_XREC_ROUNDTRIP
360
23C
  0
DICTIONARY
  5
23D
330
3F
100
AcDbDictionary
280
     1
281
     1
  3
ACAD_XREC_ROUNDTRIP
360
23E
  0
DICTIONARY
  5
22D
330
37
100
AcDbDictionary
280
     1
281
     1
  3
ACAD_XREC_ROUNDTRIP
360
22E
  0
DICTIONARY
  5
21F
330
30
100
AcDbDictionary
280
     1
281
     1
  3
ACAD_XREC_ROUNDTRIP
360
220
  0
DICTIONARY
  5
23F
330
40
100
AcDbDictionary
280
     1
281
     1
  3
ACAD_XREC_ROUNDTRIP
360
240
  0
XRECORD
  5
248
102
{ACAD_REACTORS
330
247
102
}
330
247
100
AcDbXrecord
280
     1
102
MATERIAL
148
0.0
149
0.0
149
0.0
 93
        0
 94
      127
282
     0
 72
     1
 77
     1
171
     1
175
     1
179
     1
273
     0
  0
XRECORD
  5
246
102
{ACAD_REACTORS
330
245
102
}
330
245
100
AcDbXrecord
280
     1
102
MATERIAL
148
0.0
149
0.0
149
0.0
 93
        0
 94
      127
282
     0
 72
     1
 77
     1
171
     1
175
     1
179
     1
273
     0
  0
XRECORD
  5
24A
102
{ACAD_REACTORS
330
249
102
}
330
249
100
AcDbXrecord
280
     1
102
MATERIAL
148
0.0
149
0.0
149
0.0
 93
        0
 94
      127
282
     0
 72
     1
 77
     1
171
     1
175
     1
179
     1
273
     0
  0
XRECORD
  5
24D
102
{ACAD_REACTORS
330
24C
102
}
330
24C
100
AcDbXrecord
280
     1
102
ACAD_ROUNDTRIP_2010_MLEADER_STYLE
  0
XRECORD
  5
21E
102
{ACAD_REACTORS
330
21D
102
}
330
21D
100
AcDbXrecord
280
     1
102
RTVSPropertyOp0
 70
     1
102
RTVSPropertyOp1
 70
     1
102
RTVSPropertyOp2
 70
     1
102
RTVSPropertyOp3
 70
     1
102
RTVSPropertyOp4
 70
     1
102
RTVSPropertyOp5
 70
     1
102
RTVSPropertyOp6
 70
     1
102
RTVSPropertyOp7
 70
     1
102
RTVSPropertyOp8
 70
     1
102
RTVSPropertyOp9
 70
     1
102
RTVSPropertyOp10
 70
     1
102
RTVSPropertyOp11
 70
     1
102
RTVSPropertyOp12
 70
     1
102
RTVSPropertyOp13
 70
     1
102
RTVSPropertyOp14
 70
     1
102
RTVSPropertyOp15
 70
     1
102
RTVSPropertyOp16
 70
     1
102
RTVSPropertyOp17
 70
     1
102
RTVSPropertyOp18
 70
     1
102
RTVSPropertyOp19
 70
     1
102
RTVSPropertyOp20
 70
     1
102
RTVSPropertyOp21
 70
     1
102
RTVSPropertyOp22
 70
     1
102
RTVSPropertyOp23
 70
     1
102
RTVSPropertyOp24
 70
     1
102
RTVSPropertyOp25
 70
     1
102
RTVSPropertyOp26
 70
     1
102
RTVSPropertyOp27
 70
     1
102
RTVSPropertyOp28
 70
     1
102
RTVSPropertyOp29
 70
     1
102
RTVSPropertyOp30
 70
     1
102
RTVSPropertyOp31
 70
     1
102
RTVSPropertyOp32
 70
     1
102
RTVSPropertyOp33
 70
     1
102
RTVSPropertyOp34
 70
     1
102
RTVSPropertyOp35
 70
     1
102
RTVSPropertyOp36
 70
     1
102
RTVSPropertyOp37
 70
     1
102
RTVSPropertyOp38
 70
     1
102
RTVSPropertyOp39
 70
     1
102
RTVSPropertyOp40
 70
     1
102
RTVSPropertyOp41
 70
     1
102
RTVSPropertyOp42
 70
     1
102
RTVSPropertyOp43
 70
     1
102
RTVSPropertyOp44
 70
     1
102
RTVSPropertyOp45
 70
     1
102
RTVSPropertyOp46
 70
     1
102
RTVSPropertyOp47
 70
     1
102
RTVSPropertyOp48
 70
     1
102
RTVSPropertyOp49
 70
     1
102
RTVSPropertyOp50
 70
     1
102
RTVSPropertyOp51
 70
     0
102
RTVSPropertyOp52
 70
     0
102
RTVSPropertyOp53
 70
     1
102
RTVSPropertyOp54
 70
     1
102
RTVSPropertyOp55
 70
     1
102
RTVSPropertyOp56
 70
     1
102
RTVSPropertyOp57
 70
     1
102
RTVSPost2010Prop28
280
     1
102
RTVSPost2010PropOp28
 70
     1
102
RTVSPost2010Prop29
280
     1
102
RTVSPost2010PropOp29
 70
     1
102
RTVSPost2010Prop30
280
     0
102
RTVSPost2010PropOp30
 70
     1
102
RTVSPost2010Prop31
280
     0
102
RTVSPost2010PropOp31
 70
     1
102
RTVSPost2010Prop32
280
     0
102
RTVSPost2010PropOp32
 70
     1
102
RTVSPost2010Prop33
280
     0
102
RTVSPost2010PropOp33
 70
     1
102
RTVSPost2010Prop34
280
     0
102
RTVSPost2010PropOp34
 70
     1
102
RTVSPost2010Prop35
280
     0
102
RTVSPost2010PropOp35
 70
     1
102
RTVSPost2010Prop36
280
     0
102
RTVSPost2010PropOp36
 70
     1
102
RTVSPost2010Prop37
 90
       50
102
RTVSPost2010PropOp37
 70
     1
102
RTVSPost2010Prop38
140
0.0
102
RTVSPost2010PropOp38
 70
     1
102
RTVSPost2010Prop39
140
1.0
102
RTVSPost2010PropOp39
 70
     1
102
RTVSPost2010Prop40
 90
        0
102
RTVSPost2010PropOp40
 70
     1
102
RTVSPost2010Prop41ColorIndex
 90
       18
102
RTVSPost2010Prop41ColorRGB
 90
        0
102
RTVSPost2010PropOp41
 70
     1
102
RTVSPost2010Prop42
 90
       50
102
RTVSPost2010PropOp42
 70
     1
102
RTVSPost2010Prop43
 90
        3
102
RTVSPost2010PropOp43
 70
     1
102
RTVSPost2010Prop44ColorIndex
 90
        5
102
RTVSPost2010Prop44ColorRGB
 90
      255
102
RTVSPost2010PropOp44
 70
     1
102
RTVSPost2010Prop45
280
     0
102
RTVSPost2010PropOp45
 70
     1
102
RTVSPost2010Prop46
 90
       50
102
RTVSPost2010PropOp46
 70
     1
102
RTVSPost2010Prop47
 90
       50
102
RTVSPost2010PropOp47
 70
     1
102
RTVSPost2010Prop48
 90
       50
102
RTVSPost2010PropOp48
 70
     1
102
RTVSPost2010Prop49
280
     0
102
RTVSPost2010PropOp49
 70
     1
102
RTVSPost2010Prop50
 90
       50
102
RTVSPost2010PropOp50
 70
     1
102
RTVSPost2010Prop51ColorIndex
 90
      256
102
RTVSPost2010Prop51ColorRGB
 90
-16777216
102
RTVSPost2010PropOp51
 70
     0
102
RTVSPost2010Prop52
140
1.0
102
RTVSPost2010PropOp52
 70
     0
102
RTVSPost2010Prop53
 90
        2
102
RTVSPost2010PropOp53
 70
     1
102
RTVSPost2010Prop54
  1
strokes_ogs.tif
102
RTVSPost2010PropOp54
 70
     1
102
RTVSPost2010Prop55
280
     0
102
RTVSPost2010PropOp55
 70
     1
102
RTVSPost2010Prop56
140
1.0
102
RTVSPost2010PropOp56
 70
     1
102
RTVSPost2010Prop57
140
1.0
102
RTVSPost2010PropOp57
 70
     1
  0
XRECORD
  5
224
102
{ACAD_REACTORS
330
223
102
}
330
223
100
AcDbXrecord
280
     1
102
RTVSPropertyOp0
 70
     1
102
RTVSPropertyOp1
 70
     1
102
RTVSPropertyOp2
 70
     1
102
RTVSPropertyOp3
 70
     1
102
RTVSPropertyOp4
 70
     1
102
RTVSPropertyOp5
 70
     1
102
RTVSPropertyOp6
 70
     1
102
RTVSPropertyOp7
 70
     1
102
RTVSPropertyOp8
 70
     1
102
RTVSPropertyOp9
 70
     1
102
RTVSPropertyOp10
 70
     1
102
RTVSPropertyOp11
 70
     1
102
RTVSPropertyOp12
 70
     1
102
RTVSPropertyOp13
 70
     1
102
RTVSPropertyOp14
 70
     1
102
RTVSPropertyOp15
 70
     1
102
RTVSPropertyOp16
 70
     1
102
RTVSPropertyOp17
 70
     1
102
RTVSPropertyOp18
 70
     1
102
RTVSPropertyOp19
 70
     1
102
RTVSPropertyOp20
 70
     1
102
RTVSPropertyOp21
 70
     1
102
RTVSPropertyOp22
 70
     1
102
RTVSPropertyOp23
 70
     1
102
RTVSPropertyOp24
 70
     1
102
RTVSPropertyOp25
 70
     1
102
RTVSPropertyOp26
 70
     1
102
RTVSPropertyOp27
 70
     1
102
RTVSPropertyOp28
 70
     1
102
RTVSPropertyOp29
 70
     1
102
RTVSPropertyOp30
 70
     1
102
RTVSPropertyOp31
 70
     1
102
RTVSPropertyOp32
 70
     1
102
RTVSPropertyOp33
 70
     1
102
RTVSPropertyOp34
 70
     1
102
RTVSPropertyOp35
 70
     1
102
RTVSPropertyOp36
 70
     1
102
RTVSPropertyOp37
 70
     1
102
RTVSPropertyOp38
 70
     1
102
RTVSPropertyOp39
 70
     1
102
RTVSPropertyOp40
 70
     1
102
RTVSPropertyOp41
 70
     1
102
RTVSPropertyOp42
 70
     1
102
RTVSPropertyOp43
 70
     1
102
RTVSPropertyOp44
 70
     1
102
RTVSPropertyOp45
 70
     1
102
RTVSPropertyOp46
 70
     1
102
RTVSPropertyOp47
 70
     1
102
RTVSPropertyOp48
 70
     1
102
RTVSPropertyOp49
 70
     1
102
RTVSPropertyOp50
 70
     1
102
RTVSPropertyOp51
 70
     0
102
RTVSPropertyOp52
 70
     0
102
RTVSPropertyOp53
 70
     1
102
RTVSPropertyOp54
 70
     1
102
RTVSPropertyOp55
 70
     1
102
RTVSPropertyOp56
 70
     1
102
RTVSPropertyOp57
 70
     1
102
RTVSPost2010Prop28
280
     0
102
RTVSPost2010PropOp28
 70
     1
102
RTVSPost2010Prop29
280
     1
102
RTVSPost2010PropOp29
 70
     1
102
RTVSPost2010Prop30
280
     1
102
RTVSPost2010PropOp30
 70
     1
102
RTVSPost2010Prop31
280
     0
102
RTVSPost2010PropOp31
 70
     1
102
RTVSPost2010Prop32
280
     0
102
RTVSPost2010PropOp32
 70
     1
102
RTVSPost2010Prop33
280
     0
102
RTVSPost2010PropOp33
 70
     1
102
RTVSPost2010Prop34
280
     0
102
RTVSPost2010PropOp34
 70
     1
102
RTVSPost2010Prop35
280
     0
102
RTVSPost2010PropOp35
 70
     1
102
RTVSPost2010Prop36
280
     0
102
RTVSPost2010PropOp36
 70
     1
102
RTVSPost2010Prop37
 90
       50
102
RTVSPost2010PropOp37
 70
     1
102
RTVSPost2010Prop38
140
0.0
102
RTVSPost2010PropOp38
 70
     1
102
RTVSPost2010Prop39
140
1.0
102
RTVSPost2010PropOp39
 70
     1
102
RTVSPost2010Prop40
 90
        0
102
RTVSPost2010PropOp40
 70
     1
102
RTVSPost2010Prop41ColorIndex
 90
       18
102
RTVSPost2010Prop41ColorRGB
 90
        0
102
RTVSPost2010PropOp41
 70
     1
102
RTVSPost2010Prop42
 90
       50
102
RTVSPost2010PropOp42
 70
     1
102
RTVSPost2010Prop43
 90
        3
102
RTVSPost2010PropOp43
 70
     1
102
RTVSPost2010Prop44ColorIndex
 90
        5
102
RTVSPost2010Prop44ColorRGB
 90
      255
102
RTVSPost2010PropOp44
 70
     1
102
RTVSPost2010Prop45
280
     0
102
RTVSPost2010PropOp45
 70
     1
102
RTVSPost2010Prop46
 90
       50
102
RTVSPost2010PropOp46
 70
     1
102
RTVSPost2010Prop47
 90
       50
102
RTVSPost2010PropOp47
 70
     1
102
RTVSPost2010Prop48
 90
       50
102
RTVSPost2010PropOp48
 70
     1
102
RTVSPost2010Prop49
280
     0
102
RTVSPost2010PropOp49
 70
     1
102
RTVSPost2010Prop50
 90
       50
102
RTVSPost2010PropOp50
 70
     1
102
RTVSPost2010Prop51ColorIndex
 90
      256
102
RTVSPost2010Prop51ColorRGB
 90
-16777216
102
RTVSPost2010PropOp51
 70
     0
102
RTVSPost2010Prop52
140
1.0
102
RTVSPost2010PropOp52
 70
     0
102
RTVSPost2010Prop53
 90
        2
102
RTVSPost2010PropOp53
 70
     1
102
RTVSPost2010Prop54
  1
strokes_ogs.tif
102
RTVSPost2010PropOp54
 70
     1
102
RTVSPost2010Prop55
280
     0
102
RTVSPost2010PropOp55
 70
     1
102
RTVSPost2010Prop56
140
1.0
102
RTVSPost2010PropOp56
 70
     1
102
RTVSPost2010Prop57
140
1.0
102
RTVSPost2010PropOp57
 70
     1
  0
XRECORD
  5
22C
102
{ACAD_REACTORS
330
22B
102
}
330
22B
100
AcDbXrecord
280
     1
102
RTVSPropertyOp0
 70
     1
102
RTVSPropertyOp1
 70
     1
102
RTVSPropertyOp2
 70
     1
102
RTVSPropertyOp3
 70
     1
102
RTVSPropertyOp4
 70
     1
102
RTVSPropertyOp5
 70
     1
102
RTVSPropertyOp6
 70
     1
102
RTVSPropertyOp7
 70
     1
102
RTVSPropertyOp8
 70
     1
102
RTVSPropertyOp9
 70
     1
102
RTVSPropertyOp10
 70
     1
102
RTVSPropertyOp11
 70
     1
102
RTVSPropertyOp12
 70
     1
102
RTVSPropertyOp13
 70
     1
102
RTVSPropertyOp14
 70
     1
102
RTVSPropertyOp15
 70
     1
102
RTVSPropertyOp16
 70
     1
102
RTVSPropertyOp17
 70
     1
102
RTVSPropertyOp18
 70
     1
102
RTVSPropertyOp19
 70
     1
102
RTVSPropertyOp20
 70
     1
102
RTVSPropertyOp21
 70
     1
102
RTVSPropertyOp22
 70
     1
102
RTVSPropertyOp23
 70
     1
102
RTVSPropertyOp24
 70
     1
102
RTVSPropertyOp25
 70
     1
102
RTVSPropertyOp26
 70
     1
102
RTVSPropertyOp27
 70
     1
102
RTVSPropertyOp28
 70
     1
102
RTVSPropertyOp29
 70
     1
102
RTVSPropertyOp30
 70
     1
102
RTVSPropertyOp31
 70
     1
102
RTVSPropertyOp32
 70
     1
102
RTVSPropertyOp33
 70
     1
102
RTVSPropertyOp34
 70
     1
102
RTVSPropertyOp35
 70
     1
102
RTVSPropertyOp36
 70
     1
102
RTVSPropertyOp37
 70
     1
102
RTVSPropertyOp38
 70
     1
102
RTVSPropertyOp39
 70
     1
102
RTVSPropertyOp40
 70
     1
102
RTVSPropertyOp41
 70
     1
102
RTVSPropertyOp42
 70
     1
102
RTVSPropertyOp43
 70
     1
102
RTVSPropertyOp44
 70
     1
102
RTVSPropertyOp45
 70
     1
102
RTVSPropertyOp46
 70
     1
102
RTVSPropertyOp47
 70
     1
102
RTVSPropertyOp48
 70
     1
102
RTVSPropertyOp49
 70
     1
102
RTVSPropertyOp50
 70
     1
102
RTVSPropertyOp51
 70
     0
102
RTVSPropertyOp52
 70
     0
102
RTVSPropertyOp53
 70
     1
102
RTVSPropertyOp54
 70
     1
102
RTVSPropertyOp55
 70
     1
102
RTVSPropertyOp56
 70
     1
102
RTVSPropertyOp57
 70
     1
102
RTVSPost2010Prop28
280
     0
102
RTVSPost2010PropOp28
 70
     1
102
RTVSPost2010Prop29
280
     1
102
RTVSPost2010PropOp29
 70
     1
102
RTVSPost2010Prop30
280
     1
102
RTVSPost2010PropOp30
 70
     1
102
RTVSPost2010Prop31
280
     0
102
RTVSPost2010PropOp31
 70
     1
102
RTVSPost2010Prop32
280
     0
102
RTVSPost2010PropOp32
 70
     1
102
RTVSPost2010Prop33
280
     0
102
RTVSPost2010PropOp33
 70
     1
102
RTVSPost2010Prop34
280
     0
102
RTVSPost2010PropOp34
 70
     1
102
RTVSPost2010Prop35
280
     0
102
RTVSPost2010PropOp35
 70
     1
102
RTVSPost2010Prop36
280
     0
102
RTVSPost2010PropOp36
 70
     1
102
RTVSPost2010Prop37
 90
       50
102
RTVSPost2010PropOp37
 70
     1
102
RTVSPost2010Prop38
140
0.0
102
RTVSPost2010PropOp38
 70
     1
102
RTVSPost2010Prop39
140
1.0
102
RTVSPost2010PropOp39
 70
     1
102
RTVSPost2010Prop40
 90
        0
102
RTVSPost2010PropOp40
 70
     1
102
RTVSPost2010Prop41ColorIndex
 90
       18
102
RTVSPost2010Prop41ColorRGB
 90
        0
102
RTVSPost2010PropOp41
 70
     1
102
RTVSPost2010Prop42
 90
       50
102
RTVSPost2010PropOp42
 70
     1
102
RTVSPost2010Prop43
 90
        3
102
RTVSPost2010PropOp43
 70
     1
102
RTVSPost2010Prop44ColorIndex
 90
        5
102
RTVSPost2010Prop44ColorRGB
 90
      255
102
RTVSPost2010PropOp44
 70
     1
102
RTVSPost2010Prop45
280
     0
102
RTVSPost2010PropOp45
 70
     1
102
RTVSPost2010Prop46
 90
       50
102
RTVSPost2010PropOp46
 70
     1
102
RTVSPost2010Prop47
 90
       50
102
RTVSPost2010PropOp47
 70
     1
102
RTVSPost2010Prop48
 90
       50
102
RTVSPost2010PropOp48
 70
     1
102
RTVSPost2010Prop49
280
     0
102
RTVSPost2010PropOp49
 70
     1
102
RTVSPost2010Prop50
 90
       50
102
RTVSPost2010PropOp50
 70
     1
102
RTVSPost2010Prop51ColorIndex
 90
      256
102
RTVSPost2010Prop51ColorRGB
 90
-16777216
102
RTVSPost2010PropOp51
 70
     0
102
RTVSPost2010Prop52
140
1.0
102
RTVSPost2010PropOp52
 70
     0
102
RTVSPost2010Prop53
 90
        2
102
RTVSPost2010PropOp53
 70
     1
102
RTVSPost2010Prop54
  1
strokes_ogs.tif
102
RTVSPost2010PropOp54
 70
     1
102
RTVSPost2010Prop55
280
     0
102
RTVSPost2010PropOp55
 70
     1
102
RTVSPost2010Prop56
140
1.0
102
RTVSPost2010PropOp56
 70
     1
102
RTVSPost2010Prop57
140
1.0
102
RTVSPost2010PropOp57
 70
     1
  0
XRECORD
  5
234
102
{ACAD_REACTORS
330
233
102
}
330
233
100
AcDbXrecord
280
     1
102
RTVSPropertyOp0
 70
     1
102
RTVSPropertyOp1
 70
     1
102
RTVSPropertyOp2
 70
     1
102
RTVSPropertyOp3
 70
     1
102
RTVSPropertyOp4
 70
     1
102
RTVSPropertyOp5
 70
     1
102
RTVSPropertyOp6
 70
     1
102
RTVSPropertyOp7
 70
     1
102
RTVSPropertyOp8
 70
     1
102
RTVSPropertyOp9
 70
     1
102
RTVSPropertyOp10
 70
     1
102
RTVSPropertyOp11
 70
     1
102
RTVSPropertyOp12
 70
     1
102
RTVSPropertyOp13
 70
     1
102
RTVSPropertyOp14
 70
     1
102
RTVSPropertyOp15
 70
     1
102
RTVSPropertyOp16
 70
     1
102
RTVSPropertyOp17
 70
     1
102
RTVSPropertyOp18
 70
     1
102
RTVSPropertyOp19
 70
     1
102
RTVSPropertyOp20
 70
     1
102
RTVSPropertyOp21
 70
     1
102
RTVSPropertyOp22
 70
     1
102
RTVSPropertyOp23
 70
     1
102
RTVSPropertyOp24
 70
     1
102
RTVSPropertyOp25
 70
     1
102
RTVSPropertyOp26
 70
     1
102
RTVSPropertyOp27
 70
     1
102
RTVSPropertyOp28
 70
     1
102
RTVSPropertyOp29
 70
     1
102
RTVSPropertyOp30
 70
     1
102
RTVSPropertyOp31
 70
     1
102
RTVSPropertyOp32
 70
     1
102
RTVSPropertyOp33
 70
     1
102
RTVSPropertyOp34
 70
     1
102
RTVSPropertyOp35
 70
     1
102
RTVSPropertyOp36
 70
     1
102
RTVSPropertyOp37
 70
     1
102
RTVSPropertyOp38
 70
     1
102
RTVSPropertyOp39
 70
     1
102
RTVSPropertyOp40
 70
     1
102
RTVSPropertyOp41
 70
     1
102
RTVSPropertyOp42
 70
     1
102
RTVSPropertyOp43
 70
     1
102
RTVSPropertyOp44
 70
     1
102
RTVSPropertyOp45
 70
     1
102
RTVSPropertyOp46
 70
     1
102
RTVSPropertyOp47
 70
     1
102
RTVSPropertyOp48
 70
     1
102
RTVSPropertyOp49
 70
     1
102
RTVSPropertyOp50
 70
     1
102
RTVSPropertyOp51
 70
     0
102
RTVSPropertyOp52
 70
     0
102
RTVSPropertyOp53
 70
     1
102
RTVSPropertyOp54
 70
     1
102
RTVSPropertyOp55
 70
     1
102
RTVSPropertyOp56
 70
     1
102
RTVSPropertyOp57
 70
     1
102
RTVSPost2010Prop28
280
     0
102
RTVSPost2010PropOp28
 70
     1
102
RTVSPost2010Prop29
280
     1
102
RTVSPost2010PropOp29
 70
     1
102
RTVSPost2010Prop30
280
     1
102
RTVSPost2010PropOp30
 70
     1
102
RTVSPost2010Prop31
280
     0
102
RTVSPost2010PropOp31
 70
     1
102
RTVSPost2010Prop32
280
     0
102
RTVSPost2010PropOp32
 70
     1
102
RTVSPost2010Prop33
280
     0
102
RTVSPost2010PropOp33
 70
     1
102
RTVSPost2010Prop34
280
     0
102
RTVSPost2010PropOp34
 70
     1
102
RTVSPost2010Prop35
280
     0
102
RTVSPost2010PropOp35
 70
     1
102
RTVSPost2010Prop36
280
     0
102
RTVSPost2010PropOp36
 70
     1
102
RTVSPost2010Prop37
 90
       50
102
RTVSPost2010PropOp37
 70
     1
102
RTVSPost2010Prop38
140
0.0
102
RTVSPost2010PropOp38
 70
     1
102
RTVSPost2010Prop39
140
1.0
102
RTVSPost2010PropOp39
 70
     1
102
RTVSPost2010Prop40
 90
        0
102
RTVSPost2010PropOp40
 70
     1
102
RTVSPost2010Prop41ColorIndex
 90
       18
102
RTVSPost2010Prop41ColorRGB
 90
        0
102
RTVSPost2010PropOp41
 70
     1
102
RTVSPost2010Prop42
 90
       50
102
RTVSPost2010PropOp42
 70
     1
102
RTVSPost2010Prop43
 90
        3
102
RTVSPost2010PropOp43
 70
     1
102
RTVSPost2010Prop44ColorIndex
 90
        5
102
RTVSPost2010Prop44ColorRGB
 90
      255
102
RTVSPost2010PropOp44
 70
     1
102
RTVSPost2010Prop45
280
     0
102
RTVSPost2010PropOp45
 70
     1
102
RTVSPost2010Prop46
 90
       50
102
RTVSPost2010PropOp46
 70
     1
102
RTVSPost2010Prop47
 90
       50
102
RTVSPost2010PropOp47
 70
     1
102
RTVSPost2010Prop48
 90
       50
102
RTVSPost2010PropOp48
 70
     1
102
RTVSPost2010Prop49
280
     0
102
RTVSPost2010PropOp49
 70
     1
102
RTVSPost2010Prop50
 90
       50
102
RTVSPost2010PropOp50
 70
     1
102
RTVSPost2010Prop51ColorIndex
 90
      256
102
RTVSPost2010Prop51ColorRGB
 90
-16777216
102
RTVSPost2010PropOp51
 70
     0
102
RTVSPost2010Prop52
140
1.0
102
RTVSPost2010PropOp52
 70
     0
102
RTVSPost2010Prop53
 90
        2
102
RTVSPost2010PropOp53
 70
     1
102
RTVSPost2010Prop54
  1
strokes_ogs.tif
102
RTVSPost2010PropOp54
 70
     1
102
RTVSPost2010Prop55
280
     0
102
RTVSPost2010PropOp55
 70
     1
102
RTVSPost2010Prop56
140
1.0
102
RTVSPost2010PropOp56
 70
     1
102
RTVSPost2010Prop57
140
1.0
102
RTVSPost2010PropOp57
 70
     1
  0
XRECORD
  5
228
102
{ACAD_REACTORS
330
227
102
}
330
227
100
AcDbXrecord
280
     1
102
RTVSPropertyOp0
 70
     1
102
RTVSPropertyOp1
 70
     1
102
RTVSPropertyOp2
 70
     1
102
RTVSPropertyOp3
 70
     1
102
RTVSPropertyOp4
 70
     1
102
RTVSPropertyOp5
 70
     1
102
RTVSPropertyOp6
 70
     1
102
RTVSPropertyOp7
 70
     1
102
RTVSPropertyOp8
 70
     1
102
RTVSPropertyOp9
 70
     1
102
RTVSPropertyOp10
 70
     1
102
RTVSPropertyOp11
 70
     1
102
RTVSPropertyOp12
 70
     1
102
RTVSPropertyOp13
 70
     1
102
RTVSPropertyOp14
 70
     1
102
RTVSPropertyOp15
 70
     1
102
RTVSPropertyOp16
 70
     1
102
RTVSPropertyOp17
 70
     1
102
RTVSPropertyOp18
 70
     1
102
RTVSPropertyOp19
 70
     1
102
RTVSPropertyOp20
 70
     1
102
RTVSPropertyOp21
 70
     1
102
RTVSPropertyOp22
 70
     1
102
RTVSPropertyOp23
 70
     1
102
RTVSPropertyOp24
 70
     1
102
RTVSPropertyOp25
 70
     1
102
RTVSPropertyOp26
 70
     1
102
RTVSPropertyOp27
 70
     1
102
RTVSPropertyOp28
 70
     1
102
RTVSPropertyOp29
 70
     1
102
RTVSPropertyOp30
 70
     1
102
RTVSPropertyOp31
 70
     1
102
RTVSPropertyOp32
 70
     1
102
RTVSPropertyOp33
 70
     1
102
RTVSPropertyOp34
 70
     1
102
RTVSPropertyOp35
 70
     1
102
RTVSPropertyOp36
 70
     1
102
RTVSPropertyOp37
 70
     1
102
RTVSPropertyOp38
 70
     1
102
RTVSPropertyOp39
 70
     1
102
RTVSPropertyOp40
 70
     1
102
RTVSPropertyOp41
 70
     1
102
RTVSPropertyOp42
 70
     1
102
RTVSPropertyOp43
 70
     1
102
RTVSPropertyOp44
 70
     1
102
RTVSPropertyOp45
 70
     1
102
RTVSPropertyOp46
 70
     1
102
RTVSPropertyOp47
 70
     1
102
RTVSPropertyOp48
 70
     1
102
RTVSPropertyOp49
 70
     1
102
RTVSPropertyOp50
 70
     1
102
RTVSPropertyOp51
 70
     0
102
RTVSPropertyOp52
 70
     0
102
RTVSPropertyOp53
 70
     1
102
RTVSPropertyOp54
 70
     1
102
RTVSPropertyOp55
 70
     1
102
RTVSPropertyOp56
 70
     1
102
RTVSPropertyOp57
 70
     1
102
RTVSPost2010Prop28
280
     0
102
RTVSPost2010PropOp28
 70
     1
102
RTVSPost2010Prop29
280
     1
102
RTVSPost2010PropOp29
 70
     1
102
RTVSPost2010Prop30
280
     1
102
RTVSPost2010PropOp30
 70
     1
102
RTVSPost2010Prop31
280
     0
102
RTVSPost2010PropOp31
 70
     1
102
RTVSPost2010Prop32
280
     0
102
RTVSPost2010PropOp32
 70
     1
102
RTVSPost2010Prop33
280
     0
102
RTVSPost2010PropOp33
 70
     1
102
RTVSPost2010Prop34
280
     0
102
RTVSPost2010PropOp34
 70
     1
102
RTVSPost2010Prop35
280
     0
102
RTVSPost2010PropOp35
 70
     1
102
RTVSPost2010Prop36
280
     0
102
RTVSPost2010PropOp36
 70
     1
102
RTVSPost2010Prop37
 90
       50
102
RTVSPost2010PropOp37
 70
     1
102
RTVSPost2010Prop38
140
0.0
102
RTVSPost2010PropOp38
 70
     1
102
RTVSPost2010Prop39
140
1.0
102
RTVSPost2010PropOp39
 70
     1
102
RTVSPost2010Prop40
 90
        0
102
RTVSPost2010PropOp40
 70
     1
102
RTVSPost2010Prop41ColorIndex
 90
       18
102
RTVSPost2010Prop41ColorRGB
 90
        0
102
RTVSPost2010PropOp41
 70
     1
102
RTVSPost2010Prop42
 90
       50
102
RTVSPost2010PropOp42
 70
     1
102
RTVSPost2010Prop43
 90
        3
102
RTVSPost2010PropOp43
 70
     1
102
RTVSPost2010Prop44ColorIndex
 90
        5
102
RTVSPost2010Prop44ColorRGB
 90
      255
102
RTVSPost2010PropOp44
 70
     1
102
RTVSPost2010Prop45
280
     0
102
RTVSPost2010PropOp45
 70
     1
102
RTVSPost2010Prop46
 90
       50
102
RTVSPost2010PropOp46
 70
     1
102
RTVSPost2010Prop47
 90
       50
102
RTVSPost2010PropOp47
 70
     1
102
RTVSPost2010Prop48
 90
       50
102
RTVSPost2010PropOp48
 70
     1
102
RTVSPost2010Prop49
280
     0
102
RTVSPost2010PropOp49
 70
     1
102
RTVSPost2010Prop50
 90
       50
102
RTVSPost2010PropOp50
 70
     1
102
RTVSPost2010Prop51ColorIndex
 90
      256
102
RTVSPost2010Prop51ColorRGB
 90
-16777216
102
RTVSPost2010PropOp51
 70
     0
102
RTVSPost2010Prop52
140
1.0
102
RTVSPost2010PropOp52
 70
     0
102
RTVSPost2010Prop53
 90
        2
102
RTVSPost2010PropOp53
 70
     1
102
RTVSPost2010Prop54
  1
strokes_ogs.tif
102
RTVSPost2010PropOp54
 70
     1
102
RTVSPost2010Prop55
280
     0
102
RTVSPost2010PropOp55
 70
     1
102
RTVSPost2010Prop56
140
1.0
102
RTVSPost2010PropOp56
 70
     1
102
RTVSPost2010Prop57
140
1.0
102
RTVSPost2010PropOp57
 70
     1
  0
XRECORD
  5
22A
102
{ACAD_REACTORS
330
229
102
}
330
229
100
AcDbXrecord
280
     1
102
RTVSPropertyOp0
 70
     1
102
RTVSPropertyOp1
 70
     1
102
RTVSPropertyOp2
 70
     1
102
RTVSPropertyOp3
 70
     1
102
RTVSPropertyOp4
 70
     1
102
RTVSPropertyOp5
 70
     1
102
RTVSPropertyOp6
 70
     1
102
RTVSPropertyOp7
 70
     1
102
RTVSPropertyOp8
 70
     1
102
RTVSPropertyOp9
 70
     1
102
RTVSPropertyOp10
 70
     1
102
RTVSPropertyOp11
 70
     1
102
RTVSPropertyOp12
 70
     1
102
RTVSPropertyOp13
 70
     1
102
RTVSPropertyOp14
 70
     1
102
RTVSPropertyOp15
 70
     1
102
RTVSPropertyOp16
 70
     1
102
RTVSPropertyOp17
 70
     1
102
RTVSPropertyOp18
 70
     1
102
RTVSPropertyOp19
 70
     1
102
RTVSPropertyOp20
 70
     1
102
RTVSPropertyOp21
 70
     1
102
RTVSPropertyOp22
 70
     1
102
RTVSPropertyOp23
 70
     1
102
RTVSPropertyOp24
 70
     1
102
RTVSPropertyOp25
 70
     1
102
RTVSPropertyOp26
 70
     1
102
RTVSPropertyOp27
 70
     1
102
RTVSPropertyOp28
 70
     1
102
RTVSPropertyOp29
 70
     1
102
RTVSPropertyOp30
 70
     1
102
RTVSPropertyOp31
 70
     1
102
RTVSPropertyOp32
 70
     1
102
RTVSPropertyOp33
 70
     1
102
RTVSPropertyOp34
 70
     1
102
RTVSPropertyOp35
 70
     1
102
RTVSPropertyOp36
 70
     1
102
RTVSPropertyOp37
 70
     1
102
RTVSPropertyOp38
 70
     1
102
RTVSPropertyOp39
 70
     1
102
RTVSPropertyOp40
 70
     1
102
RTVSPropertyOp41
 70
     1
102
RTVSPropertyOp42
 70
     1
102
RTVSPropertyOp43
 70
     1
102
RTVSPropertyOp44
 70
     1
102
RTVSPropertyOp45
 70
     1
102
RTVSPropertyOp46
 70
     1
102
RTVSPropertyOp47
 70
     1
102
RTVSPropertyOp48
 70
     1
102
RTVSPropertyOp49
 70
     1
102
RTVSPropertyOp50
 70
     1
102
RTVSPropertyOp51
 70
     0
102
RTVSPropertyOp52
 70
     0
102
RTVSPropertyOp53
 70
     1
102
RTVSPropertyOp54
 70
     1
102
RTVSPropertyOp55
 70
     1
102
RTVSPropertyOp56
 70
     1
102
RTVSPropertyOp57
 70
     1
102
RTVSPost2010Prop28
280
     0
102
RTVSPost2010PropOp28
 70
     1
102
RTVSPost2010Prop29
280
     1
102
RTVSPost2010PropOp29
 70
     1
102
RTVSPost2010Prop30
280
     1
102
RTVSPost2010PropOp30
 70
     1
102
RTVSPost2010Prop31
280
     0
102
RTVSPost2010PropOp31
 70
     1
102
RTVSPost2010Prop32
280
     0
102
RTVSPost2010PropOp32
 70
     1
102
RTVSPost2010Prop33
280
     0
102
RTVSPost2010PropOp33
 70
     1
102
RTVSPost2010Prop34
280
     0
102
RTVSPost2010PropOp34
 70
     1
102
RTVSPost2010Prop35
280
     0
102
RTVSPost2010PropOp35
 70
     1
102
RTVSPost2010Prop36
280
     0
102
RTVSPost2010PropOp36
 70
     1
102
RTVSPost2010Prop37
 90
       50
102
RTVSPost2010PropOp37
 70
     1
102
RTVSPost2010Prop38
140
0.0
102
RTVSPost2010PropOp38
 70
     1
102
RTVSPost2010Prop39
140
1.0
102
RTVSPost2010PropOp39
 70
     1
102
RTVSPost2010Prop40
 90
        0
102
RTVSPost2010PropOp40
 70
     1
102
RTVSPost2010Prop41ColorIndex
 90
       18
102
RTVSPost2010Prop41ColorRGB
 90
        0
102
RTVSPost2010PropOp41
 70
     1
102
RTVSPost2010Prop42
 90
       50
102
RTVSPost2010PropOp42
 70
     1
102
RTVSPost2010Prop43
 90
        3
102
RTVSPost2010PropOp43
 70
     1
102
RTVSPost2010Prop44ColorIndex
 90
        5
102
RTVSPost2010Prop44ColorRGB
 90
      255
102
RTVSPost2010PropOp44
 70
     1
102
RTVSPost2010Prop45
280
     0
102
RTVSPost2010PropOp45
 70
     1
102
RTVSPost2010Prop46
 90
       50
102
RTVSPost2010PropOp46
 70
     1
102
RTVSPost2010Prop47
 90
       50
102
RTVSPost2010PropOp47
 70
     1
102
RTVSPost2010Prop48
 90
       50
102
RTVSPost2010PropOp48
 70
     1
102
RTVSPost2010Prop49
280
     0
102
RTVSPost2010PropOp49
 70
     1
102
RTVSPost2010Prop50
 90
       50
102
RTVSPost2010PropOp50
 70
     1
102
RTVSPost2010Prop51ColorIndex
 90
      256
102
RTVSPost2010Prop51ColorRGB
 90
-16777216
102
RTVSPost2010PropOp51
 70
     0
102
RTVSPost2010Prop52
140
1.0
102
RTVSPost2010PropOp52
 70
     0
102
RTVSPost2010Prop53
 90
        2
102
RTVSPost2010PropOp53
 70
     1
102
RTVSPost2010Prop54
  1
strokes_ogs.tif
102
RTVSPost2010PropOp54
 70
     1
102
RTVSPost2010Prop55
280
     0
102
RTVSPost2010PropOp55
 70
     1
102
RTVSPost2010Prop56
140
1.0
102
RTVSPost2010PropOp56
 70
     1
102
RTVSPost2010Prop57
140
1.0
102
RTVSPost2010PropOp57
 70
     1
  0
XRECORD
  5
23A
102
{ACAD_REACTORS
330
239
102
}
330
239
100
AcDbXrecord
280
     1
102
RTVSPropertyOp0
 70
     0
102
RTVSPropertyOp1
 70
     0
102
RTVSPropertyOp2
 70
     0
102
RTVSPropertyOp3
 70
     0
102
RTVSPropertyOp4
 70
     0
102
RTVSPropertyOp5
 70
     0
102
RTVSPropertyOp6
 70
     0
102
RTVSPropertyOp7
 70
     0
102
RTVSPropertyOp8
 70
     0
102
RTVSPropertyOp9
 70
     0
102
RTVSPropertyOp10
 70
     0
102
RTVSPropertyOp11
 70
     0
102
RTVSPropertyOp12
 70
     0
102
RTVSPropertyOp13
 70
     0
102
RTVSPropertyOp14
 70
     2
102
RTVSPropertyOp15
 70
     0
102
RTVSPropertyOp16
 70
     0
102
RTVSPropertyOp17
 70
     0
102
RTVSPropertyOp18
 70
     0
102
RTVSPropertyOp19
 70
     0
102
RTVSPropertyOp20
 70
     0
102
RTVSPropertyOp21
 70
     0
102
RTVSPropertyOp22
 70
     0
102
RTVSPropertyOp23
 70
     0
102
RTVSPropertyOp24
 70
     0
102
RTVSPropertyOp25
 70
     0
102
RTVSPropertyOp26
 70
     0
102
RTVSPropertyOp27
 70
     0
102
RTVSPropertyOp28
 70
     0
102
RTVSPropertyOp29
 70
     0
102
RTVSPropertyOp30
 70
     0
102
RTVSPropertyOp31
 70
     0
102
RTVSPropertyOp32
 70
     0
102
RTVSPropertyOp33
 70
     0
102
RTVSPropertyOp34
 70
     0
102
RTVSPropertyOp35
 70
     0
102
RTVSPropertyOp36
 70
     0
102
RTVSPropertyOp37
 70
     0
102
RTVSPropertyOp38
 70
     0
102
RTVSPropertyOp39
 70
     0
102
RTVSPropertyOp40
 70
     0
102
RTVSPropertyOp41
 70
     0
102
RTVSPropertyOp42
 70
     0
102
RTVSPropertyOp43
 70
     0
102
RTVSPropertyOp44
 70
     0
102
RTVSPropertyOp45
 70
     0
102
RTVSPropertyOp46
 70
     0
102
RTVSPropertyOp47
 70
     0
102
RTVSPropertyOp48
 70
     0
102
RTVSPropertyOp49
 70
     0
102
RTVSPropertyOp50
 70
     0
102
RTVSPropertyOp51
 70
     0
102
RTVSPropertyOp52
 70
     0
102
RTVSPropertyOp53
 70
     0
102
RTVSPropertyOp54
 70
     0
102
RTVSPropertyOp55
 70
     0
102
RTVSPropertyOp56
 70
     0
102
RTVSPropertyOp57
 70
     0
102
RTVSPost2010Prop28
280
     0
102
RTVSPost2010PropOp28
 70
     0
102
RTVSPost2010Prop29
280
     1
102
RTVSPost2010PropOp29
 70
     0
102
RTVSPost2010Prop30
280
     1
102
RTVSPost2010PropOp30
 70
     0
102
RTVSPost2010Prop31
280
     0
102
RTVSPost2010PropOp31
 70
     0
102
RTVSPost2010Prop32
280
     0
102
RTVSPost2010PropOp32
 70
     0
102
RTVSPost2010Prop33
280
     0
102
RTVSPost2010PropOp33
 70
     0
102
RTVSPost2010Prop34
280
     0
102
RTVSPost2010PropOp34
 70
     0
102
RTVSPost2010Prop35
280
     0
102
RTVSPost2010PropOp35
 70
     0
102
RTVSPost2010Prop36
280
     0
102
RTVSPost2010PropOp36
 70
     0
102
RTVSPost2010Prop37
 90
       50
102
RTVSPost2010PropOp37
 70
     0
102
RTVSPost2010Prop38
140
0.0
102
RTVSPost2010PropOp38
 70
     0
102
RTVSPost2010Prop39
140
1.0
102
RTVSPost2010PropOp39
 70
     0
102
RTVSPost2010Prop40
 90
        0
102
RTVSPost2010PropOp40
 70
     0
102
RTVSPost2010Prop41ColorIndex
 90
       18
102
RTVSPost2010Prop41ColorRGB
 90
        0
102
RTVSPost2010PropOp41
 70
     0
102
RTVSPost2010Prop42
 90
       50
102
RTVSPost2010PropOp42
 70
     0
102
RTVSPost2010Prop43
 90
        3
102
RTVSPost2010PropOp43
 70
     0
102
RTVSPost2010Prop44ColorIndex
 90
        5
102
RTVSPost2010Prop44ColorRGB
 90
      255
102
RTVSPost2010PropOp44
 70
     0
102
RTVSPost2010Prop45
280
     0
102
RTVSPost2010PropOp45
 70
     0
102
RTVSPost2010Prop46
 90
       50
102
RTVSPost2010PropOp46
 70
     0
102
RTVSPost2010Prop47
 90
       50
102
RTVSPost2010PropOp47
 70
     0
102
RTVSPost2010Prop48
 90
       50
102
RTVSPost2010PropOp48
 70
     0
102
RTVSPost2010Prop49
280
     0
102
RTVSPost2010PropOp49
 70
     0
102
RTVSPost2010Prop50
 90
       50
102
RTVSPost2010PropOp50
 70
     0
102
RTVSPost2010Prop51ColorIndex
 90
      256
102
RTVSPost2010Prop51ColorRGB
 90
-16777216
102
RTVSPost2010PropOp51
 70
     0
102
RTVSPost2010Prop52
140
1.0
102
RTVSPost2010PropOp52
 70
     0
102
RTVSPost2010Prop53
 90
        2
102
RTVSPost2010PropOp53
 70
     0
102
RTVSPost2010Prop54
  1
strokes_ogs.tif
102
RTVSPost2010PropOp54
 70
     0
102
RTVSPost2010Prop55
280
     0
102
RTVSPost2010PropOp55
 70
     0
102
RTVSPost2010Prop56
140
1.0
102
RTVSPost2010PropOp56
 70
     0
102
RTVSPost2010Prop57
140
1.0
102
RTVSPost2010PropOp57
 70
     0
  0
XRECORD
  5
232
102
{ACAD_REACTORS
330
231
102
}
330
231
100
AcDbXrecord
280
     1
102
RTVSPropertyOp0
 70
     1
102
RTVSPropertyOp1
 70
     1
102
RTVSPropertyOp2
 70
     1
102
RTVSPropertyOp3
 70
     1
102
RTVSPropertyOp4
 70
     1
102
RTVSPropertyOp5
 70
     1
102
RTVSPropertyOp6
 70
     1
102
RTVSPropertyOp7
 70
     1
102
RTVSPropertyOp8
 70
     1
102
RTVSPropertyOp9
 70
     1
102
RTVSPropertyOp10
 70
     1
102
RTVSPropertyOp11
 70
     1
102
RTVSPropertyOp12
 70
     1
102
RTVSPropertyOp13
 70
     1
102
RTVSPropertyOp14
 70
     1
102
RTVSPropertyOp15
 70
     1
102
RTVSPropertyOp16
 70
     1
102
RTVSPropertyOp17
 70
     1
102
RTVSPropertyOp18
 70
     1
102
RTVSPropertyOp19
 70
     1
102
RTVSPropertyOp20
 70
     1
102
RTVSPropertyOp21
 70
     1
102
RTVSPropertyOp22
 70
     1
102
RTVSPropertyOp23
 70
     1
102
RTVSPropertyOp24
 70
     1
102
RTVSPropertyOp25
 70
     1
102
RTVSPropertyOp26
 70
     1
102
RTVSPropertyOp27
 70
     1
102
RTVSPropertyOp28
 70
     1
102
RTVSPropertyOp29
 70
     1
102
RTVSPropertyOp30
 70
     1
102
RTVSPropertyOp31
 70
     1
102
RTVSPropertyOp32
 70
     1
102
RTVSPropertyOp33
 70
     1
102
RTVSPropertyOp34
 70
     1
102
RTVSPropertyOp35
 70
     1
102
RTVSPropertyOp36
 70
     1
102
RTVSPropertyOp37
 70
     1
102
RTVSPropertyOp38
 70
     1
102
RTVSPropertyOp39
 70
     1
102
RTVSPropertyOp40
 70
     1
102
RTVSPropertyOp41
 70
     1
102
RTVSPropertyOp42
 70
     1
102
RTVSPropertyOp43
 70
     1
102
RTVSPropertyOp44
 70
     1
102
RTVSPropertyOp45
 70
     1
102
RTVSPropertyOp46
 70
     1
102
RTVSPropertyOp47
 70
     1
102
RTVSPropertyOp48
 70
     1
102
RTVSPropertyOp49
 70
     1
102
RTVSPropertyOp50
 70
     1
102
RTVSPropertyOp51
 70
     0
102
RTVSPropertyOp52
 70
     0
102
RTVSPropertyOp53
 70
     1
102
RTVSPropertyOp54
 70
     1
102
RTVSPropertyOp55
 70
     1
102
RTVSPropertyOp56
 70
     1
102
RTVSPropertyOp57
 70
     1
102
RTVSPost2010Prop28
280
     0
102
RTVSPost2010PropOp28
 70
     1
102
RTVSPost2010Prop29
280
     1
102
RTVSPost2010PropOp29
 70
     1
102
RTVSPost2010Prop30
280
     1
102
RTVSPost2010PropOp30
 70
     1
102
RTVSPost2010Prop31
280
     0
102
RTVSPost2010PropOp31
 70
     1
102
RTVSPost2010Prop32
280
     0
102
RTVSPost2010PropOp32
 70
     1
102
RTVSPost2010Prop33
280
     0
102
RTVSPost2010PropOp33
 70
     1
102
RTVSPost2010Prop34
280
     0
102
RTVSPost2010PropOp34
 70
     1
102
RTVSPost2010Prop35
280
     0
102
RTVSPost2010PropOp35
 70
     1
102
RTVSPost2010Prop36
280
     0
102
RTVSPost2010PropOp36
 70
     1
102
RTVSPost2010Prop37
 90
       50
102
RTVSPost2010PropOp37
 70
     1
102
RTVSPost2010Prop38
140
0.0
102
RTVSPost2010PropOp38
 70
     1
102
RTVSPost2010Prop39
140
1.0
102
RTVSPost2010PropOp39
 70
     1
102
RTVSPost2010Prop40
 90
        0
102
RTVSPost2010PropOp40
 70
     1
102
RTVSPost2010Prop41ColorIndex
 90
       18
102
RTVSPost2010Prop41ColorRGB
 90
        0
102
RTVSPost2010PropOp41
 70
     1
102
RTVSPost2010Prop42
 90
       50
102
RTVSPost2010PropOp42
 70
     1
102
RTVSPost2010Prop43
 90
        3
102
RTVSPost2010PropOp43
 70
     1
102
RTVSPost2010Prop44ColorIndex
 90
        5
102
RTVSPost2010Prop44ColorRGB
 90
      255
102
RTVSPost2010PropOp44
 70
     1
102
RTVSPost2010Prop45
280
     0
102
RTVSPost2010PropOp45
 70
     1
102
RTVSPost2010Prop46
 90
       50
102
RTVSPost2010PropOp46
 70
     1
102
RTVSPost2010Prop47
 90
       50
102
RTVSPost2010PropOp47
 70
     1
102
RTVSPost2010Prop48
 90
       50
102
RTVSPost2010PropOp48
 70
     1
102
RTVSPost2010Prop49
280
     0
102
RTVSPost2010PropOp49
 70
     1
102
RTVSPost2010Prop50
 90
       50
102
RTVSPost2010PropOp50
 70
     1
102
RTVSPost2010Prop51ColorIndex
 90
      256
102
RTVSPost2010Prop51ColorRGB
 90
-16777216
102
RTVSPost2010PropOp51
 70
     0
102
RTVSPost2010Prop52
140
1.0
102
RTVSPost2010PropOp52
 70
     0
102
RTVSPost2010Prop53
 90
        2
102
RTVSPost2010PropOp53
 70
     1
102
RTVSPost2010Prop54
  1
strokes_ogs.tif
102
RTVSPost2010PropOp54
 70
     1
102
RTVSPost2010Prop55
280
     0
102
RTVSPost2010PropOp55
 70
     1
102
RTVSPost2010Prop56
140
1.0
102
RTVSPost2010PropOp56
 70
     1
102
RTVSPost2010Prop57
140
1.0
102
RTVSPost2010PropOp57
 70
     1
  0
XRECORD
  5
216
102
{ACAD_REACTORS
330
215
102
}
330
215
100
AcDbXrecord
280
     1
102
RTVSPropertyOp0
 70
     1
102
RTVSPropertyOp1
 70
     1
102
RTVSPropertyOp2
 70
     1
102
RTVSPropertyOp3
 70
     1
102
RTVSPropertyOp4
 70
     1
102
RTVSPropertyOp5
 70
     1
102
RTVSPropertyOp6
 70
     1
102
RTVSPropertyOp7
 70
     1
102
RTVSPropertyOp8
 70
     1
102
RTVSPropertyOp9
 70
     1
102
RTVSPropertyOp10
 70
     1
102
RTVSPropertyOp11
 70
     1
102
RTVSPropertyOp12
 70
     1
102
RTVSPropertyOp13
 70
     1
102
RTVSPropertyOp14
 70
     1
102
RTVSPropertyOp15
 70
     1
102
RTVSPropertyOp16
 70
     1
102
RTVSPropertyOp17
 70
     1
102
RTVSPropertyOp18
 70
     1
102
RTVSPropertyOp19
 70
     1
102
RTVSPropertyOp20
 70
     1
102
RTVSPropertyOp21
 70
     1
102
RTVSPropertyOp22
 70
     1
102
RTVSPropertyOp23
 70
     1
102
RTVSPropertyOp24
 70
     1
102
RTVSPropertyOp25
 70
     1
102
RTVSPropertyOp26
 70
     1
102
RTVSPropertyOp27
 70
     1
102
RTVSPropertyOp28
 70
     1
102
RTVSPropertyOp29
 70
     1
102
RTVSPropertyOp30
 70
     1
102
RTVSPropertyOp31
 70
     1
102
RTVSPropertyOp32
 70
     1
102
RTVSPropertyOp33
 70
     1
102
RTVSPropertyOp34
 70
     1
102
RTVSPropertyOp35
 70
     1
102
RTVSPropertyOp36
 70
     1
102
RTVSPropertyOp37
 70
     1
102
RTVSPropertyOp38
 70
     1
102
RTVSPropertyOp39
 70
     1
102
RTVSPropertyOp40
 70
     1
102
RTVSPropertyOp41
 70
     1
102
RTVSPropertyOp42
 70
     1
102
RTVSPropertyOp43
 70
     1
102
RTVSPropertyOp44
 70
     1
102
RTVSPropertyOp45
 70
     1
102
RTVSPropertyOp46
 70
     1
102
RTVSPropertyOp47
 70
     1
102
RTVSPropertyOp48
 70
     1
102
RTVSPropertyOp49
 70
     1
102
RTVSPropertyOp50
 70
     1
102
RTVSPropertyOp51
 70
     0
102
RTVSPropertyOp52
 70
     0
102
RTVSPropertyOp53
 70
     1
102
RTVSPropertyOp54
 70
     1
102
RTVSPropertyOp55
 70
     1
102
RTVSPropertyOp56
 70
     1
102
RTVSPropertyOp57
 70
     1
102
RTVSPost2010Prop28
280
     0
102
RTVSPost2010PropOp28
 70
     1
102
RTVSPost2010Prop29
280
     1
102
RTVSPost2010PropOp29
 70
     1
102
RTVSPost2010Prop30
280
     1
102
RTVSPost2010PropOp30
 70
     1
102
RTVSPost2010Prop31
280
     0
102
RTVSPost2010PropOp31
 70
     1
102
RTVSPost2010Prop32
280
     0
102
RTVSPost2010PropOp32
 70
     1
102
RTVSPost2010Prop33
280
     0
102
RTVSPost2010PropOp33
 70
     1
102
RTVSPost2010Prop34
280
     0
102
RTVSPost2010PropOp34
 70
     1
102
RTVSPost2010Prop35
280
     0
102
RTVSPost2010PropOp35
 70
     1
102
RTVSPost2010Prop36
280
     0
102
RTVSPost2010PropOp36
 70
     1
102
RTVSPost2010Prop37
 90
       50
102
RTVSPost2010PropOp37
 70
     1
102
RTVSPost2010Prop38
140
0.0
102
RTVSPost2010PropOp38
 70
     1
102
RTVSPost2010Prop39
140
1.0
102
RTVSPost2010PropOp39
 70
     1
102
RTVSPost2010Prop40
 90
        0
102
RTVSPost2010PropOp40
 70
     1
102
RTVSPost2010Prop41ColorIndex
 90
       18
102
RTVSPost2010Prop41ColorRGB
 90
        0
102
RTVSPost2010PropOp41
 70
     1
102
RTVSPost2010Prop42
 90
       50
102
RTVSPost2010PropOp42
 70
     1
102
RTVSPost2010Prop43
 90
        3
102
RTVSPost2010PropOp43
 70
     1
102
RTVSPost2010Prop44ColorIndex
 90
        5
102
RTVSPost2010Prop44ColorRGB
 90
      255
102
RTVSPost2010PropOp44
 70
     1
102
RTVSPost2010Prop45
280
     0
102
RTVSPost2010PropOp45
 70
     1
102
RTVSPost2010Prop46
 90
       50
102
RTVSPost2010PropOp46
 70
     1
102
RTVSPost2010Prop47
 90
       50
102
RTVSPost2010PropOp47
 70
     1
102
RTVSPost2010Prop48
 90
       50
102
RTVSPost2010PropOp48
 70
     1
102
RTVSPost2010Prop49
280
     0
102
RTVSPost2010PropOp49
 70
     1
102
RTVSPost2010Prop50
 90
       50
102
RTVSPost2010PropOp50
 70
     1
102
RTVSPost2010Prop51ColorIndex
 90
      256
102
RTVSPost2010Prop51ColorRGB
 90
-16777216
102
RTVSPost2010PropOp51
 70
     0
102
RTVSPost2010Prop52
140
1.0
102
RTVSPost2010PropOp52
 70
     0
102
RTVSPost2010Prop53
 90
        2
102
RTVSPost2010PropOp53
 70
     1
102
RTVSPost2010Prop54
  1
strokes_ogs.tif
102
RTVSPost2010PropOp54
 70
     1
102
RTVSPost2010Prop55
280
     0
102
RTVSPost2010PropOp55
 70
     1
102
RTVSPost2010Prop56
140
1.0
102
RTVSPost2010PropOp56
 70
     1
102
RTVSPost2010Prop57
140
1.0
102
RTVSPost2010PropOp57
 70
     1
  0
XRECORD
  5
218
102
{ACAD_REACTORS
330
217
102
}
330
217
100
AcDbXrecord
280
     1
102
RTVSPropertyOp0
 70
     1
102
RTVSPropertyOp1
 70
     1
102
RTVSPropertyOp2
 70
     1
102
RTVSPropertyOp3
 70
     1
102
RTVSPropertyOp4
 70
     1
102
RTVSPropertyOp5
 70
     1
102
RTVSPropertyOp6
 70
     1
102
RTVSPropertyOp7
 70
     1
102
RTVSPropertyOp8
 70
     1
102
RTVSPropertyOp9
 70
     1
102
RTVSPropertyOp10
 70
     1
102
RTVSPropertyOp11
 70
     1
102
RTVSPropertyOp12
 70
     1
102
RTVSPropertyOp13
 70
     1
102
RTVSPropertyOp14
 70
     1
102
RTVSPropertyOp15
 70
     1
102
RTVSPropertyOp16
 70
     1
102
RTVSPropertyOp17
 70
     1
102
RTVSPropertyOp18
 70
     1
102
RTVSPropertyOp19
 70
     1
102
RTVSPropertyOp20
 70
     1
102
RTVSPropertyOp21
 70
     1
102
RTVSPropertyOp22
 70
     1
102
RTVSPropertyOp23
 70
     1
102
RTVSPropertyOp24
 70
     1
102
RTVSPropertyOp25
 70
     1
102
RTVSPropertyOp26
 70
     1
102
RTVSPropertyOp27
 70
     1
102
RTVSPropertyOp28
 70
     1
102
RTVSPropertyOp29
 70
     1
102
RTVSPropertyOp30
 70
     1
102
RTVSPropertyOp31
 70
     1
102
RTVSPropertyOp32
 70
     1
102
RTVSPropertyOp33
 70
     1
102
RTVSPropertyOp34
 70
     1
102
RTVSPropertyOp35
 70
     1
102
RTVSPropertyOp36
 70
     1
102
RTVSPropertyOp37
 70
     1
102
RTVSPropertyOp38
 70
     1
102
RTVSPropertyOp39
 70
     1
102
RTVSPropertyOp40
 70
     1
102
RTVSPropertyOp41
 70
     1
102
RTVSPropertyOp42
 70
     1
102
RTVSPropertyOp43
 70
     1
102
RTVSPropertyOp44
 70
     1
102
RTVSPropertyOp45
 70
     1
102
RTVSPropertyOp46
 70
     1
102
RTVSPropertyOp47
 70
     1
102
RTVSPropertyOp48
 70
     1
102
RTVSPropertyOp49
 70
     1
102
RTVSPropertyOp50
 70
     1
102
RTVSPropertyOp51
 70
     0
102
RTVSPropertyOp52
 70
     0
102
RTVSPropertyOp53
 70
     1
102
RTVSPropertyOp54
 70
     1
102
RTVSPropertyOp55
 70
     1
102
RTVSPropertyOp56
 70
     1
102
RTVSPropertyOp57
 70
     1
102
RTVSPost2010Prop28
280
     0
102
RTVSPost2010PropOp28
 70
     1
102
RTVSPost2010Prop29
280
     1
102
RTVSPost2010PropOp29
 70
     1
102
RTVSPost2010Prop30
280
     1
102
RTVSPost2010PropOp30
 70
     1
102
RTVSPost2010Prop31
280
     0
102
RTVSPost2010PropOp31
 70
     1
102
RTVSPost2010Prop32
280
     0
102
RTVSPost2010PropOp32
 70
     1
102
RTVSPost2010Prop33
280
     0
102
RTVSPost2010PropOp33
 70
     1
102
RTVSPost2010Prop34
280
     0
102
RTVSPost2010PropOp34
 70
     1
102
RTVSPost2010Prop35
280
     0
102
RTVSPost2010PropOp35
 70
     1
102
RTVSPost2010Prop36
280
     0
102
RTVSPost2010PropOp36
 70
     1
102
RTVSPost2010Prop37
 90
       50
102
RTVSPost2010PropOp37
 70
     1
102
RTVSPost2010Prop38
140
0.0
102
RTVSPost2010PropOp38
 70
     1
102
RTVSPost2010Prop39
140
1.0
102
RTVSPost2010PropOp39
 70
     1
102
RTVSPost2010Prop40
 90
        0
102
RTVSPost2010PropOp40
 70
     1
102
RTVSPost2010Prop41ColorIndex
 90
       18
102
RTVSPost2010Prop41ColorRGB
 90
        0
102
RTVSPost2010PropOp41
 70
     1
102
RTVSPost2010Prop42
 90
       50
102
RTVSPost2010PropOp42
 70
     1
102
RTVSPost2010Prop43
 90
        3
102
RTVSPost2010PropOp43
 70
     1
102
RTVSPost2010Prop44ColorIndex
 90
        5
102
RTVSPost2010Prop44ColorRGB
 90
      255
102
RTVSPost2010PropOp44
 70
     1
102
RTVSPost2010Prop45
280
     0
102
RTVSPost2010PropOp45
 70
     1
102
RTVSPost2010Prop46
 90
       50
102
RTVSPost2010PropOp46
 70
     1
102
RTVSPost2010Prop47
 90
       50
102
RTVSPost2010PropOp47
 70
     1
102
RTVSPost2010Prop48
 90
       50
102
RTVSPost2010PropOp48
 70
     1
102
RTVSPost2010Prop49
280
     0
102
RTVSPost2010PropOp49
 70
     1
102
RTVSPost2010Prop50
 90
       50
102
RTVSPost2010PropOp50
 70
     1
102
RTVSPost2010Prop51ColorIndex
 90
      256
102
RTVSPost2010Prop51ColorRGB
 90
-16777216
102
RTVSPost2010PropOp51
 70
     0
102
RTVSPost2010Prop52
140
1.0
102
RTVSPost2010PropOp52
 70
     0
102
RTVSPost2010Prop53
 90
        2
102
RTVSPost2010PropOp53
 70
     1
102
RTVSPost2010Prop54
  1
strokes_ogs.tif
102
RTVSPost2010PropOp54
 70
     1
102
RTVSPost2010Prop55
280
     0
102
RTVSPost2010PropOp55
 70
     1
102
RTVSPost2010Prop56
140
1.0
102
RTVSPost2010PropOp56
 70
     1
102
RTVSPost2010Prop57
140
1.0
102
RTVSPost2010PropOp57
 70
     1
  0
XRECORD
  5
21A
102
{ACAD_REACTORS
330
219
102
}
330
219
100
AcDbXrecord
280
     1
102
RTVSPropertyOp0
 70
     1
102
RTVSPropertyOp1
 70
     1
102
RTVSPropertyOp2
 70
     1
102
RTVSPropertyOp3
 70
     1
102
RTVSPropertyOp4
 70
     1
102
RTVSPropertyOp5
 70
     1
102
RTVSPropertyOp6
 70
     1
102
RTVSPropertyOp7
 70
     1
102
RTVSPropertyOp8
 70
     1
102
RTVSPropertyOp9
 70
     1
102
RTVSPropertyOp10
 70
     1
102
RTVSPropertyOp11
 70
     1
102
RTVSPropertyOp12
 70
     1
102
RTVSPropertyOp13
 70
     1
102
RTVSPropertyOp14
 70
     1
102
RTVSPropertyOp15
 70
     1
102
RTVSPropertyOp16
 70
     1
102
RTVSPropertyOp17
 70
     1
102
RTVSPropertyOp18
 70
     1
102
RTVSPropertyOp19
 70
     1
102
RTVSPropertyOp20
 70
     1
102
RTVSPropertyOp21
 70
     1
102
RTVSPropertyOp22
 70
     1
102
RTVSPropertyOp23
 70
     1
102
RTVSPropertyOp24
 70
     1
102
RTVSPropertyOp25
 70
     1
102
RTVSPropertyOp26
 70
     1
102
RTVSPropertyOp27
 70
     1
102
RTVSPropertyOp28
 70
     1
102
RTVSPropertyOp29
 70
     1
102
RTVSPropertyOp30
 70
     1
102
RTVSPropertyOp31
 70
     1
102
RTVSPropertyOp32
 70
     1
102
RTVSPropertyOp33
 70
     1
102
RTVSPropertyOp34
 70
     1
102
RTVSPropertyOp35
 70
     1
102
RTVSPropertyOp36
 70
     1
102
RTVSPropertyOp37
 70
     1
102
RTVSPropertyOp38
 70
     1
102
RTVSPropertyOp39
 70
     1
102
RTVSPropertyOp40
 70
     1
102
RTVSPropertyOp41
 70
     1
102
RTVSPropertyOp42
 70
     1
102
RTVSPropertyOp43
 70
     1
102
RTVSPropertyOp44
 70
     1
102
RTVSPropertyOp45
 70
     1
102
RTVSPropertyOp46
 70
     1
102
RTVSPropertyOp47
 70
     1
102
RTVSPropertyOp48
 70
     1
102
RTVSPropertyOp49
 70
     1
102
RTVSPropertyOp50
 70
     1
102
RTVSPropertyOp51
 70
     0
102
RTVSPropertyOp52
 70
     0
102
RTVSPropertyOp53
 70
     1
102
RTVSPropertyOp54
 70
     1
102
RTVSPropertyOp55
 70
     1
102
RTVSPropertyOp56
 70
     1
102
RTVSPropertyOp57
 70
     1
102
RTVSPost2010Prop28
280
     0
102
RTVSPost2010PropOp28
 70
     1
102
RTVSPost2010Prop29
280
     1
102
RTVSPost2010PropOp29
 70
     1
102
RTVSPost2010Prop30
280
     1
102
RTVSPost2010PropOp30
 70
     1
102
RTVSPost2010Prop31
280
     0
102
RTVSPost2010PropOp31
 70
     1
102
RTVSPost2010Prop32
280
     0
102
RTVSPost2010PropOp32
 70
     1
102
RTVSPost2010Prop33
280
     0
102
RTVSPost2010PropOp33
 70
     1
102
RTVSPost2010Prop34
280
     0
102
RTVSPost2010PropOp34
 70
     1
102
RTVSPost2010Prop35
280
     0
102
RTVSPost2010PropOp35
 70
     1
102
RTVSPost2010Prop36
280
     0
102
RTVSPost2010PropOp36
 70
     1
102
RTVSPost2010Prop37
 90
       50
102
RTVSPost2010PropOp37
 70
     1
102
RTVSPost2010Prop38
140
0.0
102
RTVSPost2010PropOp38
 70
     1
102
RTVSPost2010Prop39
140
1.0
102
RTVSPost2010PropOp39
 70
     1
102
RTVSPost2010Prop40
 90
        0
102
RTVSPost2010PropOp40
 70
     1
102
RTVSPost2010Prop41ColorIndex
 90
       18
102
RTVSPost2010Prop41ColorRGB
 90
        0
102
RTVSPost2010PropOp41
 70
     1
102
RTVSPost2010Prop42
 90
       50
102
RTVSPost2010PropOp42
 70
     1
102
RTVSPost2010Prop43
 90
        3
102
RTVSPost2010PropOp43
 70
     1
102
RTVSPost2010Prop44ColorIndex
 90
        5
102
RTVSPost2010Prop44ColorRGB
 90
      255
102
RTVSPost2010PropOp44
 70
     1
102
RTVSPost2010Prop45
280
     0
102
RTVSPost2010PropOp45
 70
     1
102
RTVSPost2010Prop46
 90
       50
102
RTVSPost2010PropOp46
 70
     1
102
RTVSPost2010Prop47
 90
       50
102
RTVSPost2010PropOp47
 70
     1
102
RTVSPost2010Prop48
 90
       50
102
RTVSPost2010PropOp48
 70
     1
102
RTVSPost2010Prop49
280
     0
102
RTVSPost2010PropOp49
 70
     1
102
RTVSPost2010Prop50
 90
       50
102
RTVSPost2010PropOp50
 70
     1
102
RTVSPost2010Prop51ColorIndex
 90
      256
102
RTVSPost2010Prop51ColorRGB
 90
-16777216
102
RTVSPost2010PropOp51
 70
     0
102
RTVSPost2010Prop52
140
1.0
102
RTVSPost2010PropOp52
 70
     0
102
RTVSPost2010Prop53
 90
        2
102
RTVSPost2010PropOp53
 70
     1
102
RTVSPost2010Prop54
  1
strokes_ogs.tif
102
RTVSPost2010PropOp54
 70
     1
102
RTVSPost2010Prop55
280
     0
102
RTVSPost2010PropOp55
 70
     1
102
RTVSPost2010Prop56
140
1.0
102
RTVSPost2010PropOp56
 70
     1
102
RTVSPost2010Prop57
140
1.0
102
RTVSPost2010PropOp57
 70
     1
  0
XRECORD
  5
21C
102
{ACAD_REACTORS
330
21B
102
}
330
21B
100
AcDbXrecord
280
     1
102
RTVSPropertyOp0
 70
     1
102
RTVSPropertyOp1
 70
     1
102
RTVSPropertyOp2
 70
     1
102
RTVSPropertyOp3
 70
     1
102
RTVSPropertyOp4
 70
     1
102
RTVSPropertyOp5
 70
     1
102
RTVSPropertyOp6
 70
     1
102
RTVSPropertyOp7
 70
     1
102
RTVSPropertyOp8
 70
     1
102
RTVSPropertyOp9
 70
     1
102
RTVSPropertyOp10
 70
     1
102
RTVSPropertyOp11
 70
     1
102
RTVSPropertyOp12
 70
     1
102
RTVSPropertyOp13
 70
     1
102
RTVSPropertyOp14
 70
     1
102
RTVSPropertyOp15
 70
     1
102
RTVSPropertyOp16
 70
     1
102
RTVSPropertyOp17
 70
     1
102
RTVSPropertyOp18
 70
     1
102
RTVSPropertyOp19
 70
     1
102
RTVSPropertyOp20
 70
     1
102
RTVSPropertyOp21
 70
     1
102
RTVSPropertyOp22
 70
     1
102
RTVSPropertyOp23
 70
     1
102
RTVSPropertyOp24
 70
     1
102
RTVSPropertyOp25
 70
     1
102
RTVSPropertyOp26
 70
     1
102
RTVSPropertyOp27
 70
     1
102
RTVSPropertyOp28
 70
     1
102
RTVSPropertyOp29
 70
     1
102
RTVSPropertyOp30
 70
     1
102
RTVSPropertyOp31
 70
     1
102
RTVSPropertyOp32
 70
     1
102
RTVSPropertyOp33
 70
     1
102
RTVSPropertyOp34
 70
     1
102
RTVSPropertyOp35
 70
     1
102
RTVSPropertyOp36
 70
     1
102
RTVSPropertyOp37
 70
     1
102
RTVSPropertyOp38
 70
     1
102
RTVSPropertyOp39
 70
     1
102
RTVSPropertyOp40
 70
     1
102
RTVSPropertyOp41
 70
     1
102
RTVSPropertyOp42
 70
     1
102
RTVSPropertyOp43
 70
     1
102
RTVSPropertyOp44
 70
     1
102
RTVSPropertyOp45
 70
     1
102
RTVSPropertyOp46
 70
     1
102
RTVSPropertyOp47
 70
     1
102
RTVSPropertyOp48
 70
     1
102
RTVSPropertyOp49
 70
     1
102
RTVSPropertyOp50
 70
     1
102
RTVSPropertyOp51
 70
     0
102
RTVSPropertyOp52
 70
     0
102
RTVSPropertyOp53
 70
     1
102
RTVSPropertyOp54
 70
     1
102
RTVSPropertyOp55
 70
     1
102
RTVSPropertyOp56
 70
     1
102
RTVSPropertyOp57
 70
     1
102
RTVSPost2010Prop28
280
     0
102
RTVSPost2010PropOp28
 70
     1
102
RTVSPost2010Prop29
280
     1
102
RTVSPost2010PropOp29
 70
     1
102
RTVSPost2010Prop30
280
     1
102
RTVSPost2010PropOp30
 70
     1
102
RTVSPost2010Prop31
280
     0
102
RTVSPost2010PropOp31
 70
     1
102
RTVSPost2010Prop32
280
     0
102
RTVSPost2010PropOp32
 70
     1
102
RTVSPost2010Prop33
280
     0
102
RTVSPost2010PropOp33
 70
     1
102
RTVSPost2010Prop34
280
     0
102
RTVSPost2010PropOp34
 70
     1
102
RTVSPost2010Prop35
280
     0
102
RTVSPost2010PropOp35
 70
     1
102
RTVSPost2010Prop36
280
     0
102
RTVSPost2010PropOp36
 70
     1
102
RTVSPost2010Prop37
 90
       50
102
RTVSPost2010PropOp37
 70
     1
102
RTVSPost2010Prop38
140
0.0
102
RTVSPost2010PropOp38
 70
     1
102
RTVSPost2010Prop39
140
1.0
102
RTVSPost2010PropOp39
 70
     1
102
RTVSPost2010Prop40
 90
        0
102
RTVSPost2010PropOp40
 70
     1
102
RTVSPost2010Prop41ColorIndex
 90
       18
102
RTVSPost2010Prop41ColorRGB
 90
        0
102
RTVSPost2010PropOp41
 70
     1
102
RTVSPost2010Prop42
 90
       50
102
RTVSPost2010PropOp42
 70
     1
102
RTVSPost2010Prop43
 90
        3
102
RTVSPost2010PropOp43
 70
     1
102
RTVSPost2010Prop44ColorIndex
 90
        5
102
RTVSPost2010Prop44ColorRGB
 90
      255
102
RTVSPost2010PropOp44
 70
     1
102
RTVSPost2010Prop45
280
     0
102
RTVSPost2010PropOp45
 70
     1
102
RTVSPost2010Prop46
 90
       50
102
RTVSPost2010PropOp46
 70
     1
102
RTVSPost2010Prop47
 90
       50
102
RTVSPost2010PropOp47
 70
     1
102
RTVSPost2010Prop48
 90
       50
102
RTVSPost2010PropOp48
 70
     1
102
RTVSPost2010Prop49
280
     0
102
RTVSPost2010PropOp49
 70
     1
102
RTVSPost2010Prop50
 90
       50
102
RTVSPost2010PropOp50
 70
     1
102
RTVSPost2010Prop51ColorIndex
 90
      256
102
RTVSPost2010Prop51ColorRGB
 90
-16777216
102
RTVSPost2010PropOp51
 70
     0
102
RTVSPost2010Prop52
140
1.0
102
RTVSPost2010PropOp52
 70
     0
102
RTVSPost2010Prop53
 90
        2
102
RTVSPost2010PropOp53
 70
     1
102
RTVSPost2010Prop54
  1
strokes_ogs.tif
102
RTVSPost2010PropOp54
 70
     1
102
RTVSPost2010Prop55
280
     0
102
RTVSPost2010PropOp55
 70
     1
102
RTVSPost2010Prop56
140
1.0
102
RTVSPost2010PropOp56
 70
     1
102
RTVSPost2010Prop57
140
1.0
102
RTVSPost2010PropOp57
 70
     1
  0
XRECORD
  5
222
102
{ACAD_REACTORS
330
221
102
}
330
221
100
AcDbXrecord
280
     1
102
RTVSPropertyOp0
 70
     1
102
RTVSPropertyOp1
 70
     1
102
RTVSPropertyOp2
 70
     1
102
RTVSPropertyOp3
 70
     1
102
RTVSPropertyOp4
 70
     1
102
RTVSPropertyOp5
 70
     1
102
RTVSPropertyOp6
 70
     1
102
RTVSPropertyOp7
 70
     1
102
RTVSPropertyOp8
 70
     1
102
RTVSPropertyOp9
 70
     1
102
RTVSPropertyOp10
 70
     1
102
RTVSPropertyOp11
 70
     1
102
RTVSPropertyOp12
 70
     1
102
RTVSPropertyOp13
 70
     1
102
RTVSPropertyOp14
 70
     1
102
RTVSPropertyOp15
 70
     1
102
RTVSPropertyOp16
 70
     1
102
RTVSPropertyOp17
 70
     1
102
RTVSPropertyOp18
 70
     1
102
RTVSPropertyOp19
 70
     1
102
RTVSPropertyOp20
 70
     1
102
RTVSPropertyOp21
 70
     1
102
RTVSPropertyOp22
 70
     1
102
RTVSPropertyOp23
 70
     1
102
RTVSPropertyOp24
 70
     1
102
RTVSPropertyOp25
 70
     1
102
RTVSPropertyOp26
 70
     1
102
RTVSPropertyOp27
 70
     1
102
RTVSPropertyOp28
 70
     1
102
RTVSPropertyOp29
 70
     1
102
RTVSPropertyOp30
 70
     1
102
RTVSPropertyOp31
 70
     1
102
RTVSPropertyOp32
 70
     1
102
RTVSPropertyOp33
 70
     1
102
RTVSPropertyOp34
 70
     1
102
RTVSPropertyOp35
 70
     1
102
RTVSPropertyOp36
 70
     1
102
RTVSPropertyOp37
 70
     1
102
RTVSPropertyOp38
 70
     1
102
RTVSPropertyOp39
 70
     1
102
RTVSPropertyOp40
 70
     1
102
RTVSPropertyOp41
 70
     1
102
RTVSPropertyOp42
 70
     1
102
RTVSPropertyOp43
 70
     1
102
RTVSPropertyOp44
 70
     1
102
RTVSPropertyOp45
 70
     1
102
RTVSPropertyOp46
 70
     1
102
RTVSPropertyOp47
 70
     1
102
RTVSPropertyOp48
 70
     1
102
RTVSPropertyOp49
 70
     1
102
RTVSPropertyOp50
 70
     1
102
RTVSPropertyOp51
 70
     0
102
RTVSPropertyOp52
 70
     0
102
RTVSPropertyOp53
 70
     1
102
RTVSPropertyOp54
 70
     1
102
RTVSPropertyOp55
 70
     1
102
RTVSPropertyOp56
 70
     1
102
RTVSPropertyOp57
 70
     1
102
RTVSPost2010Prop28
280
     0
102
RTVSPost2010PropOp28
 70
     1
102
RTVSPost2010Prop29
280
     1
102
RTVSPost2010PropOp29
 70
     1
102
RTVSPost2010Prop30
280
     1
102
RTVSPost2010PropOp30
 70
     1
102
RTVSPost2010Prop31
280
     0
102
RTVSPost2010PropOp31
 70
     1
102
RTVSPost2010Prop32
280
     0
102
RTVSPost2010PropOp32
 70
     1
102
RTVSPost2010Prop33
280
     0
102
RTVSPost2010PropOp33
 70
     1
102
RTVSPost2010Prop34
280
     0
102
RTVSPost2010PropOp34
 70
     1
102
RTVSPost2010Prop35
280
     0
102
RTVSPost2010PropOp35
 70
     1
102
RTVSPost2010Prop36
280
     0
102
RTVSPost2010PropOp36
 70
     1
102
RTVSPost2010Prop37
 90
       50
102
RTVSPost2010PropOp37
 70
     1
102
RTVSPost2010Prop38
140
0.0
102
RTVSPost2010PropOp38
 70
     1
102
RTVSPost2010Prop39
140
1.0
102
RTVSPost2010PropOp39
 70
     1
102
RTVSPost2010Prop40
 90
        0
102
RTVSPost2010PropOp40
 70
     1
102
RTVSPost2010Prop41ColorIndex
 90
       18
102
RTVSPost2010Prop41ColorRGB
 90
        0
102
RTVSPost2010PropOp41
 70
     1
102
RTVSPost2010Prop42
 90
       50
102
RTVSPost2010PropOp42
 70
     1
102
RTVSPost2010Prop43
 90
        3
102
RTVSPost2010PropOp43
 70
     1
102
RTVSPost2010Prop44ColorIndex
 90
        5
102
RTVSPost2010Prop44ColorRGB
 90
      255
102
RTVSPost2010PropOp44
 70
     1
102
RTVSPost2010Prop45
280
     0
102
RTVSPost2010PropOp45
 70
     1
102
RTVSPost2010Prop46
 90
       50
102
RTVSPost2010PropOp46
 70
     1
102
RTVSPost2010Prop47
 90
       50
102
RTVSPost2010PropOp47
 70
     1
102
RTVSPost2010Prop48
 90
       50
102
RTVSPost2010PropOp48
 70
     1
102
RTVSPost2010Prop49
280
     0
102
RTVSPost2010PropOp49
 70
     1
102
RTVSPost2010Prop50
 90
       50
102
RTVSPost2010PropOp50
 70
     1
102
RTVSPost2010Prop51ColorIndex
 90
      256
102
RTVSPost2010Prop51ColorRGB
 90
-16777216
102
RTVSPost2010PropOp51
 70
     0
102
RTVSPost2010Prop52
140
1.0
102
RTVSPost2010PropOp52
 70
     0
102
RTVSPost2010Prop53
 90
        2
102
RTVSPost2010PropOp53
 70
     1
102
RTVSPost2010Prop54
  1
strokes_ogs.tif
102
RTVSPost2010PropOp54
 70
     1
102
RTVSPost2010Prop55
280
     0
102
RTVSPost2010PropOp55
 70
     1
102
RTVSPost2010Prop56
140
1.0
102
RTVSPost2010PropOp56
 70
     1
102
RTVSPost2010Prop57
140
1.0
102
RTVSPost2010PropOp57
 70
     1
  0
XRECORD
  5
236
102
{ACAD_REACTORS
330
235
102
}
330
235
100
AcDbXrecord
280
     1
102
RTVSPropertyOp0
 70
     0
102
RTVSPropertyOp1
 70
     0
102
RTVSPropertyOp2
 70
     0
102
RTVSPropertyOp3
 70
     0
102
RTVSPropertyOp4
 70
     0
102
RTVSPropertyOp5
 70
     0
102
RTVSPropertyOp6
 70
     0
102
RTVSPropertyOp7
 70
     0
102
RTVSPropertyOp8
 70
     0
102
RTVSPropertyOp9
 70
     0
102
RTVSPropertyOp10
 70
     0
102
RTVSPropertyOp11
 70
     0
102
RTVSPropertyOp12
 70
     0
102
RTVSPropertyOp13
 70
     0
102
RTVSPropertyOp14
 70
     2
102
RTVSPropertyOp15
 70
     0
102
RTVSPropertyOp16
 70
     0
102
RTVSPropertyOp17
 70
     0
102
RTVSPropertyOp18
 70
     0
102
RTVSPropertyOp19
 70
     0
102
RTVSPropertyOp20
 70
     0
102
RTVSPropertyOp21
 70
     0
102
RTVSPropertyOp22
 70
     0
102
RTVSPropertyOp23
 70
     0
102
RTVSPropertyOp24
 70
     0
102
RTVSPropertyOp25
 70
     0
102
RTVSPropertyOp26
 70
     0
102
RTVSPropertyOp27
 70
     0
102
RTVSPropertyOp28
 70
     0
102
RTVSPropertyOp29
 70
     0
102
RTVSPropertyOp30
 70
     0
102
RTVSPropertyOp31
 70
     0
102
RTVSPropertyOp32
 70
     0
102
RTVSPropertyOp33
 70
     0
102
RTVSPropertyOp34
 70
     0
102
RTVSPropertyOp35
 70
     0
102
RTVSPropertyOp36
 70
     0
102
RTVSPropertyOp37
 70
     0
102
RTVSPropertyOp38
 70
     0
102
RTVSPropertyOp39
 70
     0
102
RTVSPropertyOp40
 70
     0
102
RTVSPropertyOp41
 70
     0
102
RTVSPropertyOp42
 70
     0
102
RTVSPropertyOp43
 70
     0
102
RTVSPropertyOp44
 70
     0
102
RTVSPropertyOp45
 70
     0
102
RTVSPropertyOp46
 70
     0
102
RTVSPropertyOp47
 70
     0
102
RTVSPropertyOp48
 70
     0
102
RTVSPropertyOp49
 70
     0
102
RTVSPropertyOp50
 70
     0
102
RTVSPropertyOp51
 70
     0
102
RTVSPropertyOp52
 70
     0
102
RTVSPropertyOp53
 70
     0
102
RTVSPropertyOp54
 70
     0
102
RTVSPropertyOp55
 70
     0
102
RTVSPropertyOp56
 70
     0
102
RTVSPropertyOp57
 70
     0
102
RTVSPost2010Prop28
280
     0
102
RTVSPost2010PropOp28
 70
     0
102
RTVSPost2010Prop29
280
     1
102
RTVSPost2010PropOp29
 70
     0
102
RTVSPost2010Prop30
280
     1
102
RTVSPost2010PropOp30
 70
     0
102
RTVSPost2010Prop31
280
     0
102
RTVSPost2010PropOp31
 70
     0
102
RTVSPost2010Prop32
280
     0
102
RTVSPost2010PropOp32
 70
     0
102
RTVSPost2010Prop33
280
     0
102
RTVSPost2010PropOp33
 70
     0
102
RTVSPost2010Prop34
280
     0
102
RTVSPost2010PropOp34
 70
     0
102
RTVSPost2010Prop35
280
     0
102
RTVSPost2010PropOp35
 70
     0
102
RTVSPost2010Prop36
280
     0
102
RTVSPost2010PropOp36
 70
     0
102
RTVSPost2010Prop37
 90
       50
102
RTVSPost2010PropOp37
 70
     0
102
RTVSPost2010Prop38
140
0.0
102
RTVSPost2010PropOp38
 70
     0
102
RTVSPost2010Prop39
140
1.0
102
RTVSPost2010PropOp39
 70
     0
102
RTVSPost2010Prop40
 90
        0
102
RTVSPost2010PropOp40
 70
     0
102
RTVSPost2010Prop41ColorIndex
 90
       18
102
RTVSPost2010Prop41ColorRGB
 90
        0
102
RTVSPost2010PropOp41
 70
     0
102
RTVSPost2010Prop42
 90
       50
102
RTVSPost2010PropOp42
 70
     0
102
RTVSPost2010Prop43
 90
        3
102
RTVSPost2010PropOp43
 70
     0
102
RTVSPost2010Prop44ColorIndex
 90
        5
102
RTVSPost2010Prop44ColorRGB
 90
      255
102
RTVSPost2010PropOp44
 70
     0
102
RTVSPost2010Prop45
280
     0
102
RTVSPost2010PropOp45
 70
     0
102
RTVSPost2010Prop46
 90
       50
102
RTVSPost2010PropOp46
 70
     0
102
RTVSPost2010Prop47
 90
       50
102
RTVSPost2010PropOp47
 70
     0
102
RTVSPost2010Prop48
 90
       50
102
RTVSPost2010PropOp48
 70
     0
102
RTVSPost2010Prop49
280
     0
102
RTVSPost2010PropOp49
 70
     0
102
RTVSPost2010Prop50
 90
       50
102
RTVSPost2010PropOp50
 70
     0
102
RTVSPost2010Prop51ColorIndex
 90
      256
102
RTVSPost2010Prop51ColorRGB
 90
-16777216
102
RTVSPost2010PropOp51
 70
     0
102
RTVSPost2010Prop52
140
1.0
102
RTVSPost2010PropOp52
 70
     0
102
RTVSPost2010Prop53
 90
        2
102
RTVSPost2010PropOp53
 70
     0
102
RTVSPost2010Prop54
  1
strokes_ogs.tif
102
RTVSPost2010PropOp54
 70
     0
102
RTVSPost2010Prop55
280
     0
102
RTVSPost2010PropOp55
 70
     0
102
RTVSPost2010Prop56
140
1.0
102
RTVSPost2010PropOp56
 70
     0
102
RTVSPost2010Prop57
140
1.0
102
RTVSPost2010PropOp57
 70
     0
  0
XRECORD
  5
230
102
{ACAD_REACTORS
330
22F
102
}
330
22F
100
AcDbXrecord
280
     1
102
RTVSPropertyOp0
 70
     1
102
RTVSPropertyOp1
 70
     1
102
RTVSPropertyOp2
 70
     1
102
RTVSPropertyOp3
 70
     1
102
RTVSPropertyOp4
 70
     1
102
RTVSPropertyOp5
 70
     1
102
RTVSPropertyOp6
 70
     1
102
RTVSPropertyOp7
 70
     1
102
RTVSPropertyOp8
 70
     1
102
RTVSPropertyOp9
 70
     1
102
RTVSPropertyOp10
 70
     1
102
RTVSPropertyOp11
 70
     1
102
RTVSPropertyOp12
 70
     1
102
RTVSPropertyOp13
 70
     1
102
RTVSPropertyOp14
 70
     1
102
RTVSPropertyOp15
 70
     1
102
RTVSPropertyOp16
 70
     1
102
RTVSPropertyOp17
 70
     1
102
RTVSPropertyOp18
 70
     1
102
RTVSPropertyOp19
 70
     1
102
RTVSPropertyOp20
 70
     1
102
RTVSPropertyOp21
 70
     1
102
RTVSPropertyOp22
 70
     1
102
RTVSPropertyOp23
 70
     1
102
RTVSPropertyOp24
 70
     1
102
RTVSPropertyOp25
 70
     1
102
RTVSPropertyOp26
 70
     1
102
RTVSPropertyOp27
 70
     1
102
RTVSPropertyOp28
 70
     1
102
RTVSPropertyOp29
 70
     1
102
RTVSPropertyOp30
 70
     1
102
RTVSPropertyOp31
 70
     1
102
RTVSPropertyOp32
 70
     1
102
RTVSPropertyOp33
 70
     1
102
RTVSPropertyOp34
 70
     1
102
RTVSPropertyOp35
 70
     1
102
RTVSPropertyOp36
 70
     1
102
RTVSPropertyOp37
 70
     1
102
RTVSPropertyOp38
 70
     1
102
RTVSPropertyOp39
 70
     1
102
RTVSPropertyOp40
 70
     1
102
RTVSPropertyOp41
 70
     1
102
RTVSPropertyOp42
 70
     1
102
RTVSPropertyOp43
 70
     1
102
RTVSPropertyOp44
 70
     1
102
RTVSPropertyOp45
 70
     1
102
RTVSPropertyOp46
 70
     1
102
RTVSPropertyOp47
 70
     1
102
RTVSPropertyOp48
 70
     1
102
RTVSPropertyOp49
 70
     1
102
RTVSPropertyOp50
 70
     1
102
RTVSPropertyOp51
 70
     0
102
RTVSPropertyOp52
 70
     0
102
RTVSPropertyOp53
 70
     1
102
RTVSPropertyOp54
 70
     1
102
RTVSPropertyOp55
 70
     1
102
RTVSPropertyOp56
 70
     1
102
RTVSPropertyOp57
 70
     1
102
RTVSPost2010Prop28
280
     0
102
RTVSPost2010PropOp28
 70
     1
102
RTVSPost2010Prop29
280
     1
102
RTVSPost2010PropOp29
 70
     1
102
RTVSPost2010Prop30
280
     1
102
RTVSPost2010PropOp30
 70
     1
102
RTVSPost2010Prop31
280
     0
102
RTVSPost2010PropOp31
 70
     1
102
RTVSPost2010Prop32
280
     0
102
RTVSPost2010PropOp32
 70
     1
102
RTVSPost2010Prop33
280
     0
102
RTVSPost2010PropOp33
 70
     1
102
RTVSPost2010Prop34
280
     0
102
RTVSPost2010PropOp34
 70
     1
102
RTVSPost2010Prop35
280
     0
102
RTVSPost2010PropOp35
 70
     1
102
RTVSPost2010Prop36
280
     0
102
RTVSPost2010PropOp36
 70
     1
102
RTVSPost2010Prop37
 90
       50
102
RTVSPost2010PropOp37
 70
     1
102
RTVSPost2010Prop38
140
0.0
102
RTVSPost2010PropOp38
 70
     1
102
RTVSPost2010Prop39
140
1.0
102
RTVSPost2010PropOp39
 70
     1
102
RTVSPost2010Prop40
 90
        0
102
RTVSPost2010PropOp40
 70
     1
102
RTVSPost2010Prop41ColorIndex
 90
       18
102
RTVSPost2010Prop41ColorRGB
 90
        0
102
RTVSPost2010PropOp41
 70
     1
102
RTVSPost2010Prop42
 90
       50
102
RTVSPost2010PropOp42
 70
     1
102
RTVSPost2010Prop43
 90
        3
102
RTVSPost2010PropOp43
 70
     1
102
RTVSPost2010Prop44ColorIndex
 90
        5
102
RTVSPost2010Prop44ColorRGB
 90
      255
102
RTVSPost2010PropOp44
 70
     1
102
RTVSPost2010Prop45
280
     0
102
RTVSPost2010PropOp45
 70
     1
102
RTVSPost2010Prop46
 90
       50
102
RTVSPost2010PropOp46
 70
     1
102
RTVSPost2010Prop47
 90
       50
102
RTVSPost2010PropOp47
 70
     1
102
RTVSPost2010Prop48
 90
       50
102
RTVSPost2010PropOp48
 70
     1
102
RTVSPost2010Prop49
280
     0
102
RTVSPost2010PropOp49
 70
     1
102
RTVSPost2010Prop50
 90
       50
102
RTVSPost2010PropOp50
 70
     1
102
RTVSPost2010Prop51ColorIndex
 90
      256
102
RTVSPost2010Prop51ColorRGB
 90
-16777216
102
RTVSPost2010PropOp51
 70
     0
102
RTVSPost2010Prop52
140
1.0
102
RTVSPost2010PropOp52
 70
     0
102
RTVSPost2010Prop53
 90
        2
102
RTVSPost2010PropOp53
 70
     1
102
RTVSPost2010Prop54
  1
strokes_ogs.tif
102
RTVSPost2010PropOp54
 70
     1
102
RTVSPost2010Prop55
280
     0
102
RTVSPost2010PropOp55
 70
     1
102
RTVSPost2010Prop56
140
1.0
102
RTVSPost2010PropOp56
 70
     1
102
RTVSPost2010Prop57
140
1.0
102
RTVSPost2010PropOp57
 70
     1
  0
XRECORD
  5
238
102
{ACAD_REACTORS
330
237
102
}
330
237
100
AcDbXrecord
280
     1
102
RTVSPropertyOp0
 70
     0
102
RTVSPropertyOp1
 70
     0
102
RTVSPropertyOp2
 70
     0
102
RTVSPropertyOp3
 70
     0
102
RTVSPropertyOp4
 70
     0
102
RTVSPropertyOp5
 70
     0
102
RTVSPropertyOp6
 70
     0
102
RTVSPropertyOp7
 70
     0
102
RTVSPropertyOp8
 70
     0
102
RTVSPropertyOp9
 70
     0
102
RTVSPropertyOp10
 70
     0
102
RTVSPropertyOp11
 70
     0
102
RTVSPropertyOp12
 70
     0
102
RTVSPropertyOp13
 70
     0
102
RTVSPropertyOp14
 70
     2
102
RTVSPropertyOp15
 70
     0
102
RTVSPropertyOp16
 70
     0
102
RTVSPropertyOp17
 70
     0
102
RTVSPropertyOp18
 70
     0
102
RTVSPropertyOp19
 70
     0
102
RTVSPropertyOp20
 70
     0
102
RTVSPropertyOp21
 70
     0
102
RTVSPropertyOp22
 70
     0
102
RTVSPropertyOp23
 70
     0
102
RTVSPropertyOp24
 70
     0
102
RTVSPropertyOp25
 70
     0
102
RTVSPropertyOp26
 70
     0
102
RTVSPropertyOp27
 70
     0
102
RTVSPropertyOp28
 70
     0
102
RTVSPropertyOp29
 70
     0
102
RTVSPropertyOp30
 70
     0
102
RTVSPropertyOp31
 70
     0
102
RTVSPropertyOp32
 70
     0
102
RTVSPropertyOp33
 70
     0
102
RTVSPropertyOp34
 70
     0
102
RTVSPropertyOp35
 70
     0
102
RTVSPropertyOp36
 70
     0
102
RTVSPropertyOp37
 70
     0
102
RTVSPropertyOp38
 70
     0
102
RTVSPropertyOp39
 70
     0
102
RTVSPropertyOp40
 70
     0
102
RTVSPropertyOp41
 70
     0
102
RTVSPropertyOp42
 70
     0
102
RTVSPropertyOp43
 70
     0
102
RTVSPropertyOp44
 70
     0
102
RTVSPropertyOp45
 70
     0
102
RTVSPropertyOp46
 70
     0
102
RTVSPropertyOp47
 70
     0
102
RTVSPropertyOp48
 70
     0
102
RTVSPropertyOp49
 70
     0
102
RTVSPropertyOp50
 70
     0
102
RTVSPropertyOp51
 70
     0
102
RTVSPropertyOp52
 70
     0
102
RTVSPropertyOp53
 70
     0
102
RTVSPropertyOp54
 70
     0
102
RTVSPropertyOp55
 70
     0
102
RTVSPropertyOp56
 70
     0
102
RTVSPropertyOp57
 70
     0
102
RTVSPost2010Prop28
280
     0
102
RTVSPost2010PropOp28
 70
     0
102
RTVSPost2010Prop29
280
     1
102
RTVSPost2010PropOp29
 70
     0
102
RTVSPost2010Prop30
280
     1
102
RTVSPost2010PropOp30
 70
     0
102
RTVSPost2010Prop31
280
     0
102
RTVSPost2010PropOp31
 70
     0
102
RTVSPost2010Prop32
280
     0
102
RTVSPost2010PropOp32
 70
     0
102
RTVSPost2010Prop33
280
     0
102
RTVSPost2010PropOp33
 70
     0
102
RTVSPost2010Prop34
280
     0
102
RTVSPost2010PropOp34
 70
     0
102
RTVSPost2010Prop35
280
     0
102
RTVSPost2010PropOp35
 70
     0
102
RTVSPost2010Prop36
280
     0
102
RTVSPost2010PropOp36
 70
     0
102
RTVSPost2010Prop37
 90
       50
102
RTVSPost2010PropOp37
 70
     0
102
RTVSPost2010Prop38
140
0.0
102
RTVSPost2010PropOp38
 70
     0
102
RTVSPost2010Prop39
140
1.0
102
RTVSPost2010PropOp39
 70
     0
102
RTVSPost2010Prop40
 90
        0
102
RTVSPost2010PropOp40
 70
     0
102
RTVSPost2010Prop41ColorIndex
 90
       18
102
RTVSPost2010Prop41ColorRGB
 90
        0
102
RTVSPost2010PropOp41
 70
     0
102
RTVSPost2010Prop42
 90
       50
102
RTVSPost2010PropOp42
 70
     0
102
RTVSPost2010Prop43
 90
        3
102
RTVSPost2010PropOp43
 70
     0
102
RTVSPost2010Prop44ColorIndex
 90
        5
102
RTVSPost2010Prop44ColorRGB
 90
      255
102
RTVSPost2010PropOp44
 70
     0
102
RTVSPost2010Prop45
280
     0
102
RTVSPost2010PropOp45
 70
     0
102
RTVSPost2010Prop46
 90
       50
102
RTVSPost2010PropOp46
 70
     0
102
RTVSPost2010Prop47
 90
       50
102
RTVSPost2010PropOp47
 70
     0
102
RTVSPost2010Prop48
 90
       50
102
RTVSPost2010PropOp48
 70
     0
102
RTVSPost2010Prop49
280
     0
102
RTVSPost2010PropOp49
 70
     0
102
RTVSPost2010Prop50
 90
       50
102
RTVSPost2010PropOp50
 70
     0
102
RTVSPost2010Prop51ColorIndex
 90
      256
102
RTVSPost2010Prop51ColorRGB
 90
-16777216
102
RTVSPost2010PropOp51
 70
     0
102
RTVSPost2010Prop52
140
1.0
102
RTVSPost2010PropOp52
 70
     0
102
RTVSPost2010Prop53
 90
        2
102
RTVSPost2010PropOp53
 70
     0
102
RTVSPost2010Prop54
  1
strokes_ogs.tif
102
RTVSPost2010PropOp54
 70
     0
102
RTVSPost2010Prop55
280
     0
102
RTVSPost2010PropOp55
 70
     0
102
RTVSPost2010Prop56
140
1.0
102
RTVSPost2010PropOp56
 70
     0
102
RTVSPost2010Prop57
140
1.0
102
RTVSPost2010PropOp57
 70
     0
  0
XRECORD
  5
226
102
{ACAD_REACTORS
330
225
102
}
330
225
100
AcDbXrecord
280
     1
102
RTVSPropertyOp0
 70
     1
102
RTVSPropertyOp1
 70
     1
102
RTVSPropertyOp2
 70
     1
102
RTVSPropertyOp3
 70
     1
102
RTVSPropertyOp4
 70
     1
102
RTVSPropertyOp5
 70
     1
102
RTVSPropertyOp6
 70
     1
102
RTVSPropertyOp7
 70
     1
102
RTVSPropertyOp8
 70
     1
102
RTVSPropertyOp9
 70
     1
102
RTVSPropertyOp10
 70
     1
102
RTVSPropertyOp11
 70
     1
102
RTVSPropertyOp12
 70
     1
102
RTVSPropertyOp13
 70
     1
102
RTVSPropertyOp14
 70
     1
102
RTVSPropertyOp15
 70
     1
102
RTVSPropertyOp16
 70
     1
102
RTVSPropertyOp17
 70
     1
102
RTVSPropertyOp18
 70
     1
102
RTVSPropertyOp19
 70
     1
102
RTVSPropertyOp20
 70
     1
102
RTVSPropertyOp21
 70
     1
102
RTVSPropertyOp22
 70
     1
102
RTVSPropertyOp23
 70
     1
102
RTVSPropertyOp24
 70
     1
102
RTVSPropertyOp25
 70
     1
102
RTVSPropertyOp26
 70
     1
102
RTVSPropertyOp27
 70
     1
102
RTVSPropertyOp28
 70
     1
102
RTVSPropertyOp29
 70
     1
102
RTVSPropertyOp30
 70
     1
102
RTVSPropertyOp31
 70
     1
102
RTVSPropertyOp32
 70
     1
102
RTVSPropertyOp33
 70
     1
102
RTVSPropertyOp34
 70
     1
102
RTVSPropertyOp35
 70
     1
102
RTVSPropertyOp36
 70
     1
102
RTVSPropertyOp37
 70
     1
102
RTVSPropertyOp38
 70
     1
102
RTVSPropertyOp39
 70
     1
102
RTVSPropertyOp40
 70
     1
102
RTVSPropertyOp41
 70
     1
102
RTVSPropertyOp42
 70
     1
102
RTVSPropertyOp43
 70
     1
102
RTVSPropertyOp44
 70
     1
102
RTVSPropertyOp45
 70
     1
102
RTVSPropertyOp46
 70
     1
102
RTVSPropertyOp47
 70
     1
102
RTVSPropertyOp48
 70
     1
102
RTVSPropertyOp49
 70
     1
102
RTVSPropertyOp50
 70
     1
102
RTVSPropertyOp51
 70
     0
102
RTVSPropertyOp52
 70
     0
102
RTVSPropertyOp53
 70
     1
102
RTVSPropertyOp54
 70
     1
102
RTVSPropertyOp55
 70
     1
102
RTVSPropertyOp56
 70
     1
102
RTVSPropertyOp57
 70
     1
102
RTVSPost2010Prop28
280
     0
102
RTVSPost2010PropOp28
 70
     1
102
RTVSPost2010Prop29
280
     1
102
RTVSPost2010PropOp29
 70
     1
102
RTVSPost2010Prop30
280
     1
102
RTVSPost2010PropOp30
 70
     1
102
RTVSPost2010Prop31
280
     0
102
RTVSPost2010PropOp31
 70
     1
102
RTVSPost2010Prop32
280
     0
102
RTVSPost2010PropOp32
 70
     1
102
RTVSPost2010Prop33
280
     0
102
RTVSPost2010PropOp33
 70
     1
102
RTVSPost2010Prop34
280
     0
102
RTVSPost2010PropOp34
 70
     1
102
RTVSPost2010Prop35
280
     0
102
RTVSPost2010PropOp35
 70
     1
102
RTVSPost2010Prop36
280
     0
102
RTVSPost2010PropOp36
 70
     1
102
RTVSPost2010Prop37
 90
       50
102
RTVSPost2010PropOp37
 70
     1
102
RTVSPost2010Prop38
140
0.0
102
RTVSPost2010PropOp38
 70
     1
102
RTVSPost2010Prop39
140
1.0
102
RTVSPost2010PropOp39
 70
     1
102
RTVSPost2010Prop40
 90
        0
102
RTVSPost2010PropOp40
 70
     1
102
RTVSPost2010Prop41ColorIndex
 90
       18
102
RTVSPost2010Prop41ColorRGB
 90
        0
102
RTVSPost2010PropOp41
 70
     1
102
RTVSPost2010Prop42
 90
       50
102
RTVSPost2010PropOp42
 70
     1
102
RTVSPost2010Prop43
 90
        3
102
RTVSPost2010PropOp43
 70
     1
102
RTVSPost2010Prop44ColorIndex
 90
        5
102
RTVSPost2010Prop44ColorRGB
 90
      255
102
RTVSPost2010PropOp44
 70
     1
102
RTVSPost2010Prop45
280
     0
102
RTVSPost2010PropOp45
 70
     1
102
RTVSPost2010Prop46
 90
       50
102
RTVSPost2010PropOp46
 70
     1
102
RTVSPost2010Prop47
 90
       50
102
RTVSPost2010PropOp47
 70
     1
102
RTVSPost2010Prop48
 90
       50
102
RTVSPost2010PropOp48
 70
     1
102
RTVSPost2010Prop49
280
     0
102
RTVSPost2010PropOp49
 70
     1
102
RTVSPost2010Prop50
 90
       50
102
RTVSPost2010PropOp50
 70
     1
102
RTVSPost2010Prop51ColorIndex
 90
      256
102
RTVSPost2010Prop51ColorRGB
 90
-16777216
102
RTVSPost2010PropOp51
 70
     0
102
RTVSPost2010Prop52
140
1.0
102
RTVSPost2010PropOp52
 70
     0
102
RTVSPost2010Prop53
 90
        2
102
RTVSPost2010PropOp53
 70
     1
102
RTVSPost2010Prop54
  1
strokes_ogs.tif
102
RTVSPost2010PropOp54
 70
     1
102
RTVSPost2010Prop55
280
     0
102
RTVSPost2010PropOp55
 70
     1
102
RTVSPost2010Prop56
140
1.0
102
RTVSPost2010PropOp56
 70
     1
102
RTVSPost2010Prop57
140
1.0
102
RTVSPost2010PropOp57
 70
     1
  0
XRECORD
  5
244
102
{ACAD_REACTORS
330
243
102
}
330
243
100
AcDbXrecord
280
     1
102
RTVSPropertyOp0
 70
     1
102
RTVSPropertyOp1
 70
     1
102
RTVSPropertyOp2
 70
     1
102
RTVSPropertyOp3
 70
     1
102
RTVSPropertyOp4
 70
     1
102
RTVSPropertyOp5
 70
     1
102
RTVSPropertyOp6
 70
     1
102
RTVSPropertyOp7
 70
     1
102
RTVSPropertyOp8
 70
     1
102
RTVSPropertyOp9
 70
     1
102
RTVSPropertyOp10
 70
     1
102
RTVSPropertyOp11
 70
     1
102
RTVSPropertyOp12
 70
     1
102
RTVSPropertyOp13
 70
     1
102
RTVSPropertyOp14
 70
     1
102
RTVSPropertyOp15
 70
     1
102
RTVSPropertyOp16
 70
     1
102
RTVSPropertyOp17
 70
     1
102
RTVSPropertyOp18
 70
     1
102
RTVSPropertyOp19
 70
     1
102
RTVSPropertyOp20
 70
     1
102
RTVSPropertyOp21
 70
     1
102
RTVSPropertyOp22
 70
     1
102
RTVSPropertyOp23
 70
     1
102
RTVSPropertyOp24
 70
     1
102
RTVSPropertyOp25
 70
     1
102
RTVSPropertyOp26
 70
     1
102
RTVSPropertyOp27
 70
     1
102
RTVSPropertyOp28
 70
     1
102
RTVSPropertyOp29
 70
     1
102
RTVSPropertyOp30
 70
     1
102
RTVSPropertyOp31
 70
     1
102
RTVSPropertyOp32
 70
     1
102
RTVSPropertyOp33
 70
     1
102
RTVSPropertyOp34
 70
     1
102
RTVSPropertyOp35
 70
     1
102
RTVSPropertyOp36
 70
     1
102
RTVSPropertyOp37
 70
     1
102
RTVSPropertyOp38
 70
     1
102
RTVSPropertyOp39
 70
     1
102
RTVSPropertyOp40
 70
     1
102
RTVSPropertyOp41
 70
     1
102
RTVSPropertyOp42
 70
     1
102
RTVSPropertyOp43
 70
     1
102
RTVSPropertyOp44
 70
     1
102
RTVSPropertyOp45
 70
     1
102
RTVSPropertyOp46
 70
     1
102
RTVSPropertyOp47
 70
     1
102
RTVSPropertyOp48
 70
     1
102
RTVSPropertyOp49
 70
     1
102
RTVSPropertyOp50
 70
     1
102
RTVSPropertyOp51
 70
     0
102
RTVSPropertyOp52
 70
     0
102
RTVSPropertyOp53
 70
     1
102
RTVSPropertyOp54
 70
     1
102
RTVSPropertyOp55
 70
     1
102
RTVSPropertyOp56
 70
     1
102
RTVSPropertyOp57
 70
     1
102
RTVSPost2010Prop28
280
     0
102
RTVSPost2010PropOp28
 70
     1
102
RTVSPost2010Prop29
280
     1
102
RTVSPost2010PropOp29
 70
     1
102
RTVSPost2010Prop30
280
     1
102
RTVSPost2010PropOp30
 70
     1
102
RTVSPost2010Prop31
280
     0
102
RTVSPost2010PropOp31
 70
     1
102
RTVSPost2010Prop32
280
     0
102
RTVSPost2010PropOp32
 70
     1
102
RTVSPost2010Prop33
280
     0
102
RTVSPost2010PropOp33
 70
     1
102
RTVSPost2010Prop34
280
     0
102
RTVSPost2010PropOp34
 70
     1
102
RTVSPost2010Prop35
280
     0
102
RTVSPost2010PropOp35
 70
     1
102
RTVSPost2010Prop36
280
     0
102
RTVSPost2010PropOp36
 70
     1
102
RTVSPost2010Prop37
 90
       50
102
RTVSPost2010PropOp37
 70
     1
102
RTVSPost2010Prop38
140
0.0
102
RTVSPost2010PropOp38
 70
     1
102
RTVSPost2010Prop39
140
1.0
102
RTVSPost2010PropOp39
 70
     1
102
RTVSPost2010Prop40
 90
        0
102
RTVSPost2010PropOp40
 70
     1
102
RTVSPost2010Prop41ColorIndex
 90
       18
102
RTVSPost2010Prop41ColorRGB
 90
        0
102
RTVSPost2010PropOp41
 70
     1
102
RTVSPost2010Prop42
 90
       50
102
RTVSPost2010PropOp42
 70
     1
102
RTVSPost2010Prop43
 90
        3
102
RTVSPost2010PropOp43
 70
     1
102
RTVSPost2010Prop44ColorIndex
 90
        5
102
RTVSPost2010Prop44ColorRGB
 90
      255
102
RTVSPost2010PropOp44
 70
     1
102
RTVSPost2010Prop45
280
     0
102
RTVSPost2010PropOp45
 70
     1
102
RTVSPost2010Prop46
 90
       50
102
RTVSPost2010PropOp46
 70
     1
102
RTVSPost2010Prop47
 90
       50
102
RTVSPost2010PropOp47
 70
     1
102
RTVSPost2010Prop48
 90
       50
102
RTVSPost2010PropOp48
 70
     1
102
RTVSPost2010Prop49
280
     0
102
RTVSPost2010PropOp49
 70
     1
102
RTVSPost2010Prop50
 90
       50
102
RTVSPost2010PropOp50
 70
     1
102
RTVSPost2010Prop51ColorIndex
 90
      256
102
RTVSPost2010Prop51ColorRGB
 90
-16777216
102
RTVSPost2010PropOp51
 70
     0
102
RTVSPost2010Prop52
140
1.0
102
RTVSPost2010PropOp52
 70
     0
102
RTVSPost2010Prop53
 90
        2
102
RTVSPost2010PropOp53
 70
     1
102
RTVSPost2010Prop54
  1
strokes_ogs.tif
102
RTVSPost2010PropOp54
 70
     1
102
RTVSPost2010Prop55
280
     0
102
RTVSPost2010PropOp55
 70
     1
102
RTVSPost2010Prop56
140
1.0
102
RTVSPost2010PropOp56
 70
     1
102
RTVSPost2010Prop57
140
1.0
102
RTVSPost2010PropOp57
 70
     1
  0
XRECORD
  5
242
102
{ACAD_REACTORS
330
241
102
}
330
241
100
AcDbXrecord
280
     1
102
RTVSPropertyOp0
 70
     1
102
RTVSPropertyOp1
 70
     1
102
RTVSPropertyOp2
 70
     1
102
RTVSPropertyOp3
 70
     1
102
RTVSPropertyOp4
 70
     1
102
RTVSPropertyOp5
 70
     1
102
RTVSPropertyOp6
 70
     1
102
RTVSPropertyOp7
 70
     1
102
RTVSPropertyOp8
 70
     1
102
RTVSPropertyOp9
 70
     1
102
RTVSPropertyOp10
 70
     1
102
RTVSPropertyOp11
 70
     1
102
RTVSPropertyOp12
 70
     1
102
RTVSPropertyOp13
 70
     1
102
RTVSPropertyOp14
 70
     1
102
RTVSPropertyOp15
 70
     1
102
RTVSPropertyOp16
 70
     1
102
RTVSPropertyOp17
 70
     1
102
RTVSPropertyOp18
 70
     1
102
RTVSPropertyOp19
 70
     1
102
RTVSPropertyOp20
 70
     1
102
RTVSPropertyOp21
 70
     1
102
RTVSPropertyOp22
 70
     1
102
RTVSPropertyOp23
 70
     1
102
RTVSPropertyOp24
 70
     1
102
RTVSPropertyOp25
 70
     1
102
RTVSPropertyOp26
 70
     1
102
RTVSPropertyOp27
 70
     1
102
RTVSPropertyOp28
 70
     1
102
RTVSPropertyOp29
 70
     1
102
RTVSPropertyOp30
 70
     1
102
RTVSPropertyOp31
 70
     1
102
RTVSPropertyOp32
 70
     1
102
RTVSPropertyOp33
 70
     1
102
RTVSPropertyOp34
 70
     1
102
RTVSPropertyOp35
 70
     1
102
RTVSPropertyOp36
 70
     1
102
RTVSPropertyOp37
 70
     1
102
RTVSPropertyOp38
 70
     1
102
RTVSPropertyOp39
 70
     1
102
RTVSPropertyOp40
 70
     1
102
RTVSPropertyOp41
 70
     1
102
RTVSPropertyOp42
 70
     1
102
RTVSPropertyOp43
 70
     1
102
RTVSPropertyOp44
 70
     1
102
RTVSPropertyOp45
 70
     1
102
RTVSPropertyOp46
 70
     1
102
RTVSPropertyOp47
 70
     1
102
RTVSPropertyOp48
 70
     1
102
RTVSPropertyOp49
 70
     1
102
RTVSPropertyOp50
 70
     1
102
RTVSPropertyOp51
 70
     0
102
RTVSPropertyOp52
 70
     0
102
RTVSPropertyOp53
 70
     1
102
RTVSPropertyOp54
 70
     1
102
RTVSPropertyOp55
 70
     1
102
RTVSPropertyOp56
 70
     1
102
RTVSPropertyOp57
 70
     1
102
RTVSPost2010Prop28
280
     0
102
RTVSPost2010PropOp28
 70
     1
102
RTVSPost2010Prop29
280
     1
102
RTVSPost2010PropOp29
 70
     1
102
RTVSPost2010Prop30
280
     1
102
RTVSPost2010PropOp30
 70
     1
102
RTVSPost2010Prop31
280
     0
102
RTVSPost2010PropOp31
 70
     1
102
RTVSPost2010Prop32
280
     0
102
RTVSPost2010PropOp32
 70
     1
102
RTVSPost2010Prop33
280
     0
102
RTVSPost2010PropOp33
 70
     1
102
RTVSPost2010Prop34
280
     0
102
RTVSPost2010PropOp34
 70
     1
102
RTVSPost2010Prop35
280
     0
102
RTVSPost2010PropOp35
 70
     1
102
RTVSPost2010Prop36
280
     0
102
RTVSPost2010PropOp36
 70
     1
102
RTVSPost2010Prop37
 90
       50
102
RTVSPost2010PropOp37
 70
     1
102
RTVSPost2010Prop38
140
0.0
102
RTVSPost2010PropOp38
 70
     1
102
RTVSPost2010Prop39
140
1.0
102
RTVSPost2010PropOp39
 70
     1
102
RTVSPost2010Prop40
 90
        0
102
RTVSPost2010PropOp40
 70
     1
102
RTVSPost2010Prop41ColorIndex
 90
       18
102
RTVSPost2010Prop41ColorRGB
 90
        0
102
RTVSPost2010PropOp41
 70
     1
102
RTVSPost2010Prop42
 90
       50
102
RTVSPost2010PropOp42
 70
     1
102
RTVSPost2010Prop43
 90
        3
102
RTVSPost2010PropOp43
 70
     1
102
RTVSPost2010Prop44ColorIndex
 90
        5
102
RTVSPost2010Prop44ColorRGB
 90
      255
102
RTVSPost2010PropOp44
 70
     1
102
RTVSPost2010Prop45
280
     0
102
RTVSPost2010PropOp45
 70
     1
102
RTVSPost2010Prop46
 90
       50
102
RTVSPost2010PropOp46
 70
     1
102
RTVSPost2010Prop47
 90
       50
102
RTVSPost2010PropOp47
 70
     1
102
RTVSPost2010Prop48
 90
       50
102
RTVSPost2010PropOp48
 70
     1
102
RTVSPost2010Prop49
280
     0
102
RTVSPost2010PropOp49
 70
     1
102
RTVSPost2010Prop50
 90
       50
102
RTVSPost2010PropOp50
 70
     1
102
RTVSPost2010Prop51ColorIndex
 90
      256
102
RTVSPost2010Prop51ColorRGB
 90
-16777216
102
RTVSPost2010PropOp51
 70
     0
102
RTVSPost2010Prop52
140
1.0
102
RTVSPost2010PropOp52
 70
     0
102
RTVSPost2010Prop53
 90
        2
102
RTVSPost2010PropOp53
 70
     1
102
RTVSPost2010Prop54
  1
strokes_ogs.tif
102
RTVSPost2010PropOp54
 70
     1
102
RTVSPost2010Prop55
280
     0
102
RTVSPost2010PropOp55
 70
     1
102
RTVSPost2010Prop56
140
1.0
102
RTVSPost2010PropOp56
 70
     1
102
RTVSPost2010Prop57
140
1.0
102
RTVSPost2010PropOp57
 70
     1
  0
XRECORD
  5
23C
102
{ACAD_REACTORS
330
23B
102
}
330
23B
100
AcDbXrecord
280
     1
102
RTVSPropertyOp0
 70
     1
102
RTVSPropertyOp1
 70
     1
102
RTVSPropertyOp2
 70
     1
102
RTVSPropertyOp3
 70
     1
102
RTVSPropertyOp4
 70
     1
102
RTVSPropertyOp5
 70
     1
102
RTVSPropertyOp6
 70
     1
102
RTVSPropertyOp7
 70
     1
102
RTVSPropertyOp8
 70
     1
102
RTVSPropertyOp9
 70
     1
102
RTVSPropertyOp10
 70
     1
102
RTVSPropertyOp11
 70
     1
102
RTVSPropertyOp12
 70
     1
102
RTVSPropertyOp13
 70
     1
102
RTVSPropertyOp14
 70
     1
102
RTVSPropertyOp15
 70
     1
102
RTVSPropertyOp16
 70
     1
102
RTVSPropertyOp17
 70
     1
102
RTVSPropertyOp18
 70
     1
102
RTVSPropertyOp19
 70
     1
102
RTVSPropertyOp20
 70
     1
102
RTVSPropertyOp21
 70
     1
102
RTVSPropertyOp22
 70
     1
102
RTVSPropertyOp23
 70
     1
102
RTVSPropertyOp24
 70
     1
102
RTVSPropertyOp25
 70
     1
102
RTVSPropertyOp26
 70
     1
102
RTVSPropertyOp27
 70
     1
102
RTVSPropertyOp28
 70
     1
102
RTVSPropertyOp29
 70
     1
102
RTVSPropertyOp30
 70
     1
102
RTVSPropertyOp31
 70
     1
102
RTVSPropertyOp32
 70
     1
102
RTVSPropertyOp33
 70
     1
102
RTVSPropertyOp34
 70
     1
102
RTVSPropertyOp35
 70
     1
102
RTVSPropertyOp36
 70
     1
102
RTVSPropertyOp37
 70
     1
102
RTVSPropertyOp38
 70
     1
102
RTVSPropertyOp39
 70
     1
102
RTVSPropertyOp40
 70
     1
102
RTVSPropertyOp41
 70
     1
102
RTVSPropertyOp42
 70
     1
102
RTVSPropertyOp43
 70
     1
102
RTVSPropertyOp44
 70
     1
102
RTVSPropertyOp45
 70
     1
102
RTVSPropertyOp46
 70
     1
102
RTVSPropertyOp47
 70
     1
102
RTVSPropertyOp48
 70
     1
102
RTVSPropertyOp49
 70
     1
102
RTVSPropertyOp50
 70
     1
102
RTVSPropertyOp51
 70
     0
102
RTVSPropertyOp52
 70
     0
102
RTVSPropertyOp53
 70
     1
102
RTVSPropertyOp54
 70
     1
102
RTVSPropertyOp55
 70
     1
102
RTVSPropertyOp56
 70
     1
102
RTVSPropertyOp57
 70
     1
102
RTVSPost2010Prop28
280
     0
102
RTVSPost2010PropOp28
 70
     1
102
RTVSPost2010Prop29
280
     1
102
RTVSPost2010PropOp29
 70
     1
102
RTVSPost2010Prop30
280
     1
102
RTVSPost2010PropOp30
 70
     1
102
RTVSPost2010Prop31
280
     0
102
RTVSPost2010PropOp31
 70
     1
102
RTVSPost2010Prop32
280
     0
102
RTVSPost2010PropOp32
 70
     1
102
RTVSPost2010Prop33
280
     0
102
RTVSPost2010PropOp33
 70
     1
102
RTVSPost2010Prop34
280
     0
102
RTVSPost2010PropOp34
 70
     1
102
RTVSPost2010Prop35
280
     0
102
RTVSPost2010PropOp35
 70
     1
102
RTVSPost2010Prop36
280
     0
102
RTVSPost2010PropOp36
 70
     1
102
RTVSPost2010Prop37
 90
       50
102
RTVSPost2010PropOp37
 70
     1
102
RTVSPost2010Prop38
140
0.0
102
RTVSPost2010PropOp38
 70
     1
102
RTVSPost2010Prop39
140
1.0
102
RTVSPost2010PropOp39
 70
     1
102
RTVSPost2010Prop40
 90
        0
102
RTVSPost2010PropOp40
 70
     1
102
RTVSPost2010Prop41ColorIndex
 90
       18
102
RTVSPost2010Prop41ColorRGB
 90
        0
102
RTVSPost2010PropOp41
 70
     1
102
RTVSPost2010Prop42
 90
       50
102
RTVSPost2010PropOp42
 70
     1
102
RTVSPost2010Prop43
 90
        3
102
RTVSPost2010PropOp43
 70
     1
102
RTVSPost2010Prop44ColorIndex
 90
        5
102
RTVSPost2010Prop44ColorRGB
 90
      255
102
RTVSPost2010PropOp44
 70
     1
102
RTVSPost2010Prop45
280
     0
102
RTVSPost2010PropOp45
 70
     1
102
RTVSPost2010Prop46
 90
       50
102
RTVSPost2010PropOp46
 70
     1
102
RTVSPost2010Prop47
 90
       50
102
RTVSPost2010PropOp47
 70
     1
102
RTVSPost2010Prop48
 90
       50
102
RTVSPost2010PropOp48
 70
     1
102
RTVSPost2010Prop49
280
     0
102
RTVSPost2010PropOp49
 70
     1
102
RTVSPost2010Prop50
 90
       50
102
RTVSPost2010PropOp50
 70
     1
102
RTVSPost2010Prop51ColorIndex
 90
      256
102
RTVSPost2010Prop51ColorRGB
 90
-16777216
102
RTVSPost2010PropOp51
 70
     0
102
RTVSPost2010Prop52
140
1.0
102
RTVSPost2010PropOp52
 70
     0
102
RTVSPost2010Prop53
 90
        2
102
RTVSPost2010PropOp53
 70
     1
102
RTVSPost2010Prop54
  1
strokes_ogs.tif
102
RTVSPost2010PropOp54
 70
     1
102
RTVSPost2010Prop55
280
     0
102
RTVSPost2010PropOp55
 70
     1
102
RTVSPost2010Prop56
140
1.0
102
RTVSPost2010PropOp56
 70
     1
102
RTVSPost2010Prop57
140
1.0
102
RTVSPost2010PropOp57
 70
     1
  0
XRECORD
  5
23E
102
{ACAD_REACTORS
330
23D
102
}
330
23D
100
AcDbXrecord
280
     1
102
RTVSPropertyOp0
 70
     1
102
RTVSPropertyOp1
 70
     1
102
RTVSPropertyOp2
 70
     1
102
RTVSPropertyOp3
 70
     1
102
RTVSPropertyOp4
 70
     1
102
RTVSPropertyOp5
 70
     1
102
RTVSPropertyOp6
 70
     1
102
RTVSPropertyOp7
 70
     1
102
RTVSPropertyOp8
 70
     1
102
RTVSPropertyOp9
 70
     1
102
RTVSPropertyOp10
 70
     1
102
RTVSPropertyOp11
 70
     1
102
RTVSPropertyOp12
 70
     1
102
RTVSPropertyOp13
 70
     1
102
RTVSPropertyOp14
 70
     1
102
RTVSPropertyOp15
 70
     1
102
RTVSPropertyOp16
 70
     1
102
RTVSPropertyOp17
 70
     1
102
RTVSPropertyOp18
 70
     1
102
RTVSPropertyOp19
 70
     1
102
RTVSPropertyOp20
 70
     1
102
RTVSPropertyOp21
 70
     1
102
RTVSPropertyOp22
 70
     1
102
RTVSPropertyOp23
 70
     1
102
RTVSPropertyOp24
 70
     1
102
RTVSPropertyOp25
 70
     1
102
RTVSPropertyOp26
 70
     1
102
RTVSPropertyOp27
 70
     1
102
RTVSPropertyOp28
 70
     1
102
RTVSPropertyOp29
 70
     1
102
RTVSPropertyOp30
 70
     1
102
RTVSPropertyOp31
 70
     1
102
RTVSPropertyOp32
 70
     1
102
RTVSPropertyOp33
 70
     1
102
RTVSPropertyOp34
 70
     1
102
RTVSPropertyOp35
 70
     1
102
RTVSPropertyOp36
 70
     1
102
RTVSPropertyOp37
 70
     1
102
RTVSPropertyOp38
 70
     1
102
RTVSPropertyOp39
 70
     1
102
RTVSPropertyOp40
 70
     1
102
RTVSPropertyOp41
 70
     1
102
RTVSPropertyOp42
 70
     1
102
RTVSPropertyOp43
 70
     1
102
RTVSPropertyOp44
 70
     1
102
RTVSPropertyOp45
 70
     1
102
RTVSPropertyOp46
 70
     1
102
RTVSPropertyOp47
 70
     1
102
RTVSPropertyOp48
 70
     1
102
RTVSPropertyOp49
 70
     1
102
RTVSPropertyOp50
 70
     1
102
RTVSPropertyOp51
 70
     0
102
RTVSPropertyOp52
 70
     0
102
RTVSPropertyOp53
 70
     1
102
RTVSPropertyOp54
 70
     1
102
RTVSPropertyOp55
 70
     1
102
RTVSPropertyOp56
 70
     1
102
RTVSPropertyOp57
 70
     1
102
RTVSPost2010Prop28
280
     0
102
RTVSPost2010PropOp28
 70
     1
102
RTVSPost2010Prop29
280
     1
102
RTVSPost2010PropOp29
 70
     1
102
RTVSPost2010Prop30
280
     1
102
RTVSPost2010PropOp30
 70
     1
102
RTVSPost2010Prop31
280
     0
102
RTVSPost2010PropOp31
 70
     1
102
RTVSPost2010Prop32
280
     0
102
RTVSPost2010PropOp32
 70
     1
102
RTVSPost2010Prop33
280
     0
102
RTVSPost2010PropOp33
 70
     1
102
RTVSPost2010Prop34
280
     0
102
RTVSPost2010PropOp34
 70
     1
102
RTVSPost2010Prop35
280
     0
102
RTVSPost2010PropOp35
 70
     1
102
RTVSPost2010Prop36
280
     0
102
RTVSPost2010PropOp36
 70
     1
102
RTVSPost2010Prop37
 90
       50
102
RTVSPost2010PropOp37
 70
     1
102
RTVSPost2010Prop38
140
0.0
102
RTVSPost2010PropOp38
 70
     1
102
RTVSPost2010Prop39
140
1.0
102
RTVSPost2010PropOp39
 70
     1
102
RTVSPost2010Prop40
 90
        0
102
RTVSPost2010PropOp40
 70
     1
102
RTVSPost2010Prop41ColorIndex
 90
       18
102
RTVSPost2010Prop41ColorRGB
 90
        0
102
RTVSPost2010PropOp41
 70
     1
102
RTVSPost2010Prop42
 90
       50
102
RTVSPost2010PropOp42
 70
     1
102
RTVSPost2010Prop43
 90
        3
102
RTVSPost2010PropOp43
 70
     1
102
RTVSPost2010Prop44ColorIndex
 90
        5
102
RTVSPost2010Prop44ColorRGB
 90
      255
102
RTVSPost2010PropOp44
 70
     1
102
RTVSPost2010Prop45
280
     0
102
RTVSPost2010PropOp45
 70
     1
102
RTVSPost2010Prop46
 90
       50
102
RTVSPost2010PropOp46
 70
     1
102
RTVSPost2010Prop47
 90
       50
102
RTVSPost2010PropOp47
 70
     1
102
RTVSPost2010Prop48
 90
       50
102
RTVSPost2010PropOp48
 70
     1
102
RTVSPost2010Prop49
280
     0
102
RTVSPost2010PropOp49
 70
     1
102
RTVSPost2010Prop50
 90
       50
102
RTVSPost2010PropOp50
 70
     1
102
RTVSPost2010Prop51ColorIndex
 90
      256
102
RTVSPost2010Prop51ColorRGB
 90
-16777216
102
RTVSPost2010PropOp51
 70
     0
102
RTVSPost2010Prop52
140
1.0
102
RTVSPost2010PropOp52
 70
     0
102
RTVSPost2010Prop53
 90
        2
102
RTVSPost2010PropOp53
 70
     1
102
RTVSPost2010Prop54
  1
strokes_ogs.tif
102
RTVSPost2010PropOp54
 70
     1
102
RTVSPost2010Prop55
280
     0
102
RTVSPost2010PropOp55
 70
     1
102
RTVSPost2010Prop56
140
1.0
102
RTVSPost2010PropOp56
 70
     1
102
RTVSPost2010Prop57
140
1.0
102
RTVSPost2010PropOp57
 70
     1
  0
XRECORD
  5
22E
102
{ACAD_REACTORS
330
22D
102
}
330
22D
100
AcDbXrecord
280
     1
102
RTVSPropertyOp0
 70
     1
102
RTVSPropertyOp1
 70
     1
102
RTVSPropertyOp2
 70
     1
102
RTVSPropertyOp3
 70
     1
102
RTVSPropertyOp4
 70
     1
102
RTVSPropertyOp5
 70
     1
102
RTVSPropertyOp6
 70
     1
102
RTVSPropertyOp7
 70
     1
102
RTVSPropertyOp8
 70
     1
102
RTVSPropertyOp9
 70
     1
102
RTVSPropertyOp10
 70
     1
102
RTVSPropertyOp11
 70
     1
102
RTVSPropertyOp12
 70
     1
102
RTVSPropertyOp13
 70
     1
102
RTVSPropertyOp14
 70
     1
102
RTVSPropertyOp15
 70
     1
102
RTVSPropertyOp16
 70
     1
102
RTVSPropertyOp17
 70
     1
102
RTVSPropertyOp18
 70
     1
102
RTVSPropertyOp19
 70
     1
102
RTVSPropertyOp20
 70
     1
102
RTVSPropertyOp21
 70
     1
102
RTVSPropertyOp22
 70
     1
102
RTVSPropertyOp23
 70
     1
102
RTVSPropertyOp24
 70
     1
102
RTVSPropertyOp25
 70
     1
102
RTVSPropertyOp26
 70
     1
102
RTVSPropertyOp27
 70
     1
102
RTVSPropertyOp28
 70
     1
102
RTVSPropertyOp29
 70
     1
102
RTVSPropertyOp30
 70
     1
102
RTVSPropertyOp31
 70
     1
102
RTVSPropertyOp32
 70
     1
102
RTVSPropertyOp33
 70
     1
102
RTVSPropertyOp34
 70
     1
102
RTVSPropertyOp35
 70
     1
102
RTVSPropertyOp36
 70
     1
102
RTVSPropertyOp37
 70
     1
102
RTVSPropertyOp38
 70
     1
102
RTVSPropertyOp39
 70
     1
102
RTVSPropertyOp40
 70
     1
102
RTVSPropertyOp41
 70
     1
102
RTVSPropertyOp42
 70
     1
102
RTVSPropertyOp43
 70
     1
102
RTVSPropertyOp44
 70
     1
102
RTVSPropertyOp45
 70
     1
102
RTVSPropertyOp46
 70
     1
102
RTVSPropertyOp47
 70
     1
102
RTVSPropertyOp48
 70
     1
102
RTVSPropertyOp49
 70
     1
102
RTVSPropertyOp50
 70
     1
102
RTVSPropertyOp51
 70
     0
102
RTVSPropertyOp52
 70
     0
102
RTVSPropertyOp53
 70
     1
102
RTVSPropertyOp54
 70
     1
102
RTVSPropertyOp55
 70
     1
102
RTVSPropertyOp56
 70
     1
102
RTVSPropertyOp57
 70
     1
102
RTVSPost2010Prop28
280
     0
102
RTVSPost2010PropOp28
 70
     1
102
RTVSPost2010Prop29
280
     1
102
RTVSPost2010PropOp29
 70
     1
102
RTVSPost2010Prop30
280
     1
102
RTVSPost2010PropOp30
 70
     1
102
RTVSPost2010Prop31
280
     0
102
RTVSPost2010PropOp31
 70
     1
102
RTVSPost2010Prop32
280
     0
102
RTVSPost2010PropOp32
 70
     1
102
RTVSPost2010Prop33
280
     0
102
RTVSPost2010PropOp33
 70
     1
102
RTVSPost2010Prop34
280
     0
102
RTVSPost2010PropOp34
 70
     1
102
RTVSPost2010Prop35
280
     0
102
RTVSPost2010PropOp35
 70
     1
102
RTVSPost2010Prop36
280
     0
102
RTVSPost2010PropOp36
 70
     1
102
RTVSPost2010Prop37
 90
       50
102
RTVSPost2010PropOp37
 70
     1
102
RTVSPost2010Prop38
140
0.0
102
RTVSPost2010PropOp38
 70
     1
102
RTVSPost2010Prop39
140
1.0
102
RTVSPost2010PropOp39
 70
     1
102
RTVSPost2010Prop40
 90
        0
102
RTVSPost2010PropOp40
 70
     1
102
RTVSPost2010Prop41ColorIndex
 90
       18
102
RTVSPost2010Prop41ColorRGB
 90
        0
102
RTVSPost2010PropOp41
 70
     1
102
RTVSPost2010Prop42
 90
       50
102
RTVSPost2010PropOp42
 70
     1
102
RTVSPost2010Prop43
 90
        3
102
RTVSPost2010PropOp43
 70
     1
102
RTVSPost2010Prop44ColorIndex
 90
        5
102
RTVSPost2010Prop44ColorRGB
 90
      255
102
RTVSPost2010PropOp44
 70
     1
102
RTVSPost2010Prop45
280
     0
102
RTVSPost2010PropOp45
 70
     1
102
RTVSPost2010Prop46
 90
       50
102
RTVSPost2010PropOp46
 70
     1
102
RTVSPost2010Prop47
 90
       50
102
RTVSPost2010PropOp47
 70
     1
102
RTVSPost2010Prop48
 90
       50
102
RTVSPost2010PropOp48
 70
     1
102
RTVSPost2010Prop49
280
     0
102
RTVSPost2010PropOp49
 70
     1
102
RTVSPost2010Prop50
 90
       50
102
RTVSPost2010PropOp50
 70
     1
102
RTVSPost2010Prop51ColorIndex
 90
      256
102
RTVSPost2010Prop51ColorRGB
 90
-16777216
102
RTVSPost2010PropOp51
 70
     0
102
RTVSPost2010Prop52
140
1.0
102
RTVSPost2010PropOp52
 70
     0
102
RTVSPost2010Prop53
 90
        2
102
RTVSPost2010PropOp53
 70
     1
102
RTVSPost2010Prop54
  1
strokes_ogs.tif
102
RTVSPost2010PropOp54
 70
     1
102
RTVSPost2010Prop55
280
     0
102
RTVSPost2010PropOp55
 70
     1
102
RTVSPost2010Prop56
140
1.0
102
RTVSPost2010PropOp56
 70
     1
102
RTVSPost2010Prop57
140
1.0
102
RTVSPost2010PropOp57
 70
     1
  0
XRECORD
  5
220
102
{ACAD_REACTORS
330
21F
102
}
330
21F
100
AcDbXrecord
280
     1
102
RTVSPropertyOp0
 70
     1
102
RTVSPropertyOp1
 70
     1
102
RTVSPropertyOp2
 70
     1
102
RTVSPropertyOp3
 70
     1
102
RTVSPropertyOp4
 70
     1
102
RTVSPropertyOp5
 70
     1
102
RTVSPropertyOp6
 70
     1
102
RTVSPropertyOp7
 70
     1
102
RTVSPropertyOp8
 70
     1
102
RTVSPropertyOp9
 70
     1
102
RTVSPropertyOp10
 70
     1
102
RTVSPropertyOp11
 70
     1
102
RTVSPropertyOp12
 70
     1
102
RTVSPropertyOp13
 70
     1
102
RTVSPropertyOp14
 70
     1
102
RTVSPropertyOp15
 70
     1
102
RTVSPropertyOp16
 70
     1
102
RTVSPropertyOp17
 70
     1
102
RTVSPropertyOp18
 70
     1
102
RTVSPropertyOp19
 70
     1
102
RTVSPropertyOp20
 70
     1
102
RTVSPropertyOp21
 70
     1
102
RTVSPropertyOp22
 70
     1
102
RTVSPropertyOp23
 70
     1
102
RTVSPropertyOp24
 70
     1
102
RTVSPropertyOp25
 70
     1
102
RTVSPropertyOp26
 70
     1
102
RTVSPropertyOp27
 70
     1
102
RTVSPropertyOp28
 70
     1
102
RTVSPropertyOp29
 70
     1
102
RTVSPropertyOp30
 70
     1
102
RTVSPropertyOp31
 70
     1
102
RTVSPropertyOp32
 70
     1
102
RTVSPropertyOp33
 70
     1
102
RTVSPropertyOp34
 70
     1
102
RTVSPropertyOp35
 70
     1
102
RTVSPropertyOp36
 70
     1
102
RTVSPropertyOp37
 70
     1
102
RTVSPropertyOp38
 70
     1
102
RTVSPropertyOp39
 70
     1
102
RTVSPropertyOp40
 70
     1
102
RTVSPropertyOp41
 70
     1
102
RTVSPropertyOp42
 70
     1
102
RTVSPropertyOp43
 70
     1
102
RTVSPropertyOp44
 70
     1
102
RTVSPropertyOp45
 70
     1
102
RTVSPropertyOp46
 70
     1
102
RTVSPropertyOp47
 70
     1
102
RTVSPropertyOp48
 70
     1
102
RTVSPropertyOp49
 70
     1
102
RTVSPropertyOp50
 70
     1
102
RTVSPropertyOp51
 70
     0
102
RTVSPropertyOp52
 70
     0
102
RTVSPropertyOp53
 70
     1
102
RTVSPropertyOp54
 70
     1
102
RTVSPropertyOp55
 70
     1
102
RTVSPropertyOp56
 70
     1
102
RTVSPropertyOp57
 70
     1
102
RTVSPost2010Prop28
280
     0
102
RTVSPost2010PropOp28
 70
     1
102
RTVSPost2010Prop29
280
     1
102
RTVSPost2010PropOp29
 70
     1
102
RTVSPost2010Prop30
280
     1
102
RTVSPost2010PropOp30
 70
     1
102
RTVSPost2010Prop31
280
     0
102
RTVSPost2010PropOp31
 70
     1
102
RTVSPost2010Prop32
280
     0
102
RTVSPost2010PropOp32
 70
     1
102
RTVSPost2010Prop33
280
     0
102
RTVSPost2010PropOp33
 70
     1
102
RTVSPost2010Prop34
280
     0
102
RTVSPost2010PropOp34
 70
     1
102
RTVSPost2010Prop35
280
     0
102
RTVSPost2010PropOp35
 70
     1
102
RTVSPost2010Prop36
280
     0
102
RTVSPost2010PropOp36
 70
     1
102
RTVSPost2010Prop37
 90
       50
102
RTVSPost2010PropOp37
 70
     1
102
RTVSPost2010Prop38
140
0.0
102
RTVSPost2010PropOp38
 70
     1
102
RTVSPost2010Prop39
140
1.0
102
RTVSPost2010PropOp39
 70
     1
102
RTVSPost2010Prop40
 90
        0
102
RTVSPost2010PropOp40
 70
     1
102
RTVSPost2010Prop41ColorIndex
 90
       18
102
RTVSPost2010Prop41ColorRGB
 90
        0
102
RTVSPost2010PropOp41
 70
     1
102
RTVSPost2010Prop42
 90
       50
102
RTVSPost2010PropOp42
 70
     1
102
RTVSPost2010Prop43
 90
        3
102
RTVSPost2010PropOp43
 70
     1
102
RTVSPost2010Prop44ColorIndex
 90
        5
102
RTVSPost2010Prop44ColorRGB
 90
      255
102
RTVSPost2010PropOp44
 70
     1
102
RTVSPost2010Prop45
280
     0
102
RTVSPost2010PropOp45
 70
     1
102
RTVSPost2010Prop46
 90
       50
102
RTVSPost2010PropOp46
 70
     1
102
RTVSPost2010Prop47
 90
       50
102
RTVSPost2010PropOp47
 70
     1
102
RTVSPost2010Prop48
 90
       50
102
RTVSPost2010PropOp48
 70
     1
102
RTVSPost2010Prop49
280
     0
102
RTVSPost2010PropOp49
 70
     1
102
RTVSPost2010Prop50
 90
       50
102
RTVSPost2010PropOp50
 70
     1
102
RTVSPost2010Prop51ColorIndex
 90
      256
102
RTVSPost2010Prop51ColorRGB
 90
-16777216
102
RTVSPost2010PropOp51
 70
     0
102
RTVSPost2010Prop52
140
1.0
102
RTVSPost2010PropOp52
 70
     0
102
RTVSPost2010Prop53
 90
        2
102
RTVSPost2010PropOp53
 70
     1
102
RTVSPost2010Prop54
  1
strokes_ogs.tif
102
RTVSPost2010PropOp54
 70
     1
102
RTVSPost2010Prop55
280
     0
102
RTVSPost2010PropOp55
 70
     1
102
RTVSPost2010Prop56
140
1.0
102
RTVSPost2010PropOp56
 70
     1
102
RTVSPost2010Prop57
140
1.0
102
RTVSPost2010PropOp57
 70
     1
  0
XRECORD
  5
240
102
{ACAD_REACTORS
330
23F
102
}
330
23F
100
AcDbXrecord
280
     1
102
RTVSPropertyOp0
 70
     1
102
RTVSPropertyOp1
 70
     1
102
RTVSPropertyOp2
 70
     1
102
RTVSPropertyOp3
 70
     1
102
RTVSPropertyOp4
 70
     1
102
RTVSPropertyOp5
 70
     1
102
RTVSPropertyOp6
 70
     1
102
RTVSPropertyOp7
 70
     1
102
RTVSPropertyOp8
 70
     1
102
RTVSPropertyOp9
 70
     1
102
RTVSPropertyOp10
 70
     1
102
RTVSPropertyOp11
 70
     1
102
RTVSPropertyOp12
 70
     1
102
RTVSPropertyOp13
 70
     1
102
RTVSPropertyOp14
 70
     1
102
RTVSPropertyOp15
 70
     1
102
RTVSPropertyOp16
 70
     1
102
RTVSPropertyOp17
 70
     1
102
RTVSPropertyOp18
 70
     1
102
RTVSPropertyOp19
 70
     1
102
RTVSPropertyOp20
 70
     1
102
RTVSPropertyOp21
 70
     1
102
RTVSPropertyOp22
 70
     1
102
RTVSPropertyOp23
 70
     1
102
RTVSPropertyOp24
 70
     1
102
RTVSPropertyOp25
 70
     1
102
RTVSPropertyOp26
 70
     1
102
RTVSPropertyOp27
 70
     1
102
RTVSPropertyOp28
 70
     1
102
RTVSPropertyOp29
 70
     1
102
RTVSPropertyOp30
 70
     1
102
RTVSPropertyOp31
 70
     1
102
RTVSPropertyOp32
 70
     1
102
RTVSPropertyOp33
 70
     1
102
RTVSPropertyOp34
 70
     1
102
RTVSPropertyOp35
 70
     1
102
RTVSPropertyOp36
 70
     1
102
RTVSPropertyOp37
 70
     1
102
RTVSPropertyOp38
 70
     1
102
RTVSPropertyOp39
 70
     1
102
RTVSPropertyOp40
 70
     1
102
RTVSPropertyOp41
 70
     1
102
RTVSPropertyOp42
 70
     1
102
RTVSPropertyOp43
 70
     1
102
RTVSPropertyOp44
 70
     1
102
RTVSPropertyOp45
 70
     1
102
RTVSPropertyOp46
 70
     1
102
RTVSPropertyOp47
 70
     1
102
RTVSPropertyOp48
 70
     1
102
RTVSPropertyOp49
 70
     1
102
RTVSPropertyOp50
 70
     1
102
RTVSPropertyOp51
 70
     0
102
RTVSPropertyOp52
 70
     0
102
RTVSPropertyOp53
 70
     1
102
RTVSPropertyOp54
 70
     1
102
RTVSPropertyOp55
 70
     1
102
RTVSPropertyOp56
 70
     1
102
RTVSPropertyOp57
 70
     1
102
RTVSPost2010Prop28
280
     0
102
RTVSPost2010PropOp28
 70
     1
102
RTVSPost2010Prop29
280
     1
102
RTVSPost2010PropOp29
 70
     1
102
RTVSPost2010Prop30
280
     1
102
RTVSPost2010PropOp30
 70
     1
102
RTVSPost2010Prop31
280
     0
102
RTVSPost2010PropOp31
 70
     1
102
RTVSPost2010Prop32
280
     0
102
RTVSPost2010PropOp32
 70
     1
102
RTVSPost2010Prop33
280
     0
102
RTVSPost2010PropOp33
 70
     1
102
RTVSPost2010Prop34
280
     0
102
RTVSPost2010PropOp34
 70
     1
102
RTVSPost2010Prop35
280
     0
102
RTVSPost2010PropOp35
 70
     1
102
RTVSPost2010Prop36
280
     0
102
RTVSPost2010PropOp36
 70
     1
102
RTVSPost2010Prop37
 90
       50
102
RTVSPost2010PropOp37
 70
     1
102
RTVSPost2010Prop38
140
0.0
102
RTVSPost2010PropOp38
 70
     1
102
RTVSPost2010Prop39
140
1.0
102
RTVSPost2010PropOp39
 70
     1
102
RTVSPost2010Prop40
 90
        0
102
RTVSPost2010PropOp40
 70
     1
102
RTVSPost2010Prop41ColorIndex
 90
       18
102
RTVSPost2010Prop41ColorRGB
 90
        0
102
RTVSPost2010PropOp41
 70
     1
102
RTVSPost2010Prop42
 90
       50
102
RTVSPost2010PropOp42
 70
     1
102
RTVSPost2010Prop43
 90
        3
102
RTVSPost2010PropOp43
 70
     1
102
RTVSPost2010Prop44ColorIndex
 90
        5
102
RTVSPost2010Prop44ColorRGB
 90
      255
102
RTVSPost2010PropOp44
 70
     1
102
RTVSPost2010Prop45
280
     0
102
RTVSPost2010PropOp45
 70
     1
102
RTVSPost2010Prop46
 90
       50
102
RTVSPost2010PropOp46
 70
     1
102
RTVSPost2010Prop47
 90
       50
102
RTVSPost2010PropOp47
 70
     1
102
RTVSPost2010Prop48
 90
       50
102
RTVSPost2010PropOp48
 70
     1
102
RTVSPost2010Prop49
280
     0
102
RTVSPost2010PropOp49
 70
     1
102
RTVSPost2010Prop50
 90
       50
102
RTVSPost2010PropOp50
 70
     1
102
RTVSPost2010Prop51ColorIndex
 90
      256
102
RTVSPost2010Prop51ColorRGB
 90
-16777216
102
RTVSPost2010PropOp51
 70
     0
102
RTVSPost2010Prop52
140
1.0
102
RTVSPost2010PropOp52
 70
     0
102
RTVSPost2010Prop53
 90
        2
102
RTVSPost2010PropOp53
 70
     1
102
RTVSPost2010Prop54
  1
strokes_ogs.tif
102
RTVSPost2010PropOp54
 70
     1
102
RTVSPost2010Prop55
280
     0
102
RTVSPost2010PropOp55
 70
     1
102
RTVSPost2010Prop56
140
1.0
102
RTVSPost2010PropOp56
 70
     1
102
RTVSPost2010Prop57
140
1.0
102
RTVSPost2010PropOp57
 70
     1
  0
ENDSEC
  0
EOF
