  0
SECTION
  2
HEADER
  9
$ACADVER
  1
AC1015
  9
$ACADMAINTVER
 70
     6
  9
$DWGCODEPAGE
  3
ANSI_1252
  9
$INSBASE
 10
0.0
 20
0.0
 30
0.0
  9
$EXTMIN
 10
-89.729164
 20
-212.081085
 30
0.0
  9
$EXTMAX
 10
512.623474
 20
432.933563
 30
0.0
  9
$LIMMIN
 10
-89.729164
 20
-212.081085
  9
$LIMMAX
 10
512.623474
 20
432.933563
  9
$ORTHOMODE
 70
     0
  9
$REGENMODE
 70
     1
  9
$FILLMODE
 70
     1
  9
$QTEXTMODE
 70
     0
  9
$MIRRTEXT
 70
     1
  9
$LTSCALE
 40
1.0
  9
$ATTMODE
 70
     1
  9
$TEXTSIZE
 40
2.5
  9
$TRACEWID
 40
1.0
  9
$TEXTSTYLE
  7
Standard
  9
$CLAYER
  8
0
  9
$CELTYPE
  6
ByLayer
  9
$CECOLOR
 62
   256
  9
$CELTSCALE
 40
1.0
  9
$DISPSILH
 70
     0
  9
$DIMSCALE
 40
1.0
  9
$DIMASZ
 40
2.5
  9
$DIMEXO
 40
0.625
  9
$DIMDLI
 40
3.75
  9
$DIMRND
 40
0.0
  9
$DIMDLE
 40
0.0
  9
$DIMEXE
 40
1.25
  9
$DIMTP
 40
0.0
  9
$DIMTM
 40
0.0
  9
$DIMTXT
 40
2.5
  9
$DIMCEN
 40
2.5
  9
$DIMTSZ
 40
0.0
  9
$DIMTOL
 70
     0
  9
$DIMLIM
 70
     0
  9
$DIMTIH
 70
     0
  9
$DIMTOH
 70
     0
  9
$DIMSE1
 70
     0
  9
$DIMSE2
 70
     0
  9
$DIMTAD
 70
     1
  9
$DIMZIN
 70
     8
  9
$DIMBLK
  1

  9
$DIMASO
 70
     1
  9
$DIMSHO
 70
     1
  9
$DIMPOST
  1

  9
$DIMAPOST
  1

  9
$DIMALT
 70
     0
  9
$DIMALTD
 70
     3
  9
$DIMALTF
 40
0.03937
  9
$DIMLFAC
 40
1.0
  9
$DIMTOFL
 70
     1
  9
$DIMTVP
 40
0.0
  9
$DIMTIX
 70
     0
  9
$DIMSOXD
 70
     0
  9
$DIMSAH
 70
     0
  9
$DIMBLK1
  1

  9
$DIMBLK2
  1

  9
$DIMSTYLE
  2
ISO-25
  9
$DIMCLRD
 70
     0
  9
$DIMCLRE
 70
     0
  9
$DIMCLRT
 70
     0
  9
$DIMTFAC
 40
1.0
  9
$DIMGAP
 40
0.625
  9
$DIMJUST
 70
     0
  9
$DIMSD1
 70
     0
  9
$DIMSD2
 70
     0
  9
$DIMTOLJ
 70
     0
  9
$DIMTZIN
 70
     8
  9
$DIMALTZ
 70
     0
  9
$DIMALTTZ
 70
     0
  9
$DIMUPT
 70
     0
  9
$DIMDEC
 70
     2
  9
$DIMTDEC
 70
     2
  9
$DIMALTU
 70
     2
  9
$DIMALTTD
 70
     3
  9
$DIMTXSTY
  7
Standard
  9
$DIMAUNIT
 70
     0
  9
$DIMADEC
 70
     0
  9
$DIMALTRND
 40
0.0
  9
$DIMAZIN
 70
     0
  9
$DIMDSEP
 70
    44
  9
$DIMATFIT
 70
     3
  9
$DIMFRAC
 70
     0
  9
$DIMLDRBLK
  1

  9
$DIMLUNIT
 70
     2
  9
$DIMLWD
 70
    -2
  9
$DIMLWE
 70
    -2
  9
$DIMTMOVE
 70
     0
  9
$LUNITS
 70
     2
  9
$LUPREC
 70
     4
  9
$SKETCHINC
 40
1.0
  9
$FILLETRAD
 40
10.0
  9
$AUNITS
 70
     0
  9
$AUPREC
 70
     0
  9
$MENU
  1
.
  9
$ELEVATION
 40
0.0
  9
$PELEVATION
 40
0.0
  9
$THICKNESS
 40
0.0
  9
$LIMCHECK
 70
     0
  9
$CHAMFERA
 40
0.0
  9
$CHAMFERB
 40
0.0
  9
$CHAMFERC
 40
0.0
  9
$CHAMFERD
 40
0.0
  9
$SKPOLY
 70
     0
  9
$TDCREATE
 40
2459104.406144676
  9
$TDUCREATE
 40
2459104.322811343
  9
$TDUPDATE
 40
2459104.40614522
  9
$TDUUPDATE
 40
2459104.322811887
  9
$TDINDWG
 40
0.0000000116
  9
$TDUSRTIMER
 40
0.0000000116
  9
$USRTIMER
 70
     1
  9
$ANGBASE
 50
0.0
  9
$ANGDIR
 70
     0
  9
$PDMODE
 70
     0
  9
$PDSIZE
 40
0.0
  9
$PLINEWID
 40
0.0
  9
$SPLFRAME
 70
     0
  9
$SPLINETYPE
 70
     6
  9
$SPLINESEGS
 70
     8
  9
$HANDSEED
  5
1EA
  9
$SURFTAB1
 70
     6
  9
$SURFTAB2
 70
     6
  9
$SURFTYPE
 70
     6
  9
$SURFU
 70
     6
  9
$SURFV
 70
     6
  9
$UCSBASE
  2

  9
$UCSNAME
  2

  9
$UCSORG
 10
0.0
 20
0.0
 30
0.0
  9
$UCSXDIR
 10
1.0
 20
0.0
 30
0.0
  9
$UCSYDIR
 10
0.0
 20
1.0
 30
0.0
  9
$UCSORTHOREF
  2

  9
$UCSORTHOVIEW
 70
     0
  9
$UCSORGTOP
 10
0.0
 20
0.0
 30
0.0
  9
$UCSORGBOTTOM
 10
0.0
 20
0.0
 30
0.0
  9
$UCSORGLEFT
 10
0.0
 20
0.0
 30
0.0
  9
$UCSORGRIGHT
 10
0.0
 20
0.0
 30
0.0
  9
$UCSORGFRONT
 10
0.0
 20
0.0
 30
0.0
  9
$UCSORGBACK
 10
0.0
 20
0.0
 30
0.0
  9
$PUCSBASE
  2

  9
$PUCSNAME
  2

  9
$PUCSORG
 10
0.0
 20
0.0
 30
0.0
  9
$PUCSXDIR
 10
1.0
 20
0.0
 30
0.0
  9
$PUCSYDIR
 10
0.0
 20
1.0
 30
0.0
  9
$PUCSORTHOREF
  2

  9
$PUCSORTHOVIEW
 70
     0
  9
$PUCSORGTOP
 10
0.0
 20
0.0
 30
0.0
  9
$PUCSORGBOTTOM
 10
0.0
 20
0.0
 30
0.0
  9
$PUCSORGLEFT
 10
0.0
 20
0.0
 30
0.0
  9
$PUCSORGRIGHT
 10
0.0
 20
0.0
 30
0.0
  9
$PUCSORGFRONT
 10
0.0
 20
0.0
 30
0.0
  9
$PUCSORGBACK
 10
0.0
 20
0.0
 30
0.0
  9
$USERI1
 70
     0
  9
$USERI2
 70
     0
  9
$USERI3
 70
     0
  9
$USERI4
 70
     0
  9
$USERI5
 70
     0
  9
$USERR1
 40
0.0
  9
$USERR2
 40
0.0
  9
$USERR3
 40
0.0
  9
$USERR4
 40
0.0
  9
$USERR5
 40
0.0
  9
$WORLDVIEW
 70
     1
  9
$SHADEDGE
 70
     3
  9
$SHADEDIF
 70
    70
  9
$TILEMODE
 70
     1
  9
$MAXACTVP
 70
    64
  9
$PINSBASE
 10
0.0
 20
0.0
 30
0.0
  9
$PLIMCHECK
 70
     0
  9
$PEXTMIN
 10
1.000000E+20
 20
1.000000E+20
 30
1.000000E+20
  9
$PEXTMAX
 10
-1.000000E+20
 20
-1.000000E+20
 30
-1.000000E+20
  9
$PLIMMIN
 10
0.0
 20
0.0
  9
$PLIMMAX
 10
420.0
 20
297.0
  9
$UNITMODE
 70
     0
  9
$VISRETAIN
 70
     1
  9
$PLINEGEN
 70
     0
  9
$PSLTSCALE
 70
     1
  9
$TREEDEPTH
 70
  3020
  9
$CMLSTYLE
  2
Standard
  9
$CMLJUST
 70
     0
  9
$CMLSCALE
 40
20.0
  9
$PROXYGRAPHICS
 70
     1
  9
$MEASUREMENT
 70
     1
  9
$CELWEIGHT
370
    -1
  9
$ENDCAPS
280
     0
  9
$JOINSTYLE
280
     0
  9
$LWDISPLAY
290
     0
  9
$INSUNITS
 70
     4
  9
$HYPERLINKBASE
  1

  9
$STYLESHEET
  1

  9
$XEDIT
290
     1
  9
$CEPSNTYPE
380
     0
  9
$PSTYLEMODE
290
     1
  9
$FINGERPRINTGUID
  2
{2bcccfd1-f103-4abe-8942-84741b1c5582}
  9
$VERSIONGUID
  2
{FAEB1C32-E019-11D5-929B-00C0DF256EC4}
  9
$EXTNAMES
290
     1
  9
$PSVPSCALE
 40
0.0
  9
$OLESTARTUP
290
     0
  0
ENDSEC
  0
SECTION
  2
CLASSES
  0
CLASS
  1
ACDBDICTIONARYWDFLT
  2
AcDbDictionaryWithDefault
  3
ObjectDBX Classes
 90
        0
280
     0
281
     0
  0
CLASS
  1
VISUALSTYLE
  2
AcDbVisualStyle
  3
ObjectDBX Classes
 90
     4095
280
     0
281
     0
  0
CLASS
  1
MATERIAL
  2
AcDbMaterial
  3
ObjectDBX Classes
 90
     1153
280
     0
281
     0
  0
CLASS
  1
SCALE
  2
AcDbScale
  3
ObjectDBX Classes
 90
     1153
280
     0
281
     0
  0
CLASS
  1
TABLESTYLE
  2
AcDbTableStyle
  3
ObjectDBX Classes
 90
     4095
280
     0
281
     0
  0
CLASS
  1
MLEADERSTYLE
  2
AcDbMLeaderStyle
  3
ACDB_MLEADERSTYLE_CLASS
 90
     4095
280
     0
281
     0
  0
CLASS
  1
SUN
  2
AcDbSun
  3
SCENEOE
 90
     1153
280
     0
281
     0
  0
CLASS
  1
DICTIONARYVAR
  2
AcDbDictionaryVar
  3
ObjectDBX Classes
 90
        0
280
     0
281
     0
  0
CLASS
  1
ACDBPLACEHOLDER
  2
AcDbPlaceHolder
  3
ObjectDBX Classes
 90
        0
280
     0
281
     0
  0
CLASS
  1
LAYOUT
  2
AcDbLayout
  3
ObjectDBX Classes
 90
        0
280
     0
281
     0
  0
ENDSEC
  0
SECTION
  2
TABLES
  0
TABLE
  2
VPORT
  5
8
102
{ACAD_XDICTIONARY
360
1AD
102
}
330
0
100
AcDbSymbolTable
 70
     1
  0
VPORT
  5
29
330
8
100
AcDbSymbolTableRecord
100
AcDbViewportTableRecord
  2
*Active
 70
     0
 10
0.0
 20
0.0
 11
1.0
 21
1.0
 12
344.186916
 22
148.5
 13
0.0
 23
0.0
 14
10.0
 24
10.0
 15
10.0
 25
10.0
 16
0.0
 26
0.0
 36
1.0
 17
0.0
 27
0.0
 37
0.0
 40
297.0
 41
1.972973
 42
50.0
 43
0.0
 44
0.0
 50
0.0
 51
0.0
 71
     0
 72
   100
 73
     1
 74
     3
 75
     0
 76
     0
 77
     0
 78
     0
281
     0
 65
     1
110
0.0
120
0.0
130
0.0
111
1.0
121
0.0
131
0.0
112
0.0
122
1.0
132
0.0
 79
     0
146
0.0
  0
ENDTAB
  0
TABLE
  2
LTYPE
  5
5
330
0
100
AcDbSymbolTable
 70
     1
  0
LTYPE
  5
14
330
5
100
AcDbSymbolTableRecord
100
AcDbLinetypeTableRecord
  2
ByBlock
 70
     0
  3

 72
    65
 73
     0
 40
0.0
  0
LTYPE
  5
15
330
5
100
AcDbSymbolTableRecord
100
AcDbLinetypeTableRecord
  2
ByLayer
 70
     0
  3

 72
    65
 73
     0
 40
0.0
  0
LTYPE
  5
16
330
5
100
AcDbSymbolTableRecord
100
AcDbLinetypeTableRecord
  2
Continuous
 70
     0
  3
Solid line
 72
    65
 73
     0
 40
0.0
  0
ENDTAB
  0
TABLE
  2
LAYER
  5
2
330
0
100
AcDbSymbolTable
 70
     1
  0
LAYER
  5
10
330
2
100
AcDbSymbolTableRecord
100
AcDbLayerTableRecord
  2
0
 70
     0
 62
   106
  6
Continuous
370
     0
390
F
  0
ENDTAB
  0
TABLE
  2
STYLE
  5
3
330
0
100
AcDbSymbolTable
 70
     4
  0
STYLE
  5
11
330
3
100
AcDbSymbolTableRecord
100
AcDbTextStyleTableRecord
  2
Standard
 70
     0
 40
0.0
 41
1.0
 50
0.0
 71
     0
 42
2.5
  3
txt
  4

  0
STYLE
  5
6E
330
3
100
AcDbSymbolTableRecord
100
AcDbTextStyleTableRecord
  2
Default
 70
     0
 40
0.0
 41
1.0
 50
0.0
 71
     0
 42
2.5
  3

  4

1001
ACAD
1000
txt
1071
        0
  0
STYLE
  5
6F
330
3
100
AcDbSymbolTableRecord
100
AcDbTextStyleTableRecord
  2
ISO
 70
     0
 40
0.0
 41
1.0
 50
0.0
 71
     0
 42
2.5
  3

  4

1001
ACAD
1000
txt
1071
        0
  0
STYLE
  5
70
330
3
100
AcDbSymbolTableRecord
100
AcDbTextStyleTableRecord
  2
zucchetti
 70
     0
 40
0.0
 41
1.0
 50
0.0
 71
     0
 42
2.5
  3

  4

1001
ACAD
1000
Arial
1071
        0
  0
ENDTAB
  0
TABLE
  2
VIEW
  5
6
330
0
100
AcDbSymbolTable
 70
     0
  0
ENDTAB
  0
TABLE
  2
UCS
  5
7
330
0
100
AcDbSymbolTable
 70
     0
  0
ENDTAB
  0
TABLE
  2
APPID
  5
9
330
0
100
AcDbSymbolTable
 70
     2
  0
APPID
  5
12
330
9
100
AcDbSymbolTableRecord
100
AcDbRegAppTableRecord
  2
ACAD
 70
     0
  0
APPID
  5
1E7
330
9
100
AcDbSymbolTableRecord
100
AcDbRegAppTableRecord
  2
ACAD_MLEADERVER
 70
     0
  0
ENDTAB
  0
TABLE
  2
DIMSTYLE
  5
A
330
0
100
AcDbSymbolTable
 70
     4
100
AcDbDimStyleTable
  0
DIMSTYLE
105
27
330
A
100
AcDbSymbolTableRecord
100
AcDbDimStyleTableRecord
  2
ISO-25
 70
     0
 41
2.5
 42
0.625
 43
3.75
 44
1.25
 73
     0
 74
     0
 77
     1
 78
     8
140
2.5
141
2.5
143
0.03937
147
0.625
171
     3
172
     1
178
     0
271
     2
272
     2
274
     3
278
    44
283
     0
284
     8
340
11
  0
DIMSTYLE
105
71
330
A
100
AcDbSymbolTableRecord
100
AcDbDimStyleTableRecord
  2
Default
 70
     0
  3
<>
 41
4.375
 42
1.05
 44
2.1
 73
     0
 74
     0
 77
     1
 78
     8
140
3.5
146
0.4
147
1.75
172
     1
271
     2
178
     3
271
     2
272
     3
284
     8
340
6E
341
72
342
72
  0
DIMSTYLE
105
79
330
A
100
AcDbSymbolTableRecord
100
AcDbDimStyleTableRecord
  2
ISO
 70
     0
  3
<>
 41
4.375
 42
1.05
 44
2.1
 73
     0
 74
     0
 77
     1
 78
     8
140
3.5
146
0.4
147
1.75
172
     1
271
     2
178
     3
271
     2
272
     3
284
     8
340
6F
341
72
342
72
  0
DIMSTYLE
105
7A
330
A
100
AcDbSymbolTableRecord
100
AcDbDimStyleTableRecord
  2
zucchetti
 70
     0
  3
<>
 41
3.0
 42
0.9
 44
1.8
 73
     0
 74
     0
 77
     1
 78
     8
140
3.0
146
0.6
147
1.5
172
     1
176
     3
177
     3
271
     2
178
     3
271
     2
272
     2
284
     8
340
70
  0
ENDTAB
  0
TABLE
  2
BLOCK_RECORD
  5
1
330
0
100
AcDbSymbolTable
 70
     8
  0
BLOCK_RECORD
  5
1F
330
1
100
AcDbSymbolTableRecord
100
AcDbBlockTableRecord
  2
*Model_Space
340
22
  0
BLOCK_RECORD
  5
1B
330
1
100
AcDbSymbolTableRecord
100
AcDbBlockTableRecord
  2
*Paper_Space
340
1E
  0
BLOCK_RECORD
  5
23
330
1
100
AcDbSymbolTableRecord
100
AcDbBlockTableRecord
  2
*Paper_Space0
340
26
  0
BLOCK_RECORD
  5
72
330
1
100
AcDbSymbolTableRecord
100
AcDbBlockTableRecord
  2
_Closed
340
0
  0
BLOCK_RECORD
  5
7B
330
1
100
AcDbSymbolTableRecord
100
AcDbBlockTableRecord
  2
a
340
0
102
{BLKREFS
331
99
102
}
  0
BLOCK_RECORD
  5
9A
330
1
100
AcDbSymbolTableRecord
100
AcDbBlockTableRecord
  2
b
340
0
102
{BLKREFS
331
C9
102
}
  0
BLOCK_RECORD
  5
CA
330
1
100
AcDbSymbolTableRecord
100
AcDbBlockTableRecord
  2
c
340
0
102
{BLKREFS
331
FD
102
}
  0
BLOCK_RECORD
  5
FE
330
1
100
AcDbSymbolTableRecord
100
AcDbBlockTableRecord
  2
d
340
0
102
{BLKREFS
331
11C
102
}
  0
BLOCK_RECORD
  5
11D
330
1
100
AcDbSymbolTableRecord
100
AcDbBlockTableRecord
  2
e
340
0
102
{BLKREFS
331
162
102
}
  0
BLOCK_RECORD
  5
163
330
1
100
AcDbSymbolTableRecord
100
AcDbBlockTableRecord
  2
f
340
0
102
{BLKREFS
331
1A1
102
}
  0
ENDTAB
  0
ENDSEC
  0
SECTION
  2
BLOCKS
  0
BLOCK
  5
20
330
1F
100
AcDbEntity
  8
0
100
AcDbBlockBegin
  2
*Model_Space
 70
     0
 10
0.0
 20
0.0
 30
0.0
  3
*Model_Space
  1

  0
ENDBLK
  5
21
330
1F
100
AcDbEntity
  8
0
100
AcDbBlockEnd
  0
BLOCK
  5
1C
330
1B
100
AcDbEntity
 67
     1
  8
0
100
AcDbBlockBegin
  2
*Paper_Space
 70
     0
 10
0.0
 20
0.0
 30
0.0
  3
*Paper_Space
  1

  0
ENDBLK
  5
1D
330
1B
100
AcDbEntity
 67
     1
  8
0
100
AcDbBlockEnd
  0
BLOCK
  5
24
330
23
100
AcDbEntity
  8
0
100
AcDbBlockBegin
  2
*Paper_Space0
 70
     0
 10
0.0
 20
0.0
 30
0.0
  3
*Paper_Space0
  1

  0
ENDBLK
  5
25
330
23
100
AcDbEntity
  8
0
100
AcDbBlockEnd
  0
BLOCK
  5
73
330
72
100
AcDbEntity
  8
0
100
AcDbBlockBegin
  2
_Closed
 70
     0
 10
0.0
 20
0.0
 30
0.0
  3
_Closed
  1

  0
LINE
  5
75
330
72
100
AcDbEntity
  8
0
  6
ByBlock
 62
     0
370
    -2
100
AcDbLine
 10
-1.0
 20
0.166667
 30
0.0
 11
0.0
 21
0.0
 31
0.0
  0
LINE
  5
76
330
72
100
AcDbEntity
  8
0
  6
ByBlock
 62
     0
370
    -2
100
AcDbLine
 10
0.0
 20
0.0
 30
0.0
 11
-1.0
 21
-0.166667
 31
0.0
  0
LINE
  5
77
330
72
100
AcDbEntity
  8
0
  6
ByBlock
 62
     0
370
    -2
100
AcDbLine
 10
-1.0
 20
0.166667
 30
0.0
 11
-1.0
 21
-0.166667
 31
0.0
  0
LINE
  5
78
330
72
100
AcDbEntity
  8
0
  6
ByBlock
 62
     0
370
    -2
100
AcDbLine
 10
0.0
 20
0.0
 30
0.0
 11
-1.0
 21
0.0
 31
0.0
  0
ENDBLK
  5
74
330
72
100
AcDbEntity
  8
0
100
AcDbBlockEnd
  0
BLOCK
  5
97
330
7B
100
AcDbEntity
  8
0
100
AcDbBlockBegin
  2
a
 70
     0
 10
76.700867
 20
60.963074
 30
0.0
  3
a
  1

  0
ARC
  5
7C
330
7B
100
AcDbEntity
  8
0
  6
Continuous
 62
     0
370
     0
100
AcDbCircle
 10
150.456917
 20
124.378788
 30
0.0
 40
14.12735913525901
100
AcDbArc
 50
46.39465
 51
56.636962
  0
ARC
  5
7D
330
7B
100
AcDbEntity
  8
0
  6
Continuous
 62
     0
370
     0
100
AcDbCircle
 10
190.14841
 20
124.380526
 30
0.0
 40
14.12445266775617
100
AcDbArc
 50
123.361106
 51
133.603788
  0
SPLINE
  5
7E
330
7B
100
AcDbEntity
  8
0
  6
Continuous
 62
     0
370
     0
100
AcDbSpline
210
0.0
220
0.0
230
1.0
 70
     8
 71
     3
 72
    19
 73
    15
 74
     0
 42
0.000000001
 43
0.0
 40
0.0
 40
0.0
 40
0.0
 40
0.0
 40
1.201308529367107
 40
2.402747184967449
 40
3.604261195023181
 40
4.205206485425594
 40
4.806233988361036
 40
5.40807851292678
 40
6.011050827246518
 40
6.314964650858448
 40
6.619995787069258
 40
7.230942810196423
 40
7.844482882266563
 40
8.460019288708962
 40
8.460019288708962
 40
8.460019288708962
 40
8.460019288708962
 10
167.2248728502786
 20
76.95074554825703
 30
0.0
 10
167.2336849613142
 20
76.55040662918593
 30
0.0
 10
167.2629147312543
 20
75.74988446123288
 30
0.0
 10
167.3397667565407
 20
74.5508594389042
 30
0.0
 10
167.4238051704748
 20
73.5529423232381
 30
0.0
 10
167.5216861981516
 20
72.75751713737908
 30
0.0
 10
167.6389421044739
 20
72.16695284873603
 30
0.0
 10
167.8246309921224
 20
71.59227828897812
 30
0.0
 10
168.0824103479065
 20
71.15194554284625
 30
0.0
 10
168.3648444959521
 20
70.86164459606714
 30
0.0
 10
168.6722740238612
 20
70.59542726378973
 30
0.0
 10
169.1040477116455
 20
70.31657325429448
 30
0.0
 10
169.6874608256462
 20
70.11032526137089
 30
0.0
 10
170.098768147038
 20
70.06546594074571
 30
0.0
 10
170.303946942015
 20
70.06547024375185
 30
0.0
  0
SPLINE
  5
7F
330
7B
100
AcDbEntity
  8
0
  6
Continuous
 62
     0
370
     0
100
AcDbSpline
210
0.0
220
0.0
230
1.0
 70
     8
 71
     3
 72
    19
 73
    15
 74
     0
 42
0.000000001
 43
0.0
 40
0.0
 40
0.0
 40
0.0
 40
0.0
 40
0.6155212461680483
 40
1.229045235639207
 40
1.839976234965934
 40
2.144999002640048
 40
2.448904921406464
 40
3.051862694922189
 40
3.653692696932377
 40
4.254705690234841
 40
4.855636365808051
 40
6.057120988631599
 40
7.258530204541051
 40
8.45980924880074
 40
8.45980924880074
 40
8.45980924880074
 40
8.45980924880074
 10
170.3039592948902
 20
70.06547024401286
 30
0.0
 10
170.5091330364295
 20
70.06547461171104
 30
0.0
 10
170.9204270933708
 20
70.11034986822578
 30
0.0
 10
171.5038093709345
 20
70.31662616362323
 30
0.0
 10
171.9355444245779
 20
70.59550725360837
 30
0.0
 10
172.2429358992687
 20
70.86174614546337
 30
0.0
 10
172.5253316785684
 20
71.15206449436388
 30
0.0
 10
172.7830765668371
 20
71.5923958718002
 30
0.0
 10
172.9687644076774
 20
72.16705265137958
 30
0.0
 10
173.0860344870972
 20
72.75759856438097
 30
0.0
 10
173.1839452025796
 20
73.55300005592468
 30
0.0
 10
173.2680148228677
 20
74.55088992498938
 30
0.0
 10
173.3448986903647
 20
75.74988331296593
 30
0.0
 10
173.3741398811935
 20
76.55038551064258
 30
0.0
 10
173.382955654558
 20
76.95071451276608
 30
0.0
  0
SPLINE
  5
80
330
7B
100
AcDbEntity
  8
0
  6
Continuous
 62
     0
370
     0
100
AcDbSpline
210
0.0
220
0.0
230
1.0
 70
     8
 71
     3
 72
     8
 73
     4
 74
     0
 42
0.000000001
 43
0.0
 40
0.0
 40
0.0
 40
0.0
 40
0.0
 40
47.55430546411325
 40
47.55430546411325
 40
47.55430546411325
 40
47.55430546411325
 10
173.382955654558
 20
76.95071451276607
 30
0.0
 10
173.7319403316696
 20
92.79829609183079
 30
0.0
 10
174.1289163496524
 20
108.6447792282681
 30
0.0
 10
174.5117313873895
 20
124.4915653560604
 30
0.0
  0
SPLINE
  5
81
330
7B
100
AcDbEntity
  8
0
  6
Continuous
 62
     0
370
     0
100
AcDbSpline
210
0.0
220
0.0
230
1.0
 70
     8
 71
     3
 72
    14
 73
    10
 74
     0
 42
0.000000001
 43
0.0
 40
0.0
 40
0.0
 40
0.0
 40
0.0
 40
2.202449043862926
 40
4.407614529988809
 40
6.617604984610757
 40
8.834220870431892
 40
11.06041317940925
 40
13.29428199347736
 40
15.53506428000646
 40
15.53506428000646
 40
15.53506428000646
 40
15.53506428000646
 10
174.5116929949605
 20
124.4915645338495
 30
0.0
 10
174.5294170162957
 20
125.2254990397975
 30
0.0
 10
174.6708197193173
 20
126.6938834165377
 30
0.0
 10
175.1946195532361
 20
128.8435622055566
 30
0.0
 10
176.0155998790219
 20
130.9025427425695
 30
0.0
 10
177.1161006634304
 20
132.8325022921991
 30
0.0
 10
178.4770223034899
 20
134.5935317490174
 30
0.0
 10
180.0646471056452
 20
136.1531866353991
 30
0.0
 10
181.2523968691507
 20
137.0352847024363
 30
0.0
 10
181.8716520434184
 20
137.4313389425086
 30
0.0
  0
SPLINE
  5
82
330
7B
100
AcDbEntity
  8
0
  6
Continuous
 62
     0
370
     0
100
AcDbSpline
210
0.0
220
0.0
230
1.0
 70
     8
 71
     3
 72
    35
 73
    31
 74
     0
 42
0.000000001
 43
0.0
 40
0.0
 40
0.0
 40
0.0
 40
0.0
 40
3.84255304493925
 40
7.664987140178408
 40
11.46970859298694
 40
15.26088403273121
 40
19.0436375955592
 40
22.82376401864989
 40
26.60753882794127
 40
30.40074605177661
 40
34.20808272081523
 40
38.03372712295521
 40
41.87959806736609
 40
45.74849768660263
 40
49.62627423926557
 40
53.5087752936935
 40
57.39089106357642
 40
61.26904887813672
 40
65.13758184538766
 40
68.98387127952655
 40
72.80944131617572
 40
76.61684384179974
 40
80.41007844577194
 40
84.19392074791796
 40
87.97394791961563
 40
91.75668225020559
 40
95.54789920655986
 40
99.35263460253216
 40
103.1750576592479
 40
107.0176622043638
 40
107.0176622043638
 40
107.0176622043638
 40
107.0176622043638
 10
181.8716509976067
 20
137.4313385200323
 30
0.0
 10
182.9335659437298
 20
138.1105033460502
 30
0.0
 10
184.9286379622739
 20
139.6564235717879
 30
0.0
 10
187.4420598805501
 20
142.466901628897
 30
0.0
 10
189.4012253202783
 20
145.68990382965
 30
0.0
 10
190.7373736808082
 20
149.2319530501951
 30
0.0
 10
191.3920692555106
 20
152.9770909016009
 30
0.0
 10
191.3324444891803
 20
156.7846234476862
 30
0.0
 10
190.5615800644243
 20
160.5053051674753
 30
0.0
 10
189.1178589207489
 20
164.001898189924
 30
0.0
 10
187.0617449932737
 20
167.1621639804943
 30
0.0
 10
184.4622983711402
 20
169.8970952582804
 30
0.0
 10
181.3917729960154
 20
172.1333539222835
 30
0.0
 10
177.9324567946146
 20
173.7973778759454
 30
0.0
 10
174.1925949406797
 20
174.8321902674497
 30
0.0
 10
170.3060014165038
 20
175.1830237677614
 30
0.0
 10
166.4191663844694
 20
174.8327648246865
 30
0.0
 10
162.6790104435692
 20
173.7985248276979
 30
0.0
 10
159.2192145953028
 20
172.134414314314
 30
0.0
 10
156.1479370854174
 20
169.8986843326979
 30
0.0
 10
153.54801094094
 20
167.1636200254292
 30
0.0
 10
151.4915669247721
 20
164.0033808450214
 30
0.0
 10
150.0473717909634
 20
160.506819645983
 30
0.0
 10
149.2765302035797
 20
156.7861144118164
 30
0.0
 10
149.2164318177662
 20
152.9786286796241
 30
0.0
 10
149.8709136197195
 20
149.2334604514282
 30
0.0
 10
151.2066263034466
 20
145.6911249199906
 30
0.0
 10
153.1658614196043
 20
142.4679386586363
 30
0.0
 10
155.6792996474526
 20
139.6571307064002
 30
0.0
 10
157.6744889861415
 20
138.1109958196272
 30
0.0
 10
158.736487152928
 20
137.4317401967066
 30
0.0
  0
SPLINE
  5
83
330
7B
100
AcDbEntity
  8
0
  6
Continuous
 62
     0
370
     0
100
AcDbSpline
210
0.0
220
0.0
230
1.0
 70
     8
 71
     3
 72
    14
 73
    10
 74
     0
 42
0.000000001
 43
0.0
 40
0.0
 40
0.0
 40
0.0
 40
0.0
 40
2.240565318910818
 40
4.474756653921109
 40
6.701008957944319
 40
8.917472874916857
 40
11.12743481330228
 40
13.33256461810859
 40
15.53499704911241
 40
15.53499704911241
 40
15.53499704911241
 40
15.53499704911241
 10
158.7364860948323
 20
137.4317406332633
 30
0.0
 10
159.3557215387648
 20
137.0356771137454
 30
0.0
 10
160.5433559850254
 20
136.1532078540304
 30
0.0
 10
162.1314594356773
 20
134.5938635807015
 30
0.0
 10
163.4925871314978
 20
132.8327601793562
 30
0.0
 10
164.592749148115
 20
130.9026253675389
 30
0.0
 10
165.4137950651523
 20
128.8437414838191
 30
0.0
 10
165.9374470703739
 20
126.6940443417596
 30
0.0
 10
166.0788833710594
 20
125.225685867387
 30
0.0
 10
166.0965999444993
 20
124.4917567039126
 30
0.0
  0
SPLINE
  5
84
330
7B
100
AcDbEntity
  8
0
  6
Continuous
 62
     0
370
     0
100
AcDbSpline
210
0.0
220
0.0
230
1.0
 70
     8
 71
     3
 72
     8
 73
     4
 74
     0
 42
0.000000001
 43
0.0
 40
0.0
 40
0.0
 40
0.0
 40
0.0
 40
47.55445460730034
 40
47.55445460730034
 40
47.55445460730034
 40
47.55445460730034
 10
166.0965612344403
 20
124.4917575077935
 30
0.0
 10
166.4792205714336
 20
108.6449175250793
 30
0.0
 10
166.8760406195937
 20
92.79838043064379
 30
0.0
 10
167.2248728502786
 20
76.95074554825698
 30
0.0
  0
ELLIPSE
  5
85
330
7B
100
AcDbEntity
  8
0
  6
Continuous
 62
     0
370
     0
100
AcDbEllipse
 10
166.207623
 20
124.491756
 30
0.0
 11
-1.499585984336654
 21
-0.03524025512206312
 31
0.0
210
0.0
220
0.0
230
-1.0
 40
0.001744
 41
6.204932688369723
 42
7.779918813561801
  0
ELLIPSE
  5
86
330
7B
100
AcDbEntity
  8
0
  6
Continuous
 62
     0
370
     0
100
AcDbEllipse
 10
159.049634
 20
137.431739
 30
0.0
 11
0.8234885789750228
 21
1.253741026008841
 31
0.0
210
0.0
220
0.0
230
1.0
 40
0.17565
 41
1.685658561903149
 42
3.141591636581085
  0
ELLIPSE
  5
87
330
7B
100
AcDbEntity
  8
0
  6
Continuous
 62
     0
370
     0
100
AcDbEllipse
 10
181.557732
 20
137.43134
 30
0.0
 11
0.8234447453470013
 21
-1.25376981593928
 31
0.0
210
0.0
220
0.0
230
1.0
 40
0.176091
 41
0.0000000073940116
 42
1.455654545871455
  0
ARC
  5
88
330
7B
100
AcDbEntity
  8
0
  6
Continuous
 62
     0
370
    30
100
AcDbCircle
 10
170.303987
 20
154.566156
 30
0.0
 40
21.99996798051518
100
AcDbArc
 50
303.295966
 51
236.702006
  0
ELLIPSE
  5
89
330
7B
100
AcDbEntity
  8
0
  6
Continuous
 62
     0
370
     0
100
AcDbEllipse
 10
174.399879
 20
124.491565
 30
0.0
 11
1.499585634580564
 21
-0.03525513522318775
 31
0.0
210
0.0
220
0.0
230
1.0
 40
0.001757
 41
6.204856647028999
 42
7.779390320337534
  0
LINE
  5
8A
330
7B
100
AcDbEntity
  8
0
  6
Continuous
 62
     0
370
     0
100
AcDbLine
 10
170.303584
 20
68.56547
 30
0.0
 11
170.303552
 21
70.06547
 31
0.0
  0
ELLIPSE
  5
8B
330
7B
100
AcDbEntity
  8
0
  6
Continuous
 62
     0
370
     0
100
AcDbEllipse
 10
173.301027
 20
76.950715
 30
0.0
 11
1.499655418516185
 21
-0.03215005000069036
 31
0.0
210
0.0
220
0.0
230
1.0
 40
0.001172
 41
6.190289905278134
 42
7.799347644019019
  0
ELLIPSE
  5
8C
330
7B
100
AcDbEntity
  8
0
  6
Continuous
 62
     0
370
     0
100
AcDbEllipse
 10
167.306013
 20
76.950745
 30
0.0
 11
-1.499655729279276
 21
-0.03213555102758058
 31
0.0
210
0.0
220
0.0
230
-1.0
 40
0.001161
 41
6.190363224452631
 42
7.799874485015811
  0
ARC
  5
8D
330
7B
100
AcDbEntity
  8
0
  6
Continuous
 62
     0
370
    30
100
AcDbCircle
 10
170.303986
 20
154.566193
 30
0.0
 40
22.10000004088621
100
AcDbArc
 50
299.919018
 51
90.0
  0
ARC
  5
8E
330
7B
100
AcDbEntity
  8
0
  6
Continuous
 62
     0
370
    30
100
AcDbCircle
 10
170.303986
 20
154.566193
 30
0.0
 40
22.10000004088621
100
AcDbArc
 50
90.0
 51
240.079236
  0
CIRCLE
  5
8F
330
7B
100
AcDbEntity
  8
0
  6
Continuous
 62
     0
370
     0
100
AcDbCircle
 10
170.303986
 20
154.566193
 30
0.0
 40
89.0
  0
CIRCLE
  5
90
330
7B
100
AcDbEntity
  8
0
  6
Continuous
 62
     0
370
    30
100
AcDbCircle
 10
170.303986
 20
154.566193
 30
0.0
 40
90.0
  0
SPLINE
  5
91
330
7B
100
AcDbEntity
  8
0
  6
Continuous
 62
     0
370
    30
100
AcDbSpline
210
0.0
220
0.0
230
1.0
 70
     8
 71
     3
 72
    19
 73
    15
 74
     0
 42
0.000000001
 43
0.0
 40
0.0
 40
0.0
 40
0.0
 40
0.0
 40
1.014403620867274
 40
1.781076656519072
 40
2.375773133786735
 40
2.967590741188848
 40
3.628848037109029
 40
4.01695123816283
 40
4.737222963633816
 40
5.549953443612071
 40
7.036201963141447
 40
7.571636921172361
 40
8.100081427565852
 40
10.73255194125837
 40
10.73255194125837
 40
10.73255194125837
 40
10.73255194125837
 10
170.3035966629056
 20
68.56547024637494
 30
0.0
 10
170.6409040530461
 20
68.56547766893344
 30
0.0
 10
171.2361401565728
 20
68.63738763011838
 30
0.0
 10
171.9848108538036
 20
68.90544545801531
 30
0.0
 10
172.5546236166156
 20
69.22418144369351
 30
0.0
 10
173.0449611147337
 20
69.59862724730603
 30
0.0
 10
173.4374863016452
 20
69.98179892220409
 30
0.0
 10
173.7985969127557
 20
70.44965336556834
 30
0.0
 10
174.1030467573381
 20
71.0163315227174
 30
0.0
 10
174.4190652532421
 20
71.97545494492113
 30
0.0
 10
174.5492728037433
 20
72.91437416381586
 30
0.0
 10
174.6273377213134
 20
73.76057058649386
 30
0.0
 10
174.7278065071218
 20
74.98866506843979
 30
0.0
 10
174.7818767698047
 20
76.04138354021723
 30
0.0
 10
174.8006820389882
 20
76.91856487668139
 30
0.0
  0
SPLINE
  5
92
330
7B
100
AcDbEntity
  8
0
  6
Continuous
 62
     0
370
    30
100
AcDbSpline
210
0.0
220
0.0
230
1.0
 70
     8
 71
     3
 72
    19
 73
    15
 74
     0
 42
0.000000001
 43
0.0
 40
0.0
 40
0.0
 40
0.0
 40
0.0
 40
1.014406483172768
 40
1.781076027878735
 40
2.375814432701114
 40
2.96767604275613
 40
3.629023834988963
 40
4.01720316951077
 40
4.737451779864132
 40
5.550100085488334
 40
7.036270320705565
 40
7.571719252627945
 40
8.100175577157056
 40
10.73284639098588
 40
10.73284639098588
 40
10.73284639098588
 40
10.73284639098588
 10
170.3035841511899
 20
68.56547024610164
 30
0.0
 10
169.9662757540585
 20
68.56546293280319
 30
0.0
 10
169.3710363171541
 20
68.63734667598294
 30
0.0
 10
168.6223351073898
 20
68.90536472889752
 30
0.0
 10
168.052473283998
 20
69.22407457720685
 30
0.0
 10
167.5620600360462
 20
69.59852242875928
 30
0.0
 10
167.169455779438
 20
69.98171820309047
 30
0.0
 10
166.8083030607579
 20
70.44960342042157
 30
0.0
 10
166.5038565119838
 20
71.01627391189274
 30
0.0
 10
166.1878602654664
 20
71.97534178955951
 30
0.0
 10
166.0576837182647
 20
72.91421706898804
 30
0.0
 10
165.9796455826875
 20
73.76039850516129
 30
0.0
 10
165.8792059651924
 20
74.98857123328521
 30
0.0
 10
165.8251551013983
 20
76.04136123926723
 30
0.0
 10
165.806356880912
 20
76.91860958728165
 30
0.0
  0
SPLINE
  5
93
330
7B
100
AcDbEntity
  8
0
  6
Continuous
 62
     0
370
    30
100
AcDbSpline
210
0.0
220
0.0
230
1.0
 70
     8
 71
     3
 72
     9
 73
     5
 74
     0
 42
0.000000001
 43
0.0
 40
0.0
 40
0.0
 40
0.0
 40
0.0
 40
26.20461199166862
 40
47.55064555610685
 40
47.55064555610685
 40
47.55064555610685
 40
47.55064555610685
 10
165.8063568809118
 20
76.9186095872911
 30
0.0
 10
165.6192237874868
 20
85.65146795500938
 30
0.0
 10
165.253422982628
 20
101.4974579296957
 30
0.0
 10
164.8752194453022
 20
117.3431365381433
 30
0.0
 10
164.7079999010207
 20
124.45650499961
 30
0.0
  0
SPLINE
  5
94
330
7B
100
AcDbEntity
  8
0
  6
Continuous
 62
     0
370
    30
100
AcDbSpline
210
0.0
220
0.0
230
1.0
 70
     8
 71
     3
 72
     9
 73
     5
 74
     0
 42
0.000000001
 43
0.0
 40
0.0
 40
0.0
 40
0.0
 40
0.0
 40
26.20452966338197
 40
47.55049605632562
 40
47.55049605632562
 40
47.55049605632562
 40
47.55049605632562
 10
174.8006820389884
 20
76.91856487669129
 30
0.0
 10
174.9878989727721
 20
85.65139388257805
 30
0.0
 10
175.3538529448759
 20
101.4973302126537
 30
0.0
 10
175.7322124619634
 20
117.3429549153535
 30
0.0
 10
175.8995016125328
 20
124.4562991880627
 30
0.0
  0
SPLINE
  5
95
330
7B
100
AcDbEntity
  8
0
  6
Continuous
 62
     0
370
    30
100
AcDbSpline
210
0.0
220
0.0
230
1.0
 70
     8
 71
     3
 72
    13
 73
     9
 74
     0
 42
0.000000001
 43
0.0
 40
0.0
 40
0.0
 40
0.0
 40
0.0
 40
1.278939823194213
 40
2.987923181090768
 40
7.268992036795197
 40
11.11486234682008
 40
12.81676747405059
 40
13.98181856066763
 40
13.98181856066763
 40
13.98181856066763
 40
13.98181856066763
 10
175.8994645095492
 20
124.4563099635391
 30
0.0
 10
175.9094812983793
 20
124.8823764794996
 30
0.0
 10
175.9780267163242
 20
125.877239733869
 30
0.0
 10
176.3949890669979
 20
128.2682073498394
 30
0.0
 10
177.6241057131971
 20
131.3444673119109
 30
0.0
 10
179.6357269605935
 20
133.9521827608315
 30
0.0
 10
181.2984526212616
 20
135.419519956162
 30
0.0
 10
182.0628779888054
 20
135.9685195824932
 30
0.0
 10
182.3811774293968
 20
136.1775704999378
 30
0.0
  0
SPLINE
  5
96
330
7B
100
AcDbEntity
  8
0
  6
Continuous
 62
     0
370
    30
100
AcDbSpline
210
0.0
220
0.0
230
1.0
 70
     8
 71
     3
 72
    13
 73
     9
 74
     0
 42
0.000000001
 43
0.0
 40
0.0
 40
0.0
 40
0.0
 40
0.0
 40
1.278923774777921
 40
2.987883661558457
 40
7.2689055002773
 40
11.11477233743294
 40
12.81670410450709
 40
13.98169157930793
 40
13.98169157930793
 40
13.98169157930793
 40
13.98169157930793
 10
164.7080373111932
 20
124.4565158878728
 30
0.0
 10
164.6980248753975
 20
124.8825771730769
 30
0.0
 10
164.6294890553333
 20
125.8774279828137
 30
0.0
 10
164.2125433937252
 20
128.268373325128
 30
0.0
 10
162.983424291249
 20
131.3446246332324
 30
0.0
 10
160.9717276393302
 20
133.952416543072
 30
0.0
 10
159.3089182402065
 20
135.4198665061662
 30
0.0
 10
158.5444518142727
 20
135.9689267099054
 30
0.0
 10
158.2261456621163
 20
136.1779981722574
 30
0.0
  0
ENDBLK
  5
98
330
7B
100
AcDbEntity
  8
0
100
AcDbBlockEnd
  0
BLOCK
  5
C7
330
9A
100
AcDbEntity
  8
0
100
AcDbBlockBegin
  2
b
 70
     0
 10
-16.106895
 20
0.0
 30
0.0
  3
b
  1

  0
LINE
  5
9B
330
9A
100
AcDbEntity
  8
0
  6
Continuous
 62
     0
370
    30
100
AcDbLine
 10
-77.792009
 20
123.232241
 30
0.0
 11
-79.996982
 21
76.918553
 31
0.0
  0
SPLINE
  5
9C
330
9A
100
AcDbEntity
  8
0
  6
Continuous
 62
     0
370
     0
100
AcDbSpline
210
0.0
220
0.0
230
1.0
 70
     8
 71
     3
 72
    51
 73
    47
 74
     0
 42
0.000000001
 43
0.0
 40
-0.2491813246247681
 40
-0.2491813246247681
 40
-0.2491813246247681
 40
-0.2491813246247681
 40
0.017162016540933
 40
0.2835053577066304
 40
0.535923783967398
 40
0.7883422102281656
 40
1.263942214575966
 40
1.711200586147008
 40
2.134942605630988
 40
2.542951826897269
 40
2.840615940018559
 40
3.138280053139848
 40
3.435944166261139
 40
3.733608279382429
 40
4.120540898350511
 40
4.507473517318592
 40
4.894406136286674
 40
5.269903759059908
 40
5.645401381833143
 40
6.020899004606378
 40
6.386435538439976
 40
6.751972072273571
 40
7.117508606107169
 40
7.474166979734076
 40
7.83082535336098
 40
8.187483726987887
 40
8.535617365607935
 40
8.883751004227982
 40
9.23188464284803
 40
9.571231343209172
 40
9.910578043570315
 40
10.24992474393146
 40
10.58212092434274
 40
10.91431710475403
 40
11.24651328516531
 40
11.57436584635076
 40
11.90221840753621
 40
12.23007096872165
 40
12.55540209399189
 40
12.88073321926212
 40
13.20606434453236
 40
13.52915835777935
 40
13.85225237102633
 40
14.17534638427331
 40
14.49529944136774
 40
14.77103057224742
 40
14.77103057224742
 40
14.77103057224742
 40
14.77103057224742
 10
-79.8394985450422
 20
124.1712900219111
 30
0.0
 10
-79.8674364186358
 20
124.1817669674599
 30
0.0
 10
-79.92318385153118
 20
124.2021835438628
 30
0.0
 10
-80.00676909658569
 20
124.2311701911336
 30
0.0
 10
-80.091953010434
 20
124.2590446946694
 30
0.0
 10
-80.2045405931483
 20
124.2934527602487
 30
0.0
 10
-80.34774236615766
 20
124.3324163739463
 30
0.0
 10
-80.52890636947404
 20
124.3734984983915
 30
0.0
 10
-80.71722160404784
 20
124.409167215702
 30
0.0
 10
-80.89483641457389
 20
124.4381213940251
 30
0.0
 10
-81.05538330020738
 20
124.4625946255236
 30
0.0
 10
-81.20003053426257
 20
124.4834512644389
 30
0.0
 10
-81.34611982683748
 20
124.5033953869137
 30
0.0
 10
-81.50805282949523
 20
124.5243433115623
 30
0.0
 10
-81.68582314142037
 20
124.5459705086508
 30
0.0
 10
-81.88028674128907
 20
124.5677823468259
 30
0.0
 10
-82.07520537177379
 20
124.5876616590082
 30
0.0
 10
-82.27099064181351
 20
124.6055541347919
 30
0.0
 10
-82.46740018193981
 20
124.6215239908065
 30
0.0
 10
-82.66449870843599
 20
124.6356269068357
 30
0.0
 10
-82.862071166644
 20
124.6479180057447
 30
0.0
 10
-83.06007097664758
 20
124.6584341735662
 30
0.0
 10
-83.25867893085899
 20
124.6671985886299
 30
0.0
 10
-83.45785499129215
 20
124.6742430520817
 30
0.0
 10
-83.65757684182995
 20
124.6796106186214
 30
0.0
 10
-83.85791499954541
 20
124.6833252524445
 30
0.0
 10
-84.05884712179204
 20
124.6854278471817
 30
0.0
 10
-84.26057334118411
 20
124.6859406403379
 30
0.0
 10
-84.46326291177326
 20
124.6848673964523
 30
0.0
 10
-84.66709196050897
 20
124.6822330377207
 30
0.0
 10
-84.87187234165162
 20
124.6780881279707
 30
0.0
 10
-85.07778876933497
 20
124.6724537706818
 30
0.0
 10
-85.28467743094131
 20
124.6653710342747
 30
0.0
 10
-85.49206540014222
 20
124.6568985402532
 30
0.0
 10
-85.70010318374585
 20
124.6470506257667
 30
0.0
 10
-85.9083606923408
 20
124.6358702035223
 30
0.0
 10
-86.11657057478783
 20
124.6233857336729
 30
0.0
 10
-86.32486314795887
 20
124.6095908638933
 30
0.0
 10
-86.53298511262346
 20
124.5945049282835
 30
0.0
 10
-86.74083919169561
 20
124.5781433004402
 30
0.0
 10
-86.94839085040218
 20
124.560511045219
 30
0.0
 10
-87.15554545213098
 20
124.5416220625829
 30
0.0
 10
-87.36278632386961
 20
124.5214381614751
 30
0.0
 10
-87.57039949639756
 20
124.4999371117565
 30
0.0
 10
-87.76927927732885
 20
124.4781358545404
 30
0.0
 10
-87.8986084887456
 20
124.4632450280761
 30
0.0
 10
-87.958466639319
 20
124.4562009298054
 30
0.0
  0
SPLINE
  5
9D
330
9A
100
AcDbEntity
  8
0
  6
Continuous
 62
     0
370
     0
100
AcDbSpline
210
0.0
220
0.0
230
1.0
 70
     8
 71
     3
 72
    10
 73
     6
 74
     0
 42
0.000000001
 43
0.0
 40
0.0
 40
0.0
 40
0.0
 40
0.0
 40
4.634265232765271
 40
9.274351897431172
 40
13.90932365833864
 40
13.90932365833864
 40
13.90932365833864
 40
13.90932365833864
 10
-87.95837299701589
 20
124.4562119494937
 30
0.0
 10
-87.93604016691359
 20
126.0004143257327
 30
0.0
 10
-87.88223094361769
 20
129.1018883575163
 30
0.0
 10
-87.67993096121677
 20
133.2132844060619
 30
0.0
 10
-87.3135258637285
 20
135.3420546615054
 30
0.0
 10
-87.04792744201063
 20
136.1775704999378
 30
0.0
  0
SPLINE
  5
9E
330
9A
100
AcDbEntity
  8
0
  6
Continuous
 62
     0
370
     0
100
AcDbSpline
210
0.0
220
0.0
230
1.0
 70
     8
 71
     3
 72
    49
 73
    45
 74
     0
 42
0.000000001
 43
0.0
 40
2.034582187951286
 40
2.034582187951286
 40
2.034582187951286
 40
2.034582187951286
 40
2.220107965080948
 40
2.540061022175372
 40
2.860014079269796
 40
3.18310809251678
 40
3.506202105763765
 40
3.82929611901075
 40
4.154627244280986
 40
4.479958369551222
 40
4.805289494821459
 40
5.133142056006906
 40
5.460994617192354
 40
5.788847178377801
 40
6.121043358789085
 40
6.45323953920037
 40
6.785435719611653
 40
7.124782419972796
 40
7.464129120333938
 40
7.803475820695081
 40
8.151609459315129
 40
8.499743097935175
 40
8.847876736555223
 40
9.20453511018213
 40
9.561193483809035
 40
9.917851857435942
 40
10.28338839126954
 40
10.64892492510314
 40
11.01446145893673
 40
11.38995908170997
 40
11.7654567044832
 40
12.14095432725644
 40
12.52788694622452
 40
12.9148195651926
 40
13.30175218416068
 40
13.6986376683224
 40
14.09552315248412
 40
14.49240863664584
 40
14.90041785791212
 40
15.3241598773961
 40
15.77141824896714
 40
16.24701825331494
 40
16.75185510583648
 40
17.28454178816788
 40
17.28454178816788
 40
17.28454178816788
 40
17.28454178816788
 10
-87.04792744201063
 20
136.1775704999378
 30
0.0
 10
-86.98926627195033
 20
136.1732687376746
 30
0.0
 10
-86.82952988966167
 20
136.1614245415085
 30
0.0
 10
-86.56902878611322
 20
136.1415285658106
 30
0.0
 10
-86.26566507748652
 20
136.117492666939
 30
0.0
 10
-85.96186295279267
 20
136.0925411992042
 30
0.0
 10
-85.65768265886607
 20
136.0666590965747
 30
0.0
 10
-85.35346152383914
 20
136.0398601255013
 30
0.0
 10
-85.04925649953543
 20
136.0121317097336
 30
0.0
 10
-84.74509738418436
 20
135.9834738209627
 30
0.0
 10
-84.44092336519657
 20
135.9538808692421
 30
0.0
 10
-84.13676570961798
 20
135.9233520961552
 30
0.0
 10
-83.83264639325364
 20
135.8918916764326
 30
0.0
 10
-83.52802254469327
 20
135.8594473424692
 30
0.0
 10
-83.2229221108002
 20
135.8260181465632
 30
0.0
 10
-82.9173713471863
 20
135.7916004027105
 30
0.0
 10
-82.61053296997346
 20
135.7560967801138
 30
0.0
 10
-82.30244300320027
 20
135.7194957206839
 30
0.0
 10
-81.99317183971505
 20
135.6817739560938
 30
0.0
 10
-81.68228553954475
 20
135.6428550753118
 30
0.0
 10
-81.36986450398354
 20
135.6027104481302
 30
0.0
 10
-81.0560266901723
 20
135.5613091738699
 30
0.0
 10
-80.74095637902258
 20
135.5186421829432
 30
0.0
 10
-80.42477827081188
 20
135.4746786336185
 30
0.0
 10
-80.10760133954682
 20
135.4294058235195
 30
0.0
 10
-79.78941463894591
 20
135.3828075354309
 30
0.0
 10
-79.4703354136501
 20
135.3348708034049
 30
0.0
 10
-79.1504896712924
 20
135.2855905524091
 30
0.0
 10
-78.82967026706132
 20
135.2349243104595
 30
0.0
 10
-78.50801742659576
 20
135.1828653493258
 30
0.0
 10
-78.18565614274434
 20
135.129422414265
 30
0.0
 10
-77.86226677010774
 20
135.074546662762
 30
0.0
 10
-77.53799156505215
 20
135.0182460364114
 30
0.0
 10
-77.21307215838328
 20
134.9605176700694
 30
0.0
 10
-76.88813113674888
 20
134.9014472691185
 30
0.0
 10
-76.56341494226814
 20
134.8410380276487
 30
0.0
 10
-76.23901696635397
 20
134.7793533939254
 30
0.0
 10
-75.91467711000615
 20
134.7164082378292
 30
0.0
 10
-75.5862962300622
 20
134.6514394612762
 30
0.0
 10
-75.24707785512857
 20
134.5833890100481
 30
0.0
 10
-74.89270925442304
 20
134.5113409089066
 30
0.0
 10
-74.52096014039881
 20
134.4345240875422
 30
0.0
 10
-74.1313771573482
 20
134.352283252391
 30
0.0
 10
-73.87122932498147
 20
134.2959355691085
 30
0.0
 10
-73.73674691759908
 20
134.2664111243074
 30
0.0
  0
LINE
  5
9F
330
9A
100
AcDbEntity
  8
0
  6
Continuous
 62
     0
370
     0
100
AcDbLine
 10
-79.839499
 20
124.17129
 30
0.0
 11
-81.702592
 21
76.918544
 31
0.0
  0
ARC
  5
A0
330
9A
100
AcDbEntity
  8
0
  6
Continuous
 62
     0
370
     0
100
AcDbCircle
 10
76649.705046
 20
21.200766
 30
0.0
 40
76737.73297841872
100
AcDbArc
 50
179.922905
 51
179.958399
  0
SPLINE
  5
A1
330
9A
100
AcDbEntity
  8
0
  6
Continuous
 62
     0
370
    30
100
AcDbSpline
210
0.0
220
0.0
230
1.0
 70
     8
 71
     3
 72
    14
 73
    10
 74
     0
 42
0.000000001
 43
0.0
 40
0.0
 40
0.0
 40
0.0
 40
0.0
 40
0.9118343725061222
 40
1.812967381621847
 40
2.704719619995633
 40
3.590497246180465
 40
4.477336643439316
 40
5.379111974852179
 40
6.323312001412582
 40
6.323312001412582
 40
6.323312001412582
 40
6.323312001412582
 10
-79.9969820602659
 20
76.91855317135844
 30
0.0
 10
-80.01143631942188
 20
76.61495277233449
 30
0.0
 10
-80.05308614379629
 20
76.01179882390325
 30
0.0
 10
-80.16343707596627
 20
75.1164870909083
 30
0.0
 10
-80.33122581396344
 20
74.2386874404008
 30
0.0
 10
-80.56912278143659
 20
73.38177108126865
 30
0.0
 10
-80.89481843540301
 20
72.54979681881144
 30
0.0
 10
-81.33444239211138
 20
71.74868634232402
 30
0.0
 10
-81.71702603951621
 20
71.26150012747038
 30
0.0
 10
-81.93460057083712
 20
71.0340836399227
 30
0.0
  0
LINE
  5
A2
330
9A
100
AcDbEntity
  8
0
  6
Continuous
 62
     0
370
     0
100
AcDbLine
 10
-81.934601
 20
71.034084
 30
0.0
 11
-81.702592
 21
76.918544
 31
0.0
  0
SPLINE
  5
A3
330
9A
100
AcDbEntity
  8
0
  6
Continuous
 62
     0
370
    30
100
AcDbSpline
210
0.0
220
0.0
230
1.0
 70
     8
 71
     3
 72
    10
 73
     6
 74
     0
 42
0.000000001
 43
0.0
 40
0.0
 40
0.0
 40
0.0
 40
0.0
 40
2.24125742523872
 40
4.488594900825207
 40
6.738313598302064
 40
6.738313598302064
 40
6.738313598302064
 40
6.738313598302064
 10
-81.93460017462053
 20
71.03408376387715
 30
0.0
 10
-82.4510594315172
 20
70.49426245918073
 30
0.0
 10
-83.70408448743206
 20
69.6143780201358
 30
0.0
 10
-85.84414290048198
 20
68.88249072479098
 30
0.0
 10
-87.33039489119733
 20
68.64963911445467
 30
0.0
 10
-88.07640223824768
 20
68.573268991597
 30
0.0
  0
SPLINE
  5
A4
330
9A
100
AcDbEntity
  8
0
  6
Continuous
 62
     0
370
     0
100
AcDbSpline
210
0.0
220
0.0
230
1.0
 70
     8
 71
     3
 72
    19
 73
    15
 74
     0
 42
0.000000001
 43
0.0
 40
0.0
 40
0.0
 40
0.0
 40
0.0
 40
0.9402009945476231
 40
1.890374966926982
 40
2.807409653105321
 40
3.238934143880091
 40
3.715856908827126
 40
4.238792899061083
 40
4.717644179907244
 40
5.555328424118911
 40
6.970046455662896
 40
8.219710000794723
 40
9.458574664181938
 40
10.70064831550556
 40
10.70064831550556
 40
10.70064831550556
 40
10.70064831550556
 10
-88.07640223477603
 20
68.5732689919524
 30
0.0
 10
-88.07634508997415
 20
68.57327327753939
 30
0.0
 10
-88.06419549280741
 20
68.64537402398662
 30
0.0
 10
-88.01720057684543
 20
68.97215558604978
 30
0.0
 10
-87.96874629911412
 20
69.39987460811682
 30
0.0
 10
-87.93005755351567
 20
69.80715553161261
 30
0.0
 10
-87.90348403820917
 20
70.15800618418359
 30
0.0
 10
-87.891247284992
 20
70.56591634981928
 30
0.0
 10
-87.89027805260378
 20
71.114620432473
 30
0.0
 10
-87.90857514499606
 20
71.98296519409982
 30
0.0
 10
-87.95262305951815
 20
73.14147533523138
 30
0.0
 10
-87.98419408314044
 20
74.43697307552054
 30
0.0
 10
-88.0035912965742
 20
75.67804270124097
 30
0.0
 10
-88.00802856174045
 20
76.50461144717829
 30
0.0
 10
-88.00770440179605
 20
76.91854043858393
 30
0.0
  0
SPLINE
  5
A5
330
9A
100
AcDbEntity
  8
0
  6
Continuous
 62
     0
370
     0
100
AcDbSpline
210
0.0
220
0.0
230
1.0
 70
     8
 71
     3
 72
    19
 73
    15
 74
     0
 42
0.000000001
 43
0.0
 40
0.0
 40
0.0
 40
0.0
 40
0.0
 40
0.6155212461680483
 40
1.229045235639207
 40
1.839976234965934
 40
2.144999002640048
 40
2.448904921406464
 40
3.051862694922189
 40
3.653692696932377
 40
4.254705690234841
 40
4.855636365808051
 40
6.057120988631599
 40
7.258530204541051
 40
8.45980924880074
 40
8.45980924880074
 40
8.45980924880074
 40
8.45980924880074
 10
-89.72916152710388
 20
70.06547024401286
 30
0.0
 10
-89.72910741944952
 20
70.06547461171104
 30
0.0
 10
-89.72672734884333
 20
70.11034986822578
 30
0.0
 10
-89.71703831906149
 20
70.31662616362323
 30
0.0
 10
-89.70561348725931
 20
70.59550725360837
 30
0.0
 10
-89.69560279823651
 20
70.86174614546337
 30
0.0
 10
-89.68527252411849
 20
71.15206449436388
 30
0.0
 10
-89.67439090708513
 20
71.5923958718002
 30
0.0
 10
-89.66580202462137
 20
72.16705265137958
 30
0.0
 10
-89.66009142326317
 20
72.75759856438097
 30
0.0
 10
-89.65516947163871
 20
73.55300005592468
 30
0.0
 10
-89.6507991957792
 20
74.55088992498938
 30
0.0
 10
-89.64668774236338
 20
75.74988331296593
 30
0.0
 10
-89.64509001624089
 20
76.55038551064258
 30
0.0
 10
-89.64460789554613
 20
76.95071451276608
 30
0.0
  0
ARC
  5
A6
330
9A
100
AcDbEntity
  8
0
  6
Continuous
 62
     0
370
     0
100
AcDbCircle
 10
78999.009097
 20
-20.785013
 30
0.0
 40
79088.71409439378
100
AcDbArc
 50
179.894754
 51
179.929195
  0
SPLINE
  5
A7
330
9A
100
AcDbEntity
  8
0
  6
Continuous
 62
     0
370
     0
100
AcDbSpline
210
0.0
220
0.0
230
1.0
 70
     8
 71
     3
 72
    14
 73
    10
 74
     0
 42
0.000000001
 43
0.0
 40
0.0
 40
0.0
 40
0.0
 40
0.0
 40
2.202449043862926
 40
4.407614529988809
 40
6.617604984610757
 40
8.834220870431892
 40
11.06041317940925
 40
13.29428199347736
 40
15.53506428000646
 40
15.53506428000646
 40
15.53506428000646
 40
15.53506428000646
 10
-89.57157236735236
 20
124.4915645338495
 30
0.0
 10
-89.57024776200723
 20
125.2254990397975
 30
0.0
 10
-89.55980299903865
 20
126.6938834165377
 30
0.0
 10
-89.51770768712436
 20
128.8435622055566
 30
0.0
 10
-89.44161631202167
 20
130.9025427425695
 30
0.0
 10
-89.32118464969989
 20
132.8325022921991
 30
0.0
 10
-89.13892179289854
 20
134.5935317490174
 30
0.0
 10
-88.87980455340625
 20
136.1531866353991
 30
0.0
 10
-88.64724129617508
 20
137.0352847024363
 30
0.0
 10
-88.51470962129463
 20
137.4313389425086
 30
0.0
  0
SPLINE
  5
A8
330
9A
100
AcDbEntity
  8
0
  6
Continuous
 62
     0
370
     0
100
AcDbSpline
210
0.0
220
0.0
230
1.0
 70
     8
 71
     3
 72
    22
 73
    18
 74
     0
 42
0.000000001
 43
0.0
 40
0.0
 40
0.0
 40
0.0
 40
0.0
 40
3.84255304493925
 40
7.664987140178408
 40
11.46970859298694
 40
15.26088403273121
 40
19.0436375955592
 40
22.82376401864989
 40
26.60753882794127
 40
30.40074605177661
 40
34.20808272081523
 40
38.03372712295521
 40
41.87959806736609
 40
45.74849768660263
 40
49.62627423926557
 40
53.5087752936935
 40
53.50883110218191
 40
53.50883110218191
 40
53.50883110218191
 40
53.50883110218191
 10
-88.51470984511724
 20
137.4313385200323
 30
0.0
 10
-88.2874410884072
 20
138.1105033460502
 30
0.0
 10
-87.79714216111705
 20
139.6564235717879
 30
0.0
 10
-87.05485306026617
 20
142.466901628897
 30
0.0
 10
-86.40054328934457
 20
145.68990382965
 30
0.0
 10
-85.91726593959538
 20
149.2319530501951
 30
0.0
 10
-85.6697226294545
 20
152.9770909016009
 30
0.0
 10
-85.69256499434027
 20
156.7846234476862
 30
0.0
 10
-85.98256065463545
 20
160.5053051674753
 30
0.0
 10
-86.49923377122161
 20
164.001898189924
 30
0.0
 10
-87.17432491812883
 20
167.1621639804943
 30
0.0
 10
-87.92251406287113
 20
169.8970952582804
 30
0.0
 10
-88.64892635836799
 20
172.1333539222835
 30
0.0
 10
-89.25310484109434
 20
173.7973778759454
 30
0.0
 10
-89.63745954238095
 20
174.8321902674497
 30
0.0
 10
-89.72879067616326
 20
175.0660412332793
 30
0.0
 10
-89.7291611616665
 20
175.0661314676498
 30
0.0
 10
-89.72916116698255
 20
175.0661314689227
 30
0.0
  0
ELLIPSE
  5
A9
330
9A
100
AcDbEntity
  8
0
  6
Continuous
 62
     0
370
     0
100
AcDbEllipse
 10
-87.047926
 20
137.43134
 30
0.0
 11
1.426189421239576
 21
-0.4647405025864749
 31
0.0
210
0.0
220
0.0
230
-1.0
 40
0.822786
 41
1.308842934803162
 42
2.764497473280604
  0
SPLINE
  5
AA
330
9A
100
AcDbEntity
  8
0
  6
Continuous
 62
     0
370
     0
100
AcDbSpline
210
0.0
220
0.0
230
1.0
 70
     8
 71
     3
 72
    20
 73
    16
 74
     0
 42
0.000000001
 43
0.0
 40
56.70864473622917
 40
56.70864473622917
 40
56.70864473622917
 40
56.70864473622917
 40
57.63180409922852
 40
61.71794092077714
 40
65.77414287274777
 40
70.60732300077261
 40
75.54753558958703
 40
80.67002611278147
 40
84.95256755626764
 40
89.22417508003764
 40
93.33620108921018
 40
97.63125829908257
 40
102.7397174449275
 40
108.130989611906
 40
113.4172894724584
 40
113.4172894724584
 40
113.4172894724584
 40
113.4172894724584
 10
-88.22911645014634
 20
176.5661238549655
 30
0.0
 10
-88.22905444354691
 20
176.5661321262675
 30
0.0
 10
-88.21651568557624
 20
176.5309352241994
 30
0.0
 10
-88.07298458329848
 20
176.1199409351941
 30
0.0
 10
-87.61478150967127
 20
174.7546028517288
 30
0.0
 10
-86.8800621478112
 20
172.4706176842249
 30
0.0
 10
-85.97596522737439
 20
169.1561310477637
 30
0.0
 10
-85.16250007415351
 20
165.2530690165666
 30
0.0
 10
-84.58070018275129
 20
161.0491246718198
 30
0.0
 10
-84.28433868345235
 20
156.8881147357734
 30
0.0
 10
-84.27083652174548
 20
152.6273616971147
 30
0.0
 10
-84.56114141600028
 20
148.1699969678635
 30
0.0
 10
-85.19805797174502
 20
143.6181985553165
 30
0.0
 10
-86.11296480235569
 20
139.4045644190305
 30
0.0
 10
-86.75788907659046
 20
137.1327583075383
 30
0.0
 10
-87.04792603046951
 20
136.1775702911623
 30
0.0
  0
ELLIPSE
  5
AB
330
9A
100
AcDbEntity
  8
0
  6
Continuous
 62
     0
370
     0
100
AcDbEllipse
 10
-88.075746
 20
124.491565
 30
0.0
 11
1.499997684706676
 21
-0.002635502724719799
 31
0.0
210
0.0
220
0.0
230
-1.0
 40
0.023503
 41
1.492426414785789
 42
3.066960088094326
  0
ARC
  5
AC
330
9A
100
AcDbEntity
  8
0
  6
Continuous
 62
     0
370
    30
100
AcDbCircle
 10
-88.229162
 20
70.06547
 30
0.0
 40
1.50000000000003
100
AcDbArc
 50
180.0
 51
275.845111
  0
LINE
  5
AD
330
9A
100
AcDbEntity
  8
0
  6
Continuous
 62
     0
370
    30
100
AcDbLine
 10
-68.005098
 20
132.566195
 30
0.0
 11
-58.697315
 21
132.566196
 31
0.0
  0
LINE
  5
AE
330
9A
100
AcDbEntity
  8
0
  6
Continuous
 62
     0
370
    30
100
AcDbLine
 10
-66.250717
 20
176.566195
 30
0.0
 11
-64.318849
 21
172.423225
 31
0.0
  0
ARC
  5
AF
330
9A
100
AcDbEntity
  8
0
  6
Continuous
 62
     0
370
    30
100
AcDbCircle
 10
-118.704893
 20
147.064453
 30
0.0
 40
60.00757439774201
100
AcDbArc
 50
0.001561
 51
24.998393
  0
LINE
  5
B0
330
9A
100
AcDbEntity
  8
0
  6
Continuous
 62
     0
370
    30
100
AcDbLine
 10
-58.697316
 20
147.066088
 30
0.0
 11
-58.697315
 21
132.566196
 31
0.0
  0
ARC
  5
B1
330
9A
100
AcDbEntity
  8
0
  6
Continuous
 62
     0
370
    30
100
AcDbCircle
 10
-68.003002
 20
122.766096
 30
0.0
 40
9.800098886838803
100
AcDbArc
 50
90.012252
 51
177.273681
  0
LINE
  5
B2
330
9A
100
AcDbEntity
  8
0
  6
Continuous
 62
     0
370
     0
100
AcDbLine
 10
-81.702592
 20
76.918544
 30
0.0
 11
-88.007704
 21
76.91854
 31
0.0
  0
SPLINE
  5
B3
330
9A
100
AcDbEntity
  8
0
  6
Continuous
 62
     0
370
     0
100
AcDbSpline
210
0.0
220
0.0
230
1.0
 70
     8
 71
     9
 72
    20
 73
    10
 74
     0
 42
0.000000001
 43
0.0
 40
0.0
 40
0.0
 40
0.0
 40
0.0
 40
0.0
 40
0.0
 40
0.0
 40
0.0
 40
0.0
 40
0.0
 40
0.2499999949532693
 40
0.2499999949532693
 40
0.2499999949532693
 40
0.2499999949532693
 40
0.2499999949532693
 40
0.2499999949532693
 40
0.2499999949532693
 40
0.2499999949532693
 40
0.2499999949532693
 40
0.2499999949532693
 10
-79.9969821727197
 20
76.91855318551458
 30
0.0
 10
-79.99698206910216
 20
76.91855119637528
 30
0.0
 10
-80.03654427469348
 20
76.91853649699627
 30
0.0
 10
-80.12377458421844
 20
76.91853673286131
 30
0.0
 10
-80.2674485285819
 20
76.9185380627578
 30
0.0
 10
-80.47851792884666
 20
76.91854034062895
 30
0.0
 10
-80.7408703774712
 20
76.91854249951272
 30
0.0
 10
-81.03880739544383
 20
76.91854401004485
 30
0.0
 10
-81.36183408751708
 20
76.91854449984152
 30
0.0
 10
-81.70259167274514
 20
76.91854371144032
 30
0.0
  0
SPLINE
  5
B4
330
9A
100
AcDbEntity
  8
0
  6
Continuous
 62
     0
370
     0
100
AcDbSpline
210
0.0
220
0.0
230
1.0
 70
     8
 71
     3
 72
    16
 73
    12
 74
     0
 42
0.000000001
 43
0.0
 40
0.0
 40
0.0
 40
0.0
 40
0.0
 40
1.539730160996509
 40
3.080508527384355
 40
4.623334042753825
 40
5.395223039588971
 40
6.166796943361056
 40
6.938584681441846
 40
7.710343813180891
 40
9.253414127036839
 40
10.7966984328055
 40
10.7966984328055
 40
10.7966984328055
 40
10.7966984328055
 10
-68.00509743291332
 20
132.5661951096582
 30
0.0
 10
-68.00279785870589
 20
132.5661925098287
 30
0.0
 10
-68.12700837399461
 20
132.6031485361221
 30
0.0
 10
-68.66487352963509
 20
132.7558923668125
 30
0.0
 10
-69.30101958812088
 20
132.9436012957062
 30
0.0
 10
-69.85754089677522
 20
133.125690669186
 30
0.0
 10
-70.30843119629105
 20
133.2757550213634
 30
0.0
 10
-70.81634940875722
 20
133.4304124887653
 30
0.0
 10
-71.52735025206312
 20
133.6464737855814
 30
0.0
 10
-72.48628230974498
 20
133.9276170215534
 30
0.0
 10
-73.31204081435459
 20
134.1545158393756
 30
0.0
 10
-73.73674691759908
 20
134.2664111243074
 30
0.0
  0
ELLIPSE
  5
B5
330
9A
100
AcDbEntity
  8
0
  6
Continuous
 62
     0
370
     0
100
AcDbEllipse
 10
-73.736747
 20
123.834217
 30
0.0
 11
-2.968160857838783
 21
-10.90937403156072
 31
0.0
210
0.0
220
0.0
230
1.0
 40
0.53208
 41
3.614271646704043
 42
4.825572091279478
  0
SPLINE
  5
B6
330
9A
100
AcDbEntity
  8
0
  6
Continuous
 62
     0
370
     0
100
AcDbSpline
210
0.0
220
0.0
230
1.0
 70
     8
 71
     3
 72
    16
 73
    12
 74
     0
 42
0.000000001
 43
0.0
 40
0.0
 40
0.0
 40
0.0
 40
0.0
 40
0.7200536857649565
 40
1.380976754885788
 40
1.69343596065627
 40
1.994587343307329
 40
2.283388303449248
 40
2.568859007441613
 40
3.135416240560567
 40
3.678649730891578
 40
4.210733200687341
 40
4.210733200687341
 40
4.210733200687341
 40
4.210733200687341
 10
-79.8394985450422
 20
124.1712900219111
 30
0.0
 10
-79.6382608314903
 20
124.1543974316668
 30
0.0
 10
-79.26581487126032
 20
124.1071560024991
 30
0.0
 10
-78.85819631892002
 20
124.0060729572566
 30
0.0
 10
-78.58824505742791
 20
123.9026258397732
 30
0.0
 10
-78.41495190085755
 20
123.8190199627826
 30
0.0
 10
-78.26017342792835
 20
123.7583993379532
 30
0.0
 10
-78.08841188300067
 20
123.6446099977569
 30
0.0
 10
-77.93331779417082
 20
123.4550744618602
 30
0.0
 10
-77.81838612147982
 20
123.2722073796029
 30
0.0
 10
-77.79200744003151
 20
123.2322399479855
 30
0.0
 10
-77.79200856732734
 20
123.2322407665654
 30
0.0
  0
ELLIPSE
  5
B7
330
9A
100
AcDbEntity
  8
0
  6
Continuous
 62
     0
370
     0
100
AcDbEllipse
 10
-88.146847
 20
76.950715
 30
0.0
 11
1.499998969076471
 21
-0.001758627170892978
 31
0.0
210
0.0
220
0.0
230
-1.0
 40
0.021433
 41
1.477875839727434
 42
3.086933578468321
  0
LINE
  5
B8
330
9A
100
AcDbEntity
  8
0
  6
Continuous
 62
     0
370
    30
100
AcDbLine
 10
-55.697316
 20
132.466193
 30
0.0
 11
-55.697316
 21
176.666193
 31
0.0
  0
LINE
  5
B9
330
9A
100
AcDbEntity
  8
0
  6
Continuous
 62
     0
370
    30
100
AcDbLine
 10
-47.397316
 20
65.566193
 30
0.0
 11
-47.397316
 21
243.566193
 31
0.0
  0
LINE
  5
BA
330
9A
100
AcDbEntity
  8
0
  6
Continuous
 62
     0
370
     0
100
AcDbLine
 10
-46.397316
 20
64.566193
 30
0.0
 11
-46.397316
 21
244.566193
 31
0.0
  0
LINE
  5
BB
330
9A
100
AcDbEntity
  8
0
  6
Continuous
 62
     0
370
    30
100
AcDbLine
 10
-35.397316
 20
64.566193
 30
0.0
 11
-35.397316
 21
244.566193
 31
0.0
  0
LINE
  5
BC
330
9A
100
AcDbEntity
  8
0
  6
Continuous
 62
     0
370
    30
100
AcDbLine
 10
-55.697316
 20
176.666193
 30
0.0
 11
-47.397316
 21
176.666193
 31
0.0
  0
ARC
  5
BD
330
9A
100
AcDbEntity
  8
0
  6
Continuous
 62
     0
370
    30
100
AcDbCircle
 10
-54.327409
 20
154.462016
 30
0.0
 40
20.49999999999542
100
AcDbArc
 50
93.831629
 51
119.09687
  0
LINE
  5
BE
330
9A
100
AcDbEntity
  8
0
  6
Continuous
 62
     0
370
    30
100
AcDbLine
 10
-46.397316
 20
64.566193
 30
0.0
 11
-35.397316
 21
64.566193
 31
0.0
  0
LINE
  5
BF
330
9A
100
AcDbEntity
  8
0
  6
Continuous
 62
     0
370
    30
100
AcDbLine
 10
-46.397316
 20
244.566193
 30
0.0
 11
-35.397316
 21
244.566193
 31
0.0
  0
ARC
  5
C0
330
9A
100
AcDbEntity
  8
0
  6
Continuous
 62
     0
370
    30
100
AcDbCircle
 10
-46.397304
 20
65.566205
 30
0.0
 40
1.000011948575663
100
AcDbArc
 50
180.000685
 51
269.999315
  0
ARC
  5
C1
330
9A
100
AcDbEntity
  8
0
  6
Continuous
 62
     0
370
    30
100
AcDbCircle
 10
-46.397304
 20
243.566181
 30
0.0
 40
1.000011948575663
100
AcDbArc
 50
90.000685
 51
179.999315
  0
LINE
  5
C2
330
9A
100
AcDbEntity
  8
0
  6
Continuous
 62
     0
370
    30
100
AcDbLine
 10
-55.697316
 20
132.466193
 30
0.0
 11
-47.397316
 21
132.466193
 31
0.0
  0
ARC
  5
C3
330
9A
100
AcDbEntity
  8
0
  6
Continuous
 62
     0
370
    30
100
AcDbCircle
 10
-54.327409
 20
154.67037
 30
0.0
 40
20.5000000000649
100
AcDbArc
 50
257.692038
 51
266.168371
  0
LINE
  5
C4
330
9A
100
AcDbEntity
  8
0
  6
Continuous
 62
     0
370
    30
100
AcDbLine
 10
-88.229117
 20
176.566194
 30
0.0
 11
-66.250717
 21
176.566195
 31
0.0
  0
ARC
  5
C5
330
9A
100
AcDbEntity
  8
0
  6
Continuous
 62
     0
370
    30
100
AcDbCircle
 10
-88.229059
 20
175.066023
 30
0.0
 40
1.500101342465307
100
AcDbArc
 50
90.002198
 51
179.996012
  0
LINE
  5
C6
330
9A
100
AcDbEntity
  8
0
  6
Continuous
 62
     0
370
    30
100
AcDbLine
 10
-89.729163
 20
70.06551
 30
0.0
 11
-89.729163
 21
175.066125
 31
0.0
  0
ENDBLK
  5
C8
330
9A
100
AcDbEntity
  8
0
100
AcDbBlockEnd
  0
BLOCK
  5
FB
330
CA
100
AcDbEntity
  8
0
100
AcDbBlockBegin
  2
c
 70
     0
 10
300.508575
 20
0.0
 30
0.0
  3
c
  1

  0
SPLINE
  5
CB
330
CA
100
AcDbEntity
  8
0
  6
Continuous
 62
     0
370
     0
100
AcDbSpline
210
0.0
220
0.0
230
1.0
 70
     8
 71
     3
 72
    51
 73
    47
 74
     0
 42
0.000000001
 43
0.0
 40
-0.2491209316782168
 40
-0.2491209316782168
 40
-0.2491209316782168
 40
-0.2491209316782168
 40
0.0172888062846326
 40
0.283698544247482
 40
0.5361759639872332
 40
0.7886533837269845
 40
1.264355812211928
 40
1.711704342385453
 40
2.135531527316182
 40
2.54362909265288
 40
2.84136522546549
 40
3.139101358278097
 40
3.436837491090706
 40
3.734573623903316
 40
4.121595013275554
 40
4.508616402647792
 40
4.895637792020031
 40
5.271219299416476
 40
5.646800806812919
 40
6.022382314209363
 40
6.387999205790502
 40
6.753616097371641
 40
7.119232988952779
 40
7.475968387484169
 40
7.832703786015561
 40
8.18943918454695
 40
8.537644531245798
 40
8.885849877944647
 40
9.234055224643495
 40
9.573470127642883
 40
9.91288503064227
 40
10.25229993364166
 40
10.58456709066627
 40
10.91683424769088
 40
11.24910140471549
 40
11.5770298933331
 40
11.90495838195071
 40
12.23288687056831
 40
12.55829547015987
 40
12.88370406975143
 40
13.20911266934299
 40
13.53228223902436
 40
13.85545180870572
 40
14.17862137838709
 40
14.49864090275107
 40
14.77421567618841
 40
14.77421567618841
 40
14.77421567618841
 40
14.77421567618841
 10
421.5058189635083
 20
124.1715429566741
 30
0.0
 10
421.533764482927
 20
124.1820236604389
 30
0.0
 10
421.5895270749185
 20
124.2024474606583
 30
0.0
 10
421.6731351028874
 20
124.231444045035
 30
0.0
 10
421.7583429322243
 20
124.2593279172329
 30
0.0
 10
421.870962256339
 20
124.2937469415498
 30
0.0
 10
422.0142063584233
 20
124.3327222530821
 30
0.0
 10
422.1954281277474
 20
124.3738156805113
 30
0.0
 10
422.3838044443416
 20
124.4094944589045
 30
0.0
 10
422.5614734312966
 20
124.4384576512062
 30
0.0
 10
422.7220660558149
 20
124.4629393503751
 30
0.0
 10
422.8667534785513
 20
124.4838035816554
 30
0.0
 10
423.0128823919932
 20
124.5037549106493
 30
0.0
 10
423.1748591249
 20
124.5247099961882
 30
0.0
 10
423.35267955824
 20
124.5463438006321
 30
0.0
 10
423.547199579827
 20
124.5681615161367
 30
0.0
 10
423.7421754281034
 20
124.5880455673834
 30
0.0
 10
423.9380176260687
 20
124.6059418346429
 30
0.0
 10
424.1344840319688
 20
124.6219145589845
 30
0.0
 10
424.3316398588929
 20
124.6360194422584
 30
0.0
 10
424.5292702692019
 20
124.648311623261
 30
0.0
 10
424.7273284641348
 20
124.6588280150274
 30
0.0
 10
424.9259950952874
 20
124.667591807567
 30
0.0
 10
425.1252299247966
 20
124.6746348265919
 30
0.0
 10
425.3250111626922
 20
124.6800001513104
 30
0.0
 10
425.5254094839919
 20
124.6837117490347
 30
0.0
 10
425.7264030115833
 20
124.6858105478627
 30
0.0
 10
425.928191805606
 20
124.6863187969007
 30
0.0
 10
426.1309454335675
 20
124.6852402551766
 30
0.0
 10
426.334839956709
 20
124.6825998496335
 30
0.0
 10
426.5396859967947
 20
124.6784482731447
 30
0.0
 10
426.7456684202602
 20
124.6728066966267
 30
0.0
 10
426.9526223320915
 20
124.6657162747092
 30
0.0
 10
427.1600741464938
 20
124.6572356265132
 30
0.0
 10
427.3681741965247
 20
124.6473790512041
 30
0.0
 10
427.5764917422422
 20
124.6361894474636
 30
0.0
 10
427.7847606840342
 20
124.6236951740418
 30
0.0
 10
427.9931118344566
 20
124.6098898219581
 30
0.0
 10
428.2012930724898
 20
124.5947926416424
 30
0.0
 10
428.4092057631867
 20
124.5784191246266
 30
0.0
 10
428.6168132875603
 20
124.5607745145943
 30
0.0
 10
428.8240196809746
 20
124.5418728423962
 30
0.0
 10
429.0313159012048
 20
124.5216753167979
 30
0.0
 10
429.2389939846454
 20
124.5001592769372
 30
0.0
 10
429.4379056513692
 20
124.4783469610012
 30
0.0
 10
429.5672361169921
 20
124.4634512534354
 30
0.0
 10
429.6270673406815
 20
124.4564081483845
 30
0.0
  0
SPLINE
  5
CC
330
CA
100
AcDbEntity
  8
0
  6
Continuous
 62
     0
370
     0
100
AcDbSpline
210
0.0
220
0.0
230
1.0
 70
     8
 71
     3
 72
    10
 73
     6
 74
     0
 42
0.000000001
 43
0.0
 40
0.0
 40
0.0
 40
0.0
 40
0.0
 40
4.634227616789205
 40
9.274292988611279
 40
13.90926336161969
 40
13.90926336161969
 40
13.90926336161969
 40
13.90926336161969
 10
429.6269727683098
 20
124.4564192809594
 30
0.0
 10
429.6046547838217
 20
126.0006096541596
 30
0.0
 10
429.5511557019759
 20
129.1020750129462
 30
0.0
 10
429.3502566031836
 20
133.2134762024598
 30
0.0
 10
428.9852834669385
 20
135.3423682400835
 30
0.0
 10
428.7204094042435
 20
136.1779981722574
 30
0.0
  0
SPLINE
  5
CD
330
CA
100
AcDbEntity
  8
0
  6
Continuous
 62
     0
370
     0
100
AcDbSpline
210
0.0
220
0.0
230
1.0
 70
     8
 71
     3
 72
    49
 73
    45
 74
     0
 42
0.000000001
 43
0.0
 40
2.032231000806121
 40
2.032231000806121
 40
2.032231000806121
 40
2.032231000806121
 40
2.220496446246721
 40
2.5405159706107
 40
2.860535494974679
 40
3.183705064656046
 40
3.506874634337414
 40
3.830044204018781
 40
4.155452803610339
 40
4.480861403201897
 40
4.806270002793455
 40
5.134198491411063
 40
5.462126980028669
 40
5.790055468646277
 40
6.122322625670888
 40
6.454589782695499
 40
6.78685693972011
 40
7.126271842719498
 40
7.465686745718886
 40
7.805101648718274
 40
8.153306995417122
 40
8.501512342115971
 40
8.849717688814819
 40
9.206453087346208
 40
9.5631884858776
 40
9.91992388440899
 40
10.28554077599013
 40
10.65115766757127
 40
11.01677455915241
 40
11.39235606654885
 40
11.76793757394529
 40
12.14351908134174
 40
12.53054047071398
 40
12.91756186008621
 40
13.30458324945845
 40
13.70156475987526
 40
14.09854627029208
 40
14.49552778070889
 40
14.90362534604559
 40
15.32745253097632
 40
15.77480106114984
 40
16.25050348963478
 40
16.75545832911429
 40
17.28827780503999
 40
17.28827780503999
 40
17.28827780503999
 40
17.28827780503999
 10
428.7204079309192
 20
136.177998064307
 30
0.0
 10
428.6608775272216
 20
136.1736362725769
 30
0.0
 10
428.5002481745029
 20
136.1617337876164
 30
0.0
 10
428.2388330896095
 20
136.141777207631
 30
0.0
 10
427.9353950684408
 20
136.1177459109701
 30
0.0
 10
427.6315145111589
 20
136.0927989822727
 30
0.0
 10
427.3272521679027
 20
136.0669210936596
 30
0.0
 10
427.0229481272103
 20
136.0401259452574
 30
0.0
 10
426.7186598441384
 20
136.012400713372
 30
0.0
 10
426.4144170619496
 20
135.9837453966703
 30
0.0
 10
426.1101599841785
 20
135.9541545438111
 30
0.0
 10
425.8059198119076
 20
135.923627434608
 30
0.0
 10
425.5017185927023
 20
135.8921682348409
 30
0.0
 10
425.1970145581619
 20
135.8597247938407
 30
0.0
 10
424.891835718994
 20
135.8262961623257
 30
0.0
 10
424.5862082964803
 20
135.7918786924118
 30
0.0
 10
424.279294280247
 20
135.7563750312913
 30
0.0
 10
423.9711296653249
 20
135.719773651067
 30
0.0
 10
423.6617847499703
 20
135.6820513132048
 30
0.0
 10
423.3508235805334
 20
135.6431314093625
 30
0.0
 10
423.0383264773727
 20
135.6029853215398
 30
0.0
 10
422.7244114640041
 20
135.5615821000121
 30
0.0
 10
422.4092623484958
 20
135.5189125571126
 30
0.0
 10
422.0930039133024
 20
135.4749457933098
 30
0.0
 10
421.7757452229086
 20
135.4296690682465
 30
0.0
 10
421.4574759954411
 20
135.3830662247223
 30
0.0
 10
421.1383135637103
 20
135.3351242634107
 30
0.0
 10
420.8183840105573
 20
135.2858380900797
 30
0.0
 10
420.4974801902195
 20
135.2351652180968
 30
0.0
 10
420.17574241152
 20
135.183098898191
 30
0.0
 10
419.8532957651913
 20
135.129647865714
 30
0.0
 10
419.5298202906083
 20
135.0747632174403
 30
0.0
 10
419.2054583612672
 20
135.018452880866
 30
0.0
 10
418.8804515890799
 20
134.9607140082381
 30
0.0
 10
418.5554218787349
 20
134.9016322128759
 30
0.0
 10
418.2306156715434
 20
134.8412107064942
 30
0.0
 10
417.9061269225078
 20
134.7795128655393
 30
0.0
 10
417.5817001009373
 20
134.716554283425
 30
0.0
 10
417.2532372643954
 20
134.6515719915774
 30
0.0
 10
416.9139399575894
 20
134.5835079054737
 30
0.0
 10
416.5594896982244
 20
134.5114450875174
 30
0.0
 10
416.1876509288864
 20
134.4346116031407
 30
0.0
 10
415.7979685004002
 20
134.3523512758917
 30
0.0
 10
415.5377538082121
 20
134.2959896824086
 30
0.0
 10
415.4032355827347
 20
134.2664575270165
 30
0.0
  0
LINE
  5
CE
330
CA
100
AcDbEntity
  8
0
  6
Continuous
 62
     0
370
     0
100
AcDbLine
 10
421.505819
 20
124.171543
 30
0.0
 11
423.368921
 21
76.918573
 31
0.0
  0
ARC
  5
CF
330
CA
100
AcDbEntity
  8
0
  6
Continuous
 62
     0
370
     0
100
AcDbCircle
 10
-76464.833211
 20
21.986981
 30
0.0
 40
76894.52855077937
100
AcDbArc
 50
0.040931
 51
0.076352
  0
LINE
  5
D0
330
CA
100
AcDbEntity
  8
0
  6
Continuous
 62
     0
370
    30
100
AcDbLine
 10
419.458337
 20
123.232241
 30
0.0
 11
421.663311
 21
76.918553
 31
0.0
  0
SPLINE
  5
D1
330
CA
100
AcDbEntity
  8
0
  6
Continuous
 62
     0
370
    30
100
AcDbSpline
210
0.0
220
0.0
230
1.0
 70
     8
 71
     3
 72
    14
 73
    10
 74
     0
 42
0.000000001
 43
0.0
 40
0.0
 40
0.0
 40
0.0
 40
0.0
 40
0.9118343725061222
 40
1.812967381621847
 40
2.704719619995633
 40
3.590497246180465
 40
4.477336643439316
 40
5.379111974852179
 40
6.323312001412582
 40
6.323312001412582
 40
6.323312001412582
 40
6.323312001412582
 10
421.6633104904685
 20
76.91855317135844
 30
0.0
 10
421.6777647495759
 20
76.61495277233449
 30
0.0
 10
421.7194145740118
 20
76.01179882390325
 30
0.0
 10
421.8297655061492
 20
75.1164870909083
 30
0.0
 10
421.9975542441646
 20
74.2386874404008
 30
0.0
 10
422.2354512116465
 20
73.38177108126865
 30
0.0
 10
422.5611468655965
 20
72.54979681881144
 30
0.0
 10
423.0007708223509
 20
71.74868634232402
 30
0.0
 10
423.3833544696908
 20
71.26150012747038
 30
0.0
 10
423.6009290010446
 20
71.0340836399227
 30
0.0
  0
SPLINE
  5
D2
330
CA
100
AcDbEntity
  8
0
  6
Continuous
 62
     0
370
    30
100
AcDbSpline
210
0.0
220
0.0
230
1.0
 70
     8
 71
     3
 72
    10
 73
     6
 74
     0
 42
0.000000001
 43
0.0
 40
0.0
 40
0.0
 40
0.0
 40
0.0
 40
2.24125742523872
 40
4.488594900825207
 40
6.738313598302064
 40
6.738313598302064
 40
6.738313598302064
 40
6.738313598302064
 10
423.6009286048281
 20
71.03408376387715
 30
0.0
 10
424.1173878617255
 20
70.49426245918073
 30
0.0
 10
425.3704129176421
 20
69.6143780201358
 30
0.0
 10
427.5104713306941
 20
68.88249072479098
 30
0.0
 10
428.9967233214103
 20
68.64963911445467
 30
0.0
 10
429.742730668461
 20
68.573268991597
 30
0.0
  0
LINE
  5
D3
330
CA
100
AcDbEntity
  8
0
  6
Continuous
 62
     0
370
     0
100
AcDbLine
 10
423.368921
 20
76.918573
 30
0.0
 11
423.600929
 21
71.034084
 31
0.0
  0
SPLINE
  5
D4
330
CA
100
AcDbEntity
  8
0
  6
Continuous
 62
     0
370
     0
100
AcDbSpline
210
0.0
220
0.0
230
1.0
 70
     8
 71
     3
 72
    19
 73
    15
 74
     0
 42
0.000000001
 43
0.0
 40
0.0
 40
0.0
 40
0.0
 40
0.0
 40
0.9402054167346445
 40
1.890358658256317
 40
2.807377551866996
 40
3.238900455450995
 40
3.715834606712896
 40
4.23881330096703
 40
4.717704532756488
 40
5.555439518190981
 40
6.970197808916864
 40
8.219881652221327
 40
9.458761040424475
 40
10.70084437334493
 40
10.70084437334493
 40
10.70084437334493
 40
10.70084437334493
 10
429.7427306684104
 20
68.57326899166648
 30
0.0
 10
429.7427887939955
 20
68.57326470302165
 30
0.0
 10
429.7308676615309
 20
68.64534820304196
 30
0.0
 10
429.6841838833626
 20
68.97209210789352
 30
0.0
 10
429.6359536970657
 20
69.3997683003462
 30
0.0
 10
429.5974404938993
 20
69.80701938726715
 30
0.0
 10
429.5709719012735
 20
70.15786311798949
 30
0.0
 10
429.5588128255118
 20
70.56578831958339
 30
0.0
 10
429.5579373524898
 20
71.11452713022435
 30
0.0
 10
429.5763522257363
 20
71.98291534413903
 30
0.0
 10
429.6204927537737
 20
73.14146662981179
 30
0.0
 10
429.6521344581918
 20
74.43699113771197
 30
0.0
 10
429.6715832851996
 20
75.67807704346308
 30
0.0
 10
429.6760385089879
 20
76.50465425957034
 30
0.0
 10
429.6757188652136
 20
76.91858656744041
 30
0.0
  0
SPLINE
  5
D5
330
CA
100
AcDbEntity
  8
0
  6
Continuous
 62
     0
370
     0
100
AcDbSpline
210
0.0
220
0.0
230
1.0
 70
     8
 71
     3
 72
    19
 73
    15
 74
     0
 42
0.000000001
 43
0.0
 40
0.0
 40
0.0
 40
0.0
 40
0.0
 40
1.201308529367107
 40
2.402747184967449
 40
3.604261195023181
 40
4.205206485425594
 40
4.806233988361036
 40
5.40807851292678
 40
6.011050827246518
 40
6.314964650858448
 40
6.619995787069258
 40
7.230942810196423
 40
7.844482882266563
 40
8.460019288708962
 40
8.460019288708962
 40
8.460019288708962
 40
8.460019288708962
 10
431.3125558214114
 20
76.95074554825703
 30
0.0
 10
431.3130333045722
 20
76.55040662918593
 30
0.0
 10
431.314615394993
 20
75.74988446123288
 30
0.0
 10
431.3186851992185
 20
74.5508594389042
 30
0.0
 10
431.323010036602
 20
73.5529423232381
 30
0.0
 10
431.3278793255706
 20
72.75751713737908
 30
0.0
 10
431.3335277944715
 20
72.16695284873603
 30
0.0
 10
431.3420193221319
 20
71.59227828897812
 30
0.0
 10
431.3527669887953
 20
71.15194554284625
 30
0.0
 10
431.3629501144278
 20
70.86164459606714
 30
0.0
 10
431.3728002481489
 20
70.59542726378973
 30
0.0
 10
431.3839986703688
 20
70.31657325429448
 30
0.0
 10
431.3933807414166
 20
70.11032526137089
 30
0.0
 10
431.3955440427202
 20
70.06546594074571
 30
0.0
 10
431.3954899605394
 20
70.06547024375185
 30
0.0
  0
SPLINE
  5
D6
330
CA
100
AcDbEntity
  8
0
  6
Continuous
 62
     0
370
     0
100
AcDbSpline
210
0.0
220
0.0
230
1.0
 70
     8
 71
     3
 72
    21
 73
    17
 74
     0
 42
0.000000001
 43
0.0
 40
53.50883110218191
 40
53.50883110218191
 40
53.50883110218191
 40
53.50883110218191
 40
57.39089106357642
 40
61.26904887813672
 40
65.13758184538766
 40
68.98387127952655
 40
72.80944131617572
 40
76.61684384179974
 40
80.41007844577194
 40
84.19392074791796
 40
87.97394791961563
 40
91.75668225020559
 40
95.54789920655986
 40
99.35263460253216
 40
103.1750576592479
 40
107.0176622043638
 40
107.0176622043638
 40
107.0176622043638
 40
107.0176622043638
 10
431.3954895969999
 20
175.0661314689227
 30
0.0
 10
431.3958594969859
 20
175.0662200115167
 30
0.0
 10
431.3060213644
 20
174.8327598612046
 30
0.0
 10
430.9239019815652
 20
173.7985248276979
 30
0.0
 10
430.3218632476739
 20
172.134414314314
 30
0.0
 10
429.5970364232181
 20
169.8986843326979
 30
0.0
 10
428.850127393576
 20
167.1636200254292
 30
0.0
 10
428.1760154913578
 20
164.0033808450214
 30
0.0
 10
427.659921221187
 20
160.506819645983
 30
0.0
 10
427.370335719226
 20
156.7861144118164
 30
0.0
 10
427.3473588115296
 20
152.9786286796241
 30
0.0
 10
427.594508850164
 20
149.2334604514282
 30
0.0
 10
428.0769844164414
 20
145.6911249199906
 30
0.0
 10
428.7303574015599
 20
142.4679386586363
 30
0.0
 10
429.4713790743541
 20
139.6571307064002
 30
0.0
 10
429.9606520847694
 20
138.1109958196272
 30
0.0
 10
430.1873566730118
 20
137.4317401967066
 30
0.0
  0
SPLINE
  5
D7
330
CA
100
AcDbEntity
  8
0
  6
Continuous
 62
     0
370
     0
100
AcDbSpline
210
0.0
220
0.0
230
1.0
 70
     8
 71
     3
 72
    14
 73
    10
 74
     0
 42
0.000000001
 43
0.0
 40
0.0
 40
0.0
 40
0.0
 40
0.0
 40
2.240565318910818
 40
4.474756653921109
 40
6.701008957944319
 40
8.917472874916857
 40
11.12743481330228
 40
13.33256461810859
 40
15.53499704911241
 40
15.53499704911241
 40
15.53499704911241
 40
15.53499704911241
 10
430.1873564471405
 20
137.4317406332633
 30
0.0
 10
430.3195445560634
 20
137.0356771137454
 30
0.0
 10
430.5514268607076
 20
136.1532078540304
 30
0.0
 10
430.8097176669041
 20
134.5938635807015
 30
0.0
 10
430.9911679955138
 20
132.8327601793562
 30
0.0
 10
431.110961106279
 20
130.9026253675389
 30
0.0
 10
431.1866236094102
 20
128.8437414838191
 30
0.0
 10
431.2284283623835
 20
126.6940443417596
 30
0.0
 10
431.2388021457458
 20
125.225685867387
 30
0.0
 10
431.2401173290921
 20
124.4917567039126
 30
0.0
  0
ARC
  5
D8
330
CA
100
AcDbEntity
  8
0
  6
Continuous
 62
     0
370
     0
100
AcDbCircle
 10
-78817.139525
 20
-20.03477
 30
0.0
 40
79248.51142650694
100
AcDbArc
 50
0.070119
 51
0.104491
  0
ELLIPSE
  5
D9
330
CA
100
AcDbEntity
  8
0
  6
Continuous
 62
     0
370
     0
100
AcDbEllipse
 10
429.744232
 20
124.491756
 30
0.0
 11
-1.499997717484668
 21
-0.002616780614927137
 31
0.0
210
0.0
220
0.0
230
1.0
 40
0.023493
 41
1.492502766788068
 42
3.067488891980149
  0
ELLIPSE
  5
DA
330
CA
100
AcDbEntity
  8
0
  6
Continuous
 62
     0
370
     0
100
AcDbEllipse
 10
428.720408
 20
137.431739
 30
0.0
 11
1.426549999433771
 21
0.463632504377672
 31
0.0
210
0.0
220
0.0
230
-1.0
 40
0.822832
 41
0.3761703310478633
 42
1.832103405725799
  0
SPLINE
  5
DB
330
CA
100
AcDbEntity
  8
0
  6
Continuous
 62
     0
370
     0
100
AcDbSpline
210
0.0
220
0.0
230
1.0
 70
     8
 71
     3
 72
    21
 73
    17
 74
     0
 42
0.000000001
 43
0.0
 40
0.0
 40
0.0
 40
0.0
 40
0.0
 40
5.594315440448668
 40
10.61069848511555
 40
15.10408009727379
 40
19.16112536503131
 40
23.3325390180121
 40
28.1865997306912
 40
31.65077471870194
 40
35.17005316295101
 40
40.52516576235791
 40
45.08449179228545
 40
49.40095951828991
 40
50.98784248892994
 40
53.5600897172287
 40
56.70864473622917
 40
56.70864473622917
 40
56.70864473622917
 40
56.70864473622917
 10
428.720407997333
 20
136.1779979589203
 30
0.0
 10
428.4142400119457
 20
137.188977103085
 30
0.0
 10
427.7712644635736
 20
139.466804289042
 30
0.0
 10
426.9037652862431
 20
143.5121109289461
 30
0.0
 10
426.3050178790666
 20
147.6474794004079
 30
0.0
 10
425.9817040688809
 20
151.8053845141389
 30
0.0
 10
425.9317897381289
 20
156.2002292201055
 30
0.0
 10
426.1891078906762
 20
160.3323791645259
 30
0.0
 10
426.6572899751932
 20
164.0147088669165
 30
0.0
 10
427.2917160344046
 20
167.5565393738068
 30
0.0
 10
428.1014999852258
 20
170.8950192476977
 30
0.0
 10
428.9269640023251
 20
173.6632591818004
 30
0.0
 10
429.4078597584966
 20
175.1145574180939
 30
0.0
 10
429.6811547661105
 20
175.9385981531315
 30
0.0
 10
429.8485121312032
 20
176.4287753082465
 30
0.0
 10
429.8956564537859
 20
176.5660956446149
 30
0.0
 10
429.8954448801805
 20
176.5661238549655
 30
0.0
  0
ARC
  5
DC
330
CA
100
AcDbEntity
  8
0
  6
Continuous
 62
     0
370
    30
100
AcDbCircle
 10
429.89549
 20
70.06547
 30
0.0
 40
1.50000000000003
100
AcDbArc
 50
264.154889
 51
304.248589
  0
LINE
  5
DD
330
CA
100
AcDbEntity
  8
0
  6
Continuous
 62
     0
370
    30
100
AcDbLine
 10
409.671426
 20
132.566195
 30
0.0
 11
400.363643
 21
132.566196
 31
0.0
  0
LINE
  5
DE
330
CA
100
AcDbEntity
  8
0
  6
Continuous
 62
     0
370
    30
100
AcDbLine
 10
400.363643
 20
132.566196
 30
0.0
 11
400.363644
 21
147.0663
 31
0.0
  0
ARC
  5
DF
330
CA
100
AcDbEntity
  8
0
  6
Continuous
 62
     0
370
    30
100
AcDbCircle
 10
460.370471
 20
147.064742
 30
0.0
 40
60.0068280821395
100
AcDbArc
 50
155.001441
 51
179.998512
  0
LINE
  5
E0
330
CA
100
AcDbEntity
  8
0
  6
Continuous
 62
     0
370
    30
100
AcDbLine
 10
405.985178
 20
172.423355
 30
0.0
 11
407.917046
 21
176.566195
 31
0.0
  0
ARC
  5
E1
330
CA
100
AcDbEntity
  8
0
  6
Continuous
 62
     0
370
    30
100
AcDbCircle
 10
409.669331
 20
122.766096
 30
0.0
 40
9.800098886856201
100
AcDbArc
 50
2.726319
 51
89.987748
  0
SPLINE
  5
E2
330
CA
100
AcDbEntity
  8
0
  6
Continuous
 62
     0
370
     0
100
AcDbSpline
210
0.0
220
0.0
230
1.0
 70
     8
 71
     3
 72
    16
 73
    12
 74
     0
 42
0.000000001
 43
0.0
 40
0.0
 40
0.0
 40
0.0
 40
0.0
 40
1.543284002504873
 40
3.086353918586421
 40
3.858114764015032
 40
4.629894105402457
 40
5.401536259293343
 40
6.173306702456756
 40
7.716191491582623
 40
9.256961009899756
 40
10.79668977389726
 40
10.79668977389726
 40
10.79668977389726
 40
10.79668977389726
 10
415.4032355827347
 20
134.2664575270165
 30
0.0
 10
414.9785205066629
 20
134.1545659313865
 30
0.0
 10
414.1527514245959
 20
133.9276716133211
 30
0.0
 10
413.1937568166433
 20
133.6465386012968
 30
0.0
 10
412.4828079134304
 20
133.4304624160615
 30
0.0
 10
411.9747002412057
 20
133.2758283143177
 30
0.0
 10
411.5242096661598
 20
133.1256989859692
 30
0.0
 10
410.9670906593755
 20
132.9436857877551
 30
0.0
 10
410.3313616333945
 20
132.7559132945866
 30
0.0
 10
409.7933093317768
 20
132.603171024525
 30
0.0
 10
409.6691295065394
 20
132.566198597215
 30
0.0
 10
409.6714260342057
 20
132.5661951098837
 30
0.0
  0
LINE
  5
E3
330
CA
100
AcDbEntity
  8
0
  6
Continuous
 62
     0
370
     0
100
AcDbLine
 10
423.368921
 20
76.918573
 30
0.0
 11
429.675719
 21
76.918587
 31
0.0
  0
SPLINE
  5
E4
330
CA
100
AcDbEntity
  8
0
  6
Continuous
 62
     0
370
     0
100
AcDbSpline
210
0.0
220
0.0
230
1.0
 70
     8
 71
     9
 72
    20
 73
    10
 74
     0
 42
0.000000001
 43
0.0
 40
0.0
 40
0.0
 40
0.0
 40
0.0
 40
0.0
 40
0.0
 40
0.0
 40
0.0
 40
0.0
 40
0.0
 40
0.2499999949532689
 40
0.2499999949532689
 40
0.2499999949532689
 40
0.2499999949532689
 40
0.2499999949532689
 40
0.2499999949532689
 40
0.2499999949532689
 40
0.2499999949532689
 40
0.2499999949532689
 40
0.2499999949532689
 10
421.6633106029458
 20
76.91855318640934
 30
0.0
 10
421.6633105706036
 20
76.91855517446034
 30
0.0
 10
421.7028728474701
 20
76.91854445227168
 30
0.0
 10
421.7901032274191
 20
76.91854861782855
 30
0.0
 10
421.9337772398945
 20
76.9185537484052
 30
0.0
 10
422.1448467034398
 20
76.91855955736622
 30
0.0
 10
422.407199206684
 20
76.91856476405093
 30
0.0
 10
422.705136271496
 20
76.91856888823446
 30
0.0
 10
423.0281630034348
 20
76.91857160254929
 30
0.0
 10
423.368920622468
 20
76.91857270048655
 30
0.0
  0
ELLIPSE
  5
E5
330
CA
100
AcDbEntity
  8
0
  6
Continuous
 62
     0
370
     0
100
AcDbEllipse
 10
415.403235
 20
123.834577
 30
0.0
 11
2.96810907350668
 21
-10.90906287524288
 31
0.0
210
0.0
220
0.0
230
-1.0
 40
0.532078
 41
3.614277646589807
 42
4.82558200655609
  0
SPLINE
  5
E6
330
CA
100
AcDbEntity
  8
0
  6
Continuous
 62
     0
370
     0
100
AcDbSpline
210
0.0
220
0.0
230
1.0
 70
     8
 71
     3
 72
    16
 73
    12
 74
     0
 42
0.000000001
 43
0.0
 40
0.0
 40
0.0
 40
0.0
 40
0.0
 40
0.7200721354848213
 40
1.381009099881517
 40
1.693473883852203
 40
1.994629261538791
 40
2.28343254963038
 40
2.568905394880828
 40
3.135464431981124
 40
3.678694852610645
 40
4.210774072366416
 40
4.210774072366416
 40
4.210774072366416
 40
4.210774072366416
 10
421.5058189635083
 20
124.1715429566741
 30
0.0
 10
421.3045777426469
 20
124.1546271250905
 30
0.0
 10
420.9321276501281
 20
124.1073399768801
 30
0.0
 10
420.524508874361
 20
124.0062021683474
 30
0.0
 10
420.2545601773859
 20
123.902717385325
 30
0.0
 10
420.0812693846577
 20
123.819089645049
 30
0.0
 10
419.9264927812126
 20
123.7584497053824
 30
0.0
 10
419.7547350003019
 20
123.6446385315857
 30
0.0
 10
419.5996445290173
 20
123.4550862623614
 30
0.0
 10
419.4847142021043
 20
123.2722113595993
 30
0.0
 10
419.4583358683543
 20
123.2322419040362
 30
0.0
 10
419.4583369975317
 20
123.2322407672048
 30
0.0
  0
ELLIPSE
  5
E7
330
CA
100
AcDbEntity
  8
0
  6
Continuous
 62
     0
370
     0
100
AcDbEllipse
 10
429.814752
 20
76.950745
 30
0.0
 11
-1.49999898886113
 21
-0.001741670344328226
 31
0.0
210
0.0
220
0.0
230
1.0
 40
0.021424
 41
1.477949412419832
 42
3.087460672983013
  0
LINE
  5
E8
330
CA
100
AcDbEntity
  8
0
  6
Continuous
 62
     0
370
    30
100
AcDbLine
 10
397.363644
 20
176.666193
 30
0.0
 11
397.363644
 21
132.466193
 31
0.0
  0
LINE
  5
E9
330
CA
100
AcDbEntity
  8
0
  6
Continuous
 62
     0
370
    30
100
AcDbLine
 10
389.063644
 20
243.566193
 30
0.0
 11
389.063644
 21
154.566193
 31
0.0
  0
LINE
  5
EA
330
CA
100
AcDbEntity
  8
0
  6
Continuous
 62
     0
370
    30
100
AcDbLine
 10
389.063644
 20
154.566193
 30
0.0
 11
389.063644
 21
65.566193
 31
0.0
  0
LINE
  5
EB
330
CA
100
AcDbEntity
  8
0
  6
Continuous
 62
     0
370
     0
100
AcDbLine
 10
388.063644
 20
244.566193
 30
0.0
 11
388.063644
 21
154.566193
 31
0.0
  0
LINE
  5
EC
330
CA
100
AcDbEntity
  8
0
  6
Continuous
 62
     0
370
     0
100
AcDbLine
 10
388.063644
 20
154.566193
 30
0.0
 11
388.063644
 21
64.566193
 31
0.0
  0
LINE
  5
ED
330
CA
100
AcDbEntity
  8
0
  6
Continuous
 62
     0
370
    30
100
AcDbLine
 10
377.063644
 20
244.566193
 30
0.0
 11
377.063644
 21
154.566193
 31
0.0
  0
LINE
  5
EE
330
CA
100
AcDbEntity
  8
0
  6
Continuous
 62
     0
370
    30
100
AcDbLine
 10
377.063644
 20
154.566193
 30
0.0
 11
377.063644
 21
64.566193
 31
0.0
  0
LINE
  5
EF
330
CA
100
AcDbEntity
  8
0
  6
Continuous
 62
     0
370
    30
100
AcDbLine
 10
397.363644
 20
176.666193
 30
0.0
 11
389.063644
 21
176.666193
 31
0.0
  0
ARC
  5
F0
330
CA
100
AcDbEntity
  8
0
  6
Continuous
 62
     0
370
    30
100
AcDbCircle
 10
395.993738
 20
154.462016
 30
0.0
 40
20.49999999999542
100
AcDbArc
 50
60.90313
 51
86.168371
  0
LINE
  5
F1
330
CA
100
AcDbEntity
  8
0
  6
Continuous
 62
     0
370
    30
100
AcDbLine
 10
388.063644
 20
64.566193
 30
0.0
 11
377.063644
 21
64.566193
 31
0.0
  0
LINE
  5
F2
330
CA
100
AcDbEntity
  8
0
  6
Continuous
 62
     0
370
    30
100
AcDbLine
 10
388.063644
 20
244.566193
 30
0.0
 11
377.063644
 21
244.566193
 31
0.0
  0
ARC
  5
F3
330
CA
100
AcDbEntity
  8
0
  6
Continuous
 62
     0
370
    30
100
AcDbCircle
 10
388.063632
 20
65.566205
 30
0.0
 40
1.000011948575663
100
AcDbArc
 50
270.000685
 51
359.999315
  0
ARC
  5
F4
330
CA
100
AcDbEntity
  8
0
  6
Continuous
 62
     0
370
    30
100
AcDbCircle
 10
388.063632
 20
243.566181
 30
0.0
 40
1.000011948575663
100
AcDbArc
 50
0.000685
 51
89.999315
  0
LINE
  5
F5
330
CA
100
AcDbEntity
  8
0
  6
Continuous
 62
     0
370
    30
100
AcDbLine
 10
397.363644
 20
132.466193
 30
0.0
 11
389.063644
 21
132.466193
 31
0.0
  0
ARC
  5
F6
330
CA
100
AcDbEntity
  8
0
  6
Continuous
 62
     0
370
    30
100
AcDbCircle
 10
395.993738
 20
154.67037
 30
0.0
 40
20.5000000000649
100
AcDbArc
 50
273.831629
 51
282.307962
  0
LINE
  5
F7
330
CA
100
AcDbEntity
  8
0
  6
Continuous
 62
     0
370
    30
100
AcDbLine
 10
429.895445
 20
176.566194
 30
0.0
 11
407.917046
 21
176.566195
 31
0.0
  0
SPLINE
  5
F8
330
CA
100
AcDbEntity
  8
0
  6
Continuous
 62
     0
370
    30
100
AcDbSpline
210
0.0
220
0.0
230
1.0
 70
     8
 71
     3
 72
    18
 73
    14
 74
     0
 42
0.000000001
 43
0.0
 40
0.0
 40
0.0
 40
0.0
 40
0.0
 40
0.0769714553120118
 40
0.1540164079529041
 40
0.3077767900579789
 40
0.4612611705688364
 40
0.6916440018662321
 40
0.9989261798572857
 40
1.152567208186822
 40
1.229387680467143
 40
1.306208153389574
 40
1.383028626915779
 40
1.459849101002101
 40
1.459849101002101
 40
1.459849101002101
 40
1.459849101002101
 10
431.3954918415695
 20
70.0655064172121
 30
0.0
 10
431.3954918508517
 20
70.04027332570384
 30
0.0
 10
431.3941946028039
 20
69.9888100341736
 30
0.0
 10
431.3863278777694
 20
69.88659884037551
 30
0.0
 10
431.3666969071189
 20
69.75978671664396
 30
0.0
 10
431.3212397182097
 20
69.58619751418755
 30
0.0
 10
431.2346759718955
 20
69.37191212666725
 30
0.0
 10
431.1109269122858
 20
69.17611621403385
 30
0.0
 10
430.9930499292923
 20
69.04066224266305
 30
0.0
 10
430.9198599923825
 20
68.96904826728945
 30
0.0
 10
430.862764902252
 20
68.91731589371734
 30
0.0
 10
430.8012815242751
 20
68.8720262437197
 30
0.0
 10
430.7633228067854
 20
68.83536823714249
 30
0.0
 10
430.7396669001167
 20
68.82556480059912
 30
0.0
  0
ARC
  5
F9
330
CA
100
AcDbEntity
  8
0
  6
Continuous
 62
     0
370
    30
100
AcDbCircle
 10
429.895387
 20
175.066023
 30
0.0
 40
1.500101343972653
100
AcDbArc
 50
0.003988
 51
89.997802
  0
LINE
  5
FA
330
CA
100
AcDbEntity
  8
0
  6
Continuous
 62
     0
370
    30
100
AcDbLine
 10
431.395492
 20
70.079693
 30
0.0
 11
431.395492
 21
175.066125
 31
0.0
  0
ENDBLK
  5
FC
330
CA
100
AcDbEntity
  8
0
100
AcDbBlockEnd
  0
BLOCK
  5
11A
330
FE
100
AcDbEntity
  8
0
100
AcDbBlockBegin
  2
d
 70
     0
 10
0.0
 20
-67.304321
 30
0.0
  3
d
  1

  0
SPLINE
  5
FF
330
FE
100
AcDbEntity
  8
0
  6
Continuous
 62
     0
370
    30
100
AcDbSpline
210
0.0
220
0.0
230
1.0
 70
     8
 71
     3
 72
    25
 73
    21
 74
     0
 42
0.000000001
 43
0.0
 40
20.61930046728595
 40
20.61930046728595
 40
20.61930046728595
 40
20.61930046728595
 40
22.82376401864989
 40
26.60753882794127
 40
30.40074605177661
 40
34.20808272081523
 40
38.03372712295521
 40
41.87959806736609
 40
45.74849768660263
 40
49.62627423926557
 40
53.5087752936935
 40
57.39089106357642
 40
61.26904887813672
 40
65.13758184538766
 40
68.98387127952655
 40
72.80944131617572
 40
76.61684384179974
 40
80.41007844577194
 40
84.19392074791796
 40
86.40034883276319
 40
86.40034883276319
 40
86.40034883276319
 40
86.40034883276319
 10
191.3350718685987
 20
-136.8888112425339
 30
0.0
 10
191.3350778776783
 20
-136.8888272238464
 30
0.0
 10
191.2254962762698
 20
-136.9302234687296
 30
0.0
 10
190.5615800644243
 20
-137.1799858710399
 30
0.0
 10
189.1178589207489
 20
-137.696659203574
 30
0.0
 10
187.0617449932737
 20
-138.3717505784965
 30
0.0
 10
184.4622983711402
 20
-139.1199399564118
 30
0.0
 10
181.3917729960154
 20
-139.8463524838755
 30
0.0
 10
177.9324567946146
 20
-140.4505311905502
 30
0.0
 10
174.1925949406797
 20
-140.8348861005445
 30
0.0
 10
170.3060014165038
 20
-140.9719052680873
 30
0.0
 10
166.4191663844694
 20
-140.8371213264389
 30
0.0
 10
162.6790104435692
 20
-140.4549999010483
 30
0.0
 10
159.2192145953028
 20
-139.852960943184
 30
0.0
 10
156.1479370854174
 20
-139.1281338867514
 30
0.0
 10
153.54801094094
 20
-138.3812246239095
 30
0.0
 10
151.4915669247721
 20
-137.7071124936629
 30
0.0
 10
150.0473717909634
 20
-137.1910180075247
 30
0.0
 10
149.3833352138802
 20
-136.9415562516804
 30
0.0
 10
149.2736227876257
 20
-136.9001729791709
 30
0.0
 10
149.2736278874465
 20
-136.9001594296228
 30
0.0
  0
SPLINE
  5
100
330
FE
100
AcDbEntity
  8
0
  6
Continuous
 62
     0
370
     0
100
AcDbSpline
210
0.0
220
0.0
230
1.0
 70
     8
 71
     3
 72
    25
 73
    21
 74
     0
 42
0.000000001
 43
0.0
 40
21.94274486945001
 40
21.94274486945001
 40
21.94274486945001
 40
21.94274486945001
 40
23.3325390180121
 40
28.1865997306912
 40
31.65077471870194
 40
35.17005316295101
 40
40.52516576235791
 40
45.08449179228545
 40
49.40095951828991
 40
50.98784248892994
 40
53.5600897172287
 40
57.63180409922852
 40
61.71794092077714
 40
65.77414287274777
 40
70.60732300077261
 40
75.54753558958703
 40
80.67002611278147
 40
84.95256755626764
 40
89.22417508003764
 40
91.4752641439462
 40
91.4752641439462
 40
91.4752641439462
 40
91.4752641439462
 10
148.3040586292194
 20
-135.4970463235009
 30
0.0
 10
148.3040647639507
 20
-135.4970289044846
 30
0.0
 10
148.3701681727247
 20
-135.5201946527677
 30
0.0
 10
148.9361954675501
 20
-135.7202046208178
 30
0.0
 10
150.3354812005059
 20
-136.1883869274594
 30
0.0
 10
152.3658389128079
 20
-136.8228132302388
 30
0.0
 10
155.2913330997586
 20
-137.6325974548669
 30
0.0
 10
159.0895477260995
 20
-138.4580617589951
 30
0.0
 10
162.2501655006645
 20
-138.9389577167598
 30
0.0
 10
164.9480432429575
 20
-139.2122528783217
 30
0.0
 10
167.6420104589069
 20
-139.4007521715124
 30
0.0
 10
171.2422902651826
 20
-139.4637925072858
 30
0.0
 10
175.3035681394042
 20
-139.2704111491892
 30
0.0
 10
179.41368519812
 20
-138.8122078362222
 30
0.0
 10
183.3891184701159
 20
-138.0774882007543
 30
0.0
 10
187.0184852707865
 20
-137.173390976792
 30
0.0
 10
189.7228982022732
 20
-136.3599255347492
 30
0.0
 10
191.4719178597791
 20
-135.7781253831347
 30
0.0
 10
192.1922080018129
 20
-135.5253056555338
 30
0.0
 10
192.3038763989896
 20
-135.486024275443
 30
0.0
 10
192.3038733794457
 20
-135.4860156704342
 30
0.0
  0
SPLINE
  5
101
330
FE
100
AcDbEntity
  8
0
  6
Continuous
 62
     0
370
    30
100
AcDbSpline
210
0.0
220
0.0
230
1.0
 70
     8
 71
     3
 72
    14
 73
    10
 74
     0
 42
0.000000001
 43
0.0
 40
0.0
 40
0.0
 40
0.0
 40
0.0
 40
4.158825118104416
 40
8.317588845840763
 40
12.47670393802152
 40
16.63642018897948
 40
20.79666226232271
 40
24.95719017941661
 40
29.11752450153854
 40
29.11752450153854
 40
29.11752450153854
 40
29.11752450153854
 10
149.6218336546467
 20
-109.8947394444027
 30
0.0
 10
149.1492464804589
 20
-109.894739521672
 30
0.0
 10
148.4495866116384
 20
-109.9810322005465
 30
0.0
 10
148.1844386769636
 20
-110.4037043337804
 30
0.0
 10
148.6947832375702
 20
-111.1126489599048
 30
0.0
 10
149.9364116453307
 20
-112.0625405659034
 30
0.0
 10
151.8435225981298
 20
-113.1800968426545
 30
0.0
 10
154.3447716274831
 20
-114.373630308297
 30
0.0
 10
156.3679456576711
 20
-115.1518380353413
 30
0.0
 10
157.4540144484725
 20
-115.5162753796516
 30
0.0
  0
ELLIPSE
  5
102
330
FE
100
AcDbEntity
  8
0
  6
Continuous
 62
     0
370
    30
100
AcDbEllipse
 10
170.30399
 20
-107.189375
 30
0.0
 11
-21.99999999997423
 21
6.605597507366975E-5
 31
0.0
210
0.0
220
0.0
230
1.0
 40
0.466308
 41
0.9470395082992578
 42
2.194566023244709
  0
SPLINE
  5
103
330
FE
100
AcDbEntity
  8
0
  6
Continuous
 62
     0
370
    30
100
AcDbSpline
210
0.0
220
0.0
230
1.0
 70
     8
 71
     3
 72
    14
 73
    10
 74
     0
 42
0.000000001
 43
0.0
 40
0.0
 40
0.0
 40
0.0
 40
0.0
 40
4.160334632249884
 40
8.320862856030624
 40
12.48110524863525
 40
16.64082177771166
 40
20.79993724334343
 40
24.95870119173146
 40
29.11752654309027
 40
29.11752654309027
 40
29.11752654309027
 40
29.11752654309027
 10
183.1541448669933
 20
-115.5162753796459
 30
0.0
 10
184.2402058257067
 20
-115.1518380205542
 30
0.0
 10
186.2633622113466
 20
-114.3736302441382
 30
0.0
 10
188.7645797483535
 20
-113.1800967867098
 30
0.0
 10
190.6716548472412
 20
-112.062540287769
 30
0.0
 10
191.9132439902668
 20
-111.1126490699305
 30
0.0
 10
192.4235469311689
 20
-110.4037037499695
 30
0.0
 10
192.1583566126916
 20
-109.9810317517575
 30
0.0
 10
191.4586690217083
 20
-109.8947430150098
 30
0.0
 10
190.9860684803202
 20
-109.8947428596997
 30
0.0
  0
LINE
  5
104
330
FE
100
AcDbEntity
  8
0
  6
Continuous
 62
     0
370
     0
100
AcDbLine
 10
157.454014
 20
-115.516275
 30
0.0
 11
183.154145
 21
-115.516275
 31
0.0
  0
LINE
  5
105
330
FE
100
AcDbEntity
  8
0
  6
Continuous
 62
     0
370
    30
100
AcDbLine
 10
192.403986
 20
-106.894742
 30
0.0
 11
170.303986
 21
-106.894742
 31
0.0
  0
LINE
  5
106
330
FE
100
AcDbEntity
  8
0
  6
Continuous
 62
     0
370
    30
100
AcDbLine
 10
170.303986
 20
-106.894742
 30
0.0
 11
148.203986
 21
-106.894742
 31
0.0
  0
ARC
  5
107
330
FE
100
AcDbEntity
  8
0
  6
Continuous
 62
     0
370
    30
100
AcDbCircle
 10
81.303998
 20
-97.59473
 30
0.0
 40
1.000011948575563
100
AcDbArc
 50
180.000685
 51
269.999315
  0
LINE
  5
108
330
FE
100
AcDbEntity
  8
0
  6
Continuous
 62
     0
370
    30
100
AcDbLine
 10
80.303986
 20
-97.594742
 30
0.0
 11
80.303986
 21
-86.594742
 31
0.0
  0
LINE
  5
109
330
FE
100
AcDbEntity
  8
0
  6
Continuous
 62
     0
370
    30
100
AcDbLine
 10
259.303986
 20
-98.594742
 30
0.0
 11
81.303986
 21
-98.594742
 31
0.0
  0
LINE
  5
10A
330
FE
100
AcDbEntity
  8
0
  6
Continuous
 62
     0
370
     0
100
AcDbLine
 10
260.303986
 20
-97.594742
 30
0.0
 11
80.303986
 21
-97.594742
 31
0.0
  0
LINE
  5
10B
330
FE
100
AcDbEntity
  8
0
  6
Continuous
 62
     0
370
    30
100
AcDbLine
 10
260.303986
 20
-86.594742
 30
0.0
 11
80.303986
 21
-86.594742
 31
0.0
  0
LINE
  5
10C
330
FE
100
AcDbEntity
  8
0
  6
Continuous
 62
     0
370
    30
100
AcDbLine
 10
149.621834
 20
-109.894739
 30
0.0
 11
150.379335
 21
-109.89474
 31
0.0
  0
LINE
  5
10D
330
FE
100
AcDbEntity
  8
0
  6
Continuous
 62
     0
370
    30
100
AcDbLine
 10
190.228635
 20
-109.894743
 30
0.0
 11
190.986068
 21
-109.894743
 31
0.0
  0
SPLINE
  5
10E
330
FE
100
AcDbEntity
  8
0
  6
Continuous
 62
     0
370
    30
100
AcDbSpline
210
0.0
220
0.0
230
1.0
 70
     8
 71
     3
 72
    16
 73
    12
 74
     0
 42
0.000000001
 43
0.0
 40
7.695826627439097
 40
7.695826627439097
 40
7.695826627439097
 40
7.695826627439097
 40
7.700796967603642
 40
11.71768404387045
 40
15.64425962560228
 40
19.72398486035164
 40
23.80277140055253
 40
28.59879344535985
 40
32.77928422325737
 40
35.86263482379658
 40
37.7462470872918
 40
37.7462470872918
 40
37.7462470872918
 40
37.7462470872918
 10
190.1202592896669
 20
-110.3648398417053
 30
0.0
 10
190.1202090777332
 20
-110.3650468029203
 30
0.0
 10
190.0793966215477
 20
-110.5325696458293
 30
0.0
 10
189.7070531440761
 20
-110.9527744047521
 30
0.0
 10
188.3082064133378
 20
-111.7944407969621
 30
0.0
 10
186.1346319079356
 20
-112.7577018843801
 30
0.0
 10
183.09159056822
 20
-113.7886067810032
 30
0.0
 10
179.4020708666744
 20
-114.6845479368946
 30
0.0
 10
175.6020940842882
 20
-115.246037693034
 30
0.0
 10
172.5876940045858
 20
-115.4613335697395
 30
0.0
 10
170.9316344987151
 20
-115.4937341484832
 30
0.0
 10
170.303985618049
 20
-115.4937329711198
 30
0.0
  0
SPLINE
  5
10F
330
FE
100
AcDbEntity
  8
0
  6
Continuous
 62
     0
370
    30
100
AcDbSpline
210
0.0
220
0.0
230
1.0
 70
     8
 71
     3
 72
    16
 73
    12
 74
     0
 42
0.000000001
 43
0.0
 40
0.0
 40
0.0
 40
0.0
 40
0.0
 40
1.883616695570599
 40
4.966983038107571
 40
9.147543813957672
 40
13.94356093455646
 40
18.0223517497216
 40
22.1020798885001
 40
26.02865167613731
 40
30.04553340338628
 40
30.0504437342808
 40
30.0504437342808
 40
30.0504437342808
 40
30.0504437342808
 10
170.303985618049
 20
-115.4937329711198
 30
0.0
 10
169.6763352616033
 20
-115.4937317937537
 30
0.0
 10
168.0202690039675
 20
-115.4613247930154
 30
0.0
 10
165.0058392671745
 20
-115.2460150016931
 30
0.0
 10
161.2058396053952
 20
-114.684504789554
 30
0.0
 10
157.5163097961159
 20
-113.7885455452167
 30
0.0
 10
154.4732805024817
 20
-112.75763605921
 30
0.0
 10
152.2997205460913
 20
-111.7943787367697
 30
0.0
 10
150.9008918786107
 20
-110.9527237479307
 30
0.0
 10
150.5285636353465
 20
-110.5325342061889
 30
0.0
 10
150.4877554064527
 20
-110.3650191951922
 30
0.0
 10
150.4877058024142
 20
-110.3648147381348
 30
0.0
  0
LINE
  5
110
330
FE
100
AcDbEntity
  8
0
  6
Continuous
 62
     0
370
    30
100
AcDbLine
 10
260.303986
 20
-97.594742
 30
0.0
 11
260.303986
 21
-86.594742
 31
0.0
  0
ARC
  5
111
330
FE
100
AcDbEntity
  8
0
  6
Continuous
 62
     0
370
    30
100
AcDbCircle
 10
259.303974
 20
-97.59473
 30
0.0
 40
1.000011948575563
100
AcDbArc
 50
270.000685
 51
359.999315
  0
LINE
  5
112
330
FE
100
AcDbEntity
  8
0
  6
Continuous
 62
     0
370
    30
100
AcDbLine
 10
148.203986
 20
-106.894742
 30
0.0
 11
148.203986
 21
-98.594742
 31
0.0
  0
LINE
  5
113
330
FE
100
AcDbEntity
  8
0
  6
Continuous
 62
     0
370
    30
100
AcDbLine
 10
192.403986
 20
-106.894742
 30
0.0
 11
192.403986
 21
-98.594742
 31
0.0
  0
ARC
  5
114
330
FE
100
AcDbEntity
  8
0
  6
Continuous
 62
     0
370
    30
100
AcDbCircle
 10
170.408163
 20
-105.524835
 30
0.0
 40
20.49999999991031
100
AcDbArc
 50
183.831629
 51
193.656582
  0
ARC
  5
115
330
FE
100
AcDbEntity
  8
0
  6
Continuous
 62
     0
370
    30
100
AcDbCircle
 10
170.199809
 20
-105.524835
 30
0.0
 40
20.49999999999862
100
AcDbArc
 50
346.343347
 51
356.168371
  0
LINE
  5
116
330
FE
100
AcDbEntity
  8
0
  6
Continuous
 62
     0
370
    30
100
AcDbLine
 10
192.303987
 20
-135.486012
 30
0.0
 11
192.303989
 21
-110.365568
 31
0.0
  0
LINE
  5
117
330
FE
100
AcDbEntity
  8
0
  6
Continuous
 62
     0
370
    30
100
AcDbLine
 10
148.303987
 20
-135.497173
 30
0.0
 11
148.303989
 21
-110.36554
 31
0.0
  0
SPLINE
  5
118
330
FE
100
AcDbEntity
  8
0
  6
Continuous
 62
     0
370
    30
100
AcDbSpline
210
0.0
220
0.0
230
1.0
 70
     8
 71
     3
 72
    24
 73
    20
 74
     0
 42
0.000000001
 43
0.0
 40
0.0
 40
0.0
 40
0.0
 40
0.0
 40
0.5469610087582578
 40
0.8801124295460473
 40
1.102214152978352
 40
1.213265083634599
 40
1.324316037856798
 40
1.435373315957268
 40
1.546430549393958
 40
1.60199054267883
 40
1.657550402827326
 40
1.713257533751894
 40
1.770760774196167
 40
1.785029823925639
 40
1.808694922357704
 40
1.822925306576606
 40
1.860392485303959
 40
1.944363808165122
 40
2.501480676503569
 40
2.501480676503569
 40
2.501480676503569
 40
2.501480676503569
 10
148.3040586273003
 20
-135.4970463350745
 30
0.0
 10
148.3040580197359
 20
-135.6783980255562
 30
0.0
 10
148.3582257948695
 20
-135.9730369391426
 30
0.0
 10
148.5276774399483
 20
-136.3013853519901
 30
0.0
 10
148.6644206178903
 20
-136.4772765653278
 30
0.0
 10
148.7678020600582
 20
-136.5834598624663
 30
0.0
 10
148.8510246918994
 20
-136.6571534717972
 30
0.0
 10
148.9394470494067
 20
-136.7244730590538
 30
0.0
 10
149.0171484489181
 20
-136.7750020489226
 30
0.0
 10
149.081311552716
 20
-136.8118401091897
 30
0.0
 10
149.1306555597408
 20
-136.8377706452825
 30
0.0
 10
149.1808676902403
 20
-136.8618757914033
 30
0.0
 10
149.2206832893144
 20
-136.8790987674075
 30
0.0
 10
149.2453089695898
 20
-136.8891175393329
 30
0.0
 10
149.2511457947546
 20
-136.8914338614134
 30
0.0
 10
149.2615120682646
 20
-136.8955078089209
 30
0.0
 10
149.2640274577739
 20
-136.8964593213686
 30
0.0
 10
149.2814073208171
 20
-136.9031707428761
 30
0.0
 10
149.2872442715571
 20
-136.9053585477873
 30
0.0
 10
149.2873211321107
 20
-136.9053299075663
 30
0.0
  0
SPLINE
  5
119
330
FE
100
AcDbEntity
  8
0
  6
Continuous
 62
     0
370
    30
100
AcDbSpline
210
0.0
220
0.0
230
1.0
 70
     8
 71
     3
 72
    22
 73
    18
 74
     0
 42
0.000000001
 43
0.0
 40
0.0
 40
0.0
 40
0.0
 40
0.0
 40
0.5466850176134898
 40
0.768705427105759
 40
0.9907260183794572
 40
1.101736381901664
 40
1.21274680570446
 40
1.434767850247651
 40
1.545778470233154
 40
1.656799568624509
 40
1.767955516417075
 40
1.779808391678988
 40
1.791660593311481
 40
1.800327147638902
 40
1.808992258571483
 40
1.830950969720416
 40
1.935922474086386
 40
1.935922474086386
 40
1.935922474086386
 40
1.935922474086386
 10
192.3038733796232
 20
-135.4860156715078
 30
0.0
 10
192.3038743061869
 20
-135.6672768627927
 30
0.0
 10
192.2565827008959
 20
-135.9246716183366
 30
0.0
 10
192.115871896308
 20
-136.2243232437911
 30
0.0
 10
192.0131585767462
 20
-136.3789046822142
 30
0.0
 10
191.917989899109
 20
-136.4924305262001
 30
0.0
 10
191.8146526475321
 20
-136.5986321560658
 30
0.0
 10
191.7001668055891
 20
-136.6928334467706
 30
0.0
 10
191.5755629191445
 20
-136.7738349272115
 30
0.0
 10
191.4795059075101
 20
-136.8268882426423
 30
0.0
 10
191.4050124425522
 20
-136.8607618981675
 30
0.0
 10
191.3668171124329
 20
-136.8763958506224
 30
0.0
 10
191.3559846747563
 20
-136.8807220897265
 30
0.0
 10
191.3511023345576
 20
-136.8826410270158
 30
0.0
 10
191.3420053299805
 20
-136.8861807177527
 30
0.0
 10
191.3377151082797
 20
-136.8877898321926
 30
0.0
 10
191.3317193467829
 20
-136.8901066679346
 30
0.0
 10
191.3317190173213
 20
-136.8901058146036
 30
0.0
  0
ENDBLK
  5
11B
330
FE
100
AcDbEntity
  8
0
100
AcDbBlockEnd
  0
BLOCK
  5
160
330
11D
100
AcDbEntity
  8
0
100
AcDbBlockBegin
  2
e
 70
     0
 10
0.0
 20
302.046631
 30
0.0
  3
e
  1

  0
SPLINE
  5
11E
330
11D
100
AcDbEntity
  8
0
  6
Continuous
 62
     0
370
     0
100
AcDbSpline
210
0.0
220
0.0
230
1.0
 70
     8
 71
     3
 72
    51
 73
    47
 74
     0
 42
0.000000001
 43
0.0
 40
-0.2491209316782168
 40
-0.2491209316782168
 40
-0.2491209316782168
 40
-0.2491209316782168
 40
0.0172888062846326
 40
0.283698544247482
 40
0.5361759639872332
 40
0.7886533837269845
 40
1.264355812211928
 40
1.711704342385453
 40
2.135531527316182
 40
2.54362909265288
 40
2.84136522546549
 40
3.139101358278097
 40
3.436837491090706
 40
3.734573623903316
 40
4.121595013275554
 40
4.508616402647792
 40
4.895637792020031
 40
5.271219299416476
 40
5.646800806812919
 40
6.022382314209363
 40
6.387999205790502
 40
6.753616097371641
 40
7.119232988952779
 40
7.475968387484169
 40
7.832703786015561
 40
8.18943918454695
 40
8.537644531245798
 40
8.885849877944647
 40
9.234055224643495
 40
9.573470127642883
 40
9.91288503064227
 40
10.25229993364166
 40
10.58456709066627
 40
10.91683424769088
 40
11.24910140471549
 40
11.5770298933331
 40
11.90495838195071
 40
12.23288687056831
 40
12.55829547015987
 40
12.88370406975143
 40
13.20911266934299
 40
13.53228223902436
 40
13.85545180870572
 40
14.17862137838709
 40
14.49864090275107
 40
14.77421567618841
 40
14.77421567618841
 40
14.77421567618841
 40
14.77421567618841
 10
166.9764286354847
 20
423.0438755665704
 30
0.0
 10
166.9581268245724
 20
423.071821084731
 30
0.0
 10
166.9221895110213
 20
423.1275836742589
 30
0.0
 10
166.8700544761907
 20
423.2111916986814
 30
0.0
 10
166.8185558840576
 20
423.2963995245483
 30
0.0
 10
166.7525483471158
 20
423.4090188442732
 30
0.0
 10
166.6721882625397
 20
423.5522629411413
 30
0.0
 10
166.5758979616063
 20
423.7334847044601
 30
0.0
 10
166.4805744523602
 20
423.921861015328
 30
0.0
 10
166.3945543681212
 20
424.0995299972569
 30
0.0
 10
166.3195222620633
 20
424.2601226174253
 30
0.0
 10
166.2539246341747
 20
424.4048100363824
 30
0.0
 10
166.1896524574974
 20
424.5509389461428
 30
0.0
 10
166.120569946685
 20
424.7129156751139
 30
0.0
 10
166.0474307266192
 20
424.8907361043112
 30
0.0
 10
165.9706962232218
 20
425.0852561215904
 30
0.0
 10
165.896970576663
 20
425.2802319657749
 30
0.0
 10
165.8259611800979
 20
425.4760741598541
 30
0.0
 10
165.7576565447803
 20
425.6725405620703
 30
0.0
 10
165.6919867115689
 20
425.8696963855073
 30
0.0
 10
165.628944775155
 20
426.0673267925234
 30
0.0
 10
165.5684499716295
 20
426.2653849843523
 30
0.0
 10
165.5103918942421
 20
426.464051612584
 30
0.0
 10
165.454698983644
 20
426.6632864393509
 30
0.0
 10
165.401301271091
 20
426.8630676746779
 30
0.0
 10
165.3501356878682
 20
427.0634659935789
 30
0.0
 10
165.3011364415983
 20
427.2644595189367
 30
0.0
 10
165.2541876185328
 20
427.466248310885
 30
0.0
 10
165.2092076503615
 20
427.6690019369274
 30
0.0
 10
165.1660856579681
 20
427.8728964582995
 30
0.0
 10
165.1247923792385
 20
428.0777424967616
 30
0.0
 10
165.0852529661928
 20
428.2837249187455
 30
0.0
 10
165.0474457735689
 20
428.4906788292341
 30
0.0
 10
165.0113947688976
 20
428.6981306424312
 30
0.0
 10
164.9770409626634
 20
428.9062306913913
 30
0.0
 10
164.9444199667199
 20
429.114548236172
 30
0.0
 10
164.9135359574816
 20
429.3228171771601
 30
0.0
 10
164.8843490836202
 20
429.5311683269102
 30
0.0
 10
164.8568730094247
 20
429.7393495644023
 30
0.0
 10
164.8310861227708
 20
429.9472622546878
 30
0.0
 10
164.8069662353236
 20
430.1548697787783
 30
0.0
 10
164.7844935955214
 20
430.3620761720365
 30
0.0
 10
164.7636155514548
 20
430.569372392237
 30
0.0
 10
164.7443034422216
 20
430.7770504757739
 30
0.0
 10
164.7273222934169
 20
430.9759621427089
 30
0.0
 10
164.7171501264767
 20
431.1052926085383
 30
0.0
 10
164.7126239554955
 20
431.1651238323378
 30
0.0
  0
SPLINE
  5
11F
330
11D
100
AcDbEntity
  8
0
  6
Continuous
 62
     0
370
     0
100
AcDbSpline
210
0.0
220
0.0
230
1.0
 70
     8
 71
     3
 72
    10
 73
     6
 74
     0
 42
0.000000001
 43
0.0
 40
0.0
 40
0.0
 40
0.0
 40
0.0
 40
4.634227616789205
 40
9.274292988611279
 40
13.90926336161969
 40
13.90926336161969
 40
13.90926336161969
 40
13.90926336161969
 10
164.7126311099486
 20
431.1650292599658
 30
0.0
 10
164.6778818596648
 20
431.14271120646
 30
0.0
 10
164.0924795602147
 20
431.0892119634561
 30
0.0
 10
161.8057484731233
 20
430.8883125849926
 30
0.0
 10
159.4983715863149
 20
430.5233392548321
 30
0.0
 10
158.2261456621163
 20
430.2584650999997
 30
0.0
  0
SPLINE
  5
120
330
11D
100
AcDbEntity
  8
0
  6
Continuous
 62
     0
370
     0
100
AcDbSpline
210
0.0
220
0.0
230
1.0
 70
     8
 71
     3
 72
    49
 73
    45
 74
     0
 42
0.000000001
 43
0.0
 40
2.032231000806121
 40
2.032231000806121
 40
2.032231000806121
 40
2.032231000806121
 40
2.220496446246721
 40
2.5405159706107
 40
2.860535494974679
 40
3.183705064656046
 40
3.506874634337414
 40
3.830044204018781
 40
4.155452803610339
 40
4.480861403201897
 40
4.806270002793455
 40
5.134198491411063
 40
5.462126980028669
 40
5.790055468646277
 40
6.122322625670888
 40
6.454589782695499
 40
6.78685693972011
 40
7.126271842719498
 40
7.465686745718886
 40
7.805101648718274
 40
8.153306995417122
 40
8.501512342115971
 40
8.849717688814819
 40
9.206453087346208
 40
9.5631884858776
 40
9.91992388440899
 40
10.28554077599013
 40
10.65115766757127
 40
11.01677455915241
 40
11.39235606654885
 40
11.76793757394529
 40
12.14351908134174
 40
12.53054047071398
 40
12.91756186008621
 40
13.30458324945845
 40
13.70156475987526
 40
14.09854627029208
 40
14.49552778070889
 40
14.90362534604559
 40
15.32745253097632
 40
15.77480106114984
 40
16.25050348963478
 40
16.75545832911429
 40
17.28827780503999
 40
17.28827780503999
 40
17.28827780503999
 40
17.28827780503999
 10
158.2261458264654
 20
430.2584636266755
 30
0.0
 10
158.2327864356429
 20
430.1989332234588
 30
0.0
 10
158.2509287472711
 20
430.0383038720533
 30
0.0
 10
158.2814463993008
 20
429.7768887893663
 30
0.0
 10
158.3183532056289
 20
429.4734507708613
 30
0.0
 10
158.3568368095394
 20
429.169570216352
 30
0.0
 10
158.3969437666991
 20
428.8653078759801
 30
0.0
 10
158.4386748272374
 20
428.561003838283
 30
0.0
 10
158.4820726150981
 20
428.25671555832
 30
0.0
 10
158.5271634500225
 20
427.9524727793548
 30
0.0
 10
158.5739817685811
 20
427.6482157049236
 30
0.0
 10
158.6225559068354
 20
427.3439755361104
 30
0.0
 10
158.6729098952647
 20
427.0397743204813
 30
0.0
 10
158.7251577142763
 20
426.7350702896428
 30
0.0
 10
158.7793346048925
 20
426.4298914543043
 30
0.0
 10
158.8354844631086
 20
426.1242640357494
 30
0.0
 10
158.8938034747786
 20
425.8173500236172
 30
0.0
 10
158.9543541965701
 20
425.5091854129418
 30
0.0
 10
159.0172258205998
 20
425.1998405019842
 30
0.0
 10
159.0825938259846
 20
424.8888793371059
 30
0.0
 10
159.1505625524611
 20
424.5763822386711
 30
0.0
 10
159.2212520468118
 20
424.2624672302022
 30
0.0
 10
159.2947398040725
 20
423.9473181197714
 30
0.0
 10
159.3711500134564
 20
423.6310596898397
 30
0.0
 10
159.450588769451
 20
423.3138010048975
 30
0.0
 10
159.5331620890967
 20
422.9955317830764
 30
0.0
 10
159.6189832765349
 20
422.6763693571925
 30
0.0
 10
159.7081663567203
 20
422.3564398100922
 30
0.0
 10
159.8008857478212
 20
422.0355359960224
 30
0.0
 10
159.8972695683522
 20
421.7137982238119
 30
0.0
 10
159.9974337541053
 20
421.3913515841978
 30
0.0
 10
160.101592261999
 20
421.0678761165669
 30
0.0
 10
160.2098787700406
 20
420.7435141944205
 30
0.0
 10
160.322472123056
 20
420.4185074296786
 30
0.0
 10
160.4393597952342
 20
420.0934777270255
 30
0.0
 10
160.5607145878585
 20
419.7686715277798
 30
0.0
 10
160.6866115608385
 20
419.4441827869442
 30
0.0
 10
160.8172069065427
 20
419.1197559738342
 30
0.0
 10
160.9543419230411
 20
418.7912931461271
 30
0.0
 10
161.1006473902762
 20
418.4519958486915
 30
0.0
 10
161.2586657637068
 20
418.0975455993837
 30
0.0
 10
161.4308631679986
 20
417.7257068409311
 30
0.0
 10
161.6197644396811
 20
417.3360244242978
 30
0.0
 10
161.7526928604252
 20
417.0758097403838
 30
0.0
 10
161.8233830058621
 20
416.9412915192873
 30
0.0
  0
SPLINE
  5
121
330
11D
100
AcDbEntity
  8
0
  6
Continuous
 62
     0
370
     0
100
AcDbSpline
210
0.0
220
0.0
230
1.0
 70
     8
 71
     3
 72
     8
 73
     4
 74
     0
 42
0.000000001
 43
0.0
 40
0.0
 40
0.0
 40
0.0
 40
0.0
 40
47.29239173494235
 40
47.29239173494235
 40
47.29239173494235
 40
47.29239173494235
 10
166.9764286354847
 20
423.0438755665704
 30
0.0
 10
167.1360054719901
 20
423.6648943944693
 30
0.0
 10
167.2872940411372
 20
424.2859598645712
 30
0.0
 10
167.4823635177411
 20
424.9069793131381
 30
0.0
  0
ARC
  5
122
330
11D
100
AcDbEntity
  8
0
  6
Continuous
 62
     0
370
     0
100
AcDbCircle
 10
167.403941
 20
382.771302
 30
0.0
 40
48.46859883767704
100
AcDbArc
 50
91.881242
 51
93.183146
  0
LINE
  5
123
330
11D
100
AcDbEntity
  8
0
  6
Continuous
 62
     0
370
     0
100
AcDbLine
 10
170.303746
 20
420.996394
 30
0.0
 11
170.303505
 21
423.201369
 31
0.0
  0
SPLINE
  5
124
330
11D
100
AcDbEntity
  8
0
  6
Continuous
 62
     0
370
     0
100
AcDbSpline
210
0.0
220
0.0
230
1.0
 70
     8
 71
     3
 72
    51
 73
    47
 74
     0
 42
0.000000001
 43
0.0
 40
-0.2491813246247681
 40
-0.2491813246247681
 40
-0.2491813246247681
 40
-0.2491813246247681
 40
0.017162016540933
 40
0.2835053577066304
 40
0.535923783967398
 40
0.7883422102281656
 40
1.263942214575966
 40
1.711200586147008
 40
2.134942605630988
 40
2.542951826897269
 40
2.840615940018559
 40
3.138280053139848
 40
3.435944166261139
 40
3.733608279382429
 40
4.120540898350511
 40
4.507473517318592
 40
4.894406136286674
 40
5.269903759059908
 40
5.645401381833143
 40
6.020899004606378
 40
6.386435538439976
 40
6.751972072273571
 40
7.117508606107169
 40
7.474166979734076
 40
7.83082535336098
 40
8.187483726987887
 40
8.535617365607935
 40
8.883751004227982
 40
9.23188464284803
 40
9.571231343209172
 40
9.910578043570315
 40
10.24992474393146
 40
10.58212092434274
 40
10.91431710475403
 40
11.24651328516531
 40
11.57436584635076
 40
11.90221840753621
 40
12.23007096872165
 40
12.55540209399189
 40
12.88073321926212
 40
13.20606434453236
 40
13.52915835777935
 40
13.85225237102633
 40
14.17534638427331
 40
14.49529944136774
 40
14.77103057224742
 40
14.77103057224742
 40
14.77103057224742
 40
14.77103057224742
 10
173.6312388426963
 20
423.0438835783044
 30
0.0
 10
173.6495357209857
 20
423.0718214506402
 30
0.0
 10
173.6854635606313
 20
423.1275688810727
 30
0.0
 10
173.7375852788465
 20
423.2111541225819
 30
0.0
 10
173.789070695486
 20
423.2963380329613
 30
0.0
 10
173.8550617557722
 20
423.408925611287
 30
0.0
 10
173.9354014403876
 20
423.5521273790814
 30
0.0
 10
174.0316660252041
 20
423.7332913763942
 30
0.0
 10
174.1269642278273
 20
423.9216066052433
 30
0.0
 10
174.2129637166474
 20
424.0992214107445
 30
0.0
 10
174.2879798660542
 20
424.2597682920292
 30
0.0
 10
174.3535645529502
 20
424.4044155223059
 30
0.0
 10
174.4178250924659
 20
424.5505048112001
 30
0.0
 10
174.4868958659009
 20
424.712437809923
 30
0.0
 10
174.5600225688817
 20
424.8902081177063
 30
0.0
 10
174.6367441974863
 20
425.084671713268
 30
0.0
 10
174.7104581036725
 20
425.2795903396616
 30
0.0
 10
174.7814572966566
 20
425.4753756058158
 30
0.0
 10
174.8497530884378
 20
425.6717851422587
 30
0.0
 10
174.9154152192231
 20
425.8688836652682
 30
0.0
 10
174.9784504406455
 20
426.0664561201837
 30
0.0
 10
175.0389395301724
 20
426.2644559270835
 30
0.0
 10
175.0969929195776
 20
426.4630638783742
 30
0.0
 10
175.1526821810629
 20
426.6622399360651
 30
0.0
 10
175.2060771029179
 20
426.8619617840344
 30
0.0
 10
175.2572406908595
 20
427.062299939351
 30
0.0
 10
175.3062385587478
 20
427.263232059364
 30
0.0
 10
175.3531865945951
 20
427.4649582766815
 30
0.0
 10
175.3981662747445
 20
427.6676478453514
 30
0.0
 10
175.4412884640795
 20
427.8714768923173
 30
0.0
 10
175.482582619505
 20
428.0762572718361
 30
0.0
 10
175.5221235571848
 20
428.2821736980374
 30
0.0
 10
175.5599331337931
 20
428.4890623583007
 30
0.0
 10
175.5959874434168
 20
428.6964503262959
 30
0.0
 10
175.630345496318
 20
428.9044881088281
 30
0.0
 10
175.6629717607616
 20
429.1127456164857
 30
0.0
 10
175.6938619203556
 20
429.3209554981282
 30
0.0
 10
175.7230558098711
 20
429.5292480706261
 30
0.0
 10
175.7505396164445
 20
429.7373700347488
 30
0.0
 10
175.776334991547
 20
429.9452241134085
 30
0.0
 10
175.8004642504625
 20
430.1527757718312
 30
0.0
 10
175.8229471636222
 20
430.3599303734028
 30
0.0
 10
175.8438358997416
 20
430.5671712451107
 30
0.0
 10
175.8631587756144
 20
430.7747844177338
 30
0.0
 10
175.8801537264549
 20
430.9736641988752
 30
0.0
 10
175.8903360781205
 20
431.1029934104977
 30
0.0
 10
175.8948688435704
 20
431.1628515611809
 30
0.0
  0
SPLINE
  5
125
330
11D
100
AcDbEntity
  8
0
  6
Continuous
 62
     0
370
     0
100
AcDbSpline
210
0.0
220
0.0
230
1.0
 70
     8
 71
     3
 72
    10
 73
     6
 74
     0
 42
0.000000001
 43
0.0
 40
0.0
 40
0.0
 40
0.0
 40
0.0
 40
4.634265232765271
 40
9.274351897431172
 40
13.90932365833864
 40
13.90932365833864
 40
13.90932365833864
 40
13.90932365833864
 10
175.8948617523492
 20
431.1627579188777
 30
0.0
 10
175.9296254630937
 20
431.1404250197565
 30
0.0
 10
176.5150435876645
 20
431.0866156353014
 30
0.0
 10
178.8017272073714
 20
430.8843153732316
 30
0.0
 10
181.1090270269701
 20
430.5179100818365
 30
0.0
 10
182.3811774293968
 20
430.2523115679896
 30
0.0
  0
SPLINE
  5
126
330
11D
100
AcDbEntity
  8
0
  6
Continuous
 62
     0
370
     0
100
AcDbSpline
210
0.0
220
0.0
230
1.0
 70
     8
 71
     3
 72
    49
 73
    45
 74
     0
 42
0.000000001
 43
0.0
 40
2.034582187951286
 40
2.034582187951286
 40
2.034582187951286
 40
2.034582187951286
 40
2.220107965080948
 40
2.540061022175372
 40
2.860014079269796
 40
3.18310809251678
 40
3.506202105763765
 40
3.82929611901075
 40
4.154627244280986
 40
4.479958369551222
 40
4.805289494821459
 40
5.133142056006906
 40
5.460994617192354
 40
5.788847178377801
 40
6.121043358789085
 40
6.45323953920037
 40
6.785435719611653
 40
7.124782419972796
 40
7.464129120333938
 40
7.803475820695081
 40
8.151609459315129
 40
8.499743097935175
 40
8.847876736555223
 40
9.20453511018213
 40
9.561193483809035
 40
9.917851857435942
 40
10.28338839126954
 40
10.64892492510314
 40
11.01446145893673
 40
11.38995908170997
 40
11.7654567044832
 40
12.14095432725644
 40
12.52788694622452
 40
12.9148195651926
 40
13.30175218416068
 40
13.6986376683224
 40
14.09552315248412
 40
14.49240863664584
 40
14.90041785791212
 40
15.3241598773961
 40
15.77141824896714
 40
16.24701825331494
 40
16.75185510583648
 40
17.28454178816788
 40
17.28454178816788
 40
17.28454178816788
 40
17.28454178816788
 10
182.3811774293967
 20
430.2523115679896
 30
0.0
 10
182.3746277167199
 20
430.1936503984037
 30
0.0
 10
182.3565731756172
 20
430.0339140174219
 30
0.0
 10
182.326146882171
 20
429.7734129160732
 30
0.0
 10
182.2892313568352
 20
429.4700492101107
 30
0.0
 10
182.2507389918439
 20
429.1662470881901
 30
0.0
 10
182.2106236364778
 20
428.8620667971483
 30
0.0
 10
182.1688846412395
 20
428.5578456651173
 30
0.0
 10
182.1254797608626
 20
428.2536406439229
 30
0.0
 10
182.0803826442906
 20
427.9494815317958
 30
0.0
 10
182.0335586466774
 20
427.6453075161483
 30
0.0
 10
181.9849793799156
 20
427.3411498640276
 30
0.0
 10
181.9346208348916
 20
427.0370305512397
 30
0.0
 10
181.8823688460649
 20
426.7324067063815
 30
0.0
 10
181.8281881761098
 20
426.427306276318
 30
0.0
 10
181.7720348703437
 20
426.1217555166631
 30
0.0
 10
181.7137127775287
 20
425.8149171435515
 30
0.0
 10
181.6531592949296
 20
425.5068271810251
 30
0.0
 10
181.5902851803781
 20
425.1975560219371
 30
0.0
 10
181.5249152840125
 20
424.8866697263254
 30
0.0
 10
181.456945254538
 20
424.57424869549
 30
0.0
 10
181.3862551417397
 20
424.2604108865784
 30
0.0
 10
181.3127676680817
 20
423.945340580506
 30
0.0
 10
181.2363587624045
 20
423.629162477557
 30
0.0
 10
181.1569224291677
 20
423.311985551743
 30
0.0
 10
181.0743525746254
 20
422.9937988567883
 30
0.0
 10
180.9885359843172
 20
422.674719637339
 30
0.0
 10
180.8993587103778
 20
422.3548739010334
 30
0.0
 10
180.8066463988706
 20
422.0340545030696
 30
0.0
 10
180.7102710164002
 20
421.7124016690924
 30
0.0
 10
180.61011670887
 20
421.3900403919549
 30
0.0
 10
180.5059696901329
 20
421.0666510262694
 30
0.0
 10
180.3976963840351
 20
420.7423758284075
 30
0.0
 10
180.2851179985093
 20
420.4174564291831
 30
0.0
 10
180.1682473319589
 20
420.0925154152393
 30
0.0
 10
180.0469116586805
 20
419.7677992287029
 30
0.0
 10
179.9210362150505
 20
419.4434012609872
 30
0.0
 10
179.7904634391196
 20
419.1190614130983
 30
0.0
 10
179.6533517569681
 20
418.7906805419876
 30
0.0
 10
179.5070704607135
 20
418.4514621764227
 30
0.0
 10
179.3490792720235
 20
418.0970935857725
 30
0.0
 10
179.1769142699978
 20
417.7253444826316
 30
0.0
 10
178.9880531875394
 20
417.3357615114313
 30
0.0
 10
178.8551551006067
 20
417.0756136873367
 30
0.0
 10
178.7844823467919
 20
416.9411312843341
 30
0.0
  0
SPLINE
  5
127
330
11D
100
AcDbEntity
  8
0
  6
Continuous
 62
     0
370
     0
100
AcDbSpline
210
0.0
220
0.0
230
1.0
 70
     8
 71
     3
 72
     8
 73
     4
 74
     0
 42
0.000000001
 43
0.0
 40
0.0
 40
0.0
 40
0.0
 40
0.0
 40
47.29217280920904
 40
47.29217280920904
 40
47.29217280920904
 40
47.29217280920904
 10
173.6312388426963
 20
423.0438835783044
 30
0.0
 10
173.4715011287927
 20
423.6648995595351
 30
0.0
 10
173.3200512841423
 20
424.2859621839449
 30
0.0
 10
173.1248209822324
 20
424.9069787936267
 30
0.0
  0
ARC
  5
128
330
11D
100
AcDbEntity
  8
0
  6
Continuous
 62
     0
370
     0
100
AcDbCircle
 10
173.177278
 20
382.743474
 30
0.0
 40
48.4955802796188
100
AcDbArc
 50
86.787538
 51
88.089296
  0
LINE
  5
129
330
11D
100
AcDbEntity
  8
0
  6
Continuous
 62
     0
370
     0
100
AcDbLine
 10
170.303679
 20
423.201369
 30
0.0
 11
170.303623
 21
425.138988
 31
0.0
  0
SPLINE
  5
12A
330
11D
100
AcDbEntity
  8
0
  6
Continuous
 62
     0
370
     0
100
AcDbSpline
210
0.0
220
0.0
230
1.0
 70
     8
 71
     3
 72
    15
 73
    11
 74
     0
 42
0.000000001
 43
0.0
 40
0.0
 40
0.0
 40
0.0
 40
0.0
 40
0.957173388802488
 40
1.474993765255191
 40
2.008486163288228
 40
3.07152618144478
 40
4.125716756730592
 40
5.177493230808061
 40
6.229778854023345
 40
7.28134572491256
 40
7.28134572491256
 40
7.28134572491256
 40
7.28134572491256
 10
170.303623077439
 20
425.1389881606498
 30
0.0
 10
170.6226807467335
 20
425.138790573834
 30
0.0
 10
171.1252249115935
 20
425.1356194065975
 30
0.0
 10
171.710543216428
 20
425.1223096771656
 30
0.0
 10
172.2179796125956
 20
425.1027457645858
 30
0.0
 10
172.6361485871853
 20
425.0713088069571
 30
0.0
 10
172.907912100926
 20
425.0309346631303
 30
0.0
 10
173.0496224906693
 20
424.9899164109895
 30
0.0
 10
173.1107264620879
 20
424.9488298675855
 30
0.0
 10
173.1198461131916
 20
424.9196134131796
 30
0.0
 10
173.1248209980776
 20
424.9069788998389
 30
0.0
  0
LINE
  5
12B
330
11D
100
AcDbEntity
  8
0
  6
Continuous
 62
     0
370
     0
100
AcDbLine
 10
170.303622
 20
425.138988
 30
0.0
 11
170.303556
 21
431.28079
 31
0.0
  0
SPLINE
  5
12C
330
11D
100
AcDbEntity
  8
0
  6
Continuous
 62
     0
370
     0
100
AcDbSpline
210
0.0
220
0.0
230
1.0
 70
     8
 71
     3
 72
    19
 73
    15
 74
     0
 42
0.000000001
 43
0.0
 40
0.0
 40
0.0
 40
0.0
 40
0.0
 40
0.9402009945476231
 40
1.890374966926982
 40
2.807409653105321
 40
3.238934143880091
 40
3.715856908827126
 40
4.238792899061083
 40
4.717644179907244
 40
5.555328424118911
 40
6.970046455662896
 40
8.219710000794723
 40
9.458574664181938
 40
10.70064831550556
 40
10.70064831550556
 40
10.70064831550556
 40
10.70064831550556
 10
170.3035561994894
 20
431.2807898437625
 30
0.0
 10
170.6169565257637
 20
431.2807326852613
 30
0.0
 10
171.2497866882034
 20
431.2685830572811
 30
0.0
 10
172.1349410357176
 20
431.2215880883437
 30
0.0
 10
172.7767438200426
 20
431.1731337638621
 30
0.0
 10
173.2277402575003
 20
431.1344449807471
 30
0.0
 10
173.5517290472391
 20
431.1078714359425
 30
0.0
 10
173.8317886918261
 20
431.0956346526532
 30
0.0
 10
174.1084183163927
 20
431.0946653841885
 30
0.0
 10
174.3960519646611
 20
431.1129624260514
 30
0.0
 10
174.5654590681863
 20
431.1570102825283
 30
0.0
 10
174.6751244803829
 20
431.188581244729
 30
0.0
 10
174.7557244361123
 20
431.2079784003907
 30
0.0
 10
174.7853235691714
 20
431.2124156281326
 30
0.0
 10
174.7942125152296
 20
431.2120914497063
 30
0.0
  0
SPLINE
  5
12D
330
11D
100
AcDbEntity
  8
0
  6
Continuous
 62
     0
370
     0
100
AcDbSpline
210
0.0
220
0.0
230
1.0
 70
     8
 71
     9
 72
    30
 73
    20
 74
     0
 42
0.000000001
 43
0.0
 40
0.0
 40
0.0
 40
0.0
 40
0.0
 40
0.0
 40
0.0
 40
0.0
 40
0.0
 40
0.0
 40
0.0
 40
3.648402924025719
 40
3.648402924025719
 40
3.648402924025719
 40
3.648402924025719
 40
3.648402924025719
 40
5.472604386038578
 40
5.472604386038578
 40
5.472604386038578
 40
5.472604386038578
 40
5.472604386038578
 40
7.296805848051437
 40
7.296805848051437
 40
7.296805848051437
 40
7.296805848051437
 40
7.296805848051437
 40
7.296805848051437
 40
7.296805848051437
 40
7.296805848051437
 40
7.296805848051437
 40
7.296805848051437
 10
167.4823635177411
 20
424.9069793131381
 30
0.0
 10
167.4873797724544
 20
424.9229489655417
 30
0.0
 10
167.4924166558489
 20
424.9389184861603
 30
0.0
 10
167.5031677804225
 20
424.9548851572892
 30
0.0
 10
167.5208384215483
 20
424.970848345959
 30
0.0
 10
167.5493708290211
 20
424.9867916766156
 30
0.0
 10
167.6111317913673
 20
425.0106582190438
 30
0.0
 10
167.7092780161809
 20
425.0343623938354
 30
0.0
 10
167.8603389180474
 20
425.0577175969004
 30
0.0
 10
168.0926596501442
 20
425.0799220090438
 30
0.0
 10
168.1803608241264
 20
425.0871545125765
 30
0.0
 10
168.3788851993022
 20
425.1011721206529
 30
0.0
 10
168.6300611848612
 20
425.1139693579689
 30
0.0
 10
168.9421863198263
 20
425.1246225849664
 30
0.0
 10
169.3062781002427
 20
425.1321683656966
 30
0.0
 10
169.4985678973638
 20
425.1350641869002
 30
0.0
 10
169.6967295458116
 20
425.1371121031974
 30
0.0
 10
169.898123559622
 20
425.1383907390086
 30
0.0
 10
170.1008125311515
 20
425.138987715741
 30
0.0
 10
170.3035015824834
 20
425.1389876760496
 30
0.0
  0
SPLINE
  5
12E
330
11D
100
AcDbEntity
  8
0
  6
Continuous
 62
     0
370
     0
100
AcDbSpline
210
0.0
220
0.0
230
1.0
 70
     8
 71
     3
 72
    19
 73
    15
 74
     0
 42
0.000000001
 43
0.0
 40
0.0
 40
0.0
 40
0.0
 40
0.0
 40
0.9402054167346445
 40
1.890358658256317
 40
2.807377551866996
 40
3.238900455450995
 40
3.715834606712896
 40
4.23881330096703
 40
4.717704532756488
 40
5.555439518190981
 40
6.970197808916864
 40
8.219881652221327
 40
9.458761040424475
 40
10.70084437334493
 40
10.70084437334493
 40
10.70084437334493
 40
10.70084437334493
 10
170.3035437236126
 20
431.280789847183
 30
0.0
 10
169.9901419234514
 20
431.2808479590691
 30
0.0
 10
169.357311010511
 20
431.2689267957917
 30
0.0
 10
168.472139244274
 20
431.2222429646489
 30
0.0
 10
167.8303076140596
 20
431.1740127316024
 30
0.0
 10
167.3792719431318
 20
431.135499490919
 30
0.0
 10
167.0552410603432
 20
431.1090308687936
 30
0.0
 10
166.7751431227283
 20
431.0968717629574
 30
0.0
 10
166.4984819337658
 20
431.095996253856
 30
0.0
 10
166.2108426802172
 20
431.1144110765709
 30
0.0
 10
166.0414775332546
 20
431.1585515465633
 30
0.0
 10
165.9318544230542
 20
431.1901931895604
 30
0.0
 10
165.8512868983457
 20
431.2096419587969
 30
0.0
 10
165.8217011591271
 20
431.2140971451611
 30
0.0
 10
165.8128161725421
 20
431.2137774829049
 30
0.0
  0
SPLINE
  5
12F
330
11D
100
AcDbEntity
  8
0
  6
Continuous
 62
     0
370
    30
100
AcDbSpline
210
0.0
220
0.0
230
1.0
 70
     8
 71
     3
 72
    19
 73
    15
 74
     0
 42
0.000000001
 43
0.0
 40
0.0
 40
0.0
 40
0.0
 40
0.0
 40
1.201308529367107
 40
2.402747184967449
 40
3.604261195023181
 40
4.205206485425594
 40
4.806233988361036
 40
5.40807851292678
 40
6.011050827246518
 40
6.314964650858448
 40
6.619995787069258
 40
7.230942810196423
 40
7.844482882266563
 40
8.460019288708962
 40
8.460019288708962
 40
8.460019288708962
 40
8.460019288708962
 10
167.2248728502786
 20
432.85061449942
 30
0.0
 10
167.2336849613142
 20
432.8510920004653
 30
0.0
 10
167.2629147312543
 20
432.8526741271557
 30
0.0
 10
167.3397667565407
 20
432.8567439871516
 30
0.0
 10
167.4238051704748
 20
432.8610688718288
 30
0.0
 10
167.5216861981516
 20
432.865938199845
 30
0.0
 10
167.6389421044739
 20
432.8715866996858
 30
0.0
 10
167.8246309921224
 20
432.8800782605828
 30
0.0
 10
168.0824103479065
 20
432.8908259577616
 30
0.0
 10
168.3648444959521
 20
432.9010091084292
 30
0.0
 10
168.6722740238611
 20
432.9108592672251
 30
0.0
 10
169.1040477116455
 20
432.9220577205076
 30
0.0
 10
169.6874608256462
 20
432.9314398260725
 30
0.0
 10
170.098768147038
 20
432.9336031473158
 30
0.0
 10
170.303946942015
 20
432.9335490741034
 30
0.0
  0
SPLINE
  5
130
330
11D
100
AcDbEntity
  8
0
  6
Continuous
 62
     0
370
    30
100
AcDbSpline
210
0.0
220
0.0
230
1.0
 70
     8
 71
     3
 72
    19
 73
    15
 74
     0
 42
0.000000001
 43
0.0
 40
0.0
 40
0.0
 40
0.0
 40
0.0
 40
0.6155212461680483
 40
1.229045235639207
 40
1.839976234965934
 40
2.144999002640048
 40
2.448904921406464
 40
3.051862694922189
 40
3.653692696932377
 40
4.254705690234841
 40
4.855636365808051
 40
6.057120988631599
 40
7.258530204541051
 40
8.45980924880074
 40
8.45980924880074
 40
8.45980924880074
 40
8.45980924880074
 10
170.3039592948902
 20
432.9335490708466
 30
0.0
 10
170.5091330364295
 20
432.9334949542236
 30
0.0
 10
170.9204270933708
 20
432.9311148636776
 30
0.0
 10
171.5038093709345
 20
432.9214257993787
 30
0.0
 10
171.9355444245779
 20
432.9100009365145
 30
0.0
 10
172.2429358992687
 20
432.8999902224175
 30
0.0
 10
172.5253316785684
 20
432.8896599232654
 30
0.0
 10
172.7830765668371
 20
432.8787782757181
 30
0.0
 10
172.9687644076774
 20
432.8701893600186
 30
0.0
 10
173.0860344870972
 20
432.8644787277208
 30
0.0
 10
173.1839452025796
 20
432.8595567370485
 30
0.0
 10
173.2680148228676
 20
432.855186413895
 30
0.0
 10
173.3448986903647
 20
432.8510749047088
 30
0.0
 10
173.3741398811935
 20
432.8494771423171
 30
0.0
 10
173.3829556545579
 20
432.848995003738
 30
0.0
  0
ARC
  5
131
330
11D
100
AcDbEntity
  8
0
  6
Continuous
 62
     0
370
    30
100
AcDbCircle
 10
170.187221
 20
374.703154
 30
0.0
 40
58.23359423284167
100
AcDbArc
 50
85.741212
 51
86.85415
  0
ARC
  5
132
330
11D
100
AcDbEntity
  8
0
  6
Continuous
 62
     0
370
    30
100
AcDbCircle
 10
170.543437
 20
378.985498
 30
0.0
 40
53.93663442891432
100
AcDbArc
 50
77.875994
 51
85.780791
  0
SPLINE
  5
133
330
11D
100
AcDbEntity
  8
0
  6
Continuous
 62
     0
370
    30
100
AcDbSpline
210
0.0
220
0.0
230
1.0
 70
     8
 71
     3
 72
    13
 73
     9
 74
     0
 42
0.000000001
 43
0.0
 40
86.40034883276319
 40
86.40034883276319
 40
86.40034883276319
 40
86.40034883276319
 40
87.97394791961563
 40
91.75668225020559
 40
95.54789920655986
 40
99.35263460253216
 40
103.1750576592479
 40
106.9757712402471
 40
106.9757712402471
 40
106.9757712402471
 40
106.9757712402471
 10
149.2736278874465
 20
428.9071174375644
 30
0.0
 10
149.2736315245799
 20
428.9071078201171
 30
0.0
 10
149.3436178111262
 20
428.9334422891865
 30
0.0
 10
149.8709136197195
 20
429.1325636100291
 30
0.0
 10
151.2066263034466
 20
429.6150393895327
 30
0.0
 10
153.1658614196043
 20
430.268412601182
 30
0.0
 10
155.6701198282504
 20
431.0067280757139
 30
0.0
 10
157.6526901635005
 20
431.4933595361017
 30
0.0
 10
158.7017764104853
 20
431.7179913290963
 30
0.0
  0
SPLINE
  5
134
330
11D
100
AcDbEntity
  8
0
  6
Continuous
 62
     0
370
    30
100
AcDbSpline
210
0.0
220
0.0
230
1.0
 70
     8
 71
     3
 72
    13
 73
     9
 74
     0
 42
0.000000001
 43
0.0
 40
0.0
 40
0.0
 40
0.0
 40
0.0
 40
3.84255304493925
 40
7.664987140178408
 40
11.46970859298694
 40
15.26088403273121
 40
19.0436375955592
 40
20.61930046728595
 40
20.61930046728595
 40
20.61930046728595
 40
20.61930046728595
 10
181.8716509976067
 20
431.7190939385644
 30
0.0
 10
182.9335659437298
 20
431.4918251057494
 30
0.0
 10
184.9286379622738
 20
431.0015260236776
 30
0.0
 10
187.4420598805501
 20
430.2592366901116
 30
0.0
 10
189.4012253202783
 20
429.6049266926703
 30
0.0
 10
190.7373736808082
 20
429.1216491296883
 30
0.0
 10
191.2649558605549
 20
428.9221678048431
 30
0.0
 10
191.3350675735476
 20
428.8957578736183
 30
0.0
 10
191.3350718685987
 20
428.8957692504302
 30
0.0
  0
ARC
  5
135
330
11D
100
AcDbEntity
  8
0
  6
Continuous
 62
     0
370
    30
100
AcDbCircle
 10
170.038116
 20
378.967518
 30
0.0
 40
53.95481650199836
100
AcDbArc
 50
94.189313
 51
102.090985
  0
ARC
  5
136
330
11D
100
AcDbEntity
  8
0
  6
Continuous
 62
     0
370
    30
100
AcDbCircle
 10
170.389308
 20
374.741377
 30
0.0
 40
58.19533550179823
100
AcDbArc
 50
93.117058
 51
94.230233
  0
ARC
  5
137
330
11D
100
AcDbEntity
  8
0
  6
Continuous
 62
     0
370
     0
100
AcDbCircle
 10
166.207817
 20
431.282509
 30
0.0
 40
1.499793980055897
100
AcDbArc
 50
94.252661
 51
184.492623
  0
ELLIPSE
  5
138
330
11D
100
AcDbEntity
  8
0
  6
Continuous
 62
     0
370
     0
100
AcDbEllipse
 10
159.049634
 20
430.258464
 30
0.0
 11
-0.3131494043807352
 21
1.466948346239906
 31
0.0
210
0.0
220
0.0
230
1.0
 40
0.540457
 41
6.283184002780899
 42
7.739117077458834
  0
ELLIPSE
  5
139
330
11D
100
AcDbEntity
  8
0
  6
Continuous
 62
     0
370
     0
100
AcDbEllipse
 10
181.557732
 20
430.25231
 30
0.0
 11
-0.3139180524611699
 21
-1.466784052387737
 31
0.0
210
0.0
220
0.0
230
1.0
 40
0.540385
 41
1.68593690930483
 42
3.141591447782272
  0
SPLINE
  5
13A
330
11D
100
AcDbEntity
  8
0
  6
Continuous
 62
     0
370
     0
100
AcDbSpline
210
0.0
220
0.0
230
1.0
 70
     8
 71
     3
 72
    12
 73
     8
 74
     0
 42
0.000000001
 43
0.0
 40
91.4752641439462
 40
91.4752641439462
 40
91.4752641439462
 40
91.4752641439462
 40
93.33620108921018
 40
97.63125829908257
 40
102.7397174449275
 40
108.130989611906
 40
113.4172894724584
 40
113.4172894724584
 40
113.4172894724584
 40
113.4172894724584
 10
192.3038733794457
 20
427.4929736782929
 30
0.0
 10
192.3038708832403
 20
427.4929666190786
 30
0.0
 10
192.2167313023964
 20
427.5235714326706
 30
0.0
 10
191.5292580588719
 20
427.7655246178984
 30
0.0
 10
189.6229651734966
 20
428.4024414559353
 30
0.0
 10
186.5337063435218
 20
429.3173486057655
 30
0.0
 10
183.8355377120313
 20
429.9622730972448
 30
0.0
 10
182.3811767363682
 20
430.2523101564486
 30
0.0
  0
SPLINE
  5
13B
330
11D
100
AcDbEntity
  8
0
  6
Continuous
 62
     0
370
     0
100
AcDbSpline
210
0.0
220
0.0
230
1.0
 70
     8
 71
     3
 72
    12
 73
     8
 74
     0
 42
0.000000001
 43
0.0
 40
0.0
 40
0.0
 40
0.0
 40
0.0
 40
5.594315440448668
 40
10.61069848511555
 40
15.10408009727379
 40
19.16112536503131
 40
21.94274486945001
 40
21.94274486945001
 40
21.94274486945001
 40
21.94274486945001
 10
158.2261463526175
 20
430.2584636930893
 30
0.0
 10
156.686957126022
 20
429.9522955962305
 30
0.0
 10
154.0195195564051
 20
429.309319831694
 30
0.0
 10
151.0881110422755
 20
428.4418203494017
 30
0.0
 10
149.2745884666355
 20
427.8430726821909
 30
0.0
 10
148.4488628299024
 20
427.5550790068262
 30
0.0
 10
148.3040463507909
 20
427.5040392759518
 30
0.0
 10
148.3040586292194
 20
427.5040043311485
 30
0.0
  0
ARC
  5
13C
330
11D
100
AcDbEntity
  8
0
  6
Continuous
 62
     0
370
     0
100
AcDbCircle
 10
174.399685
 20
431.280352
 30
0.0
 40
1.499793595778975
100
AcDbArc
 50
355.503
 51
85.717047
  0
LINE
  5
13D
330
11D
100
AcDbEntity
  8
0
  6
Continuous
 62
     0
370
     0
100
AcDbLine
 10
170.303511
 20
431.28079
 30
0.0
 11
170.303947
 21
432.933549
 31
0.0
  0
LINE
  5
13E
330
11D
100
AcDbEntity
  8
0
  6
Continuous
 62
     0
370
    30
100
AcDbLine
 10
170.303878
 20
401.9017
 30
0.0
 11
149.621834
 21
401.901698
 31
0.0
  0
SPLINE
  5
13F
330
11D
100
AcDbEntity
  8
0
  6
Continuous
 62
     0
370
    30
100
AcDbSpline
210
0.0
220
0.0
230
1.0
 70
     8
 71
     3
 72
     9
 73
     5
 74
     0
 42
0.000000001
 43
0.0
 40
0.0
 40
0.0
 40
0.0
 40
0.0
 40
4.158825118104416
 40
7.66079122692644
 40
7.66079122692644
 40
7.66079122692644
 40
7.66079122692644
 10
149.6218336546467
 20
401.9016981078766
 30
0.0
 10
149.1492464804589
 20
401.9016980712135
 30
0.0
 10
148.5048351872062
 20
401.9811764390967
 30
0.0
 10
148.3040021710059
 20
402.2264828629197
 30
0.0
 10
148.3039990453338
 20
402.3725735662928
 30
0.0
  0
SPLINE
  5
140
330
11D
100
AcDbEntity
  8
0
  6
Continuous
 62
     0
370
    30
100
AcDbSpline
210
0.0
220
0.0
230
1.0
 70
     8
 71
     3
 72
     9
 73
     5
 74
     0
 42
0.000000001
 43
0.0
 40
21.45644946176299
 40
21.45644946176299
 40
21.45644946176299
 40
21.45644946176299
 40
24.95870119173146
 40
29.11752654309027
 40
29.11752654309027
 40
29.11752654309027
 40
29.11752654309027
 10
192.3039797940608
 20
402.3726088076459
 30
0.0
 10
192.303979814847
 20
402.2265006396999
 30
0.0
 10
192.1031298593616
 20
401.9811792627963
 30
0.0
 10
191.4586690217083
 20
401.9017015645703
 30
0.0
 10
190.9860684803202
 20
401.9017015231922
 30
0.0
  0
LINE
  5
141
330
11D
100
AcDbEntity
  8
0
  6
Continuous
 62
     0
370
    30
100
AcDbLine
 10
190.986068
 20
401.901702
 30
0.0
 11
170.303878
 21
401.9017
 31
0.0
  0
LINE
  5
142
330
11D
100
AcDbEntity
  8
0
  6
Continuous
 62
     0
370
     0
100
AcDbLine
 10
170.303892
 20
420.996394
 30
0.0
 11
170.303877
 21
411.209483
 31
0.0
  0
SPLINE
  5
143
330
11D
100
AcDbEntity
  8
0
  6
Continuous
 62
     0
370
     0
100
AcDbSpline
210
0.0
220
0.0
230
1.0
 70
     8
 71
     9
 72
    30
 73
    20
 74
     0
 42
0.000000001
 43
0.0
 40
0.2499999949532693
 40
0.2499999949532693
 40
0.2499999949532693
 40
0.2499999949532693
 40
0.2499999949532693
 40
0.2499999949532693
 40
0.2499999949532693
 40
0.2499999949532693
 40
0.2499999949532693
 40
0.2499999949532693
 40
0.37499999475916
 40
0.37499999475916
 40
0.37499999475916
 40
0.37499999475916
 40
0.37499999475916
 40
0.499999995807328
 40
0.499999995807328
 40
0.499999995807328
 40
0.499999995807328
 40
0.499999995807328
 40
0.7206857518207923
 40
0.7206857518207923
 40
0.7206857518207923
 40
0.7206857518207923
 40
0.7206857518207923
 40
0.7206857518207923
 40
0.7206857518207923
 40
0.7206857518207923
 40
0.7206857518207923
 40
0.7206857518207923
 10
173.1248209822324
 20
424.9069787936267
 30
0.0
 10
173.2166107093703
 20
425.0773575813905
 30
0.0
 10
173.3001724815385
 20
425.2521690908056
 30
0.0
 10
173.3761261516129
 20
425.4304934731267
 30
0.0
 10
173.4451276865549
 20
425.6116068859881
 30
0.0
 10
173.5195414514002
 20
425.7899830523991
 30
0.0
 10
173.6621317660077
 20
426.1498684102579
 30
0.0
 10
173.7973319574323
 20
426.5126300750345
 30
0.0
 10
173.92426341495
 20
426.8783813437917
 30
0.0
 10
174.0421502184728
 20
427.2471219058891
 30
0.0
 10
174.0987444043555
 20
427.4322317870119
 30
0.0
 10
174.2485463397574
 20
427.9461528146899
 30
0.0
 10
174.3793149401247
 20
428.4654349593044
 30
0.0
 10
174.4900366282753
 20
428.9894556821882
 30
0.0
 10
174.5805983694232
 20
429.5172925033192
 30
0.0
 10
174.6338388741618
 20
429.8548744737514
 30
0.0
 10
174.6821966899557
 20
430.1931823594059
 30
0.0
 10
174.7251575194433
 20
430.5322171090975
 30
0.0
 10
174.7625108479489
 20
430.8718897139526
 30
0.0
 10
174.7942125152296
 20
431.2120914497063
 30
0.0
  0
SPLINE
  5
144
330
11D
100
AcDbEntity
  8
0
  6
Continuous
 62
     0
370
     0
100
AcDbSpline
210
0.0
220
0.0
230
1.0
 70
     8
 71
     9
 72
    20
 73
    10
 74
     0
 42
0.000000001
 43
0.0
 40
0.0
 40
0.0
 40
0.0
 40
0.0
 40
0.0
 40
0.0
 40
0.0
 40
0.0
 40
0.0
 40
0.0
 40
0.2499999949532693
 40
0.2499999949532693
 40
0.2499999949532693
 40
0.2499999949532693
 40
0.2499999949532693
 40
0.2499999949532693
 40
0.2499999949532693
 40
0.2499999949532693
 40
0.2499999949532693
 40
0.2499999949532693
 10
170.3036791671647
 20
423.2013694169169
 30
0.0
 10
170.6907413511041
 20
423.2013692963804
 30
0.0
 10
171.0778035428076
 20
423.2409314850534
 30
0.0
 10
171.4602431585014
 20
423.3281617778613
 30
0.0
 10
171.8301272962055
 20
423.4718357060566
 30
0.0
 10
172.173774783521
 20
423.6829050912999
 30
0.0
 10
172.4703883436128
 20
423.945257526959
 30
0.0
 10
172.7247502555507
 20
424.243194533813
 30
0.0
 10
172.9412415259987
 20
424.5662212164231
 30
0.0
 10
173.1248209822324
 20
424.9069787936267
 30
0.0
  0
SPLINE
  5
145
330
11D
100
AcDbEntity
  8
0
  6
Continuous
 62
     0
370
     0
100
AcDbSpline
210
0.0
220
0.0
230
1.0
 70
     8
 71
     3
 72
    16
 73
    12
 74
     0
 42
0.000000001
 43
0.0
 40
0.0
 40
0.0
 40
0.0
 40
0.0
 40
1.539730160996509
 40
3.080508527384355
 40
4.623334042753825
 40
5.395223039588971
 40
6.166796943361056
 40
6.938584681441846
 40
7.710343813180891
 40
9.253414127036839
 40
10.7966984328055
 40
10.7966984328055
 40
10.7966984328055
 40
10.7966984328055
 10
170.3038772399153
 20
411.2094822446662
 30
0.0
 10
170.8171154751887
 20
411.2071826480245
 30
0.0
 10
171.8492909553455
 20
411.33139311658
 30
0.0
 10
173.2971489197789
 20
411.8692582022559
 30
0.0
 10
174.4020705164624
 20
412.5054042042391
 30
0.0
 10
175.2479242485333
 20
413.0619254679606
 30
0.0
 10
175.8572692657879
 20
413.5128157342816
 30
0.0
 10
176.4184060767358
 20
414.0207339154593
 30
0.0
 10
177.1303727596706
 20
414.7317347181998
 30
0.0
 10
177.9438064136925
 20
415.6906667280363
 30
0.0
 10
178.516638263285
 20
416.5164251976885
 30
0.0
 10
178.7844823467919
 20
416.9411312843341
 30
0.0
  0
SPLINE
  5
146
330
11D
100
AcDbEntity
  8
0
  6
Continuous
 62
     0
370
     0
100
AcDbSpline
210
0.0
220
0.0
230
1.0
 70
     8
 71
     3
 72
    16
 73
    12
 74
     0
 42
0.000000001
 43
0.0
 40
0.0
 40
0.0
 40
0.0
 40
0.0
 40
1.543284002504873
 40
3.086353918586421
 40
3.858114764015032
 40
4.629894105402457
 40
5.401536259293343
 40
6.173306702456756
 40
7.716191491582623
 40
9.256961009899756
 40
10.79668977389726
 40
10.79668977389726
 40
10.79668977389726
 40
10.79668977389726
 10
161.8233830058621
 20
416.9412915192873
 30
0.0
 10
162.0912142082495
 20
416.5165764598137
 30
0.0
 10
162.6640266466216
 20
415.6908074127029
 30
0.0
 10
163.477402212497
 20
414.7318128525928
 30
0.0
 10
164.189402325979
 20
414.0208639899475
 30
0.0
 10
164.750420467795
 20
413.5127563490049
 30
0.0
 10
165.3600187342796
 20
413.0622658071677
 30
0.0
 10
166.2054899153898
 20
412.5051468452963
 30
0.0
 10
167.3106369576127
 20
411.8694178758305
 30
0.0
 10
168.7584094788552
 20
411.3313656441736
 30
0.0
 10
169.7906014226714
 20
411.2071858656709
 30
0.0
 10
170.3038392059097
 20
411.2094824157716
 30
0.0
  0
SPLINE
  5
147
330
11D
100
AcDbEntity
  8
0
  6
Continuous
 62
     0
370
     0
100
AcDbSpline
210
0.0
220
0.0
230
1.0
 70
     8
 71
     9
 72
    30
 73
    20
 74
     0
 42
0.000000001
 43
0.0
 40
0.2499999949532689
 40
0.2499999949532689
 40
0.2499999949532689
 40
0.2499999949532689
 40
0.2499999949532689
 40
0.2499999949532689
 40
0.2499999949532689
 40
0.2499999949532689
 40
0.2499999949532689
 40
0.2499999949532689
 40
0.37499999475916
 40
0.37499999475916
 40
0.37499999475916
 40
0.37499999475916
 40
0.37499999475916
 40
0.499999995807328
 40
0.499999995807328
 40
0.499999995807328
 40
0.499999995807328
 40
0.499999995807328
 40
0.7208072156149158
 40
0.7208072156149158
 40
0.7208072156149158
 40
0.7208072156149158
 40
0.7208072156149158
 40
0.7208072156149158
 40
0.7208072156149158
 40
0.7208072156149158
 40
0.7208072156149158
 40
0.7208072156149158
 10
167.4823635177411
 20
424.9069793131381
 30
0.0
 10
167.3905738219783
 20
425.0773581178044
 30
0.0
 10
167.3070120819977
 20
425.2521696426068
 30
0.0
 10
167.2310584447538
 20
425.4304940389144
 30
0.0
 10
167.1620569431516
 20
425.6116074644818
 30
0.0
 10
167.0876432111438
 20
425.7899836445957
 30
0.0
 10
166.9450529627875
 20
426.1498690287116
 30
0.0
 10
166.8098528381437
 20
426.5126307183845
 30
0.0
 10
166.6829214479609
 20
426.8783820105152
 30
0.0
 10
166.5650347123304
 20
427.2471225943207
 30
0.0
 10
166.5084405605322
 20
427.432232485865
 30
0.0
 10
166.3585860838114
 20
427.9463341178512
 30
0.0
 10
166.227778320993
 20
428.4658006314057
 30
0.0
 10
166.1170319179515
 20
428.9900088312186
 30
0.0
 10
166.0264597117446
 20
429.5180351590065
 30
0.0
 10
165.9732000351844
 20
429.8558042860083
 30
0.0
 10
165.9248291112643
 20
430.1943003818483
 30
0.0
 10
165.8818625338273
 20
430.5335241433377
 30
0.0
 10
165.844510326406
 20
430.8733861666199
 30
0.0
 10
165.8128161725421
 20
431.2137774829049
 30
0.0
  0
SPLINE
  5
148
330
11D
100
AcDbEntity
  8
0
  6
Continuous
 62
     0
370
     0
100
AcDbSpline
210
0.0
220
0.0
230
1.0
 70
     8
 71
     9
 72
    20
 73
    10
 74
     0
 42
0.000000001
 43
0.0
 40
0.0
 40
0.0
 40
0.0
 40
0.0
 40
0.0
 40
0.0
 40
0.0
 40
0.0
 40
0.0
 40
0.0
 40
0.2499999949532689
 40
0.2499999949532689
 40
0.2499999949532689
 40
0.2499999949532689
 40
0.2499999949532689
 40
0.2499999949532689
 40
0.2499999949532689
 40
0.2499999949532689
 40
0.2499999949532689
 40
0.2499999949532689
 10
170.3035050186794
 20
423.2013694169328
 30
0.0
 10
169.91644283474
 20
423.2013693676714
 30
0.0
 10
169.529380650191
 20
423.2409316276194
 30
0.0
 10
169.1469410505828
 20
423.3281619908513
 30
0.0
 10
168.7770569393686
 20
423.4718359871583
 30
0.0
 10
168.4334094909617
 20
423.6829054356821
 30
0.0
 10
168.1367959792185
 20
423.9452579259607
 30
0.0
 10
167.8824341221729
 20
424.2431949796539
 30
0.0
 10
167.6659429112248
 20
424.5662217021295
 30
0.0
 10
167.4823635177411
 20
424.9069793131381
 30
0.0
  0
ELLIPSE
  5
149
330
11D
100
AcDbEntity
  8
0
  6
Continuous
 62
     0
370
     0
100
AcDbEllipse
 10
157.465265
 20
416.941291
 30
0.0
 11
9.473665970734093
 21
6.169844192780713
 31
0.0
210
0.0
220
0.0
230
1.0
 40
0.222286
 41
5.041306219209797
 42
6.252610579176079
  0
SPLINE
  5
14A
330
11D
100
AcDbEntity
  8
0
  6
Continuous
 62
     0
370
     0
100
AcDbSpline
210
0.0
220
0.0
230
1.0
 70
     8
 71
     3
 72
    16
 73
    12
 74
     0
 42
0.000000001
 43
0.0
 40
0.0
 40
0.0
 40
0.0
 40
0.0
 40
0.7200721354848213
 40
1.381009099881517
 40
1.693473883852203
 40
1.994629261538791
 40
2.28343254963038
 40
2.568905394880828
 40
3.135464431981124
 40
3.678694852610645
 40
4.210774072366416
 40
4.210774072366416
 40
4.210774072366416
 40
4.210774072366416
 10
166.9764286354847
 20
423.0438755665704
 30
0.0
 10
167.1061489893464
 20
422.8426343521187
 30
0.0
 10
167.3753248839895
 20
422.4701842734328
 30
0.0
 10
167.7561233274402
 20
422.0625655187319
 30
0.0
 10
168.0679761736125
 20
421.7926168399118
 30
0.0
 10
168.2996393383965
 20
421.6193260609654
 30
0.0
 10
168.5400202526958
 20
421.4645494706783
 30
0.0
 10
168.8608647779475
 20
421.292791708767
 30
0.0
 10
169.2585015973496
 20
421.1377012631493
 30
0.0
 10
169.7655757646245
 20
421.0227709663949
 30
0.0
 10
170.1264080931826
 20
420.9963926501645
 30
0.0
 10
170.3037678330939
 20
420.9963937870946
 30
0.0
  0
ELLIPSE
  5
14B
330
11D
100
AcDbEntity
  8
0
  6
Continuous
 62
     0
370
     0
100
AcDbEllipse
 10
183.142665
 20
416.941132
 30
0.0
 11
-9.473917514411314
 21
6.170033028163483
 31
0.0
210
0.0
220
0.0
230
-1.0
 40
0.222283
 41
5.041301300067971
 42
6.252601744643406
  0
SPLINE
  5
14C
330
11D
100
AcDbEntity
  8
0
  6
Continuous
 62
     0
370
     0
100
AcDbSpline
210
0.0
220
0.0
230
1.0
 70
     8
 71
     3
 72
    16
 73
    12
 74
     0
 42
0.000000001
 43
0.0
 40
0.0
 40
0.0
 40
0.0
 40
0.0
 40
0.7200536857649565
 40
1.380976754885788
 40
1.69343596065627
 40
1.994587343307329
 40
2.283388303449248
 40
2.568859007441613
 40
3.135416240560567
 40
3.678649730891578
 40
4.210733200687341
 40
4.210733200687341
 40
4.210733200687341
 40
4.210733200687341
 10
173.6312388426963
 20
423.0438835783044
 30
0.0
 10
173.5015213983645
 20
422.842645871161
 30
0.0
 10
173.2323503858006
 20
422.4701999247619
 30
0.0
 10
172.8515558580252
 20
422.0625813934851
 30
0.0
 10
172.5397032787721
 20
421.7926301501464
 30
0.0
 10
172.3080391652189
 20
421.6193370073569
 30
0.0
 10
172.0676580252407
 20
421.4645585475849
 30
0.0
 10
171.7468100379061
 20
421.2927970216558
 30
0.0
 10
171.349166632038
 20
421.1377029584923
 30
0.0
 10
170.8420886029275
 20
421.0227713159598
 30
0.0
 10
170.481253548893
 20
420.9963926520311
 30
0.0
 10
170.3038923923
 20
420.9963937870796
 30
0.0
  0
ARC
  5
14D
330
11D
100
AcDbEntity
  8
0
  6
Continuous
 62
     0
370
     0
100
AcDbCircle
 10
173.300853
 20
431.351401
 30
0.0
 40
1.499843010049663
100
AcDbArc
 50
354.670534
 51
86.862022
  0
ARC
  5
14E
330
11D
100
AcDbEntity
  8
0
  6
Continuous
 62
     0
370
     0
100
AcDbCircle
 10
167.306186
 20
431.352977
 30
0.0
 40
1.499843323642997
100
AcDbArc
 50
93.107782
 51
185.325248
  0
LINE
  5
14F
330
11D
100
AcDbEntity
  8
0
  6
Continuous
 62
     0
370
    30
100
AcDbLine
 10
148.203986
 20
398.9017
 30
0.0
 11
192.403986
 21
398.9017
 31
0.0
  0
ARC
  5
150
330
11D
100
AcDbEntity
  8
0
  6
Continuous
 62
     0
370
    30
100
AcDbCircle
 10
81.303998
 20
389.601688
 30
0.0
 40
1.000011948575563
100
AcDbArc
 50
90.000685
 51
179.999315
  0
LINE
  5
151
330
11D
100
AcDbEntity
  8
0
  6
Continuous
 62
     0
370
    30
100
AcDbLine
 10
80.303986
 20
389.6017
 30
0.0
 11
80.303986
 21
378.6017
 31
0.0
  0
LINE
  5
152
330
11D
100
AcDbEntity
  8
0
  6
Continuous
 62
     0
370
    30
100
AcDbLine
 10
81.303986
 20
390.6017
 30
0.0
 11
259.303986
 21
390.6017
 31
0.0
  0
LINE
  5
153
330
11D
100
AcDbEntity
  8
0
  6
Continuous
 62
     0
370
     0
100
AcDbLine
 10
80.303986
 20
389.6017
 30
0.0
 11
260.303986
 21
389.6017
 31
0.0
  0
LINE
  5
154
330
11D
100
AcDbEntity
  8
0
  6
Continuous
 62
     0
370
    30
100
AcDbLine
 10
80.303986
 20
378.6017
 30
0.0
 11
260.303986
 21
378.6017
 31
0.0
  0
LINE
  5
155
330
11D
100
AcDbEntity
  8
0
  6
Continuous
 62
     0
370
    30
100
AcDbLine
 10
260.303986
 20
389.6017
 30
0.0
 11
260.303986
 21
378.6017
 31
0.0
  0
ARC
  5
156
330
11D
100
AcDbEntity
  8
0
  6
Continuous
 62
     0
370
    30
100
AcDbCircle
 10
259.303974
 20
389.601688
 30
0.0
 40
1.000011948575563
100
AcDbArc
 50
0.000685
 51
89.999315
  0
LINE
  5
157
330
11D
100
AcDbEntity
  8
0
  6
Continuous
 62
     0
370
    30
100
AcDbLine
 10
148.203986
 20
398.9017
 30
0.0
 11
148.203986
 21
390.6017
 31
0.0
  0
LINE
  5
158
330
11D
100
AcDbEntity
  8
0
  6
Continuous
 62
     0
370
    30
100
AcDbLine
 10
192.403986
 20
398.9017
 30
0.0
 11
192.403986
 21
390.6017
 31
0.0
  0
ARC
  5
159
330
11D
100
AcDbEntity
  8
0
  6
Continuous
 62
     0
370
    30
100
AcDbCircle
 10
170.408163
 20
397.531793
 30
0.0
 40
20.49999999996854
100
AcDbArc
 50
167.692042
 51
176.168371
  0
ARC
  5
15A
330
11D
100
AcDbEntity
  8
0
  6
Continuous
 62
     0
370
    30
100
AcDbCircle
 10
170.199809
 20
397.531793
 30
0.0
 40
20.49999999999757
100
AcDbArc
 50
3.831629
 51
12.307968
  0
LINE
  5
15B
330
11D
100
AcDbEntity
  8
0
  6
Continuous
 62
     0
370
    30
100
AcDbLine
 10
148.303987
 20
427.504131
 30
0.0
 11
148.303989
 21
402.372498
 31
0.0
  0
LINE
  5
15C
330
11D
100
AcDbEntity
  8
0
  6
Continuous
 62
     0
370
    30
100
AcDbLine
 10
192.303987
 20
427.492971
 30
0.0
 11
192.303989
 21
402.372526
 31
0.0
  0
SPLINE
  5
15D
330
11D
100
AcDbEntity
  8
0
  6
Continuous
 62
     0
370
    30
100
AcDbSpline
210
0.0
220
0.0
230
1.0
 70
     8
 71
     3
 72
    24
 73
    20
 74
     0
 42
0.000000001
 43
0.0
 40
0.0
 40
0.0
 40
0.0
 40
0.0
 40
0.5469610087582578
 40
0.8801124295460473
 40
1.102214152978352
 40
1.213265083634599
 40
1.324316037856798
 40
1.435373315957268
 40
1.546430549393958
 40
1.60199054267883
 40
1.657550402827326
 40
1.713257533751894
 40
1.770760774196167
 40
1.785029823925639
 40
1.808694922357704
 40
1.822925306576606
 40
1.860392485303959
 40
1.944363808165122
 40
2.501480676503569
 40
2.501480676503569
 40
2.501480676503569
 40
2.501480676503569
 10
148.3040586273003
 20
427.5040043427475
 30
0.0
 10
148.3040580197359
 20
427.6853560332398
 30
0.0
 10
148.3582257948695
 20
427.9799949468485
 30
0.0
 10
148.5276774399483
 20
428.3083433597147
 30
0.0
 10
148.6644206178903
 20
428.4842345731039
 30
0.0
 10
148.7678020600582
 20
428.5904178702878
 30
0.0
 10
148.8510246918994
 20
428.6641114796075
 30
0.0
 10
148.9394470494067
 20
428.7314310670265
 30
0.0
 10
149.0171484489181
 20
428.7819600568897
 30
0.0
 10
149.081311552716
 20
428.8187981174005
 30
0.0
 10
149.1306555597408
 20
428.8447286535725
 30
0.0
 10
149.1808676902403
 20
428.8688338000629
 30
0.0
 10
149.2206832893144
 20
428.8860567766347
 30
0.0
 10
149.2453089695898
 20
428.8960755502218
 30
0.0
 10
149.2511457947546
 20
428.8983918737812
 30
0.0
 10
149.2615120682646
 20
428.9024658232573
 30
0.0
 10
149.2640274577739
 20
428.903417339744
 30
0.0
 10
149.2814073208171
 20
428.9101287808051
 30
0.0
 10
149.2872442715579
 20
428.912316604528
 30
0.0
 10
149.2873211321107
 20
428.9122879805416
 30
0.0
  0
SPLINE
  5
15E
330
11D
100
AcDbEntity
  8
0
  6
Continuous
 62
     0
370
    30
100
AcDbSpline
210
0.0
220
0.0
230
1.0
 70
     8
 71
     3
 72
    22
 73
    18
 74
     0
 42
0.000000001
 43
0.0
 40
0.0
 40
0.0
 40
0.0
 40
0.0
 40
0.5466850176134898
 40
0.768705427105759
 40
0.9907260183794572
 40
1.101736381901664
 40
1.21274680570446
 40
1.434767850247651
 40
1.545778470233154
 40
1.656799568624509
 40
1.767955516417075
 40
1.779808391678988
 40
1.791660593311481
 40
1.800327147638902
 40
1.808992258571483
 40
1.830950969720416
 40
1.935922474067439
 40
1.935922474067439
 40
1.935922474067439
 40
1.935922474067439
 10
192.3038733796232
 20
427.4929736793587
 30
0.0
 10
192.3038743061869
 20
427.6742348706405
 30
0.0
 10
192.2565827008959
 20
427.9316296261799
 30
0.0
 10
192.115871896308
 20
428.2312812516257
 30
0.0
 10
192.0131585767462
 20
428.3858626900433
 30
0.0
 10
191.917989899109
 20
428.499388534021
 30
0.0
 10
191.8146526475321
 20
428.6055901638896
 30
0.0
 10
191.7001668055891
 20
428.6997914545059
 30
0.0
 10
191.5755629191445
 20
428.7807929351074
 30
0.0
 10
191.4795059075101
 20
428.833846249986
 30
0.0
 10
191.4050124425522
 20
428.8677199064186
 30
0.0
 10
191.3668171124329
 20
428.8833538574103
 30
0.0
 10
191.3559846747563
 20
428.8876800964011
 30
0.0
 10
191.3511023345576
 20
428.8895990329186
 30
0.0
 10
191.3420053299805
 20
428.8931387228676
 30
0.0
 10
191.3377151082811
 20
428.8947478331223
 30
0.0
 10
191.3317193467764
 20
428.8970646652271
 30
0.0
 10
191.3317190173146
 20
428.8970638088904
 30
0.0
  0
LINE
  5
15F
330
11D
100
AcDbEntity
  8
0
  6
Continuous
 62
     0
370
    30
100
AcDbLine
 10
158.736485
 20
431.725412
 30
0.0
 11
158.744104
 21
431.727038
 31
0.0
  0
ENDBLK
  5
161
330
11D
100
AcDbEntity
  8
0
100
AcDbBlockEnd
  0
BLOCK
  5
19F
330
163
100
AcDbEntity
  8
0
100
AcDbBlockBegin
  2
f
 70
     0
 10
365.478912
 20
-205.151093
 30
0.0
  3
f
  1

  0
SPLINE
  5
164
330
163
100
AcDbEntity
  8
0
  6
Continuous
 62
     0
370
     0
100
AcDbSpline
210
0.0
220
0.0
230
1.0
 70
     8
 71
     3
 72
    51
 73
    47
 74
     0
 42
0.000000001
 43
0.0
 40
-0.2491813246247681
 40
-0.2491813246247681
 40
-0.2491813246247681
 40
-0.2491813246247681
 40
0.017162016540933
 40
0.2835053577066304
 40
0.535923783967398
 40
0.7883422102281656
 40
1.263942214575966
 40
1.711200586147008
 40
2.134942605630988
 40
2.542951826897269
 40
2.840615940018559
 40
3.138280053139848
 40
3.435944166261139
 40
3.733608279382429
 40
4.120540898350511
 40
4.507473517318592
 40
4.894406136286674
 40
5.269903759059908
 40
5.645401381833143
 40
6.020899004606378
 40
6.386435538439976
 40
6.751972072273571
 40
7.117508606107169
 40
7.474166979734076
 40
7.83082535336098
 40
8.187483726987887
 40
8.535617365607935
 40
8.883751004227982
 40
9.23188464284803
 40
9.571231343209172
 40
9.910578043570315
 40
10.24992474393146
 40
10.58212092434274
 40
10.91431710475403
 40
11.24651328516531
 40
11.57436584635076
 40
11.90221840753621
 40
12.23007096872165
 40
12.55540209399189
 40
12.88073321926212
 40
13.20606434453236
 40
13.52915835777935
 40
13.85225237102633
 40
14.17534638427331
 40
14.49529944136774
 40
14.77103057224742
 40
14.77103057224742
 40
14.77103057224742
 40
14.77103057224742
 10
417.5850479049813
 20
-131.3351523027794
 30
0.0
 10
417.5801337887797
 20
-131.3341872701095
 30
0.0
 10
417.5698816867844
 20
-131.3326073412366
 30
0.0
 10
417.553164661923
 20
-131.3314263829173
 30
0.0
 10
417.5348651193609
 20
-131.3314746967292
 30
0.0
 10
417.509076868814
 20
-131.333436254135
 30
0.0
 10
417.4734589581173
 20
-131.3397727325489
 30
0.0
 10
417.4241540248665
 20
-131.3545243131368
 30
0.0
 10
417.3691454308318
 20
-131.3755946633593
 30
0.0
 10
417.3142355937848
 20
-131.3991399142789
 30
0.0
 10
417.2625355686598
 20
-131.4214745284014
 30
0.0
 10
417.214435681579
 20
-131.4423163509727
 30
0.0
 10
417.1643566929922
 20
-131.464020710261
 30
0.0
 10
417.1072118734813
 20
-131.4887324345664
 30
0.0
 10
417.0424370806815
 20
-131.5166014534624
 30
0.0
 10
416.9690993862912
 20
-131.5481636659223
 30
0.0
 10
416.8931678351472
 20
-131.5810256516588
 30
0.0
 10
416.8145804297934
 20
-131.6153783458611
 30
0.0
 10
416.7335106676582
 20
-131.6511174400927
 30
0.0
 10
416.6499684337336
 20
-131.6882163767758
 30
0.0
 10
416.5641051817624
 20
-131.7265836861993
 30
0.0
 10
416.4760131834643
 20
-131.7661924701707
 30
0.0
 10
416.3856532634473
 20
-131.8070775950737
 30
0.0
 10
416.2931063192867
 20
-131.8492163031489
 30
0.0
 10
416.1984403847323
 20
-131.8925779604884
 30
0.0
 10
416.1016554115669
 20
-131.9371660835886
 30
0.0
 10
416.0028162933921
 20
-131.9829512201449
 30
0.0
 10
415.9018748505076
 20
-132.0299738973255
 30
0.0
 10
415.7987776155799
 20
-132.0782793081269
 30
0.0
 10
415.6934889290142
 20
-132.1278998697279
 30
0.0
 10
415.5861587824283
 20
-132.1787583161628
 30
0.0
 10
415.4767189627246
 20
-132.2308846699927
 30
0.0
 10
415.3652971623605
 20
-132.2842136887331
 30
0.0
 10
415.2521957134054
 20
-132.3385960422841
 30
0.0
 10
415.1373574981365
 20
-132.3940585208633
 30
0.0
 10
415.0210469225036
 20
-132.4504723671741
 30
0.0
 10
414.9034415434251
 20
-132.5077596053872
 30
0.0
 10
414.7844829578757
 20
-132.5659590430142
 30
0.0
 10
414.6643319484309
 20
-132.6250020572003
 30
0.0
 10
414.5430704551936
 20
-132.6848603939893
 30
0.0
 10
414.4207383703211
 20
-132.7455275066857
 30
0.0
 10
414.2974144184859
 20
-132.8069766469158
 30
0.0
 10
414.1728108463864
 20
-132.8693454840467
 30
0.0
 10
414.0467554851982
 20
-132.9327145912114
 30
0.0
 10
413.9248425929246
 20
-132.9942518886056
 30
0.0
 10
413.844897691491
 20
-133.0347689353065
 30
0.0
 10
413.8077582339904
 20
-133.0536293415581
 30
0.0
  0
SPLINE
  5
165
330
163
100
AcDbEntity
  8
0
  6
Continuous
 62
     0
370
     0
100
AcDbSpline
210
0.0
220
0.0
230
1.0
 70
     8
 71
     3
 72
    10
 73
     6
 74
     0
 42
0.000000001
 43
0.0
 40
0.0
 40
0.0
 40
0.0
 40
0.0
 40
4.634265232765271
 40
9.274351897431172
 40
13.90932365833864
 40
13.90932365833864
 40
13.90932365833864
 40
13.90932365833864
 10
413.8078163349767
 20
-133.0535998363595
 30
0.0
 10
413.8998085351569
 20
-131.5754734462925
 30
0.0
 10
414.4717843441348
 20
-128.7145473573902
 30
0.0
 10
416.434936141826
 20
-125.2184850332105
 30
0.0
 10
418.4578686855025
 20
-123.5981919545008
 30
0.0
 10
419.6047598660176
 20
-123.0174321710085
 30
0.0
  0
SPLINE
  5
166
330
163
100
AcDbEntity
  8
0
  6
Continuous
 62
     0
370
     0
100
AcDbSpline
210
0.0
220
0.0
230
1.0
 70
     8
 71
     3
 72
    48
 73
    44
 74
     0
 42
0.000000001
 43
0.0
 40
2.034582187951286
 40
2.034582187951286
 40
2.034582187951286
 40
2.034582187951286
 40
2.220107965080948
 40
2.540061022175372
 40
2.860014079269796
 40
3.18310809251678
 40
3.506202105763765
 40
3.82929611901075
 40
4.154627244280986
 40
4.479958369551222
 40
4.805289494821459
 40
5.133142056006906
 40
5.460994617192354
 40
5.788847178377801
 40
6.121043358789085
 40
6.45323953920037
 40
6.785435719611653
 40
7.124782419972796
 40
7.464129120333938
 40
7.803475820695081
 40
8.151609459315129
 40
8.499743097935175
 40
8.847876736555223
 40
9.20453511018213
 40
9.561193483809035
 40
9.917851857435942
 40
10.28338839126954
 40
10.64892492510314
 40
11.01446145893673
 40
11.38995908170997
 40
11.7654567044832
 40
12.14095432725644
 40
12.52788694622452
 40
12.9148195651926
 40
13.30175218416068
 40
13.6986376683224
 40
14.09552315248412
 40
14.49240863664584
 40
14.90041785791212
 40
15.3241598773961
 40
15.77141824896714
 40
16.24701825331494
 40
16.33947200513002
 40
16.33947200513002
 40
16.33947200513002
 40
16.33947200513002
 10
419.6047598660176
 20
-123.0174321710086
 30
0.0
 10
419.6392264340955
 20
-123.0092502571979
 30
0.0
 10
419.7329135132173
 20
-122.9870490622665
 30
0.0
 10
419.8849544418499
 20
-122.9511908687162
 30
0.0
 10
420.0608869286391
 20
-122.9099486584648
 30
0.0
 10
420.2359180784007
 20
-122.869168266789
 30
0.0
 10
420.4099727526332
 20
-122.8288655576259
 30
0.0
 10
420.5828240630376
 20
-122.7890899677307
 30
0.0
 10
420.7544020571689
 20
-122.749855188799
 30
0.0
 10
420.9246672118636
 20
-122.7111611973153
 30
0.0
 10
421.0936346265426
 20
-122.6729946798216
 30
0.0
 10
421.2612622599377
 20
-122.6353561539263
 30
0.0
 10
421.4275177207396
 20
-122.5982406056768
 30
0.0
 10
421.592679969092
 20
-122.5615728937561
 30
0.0
 10
421.7567041266224
 20
-122.525351644779
 30
0.0
 10
421.9195399165538
 20
-122.4895759460433
 30
0.0
 10
422.0816021920724
 20
-122.4541416793537
 30
0.0
 10
422.2428200585443
 20
-122.4190533412144
 30
0.0
 10
422.4030794232244
 20
-122.3843274004817
 30
0.0
 10
422.5625400974616
 20
-122.3499191981272
 30
0.0
 10
422.7210699089742
 20
-122.3158490004487
 30
0.0
 10
422.8784998198627
 20
-122.2821429284786
 30
0.0
 10
423.034648460719
 20
-122.2488275672419
 30
0.0
 10
423.189339213906
 20
-122.2159293609886
 30
0.0
 10
423.3424200041921
 20
-122.1834582649696
 30
0.0
 10
423.4938192177076
 20
-122.1514052667453
 30
0.0
 10
423.6433738710843
 20
-122.119780580509
 30
0.0
 10
423.7909148073061
 20
-122.0885883258369
 30
0.0
 10
423.9364510251905
 20
-122.0577936643434
 30
0.0
 10
424.0797933370075
 20
-122.0274019561506
 30
0.0
 10
424.2207723177702
 20
-121.9974034693203
 30
0.0
 10
424.3594432624296
 20
-121.967740164312
 30
0.0
 10
424.4956120067203
 20
-121.9384025292486
 30
0.0
 10
424.628983765706
 20
-121.9094003109078
 30
0.0
 10
424.7591521354052
 20
-121.8807698811902
 30
0.0
 10
424.8858237812638
 20
-121.8525173580797
 30
0.0
 10
425.0088827266451
 20
-121.8245833785057
 30
0.0
 10
425.1283879024738
 20
-121.7968718069344
 30
0.0
 10
425.2457092803084
 20
-121.7689606663559
 30
0.0
 10
425.3634376656432
 20
-121.7400413280259
 30
0.0
 10
425.4825650335839
 20
-121.7096503266524
 30
0.0
 10
425.5680309418242
 20
-121.6868497463714
 30
0.0
 10
425.6141685717616
 20
-121.6741489475641
 30
0.0
 10
425.621630893815
 20
-121.6720838127218
 30
0.0
  0
SPLINE
  5
167
330
163
100
AcDbEntity
  8
0
  6
Continuous
 62
     0
370
     0
100
AcDbSpline
210
0.0
220
0.0
230
1.0
 70
     8
 71
     3
 72
     8
 73
     4
 74
     0
 42
0.000000001
 43
0.0
 40
0.0
 40
0.0
 40
0.0
 40
0.0
 40
47.29217280920904
 40
47.29217280920904
 40
47.29217280920904
 40
47.29217280920904
 10
417.5850479049813
 20
-131.3351523027794
 30
0.0
 10
416.5263258594866
 20
-146.5267480423528
 30
0.0
 10
415.4736960312388
 20
-161.7202223735886
 30
0.0
 10
414.3887464780111
 20
-176.9038965660069
 30
0.0
  0
SPLINE
  5
168
330
163
100
AcDbEntity
  8
0
  6
Continuous
 62
     0
370
     0
100
AcDbSpline
210
0.0
220
0.0
230
1.0
 70
     8
 71
     3
 72
     8
 73
     4
 74
     0
 42
0.000000001
 43
0.0
 40
0.0
 40
0.0
 40
0.0
 40
0.0
 40
47.55042729655969
 40
47.55042729655969
 40
47.55042729655969
 40
47.55042729655969
 10
411.3825472301102
 20
-178.4319058763948
 30
0.0
 10
412.1683406733301
 20
-163.3004347672454
 30
0.0
 10
412.9911737404036
 20
-148.179251698262
 30
0.0
 10
413.8077877460735
 20
-133.05363655313
 30
0.0
  0
SPLINE
  5
169
330
163
100
AcDbEntity
  8
0
  6
Continuous
 62
     0
370
     0
100
AcDbSpline
210
0.0
220
0.0
230
1.0
 70
     8
 71
     3
 72
    12
 73
     8
 74
     0
 42
0.000000001
 43
0.0
 40
2.837908873394467
 40
2.837908873394467
 40
2.837908873394467
 40
2.837908873394467
 40
3.07152618144478
 40
4.125716756730592
 40
5.177493230808061
 40
6.229778854023345
 40
7.28134572491256
 40
7.28134572491256
 40
7.28134572491256
 40
7.28134572491256
 10
413.6718292547524
 20
-180.9971946730874
 30
0.0
 10
413.6999935786194
 20
-180.9350982920058
 30
0.0
 10
413.8471377760641
 20
-180.5854059437526
 30
0.0
 10
414.0405934066119
 20
-179.897959972051
 30
0.0
 10
414.2076219941928
 20
-178.9186273452344
 30
0.0
 10
414.3152855004381
 20
-177.9168784323381
 30
0.0
 10
414.3649418246432
 20
-177.2411950497624
 30
0.0
 10
414.3887464180066
 20
-176.9038965974545
 30
0.0
  0
SPLINE
  5
16A
330
163
100
AcDbEntity
  8
0
  6
Continuous
 62
     0
370
     0
100
AcDbSpline
210
0.0
220
0.0
230
1.0
 70
     8
 71
     3
 72
    17
 73
    13
 74
     0
 42
0.000000001
 43
0.0
 40
2.301889692726
 40
2.301889692726
 40
2.301889692726
 40
2.301889692726
 40
2.807409653105321
 40
3.238934143880091
 40
3.715856908827126
 40
4.238792899061083
 40
4.717644179907244
 40
5.555328424118911
 40
6.970046455662896
 40
8.219710000794723
 40
9.458574664181938
 40
10.70064831550556
 40
10.70064831550556
 40
10.70064831550556
 40
10.70064831550556
 10
409.430860630946
 20
-185.3277107700521
 30
0.0
 10
409.5455619433188
 20
-185.2682185009811
 30
0.0
 10
409.7516352333295
 20
-185.1407303324371
 30
0.0
 10
410.0405294711517
 20
-184.9067154226823
 30
0.0
 10
410.3095814200131
 20
-184.6340080902654
 30
0.0
 10
410.5384082151194
 20
-184.2999020694517
 30
0.0
 10
410.7617960029425
 20
-183.8321010089996
 30
0.0
 10
410.9909747994757
 20
-183.0635914331465
 30
0.0
 10
411.1250622094817
 20
-181.996409620716
 30
0.0
 10
411.2279208746635
 20
-180.7828054742362
 30
0.0
 10
411.3156710604663
 20
-179.6129755452319
 30
0.0
 10
411.3620140509791
 20
-178.8271603892599
 30
0.0
 10
411.3825472301102
 20
-178.4319058763948
 30
0.0
  0
SPLINE
  5
16B
330
163
100
AcDbEntity
  8
0
  6
Continuous
 62
     0
370
     0
100
AcDbSpline
210
0.0
220
0.0
230
1.0
 70
     8
 71
     3
 72
    19
 73
    15
 74
     0
 42
0.000000001
 43
0.0
 40
0.0
 40
0.0
 40
0.0
 40
0.0
 40
1.201308529367107
 40
2.402747184967449
 40
3.604261195023181
 40
4.205206485425594
 40
4.806233988361036
 40
5.40807851292678
 40
6.011050827246518
 40
6.314964650858448
 40
6.619995787069258
 40
7.230942810196423
 40
7.844482882266563
 40
8.460019288708962
 40
8.460019288708962
 40
8.460019288708962
 40
8.460019288708962
 10
404.6854904452956
 20
-177.0983707393721
 30
0.0
 10
404.6783921104758
 20
-177.4843762146126
 30
0.0
 10
404.6723590544226
 20
-178.2588193529996
 30
0.0
 10
404.6866297713289
 20
-179.4261233257669
 30
0.0
 10
404.7127192536061
 20
-180.4020782300766
 30
0.0
 10
404.7553998870695
 20
-181.1868238978945
 30
0.0
 10
404.8186825752561
 20
-181.7793064171174
 30
0.0
 10
404.9311746208872
 20
-182.3716089673158
 30
0.0
 10
405.0999076825139
 20
-182.8507680281994
 30
0.0
 10
405.2922295897785
 20
-183.1911327623264
 30
0.0
 10
405.5040546502457
 20
-183.51364067732
 30
0.0
 10
405.8064834385638
 20
-183.8749303220566
 30
0.0
 10
406.2246544655842
 20
-184.1984364298642
 30
0.0
 10
406.5257976739891
 20
-184.3292267683055
 30
0.0
 10
406.677526880861
 20
-184.3727888126871
 30
0.0
  0
SPLINE
  5
16C
330
163
100
AcDbEntity
  8
0
  6
Continuous
 62
     0
370
     0
100
AcDbSpline
210
0.0
220
0.0
230
1.0
 70
     8
 71
     3
 72
    19
 73
    15
 74
     0
 42
0.000000001
 43
0.0
 40
0.0
 40
0.0
 40
0.0
 40
0.0
 40
0.6155212461680483
 40
1.229045235639207
 40
1.839976234965934
 40
2.144999002640048
 40
2.448904921406464
 40
3.051862694922189
 40
3.653692696932377
 40
4.254705690234841
 40
4.855636365808051
 40
6.057120988631599
 40
7.258530204541051
 40
8.45980924880074
 40
8.45980924880074
 40
8.45980924880074
 40
8.45980924880074
 10
406.6775360157824
 20
-184.372791435356
 30
0.0
 10
406.8292615178918
 20
-184.4163523363413
 30
0.0
 10
407.1364299184379
 20
-184.4602119051116
 30
0.0
 10
407.5811009353662
 20
-184.3844275901489
 30
0.0
 10
407.9172342234227
 20
-184.2064633456756
 30
0.0
 10
408.1600670553083
 20
-184.0144816409328
 30
0.0
 10
408.3854345056918
 20
-183.7940324073571
 30
0.0
 10
408.5979286458583
 20
-183.4243376818379
 30
0.0
 10
408.7600675665225
 20
-182.9109077167145
 30
0.0
 10
408.8702157047205
 20
-182.3682403059349
 30
0.0
 10
408.9723223688202
 20
-181.6250901641537
 30
0.0
 10
409.0705480999421
 20
-180.6848560229523
 30
0.0
 10
409.1699642969378
 20
-179.5502253468361
 30
0.0
 10
409.2192359308907
 20
-178.7882166221638
 30
0.0
 10
409.239369695212
 20
-178.405963638464
 30
0.0
  0
SPLINE
  5
16D
330
163
100
AcDbEntity
  8
0
  6
Continuous
 62
     0
370
     0
100
AcDbSpline
210
0.0
220
0.0
230
1.0
 70
     8
 71
     3
 72
     8
 73
     4
 74
     0
 42
0.000000001
 43
0.0
 40
0.0
 40
0.0
 40
0.0
 40
0.0
 40
47.55430546411325
 40
47.55430546411325
 40
47.55430546411325
 40
47.55430546411325
 10
409.239369695212
 20
-178.4059636384641
 30
0.0
 10
410.0363928208327
 20
-163.273946445363
 30
0.0
 10
410.8730688733785
 20
-148.1520108585864
 30
0.0
 10
411.7014826285684
 20
-133.0261690613843
 30
0.0
  0
SPLINE
  5
16E
330
163
100
AcDbEntity
  8
0
  6
Continuous
 62
     0
370
     0
100
AcDbSpline
210
0.0
220
0.0
230
1.0
 70
     8
 71
     3
 72
    14
 73
    10
 74
     0
 42
0.000000001
 43
0.0
 40
0.0
 40
0.0
 40
0.0
 40
0.0
 40
2.202449043862926
 40
4.407614529988809
 40
6.617604984610757
 40
8.834220870431892
 40
11.06041317940925
 40
13.29428199347736
 40
15.53506428000646
 40
15.53506428000646
 40
15.53506428000646
 40
15.53506428000646
 10
411.7014522869024
 20
-133.0261622303974
 30
0.0
 10
411.7398151672721
 20
-132.3256166788974
 30
0.0
 10
411.9001351827575
 20
-130.9450831773489
 30
0.0
 10
412.3870755599689
 20
-128.9863076525565
 30
0.0
 10
413.1135794711803
 20
-127.1713275879735
 30
0.0
 10
414.0722749637774
 20
-125.5312301247506
 30
0.0
 10
415.2594795110554
 20
-124.0969883859677
 30
0.0
 10
416.6592913593491
 20
-122.889769334683
 30
0.0
 10
417.7231128056542
 20
-122.2525463125176
 30
0.0
 10
418.2832224806534
 20
-121.9794642823287
 30
0.0
  0
SPLINE
  5
16F
330
163
100
AcDbEntity
  8
0
  6
Continuous
 62
     0
370
     0
100
AcDbSpline
210
0.0
220
0.0
230
1.0
 70
     8
 71
     3
 72
    35
 73
    31
 74
     0
 42
0.000000001
 43
0.0
 40
0.0
 40
0.0
 40
0.0
 40
0.0
 40
3.84255304493925
 40
7.664987140178408
 40
11.46970859298694
 40
15.26088403273121
 40
19.0436375955592
 40
22.82376401864989
 40
26.60753882794127
 40
30.40074605177661
 40
34.20808272081523
 40
38.03372712295521
 40
41.87959806736609
 40
45.74849768660263
 40
49.62627423926557
 40
53.5087752936935
 40
57.39089106357642
 40
61.26904887813672
 40
65.13758184538766
 40
68.98387127952655
 40
72.80944131617572
 40
76.61684384179974
 40
80.41007844577194
 40
84.19392074791796
 40
87.97394791961563
 40
91.75668225020559
 40
95.54789920655986
 40
99.35263460253216
 40
103.1750576592479
 40
107.0176622043638
 40
107.0176622043638
 40
107.0176622043638
 40
107.0176622043638
 10
418.2832215429086
 20
-121.9794645071549
 30
0.0
 10
419.2437122504977
 20
-121.5111756695323
 30
0.0
 10
421.0997797118424
 20
-120.3606409224241
 30
0.0
 10
423.5505320230419
 20
-118.0602056383127
 30
0.0
 10
425.5460391772846
 20
-115.262696042461
 30
0.0
 10
426.9765052950394
 20
-112.0586384174948
 30
0.0
 10
427.7513634828367
 20
-108.5589027088045
 30
0.0
 10
427.8183382898374
 20
-104.8979252125949
 30
0.0
 10
427.1769259197456
 20
-101.2189298354021
 30
0.0
 10
425.8781684620863
 20
-97.65418764321507
 30
0.0
 10
424.0089484071422
 20
-94.31150658017508
 30
0.0
 10
421.6747487474562
 20
-91.27505933236333
 30
0.0
 10
418.9903599596051
 20
-88.61288719271444
 30
0.0
 10
416.0817375770169
 20
-86.39433846902676
 30
0.0
 10
413.0926503467074
 20
-84.67889767413152
 30
0.0
 10
410.1387139247635
 20
-83.54240244501821
 30
0.0
 10
407.3441183207601
 20
-83.02782797729071
 30
0.0
 10
404.8015989414195
 20
-83.15451592322194
 30
0.0
 10
402.5933444687878
 20
-83.90405264306457
 30
0.0
 10
400.7359294754182
 20
-85.26160571670147
 30
0.0
 10
399.2252657732363
 20
-87.19416682616611
 30
0.0
 10
398.0533335770053
 20
-89.66357227024498
 30
0.0
 10
397.2166097849285
 20
-92.6150508898444
 30
0.0
 10
396.7179321070065
 20
-95.96671490594694
 30
0.0
 10
396.562535670193
 20
-99.60219543841167
 30
0.0
 10
396.7558414140323
 20
-103.3799325053152
 30
0.0
 10
397.3012641681278
 20
-107.1515701482298
 30
0.0
 10
398.2033311264083
 20
-110.7812788173951
 30
0.0
 10
399.4698763185728
 20
-114.149408148655
 30
0.0
 10
400.5645699940962
 20
-116.1474166599833
 30
0.0
 10
401.174706218011
 20
-117.0667680297372
 30
0.0
  0
SPLINE
  5
170
330
163
100
AcDbEntity
  8
0
  6
Continuous
 62
     0
370
     0
100
AcDbSpline
210
0.0
220
0.0
230
1.0
 70
     8
 71
     3
 72
    14
 73
    10
 74
     0
 42
0.000000001
 43
0.0
 40
0.0
 40
0.0
 40
0.0
 40
0.0
 40
2.240565318910818
 40
4.474756653921109
 40
6.701008957944319
 40
8.917472874916857
 40
11.12743481330228
 40
13.33256461810859
 40
15.53499704911241
 40
15.53499704911241
 40
15.53499704911241
 40
15.53499704911241
 10
401.1747056021414
 20
-117.0667673441908
 30
0.0
 10
401.5304670268536
 20
-117.6028271657424
 30
0.0
 10
402.2232592461696
 20
-118.7447678457432
 30
0.0
 10
403.1718915532385
 20
-120.6260019085937
 30
0.0
 10
403.9976953410788
 20
-122.6382770208577
 30
0.0
 10
404.6664165470118
 20
-124.7458044348703
 30
0.0
 10
405.1541864072807
 20
-126.9093484038582
 30
0.0
 10
405.4418424720166
 20
-129.0905471352527
 30
0.0
 10
405.490679462587
 20
-130.5311124271322
 30
0.0
 10
405.4785250214099
 20
-131.2391780363482
 30
0.0
  0
SPLINE
  5
171
330
163
100
AcDbEntity
  8
0
  6
Continuous
 62
     0
370
     0
100
AcDbSpline
210
0.0
220
0.0
230
1.0
 70
     8
 71
     3
 72
     8
 73
     4
 74
     0
 42
0.000000001
 43
0.0
 40
0.0
 40
0.0
 40
0.0
 40
0.0
 40
47.55445460730034
 40
47.55445460730034
 40
47.55445460730034
 40
47.55445460730034
 10
405.478498361219
 20
-131.2391685091667
 30
0.0
 10
405.2161496072389
 20
-146.5275969697892
 30
0.0
 10
404.9664819082348
 20
-161.8181330637756
 30
0.0
 10
404.6854904452956
 20
-177.0983707393722
 30
0.0
  0
ELLIPSE
  5
172
330
163
100
AcDbEntity
  8
0
  6
Continuous
 62
     0
370
     0
100
AcDbEllipse
 10
406.566643
 20
-130.984355
 30
0.0
 11
-1.499767067986887
 21
0.02643372433121135
 31
0.0
210
0.0
220
0.0
230
1.0
 40
0.264092
 41
0.0000000180349629
 42
0.7636658109259651
  0
ELLIPSE
  5
173
330
163
100
AcDbEntity
  8
0
  6
Continuous
 62
     0
370
     0
100
AcDbEllipse
 10
402.392797
 20
-116.860259
 30
0.0
 11
1.257331141502406
 21
0.8179965773817518
 31
0.0
210
0.0
220
0.0
230
1.0
 40
0.500031
 41
2.427615650834643
 42
3.14159263329828
  0
ELLIPSE
  5
174
330
163
100
AcDbEntity
  8
0
  6
Continuous
 62
     0
370
     0
100
AcDbEllipse
 10
419.0376
 20
-121.639806
 30
0.0
 11
0.6766871905707789
 21
-1.338691318458976
 31
0.0
210
0.0
220
0.0
230
-1.0
 40
0.551157
 41
0.1399354958335036
 42
1.595590034310903
  0
SPLINE
  5
175
330
163
100
AcDbEntity
  8
0
  6
Continuous
 62
     0
370
     0
100
AcDbSpline
210
0.0
220
0.0
230
1.0
 70
     8
 71
     3
 72
    23
 73
    19
 74
     0
 42
0.000000001
 43
0.0
 40
47.60598529023243
 40
47.60598529023243
 40
47.60598529023243
 40
47.60598529023243
 40
49.40095951828991
 40
50.98784248892994
 40
53.5600897172287
 40
57.63180409922852
 40
61.71794092077714
 40
65.77414287274777
 40
70.60732300077261
 40
75.54753558958703
 40
80.67002611278147
 40
84.95256755626764
 40
89.22417508003764
 40
93.33620108921018
 40
97.63125829908257
 40
102.7397174449275
 40
108.130989611906
 40
113.4172894724584
 40
113.4172894724584
 40
113.4172894724584
 40
113.4172894724584
 10
405.0420036372423
 20
-81.71354773954715
 30
0.0
 10
405.3996876546843
 20
-81.61456513384766
 30
0.0
 10
406.0946844773547
 20
-81.46923234743122
 30
0.0
 10
407.3859863874024
 20
-81.35215474711447
 30
0.0
 10
409.2692475762852
 20
-81.42975694368693
 30
0.0
 10
411.8946833880595
 20
-82.03059023638038
 30
0.0
 10
415.0089360633605
 20
-83.38834131627628
 30
0.0
 10
418.3104516684824
 20
-85.48574674525689
 30
0.0
 10
421.6678587654292
 20
-88.38434280317696
 30
0.0
 10
424.8491095554458
 20
-92.16647737643125
 30
0.0
 10
427.2660286691528
 20
-96.33365659270423
 30
0.0
 10
428.8108136811662
 20
-100.6296797802584
 30
0.0
 10
429.4962111233414
 20
-104.745502592851
 30
0.0
 10
429.3918124373283
 20
-108.8383694278363
 30
0.0
 10
428.4387436124761
 20
-112.9931633622883
 30
0.0
 10
426.4499046292941
 20
-117.0733790862463
 30
0.0
 10
423.410745209152
 20
-120.6296908239876
 30
0.0
 10
420.9067725003667
 20
-122.3560205676368
 30
0.0
 10
419.6047602960279
 20
-123.0174319613954
 30
0.0
  0
ELLIPSE
  5
176
330
163
100
AcDbEntity
  8
0
  6
Continuous
 62
     0
370
     0
100
AcDbEllipse
 10
412.624783
 20
-132.724023
 30
0.0
 11
1.497799564450879
 21
-0.08121862305380326
 31
0.0
210
0.0
220
0.0
230
-1.0
 40
0.294113
 41
0.6444523490716516
 42
2.218986022380177
  0
ELLIPSE
  5
177
330
163
100
AcDbEntity
  8
0
  6
Continuous
 62
     0
370
     0
100
AcDbEllipse
 10
407.686038
 20
-184.093537
 30
0.0
 11
-0.4139323685370668
 21
-1.441755871941357
 31
0.0
210
0.0
220
0.0
230
-1.0
 40
0.638801
 41
6.283165415394958
 42
7.480912652067459
  0
ELLIPSE
  5
178
330
163
100
AcDbEntity
  8
0
  6
Continuous
 62
     0
370
    30
100
AcDbEllipse
 10
432.172655
 20
-97.032358
 30
0.0
 11
14.5891046185746
 21
-18.24556015852006
 31
0.0
210
0.0
220
0.0
230
-1.0
 40
0.51927
 41
3.360350842228827
 42
4.397678582303332
  0
SPLINE
  5
179
330
163
100
AcDbEntity
  8
0
  6
Continuous
 62
     0
370
    30
100
AcDbSpline
210
0.0
220
0.0
230
1.0
 70
     8
 71
     3
 72
    14
 73
    10
 74
     0
 42
0.000000001
 43
0.0
 40
0.0
 40
0.0
 40
0.0
 40
0.0
 40
4.160334632249884
 40
8.320862856030624
 40
12.48110524863525
 40
16.64082177771166
 40
20.79993724334343
 40
24.95870119173146
 40
29.11752654309027
 40
29.11752654309027
 40
29.11752654309027
 40
29.11752654309027
 10
436.6657842839791
 20
-84.18098794263959
 30
0.0
 10
437.6878784296485
 20
-85.09355624427627
 30
0.0
 10
439.6486564464127
 20
-87.0643861888808
 30
0.0
 10
442.1966435329226
 20
-90.37556970532178
 30
0.0
 10
444.2402858730356
 20
-93.9788111786376
 30
0.0
 10
445.6682032772044
 20
-97.78850348637927
 30
0.0
 10
446.3863438847608
 20
-101.692225258586
 30
0.0
 10
446.3365624870691
 20
-105.5439183816802
 30
0.0
 10
445.7875164134736
 20
-107.9733921322372
 30
0.0
 10
445.3948434205282
 20
-109.1232083900046
 30
0.0
  0
ELLIPSE
  5
17A
330
163
100
AcDbEntity
  8
0
  6
Continuous
 62
     0
370
    30
100
AcDbEllipse
 10
430.3532
 20
-97.53586
 30
0.0
 11
-5.867576567723826
 21
21.20310225466779
 31
0.0
210
0.0
220
0.0
230
-1.0
 40
0.716281
 41
2.33224466806748
 42
3.14159266193534
  0
SPLINE
  5
17B
330
163
100
AcDbEntity
  8
0
  6
Continuous
 62
     0
370
     0
100
AcDbSpline
210
0.0
220
0.0
230
1.0
 70
     8
 71
     9
 72
    30
 73
    20
 74
     0
 42
0.000000001
 43
0.0
 40
0.2499999949532693
 40
0.2499999949532693
 40
0.2499999949532693
 40
0.2499999949532693
 40
0.2499999949532693
 40
0.2499999949532693
 40
0.2499999949532693
 40
0.2499999949532693
 40
0.2499999949532693
 40
0.2499999949532693
 40
0.37499999475916
 40
0.37499999475916
 40
0.37499999475916
 40
0.37499999475916
 40
0.37499999475916
 40
0.499999995807328
 40
0.499999995807328
 40
0.499999995807328
 40
0.499999995807328
 40
0.499999995807328
 40
0.7206857518207923
 40
0.7206857518207923
 40
0.7206857518207923
 40
0.7206857518207923
 40
0.7206857518207923
 40
0.7206857518207923
 40
0.7206857518207923
 40
0.7206857518207923
 40
0.7206857518207923
 40
0.7206857518207923
 10
414.3887464780111
 20
-176.9038965660069
 30
0.0
 10
414.3420225994633
 20
-176.9551009652295
 30
0.0
 10
414.2862344589161
 20
-177.0053831865375
 30
0.0
 10
414.2224589557235
 20
-177.0547037112622
 30
0.0
 10
414.151667868053
 20
-177.103067162979
 30
0.0
 10
414.0867190483236
 20
-177.1520705036023
 30
0.0
 10
413.9501030414812
 20
-177.2493356437199
 30
0.0
 10
413.8060889545955
 20
-177.3455665275413
 30
0.0
 10
413.6539510282455
 20
-177.4405973225656
 30
0.0
 10
413.4931158299021
 20
-177.5342628486563
 30
0.0
 10
413.4104640094892
 20
-177.5807341148507
 30
0.0
 10
413.175585281578
 20
-177.7081969242122
 30
0.0
 10
412.923029372451
 20
-177.8326129153573
 30
0.0
 10
412.6524656309667
 20
-177.9536501848783
 30
0.0
 10
412.3644309096898
 20
-178.0711124433637
 30
0.0
 10
412.176756847178
 20
-178.1452450609436
 30
0.0
 10
411.984984633063
 20
-178.218478105206
 30
0.0
 10
411.7887334240528
 20
-178.2907018053027
 30
0.0
 10
411.5879074614376
 20
-178.3618543871483
 30
0.0
 10
411.3825472301103
 20
-178.4319058763948
 30
0.0
  0
SPLINE
  5
17C
330
163
100
AcDbEntity
  8
0
  6
Continuous
 62
     0
370
     0
100
AcDbSpline
210
0.0
220
0.0
230
1.0
 70
     8
 71
     9
 72
    20
 73
    10
 74
     0
 42
0.000000001
 43
0.0
 40
0.189289376765732
 40
0.189289376765732
 40
0.189289376765732
 40
0.189289376765732
 40
0.189289376765732
 40
0.189289376765732
 40
0.189289376765732
 40
0.189289376765732
 40
0.189289376765732
 40
0.189289376765732
 40
0.2499999949532693
 40
0.2499999949532693
 40
0.2499999949532693
 40
0.2499999949532693
 40
0.2499999949532693
 40
0.2499999949532693
 40
0.2499999949532693
 40
0.2499999949532693
 40
0.2499999949532693
 40
0.2499999949532693
 10
414.5050200512423
 20
-176.6729956413802
 30
0.0
 10
414.5031245994356
 20
-176.6993036550593
 30
0.0
 10
414.4981686930906
 20
-176.7254968463297
 30
0.0
 10
414.4902714830856
 20
-176.7515475458848
 30
0.0
 10
414.4795654087823
 20
-176.7774329166817
 30
0.0
 10
414.4661904481378
 20
-176.8031351126945
 30
0.0
 10
414.4502878509068
 20
-176.8286408771527
 30
0.0
 10
414.4319944798767
 20
-176.8539406206826
 30
0.0
 10
414.4114395627975
 20
-176.8790273594823
 30
0.0
 10
414.3887464780111
 20
-176.9038965660069
 30
0.0
  0
ELLIPSE
  5
17D
330
163
100
AcDbEntity
  8
0
  6
Continuous
 62
     0
370
     0
100
AcDbEllipse
 10
428.710158
 20
-132.542764
 30
0.0
 11
3.720545859977436
 21
-10.67623337803659
 31
0.0
210
0.0
220
0.0
230
1.0
 40
0.987524
 41
3.099381741743323
 42
4.273782781748036
  0
SPLINE
  5
17E
330
163
100
AcDbEntity
  8
0
  6
Continuous
 62
     0
370
     0
100
AcDbSpline
210
0.0
220
0.0
230
1.0
 70
     8
 71
     3
 72
     9
 73
     5
 74
     0
 42
0.000000001
 43
0.0
 40
0.0
 40
0.0
 40
0.0
 40
0.0
 40
0.7200536857649565
 40
0.8992687909008242
 40
0.8992687909008242
 40
0.8992687909008242
 40
0.8992687909008242
 10
417.5850479049813
 20
-131.3351523027794
 30
0.0
 10
417.6239239175388
 20
-131.2863549669549
 30
0.0
 10
417.6564252842278
 20
-131.2335016727278
 30
0.0
 10
417.6640459902615
 20
-131.1943979654907
 30
0.0
 10
417.6645331407987
 20
-131.1871977871004
 30
0.0
  0
ELLIPSE
  5
17F
330
163
100
AcDbEntity
  8
0
  6
Continuous
 62
     0
370
     0
100
AcDbEllipse
 10
410.186096
 20
-178.109812
 30
0.0
 11
1.497961240895658
 21
-0.07818005355806945
 31
0.0
210
0.0
220
0.0
230
-1.0
 40
0.293222
 41
0.6304843671962574
 42
2.239542105937077
  0
ELLIPSE
  5
180
330
163
100
AcDbEntity
  8
0
  6
Continuous
 62
     0
370
     0
100
AcDbEllipse
 10
405.752805
 20
-176.836844
 30
0.0
 11
-1.499734518103964
 21
0.02822012061409433
 31
0.0
210
0.0
220
0.0
230
1.0
 40
0.265845
 41
0.0000000180451609
 42
0.7839401011708897
  0
ELLIPSE
  5
181
330
163
100
AcDbEntity
  8
0
  6
Continuous
 62
     0
370
    30
100
AcDbEllipse
 10
432.370803
 20
-96.977525
 30
0.0
 11
5.427508086207715
 21
-19.61286965168917
 31
0.0
210
0.0
220
0.0
230
1.0
 40
0.716281
 41
0.5417483902703246
 42
2.728033248737811
  0
ELLIPSE
  5
182
330
163
100
AcDbEntity
  8
0
  6
Continuous
 62
     0
370
    30
100
AcDbEllipse
 10
432.370803
 20
-96.977525
 30
0.0
 11
5.427508086207715
 21
-19.61286965168917
 31
0.0
210
0.0
220
0.0
230
1.0
 40
0.716281
 41
2.72803324873781
 42
3.227271297979938
  0
ELLIPSE
  5
183
330
163
100
AcDbEntity
  8
0
  6
Continuous
 62
     0
370
    30
100
AcDbEllipse
 10
432.370803
 20
-96.977525
 30
0.0
 11
5.894247121724852
 21
-21.29948010340179
 31
0.0
210
0.0
220
0.0
230
1.0
 40
0.716281
 41
6.182754818130853
 42
9.011218555917393
  0
ELLIPSE
  5
184
330
163
100
AcDbEntity
  8
0
  6
Continuous
 62
     0
370
    30
100
AcDbEllipse
 10
432.370803
 20
-96.977525
 30
0.0
 11
5.894247121724852
 21
-21.29948010340179
 31
0.0
210
0.0
220
0.0
230
1.0
 40
0.716281
 41
2.728033248737807
 42
3.382234234538895
  0
ELLIPSE
  5
185
330
163
100
AcDbEntity
  8
0
  6
Continuous
 62
     0
370
     0
100
AcDbEllipse
 10
437.952849
 20
-95.432795
 30
0.0
 11
23.73701325171923
 21
-85.7761866830632
 31
0.0
210
0.0
220
0.0
230
1.0
 40
0.716281
 41
5.557260095410772
 42
10.58201488271229
  0
ELLIPSE
  5
186
330
163
100
AcDbEntity
  8
0
  6
Continuous
 62
     0
370
     0
100
AcDbEllipse
 10
437.952849
 20
-95.432795
 30
0.0
 11
23.73701325171923
 21
-85.7761866830632
 31
0.0
210
0.0
220
0.0
230
1.0
 40
0.716281
 41
4.298829575532706
 42
5.382174943133021
  0
ELLIPSE
  5
187
330
163
100
AcDbEntity
  8
0
  6
Continuous
 62
     0
370
     0
100
AcDbEllipse
 10
438.625385
 20
-95.246683
 30
0.0
 11
24.00372126578349
 21
-86.73996406152457
 31
0.0
210
0.0
220
0.0
230
1.0
 40
0.716281
 41
6.237300077962549
 42
9.42477843721192
  0
ELLIPSE
  5
188
330
163
100
AcDbEntity
  8
0
  6
Continuous
 62
     0
370
    30
100
AcDbEllipse
 10
446.023277
 20
-93.199449
 30
0.0
 11
24.0037212657835
 21
-86.73996406152457
 31
0.0
210
0.0
220
0.0
230
1.0
 40
0.716281
 41
-0.0000000083455465
 42
3.141592645244246
  0
ELLIPSE
  5
189
330
163
100
AcDbEntity
  8
0
  6
Continuous
 62
     0
370
    30
100
AcDbEllipse
 10
437.952849
 20
-95.432795
 30
0.0
 11
-5.894247121724852
 21
21.29948010340179
 31
0.0
210
0.0
220
0.0
230
-1.0
 40
0.716281
 41
0.0000000083455461
 42
0.413559404851984
  0
ELLIPSE
  5
18A
330
163
100
AcDbEntity
  8
0
  6
Continuous
 62
     0
370
    30
100
AcDbEllipse
 10
437.952849
 20
-95.432795
 30
0.0
 11
-5.894247121724852
 21
21.29948010340179
 31
0.0
210
0.0
220
0.0
230
-1.0
 40
0.716281
 41
0.4135594048519863
 42
3.14159266193534
  0
LINE
  5
18B
330
163
100
AcDbEntity
  8
0
  6
Continuous
 62
     0
370
    30
100
AcDbLine
 10
462.629106
 20
-181.986647
 30
0.0
 11
470.026998
 21
-179.939414
 31
0.0
  0
LINE
  5
18C
330
163
100
AcDbEntity
  8
0
  6
Continuous
 62
     0
370
    30
100
AcDbLine
 10
414.621664
 20
-8.506718
 30
0.0
 11
422.019556
 21
-6.459485
 31
0.0
  0
SPLINE
  5
18D
330
163
100
AcDbEntity
  8
0
  6
Continuous
 62
     0
370
    30
100
AcDbSpline
210
0.0
220
0.0
230
1.0
 70
     8
 71
     3
 72
    17
 73
    13
 74
     0
 42
0.000000001
 43
0.0
 40
0.0
 40
0.0
 40
0.0
 40
0.0
 40
8.17955203219524
 40
22.08831090351015
 40
30.27244484935377
 40
44.19054519309101
 40
55.50110994641413
 40
66.42457011171551
 40
77.96348031688183
 40
85.29882028764683
 40
96.91545804051596
 40
104.016318436651
 40
104.016318436651
 40
104.016318436651
 40
104.016318436651
 10
371.8265459210118
 20
-76.31027356785862
 30
0.0
 10
371.9171048870521
 20
-73.69379266851632
 30
0.0
 10
372.4101076067681
 20
-66.69424148787832
 30
0.0
 10
373.9991500214197
 20
-57.47102788765477
 30
0.0
 10
376.942099392626
 20
-47.14062937409756
 30
0.0
 10
380.6206685531979
 20
-38.25876894046226
 30
0.0
 10
385.689967377562
 20
-29.72481581651846
 30
0.0
 10
391.2510104606413
 20
-22.76273625956389
 30
0.0
 10
396.8205258063716
 20
-17.61681500133523
 30
0.0
 10
403.0137905330955
 20
-13.28113716784327
 30
0.0
 10
408.6843222681012
 20
-10.40785000484718
 30
0.0
 10
412.9710910257467
 20
-8.963484760984414
 30
0.0
 10
414.6216641549855
 20
-8.506718425243292
 30
0.0
  0
SPLINE
  5
18E
330
163
100
AcDbEntity
  8
0
  6
Continuous
 62
     0
370
    30
100
AcDbSpline
210
0.0
220
0.0
230
1.0
 70
     8
 71
     3
 72
    18
 73
    14
 74
     0
 42
0.000000001
 43
0.0
 40
80.9766847782774
 40
80.9766847782774
 40
80.9766847782774
 40
80.9766847782774
 40
85.29953752198944
 40
94.58897138621082
 40
103.8764553853093
 40
113.164645721503
 40
122.4556307007517
 40
132.590383768148
 40
140.1904721472017
 40
152.0115478535156
 40
158.7667246159516
 40
171.031499845568
 40
178.2303933410371
 40
178.2303933410371
 40
178.2303933410371
 40
178.2303933410371
 10
404.5134632921888
 20
-162.5589497055244
 30
0.0
 10
403.5925159138314
 20
-161.6397201393293
 30
0.0
 10
400.7340814996387
 20
-158.6637764325275
 30
0.0
 10
396.1629460063377
 20
-153.2439120417467
 30
0.0
 10
391.0534391019851
 20
-146.0324954498291
 30
0.0
 10
386.4501305163758
 20
-138.2809182480346
 30
0.0
 10
382.2787874927894
 20
-129.822281776663
 30
0.0
 10
378.9590447837101
 20
-121.4854872727583
 30
0.0
 10
375.9737286651057
 20
-112.0943305228866
 30
0.0
 10
373.9798848692658
 20
-103.5870866092393
 30
0.0
 10
372.3950419565398
 20
-93.48489446315638
 30
0.0
 10
371.7238006129787
 20
-84.89697209349592
 30
0.0
 10
371.746837965354
 20
-78.61324171886271
 30
0.0
 10
371.8265458758536
 20
-76.31027487291732
 30
0.0
  0
SPLINE
  5
18F
330
163
100
AcDbEntity
  8
0
  6
Continuous
 62
     0
370
    30
100
AcDbSpline
210
0.0
220
0.0
230
1.0
 70
     8
 71
     3
 72
    13
 73
     9
 74
     0
 42
0.000000001
 43
0.0
 40
0.0
 40
0.0
 40
0.0
 40
0.0
 40
4.320881997655648
 40
11.88210840582646
 40
24.07002561749839
 40
36.03273605580232
 40
50.39606443979414
 40
65.47353685102043
 40
65.47353685102043
 40
65.47353685102043
 40
65.47353685102043
 10
462.6291056498029
 20
-181.9866468351941
 30
0.0
 10
461.6245650699817
 20
-182.264635317867
 30
0.0
 10
458.8359534341769
 20
-182.9366450292817
 30
0.0
 10
453.0629722176932
 20
-183.7775055300284
 30
0.0
 10
445.2594310188647
 20
-183.7345583716564
 30
0.0
 10
435.6669216398145
 20
-181.9776570559009
 30
0.0
 10
425.4198250271116
 20
-178.1331951667266
 30
0.0
 10
418.3761687367257
 20
-173.9192802419144
 30
0.0
 10
414.8819861426185
 20
-171.4047156000215
 30
0.0
  0
LINE
  5
190
330
163
100
AcDbEntity
  8
0
  6
Continuous
 62
     0
370
    30
100
AcDbLine
 10
426.476556
 20
-75.678045
 30
0.0
 11
432.058602
 21
-74.133315
 31
0.0
  0
LINE
  5
191
330
163
100
AcDbEntity
  8
0
  6
Continuous
 62
     0
370
    30
100
AcDbLine
 10
438.26505
 20
-118.277005
 30
0.0
 11
443.847096
 21
-116.732275
 31
0.0
  0
LINE
  5
192
330
163
100
AcDbEntity
  8
0
  6
Continuous
 62
     0
370
    30
100
AcDbLine
 10
425.990357
 20
-77.678319
 30
0.0
 11
425.758786
 21
-77.768668
 31
0.0
  0
SPLINE
  5
193
330
163
100
AcDbEntity
  8
0
  6
Continuous
 62
     0
370
    30
100
AcDbSpline
210
0.0
220
0.0
230
1.0
 70
     8
 71
     3
 72
    23
 73
    19
 74
     0
 42
0.000000001
 43
0.0
 40
0.034563035391225
 40
0.034563035391225
 40
0.034563035391225
 40
0.034563035391225
 40
0.6221152222458701
 40
1.194818398431388
 40
1.828071335683479
 40
2.910085066911466
 40
4.642511654735917
 40
5.804348597578726
 40
7.219260901720441
 40
8.422478741172418
 40
9.356520922933711
 40
9.751398488544975
 40
10.01473865566325
 40
10.27875932612177
 40
10.43466768502876
 40
10.55215820654369
 40
10.74551088060927
 40
10.93057308104905
 40
10.93057308104905
 40
10.93057308104905
 40
10.93057308104905
 10
423.286215981951
 20
-122.627250931208
 30
0.0
 10
423.1270901503997
 20
-122.7151636402022
 30
0.0
 10
422.8108600880165
 20
-122.900224920392
 30
0.0
 10
422.330560789406
 20
-123.2150856935419
 30
0.0
 10
421.7338854801732
 20
-123.6530800708064
 30
0.0
 10
420.8792959691229
 20
-124.3860625327441
 30
0.0
 10
420.0001764509096
 20
-125.3552372522199
 30
0.0
 10
419.1918189066112
 20
-126.5183865242432
 30
0.0
 10
418.6050879597449
 20
-127.6133945016495
 30
0.0
 10
418.1791960683784
 20
-128.6989998219668
 30
0.0
 10
417.9494881808398
 20
-129.502359649426
 30
0.0
 10
417.8342852008124
 20
-130.0165857416553
 30
0.0
 10
417.776422220074
 20
-130.3158022562704
 30
0.0
 10
417.7390269189096
 20
-130.5376651230355
 30
0.0
 10
417.7140544564119
 20
-130.7105150721176
 30
0.0
 10
417.6942636966758
 20
-130.8579459112004
 30
0.0
 10
417.6812375400131
 20
-131.0140506064965
 30
0.0
 10
417.6619656206976
 20
-131.1262730552245
 30
0.0
 10
417.6645401781863
 20
-131.1873654783107
 30
0.0
  0
LINE
  5
194
330
163
100
AcDbEntity
  8
0
  6
Continuous
 62
     0
370
    30
100
AcDbLine
 10
425.622107
 20
-121.671953
 30
0.0
 11
436.220776
 21
-118.738962
 31
0.0
  0
LINE
  5
195
330
163
100
AcDbEntity
  8
0
  6
Continuous
 62
     0
370
    30
100
AcDbLine
 10
405.041414
 20
-81.713592
 30
0.0
 11
419.98735
 21
-77.577573
 31
0.0
  0
ARC
  5
196
330
163
100
AcDbEntity
  8
0
  6
Continuous
 62
     0
370
    30
100
AcDbCircle
 10
408.095642
 20
-182.76731
 30
0.0
 40
2.887895052806071
100
AcDbArc
 50
253.431285
 51
297.870819
  0
SPLINE
  5
197
330
163
100
AcDbEntity
  8
0
  6
Continuous
 62
     0
370
    30
100
AcDbSpline
210
0.0
220
0.0
230
1.0
 70
     8
 71
     3
 72
    21
 73
    17
 74
     0
 42
0.000000001
 43
0.0
 40
0.0
 40
0.0
 40
0.0
 40
0.0
 40
0.9695847986962665
 40
1.654122011039492
 40
2.287039395054241
 40
2.711638775873326
 40
3.115906994154383
 40
3.421647401880958
 40
3.964036553526765
 40
4.925214319213893
 40
5.757951790283658
 40
6.595208751847324
 40
7.387543885168052
 40
7.911932064490808
 40
8.963022484240192
 40
10.26302050373077
 40
10.26302050373077
 40
10.26302050373077
 40
10.26302050373077
 10
407.2721056678506
 20
-185.5352925642598
 30
0.0
 10
406.9883222526047
 20
-185.4538175072392
 30
0.0
 10
406.5183135226554
 20
-185.2452453443856
 30
0.0
 10
405.9425200248493
 20
-184.8138068211237
 30
0.0
 10
405.5577497893285
 20
-184.4136817970317
 30
0.0
 10
405.2725331297661
 20
-184.0389081042446
 30
0.0
 10
405.0729825924689
 20
-183.7301284945361
 30
0.0
 10
404.8709956207205
 20
-183.372743195009
 30
0.0
 10
404.6280900039678
 20
-182.8221325674781
 30
0.0
 10
404.4385771672345
 20
-182.0621718346369
 30
0.0
 10
404.3301675973463
 20
-181.1950713058022
 30
0.0
 10
404.2856155137542
 20
-180.387962131095
 30
0.0
 10
404.2652857736028
 20
-179.6872594816189
 30
0.0
 10
404.2486079112913
 20
-178.9179893437774
 30
0.0
 10
404.2392643433296
 20
-177.98601242019
 30
0.0
 10
404.2451972986482
 20
-177.227043423209
 30
0.0
 10
404.2530705862687
 20
-176.8086241876426
 30
0.0
  0
SPLINE
  5
198
330
163
100
AcDbEntity
  8
0
  6
Continuous
 62
     0
370
    30
100
AcDbSpline
210
0.0
220
0.0
230
1.0
 70
     8
 71
     3
 72
     9
 73
     5
 74
     0
 42
0.000000001
 43
0.0
 40
0.0
 40
0.0
 40
0.0
 40
0.0
 40
26.20652811330361
 40
47.55203194161017
 40
47.55203194161017
 40
47.55203194161017
 40
47.55203194161017
 10
404.2530705862674
 20
-176.8086241877079
 30
0.0
 10
404.411499961934
 20
-168.3890285874678
 30
0.0
 10
404.6817358336332
 20
-153.1058938617488
 30
0.0
 10
404.945952345969
 20
-137.8194520633035
 30
0.0
 10
405.0668499729627
 20
-130.9579204275637
 30
0.0
  0
SPLINE
  5
199
330
163
100
AcDbEntity
  8
0
  6
Continuous
 62
     0
370
    30
100
AcDbSpline
210
0.0
220
0.0
230
1.0
 70
     8
 71
     3
 72
    22
 73
    18
 74
     0
 42
0.000000001
 43
0.0
 40
0.0
 40
0.0
 40
0.0
 40
0.0
 40
1.611474698787405
 40
3.901804617640469
 40
7.483698431431475
 40
11.77339125996622
 40
14.66388272096258
 40
18.03992683662609
 40
20.86167311610778
 40
23.58744232783848
 40
26.96462448754186
 40
29.77231959436641
 40
34.66770304475745
 40
38.12050979315478
 40
41.0949621464914
 40
44.31216320161259
 40
46.73447598932235
 40
46.73447598932235
 40
46.73447598932235
 40
46.73447598932235
 10
401.1354666345807
 20
-117.6782557937194
 30
0.0
 10
400.8772036579546
 20
-117.2812830788747
 30
0.0
 10
400.2793921045761
 20
-116.2888271681204
 30
0.0
 10
399.259327681724
 20
-114.2548602454734
 30
0.0
 10
398.1248623227254
 20
-111.2610268436989
 30
0.0
 10
397.2652201588663
 20
-107.8423233369544
 30
0.0
 10
396.7183277270025
 20
-104.3671503198143
 30
0.0
 10
396.468168459748
 20
-101.3430822222325
 30
0.0
 10
396.4352672111943
 20
-98.41576348606192
 30
0.0
 10
396.5917541403711
 20
-95.58078722908891
 30
0.0
 10
396.954972161641
 20
-92.90623427920012
 30
0.0
 10
397.6682833643497
 20
-89.84474694013821
 30
0.0
 10
398.7194741277932
 20
-87.14543698420167
 30
0.0
 10
400.1864703589484
 20
-84.89626459881316
 30
0.0
 10
401.719826351038
 20
-83.33984376335367
 30
0.0
 10
403.3328188469197
 20
-82.30260500023081
 30
0.0
 10
404.5162554786577
 20
-81.8589529229175
 30
0.0
 10
405.0432632557784
 20
-81.71319926592363
 30
0.0
  0
SPLINE
  5
19A
330
163
100
AcDbEntity
  8
0
  6
Continuous
 62
     0
370
    30
100
AcDbSpline
210
0.0
220
0.0
230
1.0
 70
     8
 71
     3
 72
    13
 73
     9
 74
     0
 42
0.000000001
 43
0.0
 40
0.0
 40
0.0
 40
0.0
 40
0.0
 40
1.308364777417055
 40
3.506061462627392
 40
7.95118382691261
 40
11.53234390017609
 40
13.32108967512096
 40
14.56273179595017
 40
14.56273179595017
 40
14.56273179595017
 40
14.56273179595017
 10
405.06687606683
 20
-130.9579217578075
 30
0.0
 10
405.0742453278937
 20
-130.5398128795486
 30
0.0
 10
405.0580429191438
 20
-129.4064438319624
 30
0.0
 10
404.8069446180624
 20
-126.7929700818421
 30
0.0
 10
403.982584816498
 20
-123.4456598987377
 30
0.0
 10
402.7480580722279
 20
-120.5009098368729
 30
0.0
 10
401.7896880796794
 20
-118.7234304149302
 30
0.0
 10
401.3273464292768
 20
-117.9731917948036
 30
0.0
 10
401.1354663081283
 20
-117.678255534619
 30
0.0
  0
SPLINE
  5
19B
330
163
100
AcDbEntity
  8
0
  6
Continuous
 62
     0
370
    30
100
AcDbSpline
210
0.0
220
0.0
230
1.0
 70
     8
 71
     3
 72
    19
 73
    15
 74
     0
 42
0.000000001
 43
0.0
 40
0.0
 40
0.0
 40
0.0
 40
0.0
 40
1.155004692722894
 40
2.319835433674228
 40
2.906144610489026
 40
3.498297669255545
 40
4.09601560445754
 40
4.703314602265689
 40
5.004997353638109
 40
5.308704913626138
 40
5.921557650332213
 40
6.345652243439
 40
6.646322139001458
 40
7.147126418928432
 40
7.147126418928432
 40
7.147126418928432
 40
7.147126418928432
 10
409.4442923295555
 20
-185.3209609208349
 30
0.0
 10
409.6937903103718
 20
-185.1898217307774
 30
0.0
 10
410.1968554791918
 20
-184.9036948301618
 30
0.0
 10
410.8360723451993
 20
-184.4669381412083
 30
0.0
 10
411.3450562339313
 20
-184.0585978450194
 30
0.0
 10
411.7209826577077
 20
-183.7224011574858
 30
0.0
 10
412.0942660792565
 20
-183.348153198395
 30
0.0
 10
412.3930608303477
 20
-183.0089307932662
 30
0.0
 10
412.6231322622277
 20
-182.7218072761664
 30
0.0
 10
412.8468476406521
 20
-182.42413644135
 30
0.0
 10
413.0790491774868
 20
-182.0827722952498
 30
0.0
 10
413.2959273599951
 20
-181.7263442730817
 30
0.0
 10
413.4876145168253
 20
-181.3821870928571
 30
0.0
 10
413.6045880629987
 20
-181.1455802842483
 30
0.0
 10
413.6728371787237
 20
-180.9949732742767
 30
0.0
  0
SPLINE
  5
19C
330
163
100
AcDbEntity
  8
0
  6
Continuous
 62
     0
370
    30
100
AcDbSpline
210
0.0
220
0.0
230
1.0
 70
     8
 71
     3
 72
    16
 73
    12
 74
     0
 42
0.000000001
 43
0.0
 40
0.0
 40
0.0
 40
0.0
 40
0.0
 40
0.4741052441373998
 40
0.8870157709705679
 40
1.627128691174849
 40
2.696375856634298
 40
3.232322114658909
 40
3.75867706346291
 40
4.285114635255309
 40
4.39296942660918
 40
4.491061997033439
 40
4.491061997033439
 40
4.491061997033439
 40
4.491061997033439
 10
413.6728450899728
 20
-180.9949561287082
 30
0.0
 10
413.7374225635024
 20
-180.8524506219708
 30
0.0
 10
413.851193940074
 20
-180.5785298027469
 30
0.0
 10
414.0271089250423
 20
-180.0660456931263
 30
0.0
 10
414.2136858411345
 20
-179.3540121573508
 30
0.0
 10
414.3369886771693
 20
-178.5937933750006
 30
0.0
 10
414.4100809398792
 20
-177.9038213089359
 30
0.0
 10
414.4530249857923
 20
-177.3902171659291
 30
0.0
 10
414.479757183214
 20
-177.0156861215501
 30
0.0
 10
414.4976183947278
 20
-176.7800779476216
 30
0.0
 10
414.501435748866
 20
-176.7137851052202
 30
0.0
 10
414.5041813737074
 20
-176.6822822936397
 30
0.0
  0
SPLINE
  5
19D
330
163
100
AcDbEntity
  8
0
  6
Continuous
 62
     0
370
    30
100
AcDbSpline
210
0.0
220
0.0
230
1.0
 70
     8
 71
     3
 72
     9
 73
     5
 74
     0
 42
0.000000001
 43
0.0
 40
0.0
 40
0.0
 40
0.0
 40
0.0
 40
27.41567993171596
 40
47.1893484270194
 40
47.1893484270194
 40
47.1893484270194
 40
47.1893484270194
 10
417.6645444828808
 20
-131.1872473228391
 30
0.0
 10
417.0589239071377
 20
-139.9932157757507
 30
0.0
 10
416.0271388800185
 20
-155.1515156015406
 30
0.0
 10
414.9629662497284
 20
-170.3167571676089
 30
0.0
 10
414.5050200844424
 20
-176.6729951867489
 30
0.0
  0
ARC
  5
19E
330
163
100
AcDbEntity
  8
0
  6
Continuous
 62
     0
370
    30
100
AcDbCircle
 10
428.514034
 20
-132.076556
 30
0.0
 40
10.79902924329189
100
AcDbArc
 50
105.535728
 51
118.783195
  0
ENDBLK
  5
1A0
330
163
100
AcDbEntity
  8
0
100
AcDbBlockEnd
  0
ENDSEC
  0
SECTION
  2
ENTITIES
  0
INSERT
  5
99
330
1F
100
AcDbEntity
  8
0
  6
Continuous
 62
     7
370
     0
100
AcDbBlockReference
  2
a
 10
76.700867
 20
60.963074
 30
0.0
  0
INSERT
  5
C9
330
1F
100
AcDbEntity
  8
0
  6
Continuous
 62
     7
370
     0
100
AcDbBlockReference
  2
b
 10
-16.106895
 20
0.0
 30
0.0
  0
INSERT
  5
FD
330
1F
100
AcDbEntity
  8
0
  6
Continuous
 62
     7
370
     0
100
AcDbBlockReference
  2
c
 10
300.508575
 20
0.0
 30
0.0
  0
INSERT
  5
11C
330
1F
100
AcDbEntity
  8
0
  6
Continuous
 62
     7
370
     0
100
AcDbBlockReference
  2
d
 10
0.0
 20
-67.304321
 30
0.0
  0
INSERT
  5
162
330
1F
100
AcDbEntity
  8
0
  6
Continuous
 62
     7
370
     0
100
AcDbBlockReference
  2
e
 10
0.0
 20
302.046631
 30
0.0
  0
INSERT
  5
1A1
330
1F
100
AcDbEntity
  8
0
  6
Continuous
 62
     7
370
     0
100
AcDbBlockReference
  2
f
 10
365.478912
 20
-205.151093
 30
0.0
  0
ENDSEC
  0
SECTION
  2
OBJECTS
  0
DICTIONARY
  5
C
330
0
100
AcDbDictionary
281
     1
  3
ACAD_GROUP
350
D
  3
ACAD_LAYOUT
350
1A
  3
ACAD_MATERIAL
350
43
  3
ACAD_MLEADERSTYLE
350
6B
  3
ACAD_MLINESTYLE
350
17
  3
ACAD_PLOTSETTINGS
350
19
  3
ACAD_PLOTSTYLENAME
350
E
  3
ACAD_SCALELIST
350
47
  3
ACAD_TABLESTYLE
350
69
  3
ACAD_VISUALSTYLE
350
2A
  3
AcDbVariableDictionary
350
1A2
  0
DICTIONARY
  5
1AD
330
8
100
AcDbDictionary
280
     1
281
     1
  3
ACAD_XREC_ROUNDTRIP
360
1AE
  0
DICTIONARY
  5
D
102
{ACAD_REACTORS
330
C
102
}
330
C
100
AcDbDictionary
281
     1
  0
DICTIONARY
  5
1A
102
{ACAD_REACTORS
330
C
102
}
330
C
100
AcDbDictionary
281
     1
  3
Layout1
350
1E
  3
Layout2
350
26
  3
Model
350
22
  0
DICTIONARY
  5
43
102
{ACAD_REACTORS
330
C
102
}
330
C
100
AcDbDictionary
281
     1
  3
ByBlock
350
45
  3
ByLayer
350
44
  3
Global
350
46
  0
DICTIONARY
  5
6B
102
{ACAD_REACTORS
330
C
102
}
330
C
100
AcDbDictionary
281
     1
  3
Standard
350
6C
  0
DICTIONARY
  5
17
102
{ACAD_REACTORS
330
C
102
}
330
C
100
AcDbDictionary
281
     1
  3
Standard
350
18
  0
DICTIONARY
  5
19
102
{ACAD_REACTORS
330
C
102
}
330
C
100
AcDbDictionary
281
     1
  0
ACDBDICTIONARYWDFLT
  5
E
102
{ACAD_REACTORS
330
C
102
}
330
C
100
AcDbDictionary
281
     1
  3
Normal
350
F
100
AcDbDictionaryWithDefault
340
F
  0
DICTIONARY
  5
47
102
{ACAD_REACTORS
330
C
102
}
330
C
100
AcDbDictionary
281
     1
  3
A0
350
48
  3
A1
350
49
  3
A2
350
4A
  3
A3
350
4B
  3
A4
350
4C
  3
A5
350
4D
  3
A6
350
4E
  3
A7
350
4F
  3
A8
350
50
  3
A9
350
51
  3
B0
350
52
  3
B1
350
53
  3
B2
350
54
  3
B3
350
55
  3
B4
350
56
  3
B5
350
57
  3
B6
350
58
  3
B7
350
59
  3
B8
350
5A
  3
B9
350
5B
  3
C0
350
5C
  3
C1
350
5D
  3
C2
350
5E
  3
C3
350
5F
  3
C4
350
60
  3
C5
350
61
  3
C6
350
62
  3
C7
350
63
  3
C8
350
64
  3
C9
350
65
  3
D0
350
66
  3
D1
350
67
  3
D2
350
68
  0
DICTIONARY
  5
69
102
{ACAD_REACTORS
330
C
102
}
330
C
100
AcDbDictionary
281
     1
  3
Standard
350
6A
  0
DICTIONARY
  5
2A
102
{ACAD_REACTORS
330
C
102
}
330
C
100
AcDbDictionary
281
     1
  3
2dWireframe
350
2F
  3
Basic
350
32
  3
Brighten
350
36
  3
ColorChange
350
3A
  3
Conceptual
350
34
  3
Dim
350
35
  3
EdgeColorOff
350
3D
  3
Facepattern
350
39
  3
Flat
350
2B
  3
FlatWithEdges
350
2C
  3
Gouraud
350
2D
  3
GouraudWithEdges
350
2E
  3
Hidden
350
31
  3
JitterOff
350
3B
  3
Linepattern
350
38
  3
OverhangOff
350
3C
  3
Realistic
350
33
  3
Shaded
350
42
  3
Shaded with edges
350
41
  3
Shades of Gray
350
3E
  3
Sketchy
350
3F
  3
Thicken
350
37
  3
Wireframe
350
30
  3
X-Ray
350
40
  0
DICTIONARY
  5
1A2
102
{ACAD_REACTORS
330
C
102
}
330
C
100
AcDbDictionary
281
     1
  3
CANNOSCALE
350
1AF
  3
CENTEREXE
350
1A9
  3
CENTERLTYPEFILE
350
1AA
  3
CMLEADERSTYLE
350
1A4
  3
CTABLESTYLE
350
1A3
  3
DIMASSOC
350
1AB
  3
HIDETEXT
350
1AC
  3
MSLTSCALE
350
1B0
  3
PSOLHEIGHT
350
1A6
  3
PSOLWIDTH
350
1A5
  0
XRECORD
  5
1AE
102
{ACAD_REACTORS
330
1AD
102
}
330
1AD
100
AcDbXrecord
280
     1
102
VTR_0.000_0.000_1.000_1.000_VISUALSTYLE
340
2F
102
VTR_0.000_0.000_1.000_1.000_GRIDDISPLAY
 70
     3
102
VTR_0.000_0.000_1.000_1.000_GRIDMAJOR
 70
     5
102
VTR_0.000_0.000_1.000_1.000_DEFAULTLIGHTING
280
     1
102
VTR_0.000_0.000_1.000_1.000_DEFAULTLIGHTINGTYPE
 70
     1
102
VTR_0.000_0.000_1.000_1.000_BRIGHTNESS
141
0.0
102
VTR_0.000_0.000_1.000_1.000_CONTRAST
142
0.0
  0
LAYOUT
  5
1E
102
{ACAD_REACTORS
330
1A
102
}
330
1A
100
AcDbPlotSettings
  1

  2
none_device
  4

  6

 40
0.0
 41
0.0
 42
0.0
 43
0.0
 44
0.0
 45
0.0
 46
0.0
 47
0.0
 48
0.0
 49
0.0
140
0.0
141
0.0
142
1.0
143
1.0
 70
   688
 72
     1
 73
     0
 74
     5
  7

 75
    16
147
1.0
148
0.0
149
0.0
100
AcDbLayout
  1
Layout1
 70
     1
 71
     1
 10
0.0
 20
0.0
 11
420.0
 21
297.0
 12
0.0
 22
0.0
 32
0.0
 14
1.000000E+20
 24
1.000000E+20
 34
1.000000E+20
 15
-1.000000E+20
 25
-1.000000E+20
 35
-1.000000E+20
146
0.0
 13
0.0
 23
0.0
 33
0.0
 16
1.0
 26
0.0
 36
0.0
 17
0.0
 27
1.0
 37
0.0
 76
     0
330
1B
  0
LAYOUT
  5
26
102
{ACAD_REACTORS
330
1A
102
}
330
1A
100
AcDbPlotSettings
  1

  2
none_device
  4

  6

 40
0.0
 41
0.0
 42
0.0
 43
0.0
 44
0.0
 45
0.0
 46
0.0
 47
0.0
 48
0.0
 49
0.0
140
0.0
141
0.0
142
1.0
143
1.0
 70
   688
 72
     1
 73
     0
 74
     5
  7

 75
    16
147
1.0
148
0.0
149
0.0
100
AcDbLayout
  1
Layout2
 70
     1
 71
     2
 10
0.0
 20
0.0
 11
0.0
 21
0.0
 12
0.0
 22
0.0
 32
0.0
 14
0.0
 24
0.0
 34
0.0
 15
0.0
 25
0.0
 35
0.0
146
0.0
 13
0.0
 23
0.0
 33
0.0
 16
1.0
 26
0.0
 36
0.0
 17
0.0
 27
1.0
 37
0.0
 76
     0
330
23
  0
LAYOUT
  5
22
102
{ACAD_REACTORS
330
1A
102
}
330
1A
100
AcDbPlotSettings
  1

  2
none_device
  4
Letter_(8.50_x_11.00_Inches)
  6

 40
6.35
 41
6.35
 42
6.350005
 43
6.350005
 44
215.9
 45
279.4
 46
0.0
 47
0.0
 48
0.0
 49
0.0
140
0.0
141
0.0
142
1.0
143
1.0
 70
  1712
 72
     1
 73
     0
 74
     0
  7

 75
     0
147
1.0
148
0.0
149
0.0
100
AcDbLayout
  1
Model
 70
     1
 71
     0
 10
-89.729164
 20
-212.081085
 11
512.623474
 21
432.933563
 12
0.0
 22
0.0
 32
0.0
 14
-89.729164
 24
-212.081085
 34
0.0
 15
512.623474
 25
432.933563
 35
0.0
146
0.0
 13
0.0
 23
0.0
 33
0.0
 16
1.0
 26
0.0
 36
0.0
 17
0.0
 27
1.0
 37
0.0
 76
     0
330
1F
331
29
  0
MATERIAL
  5
45
102
{ACAD_REACTORS
330
43
102
}
102
{ACAD_XDICTIONARY
360
1E3
102
}
330
43
100
AcDbMaterial
  1
ByBlock
  0
MATERIAL
  5
44
102
{ACAD_REACTORS
330
43
102
}
102
{ACAD_XDICTIONARY
360
1E1
102
}
330
43
100
AcDbMaterial
  1
ByLayer
  0
MATERIAL
  5
46
102
{ACAD_REACTORS
330
43
102
}
102
{ACAD_XDICTIONARY
360
1E5
102
}
330
43
100
AcDbMaterial
  1
Global
  0
MLEADERSTYLE
  5
6C
102
{ACAD_REACTORS
330
6B
102
}
102
{ACAD_XDICTIONARY
360
1E8
102
}
330
6B
100
AcDbMLeaderStyle
170
     2
171
     1
172
     0
 90
        2
 40
0.0
 41
0.0
173
     1
 91
-1056964608
340
14
 92
       -2
290
     1
 42
2.0
291
     1
 43
8.0
  3
Standard
341
0
 44
4.0
300

342
11
174
     1
178
     6
175
     1
176
     0
 93
-1056964608
 45
4.0
292
     0
297
     0
 46
4.0
343
0
 94
-1056964608
 47
1.0
 49
1.0
140
1.0
293
     1
141
0.0
294
     1
177
     0
142
1.0
295
     0
296
     0
143
3.75
1001
ACAD_MLEADERVER
1070
     2
  0
MLINESTYLE
  5
18
102
{ACAD_REACTORS
330
17
102
}
330
17
100
AcDbMlineStyle
  2
Standard
 70
     0
  3

 62
   256
 51
90.0
 52
90.0
 71
     2
 49
0.5
 62
   256
  6
BYLAYER
 49
-0.5
 62
   256
  6
BYLAYER
  0
ACDBPLACEHOLDER
  5
F
102
{ACAD_REACTORS
330
E
102
}
330
E
  0
SCALE
  5
48
102
{ACAD_REACTORS
330
47
102
}
330
47
100
AcDbScale
 70
     0
300
1:1
140
1.0
141
1.0
290
     1
  0
SCALE
  5
49
102
{ACAD_REACTORS
330
47
102
}
330
47
100
AcDbScale
 70
     0
300
1:2
140
1.0
141
2.0
290
     0
  0
SCALE
  5
4A
102
{ACAD_REACTORS
330
47
102
}
330
47
100
AcDbScale
 70
     0
300
1:4
140
1.0
141
4.0
290
     0
  0
SCALE
  5
4B
102
{ACAD_REACTORS
330
47
102
}
330
47
100
AcDbScale
 70
     0
300
1:5
140
1.0
141
5.0
290
     0
  0
SCALE
  5
4C
102
{ACAD_REACTORS
330
47
102
}
330
47
100
AcDbScale
 70
     0
300
1:8
140
1.0
141
8.0
290
     0
  0
SCALE
  5
4D
102
{ACAD_REACTORS
330
47
102
}
330
47
100
AcDbScale
 70
     0
300
1:10
140
1.0
141
10.0
290
     0
  0
SCALE
  5
4E
102
{ACAD_REACTORS
330
47
102
}
330
47
100
AcDbScale
 70
     0
300
1:16
140
1.0
141
16.0
290
     0
  0
SCALE
  5
4F
102
{ACAD_REACTORS
330
47
102
}
330
47
100
AcDbScale
 70
     0
300
1:20
140
1.0
141
20.0
290
     0
  0
SCALE
  5
50
102
{ACAD_REACTORS
330
47
102
}
330
47
100
AcDbScale
 70
     0
300
1:30
140
1.0
141
30.0
290
     0
  0
SCALE
  5
51
102
{ACAD_REACTORS
330
47
102
}
330
47
100
AcDbScale
 70
     0
300
1:40
140
1.0
141
40.0
290
     0
  0
SCALE
  5
52
102
{ACAD_REACTORS
330
47
102
}
330
47
100
AcDbScale
 70
     0
300
1:50
140
1.0
141
50.0
290
     0
  0
SCALE
  5
53
102
{ACAD_REACTORS
330
47
102
}
330
47
100
AcDbScale
 70
     0
300
1:100
140
1.0
141
100.0
290
     0
  0
SCALE
  5
54
102
{ACAD_REACTORS
330
47
102
}
330
47
100
AcDbScale
 70
     0
300
2:1
140
2.0
141
1.0
290
     0
  0
SCALE
  5
55
102
{ACAD_REACTORS
330
47
102
}
330
47
100
AcDbScale
 70
     0
300
4:1
140
4.0
141
1.0
290
     0
  0
SCALE
  5
56
102
{ACAD_REACTORS
330
47
102
}
330
47
100
AcDbScale
 70
     0
300
8:1
140
8.0
141
1.0
290
     0
  0
SCALE
  5
57
102
{ACAD_REACTORS
330
47
102
}
330
47
100
AcDbScale
 70
     0
300
10:1
140
10.0
141
1.0
290
     0
  0
SCALE
  5
58
102
{ACAD_REACTORS
330
47
102
}
330
47
100
AcDbScale
 70
     0
300
100:1
140
100.0
141
1.0
290
     0
  0
SCALE
  5
59
102
{ACAD_REACTORS
330
47
102
}
330
47
100
AcDbScale
 70
     0
300
1/128" = 1'-0"
140
0.007812
141
12.0
290
     0
  0
SCALE
  5
5A
102
{ACAD_REACTORS
330
47
102
}
330
47
100
AcDbScale
 70
     0
300
1/64" = 1'-0"
140
0.015625
141
12.0
290
     0
  0
SCALE
  5
5B
102
{ACAD_REACTORS
330
47
102
}
330
47
100
AcDbScale
 70
     0
300
1/32" = 1'-0"
140
0.03125
141
12.0
290
     0
  0
SCALE
  5
5C
102
{ACAD_REACTORS
330
47
102
}
330
47
100
AcDbScale
 70
     0
300
1/16" = 1'-0"
140
0.0625
141
12.0
290
     0
  0
SCALE
  5
5D
102
{ACAD_REACTORS
330
47
102
}
330
47
100
AcDbScale
 70
     0
300
3/32" = 1'-0"
140
0.09375
141
12.0
290
     0
  0
SCALE
  5
5E
102
{ACAD_REACTORS
330
47
102
}
330
47
100
AcDbScale
 70
     0
300
1/8" = 1'-0"
140
0.125
141
12.0
290
     0
  0
SCALE
  5
5F
102
{ACAD_REACTORS
330
47
102
}
330
47
100
AcDbScale
 70
     0
300
3/16" = 1'-0"
140
0.1875
141
12.0
290
     0
  0
SCALE
  5
60
102
{ACAD_REACTORS
330
47
102
}
330
47
100
AcDbScale
 70
     0
300
1/4" = 1'-0"
140
0.25
141
12.0
290
     0
  0
SCALE
  5
61
102
{ACAD_REACTORS
330
47
102
}
330
47
100
AcDbScale
 70
     0
300
3/8" = 1'-0"
140
0.375
141
12.0
290
     0
  0
SCALE
  5
62
102
{ACAD_REACTORS
330
47
102
}
330
47
100
AcDbScale
 70
     0
300
1/2" = 1'-0"
140
0.5
141
12.0
290
     0
  0
SCALE
  5
63
102
{ACAD_REACTORS
330
47
102
}
330
47
100
AcDbScale
 70
     0
300
3/4" = 1'-0"
140
0.75
141
12.0
290
     0
  0
SCALE
  5
64
102
{ACAD_REACTORS
330
47
102
}
330
47
100
AcDbScale
 70
     0
300
1" = 1'-0"
140
1.0
141
12.0
290
     0
  0
SCALE
  5
65
102
{ACAD_REACTORS
330
47
102
}
330
47
100
AcDbScale
 70
     0
300
1-1/2" = 1'-0"
140
1.5
141
12.0
290
     0
  0
SCALE
  5
66
102
{ACAD_REACTORS
330
47
102
}
330
47
100
AcDbScale
 70
     0
300
3" = 1'-0"
140
3.0
141
12.0
290
     0
  0
SCALE
  5
67
102
{ACAD_REACTORS
330
47
102
}
330
47
100
AcDbScale
 70
     0
300
6" = 1'-0"
140
6.0
141
12.0
290
     0
  0
SCALE
  5
68
102
{ACAD_REACTORS
330
47
102
}
330
47
100
AcDbScale
 70
     0
300
1'-0" = 1'-0"
140
12.0
141
12.0
290
     0
  0
TABLESTYLE
  5
6A
102
{ACAD_REACTORS
330
69
102
}
330
69
100
AcDbTableStyle
  3
Standard
 70
     0
 71
     0
 40
1.5
 41
1.5
280
     0
281
     0
  7
Standard
140
4.5
170
     2
 62
     0
 63
   257
283
     0
274
    -2
284
     1
 64
     0
275
    -2
285
     1
 65
     0
276
    -2
286
     1
 66
     0
277
    -2
287
     1
 67
     0
278
    -2
288
     1
 68
     0
279
    -2
289
     1
 69
     0
  7
Standard
140
6.0
170
     5
 62
     0
 63
   257
283
     0
274
    -2
284
     1
 64
     0
275
    -2
285
     1
 65
     0
276
    -2
286
     1
 66
     0
277
    -2
287
     1
 67
     0
278
    -2
288
     1
 68
     0
279
    -2
289
     1
 69
     0
  7
Standard
140
4.5
170
     5
 62
     0
 63
   257
283
     0
274
    -2
284
     1
 64
     0
275
    -2
285
     1
 65
     0
276
    -2
286
     1
 66
     0
277
    -2
287
     1
 67
     0
278
    -2
288
     1
 68
     0
279
    -2
289
     1
 69
     0
  0
VISUALSTYLE
  5
2F
102
{ACAD_REACTORS
330
2A
102
}
102
{ACAD_XDICTIONARY
360
1B9
102
}
330
2A
100
AcDbVisualStyle
  2
2dWireframe
 70
     4
 71
     0
 72
     2
 73
     0
 90
        0
 40
0.6
 41
30.0
 62
     5
 63
     7
 74
     1
 91
        4
 64
     7
 65
   257
 75
     1
175
     1
 42
1.0
 92
        0
 66
   257
 43
1.0
 76
     1
 77
     6
 78
     2
 67
     7
 79
     5
170
     0
171
     0
290
     0
174
     0
 93
        1
 44
0.0
173
     0
291
     0
 45
0.0
1001
ACAD
1000
AcDbSavedByObjectVersion
1070
     0
  0
VISUALSTYLE
  5
32
102
{ACAD_REACTORS
330
2A
102
}
102
{ACAD_XDICTIONARY
360
1BF
102
}
330
2A
100
AcDbVisualStyle
  2
Basic
 70
     7
 71
     1
 72
     0
 73
     1
 90
        0
 40
0.6
 41
30.0
 62
     5
 63
     7
 74
     0
 91
        4
 64
     7
 65
   257
 75
     1
175
     1
 42
1.0
 92
        8
 66
     7
 43
1.0
 76
     1
 77
     6
 78
     2
 67
     7
 79
     5
170
     0
171
     0
290
     0
174
     0
 93
        1
 44
0.0
173
     0
291
     1
 45
0.0
1001
ACAD
1000
AcDbSavedByObjectVersion
1070
     0
  0
VISUALSTYLE
  5
36
102
{ACAD_REACTORS
330
2A
102
}
102
{ACAD_XDICTIONARY
360
1C7
102
}
330
2A
100
AcDbVisualStyle
  2
Brighten
 70
    12
 71
     2
 72
     2
 73
     0
 90
        0
 40
0.6
 41
30.0
 62
     5
 63
     7
 74
     1
 91
        4
 64
     7
 65
   257
 75
     1
175
     1
 42
1.0
 92
        8
 66
     7
 43
1.0
 76
     1
 77
     6
 78
     2
 67
     7
 79
     5
170
     0
171
     0
290
     0
174
     0
 93
        1
 44
50.0
173
     0
291
     1
 45
0.0
1001
ACAD
1000
AcDbSavedByObjectVersion
1070
     0
  0
VISUALSTYLE
  5
3A
102
{ACAD_REACTORS
330
2A
102
}
102
{ACAD_XDICTIONARY
360
1CF
102
}
330
2A
100
AcDbVisualStyle
  2
ColorChange
 70
    16
 71
     2
 72
     2
 73
     3
 90
        0
 40
0.6
 41
30.0
 62
     5
 63
     8
 74
     1
 91
        4
 64
     7
 65
   257
 75
     1
175
     1
 42
1.0
 92
        8
 66
     8
 43
1.0
 76
     1
 77
     6
 78
     2
 67
     7
 79
     5
170
     0
171
     0
290
     0
174
     0
 93
        1
 44
0.0
173
     0
291
     1
 45
0.0
1001
ACAD
1000
AcDbSavedByObjectVersion
1070
     0
  0
VISUALSTYLE
  5
34
102
{ACAD_REACTORS
330
2A
102
}
102
{ACAD_XDICTIONARY
360
1C3
102
}
330
2A
100
AcDbVisualStyle
  2
Conceptual
 70
     9
 71
     3
 72
     2
 73
     0
 90
        0
 40
0.6
 41
30.0
 62
     5
 63
     7
 74
     2
 91
        2
 64
     7
 65
   257
 75
     1
175
     1
 42
179.0
 92
        8
 66
     7
 43
1.0
 76
     1
 77
     6
 78
     2
 67
     7
 79
     3
170
     0
171
     0
290
     0
174
     0
 93
        1
 44
0.0
173
     0
291
     0
 45
0.0
1001
ACAD
1000
AcDbSavedByObjectVersion
1070
     0
  0
VISUALSTYLE
  5
35
102
{ACAD_REACTORS
330
2A
102
}
102
{ACAD_XDICTIONARY
360
1C5
102
}
330
2A
100
AcDbVisualStyle
  2
Dim
 70
    11
 71
     2
 72
     2
 73
     0
 90
        0
 40
0.6
 41
30.0
 62
     5
 63
     7
 74
     1
 91
        4
 64
     7
 65
   257
 75
     1
175
     1
 42
1.0
 92
        8
 66
     7
 43
1.0
 76
     1
 77
     6
 78
     2
 67
     7
 79
     5
170
     0
171
     0
290
     0
174
     0
 93
        1
 44
-50.0
173
     0
291
     1
 45
0.0
1001
ACAD
1000
AcDbSavedByObjectVersion
1070
     0
  0
VISUALSTYLE
  5
3D
102
{ACAD_REACTORS
330
2A
102
}
102
{ACAD_XDICTIONARY
360
1D5
102
}
330
2A
100
AcDbVisualStyle
  2
EdgeColorOff
 70
    22
 71
     2
 72
     2
 73
     0
 90
        0
 40
0.6
 41
30.0
 62
     5
 63
     7
 74
     1
 91
        4
 64
     7
 65
   257
 75
     1
175
     1
 42
1.0
 92
        8
 66
     7
 43
1.0
 76
     1
 77
     6
 78
     2
 67
     7
 79
     5
170
     0
171
     0
290
     0
174
     0
 93
        1
 44
0.0
173
     0
291
     1
 45
0.0
1001
ACAD
1000
AcDbSavedByObjectVersion
1070
     0
  0
VISUALSTYLE
  5
39
102
{ACAD_REACTORS
330
2A
102
}
102
{ACAD_XDICTIONARY
360
1CD
102
}
330
2A
100
AcDbVisualStyle
  2
Facepattern
 70
    15
 71
     2
 72
     2
 73
     0
 90
        0
 40
0.6
 41
30.0
 62
     5
 63
     7
 74
     1
 91
        4
 64
     7
 65
   257
 75
     1
175
     1
 42
1.0
 92
        8
 66
     7
 43
1.0
 76
     1
 77
     6
 78
     2
 67
     7
 79
     5
170
     0
171
     0
290
     0
174
     0
 93
        1
 44
0.0
173
     0
291
     1
 45
0.0
1001
ACAD
1000
AcDbSavedByObjectVersion
1070
     0
  0
VISUALSTYLE
  5
2B
102
{ACAD_REACTORS
330
2A
102
}
102
{ACAD_XDICTIONARY
360
1B1
102
}
330
2A
100
AcDbVisualStyle
  2
Flat
 70
     0
 71
     2
 72
     1
 73
     1
 90
        2
 40
0.6
 41
30.0
 62
     5
 63
     7
 74
     0
 91
        0
 64
     7
 65
   257
 75
     1
175
     1
 42
1.0
 92
        8
 66
     7
 43
1.0
 76
     1
 77
     6
 78
     2
 67
     7
 79
     5
170
     0
171
     0
290
     0
174
     0
 93
       13
 44
0.0
173
     0
291
     1
 45
0.0
1001
ACAD
1000
AcDbSavedByObjectVersion
1070
     0
  0
VISUALSTYLE
  5
2C
102
{ACAD_REACTORS
330
2A
102
}
102
{ACAD_XDICTIONARY
360
1B3
102
}
330
2A
100
AcDbVisualStyle
  2
FlatWithEdges
 70
     1
 71
     2
 72
     1
 73
     1
 90
        2
 40
0.6
 41
30.0
 62
     5
 63
     7
 74
     1
 91
        0
 64
     7
 65
   257
 75
     1
175
     1
 42
1.0
 92
        0
 66
   257
 43
1.0
 76
     1
 77
     6
 78
     2
 67
     7
 79
     5
170
     0
171
     0
290
     0
174
     0
 93
       13
 44
0.0
173
     0
291
     1
 45
0.0
1001
ACAD
1000
AcDbSavedByObjectVersion
1070
     0
  0
VISUALSTYLE
  5
2D
102
{ACAD_REACTORS
330
2A
102
}
102
{ACAD_XDICTIONARY
360
1B5
102
}
330
2A
100
AcDbVisualStyle
  2
Gouraud
 70
     2
 71
     2
 72
     2
 73
     1
 90
        2
 40
0.6
 41
30.0
 62
     5
 63
     7
 74
     0
 91
        0
 64
     7
 65
   257
 75
     1
175
     1
 42
1.0
 92
        0
 66
     7
 43
1.0
 76
     1
 77
     6
 78
     2
 67
     7
 79
     5
170
     0
171
     0
290
     0
174
     0
 93
       13
 44
0.0
173
     0
291
     1
 45
0.0
1001
ACAD
1000
AcDbSavedByObjectVersion
1070
     0
  0
VISUALSTYLE
  5
2E
102
{ACAD_REACTORS
330
2A
102
}
102
{ACAD_XDICTIONARY
360
1B7
102
}
330
2A
100
AcDbVisualStyle
  2
GouraudWithEdges
 70
     3
 71
     2
 72
     2
 73
     1
 90
        2
 40
0.6
 41
30.0
 62
     5
 63
     7
 74
     1
 91
        0
 64
     7
 65
   257
 75
     1
175
     1
 42
1.0
 92
        0
 66
   257
 43
1.0
 76
     1
 77
     6
 78
     2
 67
     7
 79
     5
170
     0
171
     0
290
     0
174
     0
 93
       13
 44
0.0
173
     0
291
     1
 45
0.0
1001
ACAD
1000
AcDbSavedByObjectVersion
1070
     0
  0
VISUALSTYLE
  5
31
102
{ACAD_REACTORS
330
2A
102
}
102
{ACAD_XDICTIONARY
360
1BD
102
}
330
2A
100
AcDbVisualStyle
  2
Hidden
 70
     6
 71
     1
 72
     2
 73
     2
 90
        0
 40
0.6
 41
30.0
 62
     5
 63
     7
 74
     2
 91
        2
 64
     7
 65
   257
 75
     2
175
     1
 42
40.0
 92
        0
 66
   257
 43
1.0
 76
     1
 77
     6
 78
     2
 67
     7
 79
     3
170
     0
171
     0
290
     0
174
     0
 93
        1
 44
0.0
173
     0
291
     0
 45
0.0
1001
ACAD
1000
AcDbSavedByObjectVersion
1070
     0
  0
VISUALSTYLE
  5
3B
102
{ACAD_REACTORS
330
2A
102
}
102
{ACAD_XDICTIONARY
360
1D1
102
}
330
2A
100
AcDbVisualStyle
  2
JitterOff
 70
    20
 71
     2
 72
     2
 73
     0
 90
        0
 40
0.6
 41
30.0
 62
     5
 63
     7
 74
     1
 91
        4
 64
     7
 65
   257
 75
     1
175
     1
 42
1.0
 92
       10
 66
     7
 43
1.0
 76
     1
 77
     6
 78
     2
 67
     7
 79
     5
170
     0
171
     0
290
     0
174
     0
 93
        1
 44
0.0
173
     0
291
     1
 45
0.0
1001
ACAD
1000
AcDbSavedByObjectVersion
1070
     0
  0
VISUALSTYLE
  5
38
102
{ACAD_REACTORS
330
2A
102
}
102
{ACAD_XDICTIONARY
360
1CB
102
}
330
2A
100
AcDbVisualStyle
  2
Linepattern
 70
    14
 71
     2
 72
     2
 73
     0
 90
        0
 40
0.6
 41
30.0
 62
     5
 63
     7
 74
     1
 91
        4
 64
     7
 65
   257
 75
     7
175
     7
 42
1.0
 92
        8
 66
     7
 43
1.0
 76
     1
 77
     6
 78
     2
 67
     7
 79
     5
170
     0
171
     0
290
     0
174
     0
 93
        1
 44
0.0
173
     0
291
     1
 45
0.0
1001
ACAD
1000
AcDbSavedByObjectVersion
1070
     0
  0
VISUALSTYLE
  5
3C
102
{ACAD_REACTORS
330
2A
102
}
102
{ACAD_XDICTIONARY
360
1D3
102
}
330
2A
100
AcDbVisualStyle
  2
OverhangOff
 70
    21
 71
     2
 72
     2
 73
     0
 90
        0
 40
0.6
 41
30.0
 62
     5
 63
     7
 74
     1
 91
        4
 64
     7
 65
   257
 75
     1
175
     1
 42
1.0
 92
        9
 66
     7
 43
1.0
 76
     1
 77
     6
 78
     2
 67
     7
 79
     5
170
     0
171
     0
290
     0
174
     0
 93
        1
 44
0.0
173
     0
291
     1
 45
0.0
1001
ACAD
1000
AcDbSavedByObjectVersion
1070
     0
  0
VISUALSTYLE
  5
33
102
{ACAD_REACTORS
330
2A
102
}
102
{ACAD_XDICTIONARY
360
1C1
102
}
330
2A
100
AcDbVisualStyle
  2
Realistic
 70
     8
 71
     2
 72
     3
 73
     0
 90
        2
 40
0.6
 41
30.0
 62
     5
 63
     7
 74
     0
 91
        0
 64
     7
 65
   257
 75
     1
175
     1
 42
1.0
 92
        8
 66
   257
 43
1.0
 76
     1
 77
     6
 78
     2
 67
     7
 79
     3
170
     0
171
     0
290
     0
174
     0
 93
       13
 44
0.0
173
     0
291
     0
 45
0.0
1001
ACAD
1000
AcDbSavedByObjectVersion
1070
     0
  0
VISUALSTYLE
  5
42
102
{ACAD_REACTORS
330
2A
102
}
102
{ACAD_XDICTIONARY
360
1DF
102
}
330
2A
100
AcDbVisualStyle
  2
Shaded
 70
    27
 71
     2
 72
     2
 73
     1
 90
        2
 40
0.6
 41
30.0
 62
     5
 63
     7
 74
     0
 91
        4
 64
     7
 65
   257
 75
     1
175
     1
 42
1.0
 92
        8
 66
   257
 43
1.0
 76
     1
 77
     6
 78
     2
 67
     8
 79
     3
170
     0
171
     0
290
     0
174
     0
 93
        5
 44
0.0
173
     0
291
     0
 45
0.0
1001
ACAD
1000
AcDbSavedByObjectVersion
1070
     0
  0
VISUALSTYLE
  5
41
102
{ACAD_REACTORS
330
2A
102
}
102
{ACAD_XDICTIONARY
360
1DD
102
}
330
2A
100
AcDbVisualStyle
  2
Shaded with edges
 70
    26
 71
     2
 72
     2
 73
     1
 90
        2
 40
0.6
 41
30.0
 62
     5
 63
     7
 74
     1
 91
       10
 64
     7
 65
   257
 75
     2
175
     1
 42
1.0
 92
        8
 66
   257
 43
1.0
 76
     1
 77
     6
 78
     2
 67
     7
 79
     3
170
     0
171
     0
290
     0
174
     0
 93
        5
 44
0.0
173
     0
291
     0
 45
0.0
1001
ACAD
1000
AcDbSavedByObjectVersion
1070
     0
  0
VISUALSTYLE
  5
3E
102
{ACAD_REACTORS
330
2A
102
}
102
{ACAD_XDICTIONARY
360
1D7
102
}
330
2A
100
AcDbVisualStyle
  2
Shades of Gray
 70
    23
 71
     2
 72
     2
 73
     3
 90
        0
 40
0.6
 41
30.0
 62
     5
 63
     7
 74
     2
 91
        2
 64
     7
 65
     7
 75
     1
175
     1
 42
40.0
 92
        8
 66
     7
 43
1.0
 76
     1
 77
     6
 78
     2
 67
     7
 79
     3
170
     0
171
     0
290
     0
174
     0
 93
        1
 44
0.0
173
     0
291
     0
 45
0.0
1001
ACAD
1000
AcDbSavedByObjectVersion
1070
     0
  0
VISUALSTYLE
  5
3F
102
{ACAD_REACTORS
330
2A
102
}
102
{ACAD_XDICTIONARY
360
1D9
102
}
330
2A
100
AcDbVisualStyle
  2
Sketchy
 70
    24
 71
     1
 72
     2
 73
     2
 90
        0
 40
0.6
 41
30.0
 62
     5
 63
     7
 74
     2
 91
        2
 64
     7
 65
     7
 75
     1
175
     1
 42
40.0
 92
       11
 66
     7
 43
1.0
 76
     1
 77
     6
 78
     2
 67
     7
 79
     6
170
     0
171
     0
290
     0
174
     0
 93
        1
 44
0.0
173
     0
291
     0
 45
0.0
1001
ACAD
1000
AcDbSavedByObjectVersion
1070
     0
  0
VISUALSTYLE
  5
37
102
{ACAD_REACTORS
330
2A
102
}
102
{ACAD_XDICTIONARY
360
1C9
102
}
330
2A
100
AcDbVisualStyle
  2
Thicken
 70
    13
 71
     2
 72
     2
 73
     0
 90
        0
 40
0.6
 41
30.0
 62
     5
 63
     7
 74
     1
 91
        4
 64
     7
 65
   257
 75
     1
175
     1
 42
1.0
 92
       12
 66
     7
 43
1.0
 76
     1
 77
     6
 78
     2
 67
     7
 79
     5
170
     0
171
     0
290
     0
174
     0
 93
        1
 44
0.0
173
     0
291
     1
 45
0.0
1001
ACAD
1000
AcDbSavedByObjectVersion
1070
     0
  0
VISUALSTYLE
  5
30
102
{ACAD_REACTORS
330
2A
102
}
102
{ACAD_XDICTIONARY
360
1BB
102
}
330
2A
100
AcDbVisualStyle
  2
Wireframe
 70
     5
 71
     0
 72
     2
 73
     0
 90
        0
 40
0.6
 41
30.0
 62
     5
 63
     7
 74
     1
 91
        4
 64
     7
 65
   257
 75
     1
175
     1
 42
1.0
 92
        0
 66
   257
 43
1.0
 76
     1
 77
     6
 78
     2
 67
     7
 79
     3
170
     0
171
     0
290
     0
174
     0
 93
        1
 44
0.0
173
     0
291
     0
 45
0.0
1001
ACAD
1000
AcDbSavedByObjectVersion
1070
     0
  0
VISUALSTYLE
  5
40
102
{ACAD_REACTORS
330
2A
102
}
102
{ACAD_XDICTIONARY
360
1DB
102
}
330
2A
100
AcDbVisualStyle
  2
X-Ray
 70
    25
 71
     2
 72
     2
 73
     1
 90
        1
 40
0.5
 41
30.0
 62
     5
 63
     7
 74
     1
 91
        0
 64
     7
 65
   257
 75
     1
175
     1
 42
1.0
 92
        8
 66
     7
 43
1.0
 76
     1
 77
     6
 78
     2
 67
     7
 79
     3
170
     0
171
     0
290
     0
174
     0
 93
       13
 44
0.0
173
     0
291
     0
 45
0.0
1001
ACAD
1000
AcDbSavedByObjectVersion
1070
     0
  0
DICTIONARYVAR
  5
1AF
102
{ACAD_REACTORS
330
1A2
102
}
330
1A2
100
DictionaryVariables
280
     0
  1
1:1
  0
DICTIONARYVAR
  5
1A9
102
{ACAD_REACTORS
330
1A2
102
}
330
1A2
100
DictionaryVariables
280
     0
  1
3.500000
  0
DICTIONARYVAR
  5
1AA
102
{ACAD_REACTORS
330
1A2
102
}
330
1A2
100
DictionaryVariables
280
     0
  1
acadiso.lin
  0
DICTIONARYVAR
  5
1A4
102
{ACAD_REACTORS
330
1A2
102
}
330
1A2
100
DictionaryVariables
280
     0
  1
Standard
  0
DICTIONARYVAR
  5
1A3
102
{ACAD_REACTORS
330
1A2
102
}
330
1A2
100
DictionaryVariables
280
     0
  1
Standard
  0
DICTIONARYVAR
  5
1AB
102
{ACAD_REACTORS
330
1A2
102
}
330
1A2
100
DictionaryVariables
280
     0
  1
2
  0
DICTIONARYVAR
  5
1AC
102
{ACAD_REACTORS
330
1A2
102
}
330
1A2
100
DictionaryVariables
280
     0
  1
1
  0
DICTIONARYVAR
  5
1B0
102
{ACAD_REACTORS
330
1A2
102
}
330
1A2
100
DictionaryVariables
280
     0
  1
1
  0
DICTIONARYVAR
  5
1A6
102
{ACAD_REACTORS
330
1A2
102
}
330
1A2
100
DictionaryVariables
280
     0
  1
80.000000
  0
DICTIONARYVAR
  5
1A5
102
{ACAD_REACTORS
330
1A2
102
}
330
1A2
100
DictionaryVariables
280
     0
  1
5.000000
  0
DICTIONARY
  5
1E3
330
45
100
AcDbDictionary
280
     1
281
     1
  3
ACAD_XREC_ROUNDTRIP
360
1E4
  0
DICTIONARY
  5
1E1
330
44
100
AcDbDictionary
280
     1
281
     1
  3
ACAD_XREC_ROUNDTRIP
360
1E2
  0
DICTIONARY
  5
1E5
330
46
100
AcDbDictionary
280
     1
281
     1
  3
ACAD_XREC_ROUNDTRIP
360
1E6
  0
DICTIONARY
  5
1E8
330
6C
100
AcDbDictionary
280
     1
281
     1
  3
ACAD_XREC_ROUNDTRIP
360
1E9
  0
DICTIONARY
  5
1B9
330
2F
100
AcDbDictionary
280
     1
281
     1
  3
ACAD_XREC_ROUNDTRIP
360
1BA
  0
DICTIONARY
  5
1BF
330
32
100
AcDbDictionary
280
     1
281
     1
  3
ACAD_XREC_ROUNDTRIP
360
1C0
  0
DICTIONARY
  5
1C7
330
36
100
AcDbDictionary
280
     1
281
     1
  3
ACAD_XREC_ROUNDTRIP
360
1C8
  0
DICTIONARY
  5
1CF
330
3A
100
AcDbDictionary
280
     1
281
     1
  3
ACAD_XREC_ROUNDTRIP
360
1D0
  0
DICTIONARY
  5
1C3
330
34
100
AcDbDictionary
280
     1
281
     1
  3
ACAD_XREC_ROUNDTRIP
360
1C4
  0
DICTIONARY
  5
1C5
330
35
100
AcDbDictionary
280
     1
281
     1
  3
ACAD_XREC_ROUNDTRIP
360
1C6
  0
DICTIONARY
  5
1D5
330
3D
100
AcDbDictionary
280
     1
281
     1
  3
ACAD_XREC_ROUNDTRIP
360
1D6
  0
DICTIONARY
  5
1CD
330
39
100
AcDbDictionary
280
     1
281
     1
  3
ACAD_XREC_ROUNDTRIP
360
1CE
  0
DICTIONARY
  5
1B1
330
2B
100
AcDbDictionary
280
     1
281
     1
  3
ACAD_XREC_ROUNDTRIP
360
1B2
  0
DICTIONARY
  5
1B3
330
2C
100
AcDbDictionary
280
     1
281
     1
  3
ACAD_XREC_ROUNDTRIP
360
1B4
  0
DICTIONARY
  5
1B5
330
2D
100
AcDbDictionary
280
     1
281
     1
  3
ACAD_XREC_ROUNDTRIP
360
1B6
  0
DICTIONARY
  5
1B7
330
2E
100
AcDbDictionary
280
     1
281
     1
  3
ACAD_XREC_ROUNDTRIP
360
1B8
  0
DICTIONARY
  5
1BD
330
31
100
AcDbDictionary
280
     1
281
     1
  3
ACAD_XREC_ROUNDTRIP
360
1BE
  0
DICTIONARY
  5
1D1
330
3B
100
AcDbDictionary
280
     1
281
     1
  3
ACAD_XREC_ROUNDTRIP
360
1D2
  0
DICTIONARY
  5
1CB
330
38
100
AcDbDictionary
280
     1
281
     1
  3
ACAD_XREC_ROUNDTRIP
360
1CC
  0
DICTIONARY
  5
1D3
330
3C
100
AcDbDictionary
280
     1
281
     1
  3
ACAD_XREC_ROUNDTRIP
360
1D4
  0
DICTIONARY
  5
1C1
330
33
100
AcDbDictionary
280
     1
281
     1
  3
ACAD_XREC_ROUNDTRIP
360
1C2
  0
DICTIONARY
  5
1DF
330
42
100
AcDbDictionary
280
     1
281
     1
  3
ACAD_XREC_ROUNDTRIP
360
1E0
  0
DICTIONARY
  5
1DD
330
41
100
AcDbDictionary
280
     1
281
     1
  3
ACAD_XREC_ROUNDTRIP
360
1DE
  0
DICTIONARY
  5
1D7
330
3E
100
AcDbDictionary
280
     1
281
     1
  3
ACAD_XREC_ROUNDTRIP
360
1D8
  0
DICTIONARY
  5
1D9
330
3F
100
AcDbDictionary
280
     1
281
     1
  3
ACAD_XREC_ROUNDTRIP
360
1DA
  0
DICTIONARY
  5
1C9
330
37
100
AcDbDictionary
280
     1
281
     1
  3
ACAD_XREC_ROUNDTRIP
360
1CA
  0
DICTIONARY
  5
1BB
330
30
100
AcDbDictionary
280
     1
281
     1
  3
ACAD_XREC_ROUNDTRIP
360
1BC
  0
DICTIONARY
  5
1DB
330
40
100
AcDbDictionary
280
     1
281
     1
  3
ACAD_XREC_ROUNDTRIP
360
1DC
  0
XRECORD
  5
1E4
102
{ACAD_REACTORS
330
1E3
102
}
330
1E3
100
AcDbXrecord
280
     1
102
MATERIAL
148
0.0
149
0.0
149
0.0
 93
        0
 94
      127
282
     0
 72
     1
 77
     1
171
     1
175
     1
179
     1
273
     0
  0
XRECORD
  5
1E2
102
{ACAD_REACTORS
330
1E1
102
}
330
1E1
100
AcDbXrecord
280
     1
102
MATERIAL
148
0.0
149
0.0
149
0.0
 93
        0
 94
      127
282
     0
 72
     1
 77
     1
171
     1
175
     1
179
     1
273
     0
  0
XRECORD
  5
1E6
102
{ACAD_REACTORS
330
1E5
102
}
330
1E5
100
AcDbXrecord
280
     1
102
MATERIAL
148
0.0
149
0.0
149
0.0
 93
        0
 94
      127
282
     0
 72
     1
 77
     1
171
     1
175
     1
179
     1
273
     0
  0
XRECORD
  5
1E9
102
{ACAD_REACTORS
330
1E8
102
}
330
1E8
100
AcDbXrecord
280
     1
102
ACAD_ROUNDTRIP_2010_MLEADER_STYLE
  0
XRECORD
  5
1BA
102
{ACAD_REACTORS
330
1B9
102
}
330
1B9
100
AcDbXrecord
280
     1
102
RTVSPropertyOp0
 70
     1
102
RTVSPropertyOp1
 70
     1
102
RTVSPropertyOp2
 70
     1
102
RTVSPropertyOp3
 70
     1
102
RTVSPropertyOp4
 70
     1
102
RTVSPropertyOp5
 70
     1
102
RTVSPropertyOp6
 70
     1
102
RTVSPropertyOp7
 70
     1
102
RTVSPropertyOp8
 70
     1
102
RTVSPropertyOp9
 70
     1
102
RTVSPropertyOp10
 70
     1
102
RTVSPropertyOp11
 70
     1
102
RTVSPropertyOp12
 70
     1
102
RTVSPropertyOp13
 70
     1
102
RTVSPropertyOp14
 70
     1
102
RTVSPropertyOp15
 70
     1
102
RTVSPropertyOp16
 70
     1
102
RTVSPropertyOp17
 70
     1
102
RTVSPropertyOp18
 70
     1
102
RTVSPropertyOp19
 70
     1
102
RTVSPropertyOp20
 70
     1
102
RTVSPropertyOp21
 70
     1
102
RTVSPropertyOp22
 70
     1
102
RTVSPropertyOp23
 70
     1
102
RTVSPropertyOp24
 70
     1
102
RTVSPropertyOp25
 70
     1
102
RTVSPropertyOp26
 70
     1
102
RTVSPropertyOp27
 70
     1
102
RTVSPropertyOp28
 70
     1
102
RTVSPropertyOp29
 70
     1
102
RTVSPropertyOp30
 70
     1
102
RTVSPropertyOp31
 70
     1
102
RTVSPropertyOp32
 70
     1
102
RTVSPropertyOp33
 70
     1
102
RTVSPropertyOp34
 70
     1
102
RTVSPropertyOp35
 70
     1
102
RTVSPropertyOp36
 70
     1
102
RTVSPropertyOp37
 70
     1
102
RTVSPropertyOp38
 70
     1
102
RTVSPropertyOp39
 70
     1
102
RTVSPropertyOp40
 70
     1
102
RTVSPropertyOp41
 70
     1
102
RTVSPropertyOp42
 70
     1
102
RTVSPropertyOp43
 70
     1
102
RTVSPropertyOp44
 70
     1
102
RTVSPropertyOp45
 70
     1
102
RTVSPropertyOp46
 70
     1
102
RTVSPropertyOp47
 70
     1
102
RTVSPropertyOp48
 70
     1
102
RTVSPropertyOp49
 70
     1
102
RTVSPropertyOp50
 70
     1
102
RTVSPropertyOp51
 70
     0
102
RTVSPropertyOp52
 70
     0
102
RTVSPropertyOp53
 70
     1
102
RTVSPropertyOp54
 70
     1
102
RTVSPropertyOp55
 70
     1
102
RTVSPropertyOp56
 70
     1
102
RTVSPropertyOp57
 70
     1
102
RTVSPost2010Prop28
280
     1
102
RTVSPost2010PropOp28
 70
     1
102
RTVSPost2010Prop29
280
     1
102
RTVSPost2010PropOp29
 70
     1
102
RTVSPost2010Prop30
280
     0
102
RTVSPost2010PropOp30
 70
     1
102
RTVSPost2010Prop31
280
     0
102
RTVSPost2010PropOp31
 70
     1
102
RTVSPost2010Prop32
280
     0
102
RTVSPost2010PropOp32
 70
     1
102
RTVSPost2010Prop33
280
     0
102
RTVSPost2010PropOp33
 70
     1
102
RTVSPost2010Prop34
280
     0
102
RTVSPost2010PropOp34
 70
     1
102
RTVSPost2010Prop35
280
     0
102
RTVSPost2010PropOp35
 70
     1
102
RTVSPost2010Prop36
280
     0
102
RTVSPost2010PropOp36
 70
     1
102
RTVSPost2010Prop37
 90
       50
102
RTVSPost2010PropOp37
 70
     1
102
RTVSPost2010Prop38
140
0.0
102
RTVSPost2010PropOp38
 70
     1
102
RTVSPost2010Prop39
140
1.0
102
RTVSPost2010PropOp39
 70
     1
102
RTVSPost2010Prop40
 90
        0
102
RTVSPost2010PropOp40
 70
     1
102
RTVSPost2010Prop41ColorIndex
 90
       18
102
RTVSPost2010Prop41ColorRGB
 90
        0
102
RTVSPost2010PropOp41
 70
     1
102
RTVSPost2010Prop42
 90
       50
102
RTVSPost2010PropOp42
 70
     1
102
RTVSPost2010Prop43
 90
        3
102
RTVSPost2010PropOp43
 70
     1
102
RTVSPost2010Prop44ColorIndex
 90
        5
102
RTVSPost2010Prop44ColorRGB
 90
      255
102
RTVSPost2010PropOp44
 70
     1
102
RTVSPost2010Prop45
280
     0
102
RTVSPost2010PropOp45
 70
     1
102
RTVSPost2010Prop46
 90
       50
102
RTVSPost2010PropOp46
 70
     1
102
RTVSPost2010Prop47
 90
       50
102
RTVSPost2010PropOp47
 70
     1
102
RTVSPost2010Prop48
 90
       50
102
RTVSPost2010PropOp48
 70
     1
102
RTVSPost2010Prop49
280
     0
102
RTVSPost2010PropOp49
 70
     1
102
RTVSPost2010Prop50
 90
       50
102
RTVSPost2010PropOp50
 70
     1
102
RTVSPost2010Prop51ColorIndex
 90
      256
102
RTVSPost2010Prop51ColorRGB
 90
-16777216
102
RTVSPost2010PropOp51
 70
     0
102
RTVSPost2010Prop52
140
1.0
102
RTVSPost2010PropOp52
 70
     0
102
RTVSPost2010Prop53
 90
        2
102
RTVSPost2010PropOp53
 70
     1
102
RTVSPost2010Prop54
  1
strokes_ogs.tif
102
RTVSPost2010PropOp54
 70
     1
102
RTVSPost2010Prop55
280
     0
102
RTVSPost2010PropOp55
 70
     1
102
RTVSPost2010Prop56
140
1.0
102
RTVSPost2010PropOp56
 70
     1
102
RTVSPost2010Prop57
140
1.0
102
RTVSPost2010PropOp57
 70
     1
  0
XRECORD
  5
1C0
102
{ACAD_REACTORS
330
1BF
102
}
330
1BF
100
AcDbXrecord
280
     1
102
RTVSPropertyOp0
 70
     1
102
RTVSPropertyOp1
 70
     1
102
RTVSPropertyOp2
 70
     1
102
RTVSPropertyOp3
 70
     1
102
RTVSPropertyOp4
 70
     1
102
RTVSPropertyOp5
 70
     1
102
RTVSPropertyOp6
 70
     1
102
RTVSPropertyOp7
 70
     1
102
RTVSPropertyOp8
 70
     1
102
RTVSPropertyOp9
 70
     1
102
RTVSPropertyOp10
 70
     1
102
RTVSPropertyOp11
 70
     1
102
RTVSPropertyOp12
 70
     1
102
RTVSPropertyOp13
 70
     1
102
RTVSPropertyOp14
 70
     1
102
RTVSPropertyOp15
 70
     1
102
RTVSPropertyOp16
 70
     1
102
RTVSPropertyOp17
 70
     1
102
RTVSPropertyOp18
 70
     1
102
RTVSPropertyOp19
 70
     1
102
RTVSPropertyOp20
 70
     1
102
RTVSPropertyOp21
 70
     1
102
RTVSPropertyOp22
 70
     1
102
RTVSPropertyOp23
 70
     1
102
RTVSPropertyOp24
 70
     1
102
RTVSPropertyOp25
 70
     1
102
RTVSPropertyOp26
 70
     1
102
RTVSPropertyOp27
 70
     1
102
RTVSPropertyOp28
 70
     1
102
RTVSPropertyOp29
 70
     1
102
RTVSPropertyOp30
 70
     1
102
RTVSPropertyOp31
 70
     1
102
RTVSPropertyOp32
 70
     1
102
RTVSPropertyOp33
 70
     1
102
RTVSPropertyOp34
 70
     1
102
RTVSPropertyOp35
 70
     1
102
RTVSPropertyOp36
 70
     1
102
RTVSPropertyOp37
 70
     1
102
RTVSPropertyOp38
 70
     1
102
RTVSPropertyOp39
 70
     1
102
RTVSPropertyOp40
 70
     1
102
RTVSPropertyOp41
 70
     1
102
RTVSPropertyOp42
 70
     1
102
RTVSPropertyOp43
 70
     1
102
RTVSPropertyOp44
 70
     1
102
RTVSPropertyOp45
 70
     1
102
RTVSPropertyOp46
 70
     1
102
RTVSPropertyOp47
 70
     1
102
RTVSPropertyOp48
 70
     1
102
RTVSPropertyOp49
 70
     1
102
RTVSPropertyOp50
 70
     1
102
RTVSPropertyOp51
 70
     0
102
RTVSPropertyOp52
 70
     0
102
RTVSPropertyOp53
 70
     1
102
RTVSPropertyOp54
 70
     1
102
RTVSPropertyOp55
 70
     1
102
RTVSPropertyOp56
 70
     1
102
RTVSPropertyOp57
 70
     1
102
RTVSPost2010Prop28
280
     0
102
RTVSPost2010PropOp28
 70
     1
102
RTVSPost2010Prop29
280
     1
102
RTVSPost2010PropOp29
 70
     1
102
RTVSPost2010Prop30
280
     1
102
RTVSPost2010PropOp30
 70
     1
102
RTVSPost2010Prop31
280
     0
102
RTVSPost2010PropOp31
 70
     1
102
RTVSPost2010Prop32
280
     0
102
RTVSPost2010PropOp32
 70
     1
102
RTVSPost2010Prop33
280
     0
102
RTVSPost2010PropOp33
 70
     1
102
RTVSPost2010Prop34
280
     0
102
RTVSPost2010PropOp34
 70
     1
102
RTVSPost2010Prop35
280
     0
102
RTVSPost2010PropOp35
 70
     1
102
RTVSPost2010Prop36
280
     0
102
RTVSPost2010PropOp36
 70
     1
102
RTVSPost2010Prop37
 90
       50
102
RTVSPost2010PropOp37
 70
     1
102
RTVSPost2010Prop38
140
0.0
102
RTVSPost2010PropOp38
 70
     1
102
RTVSPost2010Prop39
140
1.0
102
RTVSPost2010PropOp39
 70
     1
102
RTVSPost2010Prop40
 90
        0
102
RTVSPost2010PropOp40
 70
     1
102
RTVSPost2010Prop41ColorIndex
 90
       18
102
RTVSPost2010Prop41ColorRGB
 90
        0
102
RTVSPost2010PropOp41
 70
     1
102
RTVSPost2010Prop42
 90
       50
102
RTVSPost2010PropOp42
 70
     1
102
RTVSPost2010Prop43
 90
        3
102
RTVSPost2010PropOp43
 70
     1
102
RTVSPost2010Prop44ColorIndex
 90
        5
102
RTVSPost2010Prop44ColorRGB
 90
      255
102
RTVSPost2010PropOp44
 70
     1
102
RTVSPost2010Prop45
280
     0
102
RTVSPost2010PropOp45
 70
     1
102
RTVSPost2010Prop46
 90
       50
102
RTVSPost2010PropOp46
 70
     1
102
RTVSPost2010Prop47
 90
       50
102
RTVSPost2010PropOp47
 70
     1
102
RTVSPost2010Prop48
 90
       50
102
RTVSPost2010PropOp48
 70
     1
102
RTVSPost2010Prop49
280
     0
102
RTVSPost2010PropOp49
 70
     1
102
RTVSPost2010Prop50
 90
       50
102
RTVSPost2010PropOp50
 70
     1
102
RTVSPost2010Prop51ColorIndex
 90
      256
102
RTVSPost2010Prop51ColorRGB
 90
-16777216
102
RTVSPost2010PropOp51
 70
     0
102
RTVSPost2010Prop52
140
1.0
102
RTVSPost2010PropOp52
 70
     0
102
RTVSPost2010Prop53
 90
        2
102
RTVSPost2010PropOp53
 70
     1
102
RTVSPost2010Prop54
  1
strokes_ogs.tif
102
RTVSPost2010PropOp54
 70
     1
102
RTVSPost2010Prop55
280
     0
102
RTVSPost2010PropOp55
 70
     1
102
RTVSPost2010Prop56
140
1.0
102
RTVSPost2010PropOp56
 70
     1
102
RTVSPost2010Prop57
140
1.0
102
RTVSPost2010PropOp57
 70
     1
  0
XRECORD
  5
1C8
102
{ACAD_REACTORS
330
1C7
102
}
330
1C7
100
AcDbXrecord
280
     1
102
RTVSPropertyOp0
 70
     1
102
RTVSPropertyOp1
 70
     1
102
RTVSPropertyOp2
 70
     1
102
RTVSPropertyOp3
 70
     1
102
RTVSPropertyOp4
 70
     1
102
RTVSPropertyOp5
 70
     1
102
RTVSPropertyOp6
 70
     1
102
RTVSPropertyOp7
 70
     1
102
RTVSPropertyOp8
 70
     1
102
RTVSPropertyOp9
 70
     1
102
RTVSPropertyOp10
 70
     1
102
RTVSPropertyOp11
 70
     1
102
RTVSPropertyOp12
 70
     1
102
RTVSPropertyOp13
 70
     1
102
RTVSPropertyOp14
 70
     1
102
RTVSPropertyOp15
 70
     1
102
RTVSPropertyOp16
 70
     1
102
RTVSPropertyOp17
 70
     1
102
RTVSPropertyOp18
 70
     1
102
RTVSPropertyOp19
 70
     1
102
RTVSPropertyOp20
 70
     1
102
RTVSPropertyOp21
 70
     1
102
RTVSPropertyOp22
 70
     1
102
RTVSPropertyOp23
 70
     1
102
RTVSPropertyOp24
 70
     1
102
RTVSPropertyOp25
 70
     1
102
RTVSPropertyOp26
 70
     1
102
RTVSPropertyOp27
 70
     1
102
RTVSPropertyOp28
 70
     1
102
RTVSPropertyOp29
 70
     1
102
RTVSPropertyOp30
 70
     1
102
RTVSPropertyOp31
 70
     1
102
RTVSPropertyOp32
 70
     1
102
RTVSPropertyOp33
 70
     1
102
RTVSPropertyOp34
 70
     1
102
RTVSPropertyOp35
 70
     1
102
RTVSPropertyOp36
 70
     1
102
RTVSPropertyOp37
 70
     1
102
RTVSPropertyOp38
 70
     1
102
RTVSPropertyOp39
 70
     1
102
RTVSPropertyOp40
 70
     1
102
RTVSPropertyOp41
 70
     1
102
RTVSPropertyOp42
 70
     1
102
RTVSPropertyOp43
 70
     1
102
RTVSPropertyOp44
 70
     1
102
RTVSPropertyOp45
 70
     1
102
RTVSPropertyOp46
 70
     1
102
RTVSPropertyOp47
 70
     1
102
RTVSPropertyOp48
 70
     1
102
RTVSPropertyOp49
 70
     1
102
RTVSPropertyOp50
 70
     1
102
RTVSPropertyOp51
 70
     0
102
RTVSPropertyOp52
 70
     0
102
RTVSPropertyOp53
 70
     1
102
RTVSPropertyOp54
 70
     1
102
RTVSPropertyOp55
 70
     1
102
RTVSPropertyOp56
 70
     1
102
RTVSPropertyOp57
 70
     1
102
RTVSPost2010Prop28
280
     0
102
RTVSPost2010PropOp28
 70
     1
102
RTVSPost2010Prop29
280
     1
102
RTVSPost2010PropOp29
 70
     1
102
RTVSPost2010Prop30
280
     1
102
RTVSPost2010PropOp30
 70
     1
102
RTVSPost2010Prop31
280
     0
102
RTVSPost2010PropOp31
 70
     1
102
RTVSPost2010Prop32
280
     0
102
RTVSPost2010PropOp32
 70
     1
102
RTVSPost2010Prop33
280
     0
102
RTVSPost2010PropOp33
 70
     1
102
RTVSPost2010Prop34
280
     0
102
RTVSPost2010PropOp34
 70
     1
102
RTVSPost2010Prop35
280
     0
102
RTVSPost2010PropOp35
 70
     1
102
RTVSPost2010Prop36
280
     0
102
RTVSPost2010PropOp36
 70
     1
102
RTVSPost2010Prop37
 90
       50
102
RTVSPost2010PropOp37
 70
     1
102
RTVSPost2010Prop38
140
0.0
102
RTVSPost2010PropOp38
 70
     1
102
RTVSPost2010Prop39
140
1.0
102
RTVSPost2010PropOp39
 70
     1
102
RTVSPost2010Prop40
 90
        0
102
RTVSPost2010PropOp40
 70
     1
102
RTVSPost2010Prop41ColorIndex
 90
       18
102
RTVSPost2010Prop41ColorRGB
 90
        0
102
RTVSPost2010PropOp41
 70
     1
102
RTVSPost2010Prop42
 90
       50
102
RTVSPost2010PropOp42
 70
     1
102
RTVSPost2010Prop43
 90
        3
102
RTVSPost2010PropOp43
 70
     1
102
RTVSPost2010Prop44ColorIndex
 90
        5
102
RTVSPost2010Prop44ColorRGB
 90
      255
102
RTVSPost2010PropOp44
 70
     1
102
RTVSPost2010Prop45
280
     0
102
RTVSPost2010PropOp45
 70
     1
102
RTVSPost2010Prop46
 90
       50
102
RTVSPost2010PropOp46
 70
     1
102
RTVSPost2010Prop47
 90
       50
102
RTVSPost2010PropOp47
 70
     1
102
RTVSPost2010Prop48
 90
       50
102
RTVSPost2010PropOp48
 70
     1
102
RTVSPost2010Prop49
280
     0
102
RTVSPost2010PropOp49
 70
     1
102
RTVSPost2010Prop50
 90
       50
102
RTVSPost2010PropOp50
 70
     1
102
RTVSPost2010Prop51ColorIndex
 90
      256
102
RTVSPost2010Prop51ColorRGB
 90
-16777216
102
RTVSPost2010PropOp51
 70
     0
102
RTVSPost2010Prop52
140
1.0
102
RTVSPost2010PropOp52
 70
     0
102
RTVSPost2010Prop53
 90
        2
102
RTVSPost2010PropOp53
 70
     1
102
RTVSPost2010Prop54
  1
strokes_ogs.tif
102
RTVSPost2010PropOp54
 70
     1
102
RTVSPost2010Prop55
280
     0
102
RTVSPost2010PropOp55
 70
     1
102
RTVSPost2010Prop56
140
1.0
102
RTVSPost2010PropOp56
 70
     1
102
RTVSPost2010Prop57
140
1.0
102
RTVSPost2010PropOp57
 70
     1
  0
XRECORD
  5
1D0
102
{ACAD_REACTORS
330
1CF
102
}
330
1CF
100
AcDbXrecord
280
     1
102
RTVSPropertyOp0
 70
     1
102
RTVSPropertyOp1
 70
     1
102
RTVSPropertyOp2
 70
     1
102
RTVSPropertyOp3
 70
     1
102
RTVSPropertyOp4
 70
     1
102
RTVSPropertyOp5
 70
     1
102
RTVSPropertyOp6
 70
     1
102
RTVSPropertyOp7
 70
     1
102
RTVSPropertyOp8
 70
     1
102
RTVSPropertyOp9
 70
     1
102
RTVSPropertyOp10
 70
     1
102
RTVSPropertyOp11
 70
     1
102
RTVSPropertyOp12
 70
     1
102
RTVSPropertyOp13
 70
     1
102
RTVSPropertyOp14
 70
     1
102
RTVSPropertyOp15
 70
     1
102
RTVSPropertyOp16
 70
     1
102
RTVSPropertyOp17
 70
     1
102
RTVSPropertyOp18
 70
     1
102
RTVSPropertyOp19
 70
     1
102
RTVSPropertyOp20
 70
     1
102
RTVSPropertyOp21
 70
     1
102
RTVSPropertyOp22
 70
     1
102
RTVSPropertyOp23
 70
     1
102
RTVSPropertyOp24
 70
     1
102
RTVSPropertyOp25
 70
     1
102
RTVSPropertyOp26
 70
     1
102
RTVSPropertyOp27
 70
     1
102
RTVSPropertyOp28
 70
     1
102
RTVSPropertyOp29
 70
     1
102
RTVSPropertyOp30
 70
     1
102
RTVSPropertyOp31
 70
     1
102
RTVSPropertyOp32
 70
     1
102
RTVSPropertyOp33
 70
     1
102
RTVSPropertyOp34
 70
     1
102
RTVSPropertyOp35
 70
     1
102
RTVSPropertyOp36
 70
     1
102
RTVSPropertyOp37
 70
     1
102
RTVSPropertyOp38
 70
     1
102
RTVSPropertyOp39
 70
     1
102
RTVSPropertyOp40
 70
     1
102
RTVSPropertyOp41
 70
     1
102
RTVSPropertyOp42
 70
     1
102
RTVSPropertyOp43
 70
     1
102
RTVSPropertyOp44
 70
     1
102
RTVSPropertyOp45
 70
     1
102
RTVSPropertyOp46
 70
     1
102
RTVSPropertyOp47
 70
     1
102
RTVSPropertyOp48
 70
     1
102
RTVSPropertyOp49
 70
     1
102
RTVSPropertyOp50
 70
     1
102
RTVSPropertyOp51
 70
     0
102
RTVSPropertyOp52
 70
     0
102
RTVSPropertyOp53
 70
     1
102
RTVSPropertyOp54
 70
     1
102
RTVSPropertyOp55
 70
     1
102
RTVSPropertyOp56
 70
     1
102
RTVSPropertyOp57
 70
     1
102
RTVSPost2010Prop28
280
     0
102
RTVSPost2010PropOp28
 70
     1
102
RTVSPost2010Prop29
280
     1
102
RTVSPost2010PropOp29
 70
     1
102
RTVSPost2010Prop30
280
     1
102
RTVSPost2010PropOp30
 70
     1
102
RTVSPost2010Prop31
280
     0
102
RTVSPost2010PropOp31
 70
     1
102
RTVSPost2010Prop32
280
     0
102
RTVSPost2010PropOp32
 70
     1
102
RTVSPost2010Prop33
280
     0
102
RTVSPost2010PropOp33
 70
     1
102
RTVSPost2010Prop34
280
     0
102
RTVSPost2010PropOp34
 70
     1
102
RTVSPost2010Prop35
280
     0
102
RTVSPost2010PropOp35
 70
     1
102
RTVSPost2010Prop36
280
     0
102
RTVSPost2010PropOp36
 70
     1
102
RTVSPost2010Prop37
 90
       50
102
RTVSPost2010PropOp37
 70
     1
102
RTVSPost2010Prop38
140
0.0
102
RTVSPost2010PropOp38
 70
     1
102
RTVSPost2010Prop39
140
1.0
102
RTVSPost2010PropOp39
 70
     1
102
RTVSPost2010Prop40
 90
        0
102
RTVSPost2010PropOp40
 70
     1
102
RTVSPost2010Prop41ColorIndex
 90
       18
102
RTVSPost2010Prop41ColorRGB
 90
        0
102
RTVSPost2010PropOp41
 70
     1
102
RTVSPost2010Prop42
 90
       50
102
RTVSPost2010PropOp42
 70
     1
102
RTVSPost2010Prop43
 90
        3
102
RTVSPost2010PropOp43
 70
     1
102
RTVSPost2010Prop44ColorIndex
 90
        5
102
RTVSPost2010Prop44ColorRGB
 90
      255
102
RTVSPost2010PropOp44
 70
     1
102
RTVSPost2010Prop45
280
     0
102
RTVSPost2010PropOp45
 70
     1
102
RTVSPost2010Prop46
 90
       50
102
RTVSPost2010PropOp46
 70
     1
102
RTVSPost2010Prop47
 90
       50
102
RTVSPost2010PropOp47
 70
     1
102
RTVSPost2010Prop48
 90
       50
102
RTVSPost2010PropOp48
 70
     1
102
RTVSPost2010Prop49
280
     0
102
RTVSPost2010PropOp49
 70
     1
102
RTVSPost2010Prop50
 90
       50
102
RTVSPost2010PropOp50
 70
     1
102
RTVSPost2010Prop51ColorIndex
 90
      256
102
RTVSPost2010Prop51ColorRGB
 90
-16777216
102
RTVSPost2010PropOp51
 70
     0
102
RTVSPost2010Prop52
140
1.0
102
RTVSPost2010PropOp52
 70
     0
102
RTVSPost2010Prop53
 90
        2
102
RTVSPost2010PropOp53
 70
     1
102
RTVSPost2010Prop54
  1
strokes_ogs.tif
102
RTVSPost2010PropOp54
 70
     1
102
RTVSPost2010Prop55
280
     0
102
RTVSPost2010PropOp55
 70
     1
102
RTVSPost2010Prop56
140
1.0
102
RTVSPost2010PropOp56
 70
     1
102
RTVSPost2010Prop57
140
1.0
102
RTVSPost2010PropOp57
 70
     1
  0
XRECORD
  5
1C4
102
{ACAD_REACTORS
330
1C3
102
}
330
1C3
100
AcDbXrecord
280
     1
102
RTVSPropertyOp0
 70
     1
102
RTVSPropertyOp1
 70
     1
102
RTVSPropertyOp2
 70
     1
102
RTVSPropertyOp3
 70
     1
102
RTVSPropertyOp4
 70
     1
102
RTVSPropertyOp5
 70
     1
102
RTVSPropertyOp6
 70
     1
102
RTVSPropertyOp7
 70
     1
102
RTVSPropertyOp8
 70
     1
102
RTVSPropertyOp9
 70
     1
102
RTVSPropertyOp10
 70
     1
102
RTVSPropertyOp11
 70
     1
102
RTVSPropertyOp12
 70
     1
102
RTVSPropertyOp13
 70
     1
102
RTVSPropertyOp14
 70
     1
102
RTVSPropertyOp15
 70
     1
102
RTVSPropertyOp16
 70
     1
102
RTVSPropertyOp17
 70
     1
102
RTVSPropertyOp18
 70
     1
102
RTVSPropertyOp19
 70
     1
102
RTVSPropertyOp20
 70
     1
102
RTVSPropertyOp21
 70
     1
102
RTVSPropertyOp22
 70
     1
102
RTVSPropertyOp23
 70
     1
102
RTVSPropertyOp24
 70
     1
102
RTVSPropertyOp25
 70
     1
102
RTVSPropertyOp26
 70
     1
102
RTVSPropertyOp27
 70
     1
102
RTVSPropertyOp28
 70
     1
102
RTVSPropertyOp29
 70
     1
102
RTVSPropertyOp30
 70
     1
102
RTVSPropertyOp31
 70
     1
102
RTVSPropertyOp32
 70
     1
102
RTVSPropertyOp33
 70
     1
102
RTVSPropertyOp34
 70
     1
102
RTVSPropertyOp35
 70
     1
102
RTVSPropertyOp36
 70
     1
102
RTVSPropertyOp37
 70
     1
102
RTVSPropertyOp38
 70
     1
102
RTVSPropertyOp39
 70
     1
102
RTVSPropertyOp40
 70
     1
102
RTVSPropertyOp41
 70
     1
102
RTVSPropertyOp42
 70
     1
102
RTVSPropertyOp43
 70
     1
102
RTVSPropertyOp44
 70
     1
102
RTVSPropertyOp45
 70
     1
102
RTVSPropertyOp46
 70
     1
102
RTVSPropertyOp47
 70
     1
102
RTVSPropertyOp48
 70
     1
102
RTVSPropertyOp49
 70
     1
102
RTVSPropertyOp50
 70
     1
102
RTVSPropertyOp51
 70
     0
102
RTVSPropertyOp52
 70
     0
102
RTVSPropertyOp53
 70
     1
102
RTVSPropertyOp54
 70
     1
102
RTVSPropertyOp55
 70
     1
102
RTVSPropertyOp56
 70
     1
102
RTVSPropertyOp57
 70
     1
102
RTVSPost2010Prop28
280
     0
102
RTVSPost2010PropOp28
 70
     1
102
RTVSPost2010Prop29
280
     1
102
RTVSPost2010PropOp29
 70
     1
102
RTVSPost2010Prop30
280
     1
102
RTVSPost2010PropOp30
 70
     1
102
RTVSPost2010Prop31
280
     0
102
RTVSPost2010PropOp31
 70
     1
102
RTVSPost2010Prop32
280
     0
102
RTVSPost2010PropOp32
 70
     1
102
RTVSPost2010Prop33
280
     0
102
RTVSPost2010PropOp33
 70
     1
102
RTVSPost2010Prop34
280
     0
102
RTVSPost2010PropOp34
 70
     1
102
RTVSPost2010Prop35
280
     0
102
RTVSPost2010PropOp35
 70
     1
102
RTVSPost2010Prop36
280
     0
102
RTVSPost2010PropOp36
 70
     1
102
RTVSPost2010Prop37
 90
       50
102
RTVSPost2010PropOp37
 70
     1
102
RTVSPost2010Prop38
140
0.0
102
RTVSPost2010PropOp38
 70
     1
102
RTVSPost2010Prop39
140
1.0
102
RTVSPost2010PropOp39
 70
     1
102
RTVSPost2010Prop40
 90
        0
102
RTVSPost2010PropOp40
 70
     1
102
RTVSPost2010Prop41ColorIndex
 90
       18
102
RTVSPost2010Prop41ColorRGB
 90
        0
102
RTVSPost2010PropOp41
 70
     1
102
RTVSPost2010Prop42
 90
       50
102
RTVSPost2010PropOp42
 70
     1
102
RTVSPost2010Prop43
 90
        3
102
RTVSPost2010PropOp43
 70
     1
102
RTVSPost2010Prop44ColorIndex
 90
        5
102
RTVSPost2010Prop44ColorRGB
 90
      255
102
RTVSPost2010PropOp44
 70
     1
102
RTVSPost2010Prop45
280
     0
102
RTVSPost2010PropOp45
 70
     1
102
RTVSPost2010Prop46
 90
       50
102
RTVSPost2010PropOp46
 70
     1
102
RTVSPost2010Prop47
 90
       50
102
RTVSPost2010PropOp47
 70
     1
102
RTVSPost2010Prop48
 90
       50
102
RTVSPost2010PropOp48
 70
     1
102
RTVSPost2010Prop49
280
     0
102
RTVSPost2010PropOp49
 70
     1
102
RTVSPost2010Prop50
 90
       50
102
RTVSPost2010PropOp50
 70
     1
102
RTVSPost2010Prop51ColorIndex
 90
      256
102
RTVSPost2010Prop51ColorRGB
 90
-16777216
102
RTVSPost2010PropOp51
 70
     0
102
RTVSPost2010Prop52
140
1.0
102
RTVSPost2010PropOp52
 70
     0
102
RTVSPost2010Prop53
 90
        2
102
RTVSPost2010PropOp53
 70
     1
102
RTVSPost2010Prop54
  1
strokes_ogs.tif
102
RTVSPost2010PropOp54
 70
     1
102
RTVSPost2010Prop55
280
     0
102
RTVSPost2010PropOp55
 70
     1
102
RTVSPost2010Prop56
140
1.0
102
RTVSPost2010PropOp56
 70
     1
102
RTVSPost2010Prop57
140
1.0
102
RTVSPost2010PropOp57
 70
     1
  0
XRECORD
  5
1C6
102
{ACAD_REACTORS
330
1C5
102
}
330
1C5
100
AcDbXrecord
280
     1
102
RTVSPropertyOp0
 70
     1
102
RTVSPropertyOp1
 70
     1
102
RTVSPropertyOp2
 70
     1
102
RTVSPropertyOp3
 70
     1
102
RTVSPropertyOp4
 70
     1
102
RTVSPropertyOp5
 70
     1
102
RTVSPropertyOp6
 70
     1
102
RTVSPropertyOp7
 70
     1
102
RTVSPropertyOp8
 70
     1
102
RTVSPropertyOp9
 70
     1
102
RTVSPropertyOp10
 70
     1
102
RTVSPropertyOp11
 70
     1
102
RTVSPropertyOp12
 70
     1
102
RTVSPropertyOp13
 70
     1
102
RTVSPropertyOp14
 70
     1
102
RTVSPropertyOp15
 70
     1
102
RTVSPropertyOp16
 70
     1
102
RTVSPropertyOp17
 70
     1
102
RTVSPropertyOp18
 70
     1
102
RTVSPropertyOp19
 70
     1
102
RTVSPropertyOp20
 70
     1
102
RTVSPropertyOp21
 70
     1
102
RTVSPropertyOp22
 70
     1
102
RTVSPropertyOp23
 70
     1
102
RTVSPropertyOp24
 70
     1
102
RTVSPropertyOp25
 70
     1
102
RTVSPropertyOp26
 70
     1
102
RTVSPropertyOp27
 70
     1
102
RTVSPropertyOp28
 70
     1
102
RTVSPropertyOp29
 70
     1
102
RTVSPropertyOp30
 70
     1
102
RTVSPropertyOp31
 70
     1
102
RTVSPropertyOp32
 70
     1
102
RTVSPropertyOp33
 70
     1
102
RTVSPropertyOp34
 70
     1
102
RTVSPropertyOp35
 70
     1
102
RTVSPropertyOp36
 70
     1
102
RTVSPropertyOp37
 70
     1
102
RTVSPropertyOp38
 70
     1
102
RTVSPropertyOp39
 70
     1
102
RTVSPropertyOp40
 70
     1
102
RTVSPropertyOp41
 70
     1
102
RTVSPropertyOp42
 70
     1
102
RTVSPropertyOp43
 70
     1
102
RTVSPropertyOp44
 70
     1
102
RTVSPropertyOp45
 70
     1
102
RTVSPropertyOp46
 70
     1
102
RTVSPropertyOp47
 70
     1
102
RTVSPropertyOp48
 70
     1
102
RTVSPropertyOp49
 70
     1
102
RTVSPropertyOp50
 70
     1
102
RTVSPropertyOp51
 70
     0
102
RTVSPropertyOp52
 70
     0
102
RTVSPropertyOp53
 70
     1
102
RTVSPropertyOp54
 70
     1
102
RTVSPropertyOp55
 70
     1
102
RTVSPropertyOp56
 70
     1
102
RTVSPropertyOp57
 70
     1
102
RTVSPost2010Prop28
280
     0
102
RTVSPost2010PropOp28
 70
     1
102
RTVSPost2010Prop29
280
     1
102
RTVSPost2010PropOp29
 70
     1
102
RTVSPost2010Prop30
280
     1
102
RTVSPost2010PropOp30
 70
     1
102
RTVSPost2010Prop31
280
     0
102
RTVSPost2010PropOp31
 70
     1
102
RTVSPost2010Prop32
280
     0
102
RTVSPost2010PropOp32
 70
     1
102
RTVSPost2010Prop33
280
     0
102
RTVSPost2010PropOp33
 70
     1
102
RTVSPost2010Prop34
280
     0
102
RTVSPost2010PropOp34
 70
     1
102
RTVSPost2010Prop35
280
     0
102
RTVSPost2010PropOp35
 70
     1
102
RTVSPost2010Prop36
280
     0
102
RTVSPost2010PropOp36
 70
     1
102
RTVSPost2010Prop37
 90
       50
102
RTVSPost2010PropOp37
 70
     1
102
RTVSPost2010Prop38
140
0.0
102
RTVSPost2010PropOp38
 70
     1
102
RTVSPost2010Prop39
140
1.0
102
RTVSPost2010PropOp39
 70
     1
102
RTVSPost2010Prop40
 90
        0
102
RTVSPost2010PropOp40
 70
     1
102
RTVSPost2010Prop41ColorIndex
 90
       18
102
RTVSPost2010Prop41ColorRGB
 90
        0
102
RTVSPost2010PropOp41
 70
     1
102
RTVSPost2010Prop42
 90
       50
102
RTVSPost2010PropOp42
 70
     1
102
RTVSPost2010Prop43
 90
        3
102
RTVSPost2010PropOp43
 70
     1
102
RTVSPost2010Prop44ColorIndex
 90
        5
102
RTVSPost2010Prop44ColorRGB
 90
      255
102
RTVSPost2010PropOp44
 70
     1
102
RTVSPost2010Prop45
280
     0
102
RTVSPost2010PropOp45
 70
     1
102
RTVSPost2010Prop46
 90
       50
102
RTVSPost2010PropOp46
 70
     1
102
RTVSPost2010Prop47
 90
       50
102
RTVSPost2010PropOp47
 70
     1
102
RTVSPost2010Prop48
 90
       50
102
RTVSPost2010PropOp48
 70
     1
102
RTVSPost2010Prop49
280
     0
102
RTVSPost2010PropOp49
 70
     1
102
RTVSPost2010Prop50
 90
       50
102
RTVSPost2010PropOp50
 70
     1
102
RTVSPost2010Prop51ColorIndex
 90
      256
102
RTVSPost2010Prop51ColorRGB
 90
-16777216
102
RTVSPost2010PropOp51
 70
     0
102
RTVSPost2010Prop52
140
1.0
102
RTVSPost2010PropOp52
 70
     0
102
RTVSPost2010Prop53
 90
        2
102
RTVSPost2010PropOp53
 70
     1
102
RTVSPost2010Prop54
  1
strokes_ogs.tif
102
RTVSPost2010PropOp54
 70
     1
102
RTVSPost2010Prop55
280
     0
102
RTVSPost2010PropOp55
 70
     1
102
RTVSPost2010Prop56
140
1.0
102
RTVSPost2010PropOp56
 70
     1
102
RTVSPost2010Prop57
140
1.0
102
RTVSPost2010PropOp57
 70
     1
  0
XRECORD
  5
1D6
102
{ACAD_REACTORS
330
1D5
102
}
330
1D5
100
AcDbXrecord
280
     1
102
RTVSPropertyOp0
 70
     0
102
RTVSPropertyOp1
 70
     0
102
RTVSPropertyOp2
 70
     0
102
RTVSPropertyOp3
 70
     0
102
RTVSPropertyOp4
 70
     0
102
RTVSPropertyOp5
 70
     0
102
RTVSPropertyOp6
 70
     0
102
RTVSPropertyOp7
 70
     0
102
RTVSPropertyOp8
 70
     0
102
RTVSPropertyOp9
 70
     0
102
RTVSPropertyOp10
 70
     0
102
RTVSPropertyOp11
 70
     0
102
RTVSPropertyOp12
 70
     0
102
RTVSPropertyOp13
 70
     0
102
RTVSPropertyOp14
 70
     2
102
RTVSPropertyOp15
 70
     0
102
RTVSPropertyOp16
 70
     0
102
RTVSPropertyOp17
 70
     0
102
RTVSPropertyOp18
 70
     0
102
RTVSPropertyOp19
 70
     0
102
RTVSPropertyOp20
 70
     0
102
RTVSPropertyOp21
 70
     0
102
RTVSPropertyOp22
 70
     0
102
RTVSPropertyOp23
 70
     0
102
RTVSPropertyOp24
 70
     0
102
RTVSPropertyOp25
 70
     0
102
RTVSPropertyOp26
 70
     0
102
RTVSPropertyOp27
 70
     0
102
RTVSPropertyOp28
 70
     0
102
RTVSPropertyOp29
 70
     0
102
RTVSPropertyOp30
 70
     0
102
RTVSPropertyOp31
 70
     0
102
RTVSPropertyOp32
 70
     0
102
RTVSPropertyOp33
 70
     0
102
RTVSPropertyOp34
 70
     0
102
RTVSPropertyOp35
 70
     0
102
RTVSPropertyOp36
 70
     0
102
RTVSPropertyOp37
 70
     0
102
RTVSPropertyOp38
 70
     0
102
RTVSPropertyOp39
 70
     0
102
RTVSPropertyOp40
 70
     0
102
RTVSPropertyOp41
 70
     0
102
RTVSPropertyOp42
 70
     0
102
RTVSPropertyOp43
 70
     0
102
RTVSPropertyOp44
 70
     0
102
RTVSPropertyOp45
 70
     0
102
RTVSPropertyOp46
 70
     0
102
RTVSPropertyOp47
 70
     0
102
RTVSPropertyOp48
 70
     0
102
RTVSPropertyOp49
 70
     0
102
RTVSPropertyOp50
 70
     0
102
RTVSPropertyOp51
 70
     0
102
RTVSPropertyOp52
 70
     0
102
RTVSPropertyOp53
 70
     0
102
RTVSPropertyOp54
 70
     0
102
RTVSPropertyOp55
 70
     0
102
RTVSPropertyOp56
 70
     0
102
RTVSPropertyOp57
 70
     0
102
RTVSPost2010Prop28
280
     0
102
RTVSPost2010PropOp28
 70
     0
102
RTVSPost2010Prop29
280
     1
102
RTVSPost2010PropOp29
 70
     0
102
RTVSPost2010Prop30
280
     1
102
RTVSPost2010PropOp30
 70
     0
102
RTVSPost2010Prop31
280
     0
102
RTVSPost2010PropOp31
 70
     0
102
RTVSPost2010Prop32
280
     0
102
RTVSPost2010PropOp32
 70
     0
102
RTVSPost2010Prop33
280
     0
102
RTVSPost2010PropOp33
 70
     0
102
RTVSPost2010Prop34
280
     0
102
RTVSPost2010PropOp34
 70
     0
102
RTVSPost2010Prop35
280
     0
102
RTVSPost2010PropOp35
 70
     0
102
RTVSPost2010Prop36
280
     0
102
RTVSPost2010PropOp36
 70
     0
102
RTVSPost2010Prop37
 90
       50
102
RTVSPost2010PropOp37
 70
     0
102
RTVSPost2010Prop38
140
0.0
102
RTVSPost2010PropOp38
 70
     0
102
RTVSPost2010Prop39
140
1.0
102
RTVSPost2010PropOp39
 70
     0
102
RTVSPost2010Prop40
 90
        0
102
RTVSPost2010PropOp40
 70
     0
102
RTVSPost2010Prop41ColorIndex
 90
       18
102
RTVSPost2010Prop41ColorRGB
 90
        0
102
RTVSPost2010PropOp41
 70
     0
102
RTVSPost2010Prop42
 90
       50
102
RTVSPost2010PropOp42
 70
     0
102
RTVSPost2010Prop43
 90
        3
102
RTVSPost2010PropOp43
 70
     0
102
RTVSPost2010Prop44ColorIndex
 90
        5
102
RTVSPost2010Prop44ColorRGB
 90
      255
102
RTVSPost2010PropOp44
 70
     0
102
RTVSPost2010Prop45
280
     0
102
RTVSPost2010PropOp45
 70
     0
102
RTVSPost2010Prop46
 90
       50
102
RTVSPost2010PropOp46
 70
     0
102
RTVSPost2010Prop47
 90
       50
102
RTVSPost2010PropOp47
 70
     0
102
RTVSPost2010Prop48
 90
       50
102
RTVSPost2010PropOp48
 70
     0
102
RTVSPost2010Prop49
280
     0
102
RTVSPost2010PropOp49
 70
     0
102
RTVSPost2010Prop50
 90
       50
102
RTVSPost2010PropOp50
 70
     0
102
RTVSPost2010Prop51ColorIndex
 90
      256
102
RTVSPost2010Prop51ColorRGB
 90
-16777216
102
RTVSPost2010PropOp51
 70
     0
102
RTVSPost2010Prop52
140
1.0
102
RTVSPost2010PropOp52
 70
     0
102
RTVSPost2010Prop53
 90
        2
102
RTVSPost2010PropOp53
 70
     0
102
RTVSPost2010Prop54
  1
strokes_ogs.tif
102
RTVSPost2010PropOp54
 70
     0
102
RTVSPost2010Prop55
280
     0
102
RTVSPost2010PropOp55
 70
     0
102
RTVSPost2010Prop56
140
1.0
102
RTVSPost2010PropOp56
 70
     0
102
RTVSPost2010Prop57
140
1.0
102
RTVSPost2010PropOp57
 70
     0
  0
XRECORD
  5
1CE
102
{ACAD_REACTORS
330
1CD
102
}
330
1CD
100
AcDbXrecord
280
     1
102
RTVSPropertyOp0
 70
     1
102
RTVSPropertyOp1
 70
     1
102
RTVSPropertyOp2
 70
     1
102
RTVSPropertyOp3
 70
     1
102
RTVSPropertyOp4
 70
     1
102
RTVSPropertyOp5
 70
     1
102
RTVSPropertyOp6
 70
     1
102
RTVSPropertyOp7
 70
     1
102
RTVSPropertyOp8
 70
     1
102
RTVSPropertyOp9
 70
     1
102
RTVSPropertyOp10
 70
     1
102
RTVSPropertyOp11
 70
     1
102
RTVSPropertyOp12
 70
     1
102
RTVSPropertyOp13
 70
     1
102
RTVSPropertyOp14
 70
     1
102
RTVSPropertyOp15
 70
     1
102
RTVSPropertyOp16
 70
     1
102
RTVSPropertyOp17
 70
     1
102
RTVSPropertyOp18
 70
     1
102
RTVSPropertyOp19
 70
     1
102
RTVSPropertyOp20
 70
     1
102
RTVSPropertyOp21
 70
     1
102
RTVSPropertyOp22
 70
     1
102
RTVSPropertyOp23
 70
     1
102
RTVSPropertyOp24
 70
     1
102
RTVSPropertyOp25
 70
     1
102
RTVSPropertyOp26
 70
     1
102
RTVSPropertyOp27
 70
     1
102
RTVSPropertyOp28
 70
     1
102
RTVSPropertyOp29
 70
     1
102
RTVSPropertyOp30
 70
     1
102
RTVSPropertyOp31
 70
     1
102
RTVSPropertyOp32
 70
     1
102
RTVSPropertyOp33
 70
     1
102
RTVSPropertyOp34
 70
     1
102
RTVSPropertyOp35
 70
     1
102
RTVSPropertyOp36
 70
     1
102
RTVSPropertyOp37
 70
     1
102
RTVSPropertyOp38
 70
     1
102
RTVSPropertyOp39
 70
     1
102
RTVSPropertyOp40
 70
     1
102
RTVSPropertyOp41
 70
     1
102
RTVSPropertyOp42
 70
     1
102
RTVSPropertyOp43
 70
     1
102
RTVSPropertyOp44
 70
     1
102
RTVSPropertyOp45
 70
     1
102
RTVSPropertyOp46
 70
     1
102
RTVSPropertyOp47
 70
     1
102
RTVSPropertyOp48
 70
     1
102
RTVSPropertyOp49
 70
     1
102
RTVSPropertyOp50
 70
     1
102
RTVSPropertyOp51
 70
     0
102
RTVSPropertyOp52
 70
     0
102
RTVSPropertyOp53
 70
     1
102
RTVSPropertyOp54
 70
     1
102
RTVSPropertyOp55
 70
     1
102
RTVSPropertyOp56
 70
     1
102
RTVSPropertyOp57
 70
     1
102
RTVSPost2010Prop28
280
     0
102
RTVSPost2010PropOp28
 70
     1
102
RTVSPost2010Prop29
280
     1
102
RTVSPost2010PropOp29
 70
     1
102
RTVSPost2010Prop30
280
     1
102
RTVSPost2010PropOp30
 70
     1
102
RTVSPost2010Prop31
280
     0
102
RTVSPost2010PropOp31
 70
     1
102
RTVSPost2010Prop32
280
     0
102
RTVSPost2010PropOp32
 70
     1
102
RTVSPost2010Prop33
280
     0
102
RTVSPost2010PropOp33
 70
     1
102
RTVSPost2010Prop34
280
     0
102
RTVSPost2010PropOp34
 70
     1
102
RTVSPost2010Prop35
280
     0
102
RTVSPost2010PropOp35
 70
     1
102
RTVSPost2010Prop36
280
     0
102
RTVSPost2010PropOp36
 70
     1
102
RTVSPost2010Prop37
 90
       50
102
RTVSPost2010PropOp37
 70
     1
102
RTVSPost2010Prop38
140
0.0
102
RTVSPost2010PropOp38
 70
     1
102
RTVSPost2010Prop39
140
1.0
102
RTVSPost2010PropOp39
 70
     1
102
RTVSPost2010Prop40
 90
        0
102
RTVSPost2010PropOp40
 70
     1
102
RTVSPost2010Prop41ColorIndex
 90
       18
102
RTVSPost2010Prop41ColorRGB
 90
        0
102
RTVSPost2010PropOp41
 70
     1
102
RTVSPost2010Prop42
 90
       50
102
RTVSPost2010PropOp42
 70
     1
102
RTVSPost2010Prop43
 90
        3
102
RTVSPost2010PropOp43
 70
     1
102
RTVSPost2010Prop44ColorIndex
 90
        5
102
RTVSPost2010Prop44ColorRGB
 90
      255
102
RTVSPost2010PropOp44
 70
     1
102
RTVSPost2010Prop45
280
     0
102
RTVSPost2010PropOp45
 70
     1
102
RTVSPost2010Prop46
 90
       50
102
RTVSPost2010PropOp46
 70
     1
102
RTVSPost2010Prop47
 90
       50
102
RTVSPost2010PropOp47
 70
     1
102
RTVSPost2010Prop48
 90
       50
102
RTVSPost2010PropOp48
 70
     1
102
RTVSPost2010Prop49
280
     0
102
RTVSPost2010PropOp49
 70
     1
102
RTVSPost2010Prop50
 90
       50
102
RTVSPost2010PropOp50
 70
     1
102
RTVSPost2010Prop51ColorIndex
 90
      256
102
RTVSPost2010Prop51ColorRGB
 90
-16777216
102
RTVSPost2010PropOp51
 70
     0
102
RTVSPost2010Prop52
140
1.0
102
RTVSPost2010PropOp52
 70
     0
102
RTVSPost2010Prop53
 90
        2
102
RTVSPost2010PropOp53
 70
     1
102
RTVSPost2010Prop54
  1
strokes_ogs.tif
102
RTVSPost2010PropOp54
 70
     1
102
RTVSPost2010Prop55
280
     0
102
RTVSPost2010PropOp55
 70
     1
102
RTVSPost2010Prop56
140
1.0
102
RTVSPost2010PropOp56
 70
     1
102
RTVSPost2010Prop57
140
1.0
102
RTVSPost2010PropOp57
 70
     1
  0
XRECORD
  5
1B2
102
{ACAD_REACTORS
330
1B1
102
}
330
1B1
100
AcDbXrecord
280
     1
102
RTVSPropertyOp0
 70
     1
102
RTVSPropertyOp1
 70
     1
102
RTVSPropertyOp2
 70
     1
102
RTVSPropertyOp3
 70
     1
102
RTVSPropertyOp4
 70
     1
102
RTVSPropertyOp5
 70
     1
102
RTVSPropertyOp6
 70
     1
102
RTVSPropertyOp7
 70
     1
102
RTVSPropertyOp8
 70
     1
102
RTVSPropertyOp9
 70
     1
102
RTVSPropertyOp10
 70
     1
102
RTVSPropertyOp11
 70
     1
102
RTVSPropertyOp12
 70
     1
102
RTVSPropertyOp13
 70
     1
102
RTVSPropertyOp14
 70
     1
102
RTVSPropertyOp15
 70
     1
102
RTVSPropertyOp16
 70
     1
102
RTVSPropertyOp17
 70
     1
102
RTVSPropertyOp18
 70
     1
102
RTVSPropertyOp19
 70
     1
102
RTVSPropertyOp20
 70
     1
102
RTVSPropertyOp21
 70
     1
102
RTVSPropertyOp22
 70
     1
102
RTVSPropertyOp23
 70
     1
102
RTVSPropertyOp24
 70
     1
102
RTVSPropertyOp25
 70
     1
102
RTVSPropertyOp26
 70
     1
102
RTVSPropertyOp27
 70
     1
102
RTVSPropertyOp28
 70
     1
102
RTVSPropertyOp29
 70
     1
102
RTVSPropertyOp30
 70
     1
102
RTVSPropertyOp31
 70
     1
102
RTVSPropertyOp32
 70
     1
102
RTVSPropertyOp33
 70
     1
102
RTVSPropertyOp34
 70
     1
102
RTVSPropertyOp35
 70
     1
102
RTVSPropertyOp36
 70
     1
102
RTVSPropertyOp37
 70
     1
102
RTVSPropertyOp38
 70
     1
102
RTVSPropertyOp39
 70
     1
102
RTVSPropertyOp40
 70
     1
102
RTVSPropertyOp41
 70
     1
102
RTVSPropertyOp42
 70
     1
102
RTVSPropertyOp43
 70
     1
102
RTVSPropertyOp44
 70
     1
102
RTVSPropertyOp45
 70
     1
102
RTVSPropertyOp46
 70
     1
102
RTVSPropertyOp47
 70
     1
102
RTVSPropertyOp48
 70
     1
102
RTVSPropertyOp49
 70
     1
102
RTVSPropertyOp50
 70
     1
102
RTVSPropertyOp51
 70
     0
102
RTVSPropertyOp52
 70
     0
102
RTVSPropertyOp53
 70
     1
102
RTVSPropertyOp54
 70
     1
102
RTVSPropertyOp55
 70
     1
102
RTVSPropertyOp56
 70
     1
102
RTVSPropertyOp57
 70
     1
102
RTVSPost2010Prop28
280
     0
102
RTVSPost2010PropOp28
 70
     1
102
RTVSPost2010Prop29
280
     1
102
RTVSPost2010PropOp29
 70
     1
102
RTVSPost2010Prop30
280
     1
102
RTVSPost2010PropOp30
 70
     1
102
RTVSPost2010Prop31
280
     0
102
RTVSPost2010PropOp31
 70
     1
102
RTVSPost2010Prop32
280
     0
102
RTVSPost2010PropOp32
 70
     1
102
RTVSPost2010Prop33
280
     0
102
RTVSPost2010PropOp33
 70
     1
102
RTVSPost2010Prop34
280
     0
102
RTVSPost2010PropOp34
 70
     1
102
RTVSPost2010Prop35
280
     0
102
RTVSPost2010PropOp35
 70
     1
102
RTVSPost2010Prop36
280
     0
102
RTVSPost2010PropOp36
 70
     1
102
RTVSPost2010Prop37
 90
       50
102
RTVSPost2010PropOp37
 70
     1
102
RTVSPost2010Prop38
140
0.0
102
RTVSPost2010PropOp38
 70
     1
102
RTVSPost2010Prop39
140
1.0
102
RTVSPost2010PropOp39
 70
     1
102
RTVSPost2010Prop40
 90
        0
102
RTVSPost2010PropOp40
 70
     1
102
RTVSPost2010Prop41ColorIndex
 90
       18
102
RTVSPost2010Prop41ColorRGB
 90
        0
102
RTVSPost2010PropOp41
 70
     1
102
RTVSPost2010Prop42
 90
       50
102
RTVSPost2010PropOp42
 70
     1
102
RTVSPost2010Prop43
 90
        3
102
RTVSPost2010PropOp43
 70
     1
102
RTVSPost2010Prop44ColorIndex
 90
        5
102
RTVSPost2010Prop44ColorRGB
 90
      255
102
RTVSPost2010PropOp44
 70
     1
102
RTVSPost2010Prop45
280
     0
102
RTVSPost2010PropOp45
 70
     1
102
RTVSPost2010Prop46
 90
       50
102
RTVSPost2010PropOp46
 70
     1
102
RTVSPost2010Prop47
 90
       50
102
RTVSPost2010PropOp47
 70
     1
102
RTVSPost2010Prop48
 90
       50
102
RTVSPost2010PropOp48
 70
     1
102
RTVSPost2010Prop49
280
     0
102
RTVSPost2010PropOp49
 70
     1
102
RTVSPost2010Prop50
 90
       50
102
RTVSPost2010PropOp50
 70
     1
102
RTVSPost2010Prop51ColorIndex
 90
      256
102
RTVSPost2010Prop51ColorRGB
 90
-16777216
102
RTVSPost2010PropOp51
 70
     0
102
RTVSPost2010Prop52
140
1.0
102
RTVSPost2010PropOp52
 70
     0
102
RTVSPost2010Prop53
 90
        2
102
RTVSPost2010PropOp53
 70
     1
102
RTVSPost2010Prop54
  1
strokes_ogs.tif
102
RTVSPost2010PropOp54
 70
     1
102
RTVSPost2010Prop55
280
     0
102
RTVSPost2010PropOp55
 70
     1
102
RTVSPost2010Prop56
140
1.0
102
RTVSPost2010PropOp56
 70
     1
102
RTVSPost2010Prop57
140
1.0
102
RTVSPost2010PropOp57
 70
     1
  0
XRECORD
  5
1B4
102
{ACAD_REACTORS
330
1B3
102
}
330
1B3
100
AcDbXrecord
280
     1
102
RTVSPropertyOp0
 70
     1
102
RTVSPropertyOp1
 70
     1
102
RTVSPropertyOp2
 70
     1
102
RTVSPropertyOp3
 70
     1
102
RTVSPropertyOp4
 70
     1
102
RTVSPropertyOp5
 70
     1
102
RTVSPropertyOp6
 70
     1
102
RTVSPropertyOp7
 70
     1
102
RTVSPropertyOp8
 70
     1
102
RTVSPropertyOp9
 70
     1
102
RTVSPropertyOp10
 70
     1
102
RTVSPropertyOp11
 70
     1
102
RTVSPropertyOp12
 70
     1
102
RTVSPropertyOp13
 70
     1
102
RTVSPropertyOp14
 70
     1
102
RTVSPropertyOp15
 70
     1
102
RTVSPropertyOp16
 70
     1
102
RTVSPropertyOp17
 70
     1
102
RTVSPropertyOp18
 70
     1
102
RTVSPropertyOp19
 70
     1
102
RTVSPropertyOp20
 70
     1
102
RTVSPropertyOp21
 70
     1
102
RTVSPropertyOp22
 70
     1
102
RTVSPropertyOp23
 70
     1
102
RTVSPropertyOp24
 70
     1
102
RTVSPropertyOp25
 70
     1
102
RTVSPropertyOp26
 70
     1
102
RTVSPropertyOp27
 70
     1
102
RTVSPropertyOp28
 70
     1
102
RTVSPropertyOp29
 70
     1
102
RTVSPropertyOp30
 70
     1
102
RTVSPropertyOp31
 70
     1
102
RTVSPropertyOp32
 70
     1
102
RTVSPropertyOp33
 70
     1
102
RTVSPropertyOp34
 70
     1
102
RTVSPropertyOp35
 70
     1
102
RTVSPropertyOp36
 70
     1
102
RTVSPropertyOp37
 70
     1
102
RTVSPropertyOp38
 70
     1
102
RTVSPropertyOp39
 70
     1
102
RTVSPropertyOp40
 70
     1
102
RTVSPropertyOp41
 70
     1
102
RTVSPropertyOp42
 70
     1
102
RTVSPropertyOp43
 70
     1
102
RTVSPropertyOp44
 70
     1
102
RTVSPropertyOp45
 70
     1
102
RTVSPropertyOp46
 70
     1
102
RTVSPropertyOp47
 70
     1
102
RTVSPropertyOp48
 70
     1
102
RTVSPropertyOp49
 70
     1
102
RTVSPropertyOp50
 70
     1
102
RTVSPropertyOp51
 70
     0
102
RTVSPropertyOp52
 70
     0
102
RTVSPropertyOp53
 70
     1
102
RTVSPropertyOp54
 70
     1
102
RTVSPropertyOp55
 70
     1
102
RTVSPropertyOp56
 70
     1
102
RTVSPropertyOp57
 70
     1
102
RTVSPost2010Prop28
280
     0
102
RTVSPost2010PropOp28
 70
     1
102
RTVSPost2010Prop29
280
     1
102
RTVSPost2010PropOp29
 70
     1
102
RTVSPost2010Prop30
280
     1
102
RTVSPost2010PropOp30
 70
     1
102
RTVSPost2010Prop31
280
     0
102
RTVSPost2010PropOp31
 70
     1
102
RTVSPost2010Prop32
280
     0
102
RTVSPost2010PropOp32
 70
     1
102
RTVSPost2010Prop33
280
     0
102
RTVSPost2010PropOp33
 70
     1
102
RTVSPost2010Prop34
280
     0
102
RTVSPost2010PropOp34
 70
     1
102
RTVSPost2010Prop35
280
     0
102
RTVSPost2010PropOp35
 70
     1
102
RTVSPost2010Prop36
280
     0
102
RTVSPost2010PropOp36
 70
     1
102
RTVSPost2010Prop37
 90
       50
102
RTVSPost2010PropOp37
 70
     1
102
RTVSPost2010Prop38
140
0.0
102
RTVSPost2010PropOp38
 70
     1
102
RTVSPost2010Prop39
140
1.0
102
RTVSPost2010PropOp39
 70
     1
102
RTVSPost2010Prop40
 90
        0
102
RTVSPost2010PropOp40
 70
     1
102
RTVSPost2010Prop41ColorIndex
 90
       18
102
RTVSPost2010Prop41ColorRGB
 90
        0
102
RTVSPost2010PropOp41
 70
     1
102
RTVSPost2010Prop42
 90
       50
102
RTVSPost2010PropOp42
 70
     1
102
RTVSPost2010Prop43
 90
        3
102
RTVSPost2010PropOp43
 70
     1
102
RTVSPost2010Prop44ColorIndex
 90
        5
102
RTVSPost2010Prop44ColorRGB
 90
      255
102
RTVSPost2010PropOp44
 70
     1
102
RTVSPost2010Prop45
280
     0
102
RTVSPost2010PropOp45
 70
     1
102
RTVSPost2010Prop46
 90
       50
102
RTVSPost2010PropOp46
 70
     1
102
RTVSPost2010Prop47
 90
       50
102
RTVSPost2010PropOp47
 70
     1
102
RTVSPost2010Prop48
 90
       50
102
RTVSPost2010PropOp48
 70
     1
102
RTVSPost2010Prop49
280
     0
102
RTVSPost2010PropOp49
 70
     1
102
RTVSPost2010Prop50
 90
       50
102
RTVSPost2010PropOp50
 70
     1
102
RTVSPost2010Prop51ColorIndex
 90
      256
102
RTVSPost2010Prop51ColorRGB
 90
-16777216
102
RTVSPost2010PropOp51
 70
     0
102
RTVSPost2010Prop52
140
1.0
102
RTVSPost2010PropOp52
 70
     0
102
RTVSPost2010Prop53
 90
        2
102
RTVSPost2010PropOp53
 70
     1
102
RTVSPost2010Prop54
  1
strokes_ogs.tif
102
RTVSPost2010PropOp54
 70
     1
102
RTVSPost2010Prop55
280
     0
102
RTVSPost2010PropOp55
 70
     1
102
RTVSPost2010Prop56
140
1.0
102
RTVSPost2010PropOp56
 70
     1
102
RTVSPost2010Prop57
140
1.0
102
RTVSPost2010PropOp57
 70
     1
  0
XRECORD
  5
1B6
102
{ACAD_REACTORS
330
1B5
102
}
330
1B5
100
AcDbXrecord
280
     1
102
RTVSPropertyOp0
 70
     1
102
RTVSPropertyOp1
 70
     1
102
RTVSPropertyOp2
 70
     1
102
RTVSPropertyOp3
 70
     1
102
RTVSPropertyOp4
 70
     1
102
RTVSPropertyOp5
 70
     1
102
RTVSPropertyOp6
 70
     1
102
RTVSPropertyOp7
 70
     1
102
RTVSPropertyOp8
 70
     1
102
RTVSPropertyOp9
 70
     1
102
RTVSPropertyOp10
 70
     1
102
RTVSPropertyOp11
 70
     1
102
RTVSPropertyOp12
 70
     1
102
RTVSPropertyOp13
 70
     1
102
RTVSPropertyOp14
 70
     1
102
RTVSPropertyOp15
 70
     1
102
RTVSPropertyOp16
 70
     1
102
RTVSPropertyOp17
 70
     1
102
RTVSPropertyOp18
 70
     1
102
RTVSPropertyOp19
 70
     1
102
RTVSPropertyOp20
 70
     1
102
RTVSPropertyOp21
 70
     1
102
RTVSPropertyOp22
 70
     1
102
RTVSPropertyOp23
 70
     1
102
RTVSPropertyOp24
 70
     1
102
RTVSPropertyOp25
 70
     1
102
RTVSPropertyOp26
 70
     1
102
RTVSPropertyOp27
 70
     1
102
RTVSPropertyOp28
 70
     1
102
RTVSPropertyOp29
 70
     1
102
RTVSPropertyOp30
 70
     1
102
RTVSPropertyOp31
 70
     1
102
RTVSPropertyOp32
 70
     1
102
RTVSPropertyOp33
 70
     1
102
RTVSPropertyOp34
 70
     1
102
RTVSPropertyOp35
 70
     1
102
RTVSPropertyOp36
 70
     1
102
RTVSPropertyOp37
 70
     1
102
RTVSPropertyOp38
 70
     1
102
RTVSPropertyOp39
 70
     1
102
RTVSPropertyOp40
 70
     1
102
RTVSPropertyOp41
 70
     1
102
RTVSPropertyOp42
 70
     1
102
RTVSPropertyOp43
 70
     1
102
RTVSPropertyOp44
 70
     1
102
RTVSPropertyOp45
 70
     1
102
RTVSPropertyOp46
 70
     1
102
RTVSPropertyOp47
 70
     1
102
RTVSPropertyOp48
 70
     1
102
RTVSPropertyOp49
 70
     1
102
RTVSPropertyOp50
 70
     1
102
RTVSPropertyOp51
 70
     0
102
RTVSPropertyOp52
 70
     0
102
RTVSPropertyOp53
 70
     1
102
RTVSPropertyOp54
 70
     1
102
RTVSPropertyOp55
 70
     1
102
RTVSPropertyOp56
 70
     1
102
RTVSPropertyOp57
 70
     1
102
RTVSPost2010Prop28
280
     0
102
RTVSPost2010PropOp28
 70
     1
102
RTVSPost2010Prop29
280
     1
102
RTVSPost2010PropOp29
 70
     1
102
RTVSPost2010Prop30
280
     1
102
RTVSPost2010PropOp30
 70
     1
102
RTVSPost2010Prop31
280
     0
102
RTVSPost2010PropOp31
 70
     1
102
RTVSPost2010Prop32
280
     0
102
RTVSPost2010PropOp32
 70
     1
102
RTVSPost2010Prop33
280
     0
102
RTVSPost2010PropOp33
 70
     1
102
RTVSPost2010Prop34
280
     0
102
RTVSPost2010PropOp34
 70
     1
102
RTVSPost2010Prop35
280
     0
102
RTVSPost2010PropOp35
 70
     1
102
RTVSPost2010Prop36
280
     0
102
RTVSPost2010PropOp36
 70
     1
102
RTVSPost2010Prop37
 90
       50
102
RTVSPost2010PropOp37
 70
     1
102
RTVSPost2010Prop38
140
0.0
102
RTVSPost2010PropOp38
 70
     1
102
RTVSPost2010Prop39
140
1.0
102
RTVSPost2010PropOp39
 70
     1
102
RTVSPost2010Prop40
 90
        0
102
RTVSPost2010PropOp40
 70
     1
102
RTVSPost2010Prop41ColorIndex
 90
       18
102
RTVSPost2010Prop41ColorRGB
 90
        0
102
RTVSPost2010PropOp41
 70
     1
102
RTVSPost2010Prop42
 90
       50
102
RTVSPost2010PropOp42
 70
     1
102
RTVSPost2010Prop43
 90
        3
102
RTVSPost2010PropOp43
 70
     1
102
RTVSPost2010Prop44ColorIndex
 90
        5
102
RTVSPost2010Prop44ColorRGB
 90
      255
102
RTVSPost2010PropOp44
 70
     1
102
RTVSPost2010Prop45
280
     0
102
RTVSPost2010PropOp45
 70
     1
102
RTVSPost2010Prop46
 90
       50
102
RTVSPost2010PropOp46
 70
     1
102
RTVSPost2010Prop47
 90
       50
102
RTVSPost2010PropOp47
 70
     1
102
RTVSPost2010Prop48
 90
       50
102
RTVSPost2010PropOp48
 70
     1
102
RTVSPost2010Prop49
280
     0
102
RTVSPost2010PropOp49
 70
     1
102
RTVSPost2010Prop50
 90
       50
102
RTVSPost2010PropOp50
 70
     1
102
RTVSPost2010Prop51ColorIndex
 90
      256
102
RTVSPost2010Prop51ColorRGB
 90
-16777216
102
RTVSPost2010PropOp51
 70
     0
102
RTVSPost2010Prop52
140
1.0
102
RTVSPost2010PropOp52
 70
     0
102
RTVSPost2010Prop53
 90
        2
102
RTVSPost2010PropOp53
 70
     1
102
RTVSPost2010Prop54
  1
strokes_ogs.tif
102
RTVSPost2010PropOp54
 70
     1
102
RTVSPost2010Prop55
280
     0
102
RTVSPost2010PropOp55
 70
     1
102
RTVSPost2010Prop56
140
1.0
102
RTVSPost2010PropOp56
 70
     1
102
RTVSPost2010Prop57
140
1.0
102
RTVSPost2010PropOp57
 70
     1
  0
XRECORD
  5
1B8
102
{ACAD_REACTORS
330
1B7
102
}
330
1B7
100
AcDbXrecord
280
     1
102
RTVSPropertyOp0
 70
     1
102
RTVSPropertyOp1
 70
     1
102
RTVSPropertyOp2
 70
     1
102
RTVSPropertyOp3
 70
     1
102
RTVSPropertyOp4
 70
     1
102
RTVSPropertyOp5
 70
     1
102
RTVSPropertyOp6
 70
     1
102
RTVSPropertyOp7
 70
     1
102
RTVSPropertyOp8
 70
     1
102
RTVSPropertyOp9
 70
     1
102
RTVSPropertyOp10
 70
     1
102
RTVSPropertyOp11
 70
     1
102
RTVSPropertyOp12
 70
     1
102
RTVSPropertyOp13
 70
     1
102
RTVSPropertyOp14
 70
     1
102
RTVSPropertyOp15
 70
     1
102
RTVSPropertyOp16
 70
     1
102
RTVSPropertyOp17
 70
     1
102
RTVSPropertyOp18
 70
     1
102
RTVSPropertyOp19
 70
     1
102
RTVSPropertyOp20
 70
     1
102
RTVSPropertyOp21
 70
     1
102
RTVSPropertyOp22
 70
     1
102
RTVSPropertyOp23
 70
     1
102
RTVSPropertyOp24
 70
     1
102
RTVSPropertyOp25
 70
     1
102
RTVSPropertyOp26
 70
     1
102
RTVSPropertyOp27
 70
     1
102
RTVSPropertyOp28
 70
     1
102
RTVSPropertyOp29
 70
     1
102
RTVSPropertyOp30
 70
     1
102
RTVSPropertyOp31
 70
     1
102
RTVSPropertyOp32
 70
     1
102
RTVSPropertyOp33
 70
     1
102
RTVSPropertyOp34
 70
     1
102
RTVSPropertyOp35
 70
     1
102
RTVSPropertyOp36
 70
     1
102
RTVSPropertyOp37
 70
     1
102
RTVSPropertyOp38
 70
     1
102
RTVSPropertyOp39
 70
     1
102
RTVSPropertyOp40
 70
     1
102
RTVSPropertyOp41
 70
     1
102
RTVSPropertyOp42
 70
     1
102
RTVSPropertyOp43
 70
     1
102
RTVSPropertyOp44
 70
     1
102
RTVSPropertyOp45
 70
     1
102
RTVSPropertyOp46
 70
     1
102
RTVSPropertyOp47
 70
     1
102
RTVSPropertyOp48
 70
     1
102
RTVSPropertyOp49
 70
     1
102
RTVSPropertyOp50
 70
     1
102
RTVSPropertyOp51
 70
     0
102
RTVSPropertyOp52
 70
     0
102
RTVSPropertyOp53
 70
     1
102
RTVSPropertyOp54
 70
     1
102
RTVSPropertyOp55
 70
     1
102
RTVSPropertyOp56
 70
     1
102
RTVSPropertyOp57
 70
     1
102
RTVSPost2010Prop28
280
     0
102
RTVSPost2010PropOp28
 70
     1
102
RTVSPost2010Prop29
280
     1
102
RTVSPost2010PropOp29
 70
     1
102
RTVSPost2010Prop30
280
     1
102
RTVSPost2010PropOp30
 70
     1
102
RTVSPost2010Prop31
280
     0
102
RTVSPost2010PropOp31
 70
     1
102
RTVSPost2010Prop32
280
     0
102
RTVSPost2010PropOp32
 70
     1
102
RTVSPost2010Prop33
280
     0
102
RTVSPost2010PropOp33
 70
     1
102
RTVSPost2010Prop34
280
     0
102
RTVSPost2010PropOp34
 70
     1
102
RTVSPost2010Prop35
280
     0
102
RTVSPost2010PropOp35
 70
     1
102
RTVSPost2010Prop36
280
     0
102
RTVSPost2010PropOp36
 70
     1
102
RTVSPost2010Prop37
 90
       50
102
RTVSPost2010PropOp37
 70
     1
102
RTVSPost2010Prop38
140
0.0
102
RTVSPost2010PropOp38
 70
     1
102
RTVSPost2010Prop39
140
1.0
102
RTVSPost2010PropOp39
 70
     1
102
RTVSPost2010Prop40
 90
        0
102
RTVSPost2010PropOp40
 70
     1
102
RTVSPost2010Prop41ColorIndex
 90
       18
102
RTVSPost2010Prop41ColorRGB
 90
        0
102
RTVSPost2010PropOp41
 70
     1
102
RTVSPost2010Prop42
 90
       50
102
RTVSPost2010PropOp42
 70
     1
102
RTVSPost2010Prop43
 90
        3
102
RTVSPost2010PropOp43
 70
     1
102
RTVSPost2010Prop44ColorIndex
 90
        5
102
RTVSPost2010Prop44ColorRGB
 90
      255
102
RTVSPost2010PropOp44
 70
     1
102
RTVSPost2010Prop45
280
     0
102
RTVSPost2010PropOp45
 70
     1
102
RTVSPost2010Prop46
 90
       50
102
RTVSPost2010PropOp46
 70
     1
102
RTVSPost2010Prop47
 90
       50
102
RTVSPost2010PropOp47
 70
     1
102
RTVSPost2010Prop48
 90
       50
102
RTVSPost2010PropOp48
 70
     1
102
RTVSPost2010Prop49
280
     0
102
RTVSPost2010PropOp49
 70
     1
102
RTVSPost2010Prop50
 90
       50
102
RTVSPost2010PropOp50
 70
     1
102
RTVSPost2010Prop51ColorIndex
 90
      256
102
RTVSPost2010Prop51ColorRGB
 90
-16777216
102
RTVSPost2010PropOp51
 70
     0
102
RTVSPost2010Prop52
140
1.0
102
RTVSPost2010PropOp52
 70
     0
102
RTVSPost2010Prop53
 90
        2
102
RTVSPost2010PropOp53
 70
     1
102
RTVSPost2010Prop54
  1
strokes_ogs.tif
102
RTVSPost2010PropOp54
 70
     1
102
RTVSPost2010Prop55
280
     0
102
RTVSPost2010PropOp55
 70
     1
102
RTVSPost2010Prop56
140
1.0
102
RTVSPost2010PropOp56
 70
     1
102
RTVSPost2010Prop57
140
1.0
102
RTVSPost2010PropOp57
 70
     1
  0
XRECORD
  5
1BE
102
{ACAD_REACTORS
330
1BD
102
}
330
1BD
100
AcDbXrecord
280
     1
102
RTVSPropertyOp0
 70
     1
102
RTVSPropertyOp1
 70
     1
102
RTVSPropertyOp2
 70
     1
102
RTVSPropertyOp3
 70
     1
102
RTVSPropertyOp4
 70
     1
102
RTVSPropertyOp5
 70
     1
102
RTVSPropertyOp6
 70
     1
102
RTVSPropertyOp7
 70
     1
102
RTVSPropertyOp8
 70
     1
102
RTVSPropertyOp9
 70
     1
102
RTVSPropertyOp10
 70
     1
102
RTVSPropertyOp11
 70
     1
102
RTVSPropertyOp12
 70
     1
102
RTVSPropertyOp13
 70
     1
102
RTVSPropertyOp14
 70
     1
102
RTVSPropertyOp15
 70
     1
102
RTVSPropertyOp16
 70
     1
102
RTVSPropertyOp17
 70
     1
102
RTVSPropertyOp18
 70
     1
102
RTVSPropertyOp19
 70
     1
102
RTVSPropertyOp20
 70
     1
102
RTVSPropertyOp21
 70
     1
102
RTVSPropertyOp22
 70
     1
102
RTVSPropertyOp23
 70
     1
102
RTVSPropertyOp24
 70
     1
102
RTVSPropertyOp25
 70
     1
102
RTVSPropertyOp26
 70
     1
102
RTVSPropertyOp27
 70
     1
102
RTVSPropertyOp28
 70
     1
102
RTVSPropertyOp29
 70
     1
102
RTVSPropertyOp30
 70
     1
102
RTVSPropertyOp31
 70
     1
102
RTVSPropertyOp32
 70
     1
102
RTVSPropertyOp33
 70
     1
102
RTVSPropertyOp34
 70
     1
102
RTVSPropertyOp35
 70
     1
102
RTVSPropertyOp36
 70
     1
102
RTVSPropertyOp37
 70
     1
102
RTVSPropertyOp38
 70
     1
102
RTVSPropertyOp39
 70
     1
102
RTVSPropertyOp40
 70
     1
102
RTVSPropertyOp41
 70
     1
102
RTVSPropertyOp42
 70
     1
102
RTVSPropertyOp43
 70
     1
102
RTVSPropertyOp44
 70
     1
102
RTVSPropertyOp45
 70
     1
102
RTVSPropertyOp46
 70
     1
102
RTVSPropertyOp47
 70
     1
102
RTVSPropertyOp48
 70
     1
102
RTVSPropertyOp49
 70
     1
102
RTVSPropertyOp50
 70
     1
102
RTVSPropertyOp51
 70
     0
102
RTVSPropertyOp52
 70
     0
102
RTVSPropertyOp53
 70
     1
102
RTVSPropertyOp54
 70
     1
102
RTVSPropertyOp55
 70
     1
102
RTVSPropertyOp56
 70
     1
102
RTVSPropertyOp57
 70
     1
102
RTVSPost2010Prop28
280
     0
102
RTVSPost2010PropOp28
 70
     1
102
RTVSPost2010Prop29
280
     1
102
RTVSPost2010PropOp29
 70
     1
102
RTVSPost2010Prop30
280
     1
102
RTVSPost2010PropOp30
 70
     1
102
RTVSPost2010Prop31
280
     0
102
RTVSPost2010PropOp31
 70
     1
102
RTVSPost2010Prop32
280
     0
102
RTVSPost2010PropOp32
 70
     1
102
RTVSPost2010Prop33
280
     0
102
RTVSPost2010PropOp33
 70
     1
102
RTVSPost2010Prop34
280
     0
102
RTVSPost2010PropOp34
 70
     1
102
RTVSPost2010Prop35
280
     0
102
RTVSPost2010PropOp35
 70
     1
102
RTVSPost2010Prop36
280
     0
102
RTVSPost2010PropOp36
 70
     1
102
RTVSPost2010Prop37
 90
       50
102
RTVSPost2010PropOp37
 70
     1
102
RTVSPost2010Prop38
140
0.0
102
RTVSPost2010PropOp38
 70
     1
102
RTVSPost2010Prop39
140
1.0
102
RTVSPost2010PropOp39
 70
     1
102
RTVSPost2010Prop40
 90
        0
102
RTVSPost2010PropOp40
 70
     1
102
RTVSPost2010Prop41ColorIndex
 90
       18
102
RTVSPost2010Prop41ColorRGB
 90
        0
102
RTVSPost2010PropOp41
 70
     1
102
RTVSPost2010Prop42
 90
       50
102
RTVSPost2010PropOp42
 70
     1
102
RTVSPost2010Prop43
 90
        3
102
RTVSPost2010PropOp43
 70
     1
102
RTVSPost2010Prop44ColorIndex
 90
        5
102
RTVSPost2010Prop44ColorRGB
 90
      255
102
RTVSPost2010PropOp44
 70
     1
102
RTVSPost2010Prop45
280
     0
102
RTVSPost2010PropOp45
 70
     1
102
RTVSPost2010Prop46
 90
       50
102
RTVSPost2010PropOp46
 70
     1
102
RTVSPost2010Prop47
 90
       50
102
RTVSPost2010PropOp47
 70
     1
102
RTVSPost2010Prop48
 90
       50
102
RTVSPost2010PropOp48
 70
     1
102
RTVSPost2010Prop49
280
     0
102
RTVSPost2010PropOp49
 70
     1
102
RTVSPost2010Prop50
 90
       50
102
RTVSPost2010PropOp50
 70
     1
102
RTVSPost2010Prop51ColorIndex
 90
      256
102
RTVSPost2010Prop51ColorRGB
 90
-16777216
102
RTVSPost2010PropOp51
 70
     0
102
RTVSPost2010Prop52
140
1.0
102
RTVSPost2010PropOp52
 70
     0
102
RTVSPost2010Prop53
 90
        2
102
RTVSPost2010PropOp53
 70
     1
102
RTVSPost2010Prop54
  1
strokes_ogs.tif
102
RTVSPost2010PropOp54
 70
     1
102
RTVSPost2010Prop55
280
     0
102
RTVSPost2010PropOp55
 70
     1
102
RTVSPost2010Prop56
140
1.0
102
RTVSPost2010PropOp56
 70
     1
102
RTVSPost2010Prop57
140
1.0
102
RTVSPost2010PropOp57
 70
     1
  0
XRECORD
  5
1D2
102
{ACAD_REACTORS
330
1D1
102
}
330
1D1
100
AcDbXrecord
280
     1
102
RTVSPropertyOp0
 70
     0
102
RTVSPropertyOp1
 70
     0
102
RTVSPropertyOp2
 70
     0
102
RTVSPropertyOp3
 70
     0
102
RTVSPropertyOp4
 70
     0
102
RTVSPropertyOp5
 70
     0
102
RTVSPropertyOp6
 70
     0
102
RTVSPropertyOp7
 70
     0
102
RTVSPropertyOp8
 70
     0
102
RTVSPropertyOp9
 70
     0
102
RTVSPropertyOp10
 70
     0
102
RTVSPropertyOp11
 70
     0
102
RTVSPropertyOp12
 70
     0
102
RTVSPropertyOp13
 70
     0
102
RTVSPropertyOp14
 70
     2
102
RTVSPropertyOp15
 70
     0
102
RTVSPropertyOp16
 70
     0
102
RTVSPropertyOp17
 70
     0
102
RTVSPropertyOp18
 70
     0
102
RTVSPropertyOp19
 70
     0
102
RTVSPropertyOp20
 70
     0
102
RTVSPropertyOp21
 70
     0
102
RTVSPropertyOp22
 70
     0
102
RTVSPropertyOp23
 70
     0
102
RTVSPropertyOp24
 70
     0
102
RTVSPropertyOp25
 70
     0
102
RTVSPropertyOp26
 70
     0
102
RTVSPropertyOp27
 70
     0
102
RTVSPropertyOp28
 70
     0
102
RTVSPropertyOp29
 70
     0
102
RTVSPropertyOp30
 70
     0
102
RTVSPropertyOp31
 70
     0
102
RTVSPropertyOp32
 70
     0
102
RTVSPropertyOp33
 70
     0
102
RTVSPropertyOp34
 70
     0
102
RTVSPropertyOp35
 70
     0
102
RTVSPropertyOp36
 70
     0
102
RTVSPropertyOp37
 70
     0
102
RTVSPropertyOp38
 70
     0
102
RTVSPropertyOp39
 70
     0
102
RTVSPropertyOp40
 70
     0
102
RTVSPropertyOp41
 70
     0
102
RTVSPropertyOp42
 70
     0
102
RTVSPropertyOp43
 70
     0
102
RTVSPropertyOp44
 70
     0
102
RTVSPropertyOp45
 70
     0
102
RTVSPropertyOp46
 70
     0
102
RTVSPropertyOp47
 70
     0
102
RTVSPropertyOp48
 70
     0
102
RTVSPropertyOp49
 70
     0
102
RTVSPropertyOp50
 70
     0
102
RTVSPropertyOp51
 70
     0
102
RTVSPropertyOp52
 70
     0
102
RTVSPropertyOp53
 70
     0
102
RTVSPropertyOp54
 70
     0
102
RTVSPropertyOp55
 70
     0
102
RTVSPropertyOp56
 70
     0
102
RTVSPropertyOp57
 70
     0
102
RTVSPost2010Prop28
280
     0
102
RTVSPost2010PropOp28
 70
     0
102
RTVSPost2010Prop29
280
     1
102
RTVSPost2010PropOp29
 70
     0
102
RTVSPost2010Prop30
280
     1
102
RTVSPost2010PropOp30
 70
     0
102
RTVSPost2010Prop31
280
     0
102
RTVSPost2010PropOp31
 70
     0
102
RTVSPost2010Prop32
280
     0
102
RTVSPost2010PropOp32
 70
     0
102
RTVSPost2010Prop33
280
     0
102
RTVSPost2010PropOp33
 70
     0
102
RTVSPost2010Prop34
280
     0
102
RTVSPost2010PropOp34
 70
     0
102
RTVSPost2010Prop35
280
     0
102
RTVSPost2010PropOp35
 70
     0
102
RTVSPost2010Prop36
280
     0
102
RTVSPost2010PropOp36
 70
     0
102
RTVSPost2010Prop37
 90
       50
102
RTVSPost2010PropOp37
 70
     0
102
RTVSPost2010Prop38
140
0.0
102
RTVSPost2010PropOp38
 70
     0
102
RTVSPost2010Prop39
140
1.0
102
RTVSPost2010PropOp39
 70
     0
102
RTVSPost2010Prop40
 90
        0
102
RTVSPost2010PropOp40
 70
     0
102
RTVSPost2010Prop41ColorIndex
 90
       18
102
RTVSPost2010Prop41ColorRGB
 90
        0
102
RTVSPost2010PropOp41
 70
     0
102
RTVSPost2010Prop42
 90
       50
102
RTVSPost2010PropOp42
 70
     0
102
RTVSPost2010Prop43
 90
        3
102
RTVSPost2010PropOp43
 70
     0
102
RTVSPost2010Prop44ColorIndex
 90
        5
102
RTVSPost2010Prop44ColorRGB
 90
      255
102
RTVSPost2010PropOp44
 70
     0
102
RTVSPost2010Prop45
280
     0
102
RTVSPost2010PropOp45
 70
     0
102
RTVSPost2010Prop46
 90
       50
102
RTVSPost2010PropOp46
 70
     0
102
RTVSPost2010Prop47
 90
       50
102
RTVSPost2010PropOp47
 70
     0
102
RTVSPost2010Prop48
 90
       50
102
RTVSPost2010PropOp48
 70
     0
102
RTVSPost2010Prop49
280
     0
102
RTVSPost2010PropOp49
 70
     0
102
RTVSPost2010Prop50
 90
       50
102
RTVSPost2010PropOp50
 70
     0
102
RTVSPost2010Prop51ColorIndex
 90
      256
102
RTVSPost2010Prop51ColorRGB
 90
-16777216
102
RTVSPost2010PropOp51
 70
     0
102
RTVSPost2010Prop52
140
1.0
102
RTVSPost2010PropOp52
 70
     0
102
RTVSPost2010Prop53
 90
        2
102
RTVSPost2010PropOp53
 70
     0
102
RTVSPost2010Prop54
  1
strokes_ogs.tif
102
RTVSPost2010PropOp54
 70
     0
102
RTVSPost2010Prop55
280
     0
102
RTVSPost2010PropOp55
 70
     0
102
RTVSPost2010Prop56
140
1.0
102
RTVSPost2010PropOp56
 70
     0
102
RTVSPost2010Prop57
140
1.0
102
RTVSPost2010PropOp57
 70
     0
  0
XRECORD
  5
1CC
102
{ACAD_REACTORS
330
1CB
102
}
330
1CB
100
AcDbXrecord
280
     1
102
RTVSPropertyOp0
 70
     1
102
RTVSPropertyOp1
 70
     1
102
RTVSPropertyOp2
 70
     1
102
RTVSPropertyOp3
 70
     1
102
RTVSPropertyOp4
 70
     1
102
RTVSPropertyOp5
 70
     1
102
RTVSPropertyOp6
 70
     1
102
RTVSPropertyOp7
 70
     1
102
RTVSPropertyOp8
 70
     1
102
RTVSPropertyOp9
 70
     1
102
RTVSPropertyOp10
 70
     1
102
RTVSPropertyOp11
 70
     1
102
RTVSPropertyOp12
 70
     1
102
RTVSPropertyOp13
 70
     1
102
RTVSPropertyOp14
 70
     1
102
RTVSPropertyOp15
 70
     1
102
RTVSPropertyOp16
 70
     1
102
RTVSPropertyOp17
 70
     1
102
RTVSPropertyOp18
 70
     1
102
RTVSPropertyOp19
 70
     1
102
RTVSPropertyOp20
 70
     1
102
RTVSPropertyOp21
 70
     1
102
RTVSPropertyOp22
 70
     1
102
RTVSPropertyOp23
 70
     1
102
RTVSPropertyOp24
 70
     1
102
RTVSPropertyOp25
 70
     1
102
RTVSPropertyOp26
 70
     1
102
RTVSPropertyOp27
 70
     1
102
RTVSPropertyOp28
 70
     1
102
RTVSPropertyOp29
 70
     1
102
RTVSPropertyOp30
 70
     1
102
RTVSPropertyOp31
 70
     1
102
RTVSPropertyOp32
 70
     1
102
RTVSPropertyOp33
 70
     1
102
RTVSPropertyOp34
 70
     1
102
RTVSPropertyOp35
 70
     1
102
RTVSPropertyOp36
 70
     1
102
RTVSPropertyOp37
 70
     1
102
RTVSPropertyOp38
 70
     1
102
RTVSPropertyOp39
 70
     1
102
RTVSPropertyOp40
 70
     1
102
RTVSPropertyOp41
 70
     1
102
RTVSPropertyOp42
 70
     1
102
RTVSPropertyOp43
 70
     1
102
RTVSPropertyOp44
 70
     1
102
RTVSPropertyOp45
 70
     1
102
RTVSPropertyOp46
 70
     1
102
RTVSPropertyOp47
 70
     1
102
RTVSPropertyOp48
 70
     1
102
RTVSPropertyOp49
 70
     1
102
RTVSPropertyOp50
 70
     1
102
RTVSPropertyOp51
 70
     0
102
RTVSPropertyOp52
 70
     0
102
RTVSPropertyOp53
 70
     1
102
RTVSPropertyOp54
 70
     1
102
RTVSPropertyOp55
 70
     1
102
RTVSPropertyOp56
 70
     1
102
RTVSPropertyOp57
 70
     1
102
RTVSPost2010Prop28
280
     0
102
RTVSPost2010PropOp28
 70
     1
102
RTVSPost2010Prop29
280
     1
102
RTVSPost2010PropOp29
 70
     1
102
RTVSPost2010Prop30
280
     1
102
RTVSPost2010PropOp30
 70
     1
102
RTVSPost2010Prop31
280
     0
102
RTVSPost2010PropOp31
 70
     1
102
RTVSPost2010Prop32
280
     0
102
RTVSPost2010PropOp32
 70
     1
102
RTVSPost2010Prop33
280
     0
102
RTVSPost2010PropOp33
 70
     1
102
RTVSPost2010Prop34
280
     0
102
RTVSPost2010PropOp34
 70
     1
102
RTVSPost2010Prop35
280
     0
102
RTVSPost2010PropOp35
 70
     1
102
RTVSPost2010Prop36
280
     0
102
RTVSPost2010PropOp36
 70
     1
102
RTVSPost2010Prop37
 90
       50
102
RTVSPost2010PropOp37
 70
     1
102
RTVSPost2010Prop38
140
0.0
102
RTVSPost2010PropOp38
 70
     1
102
RTVSPost2010Prop39
140
1.0
102
RTVSPost2010PropOp39
 70
     1
102
RTVSPost2010Prop40
 90
        0
102
RTVSPost2010PropOp40
 70
     1
102
RTVSPost2010Prop41ColorIndex
 90
       18
102
RTVSPost2010Prop41ColorRGB
 90
        0
102
RTVSPost2010PropOp41
 70
     1
102
RTVSPost2010Prop42
 90
       50
102
RTVSPost2010PropOp42
 70
     1
102
RTVSPost2010Prop43
 90
        3
102
RTVSPost2010PropOp43
 70
     1
102
RTVSPost2010Prop44ColorIndex
 90
        5
102
RTVSPost2010Prop44ColorRGB
 90
      255
102
RTVSPost2010PropOp44
 70
     1
102
RTVSPost2010Prop45
280
     0
102
RTVSPost2010PropOp45
 70
     1
102
RTVSPost2010Prop46
 90
       50
102
RTVSPost2010PropOp46
 70
     1
102
RTVSPost2010Prop47
 90
       50
102
RTVSPost2010PropOp47
 70
     1
102
RTVSPost2010Prop48
 90
       50
102
RTVSPost2010PropOp48
 70
     1
102
RTVSPost2010Prop49
280
     0
102
RTVSPost2010PropOp49
 70
     1
102
RTVSPost2010Prop50
 90
       50
102
RTVSPost2010PropOp50
 70
     1
102
RTVSPost2010Prop51ColorIndex
 90
      256
102
RTVSPost2010Prop51ColorRGB
 90
-16777216
102
RTVSPost2010PropOp51
 70
     0
102
RTVSPost2010Prop52
140
1.0
102
RTVSPost2010PropOp52
 70
     0
102
RTVSPost2010Prop53
 90
        2
102
RTVSPost2010PropOp53
 70
     1
102
RTVSPost2010Prop54
  1
strokes_ogs.tif
102
RTVSPost2010PropOp54
 70
     1
102
RTVSPost2010Prop55
280
     0
102
RTVSPost2010PropOp55
 70
     1
102
RTVSPost2010Prop56
140
1.0
102
RTVSPost2010PropOp56
 70
     1
102
RTVSPost2010Prop57
140
1.0
102
RTVSPost2010PropOp57
 70
     1
  0
XRECORD
  5
1D4
102
{ACAD_REACTORS
330
1D3
102
}
330
1D3
100
AcDbXrecord
280
     1
102
RTVSPropertyOp0
 70
     0
102
RTVSPropertyOp1
 70
     0
102
RTVSPropertyOp2
 70
     0
102
RTVSPropertyOp3
 70
     0
102
RTVSPropertyOp4
 70
     0
102
RTVSPropertyOp5
 70
     0
102
RTVSPropertyOp6
 70
     0
102
RTVSPropertyOp7
 70
     0
102
RTVSPropertyOp8
 70
     0
102
RTVSPropertyOp9
 70
     0
102
RTVSPropertyOp10
 70
     0
102
RTVSPropertyOp11
 70
     0
102
RTVSPropertyOp12
 70
     0
102
RTVSPropertyOp13
 70
     0
102
RTVSPropertyOp14
 70
     2
102
RTVSPropertyOp15
 70
     0
102
RTVSPropertyOp16
 70
     0
102
RTVSPropertyOp17
 70
     0
102
RTVSPropertyOp18
 70
     0
102
RTVSPropertyOp19
 70
     0
102
RTVSPropertyOp20
 70
     0
102
RTVSPropertyOp21
 70
     0
102
RTVSPropertyOp22
 70
     0
102
RTVSPropertyOp23
 70
     0
102
RTVSPropertyOp24
 70
     0
102
RTVSPropertyOp25
 70
     0
102
RTVSPropertyOp26
 70
     0
102
RTVSPropertyOp27
 70
     0
102
RTVSPropertyOp28
 70
     0
102
RTVSPropertyOp29
 70
     0
102
RTVSPropertyOp30
 70
     0
102
RTVSPropertyOp31
 70
     0
102
RTVSPropertyOp32
 70
     0
102
RTVSPropertyOp33
 70
     0
102
RTVSPropertyOp34
 70
     0
102
RTVSPropertyOp35
 70
     0
102
RTVSPropertyOp36
 70
     0
102
RTVSPropertyOp37
 70
     0
102
RTVSPropertyOp38
 70
     0
102
RTVSPropertyOp39
 70
     0
102
RTVSPropertyOp40
 70
     0
102
RTVSPropertyOp41
 70
     0
102
RTVSPropertyOp42
 70
     0
102
RTVSPropertyOp43
 70
     0
102
RTVSPropertyOp44
 70
     0
102
RTVSPropertyOp45
 70
     0
102
RTVSPropertyOp46
 70
     0
102
RTVSPropertyOp47
 70
     0
102
RTVSPropertyOp48
 70
     0
102
RTVSPropertyOp49
 70
     0
102
RTVSPropertyOp50
 70
     0
102
RTVSPropertyOp51
 70
     0
102
RTVSPropertyOp52
 70
     0
102
RTVSPropertyOp53
 70
     0
102
RTVSPropertyOp54
 70
     0
102
RTVSPropertyOp55
 70
     0
102
RTVSPropertyOp56
 70
     0
102
RTVSPropertyOp57
 70
     0
102
RTVSPost2010Prop28
280
     0
102
RTVSPost2010PropOp28
 70
     0
102
RTVSPost2010Prop29
280
     1
102
RTVSPost2010PropOp29
 70
     0
102
RTVSPost2010Prop30
280
     1
102
RTVSPost2010PropOp30
 70
     0
102
RTVSPost2010Prop31
280
     0
102
RTVSPost2010PropOp31
 70
     0
102
RTVSPost2010Prop32
280
     0
102
RTVSPost2010PropOp32
 70
     0
102
RTVSPost2010Prop33
280
     0
102
RTVSPost2010PropOp33
 70
     0
102
RTVSPost2010Prop34
280
     0
102
RTVSPost2010PropOp34
 70
     0
102
RTVSPost2010Prop35
280
     0
102
RTVSPost2010PropOp35
 70
     0
102
RTVSPost2010Prop36
280
     0
102
RTVSPost2010PropOp36
 70
     0
102
RTVSPost2010Prop37
 90
       50
102
RTVSPost2010PropOp37
 70
     0
102
RTVSPost2010Prop38
140
0.0
102
RTVSPost2010PropOp38
 70
     0
102
RTVSPost2010Prop39
140
1.0
102
RTVSPost2010PropOp39
 70
     0
102
RTVSPost2010Prop40
 90
        0
102
RTVSPost2010PropOp40
 70
     0
102
RTVSPost2010Prop41ColorIndex
 90
       18
102
RTVSPost2010Prop41ColorRGB
 90
        0
102
RTVSPost2010PropOp41
 70
     0
102
RTVSPost2010Prop42
 90
       50
102
RTVSPost2010PropOp42
 70
     0
102
RTVSPost2010Prop43
 90
        3
102
RTVSPost2010PropOp43
 70
     0
102
RTVSPost2010Prop44ColorIndex
 90
        5
102
RTVSPost2010Prop44ColorRGB
 90
      255
102
RTVSPost2010PropOp44
 70
     0
102
RTVSPost2010Prop45
280
     0
102
RTVSPost2010PropOp45
 70
     0
102
RTVSPost2010Prop46
 90
       50
102
RTVSPost2010PropOp46
 70
     0
102
RTVSPost2010Prop47
 90
       50
102
RTVSPost2010PropOp47
 70
     0
102
RTVSPost2010Prop48
 90
       50
102
RTVSPost2010PropOp48
 70
     0
102
RTVSPost2010Prop49
280
     0
102
RTVSPost2010PropOp49
 70
     0
102
RTVSPost2010Prop50
 90
       50
102
RTVSPost2010PropOp50
 70
     0
102
RTVSPost2010Prop51ColorIndex
 90
      256
102
RTVSPost2010Prop51ColorRGB
 90
-16777216
102
RTVSPost2010PropOp51
 70
     0
102
RTVSPost2010Prop52
140
1.0
102
RTVSPost2010PropOp52
 70
     0
102
RTVSPost2010Prop53
 90
        2
102
RTVSPost2010PropOp53
 70
     0
102
RTVSPost2010Prop54
  1
strokes_ogs.tif
102
RTVSPost2010PropOp54
 70
     0
102
RTVSPost2010Prop55
280
     0
102
RTVSPost2010PropOp55
 70
     0
102
RTVSPost2010Prop56
140
1.0
102
RTVSPost2010PropOp56
 70
     0
102
RTVSPost2010Prop57
140
1.0
102
RTVSPost2010PropOp57
 70
     0
  0
XRECORD
  5
1C2
102
{ACAD_REACTORS
330
1C1
102
}
330
1C1
100
AcDbXrecord
280
     1
102
RTVSPropertyOp0
 70
     1
102
RTVSPropertyOp1
 70
     1
102
RTVSPropertyOp2
 70
     1
102
RTVSPropertyOp3
 70
     1
102
RTVSPropertyOp4
 70
     1
102
RTVSPropertyOp5
 70
     1
102
RTVSPropertyOp6
 70
     1
102
RTVSPropertyOp7
 70
     1
102
RTVSPropertyOp8
 70
     1
102
RTVSPropertyOp9
 70
     1
102
RTVSPropertyOp10
 70
     1
102
RTVSPropertyOp11
 70
     1
102
RTVSPropertyOp12
 70
     1
102
RTVSPropertyOp13
 70
     1
102
RTVSPropertyOp14
 70
     1
102
RTVSPropertyOp15
 70
     1
102
RTVSPropertyOp16
 70
     1
102
RTVSPropertyOp17
 70
     1
102
RTVSPropertyOp18
 70
     1
102
RTVSPropertyOp19
 70
     1
102
RTVSPropertyOp20
 70
     1
102
RTVSPropertyOp21
 70
     1
102
RTVSPropertyOp22
 70
     1
102
RTVSPropertyOp23
 70
     1
102
RTVSPropertyOp24
 70
     1
102
RTVSPropertyOp25
 70
     1
102
RTVSPropertyOp26
 70
     1
102
RTVSPropertyOp27
 70
     1
102
RTVSPropertyOp28
 70
     1
102
RTVSPropertyOp29
 70
     1
102
RTVSPropertyOp30
 70
     1
102
RTVSPropertyOp31
 70
     1
102
RTVSPropertyOp32
 70
     1
102
RTVSPropertyOp33
 70
     1
102
RTVSPropertyOp34
 70
     1
102
RTVSPropertyOp35
 70
     1
102
RTVSPropertyOp36
 70
     1
102
RTVSPropertyOp37
 70
     1
102
RTVSPropertyOp38
 70
     1
102
RTVSPropertyOp39
 70
     1
102
RTVSPropertyOp40
 70
     1
102
RTVSPropertyOp41
 70
     1
102
RTVSPropertyOp42
 70
     1
102
RTVSPropertyOp43
 70
     1
102
RTVSPropertyOp44
 70
     1
102
RTVSPropertyOp45
 70
     1
102
RTVSPropertyOp46
 70
     1
102
RTVSPropertyOp47
 70
     1
102
RTVSPropertyOp48
 70
     1
102
RTVSPropertyOp49
 70
     1
102
RTVSPropertyOp50
 70
     1
102
RTVSPropertyOp51
 70
     0
102
RTVSPropertyOp52
 70
     0
102
RTVSPropertyOp53
 70
     1
102
RTVSPropertyOp54
 70
     1
102
RTVSPropertyOp55
 70
     1
102
RTVSPropertyOp56
 70
     1
102
RTVSPropertyOp57
 70
     1
102
RTVSPost2010Prop28
280
     0
102
RTVSPost2010PropOp28
 70
     1
102
RTVSPost2010Prop29
280
     1
102
RTVSPost2010PropOp29
 70
     1
102
RTVSPost2010Prop30
280
     1
102
RTVSPost2010PropOp30
 70
     1
102
RTVSPost2010Prop31
280
     0
102
RTVSPost2010PropOp31
 70
     1
102
RTVSPost2010Prop32
280
     0
102
RTVSPost2010PropOp32
 70
     1
102
RTVSPost2010Prop33
280
     0
102
RTVSPost2010PropOp33
 70
     1
102
RTVSPost2010Prop34
280
     0
102
RTVSPost2010PropOp34
 70
     1
102
RTVSPost2010Prop35
280
     0
102
RTVSPost2010PropOp35
 70
     1
102
RTVSPost2010Prop36
280
     0
102
RTVSPost2010PropOp36
 70
     1
102
RTVSPost2010Prop37
 90
       50
102
RTVSPost2010PropOp37
 70
     1
102
RTVSPost2010Prop38
140
0.0
102
RTVSPost2010PropOp38
 70
     1
102
RTVSPost2010Prop39
140
1.0
102
RTVSPost2010PropOp39
 70
     1
102
RTVSPost2010Prop40
 90
        0
102
RTVSPost2010PropOp40
 70
     1
102
RTVSPost2010Prop41ColorIndex
 90
       18
102
RTVSPost2010Prop41ColorRGB
 90
        0
102
RTVSPost2010PropOp41
 70
     1
102
RTVSPost2010Prop42
 90
       50
102
RTVSPost2010PropOp42
 70
     1
102
RTVSPost2010Prop43
 90
        3
102
RTVSPost2010PropOp43
 70
     1
102
RTVSPost2010Prop44ColorIndex
 90
        5
102
RTVSPost2010Prop44ColorRGB
 90
      255
102
RTVSPost2010PropOp44
 70
     1
102
RTVSPost2010Prop45
280
     0
102
RTVSPost2010PropOp45
 70
     1
102
RTVSPost2010Prop46
 90
       50
102
RTVSPost2010PropOp46
 70
     1
102
RTVSPost2010Prop47
 90
       50
102
RTVSPost2010PropOp47
 70
     1
102
RTVSPost2010Prop48
 90
       50
102
RTVSPost2010PropOp48
 70
     1
102
RTVSPost2010Prop49
280
     0
102
RTVSPost2010PropOp49
 70
     1
102
RTVSPost2010Prop50
 90
       50
102
RTVSPost2010PropOp50
 70
     1
102
RTVSPost2010Prop51ColorIndex
 90
      256
102
RTVSPost2010Prop51ColorRGB
 90
-16777216
102
RTVSPost2010PropOp51
 70
     0
102
RTVSPost2010Prop52
140
1.0
102
RTVSPost2010PropOp52
 70
     0
102
RTVSPost2010Prop53
 90
        2
102
RTVSPost2010PropOp53
 70
     1
102
RTVSPost2010Prop54
  1
strokes_ogs.tif
102
RTVSPost2010PropOp54
 70
     1
102
RTVSPost2010Prop55
280
     0
102
RTVSPost2010PropOp55
 70
     1
102
RTVSPost2010Prop56
140
1.0
102
RTVSPost2010PropOp56
 70
     1
102
RTVSPost2010Prop57
140
1.0
102
RTVSPost2010PropOp57
 70
     1
  0
XRECORD
  5
1E0
102
{ACAD_REACTORS
330
1DF
102
}
330
1DF
100
AcDbXrecord
280
     1
102
RTVSPropertyOp0
 70
     1
102
RTVSPropertyOp1
 70
     1
102
RTVSPropertyOp2
 70
     1
102
RTVSPropertyOp3
 70
     1
102
RTVSPropertyOp4
 70
     1
102
RTVSPropertyOp5
 70
     1
102
RTVSPropertyOp6
 70
     1
102
RTVSPropertyOp7
 70
     1
102
RTVSPropertyOp8
 70
     1
102
RTVSPropertyOp9
 70
     1
102
RTVSPropertyOp10
 70
     1
102
RTVSPropertyOp11
 70
     1
102
RTVSPropertyOp12
 70
     1
102
RTVSPropertyOp13
 70
     1
102
RTVSPropertyOp14
 70
     1
102
RTVSPropertyOp15
 70
     1
102
RTVSPropertyOp16
 70
     1
102
RTVSPropertyOp17
 70
     1
102
RTVSPropertyOp18
 70
     1
102
RTVSPropertyOp19
 70
     1
102
RTVSPropertyOp20
 70
     1
102
RTVSPropertyOp21
 70
     1
102
RTVSPropertyOp22
 70
     1
102
RTVSPropertyOp23
 70
     1
102
RTVSPropertyOp24
 70
     1
102
RTVSPropertyOp25
 70
     1
102
RTVSPropertyOp26
 70
     1
102
RTVSPropertyOp27
 70
     1
102
RTVSPropertyOp28
 70
     1
102
RTVSPropertyOp29
 70
     1
102
RTVSPropertyOp30
 70
     1
102
RTVSPropertyOp31
 70
     1
102
RTVSPropertyOp32
 70
     1
102
RTVSPropertyOp33
 70
     1
102
RTVSPropertyOp34
 70
     1
102
RTVSPropertyOp35
 70
     1
102
RTVSPropertyOp36
 70
     1
102
RTVSPropertyOp37
 70
     1
102
RTVSPropertyOp38
 70
     1
102
RTVSPropertyOp39
 70
     1
102
RTVSPropertyOp40
 70
     1
102
RTVSPropertyOp41
 70
     1
102
RTVSPropertyOp42
 70
     1
102
RTVSPropertyOp43
 70
     1
102
RTVSPropertyOp44
 70
     1
102
RTVSPropertyOp45
 70
     1
102
RTVSPropertyOp46
 70
     1
102
RTVSPropertyOp47
 70
     1
102
RTVSPropertyOp48
 70
     1
102
RTVSPropertyOp49
 70
     1
102
RTVSPropertyOp50
 70
     1
102
RTVSPropertyOp51
 70
     0
102
RTVSPropertyOp52
 70
     0
102
RTVSPropertyOp53
 70
     1
102
RTVSPropertyOp54
 70
     1
102
RTVSPropertyOp55
 70
     1
102
RTVSPropertyOp56
 70
     1
102
RTVSPropertyOp57
 70
     1
102
RTVSPost2010Prop28
280
     0
102
RTVSPost2010PropOp28
 70
     1
102
RTVSPost2010Prop29
280
     1
102
RTVSPost2010PropOp29
 70
     1
102
RTVSPost2010Prop30
280
     1
102
RTVSPost2010PropOp30
 70
     1
102
RTVSPost2010Prop31
280
     0
102
RTVSPost2010PropOp31
 70
     1
102
RTVSPost2010Prop32
280
     0
102
RTVSPost2010PropOp32
 70
     1
102
RTVSPost2010Prop33
280
     0
102
RTVSPost2010PropOp33
 70
     1
102
RTVSPost2010Prop34
280
     0
102
RTVSPost2010PropOp34
 70
     1
102
RTVSPost2010Prop35
280
     0
102
RTVSPost2010PropOp35
 70
     1
102
RTVSPost2010Prop36
280
     0
102
RTVSPost2010PropOp36
 70
     1
102
RTVSPost2010Prop37
 90
       50
102
RTVSPost2010PropOp37
 70
     1
102
RTVSPost2010Prop38
140
0.0
102
RTVSPost2010PropOp38
 70
     1
102
RTVSPost2010Prop39
140
1.0
102
RTVSPost2010PropOp39
 70
     1
102
RTVSPost2010Prop40
 90
        0
102
RTVSPost2010PropOp40
 70
     1
102
RTVSPost2010Prop41ColorIndex
 90
       18
102
RTVSPost2010Prop41ColorRGB
 90
        0
102
RTVSPost2010PropOp41
 70
     1
102
RTVSPost2010Prop42
 90
       50
102
RTVSPost2010PropOp42
 70
     1
102
RTVSPost2010Prop43
 90
        3
102
RTVSPost2010PropOp43
 70
     1
102
RTVSPost2010Prop44ColorIndex
 90
        5
102
RTVSPost2010Prop44ColorRGB
 90
      255
102
RTVSPost2010PropOp44
 70
     1
102
RTVSPost2010Prop45
280
     0
102
RTVSPost2010PropOp45
 70
     1
102
RTVSPost2010Prop46
 90
       50
102
RTVSPost2010PropOp46
 70
     1
102
RTVSPost2010Prop47
 90
       50
102
RTVSPost2010PropOp47
 70
     1
102
RTVSPost2010Prop48
 90
       50
102
RTVSPost2010PropOp48
 70
     1
102
RTVSPost2010Prop49
280
     0
102
RTVSPost2010PropOp49
 70
     1
102
RTVSPost2010Prop50
 90
       50
102
RTVSPost2010PropOp50
 70
     1
102
RTVSPost2010Prop51ColorIndex
 90
      256
102
RTVSPost2010Prop51ColorRGB
 90
-16777216
102
RTVSPost2010PropOp51
 70
     0
102
RTVSPost2010Prop52
140
1.0
102
RTVSPost2010PropOp52
 70
     0
102
RTVSPost2010Prop53
 90
        2
102
RTVSPost2010PropOp53
 70
     1
102
RTVSPost2010Prop54
  1
strokes_ogs.tif
102
RTVSPost2010PropOp54
 70
     1
102
RTVSPost2010Prop55
280
     0
102
RTVSPost2010PropOp55
 70
     1
102
RTVSPost2010Prop56
140
1.0
102
RTVSPost2010PropOp56
 70
     1
102
RTVSPost2010Prop57
140
1.0
102
RTVSPost2010PropOp57
 70
     1
  0
XRECORD
  5
1DE
102
{ACAD_REACTORS
330
1DD
102
}
330
1DD
100
AcDbXrecord
280
     1
102
RTVSPropertyOp0
 70
     1
102
RTVSPropertyOp1
 70
     1
102
RTVSPropertyOp2
 70
     1
102
RTVSPropertyOp3
 70
     1
102
RTVSPropertyOp4
 70
     1
102
RTVSPropertyOp5
 70
     1
102
RTVSPropertyOp6
 70
     1
102
RTVSPropertyOp7
 70
     1
102
RTVSPropertyOp8
 70
     1
102
RTVSPropertyOp9
 70
     1
102
RTVSPropertyOp10
 70
     1
102
RTVSPropertyOp11
 70
     1
102
RTVSPropertyOp12
 70
     1
102
RTVSPropertyOp13
 70
     1
102
RTVSPropertyOp14
 70
     1
102
RTVSPropertyOp15
 70
     1
102
RTVSPropertyOp16
 70
     1
102
RTVSPropertyOp17
 70
     1
102
RTVSPropertyOp18
 70
     1
102
RTVSPropertyOp19
 70
     1
102
RTVSPropertyOp20
 70
     1
102
RTVSPropertyOp21
 70
     1
102
RTVSPropertyOp22
 70
     1
102
RTVSPropertyOp23
 70
     1
102
RTVSPropertyOp24
 70
     1
102
RTVSPropertyOp25
 70
     1
102
RTVSPropertyOp26
 70
     1
102
RTVSPropertyOp27
 70
     1
102
RTVSPropertyOp28
 70
     1
102
RTVSPropertyOp29
 70
     1
102
RTVSPropertyOp30
 70
     1
102
RTVSPropertyOp31
 70
     1
102
RTVSPropertyOp32
 70
     1
102
RTVSPropertyOp33
 70
     1
102
RTVSPropertyOp34
 70
     1
102
RTVSPropertyOp35
 70
     1
102
RTVSPropertyOp36
 70
     1
102
RTVSPropertyOp37
 70
     1
102
RTVSPropertyOp38
 70
     1
102
RTVSPropertyOp39
 70
     1
102
RTVSPropertyOp40
 70
     1
102
RTVSPropertyOp41
 70
     1
102
RTVSPropertyOp42
 70
     1
102
RTVSPropertyOp43
 70
     1
102
RTVSPropertyOp44
 70
     1
102
RTVSPropertyOp45
 70
     1
102
RTVSPropertyOp46
 70
     1
102
RTVSPropertyOp47
 70
     1
102
RTVSPropertyOp48
 70
     1
102
RTVSPropertyOp49
 70
     1
102
RTVSPropertyOp50
 70
     1
102
RTVSPropertyOp51
 70
     0
102
RTVSPropertyOp52
 70
     0
102
RTVSPropertyOp53
 70
     1
102
RTVSPropertyOp54
 70
     1
102
RTVSPropertyOp55
 70
     1
102
RTVSPropertyOp56
 70
     1
102
RTVSPropertyOp57
 70
     1
102
RTVSPost2010Prop28
280
     0
102
RTVSPost2010PropOp28
 70
     1
102
RTVSPost2010Prop29
280
     1
102
RTVSPost2010PropOp29
 70
     1
102
RTVSPost2010Prop30
280
     1
102
RTVSPost2010PropOp30
 70
     1
102
RTVSPost2010Prop31
280
     0
102
RTVSPost2010PropOp31
 70
     1
102
RTVSPost2010Prop32
280
     0
102
RTVSPost2010PropOp32
 70
     1
102
RTVSPost2010Prop33
280
     0
102
RTVSPost2010PropOp33
 70
     1
102
RTVSPost2010Prop34
280
     0
102
RTVSPost2010PropOp34
 70
     1
102
RTVSPost2010Prop35
280
     0
102
RTVSPost2010PropOp35
 70
     1
102
RTVSPost2010Prop36
280
     0
102
RTVSPost2010PropOp36
 70
     1
102
RTVSPost2010Prop37
 90
       50
102
RTVSPost2010PropOp37
 70
     1
102
RTVSPost2010Prop38
140
0.0
102
RTVSPost2010PropOp38
 70
     1
102
RTVSPost2010Prop39
140
1.0
102
RTVSPost2010PropOp39
 70
     1
102
RTVSPost2010Prop40
 90
        0
102
RTVSPost2010PropOp40
 70
     1
102
RTVSPost2010Prop41ColorIndex
 90
       18
102
RTVSPost2010Prop41ColorRGB
 90
        0
102
RTVSPost2010PropOp41
 70
     1
102
RTVSPost2010Prop42
 90
       50
102
RTVSPost2010PropOp42
 70
     1
102
RTVSPost2010Prop43
 90
        3
102
RTVSPost2010PropOp43
 70
     1
102
RTVSPost2010Prop44ColorIndex
 90
        5
102
RTVSPost2010Prop44ColorRGB
 90
      255
102
RTVSPost2010PropOp44
 70
     1
102
RTVSPost2010Prop45
280
     0
102
RTVSPost2010PropOp45
 70
     1
102
RTVSPost2010Prop46
 90
       50
102
RTVSPost2010PropOp46
 70
     1
102
RTVSPost2010Prop47
 90
       50
102
RTVSPost2010PropOp47
 70
     1
102
RTVSPost2010Prop48
 90
       50
102
RTVSPost2010PropOp48
 70
     1
102
RTVSPost2010Prop49
280
     0
102
RTVSPost2010PropOp49
 70
     1
102
RTVSPost2010Prop50
 90
       50
102
RTVSPost2010PropOp50
 70
     1
102
RTVSPost2010Prop51ColorIndex
 90
      256
102
RTVSPost2010Prop51ColorRGB
 90
-16777216
102
RTVSPost2010PropOp51
 70
     0
102
RTVSPost2010Prop52
140
1.0
102
RTVSPost2010PropOp52
 70
     0
102
RTVSPost2010Prop53
 90
        2
102
RTVSPost2010PropOp53
 70
     1
102
RTVSPost2010Prop54
  1
strokes_ogs.tif
102
RTVSPost2010PropOp54
 70
     1
102
RTVSPost2010Prop55
280
     0
102
RTVSPost2010PropOp55
 70
     1
102
RTVSPost2010Prop56
140
1.0
102
RTVSPost2010PropOp56
 70
     1
102
RTVSPost2010Prop57
140
1.0
102
RTVSPost2010PropOp57
 70
     1
  0
XRECORD
  5
1D8
102
{ACAD_REACTORS
330
1D7
102
}
330
1D7
100
AcDbXrecord
280
     1
102
RTVSPropertyOp0
 70
     1
102
RTVSPropertyOp1
 70
     1
102
RTVSPropertyOp2
 70
     1
102
RTVSPropertyOp3
 70
     1
102
RTVSPropertyOp4
 70
     1
102
RTVSPropertyOp5
 70
     1
102
RTVSPropertyOp6
 70
     1
102
RTVSPropertyOp7
 70
     1
102
RTVSPropertyOp8
 70
     1
102
RTVSPropertyOp9
 70
     1
102
RTVSPropertyOp10
 70
     1
102
RTVSPropertyOp11
 70
     1
102
RTVSPropertyOp12
 70
     1
102
RTVSPropertyOp13
 70
     1
102
RTVSPropertyOp14
 70
     1
102
RTVSPropertyOp15
 70
     1
102
RTVSPropertyOp16
 70
     1
102
RTVSPropertyOp17
 70
     1
102
RTVSPropertyOp18
 70
     1
102
RTVSPropertyOp19
 70
     1
102
RTVSPropertyOp20
 70
     1
102
RTVSPropertyOp21
 70
     1
102
RTVSPropertyOp22
 70
     1
102
RTVSPropertyOp23
 70
     1
102
RTVSPropertyOp24
 70
     1
102
RTVSPropertyOp25
 70
     1
102
RTVSPropertyOp26
 70
     1
102
RTVSPropertyOp27
 70
     1
102
RTVSPropertyOp28
 70
     1
102
RTVSPropertyOp29
 70
     1
102
RTVSPropertyOp30
 70
     1
102
RTVSPropertyOp31
 70
     1
102
RTVSPropertyOp32
 70
     1
102
RTVSPropertyOp33
 70
     1
102
RTVSPropertyOp34
 70
     1
102
RTVSPropertyOp35
 70
     1
102
RTVSPropertyOp36
 70
     1
102
RTVSPropertyOp37
 70
     1
102
RTVSPropertyOp38
 70
     1
102
RTVSPropertyOp39
 70
     1
102
RTVSPropertyOp40
 70
     1
102
RTVSPropertyOp41
 70
     1
102
RTVSPropertyOp42
 70
     1
102
RTVSPropertyOp43
 70
     1
102
RTVSPropertyOp44
 70
     1
102
RTVSPropertyOp45
 70
     1
102
RTVSPropertyOp46
 70
     1
102
RTVSPropertyOp47
 70
     1
102
RTVSPropertyOp48
 70
     1
102
RTVSPropertyOp49
 70
     1
102
RTVSPropertyOp50
 70
     1
102
RTVSPropertyOp51
 70
     0
102
RTVSPropertyOp52
 70
     0
102
RTVSPropertyOp53
 70
     1
102
RTVSPropertyOp54
 70
     1
102
RTVSPropertyOp55
 70
     1
102
RTVSPropertyOp56
 70
     1
102
RTVSPropertyOp57
 70
     1
102
RTVSPost2010Prop28
280
     0
102
RTVSPost2010PropOp28
 70
     1
102
RTVSPost2010Prop29
280
     1
102
RTVSPost2010PropOp29
 70
     1
102
RTVSPost2010Prop30
280
     1
102
RTVSPost2010PropOp30
 70
     1
102
RTVSPost2010Prop31
280
     0
102
RTVSPost2010PropOp31
 70
     1
102
RTVSPost2010Prop32
280
     0
102
RTVSPost2010PropOp32
 70
     1
102
RTVSPost2010Prop33
280
     0
102
RTVSPost2010PropOp33
 70
     1
102
RTVSPost2010Prop34
280
     0
102
RTVSPost2010PropOp34
 70
     1
102
RTVSPost2010Prop35
280
     0
102
RTVSPost2010PropOp35
 70
     1
102
RTVSPost2010Prop36
280
     0
102
RTVSPost2010PropOp36
 70
     1
102
RTVSPost2010Prop37
 90
       50
102
RTVSPost2010PropOp37
 70
     1
102
RTVSPost2010Prop38
140
0.0
102
RTVSPost2010PropOp38
 70
     1
102
RTVSPost2010Prop39
140
1.0
102
RTVSPost2010PropOp39
 70
     1
102
RTVSPost2010Prop40
 90
        0
102
RTVSPost2010PropOp40
 70
     1
102
RTVSPost2010Prop41ColorIndex
 90
       18
102
RTVSPost2010Prop41ColorRGB
 90
        0
102
RTVSPost2010PropOp41
 70
     1
102
RTVSPost2010Prop42
 90
       50
102
RTVSPost2010PropOp42
 70
     1
102
RTVSPost2010Prop43
 90
        3
102
RTVSPost2010PropOp43
 70
     1
102
RTVSPost2010Prop44ColorIndex
 90
        5
102
RTVSPost2010Prop44ColorRGB
 90
      255
102
RTVSPost2010PropOp44
 70
     1
102
RTVSPost2010Prop45
280
     0
102
RTVSPost2010PropOp45
 70
     1
102
RTVSPost2010Prop46
 90
       50
102
RTVSPost2010PropOp46
 70
     1
102
RTVSPost2010Prop47
 90
       50
102
RTVSPost2010PropOp47
 70
     1
102
RTVSPost2010Prop48
 90
       50
102
RTVSPost2010PropOp48
 70
     1
102
RTVSPost2010Prop49
280
     0
102
RTVSPost2010PropOp49
 70
     1
102
RTVSPost2010Prop50
 90
       50
102
RTVSPost2010PropOp50
 70
     1
102
RTVSPost2010Prop51ColorIndex
 90
      256
102
RTVSPost2010Prop51ColorRGB
 90
-16777216
102
RTVSPost2010PropOp51
 70
     0
102
RTVSPost2010Prop52
140
1.0
102
RTVSPost2010PropOp52
 70
     0
102
RTVSPost2010Prop53
 90
        2
102
RTVSPost2010PropOp53
 70
     1
102
RTVSPost2010Prop54
  1
strokes_ogs.tif
102
RTVSPost2010PropOp54
 70
     1
102
RTVSPost2010Prop55
280
     0
102
RTVSPost2010PropOp55
 70
     1
102
RTVSPost2010Prop56
140
1.0
102
RTVSPost2010PropOp56
 70
     1
102
RTVSPost2010Prop57
140
1.0
102
RTVSPost2010PropOp57
 70
     1
  0
XRECORD
  5
1DA
102
{ACAD_REACTORS
330
1D9
102
}
330
1D9
100
AcDbXrecord
280
     1
102
RTVSPropertyOp0
 70
     1
102
RTVSPropertyOp1
 70
     1
102
RTVSPropertyOp2
 70
     1
102
RTVSPropertyOp3
 70
     1
102
RTVSPropertyOp4
 70
     1
102
RTVSPropertyOp5
 70
     1
102
RTVSPropertyOp6
 70
     1
102
RTVSPropertyOp7
 70
     1
102
RTVSPropertyOp8
 70
     1
102
RTVSPropertyOp9
 70
     1
102
RTVSPropertyOp10
 70
     1
102
RTVSPropertyOp11
 70
     1
102
RTVSPropertyOp12
 70
     1
102
RTVSPropertyOp13
 70
     1
102
RTVSPropertyOp14
 70
     1
102
RTVSPropertyOp15
 70
     1
102
RTVSPropertyOp16
 70
     1
102
RTVSPropertyOp17
 70
     1
102
RTVSPropertyOp18
 70
     1
102
RTVSPropertyOp19
 70
     1
102
RTVSPropertyOp20
 70
     1
102
RTVSPropertyOp21
 70
     1
102
RTVSPropertyOp22
 70
     1
102
RTVSPropertyOp23
 70
     1
102
RTVSPropertyOp24
 70
     1
102
RTVSPropertyOp25
 70
     1
102
RTVSPropertyOp26
 70
     1
102
RTVSPropertyOp27
 70
     1
102
RTVSPropertyOp28
 70
     1
102
RTVSPropertyOp29
 70
     1
102
RTVSPropertyOp30
 70
     1
102
RTVSPropertyOp31
 70
     1
102
RTVSPropertyOp32
 70
     1
102
RTVSPropertyOp33
 70
     1
102
RTVSPropertyOp34
 70
     1
102
RTVSPropertyOp35
 70
     1
102
RTVSPropertyOp36
 70
     1
102
RTVSPropertyOp37
 70
     1
102
RTVSPropertyOp38
 70
     1
102
RTVSPropertyOp39
 70
     1
102
RTVSPropertyOp40
 70
     1
102
RTVSPropertyOp41
 70
     1
102
RTVSPropertyOp42
 70
     1
102
RTVSPropertyOp43
 70
     1
102
RTVSPropertyOp44
 70
     1
102
RTVSPropertyOp45
 70
     1
102
RTVSPropertyOp46
 70
     1
102
RTVSPropertyOp47
 70
     1
102
RTVSPropertyOp48
 70
     1
102
RTVSPropertyOp49
 70
     1
102
RTVSPropertyOp50
 70
     1
102
RTVSPropertyOp51
 70
     0
102
RTVSPropertyOp52
 70
     0
102
RTVSPropertyOp53
 70
     1
102
RTVSPropertyOp54
 70
     1
102
RTVSPropertyOp55
 70
     1
102
RTVSPropertyOp56
 70
     1
102
RTVSPropertyOp57
 70
     1
102
RTVSPost2010Prop28
280
     0
102
RTVSPost2010PropOp28
 70
     1
102
RTVSPost2010Prop29
280
     1
102
RTVSPost2010PropOp29
 70
     1
102
RTVSPost2010Prop30
280
     1
102
RTVSPost2010PropOp30
 70
     1
102
RTVSPost2010Prop31
280
     0
102
RTVSPost2010PropOp31
 70
     1
102
RTVSPost2010Prop32
280
     0
102
RTVSPost2010PropOp32
 70
     1
102
RTVSPost2010Prop33
280
     0
102
RTVSPost2010PropOp33
 70
     1
102
RTVSPost2010Prop34
280
     0
102
RTVSPost2010PropOp34
 70
     1
102
RTVSPost2010Prop35
280
     0
102
RTVSPost2010PropOp35
 70
     1
102
RTVSPost2010Prop36
280
     0
102
RTVSPost2010PropOp36
 70
     1
102
RTVSPost2010Prop37
 90
       50
102
RTVSPost2010PropOp37
 70
     1
102
RTVSPost2010Prop38
140
0.0
102
RTVSPost2010PropOp38
 70
     1
102
RTVSPost2010Prop39
140
1.0
102
RTVSPost2010PropOp39
 70
     1
102
RTVSPost2010Prop40
 90
        0
102
RTVSPost2010PropOp40
 70
     1
102
RTVSPost2010Prop41ColorIndex
 90
       18
102
RTVSPost2010Prop41ColorRGB
 90
        0
102
RTVSPost2010PropOp41
 70
     1
102
RTVSPost2010Prop42
 90
       50
102
RTVSPost2010PropOp42
 70
     1
102
RTVSPost2010Prop43
 90
        3
102
RTVSPost2010PropOp43
 70
     1
102
RTVSPost2010Prop44ColorIndex
 90
        5
102
RTVSPost2010Prop44ColorRGB
 90
      255
102
RTVSPost2010PropOp44
 70
     1
102
RTVSPost2010Prop45
280
     0
102
RTVSPost2010PropOp45
 70
     1
102
RTVSPost2010Prop46
 90
       50
102
RTVSPost2010PropOp46
 70
     1
102
RTVSPost2010Prop47
 90
       50
102
RTVSPost2010PropOp47
 70
     1
102
RTVSPost2010Prop48
 90
       50
102
RTVSPost2010PropOp48
 70
     1
102
RTVSPost2010Prop49
280
     0
102
RTVSPost2010PropOp49
 70
     1
102
RTVSPost2010Prop50
 90
       50
102
RTVSPost2010PropOp50
 70
     1
102
RTVSPost2010Prop51ColorIndex
 90
      256
102
RTVSPost2010Prop51ColorRGB
 90
-16777216
102
RTVSPost2010PropOp51
 70
     0
102
RTVSPost2010Prop52
140
1.0
102
RTVSPost2010PropOp52
 70
     0
102
RTVSPost2010Prop53
 90
        2
102
RTVSPost2010PropOp53
 70
     1
102
RTVSPost2010Prop54
  1
strokes_ogs.tif
102
RTVSPost2010PropOp54
 70
     1
102
RTVSPost2010Prop55
280
     0
102
RTVSPost2010PropOp55
 70
     1
102
RTVSPost2010Prop56
140
1.0
102
RTVSPost2010PropOp56
 70
     1
102
RTVSPost2010Prop57
140
1.0
102
RTVSPost2010PropOp57
 70
     1
  0
XRECORD
  5
1CA
102
{ACAD_REACTORS
330
1C9
102
}
330
1C9
100
AcDbXrecord
280
     1
102
RTVSPropertyOp0
 70
     1
102
RTVSPropertyOp1
 70
     1
102
RTVSPropertyOp2
 70
     1
102
RTVSPropertyOp3
 70
     1
102
RTVSPropertyOp4
 70
     1
102
RTVSPropertyOp5
 70
     1
102
RTVSPropertyOp6
 70
     1
102
RTVSPropertyOp7
 70
     1
102
RTVSPropertyOp8
 70
     1
102
RTVSPropertyOp9
 70
     1
102
RTVSPropertyOp10
 70
     1
102
RTVSPropertyOp11
 70
     1
102
RTVSPropertyOp12
 70
     1
102
RTVSPropertyOp13
 70
     1
102
RTVSPropertyOp14
 70
     1
102
RTVSPropertyOp15
 70
     1
102
RTVSPropertyOp16
 70
     1
102
RTVSPropertyOp17
 70
     1
102
RTVSPropertyOp18
 70
     1
102
RTVSPropertyOp19
 70
     1
102
RTVSPropertyOp20
 70
     1
102
RTVSPropertyOp21
 70
     1
102
RTVSPropertyOp22
 70
     1
102
RTVSPropertyOp23
 70
     1
102
RTVSPropertyOp24
 70
     1
102
RTVSPropertyOp25
 70
     1
102
RTVSPropertyOp26
 70
     1
102
RTVSPropertyOp27
 70
     1
102
RTVSPropertyOp28
 70
     1
102
RTVSPropertyOp29
 70
     1
102
RTVSPropertyOp30
 70
     1
102
RTVSPropertyOp31
 70
     1
102
RTVSPropertyOp32
 70
     1
102
RTVSPropertyOp33
 70
     1
102
RTVSPropertyOp34
 70
     1
102
RTVSPropertyOp35
 70
     1
102
RTVSPropertyOp36
 70
     1
102
RTVSPropertyOp37
 70
     1
102
RTVSPropertyOp38
 70
     1
102
RTVSPropertyOp39
 70
     1
102
RTVSPropertyOp40
 70
     1
102
RTVSPropertyOp41
 70
     1
102
RTVSPropertyOp42
 70
     1
102
RTVSPropertyOp43
 70
     1
102
RTVSPropertyOp44
 70
     1
102
RTVSPropertyOp45
 70
     1
102
RTVSPropertyOp46
 70
     1
102
RTVSPropertyOp47
 70
     1
102
RTVSPropertyOp48
 70
     1
102
RTVSPropertyOp49
 70
     1
102
RTVSPropertyOp50
 70
     1
102
RTVSPropertyOp51
 70
     0
102
RTVSPropertyOp52
 70
     0
102
RTVSPropertyOp53
 70
     1
102
RTVSPropertyOp54
 70
     1
102
RTVSPropertyOp55
 70
     1
102
RTVSPropertyOp56
 70
     1
102
RTVSPropertyOp57
 70
     1
102
RTVSPost2010Prop28
280
     0
102
RTVSPost2010PropOp28
 70
     1
102
RTVSPost2010Prop29
280
     1
102
RTVSPost2010PropOp29
 70
     1
102
RTVSPost2010Prop30
280
     1
102
RTVSPost2010PropOp30
 70
     1
102
RTVSPost2010Prop31
280
     0
102
RTVSPost2010PropOp31
 70
     1
102
RTVSPost2010Prop32
280
     0
102
RTVSPost2010PropOp32
 70
     1
102
RTVSPost2010Prop33
280
     0
102
RTVSPost2010PropOp33
 70
     1
102
RTVSPost2010Prop34
280
     0
102
RTVSPost2010PropOp34
 70
     1
102
RTVSPost2010Prop35
280
     0
102
RTVSPost2010PropOp35
 70
     1
102
RTVSPost2010Prop36
280
     0
102
RTVSPost2010PropOp36
 70
     1
102
RTVSPost2010Prop37
 90
       50
102
RTVSPost2010PropOp37
 70
     1
102
RTVSPost2010Prop38
140
0.0
102
RTVSPost2010PropOp38
 70
     1
102
RTVSPost2010Prop39
140
1.0
102
RTVSPost2010PropOp39
 70
     1
102
RTVSPost2010Prop40
 90
        0
102
RTVSPost2010PropOp40
 70
     1
102
RTVSPost2010Prop41ColorIndex
 90
       18
102
RTVSPost2010Prop41ColorRGB
 90
        0
102
RTVSPost2010PropOp41
 70
     1
102
RTVSPost2010Prop42
 90
       50
102
RTVSPost2010PropOp42
 70
     1
102
RTVSPost2010Prop43
 90
        3
102
RTVSPost2010PropOp43
 70
     1
102
RTVSPost2010Prop44ColorIndex
 90
        5
102
RTVSPost2010Prop44ColorRGB
 90
      255
102
RTVSPost2010PropOp44
 70
     1
102
RTVSPost2010Prop45
280
     0
102
RTVSPost2010PropOp45
 70
     1
102
RTVSPost2010Prop46
 90
       50
102
RTVSPost2010PropOp46
 70
     1
102
RTVSPost2010Prop47
 90
       50
102
RTVSPost2010PropOp47
 70
     1
102
RTVSPost2010Prop48
 90
       50
102
RTVSPost2010PropOp48
 70
     1
102
RTVSPost2010Prop49
280
     0
102
RTVSPost2010PropOp49
 70
     1
102
RTVSPost2010Prop50
 90
       50
102
RTVSPost2010PropOp50
 70
     1
102
RTVSPost2010Prop51ColorIndex
 90
      256
102
RTVSPost2010Prop51ColorRGB
 90
-16777216
102
RTVSPost2010PropOp51
 70
     0
102
RTVSPost2010Prop52
140
1.0
102
RTVSPost2010PropOp52
 70
     0
102
RTVSPost2010Prop53
 90
        2
102
RTVSPost2010PropOp53
 70
     1
102
RTVSPost2010Prop54
  1
strokes_ogs.tif
102
RTVSPost2010PropOp54
 70
     1
102
RTVSPost2010Prop55
280
     0
102
RTVSPost2010PropOp55
 70
     1
102
RTVSPost2010Prop56
140
1.0
102
RTVSPost2010PropOp56
 70
     1
102
RTVSPost2010Prop57
140
1.0
102
RTVSPost2010PropOp57
 70
     1
  0
XRECORD
  5
1BC
102
{ACAD_REACTORS
330
1BB
102
}
330
1BB
100
AcDbXrecord
280
     1
102
RTVSPropertyOp0
 70
     1
102
RTVSPropertyOp1
 70
     1
102
RTVSPropertyOp2
 70
     1
102
RTVSPropertyOp3
 70
     1
102
RTVSPropertyOp4
 70
     1
102
RTVSPropertyOp5
 70
     1
102
RTVSPropertyOp6
 70
     1
102
RTVSPropertyOp7
 70
     1
102
RTVSPropertyOp8
 70
     1
102
RTVSPropertyOp9
 70
     1
102
RTVSPropertyOp10
 70
     1
102
RTVSPropertyOp11
 70
     1
102
RTVSPropertyOp12
 70
     1
102
RTVSPropertyOp13
 70
     1
102
RTVSPropertyOp14
 70
     1
102
RTVSPropertyOp15
 70
     1
102
RTVSPropertyOp16
 70
     1
102
RTVSPropertyOp17
 70
     1
102
RTVSPropertyOp18
 70
     1
102
RTVSPropertyOp19
 70
     1
102
RTVSPropertyOp20
 70
     1
102
RTVSPropertyOp21
 70
     1
102
RTVSPropertyOp22
 70
     1
102
RTVSPropertyOp23
 70
     1
102
RTVSPropertyOp24
 70
     1
102
RTVSPropertyOp25
 70
     1
102
RTVSPropertyOp26
 70
     1
102
RTVSPropertyOp27
 70
     1
102
RTVSPropertyOp28
 70
     1
102
RTVSPropertyOp29
 70
     1
102
RTVSPropertyOp30
 70
     1
102
RTVSPropertyOp31
 70
     1
102
RTVSPropertyOp32
 70
     1
102
RTVSPropertyOp33
 70
     1
102
RTVSPropertyOp34
 70
     1
102
RTVSPropertyOp35
 70
     1
102
RTVSPropertyOp36
 70
     1
102
RTVSPropertyOp37
 70
     1
102
RTVSPropertyOp38
 70
     1
102
RTVSPropertyOp39
 70
     1
102
RTVSPropertyOp40
 70
     1
102
RTVSPropertyOp41
 70
     1
102
RTVSPropertyOp42
 70
     1
102
RTVSPropertyOp43
 70
     1
102
RTVSPropertyOp44
 70
     1
102
RTVSPropertyOp45
 70
     1
102
RTVSPropertyOp46
 70
     1
102
RTVSPropertyOp47
 70
     1
102
RTVSPropertyOp48
 70
     1
102
RTVSPropertyOp49
 70
     1
102
RTVSPropertyOp50
 70
     1
102
RTVSPropertyOp51
 70
     0
102
RTVSPropertyOp52
 70
     0
102
RTVSPropertyOp53
 70
     1
102
RTVSPropertyOp54
 70
     1
102
RTVSPropertyOp55
 70
     1
102
RTVSPropertyOp56
 70
     1
102
RTVSPropertyOp57
 70
     1
102
RTVSPost2010Prop28
280
     0
102
RTVSPost2010PropOp28
 70
     1
102
RTVSPost2010Prop29
280
     1
102
RTVSPost2010PropOp29
 70
     1
102
RTVSPost2010Prop30
280
     1
102
RTVSPost2010PropOp30
 70
     1
102
RTVSPost2010Prop31
280
     0
102
RTVSPost2010PropOp31
 70
     1
102
RTVSPost2010Prop32
280
     0
102
RTVSPost2010PropOp32
 70
     1
102
RTVSPost2010Prop33
280
     0
102
RTVSPost2010PropOp33
 70
     1
102
RTVSPost2010Prop34
280
     0
102
RTVSPost2010PropOp34
 70
     1
102
RTVSPost2010Prop35
280
     0
102
RTVSPost2010PropOp35
 70
     1
102
RTVSPost2010Prop36
280
     0
102
RTVSPost2010PropOp36
 70
     1
102
RTVSPost2010Prop37
 90
       50
102
RTVSPost2010PropOp37
 70
     1
102
RTVSPost2010Prop38
140
0.0
102
RTVSPost2010PropOp38
 70
     1
102
RTVSPost2010Prop39
140
1.0
102
RTVSPost2010PropOp39
 70
     1
102
RTVSPost2010Prop40
 90
        0
102
RTVSPost2010PropOp40
 70
     1
102
RTVSPost2010Prop41ColorIndex
 90
       18
102
RTVSPost2010Prop41ColorRGB
 90
        0
102
RTVSPost2010PropOp41
 70
     1
102
RTVSPost2010Prop42
 90
       50
102
RTVSPost2010PropOp42
 70
     1
102
RTVSPost2010Prop43
 90
        3
102
RTVSPost2010PropOp43
 70
     1
102
RTVSPost2010Prop44ColorIndex
 90
        5
102
RTVSPost2010Prop44ColorRGB
 90
      255
102
RTVSPost2010PropOp44
 70
     1
102
RTVSPost2010Prop45
280
     0
102
RTVSPost2010PropOp45
 70
     1
102
RTVSPost2010Prop46
 90
       50
102
RTVSPost2010PropOp46
 70
     1
102
RTVSPost2010Prop47
 90
       50
102
RTVSPost2010PropOp47
 70
     1
102
RTVSPost2010Prop48
 90
       50
102
RTVSPost2010PropOp48
 70
     1
102
RTVSPost2010Prop49
280
     0
102
RTVSPost2010PropOp49
 70
     1
102
RTVSPost2010Prop50
 90
       50
102
RTVSPost2010PropOp50
 70
     1
102
RTVSPost2010Prop51ColorIndex
 90
      256
102
RTVSPost2010Prop51ColorRGB
 90
-16777216
102
RTVSPost2010PropOp51
 70
     0
102
RTVSPost2010Prop52
140
1.0
102
RTVSPost2010PropOp52
 70
     0
102
RTVSPost2010Prop53
 90
        2
102
RTVSPost2010PropOp53
 70
     1
102
RTVSPost2010Prop54
  1
strokes_ogs.tif
102
RTVSPost2010PropOp54
 70
     1
102
RTVSPost2010Prop55
280
     0
102
RTVSPost2010PropOp55
 70
     1
102
RTVSPost2010Prop56
140
1.0
102
RTVSPost2010PropOp56
 70
     1
102
RTVSPost2010Prop57
140
1.0
102
RTVSPost2010PropOp57
 70
     1
  0
XRECORD
  5
1DC
102
{ACAD_REACTORS
330
1DB
102
}
330
1DB
100
AcDbXrecord
280
     1
102
RTVSPropertyOp0
 70
     1
102
RTVSPropertyOp1
 70
     1
102
RTVSPropertyOp2
 70
     1
102
RTVSPropertyOp3
 70
     1
102
RTVSPropertyOp4
 70
     1
102
RTVSPropertyOp5
 70
     1
102
RTVSPropertyOp6
 70
     1
102
RTVSPropertyOp7
 70
     1
102
RTVSPropertyOp8
 70
     1
102
RTVSPropertyOp9
 70
     1
102
RTVSPropertyOp10
 70
     1
102
RTVSPropertyOp11
 70
     1
102
RTVSPropertyOp12
 70
     1
102
RTVSPropertyOp13
 70
     1
102
RTVSPropertyOp14
 70
     1
102
RTVSPropertyOp15
 70
     1
102
RTVSPropertyOp16
 70
     1
102
RTVSPropertyOp17
 70
     1
102
RTVSPropertyOp18
 70
     1
102
RTVSPropertyOp19
 70
     1
102
RTVSPropertyOp20
 70
     1
102
RTVSPropertyOp21
 70
     1
102
RTVSPropertyOp22
 70
     1
102
RTVSPropertyOp23
 70
     1
102
RTVSPropertyOp24
 70
     1
102
RTVSPropertyOp25
 70
     1
102
RTVSPropertyOp26
 70
     1
102
RTVSPropertyOp27
 70
     1
102
RTVSPropertyOp28
 70
     1
102
RTVSPropertyOp29
 70
     1
102
RTVSPropertyOp30
 70
     1
102
RTVSPropertyOp31
 70
     1
102
RTVSPropertyOp32
 70
     1
102
RTVSPropertyOp33
 70
     1
102
RTVSPropertyOp34
 70
     1
102
RTVSPropertyOp35
 70
     1
102
RTVSPropertyOp36
 70
     1
102
RTVSPropertyOp37
 70
     1
102
RTVSPropertyOp38
 70
     1
102
RTVSPropertyOp39
 70
     1
102
RTVSPropertyOp40
 70
     1
102
RTVSPropertyOp41
 70
     1
102
RTVSPropertyOp42
 70
     1
102
RTVSPropertyOp43
 70
     1
102
RTVSPropertyOp44
 70
     1
102
RTVSPropertyOp45
 70
     1
102
RTVSPropertyOp46
 70
     1
102
RTVSPropertyOp47
 70
     1
102
RTVSPropertyOp48
 70
     1
102
RTVSPropertyOp49
 70
     1
102
RTVSPropertyOp50
 70
     1
102
RTVSPropertyOp51
 70
     0
102
RTVSPropertyOp52
 70
     0
102
RTVSPropertyOp53
 70
     1
102
RTVSPropertyOp54
 70
     1
102
RTVSPropertyOp55
 70
     1
102
RTVSPropertyOp56
 70
     1
102
RTVSPropertyOp57
 70
     1
102
RTVSPost2010Prop28
280
     0
102
RTVSPost2010PropOp28
 70
     1
102
RTVSPost2010Prop29
280
     1
102
RTVSPost2010PropOp29
 70
     1
102
RTVSPost2010Prop30
280
     1
102
RTVSPost2010PropOp30
 70
     1
102
RTVSPost2010Prop31
280
     0
102
RTVSPost2010PropOp31
 70
     1
102
RTVSPost2010Prop32
280
     0
102
RTVSPost2010PropOp32
 70
     1
102
RTVSPost2010Prop33
280
     0
102
RTVSPost2010PropOp33
 70
     1
102
RTVSPost2010Prop34
280
     0
102
RTVSPost2010PropOp34
 70
     1
102
RTVSPost2010Prop35
280
     0
102
RTVSPost2010PropOp35
 70
     1
102
RTVSPost2010Prop36
280
     0
102
RTVSPost2010PropOp36
 70
     1
102
RTVSPost2010Prop37
 90
       50
102
RTVSPost2010PropOp37
 70
     1
102
RTVSPost2010Prop38
140
0.0
102
RTVSPost2010PropOp38
 70
     1
102
RTVSPost2010Prop39
140
1.0
102
RTVSPost2010PropOp39
 70
     1
102
RTVSPost2010Prop40
 90
        0
102
RTVSPost2010PropOp40
 70
     1
102
RTVSPost2010Prop41ColorIndex
 90
       18
102
RTVSPost2010Prop41ColorRGB
 90
        0
102
RTVSPost2010PropOp41
 70
     1
102
RTVSPost2010Prop42
 90
       50
102
RTVSPost2010PropOp42
 70
     1
102
RTVSPost2010Prop43
 90
        3
102
RTVSPost2010PropOp43
 70
     1
102
RTVSPost2010Prop44ColorIndex
 90
        5
102
RTVSPost2010Prop44ColorRGB
 90
      255
102
RTVSPost2010PropOp44
 70
     1
102
RTVSPost2010Prop45
280
     0
102
RTVSPost2010PropOp45
 70
     1
102
RTVSPost2010Prop46
 90
       50
102
RTVSPost2010PropOp46
 70
     1
102
RTVSPost2010Prop47
 90
       50
102
RTVSPost2010PropOp47
 70
     1
102
RTVSPost2010Prop48
 90
       50
102
RTVSPost2010PropOp48
 70
     1
102
RTVSPost2010Prop49
280
     0
102
RTVSPost2010PropOp49
 70
     1
102
RTVSPost2010Prop50
 90
       50
102
RTVSPost2010PropOp50
 70
     1
102
RTVSPost2010Prop51ColorIndex
 90
      256
102
RTVSPost2010Prop51ColorRGB
 90
-16777216
102
RTVSPost2010PropOp51
 70
     0
102
RTVSPost2010Prop52
140
1.0
102
RTVSPost2010PropOp52
 70
     0
102
RTVSPost2010Prop53
 90
        2
102
RTVSPost2010PropOp53
 70
     1
102
RTVSPost2010Prop54
  1
strokes_ogs.tif
102
RTVSPost2010PropOp54
 70
     1
102
RTVSPost2010Prop55
280
     0
102
RTVSPost2010PropOp55
 70
     1
102
RTVSPost2010Prop56
140
1.0
102
RTVSPost2010PropOp56
 70
     1
102
RTVSPost2010Prop57
140
1.0
102
RTVSPost2010PropOp57
 70
     1
  0
ENDSEC
  0
EOF
