  0
SECTION
  2
HEADER
  9
$ACADVER
  1
AC1024
  9
$ACADMAINTVER
 70
     6
  9
$DWGCODEPAGE
  3
ANSI_1252
  9
$INSBASE
 10
0.0
 20
0.0
 30
0.0
  9
$EXTMIN
 10
1.000000E+20
 20
1.000000E+20
 30
1.000000E+20
  9
$EXTMAX
 10
-1.000000E+20
 20
-1.000000E+20
 30
-1.000000E+20
  9
$LIMMIN
 10
0.0
 20
0.0
  9
$LIMMAX
 10
420.0
 20
297.0
  9
$ORTHOMODE
 70
     0
  9
$REGENMODE
 70
     1
  9
$FILLMODE
 70
     1
  9
$QTEXTMODE
 70
     0
  9
$MIRRTEXT
 70
     1
  9
$LTSCALE
 40
1.0
  9
$ATTMODE
 70
     1
  9
$TEXTSIZE
 40
2.5
  9
$TRACEWID
 40
1.0
  9
$TEXTSTYLE
  7
Standard
  9
$CLAYER
  8
0
  9
$CELTYPE
  6
ByLayer
  9
$CECOLOR
 62
   256
  9
$CELTSCALE
 40
1.0
  9
$DISPSILH
 70
     0
  9
$DIMSCALE
 40
1.0
  9
$DIMASZ
 40
2.5
  9
$DIMEXO
 40
0.625
  9
$DIMDLI
 40
3.75
  9
$DIMRND
 40
0.0
  9
$DIMDLE
 40
0.0
  9
$DIMEXE
 40
1.25
  9
$DIMTP
 40
0.0
  9
$DIMTM
 40
0.0
  9
$DIMTXT
 40
2.5
  9
$DIMCEN
 40
2.5
  9
$DIMTSZ
 40
0.0
  9
$DIMTOL
 70
     0
  9
$DIMLIM
 70
     0
  9
$DIMTIH
 70
     0
  9
$DIMTOH
 70
     0
  9
$DIMSE1
 70
     0
  9
$DIMSE2
 70
     0
  9
$DIMTAD
 70
     1
  9
$DIMZIN
 70
     8
  9
$DIMBLK
  1

  9
$DIMASO
 70
     1
  9
$DIMSHO
 70
     1
  9
$DIMPOST
  1

  9
$DIMAPOST
  1

  9
$DIMALT
 70
     0
  9
$DIMALTD
 70
     3
  9
$DIMALTF
 40
0.03937
  9
$DIMLFAC
 40
1.0
  9
$DIMTOFL
 70
     1
  9
$DIMTVP
 40
0.0
  9
$DIMTIX
 70
     0
  9
$DIMSOXD
 70
     0
  9
$DIMSAH
 70
     0
  9
$DIMBLK1
  1

  9
$DIMBLK2
  1

  9
$DIMSTYLE
  2
ISO-25
  9
$DIMCLRD
 70
     0
  9
$DIMCLRE
 70
     0
  9
$DIMCLRT
 70
     0
  9
$DIMTFAC
 40
1.0
  9
$DIMGAP
 40
0.625
  9
$DIMJUST
 70
     0
  9
$DIMSD1
 70
     0
  9
$DIMSD2
 70
     0
  9
$DIMTOLJ
 70
     0
  9
$DIMTZIN
 70
     8
  9
$DIMALTZ
 70
     0
  9
$DIMALTTZ
 70
     0
  9
$DIMUPT
 70
     0
  9
$DIMDEC
 70
     2
  9
$DIMTDEC
 70
     2
  9
$DIMALTU
 70
     2
  9
$DIMALTTD
 70
     3
  9
$DIMTXSTY
  7
Standard
  9
$DIMAUNIT
 70
     0
  9
$DIMADEC
 70
     0
  9
$DIMALTRND
 40
0.0
  9
$DIMAZIN
 70
     0
  9
$DIMDSEP
 70
    44
  9
$DIMATFIT
 70
     3
  9
$DIMFRAC
 70
     0
  9
$DIMLDRBLK
  1

  9
$DIMLUNIT
 70
     2
  9
$DIMLWD
 70
    -2
  9
$DIMLWE
 70
    -2
  9
$DIMTMOVE
 70
     0
  9
$DIMFXL
 40
1.0
  9
$DIMFXLON
 70
     0
  9
$DIMJOGANG
 40
0.785398
  9
$DIMTFILL
 70
     0
  9
$DIMTFILLCLR
 70
     0
  9
$DIMARCSYM
 70
     0
  9
$DIMLTYPE
  6

  9
$DIMLTEX1
  6

  9
$DIMLTEX2
  6

  9
$DIMTXTDIRECTION
 70
     0
  9
$LUNITS
 70
     2
  9
$LUPREC
 70
     4
  9
$SKETCHINC
 40
1.0
  9
$FILLETRAD
 40
10.0
  9
$AUNITS
 70
     0
  9
$AUPREC
 70
     0
  9
$MENU
  1
.
  9
$ELEVATION
 40
0.0
  9
$PELEVATION
 40
0.0
  9
$THICKNESS
 40
0.0
  9
$LIMCHECK
 70
     0
  9
$CHAMFERA
 40
0.0
  9
$CHAMFERB
 40
0.0
  9
$CHAMFERC
 40
0.0
  9
$CHAMFERD
 40
0.0
  9
$SKPOLY
 70
     0
  9
$TDCREATE
 40
2458624.354035474
  9
$TDUCREATE
 40
2458624.270702141
  9
$TDUPDATE
 40
2458624.354036019
  9
$TDUUPDATE
 40
2458624.270702685
  9
$TDINDWG
 40
0.0000000116
  9
$TDUSRTIMER
 40
0.0000000116
  9
$USRTIMER
 70
     1
  9
$ANGBASE
 50
0.0
  9
$ANGDIR
 70
     0
  9
$PDMODE
 70
     0
  9
$PDSIZE
 40
0.0
  9
$PLINEWID
 40
0.0
  9
$SPLFRAME
 70
     0
  9
$SPLINETYPE
 70
     6
  9
$SPLINESEGS
 70
     8
  9
$HANDSEED
  5
232
  9
$SURFTAB1
 70
     6
  9
$SURFTAB2
 70
     6
  9
$SURFTYPE
 70
     6
  9
$SURFU
 70
     6
  9
$SURFV
 70
     6
  9
$UCSBASE
  2

  9
$UCSNAME
  2

  9
$UCSORG
 10
0.0
 20
0.0
 30
0.0
  9
$UCSXDIR
 10
1.0
 20
0.0
 30
0.0
  9
$UCSYDIR
 10
0.0
 20
1.0
 30
0.0
  9
$UCSORTHOREF
  2

  9
$UCSORTHOVIEW
 70
     0
  9
$UCSORGTOP
 10
0.0
 20
0.0
 30
0.0
  9
$UCSORGBOTTOM
 10
0.0
 20
0.0
 30
0.0
  9
$UCSORGLEFT
 10
0.0
 20
0.0
 30
0.0
  9
$UCSORGRIGHT
 10
0.0
 20
0.0
 30
0.0
  9
$UCSORGFRONT
 10
0.0
 20
0.0
 30
0.0
  9
$UCSORGBACK
 10
0.0
 20
0.0
 30
0.0
  9
$PUCSBASE
  2

  9
$PUCSNAME
  2

  9
$PUCSORG
 10
0.0
 20
0.0
 30
0.0
  9
$PUCSXDIR
 10
1.0
 20
0.0
 30
0.0
  9
$PUCSYDIR
 10
0.0
 20
1.0
 30
0.0
  9
$PUCSORTHOREF
  2

  9
$PUCSORTHOVIEW
 70
     0
  9
$PUCSORGTOP
 10
0.0
 20
0.0
 30
0.0
  9
$PUCSORGBOTTOM
 10
0.0
 20
0.0
 30
0.0
  9
$PUCSORGLEFT
 10
0.0
 20
0.0
 30
0.0
  9
$PUCSORGRIGHT
 10
0.0
 20
0.0
 30
0.0
  9
$PUCSORGFRONT
 10
0.0
 20
0.0
 30
0.0
  9
$PUCSORGBACK
 10
0.0
 20
0.0
 30
0.0
  9
$USERI1
 70
     0
  9
$USERI2
 70
     0
  9
$USERI3
 70
     0
  9
$USERI4
 70
     0
  9
$USERI5
 70
     0
  9
$USERR1
 40
0.0
  9
$USERR2
 40
0.0
  9
$USERR3
 40
0.0
  9
$USERR4
 40
0.0
  9
$USERR5
 40
0.0
  9
$WORLDVIEW
 70
     1
  9
$SHADEDGE
 70
     3
  9
$SHADEDIF
 70
    70
  9
$TILEMODE
 70
     1
  9
$MAXACTVP
 70
    64
  9
$PINSBASE
 10
0.0
 20
0.0
 30
0.0
  9
$PLIMCHECK
 70
     0
  9
$PEXTMIN
 10
1.000000E+20
 20
1.000000E+20
 30
1.000000E+20
  9
$PEXTMAX
 10
-1.000000E+20
 20
-1.000000E+20
 30
-1.000000E+20
  9
$PLIMMIN
 10
0.0
 20
0.0
  9
$PLIMMAX
 10
420.0
 20
297.0
  9
$UNITMODE
 70
     0
  9
$VISRETAIN
 70
     1
  9
$PLINEGEN
 70
     0
  9
$PSLTSCALE
 70
     1
  9
$TREEDEPTH
 70
  3020
  9
$CMLSTYLE
  2
Standard
  9
$CMLJUST
 70
     0
  9
$CMLSCALE
 40
20.0
  9
$PROXYGRAPHICS
 70
     1
  9
$MEASUREMENT
 70
     1
  9
$CELWEIGHT
370
    -1
  9
$ENDCAPS
280
     0
  9
$JOINSTYLE
280
     0
  9
$LWDISPLAY
290
     0
  9
$INSUNITS
 70
     4
  9
$HYPERLINKBASE
  1

  9
$STYLESHEET
  1

  9
$XEDIT
290
     1
  9
$CEPSNTYPE
380
     0
  9
$PSTYLEMODE
290
     1
  9
$FINGERPRINTGUID
  2
{05842C5E-D946-470C-87B5-96169746B88F}
  9
$VERSIONGUID
  2
{FAEB1C32-E019-11D5-929B-00C0DF256EC4}
  9
$EXTNAMES
290
     1
  9
$PSVPSCALE
 40
0.0
  9
$OLESTARTUP
290
     0
  9
$SORTENTS
280
   127
  9
$INDEXCTL
280
     0
  9
$HIDETEXT
280
     1
  9
$XCLIPFRAME
280
     2
  9
$HALOGAP
280
     0
  9
$OBSCOLOR
 70
   257
  9
$OBSLTYPE
280
     0
  9
$INTERSECTIONDISPLAY
280
     0
  9
$INTERSECTIONCOLOR
 70
   257
  9
$DIMASSOC
280
     2
  9
$PROJECTNAME
  1

  9
$CAMERADISPLAY
290
     0
  9
$LENSLENGTH
 40
50.0
  9
$CAMERAHEIGHT
 40
0.0
  9
$STEPSPERSEC
 40
2.0
  9
$STEPSIZE
 40
6.0
  9
$3DDWFPREC
 40
2.0
  9
$PSOLWIDTH
 40
5.0
  9
$PSOLHEIGHT
 40
80.0
  9
$LOFTANG1
 40
1.570796
  9
$LOFTANG2
 40
1.570796
  9
$LOFTMAG1
 40
0.0
  9
$LOFTMAG2
 40
0.0
  9
$LOFTPARAM
 70
     7
  9
$LOFTNORMALS
280
     1
  9
$LATITUDE
 40
37.795
  9
$LONGITUDE
 40
-122.394
  9
$NORTHDIRECTION
 40
0.0
  9
$TIMEZONE
 70
 -8000
  9
$LIGHTGLYPHDISPLAY
280
     1
  9
$TILEMODELIGHTSYNCH
280
     1
  9
$CMATERIAL
347
44
  9
$SOLIDHIST
280
     0
  9
$SHOWHIST
280
     1
  9
$DWFFRAME
280
     2
  9
$DGNFRAME
280
     2
  9
$REALWORLDSCALE
290
     1
  9
$INTERFERECOLOR
 62
   256
  9
$CSHADOW
280
     0
  9
$SHADOWPLANELOCATION
 40
0.0
  0
ENDSEC
  0
SECTION
  2
CLASSES
  0
CLASS
  1
ACDBDICTIONARYWDFLT
  2
AcDbDictionaryWithDefault
  3
ObjectDBX Classes
 90
        0
 91
        4
280
     0
281
     0
  0
CLASS
  1
VISUALSTYLE
  2
AcDbVisualStyle
  3
ObjectDBX Classes
 90
     4095
 91
        4
280
     0
281
     0
  0
CLASS
  1
MATERIAL
  2
AcDbMaterial
  3
ObjectDBX Classes
 90
     1153
 91
        4
280
     0
281
     0
  0
CLASS
  1
SCALE
  2
AcDbScale
  3
ObjectDBX Classes
 90
     1153
 91
        4
280
     0
281
     0
  0
CLASS
  1
TABLESTYLE
  2
AcDbTableStyle
  3
ObjectDBX Classes
 90
     4095
 91
        4
280
     0
281
     0
  0
CLASS
  1
MLEADERSTYLE
  2
AcDbMLeaderStyle
  3
ACDB_MLEADERSTYLE_CLASS
 90
     4095
 91
        4
280
     0
281
     0
  0
CLASS
  1
SUN
  2
AcDbSun
  3
SCENEOE
 90
     1153
 91
        4
280
     0
281
     0
  0
CLASS
  1
DICTIONARYVAR
  2
AcDbDictionaryVar
  3
ObjectDBX Classes
 90
        0
 91
        4
280
     0
281
     0
  0
CLASS
  1
CELLSTYLEMAP
  2
AcDbCellStyleMap
  3
ObjectDBX Classes
 90
     1152
 91
        4
280
     0
281
     0
  0
ENDSEC
  0
SECTION
  2
TABLES
  0
TABLE
  2
VPORT
  5
8
330
0
100
AcDbSymbolTable
 70
     1
  0
VPORT
  5
29
330
8
100
AcDbSymbolTableRecord
100
AcDbViewportTableRecord
  2
*Active
 70
     0
 10
0.0
 20
0.0
 11
1.0
 21
1.0
 12
344.186916
 22
148.5
 13
0.0
 23
0.0
 14
10.0
 24
10.0
 15
10.0
 25
10.0
 16
0.0
 26
0.0
 36
1.0
 17
0.0
 27
0.0
 37
0.0
 40
297.0
 41
1.972973
 42
50.0
 43
0.0
 44
0.0
 50
0.0
 51
0.0
 71
     0
 72
   100
 73
     1
 74
     3
 75
     0
 76
     0
 77
     0
 78
     0
281
     0
 65
     1
110
0.0
120
0.0
130
0.0
111
1.0
121
0.0
131
0.0
112
0.0
122
1.0
132
0.0
 79
     0
146
0.0
348
2F
 60
     3
 61
     5
292
     1
282
     1
141
0.0
142
0.0
 63
   250
361
6D
  0
ENDTAB
  0
TABLE
  2
LTYPE
  5
5
330
0
100
AcDbSymbolTable
 70
     1
  0
LTYPE
  5
14
330
5
100
AcDbSymbolTableRecord
100
AcDbLinetypeTableRecord
  2
ByBlock
 70
     0
  3

 72
    65
 73
     0
 40
0.0
  0
LTYPE
  5
15
330
5
100
AcDbSymbolTableRecord
100
AcDbLinetypeTableRecord
  2
ByLayer
 70
     0
  3

 72
    65
 73
     0
 40
0.0
  0
LTYPE
  5
16
330
5
100
AcDbSymbolTableRecord
100
AcDbLinetypeTableRecord
  2
Continuous
 70
     0
  3
Solid line
 72
    65
 73
     0
 40
0.0
  0
ENDTAB
  0
TABLE
  2
LAYER
  5
2
330
0
100
AcDbSymbolTable
 70
     1
  0
LAYER
  5
10
330
2
100
AcDbSymbolTableRecord
100
AcDbLayerTableRecord
  2
0
 70
     0
 62
   106
  6
Continuous
370
     0
390
F
347
46
  0
ENDTAB
  0
TABLE
  2
STYLE
  5
3
330
0
100
AcDbSymbolTable
 70
     4
  0
STYLE
  5
11
330
3
100
AcDbSymbolTableRecord
100
AcDbTextStyleTableRecord
  2
Standard
 70
     0
 40
0.0
 41
1.0
 50
0.0
 71
     0
 42
2.5
  3
txt
  4

  0
STYLE
  5
6E
330
3
100
AcDbSymbolTableRecord
100
AcDbTextStyleTableRecord
  2
Default
 70
     0
 40
0.0
 41
1.0
 50
0.0
 71
     0
 42
2.5
  3

  4

1001
ACAD
1000
txt
1071
        0
  0
STYLE
  5
6F
330
3
100
AcDbSymbolTableRecord
100
AcDbTextStyleTableRecord
  2
ISO
 70
     0
 40
0.0
 41
1.0
 50
0.0
 71
     0
 42
2.5
  3

  4

1001
ACAD
1000
txt
1071
        0
  0
STYLE
  5
70
330
3
100
AcDbSymbolTableRecord
100
AcDbTextStyleTableRecord
  2
zucchetti
 70
     0
 40
0.0
 41
1.0
 50
0.0
 71
     0
 42
2.5
  3

  4

1001
ACAD
1000
Arial
1071
        0
  0
ENDTAB
  0
TABLE
  2
VIEW
  5
6
330
0
100
AcDbSymbolTable
 70
     0
  0
ENDTAB
  0
TABLE
  2
UCS
  5
7
330
0
100
AcDbSymbolTable
 70
     0
  0
ENDTAB
  0
TABLE
  2
APPID
  5
9
330
0
100
AcDbSymbolTable
 70
     1
  0
APPID
  5
12
330
9
100
AcDbSymbolTableRecord
100
AcDbRegAppTableRecord
  2
ACAD
 70
     0
  0
ENDTAB
  0
TABLE
  2
DIMSTYLE
  5
A
330
0
100
AcDbSymbolTable
 70
     4
100
AcDbDimStyleTable
  0
DIMSTYLE
105
27
330
A
100
AcDbSymbolTableRecord
100
AcDbDimStyleTableRecord
  2
ISO-25
 70
     0
 41
2.5
 42
0.625
 43
3.75
 44
1.25
 73
     0
 74
     0
 77
     1
 78
     8
140
2.5
141
2.5
143
0.03937
147
0.625
171
     3
172
     1
178
     0
271
     2
272
     2
274
     3
278
    44
283
     0
284
     8
340
11
  0
DIMSTYLE
105
71
330
A
100
AcDbSymbolTableRecord
100
AcDbDimStyleTableRecord
  2
Default
 70
     0
  3
<>
 41
4.375
 42
1.05
 44
2.1
 49
10.01
 73
     0
 74
     0
 77
     1
 78
     8
140
3.5
146
0.4
147
1.75
172
     1
271
     2
178
     3
271
     2
272
     3
284
     8
340
6E
341
72
342
72
  0
DIMSTYLE
105
79
330
A
100
AcDbSymbolTableRecord
100
AcDbDimStyleTableRecord
  2
ISO
 70
     0
  3
<>
 41
4.375
 42
1.05
 44
2.1
 49
10.01
 73
     0
 74
     0
 77
     1
 78
     8
140
3.5
146
0.4
147
1.75
172
     1
271
     2
178
     3
271
     2
272
     3
284
     8
340
6F
341
72
342
72
  0
DIMSTYLE
105
7A
330
A
100
AcDbSymbolTableRecord
100
AcDbDimStyleTableRecord
  2
zucchetti
 70
     0
  3
<>
 41
3.0
 42
0.9
 44
1.8
 49
8.58
 73
     0
 74
     0
 77
     1
 78
     8
140
3.0
146
0.6
147
1.5
172
     1
176
     3
177
     3
271
     2
178
     3
271
     2
272
     2
284
     8
340
70
  0
ENDTAB
  0
TABLE
  2
BLOCK_RECORD
  5
1
330
0
100
AcDbSymbolTable
 70
     6
  0
BLOCK_RECORD
  5
1F
330
1
100
AcDbSymbolTableRecord
100
AcDbBlockTableRecord
  2
*Model_Space
340
22
 70
     0
280
     1
281
     0
  0
BLOCK_RECORD
  5
1B
330
1
100
AcDbSymbolTableRecord
100
AcDbBlockTableRecord
  2
*Paper_Space
340
1E
 70
     0
280
     1
281
     0
  0
BLOCK_RECORD
  5
23
330
1
100
AcDbSymbolTableRecord
100
AcDbBlockTableRecord
  2
*Paper_Space0
340
26
 70
     0
280
     1
281
     0
  0
BLOCK_RECORD
  5
72
330
1
100
AcDbSymbolTableRecord
100
AcDbBlockTableRecord
  2
_CLOSED
340
0
 70
     0
280
     1
281
     0
  0
BLOCK_RECORD
  5
7B
330
1
100
AcDbSymbolTableRecord
100
AcDbBlockTableRecord
  2
a
340
0
102
{BLKREFS
331
CA
102
}
 70
     0
280
     1
281
     0
  0
BLOCK_RECORD
  5
CB
330
1
100
AcDbSymbolTableRecord
100
AcDbBlockTableRecord
  2
b
340
0
102
{BLKREFS
331
143
102
}
 70
     0
280
     1
281
     0
  0
BLOCK_RECORD
  5
144
330
1
100
AcDbSymbolTableRecord
100
AcDbBlockTableRecord
  2
c
340
0
102
{BLKREFS
331
1BD
102
}
 70
     0
280
     1
281
     0
  0
BLOCK_RECORD
  5
1BE
330
1
100
AcDbSymbolTableRecord
100
AcDbBlockTableRecord
  2
d
340
0
102
{BLKREFS
331
1F8
102
}
 70
     0
280
     1
281
     0
  0
ENDTAB
  0
ENDSEC
  0
SECTION
  2
BLOCKS
  0
BLOCK
  5
20
330
1F
100
AcDbEntity
  8
0
100
AcDbBlockBegin
  2
*Model_Space
 70
     0
 10
0.0
 20
0.0
 30
0.0
  3
*Model_Space
  1

  0
ENDBLK
  5
21
330
1F
100
AcDbEntity
  8
0
100
AcDbBlockEnd
  0
BLOCK
  5
1C
330
1B
100
AcDbEntity
 67
     1
  8
0
100
AcDbBlockBegin
  2
*Paper_Space
 70
     0
 10
0.0
 20
0.0
 30
0.0
  3
*Paper_Space
  1

  0
ENDBLK
  5
1D
330
1B
100
AcDbEntity
 67
     1
  8
0
100
AcDbBlockEnd
  0
BLOCK
  5
24
330
23
100
AcDbEntity
  8
0
100
AcDbBlockBegin
  2
*Paper_Space0
 70
     0
 10
0.0
 20
0.0
 30
0.0
  3
*Paper_Space0
  1

  0
ENDBLK
  5
25
330
23
100
AcDbEntity
  8
0
100
AcDbBlockEnd
  0
BLOCK
  5
73
330
72
100
AcDbEntity
  8
0
100
AcDbBlockBegin
  2
_CLOSED
 70
     0
 10
0.0
 20
0.0
 30
0.0
  3
_CLOSED
  1

  0
LINE
  5
75
330
72
100
AcDbEntity
  8
0
  6
ByBlock
 62
     0
370
    -2
100
AcDbLine
 10
-1.0
 20
0.166667
 30
0.0
 11
0.0
 21
0.0
 31
0.0
  0
LINE
  5
76
330
72
100
AcDbEntity
  8
0
  6
ByBlock
 62
     0
370
    -2
100
AcDbLine
 10
0.0
 20
0.0
 30
0.0
 11
-1.0
 21
-0.166667
 31
0.0
  0
LINE
  5
77
330
72
100
AcDbEntity
  8
0
  6
ByBlock
 62
     0
370
    -2
100
AcDbLine
 10
-1.0
 20
0.166667
 30
0.0
 11
-1.0
 21
-0.166667
 31
0.0
  0
LINE
  5
78
330
72
100
AcDbEntity
  8
0
  6
ByBlock
 62
     0
370
    -2
100
AcDbLine
 10
0.0
 20
0.0
 30
0.0
 11
-1.0
 21
0.0
 31
0.0
  0
ENDBLK
  5
74
330
72
100
AcDbEntity
  8
0
100
AcDbBlockEnd
  0
BLOCK
  5
C8
330
7B
100
AcDbEntity
  8
0
100
AcDbBlockBegin
  2
a
 70
     0
 10
522.916504
 20
352.753296
 30
0.0
  3
a
  1

  0
LINE
  5
7C
330
7B
100
AcDbEntity
  8
0
  6
Continuous
 62
     0
370
    30
100
AcDbLine
 10
563.984507
 20
600.551716
 30
0.0
 11
563.708772
 21
600.50592
 31
0.0
  0
ARC
  5
7D
330
7B
100
AcDbEntity
  8
0
  6
Continuous
 62
     0
370
    30
100
AcDbCircle
 10
553.832402
 20
633.435661
 30
0.0
 40
34.41538985511188
100
AcDbArc
 50
287.156779
 51
289.55485
  0
LWPOLYLINE
  5
7E
330
7B
100
AcDbEntity
  8
0
  6
Continuous
 62
     0
370
    30
100
AcDbPolyline
 90
        5
 70
     0
 43
0.0
 10
566.519287
 20
601.506592
 10
566.314026
 20
601.40564
 10
566.06012
 20
601.288574
 10
565.753845
 20
601.158569
 10
565.351562
 20
601.00531
  0
LWPOLYLINE
  5
7F
330
7B
100
AcDbEntity
  8
0
  6
Continuous
 62
     0
370
    30
100
AcDbPolyline
 90
        5
 70
     0
 43
0.0
 10
543.565979
 20
601.00531
 10
543.191101
 20
601.147522
 10
542.875244
 20
601.280701
 10
542.613953
 20
601.400696
 10
542.388367
 20
601.511597
  0
ARC
  5
80
330
7B
100
AcDbEntity
  8
0
  6
Continuous
 62
     0
370
    30
100
AcDbCircle
 10
555.085141
 20
633.43566
 30
0.0
 40
34.41538969682194
100
AcDbArc
 50
250.44515
 51
252.843221
  0
LINE
  5
81
330
7B
100
AcDbEntity
  8
0
  6
Continuous
 62
     0
370
    30
100
AcDbLine
 10
545.208772
 20
600.50592
 30
0.0
 11
544.933036
 21
600.551716
 31
0.0
  0
LINE
  5
82
330
7B
100
AcDbEntity
  8
0
  6
Continuous
 62
     0
370
    30
100
AcDbLine
 10
563.984507
 20
600.551716
 30
0.0
 11
563.708772
 21
600.468322
 31
0.0
  0
LINE
  5
83
330
7B
100
AcDbEntity
  8
0
  6
Continuous
 62
     0
370
    30
100
AcDbLine
 10
545.208772
 20
600.468322
 30
0.0
 11
544.933036
 21
600.551716
 31
0.0
  0
LWPOLYLINE
  5
84
330
7B
100
AcDbEntity
  8
0
  6
Continuous
 62
     0
370
    30
100
AcDbPolyline
 90
       36
 70
     0
 43
0.0
 10
542.388367
 20
601.511658
 10
542.592346
 20
601.41803
 10
542.871216
 20
601.305298
 10
543.222412
 20
601.175964
 10
543.642273
 20
601.033691
 10
544.127258
 20
600.882141
 10
544.675537
 20
600.725403
 10
545.2854
 20
600.567749
 10
545.954041
 20
600.413025
 10
546.678406
 20
600.264771
 10
547.455261
 20
600.125854
 10
548.281128
 20
599.999023
 10
549.150696
 20
599.886414
 10
550.057983
 20
599.789978
 10
550.99707
 20
599.711304
 10
551.962341
 20
599.651184
 10
552.947449
 20
599.610229
 10
553.94458
 20
599.589233
 10
554.945801
 20
599.588867
 10
555.943115
 20
599.609253
 10
556.92865
 20
599.649658
 10
557.894592
 20
599.709351
 10
558.834473
 20
599.787659
 10
559.742676
 20
599.883728
 10
560.613342
 20
599.995911
 10
561.44043
 20
600.122314
 10
562.218628
 20
600.260864
 10
562.944519
 20
600.408997
 10
563.615173
 20
600.563965
 10
564.227905
 20
600.721985
 10
564.779663
 20
600.879028
 10
565.267822
 20
601.031006
 10
565.689392
 20
601.173767
 10
566.041504
 20
601.303467
 10
566.321228
 20
601.416077
 10
566.529175
 20
601.511658
  0
LWPOLYLINE
  5
85
330
7B
100
AcDbEntity
  8
0
  6
Continuous
 62
     0
370
     0
100
AcDbPolyline
 90
       38
 70
     0
 43
0.0
 10
554.458801
 20
579.221008
 10
555.555603
 20
579.261169
 10
556.638794
 20
579.377136
 10
557.697021
 20
579.555481
 10
558.723572
 20
579.777954
 10
559.715515
 20
580.025024
 10
560.671936
 20
580.281311
 10
561.592468
 20
580.534424
 10
562.476379
 20
580.776123
 10
563.322693
 20
581.004028
 10
564.130005
 20
581.217712
 10
564.895752
 20
581.421509
 10
565.617371
 20
581.621033
 10
566.292236
 20
581.825073
 10
566.917603
 20
582.044983
 10
567.488831
 20
582.302368
 10
568.005676
 20
582.606384
 10
568.476685
 20
582.932495
 10
568.909973
 20
583.252991
 10
569.306458
 20
583.567444
 10
569.668152
 20
583.872986
 10
569.996887
 20
584.166748
 10
570.294495
 20
584.445496
 10
570.562744
 20
584.705566
 10
570.803284
 20
584.943481
 10
571.017883
 20
585.155334
 10
571.208008
 20
585.337341
 10
571.375122
 20
585.485535
 10
571.520691
 20
585.595947
 10
571.645874
 20
585.664856
 10
571.752014
 20
585.688843
 10
571.84021
 20
585.664795
 10
571.911682
 20
585.590088
 10
571.967529
 20
585.462524
 10
572.009033
 20
585.282104
 10
572.037292
 20
585.049133
 10
572.053467
 20
584.761719
 10
572.058777
 20
584.415466
  0
LWPOLYLINE
  5
86
330
7B
100
AcDbEntity
  8
0
  6
Continuous
 62
     0
370
     0
100
AcDbPolyline
 90
       41
 70
     0
 43
0.0
 10
572.058777
 20
584.415466
 10
572.051086
 20
585.255005
 10
572.027161
 20
586.071106
 10
571.988525
 20
586.868469
 10
571.937744
 20
587.650085
 10
571.877075
 20
588.417419
 10
571.807983
 20
589.168213
 10
571.73175
 20
589.900818
 10
571.649109
 20
590.614258
 10
571.560303
 20
591.30719
 10
571.465393
 20
591.978088
 10
571.364197
 20
592.625732
 10
571.256531
 20
593.249573
 10
571.142151
 20
593.849182
 10
571.020874
 20
594.424194
 10
570.892395
 20
594.974609
 10
570.756531
 20
595.500305
 10
570.612854
 20
596.001282
 10
570.46106
 20
596.477295
 10
570.300598
 20
596.928223
 10
570.131592
 20
597.354614
 10
569.954041
 20
597.757202
 10
569.76825
 20
598.136597
 10
569.574402
 20
598.493164
 10
569.36908
 20
598.823303
 10
569.158569
 20
599.134399
 10
568.950867
 20
599.433594
 10
568.709412
 20
599.682556
 10
568.404663
 20
599.861694
 10
568.071411
 20
600.015625
 10
567.74646
 20
600.177673
 10
567.461792
 20
600.362671
 10
567.205994
 20
600.548462
 10
566.961182
 20
600.714966
 10
566.72644
 20
600.857483
 10
566.498901
 20
600.97113
 10
566.273987
 20
601.051208
 10
566.048279
 20
601.095154
 10
565.820068
 20
601.102112
 10
565.588745
 20
601.072266
 10
565.351562
 20
601.005249
  0
LINE
  5
87
330
7B
100
AcDbEntity
  8
0
  6
Continuous
 62
     0
370
     0
100
AcDbLine
 10
554.458772
 20
597.117922
 30
0.0
 11
554.458772
 21
579.22101
 31
0.0
  0
LWPOLYLINE
  5
88
330
7B
100
AcDbEntity
  8
0
  6
Continuous
 62
     0
370
     0
100
AcDbPolyline
 90
       38
 70
     0
 43
0.0
 10
536.858765
 20
584.415466
 10
536.863831
 20
584.755127
 10
536.879761
 20
585.043762
 10
536.907776
 20
585.277771
 10
536.948975
 20
585.459351
 10
537.004578
 20
585.587952
 10
537.075684
 20
585.663757
 10
537.163513
 20
585.688843
 10
537.269226
 20
585.665833
 10
537.394043
 20
585.597778
 10
537.539124
 20
585.48822
 10
537.705811
 20
585.34082
 10
537.895447
 20
585.159424
 10
538.109497
 20
584.94812
 10
538.349548
 20
584.710754
 10
538.617188
 20
584.451111
 10
538.914124
 20
584.172729
 10
539.242249
 20
583.879272
 10
539.60321
 20
583.573914
 10
539.998962
 20
583.259583
 10
540.431458
 20
582.939209
 10
540.901611
 20
582.613098
 10
541.417419
 20
582.308228
 10
541.987427
 20
582.049866
 10
542.611755
 20
581.829468
 10
543.285645
 20
581.625183
 10
544.006287
 20
581.425659
 10
544.771179
 20
581.222046
 10
545.577637
 20
581.008606
 10
546.423157
 20
580.781006
 10
547.306335
 20
580.539612
 10
548.226074
 20
580.286621
 10
549.181763
 20
580.030334
 10
550.172974
 20
579.782898
 10
551.198792
 20
579.559753
 10
552.25647
 20
579.38031
 10
553.339172
 20
579.262878
 10
554.458801
 20
579.221008
  0
LWPOLYLINE
  5
89
330
7B
100
AcDbEntity
  8
0
  6
Continuous
 62
     0
370
     0
100
AcDbPolyline
 90
       41
 70
     0
 43
0.0
 10
543.565979
 20
601.005249
 10
543.331238
 20
601.071716
 10
543.099915
 20
601.10199
 10
542.871582
 20
601.095459
 10
542.645935
 20
601.05188
 10
542.420959
 20
600.972168
 10
542.193542
 20
600.858826
 10
541.958862
 20
600.716553
 10
541.714111
 20
600.550293
 10
541.458496
 20
600.364685
 10
541.174255
 20
600.179504
 10
540.849609
 20
600.017273
 10
540.516296
 20
599.863342
 10
540.210999
 20
599.684753
 10
539.968933
 20
599.436523
 10
539.761108
 20
599.137695
 10
539.55072
 20
598.826599
 10
539.345276
 20
598.496765
 10
539.151245
 20
598.140503
 10
538.965393
 20
597.761353
 10
538.787781
 20
597.358948
 10
538.618652
 20
596.9328
 10
538.458191
 20
596.482117
 10
538.306213
 20
596.006409
 10
538.162476
 20
595.505798
 10
538.026489
 20
594.980347
 10
537.897949
 20
594.430237
 10
537.77655
 20
593.85553
 10
537.662109
 20
593.256226
 10
537.554443
 20
592.632629
 10
537.453186
 20
591.985168
 10
537.358154
 20
591.314514
 10
537.269348
 20
590.621826
 10
537.186646
 20
589.908569
 10
537.110291
 20
589.176147
 10
537.041199
 20
588.425537
 10
536.980408
 20
587.658386
 10
536.929504
 20
586.876892
 10
536.890686
 20
586.079712
 10
536.866577
 20
585.263794
 10
536.858765
 20
584.415466
  0
LWPOLYLINE
  5
8A
330
7B
100
AcDbEntity
  8
0
  6
Continuous
 62
     0
370
    30
100
AcDbPolyline
 90
       30
 70
     0
 43
0.0
 10
536.858765
 20
610.518372
 10
536.858765
 20
610.479797
 10
536.858765
 20
610.36322
 10
536.858765
 20
610.168091
 10
536.858765
 20
609.894409
 10
536.858765
 20
609.542419
 10
536.858765
 20
609.11377
 10
536.858765
 20
608.611328
 10
536.858765
 20
608.03949
 10
536.858765
 20
607.406677
 10
536.858765
 20
606.724121
 10
536.858765
 20
605.997314
 10
536.858765
 20
605.217651
 10
536.858765
 20
604.383728
 10
536.858765
 20
603.498047
 10
536.858765
 20
602.561707
 10
536.858765
 20
601.575378
 10
536.858765
 20
600.53949
 10
536.858765
 20
599.45459
 10
536.858765
 20
598.320801
 10
536.858765
 20
597.138245
 10
536.858765
 20
595.907043
 10
536.858765
 20
594.627502
 10
536.858765
 20
593.299805
 10
536.858765
 20
591.924438
 10
536.858765
 20
590.503235
 10
536.858765
 20
589.038513
 10
536.858765
 20
587.533447
 10
536.858765
 20
585.994019
 10
536.858765
 20
584.415466
  0
LWPOLYLINE
  5
8B
330
7B
100
AcDbEntity
  8
0
  6
Continuous
 62
     0
370
    30
100
AcDbPolyline
 90
       30
 70
     0
 43
0.0
 10
572.058777
 20
610.518372
 10
572.058777
 20
610.479797
 10
572.058777
 20
610.36322
 10
572.058777
 20
610.168091
 10
572.058777
 20
609.894409
 10
572.058777
 20
609.542419
 10
572.058777
 20
609.11377
 10
572.058777
 20
608.611328
 10
572.058777
 20
608.03949
 10
572.058777
 20
607.406677
 10
572.058777
 20
606.724121
 10
572.058777
 20
605.997314
 10
572.058777
 20
605.217651
 10
572.058777
 20
604.383728
 10
572.058777
 20
603.498047
 10
572.058777
 20
602.561707
 10
572.058777
 20
601.575378
 10
572.058777
 20
600.53949
 10
572.058777
 20
599.45459
 10
572.058777
 20
598.320801
 10
572.058777
 20
597.138245
 10
572.058777
 20
595.907043
 10
572.058777
 20
594.627502
 10
572.058777
 20
593.299805
 10
572.058777
 20
591.924438
 10
572.058777
 20
590.503235
 10
572.058777
 20
589.038513
 10
572.058777
 20
587.533447
 10
572.058777
 20
585.994019
 10
572.058777
 20
584.415466
  0
ARC
  5
8C
330
7B
100
AcDbEntity
  8
0
  6
Continuous
 62
     0
370
     0
100
AcDbCircle
 10
546.959295
 20
610.518752
 30
0.0
 40
10.10052246011894
100
AcDbArc
 50
180.002077
 51
243.09315
  0
ARC
  5
8D
330
7B
100
AcDbEntity
  8
0
  6
Continuous
 62
     0
370
     0
100
AcDbCircle
 10
561.959688
 20
610.518341
 30
0.0
 40
10.09908798382993
100
AcDbArc
 50
305.419339
 51
0.000249
  0
LWPOLYLINE
  5
8E
330
7B
100
AcDbEntity
  8
0
  6
Continuous
 62
     0
370
     0
100
AcDbPolyline
 90
       55
 70
     0
 43
0.0
 10
536.858765
 20
610.518372
 10
536.896606
 20
610.514587
 10
536.998962
 20
610.496155
 10
537.175903
 20
610.470703
 10
537.419373
 20
610.434998
 10
537.727295
 20
610.389954
 10
538.098755
 20
610.337341
 10
538.530029
 20
610.277893
 10
539.017395
 20
610.212708
 10
539.55719
 20
610.143066
 10
540.145813
 20
610.070251
 10
540.779663
 20
609.995422
 10
541.455017
 20
609.919617
 10
542.168335
 20
609.843994
 10
542.916016
 20
609.769592
 10
543.695007
 20
609.697266
 10
544.502136
 20
609.627869
 10
545.334412
 20
609.562256
 10
546.188782
 20
609.501038
 10
547.062317
 20
609.444763
 10
547.952026
 20
609.393921
 10
548.855469
 20
609.34906
 10
549.770874
 20
609.310547
 10
550.696228
 20
609.278687
 10
551.629333
 20
609.253662
 10
552.568054
 20
609.235596
 10
553.510315
 20
609.22467
 10
554.454468
 20
609.221069
 10
555.398804
 20
609.22467
 10
556.34137
 20
609.235474
 10
557.28009
 20
609.253418
 10
558.21344
 20
609.278442
 10
559.139771
 20
609.310303
 10
560.05658
 20
609.348816
 10
560.961487
 20
609.393677
 10
561.852051
 20
609.444458
 10
562.725708
 20
609.500732
 10
563.579834
 20
609.561951
 10
564.411804
 20
609.627563
 10
565.218872
 20
609.69696
 10
565.997925
 20
609.769287
 10
566.745789
 20
609.843689
 10
567.459351
 20
609.919312
 10
568.13501
 20
609.995117
 10
568.769165
 20
610.069946
 10
569.358093
 20
610.142822
 10
569.898132
 20
610.212463
 10
570.385681
 20
610.277649
 10
570.817017
 20
610.337036
 10
571.188599
 20
610.389709
 10
571.49707
 20
610.434875
 10
571.740723
 20
610.47052
 10
571.917358
 20
610.495789
 10
572.022034
 20
610.51416
 10
572.058777
 20
610.518372
  0
LINE
  5
8F
330
7B
100
AcDbEntity
  8
0
  6
Continuous
 62
     0
370
    30
100
AcDbLine
 10
572.058772
 20
610.518385
 30
0.0
 11
572.058772
 21
614.797439
 31
0.0
  0
LINE
  5
90
330
7B
100
AcDbEntity
  8
0
  6
Continuous
 62
     0
370
     0
100
AcDbLine
 10
572.058772
 20
614.797439
 30
0.0
 11
536.858772
 21
614.797439
 31
0.0
  0
LINE
  5
91
330
7B
100
AcDbEntity
  8
0
  6
Continuous
 62
     0
370
    30
100
AcDbLine
 10
536.858772
 20
614.797439
 30
0.0
 11
536.858772
 21
610.518385
 31
0.0
  0
LINE
  5
92
330
7B
100
AcDbEntity
  8
0
  6
Continuous
 62
     0
370
    30
100
AcDbLine
 10
571.458772
 20
615.397439
 30
0.0
 11
537.458772
 21
615.397439
 31
0.0
  0
LINE
  5
93
330
7B
100
AcDbEntity
  8
0
  6
Continuous
 62
     0
370
    30
100
AcDbLine
 10
536.858772
 20
481.867439
 30
0.0
 11
554.458772
 21
481.867439
 31
0.0
  0
ARC
  5
94
330
7B
100
AcDbEntity
  8
0
  6
Continuous
 62
     0
370
    30
100
AcDbCircle
 10
537.458772
 20
614.797439
 30
0.0
 40
0.600000023842114
100
AcDbArc
 50
90.0
 51
180.0
  0
ARC
  5
95
330
7B
100
AcDbEntity
  8
0
  6
Continuous
 62
     0
370
    30
100
AcDbCircle
 10
571.458772
 20
614.797439
 30
0.0
 40
0.6000000238420851
100
AcDbArc
 50
0.0
 51
90.0
  0
LINE
  5
96
330
7B
100
AcDbEntity
  8
0
  6
Continuous
 62
     0
370
    30
100
AcDbLine
 10
572.058772
 20
481.867439
 30
0.0
 11
572.058772
 21
584.415487
 31
0.0
  0
LINE
  5
97
330
7B
100
AcDbEntity
  8
0
  6
Continuous
 62
     0
370
    30
100
AcDbLine
 10
536.858772
 20
481.867439
 30
0.0
 11
536.858772
 21
584.415487
 31
0.0
  0
ARC
  5
98
330
7B
100
AcDbEntity
  8
0
  6
Continuous
 62
     0
370
    30
100
AcDbCircle
 10
561.933153
 20
610.556228
 30
0.0
 40
10.14533731532151
100
AcDbArc
 50
296.858325
 51
305.417458
  0
ARC
  5
99
330
7B
100
AcDbEntity
  8
0
  6
Continuous
 62
     0
370
    30
100
AcDbCircle
 10
553.738497
 20
614.441886
 30
0.0
 40
17.50231600166825
100
AcDbArc
 50
3.129678
 51
11.220044
  0
ARC
  5
9A
330
7B
100
AcDbEntity
  8
0
  6
Continuous
 62
     0
370
    30
100
AcDbCircle
 10
555.179046
 20
614.441886
 30
0.0
 40
17.50231600165564
100
AcDbArc
 50
168.779956
 51
176.870322
  0
LWPOLYLINE
  5
9B
330
7B
100
AcDbEntity
  8
0
  6
Continuous
 62
     0
370
     0
100
AcDbPolyline
 90
       48
 70
     0
 43
0.0
 10
536.708801
 20
650.773254
 10
536.748474
 20
650.978943
 10
536.867126
 20
651.183899
 10
537.064331
 20
651.387146
 10
537.339294
 20
651.587524
 10
537.690613
 20
651.78418
 10
538.11676
 20
651.976379
 10
538.616028
 20
652.163147
 10
539.185913
 20
652.343811
 10
539.823914
 20
652.517395
 10
540.527405
 20
652.683228
 10
541.29303
 20
652.840515
 10
542.117432
 20
652.988586
 10
542.997009
 20
653.12677
 10
543.927673
 20
653.254395
 10
544.905334
 20
653.371033
 10
545.92572
 20
653.476013
 10
546.984192
 20
653.568909
 10
548.075989
 20
653.649353
 10
549.19635
 20
653.716919
 10
550.34021
 20
653.771423
 10
551.50238
 20
653.8125
 10
552.677795
 20
653.839966
 10
553.861206
 20
653.85376
 10
555.047241
 20
653.853821
 10
556.230591
 20
653.840149
 10
557.406128
 20
653.812744
 10
558.568481
 20
653.77179
 10
559.712463
 20
653.717407
 10
560.833008
 20
653.649902
 10
561.925049
 20
653.56958
 10
562.983765
 20
653.476746
 10
564.004456
 20
653.371887
 10
564.982483
 20
653.255371
 10
565.913574
 20
653.127747
 10
566.793518
 20
652.989685
 10
567.618347
 20
652.841675
 10
568.38446
 20
652.684448
 10
569.08844
 20
652.518738
 10
569.72699
 20
652.345154
 10
570.297424
 20
652.164612
 10
570.79718
 20
651.977844
 10
571.223938
 20
651.785706
 10
571.575806
 20
651.58905
 10
571.851379
 20
651.388672
 10
572.049194
 20
651.185486
 10
572.168457
 20
650.98053
 10
572.208801
 20
650.773254
  0
LWPOLYLINE
  5
9C
330
7B
100
AcDbEntity
  8
0
  6
Continuous
 62
     0
370
     0
100
AcDbPolyline
 90
       25
 70
     0
 43
0.0
 10
572.208801
 20
631.229858
 10
572.174194
 20
631.632568
 10
572.069458
 20
632.008301
 10
571.893188
 20
632.355957
 10
571.644653
 20
632.675354
 10
571.323425
 20
632.966553
 10
570.929626
 20
633.230164
 10
570.463806
 20
633.467041
 10
569.92804
 20
633.678894
 10
569.32428
 20
633.867249
 10
568.654846
 20
634.03418
 10
567.92218
 20
634.182312
 10
567.129517
 20
634.314209
 10
566.280884
 20
634.432312
 10
565.380127
 20
634.539246
 10
564.430969
 20
634.637634
 10
563.437561
 20
634.729858
 10
562.404724
 20
634.818176
 10
561.337158
 20
634.904724
 10
560.240356
 20
635.005066
 10
559.119812
 20
635.124451
 10
557.97937
 20
635.246338
 10
556.822205
 20
635.354797
 10
555.651062
 20
635.433289
 10
554.458801
 20
635.463684
  0
LINE
  5
9D
330
7B
100
AcDbEntity
  8
0
  6
Continuous
 62
     0
370
    30
100
AcDbLine
 10
554.458772
 20
617.847443
 30
0.0
 11
572.208772
 21
617.847443
 31
0.0
  0
LINE
  5
9E
330
7B
100
AcDbEntity
  8
0
  6
Continuous
 62
     0
370
    30
100
AcDbLine
 10
536.708772
 20
617.847443
 30
0.0
 11
554.458772
 21
617.847443
 31
0.0
  0
LWPOLYLINE
  5
9F
330
7B
100
AcDbEntity
  8
0
  6
Continuous
 62
     0
370
     0
100
AcDbPolyline
 90
       25
 70
     0
 43
0.0
 10
554.458801
 20
635.463684
 10
553.281189
 20
635.434021
 10
552.109985
 20
635.356018
 10
550.952576
 20
635.247803
 10
549.81189
 20
635.125977
 10
548.691101
 20
635.006531
 10
547.593994
 20
634.905884
 10
546.526001
 20
634.819275
 10
545.492676
 20
634.731018
 10
544.498779
 20
634.638855
 10
543.549011
 20
634.540527
 10
542.647644
 20
634.433716
 10
541.79834
 20
634.315735
 10
541.004944
 20
634.184082
 10
540.271484
 20
634.036133
 10
539.601257
 20
633.869446
 10
538.996704
 20
633.681396
 10
538.460022
 20
633.469849
 10
537.993347
 20
633.233276
 10
537.598572
 20
632.970032
 10
537.276489
 20
632.679199
 10
537.027039
 20
632.360168
 10
536.849854
 20
632.012817
 10
536.744202
 20
631.637451
 10
536.708801
 20
631.229858
  0
LINE
  5
A0
330
7B
100
AcDbEntity
  8
0
  6
Continuous
 62
     0
370
    30
100
AcDbLine
 10
536.708772
 20
631.229833
 30
0.0
 11
536.708772
 21
644.066622
 31
0.0
  0
LINE
  5
A1
330
7B
100
AcDbEntity
  8
0
  6
Continuous
 62
     0
370
    30
100
AcDbLine
 10
536.708772
 20
644.066622
 30
0.0
 11
536.708772
 21
649.574003
 31
0.0
  0
LINE
  5
A2
330
7B
100
AcDbEntity
  8
0
  6
Continuous
 62
     0
370
    30
100
AcDbLine
 10
536.708772
 20
649.574003
 30
0.0
 11
536.708772
 21
650.773271
 31
0.0
  0
LWPOLYLINE
  5
A3
330
7B
100
AcDbEntity
  8
0
  6
Continuous
 62
     0
370
     0
100
AcDbPolyline
 90
       12
 70
     0
 43
0.0
 10
537.984131
 20
642.606079
 10
539.23291
 20
642.602539
 10
540.54834
 20
642.589966
 10
541.924683
 20
642.570435
 10
543.35675
 20
642.545715
 10
544.837708
 20
642.517761
 10
546.363525
 20
642.486511
 10
547.929077
 20
642.451355
 10
549.520447
 20
642.416748
 10
551.127075
 20
642.386902
 10
552.741333
 20
642.365845
 10
554.458801
 20
642.357361
  0
LWPOLYLINE
  5
A4
330
7B
100
AcDbEntity
  8
0
  6
Continuous
 62
     0
370
     0
100
AcDbPolyline
 90
       21
 70
     0
 43
0.0
 10
536.708801
 20
631.229858
 10
536.727539
 20
631.827393
 10
536.778931
 20
632.449158
 10
536.854675
 20
633.097595
 10
536.945984
 20
633.770142
 10
537.043762
 20
634.46344
 10
537.139954
 20
635.171814
 10
537.229187
 20
635.886963
 10
537.309326
 20
636.598938
 10
537.382568
 20
637.296509
 10
537.456177
 20
637.968384
 10
537.530029
 20
638.611633
 10
537.595703
 20
639.230225
 10
537.649597
 20
639.820923
 10
537.69342
 20
640.376709
 10
537.731689
 20
640.889709
 10
537.766785
 20
641.353394
 10
537.803101
 20
641.761841
 10
537.846924
 20
642.109314
 10
537.904419
 20
642.390747
 10
537.984131
 20
642.606079
  0
LINE
  5
A5
330
7B
100
AcDbEntity
  8
0
  6
Continuous
 62
     0
370
     0
100
AcDbLine
 10
554.458772
 20
642.357333
 30
0.0
 11
554.458772
 21
635.463679
 31
0.0
  0
LINE
  5
A6
330
7B
100
AcDbEntity
  8
0
  6
Continuous
 62
     0
370
     0
100
AcDbLine
 10
570.933426
 20
642.606072
 30
0.0
 11
570.933426
 21
648.113453
 31
0.0
  0
LWPOLYLINE
  5
A7
330
7B
100
AcDbEntity
  8
0
  6
Continuous
 62
     0
370
     0
100
AcDbPolyline
 90
       49
 70
     0
 43
0.0
 10
570.933411
 20
648.113464
 10
570.89502
 20
648.286987
 10
570.779968
 20
648.448669
 10
570.589539
 20
648.5979
 10
570.32605
 20
648.73407
 10
569.991882
 20
648.856567
 10
569.589172
 20
648.965576
 10
569.1203
 20
649.06189
 10
568.587891
 20
649.146057
 10
567.995178
 20
649.218628
 10
567.345581
 20
649.280212
 10
566.642578
 20
649.331726
 10
565.889648
 20
649.374023
 10
565.090698
 20
649.408081
 10
564.250122
 20
649.434875
 10
563.372437
 20
649.455322
 10
562.462036
 20
649.47052
 10
561.523193
 20
649.481201
 10
560.559937
 20
649.488342
 10
559.576111
 20
649.492798
 10
558.575073
 20
649.495239
 10
557.560181
 20
649.496399
 10
556.534851
 20
649.496643
 10
555.502563
 20
649.49646
 10
554.466858
 20
649.496338
 10
553.43103
 20
649.49646
 10
552.398682
 20
649.496643
 10
551.37323
 20
649.49646
 10
550.358154
 20
649.4953
 10
549.356873
 20
649.49292
 10
548.372742
 20
649.488525
 10
547.409119
 20
649.481445
 10
546.469849
 20
649.470764
 10
545.559021
 20
649.455688
 10
544.680725
 20
649.435303
 10
543.8396
 20
649.40863
 10
543.039978
 20
649.374695
 10
542.286316
 20
649.33252
 10
541.582458
 20
649.281128
 10
540.932007
 20
649.219727
 10
540.33844
 20
649.147339
 10
539.805115
 20
649.063354
 10
539.335144
 20
648.967224
 10
538.931458
 20
648.858398
 10
538.596191
 20
648.736145
 10
538.331604
 20
648.600159
 10
538.140015
 20
648.451111
 10
538.023743
 20
648.289612
 10
537.984131
 20
648.113464
  0
LINE
  5
A8
330
7B
100
AcDbEntity
  8
0
  6
Continuous
 62
     0
370
     0
100
AcDbLine
 10
537.984117
 20
648.113453
 30
0.0
 11
537.984117
 21
642.606072
 31
0.0
  0
LWPOLYLINE
  5
A9
330
7B
100
AcDbEntity
  8
0
  6
Continuous
 62
     0
370
     0
100
AcDbPolyline
 90
       12
 70
     0
 43
0.0
 10
554.458801
 20
642.357361
 10
556.074768
 20
642.365234
 10
557.690613
 20
642.385681
 10
559.299744
 20
642.414856
 10
560.8927
 20
642.449219
 10
562.459351
 20
642.484436
 10
563.987244
 20
642.515991
 10
565.470093
 20
642.544067
 10
566.904297
 20
642.569031
 10
568.283264
 20
642.588928
 10
569.601379
 20
642.60199
 10
570.933411
 20
642.606079
  0
LWPOLYLINE
  5
AA
330
7B
100
AcDbEntity
  8
0
  6
Continuous
 62
     0
370
     0
100
AcDbPolyline
 90
       48
 70
     0
 43
0.0
 10
536.708801
 20
649.573975
 10
536.748352
 20
649.779724
 10
536.86731
 20
649.984375
 10
537.064758
 20
650.186523
 10
537.339661
 20
650.384521
 10
537.690613
 20
650.577454
 10
538.116211
 20
650.764648
 10
538.61499
 20
650.945862
 10
539.184937
 20
651.120728
 10
539.823303
 20
651.288879
 10
540.527222
 20
651.44989
 10
541.293701
 20
651.603455
 10
542.118896
 20
651.749146
 10
542.998657
 20
651.886719
 10
543.928833
 20
652.015747
 10
544.905457
 20
652.135864
 10
545.924438
 20
652.24646
 10
546.982056
 20
652.346802
 10
548.073975
 20
652.436096
 10
549.194946
 20
652.513306
 10
550.339661
 20
652.577393
 10
551.502625
 20
652.627258
 10
552.67865
 20
652.661804
 10
553.862488
 20
652.679688
 10
555.049011
 20
652.679749
 10
556.232849
 20
652.662048
 10
557.408936
 20
652.627686
 10
558.572021
 20
652.577942
 10
559.716797
 20
652.513977
 10
560.837952
 20
652.43689
 10
561.929993
 20
652.347656
 10
562.987793
 20
652.247314
 10
564.007019
 20
652.13678
 10
564.983826
 20
652.016724
 10
565.914307
 20
651.887695
 10
566.794312
 20
651.750183
 10
567.619751
 20
651.604492
 10
568.386536
 20
651.450928
 10
569.09082
 20
651.289917
 10
569.729553
 20
651.121765
 10
570.299866
 20
650.946899
 10
570.799011
 20
650.765686
 10
571.224976
 20
650.578491
 10
571.576294
 20
650.385559
 10
571.851562
 20
650.187561
 10
572.049438
 20
649.985413
 10
572.168762
 20
649.780762
 10
572.208801
 20
649.573975
  0
LINE
  5
AB
330
7B
100
AcDbEntity
  8
0
  6
Continuous
 62
     0
370
    30
100
AcDbLine
 10
572.208772
 20
649.574003
 30
0.0
 11
572.208772
 21
650.773271
 31
0.0
  0
LINE
  5
AC
330
7B
100
AcDbEntity
  8
0
  6
Continuous
 62
     0
370
    30
100
AcDbLine
 10
572.208772
 20
644.066622
 30
0.0
 11
572.208772
 21
649.574003
 31
0.0
  0
LINE
  5
AD
330
7B
100
AcDbEntity
  8
0
  6
Continuous
 62
     0
370
    30
100
AcDbLine
 10
572.208772
 20
631.229839
 30
0.0
 11
572.208772
 21
644.066622
 31
0.0
  0
LWPOLYLINE
  5
AE
330
7B
100
AcDbEntity
  8
0
  6
Continuous
 62
     0
370
     0
100
AcDbPolyline
 90
       21
 70
     0
 43
0.0
 10
570.933411
 20
642.606079
 10
571.011292
 20
642.397583
 10
571.069275
 20
642.118103
 10
571.113342
 20
641.7724
 10
571.14978
 20
641.365601
 10
571.184814
 20
640.903381
 10
571.222961
 20
640.391663
 10
571.266602
 20
639.836975
 10
571.320129
 20
639.247192
 10
571.385559
 20
638.629272
 10
571.459229
 20
637.986755
 10
571.532959
 20
637.315735
 10
571.606079
 20
636.618652
 10
571.686035
 20
635.906982
 10
571.774963
 20
635.191711
 10
571.871033
 20
634.483093
 10
571.968872
 20
633.789307
 10
572.060486
 20
633.116089
 10
572.136841
 20
632.466919
 10
572.188965
 20
631.844421
 10
572.208801
 20
631.229858
  0
LWPOLYLINE
  5
AF
330
7B
100
AcDbEntity
  8
0
  6
Continuous
 62
     0
370
     0
100
AcDbPolyline
 90
        8
 70
     0
 43
0.0
 10
570.933411
 20
642.606079
 10
571.221069
 20
642.678406
 10
571.489502
 20
642.805298
 10
571.726807
 20
642.98175
 10
571.92395
 20
643.200623
 10
572.073547
 20
643.453613
 10
572.169434
 20
643.731201
 10
572.208801
 20
644.06665
  0
LWPOLYLINE
  5
B0
330
7B
100
AcDbEntity
  8
0
  6
Continuous
 62
     0
370
     0
100
AcDbPolyline
 90
        8
 70
     0
 43
0.0
 10
572.208801
 20
649.573975
 10
572.17926
 20
649.283081
 10
572.092041
 20
649.002686
 10
571.950439
 20
648.745239
 10
571.760193
 20
648.520447
 10
571.528564
 20
648.336914
 10
571.264343
 20
648.201965
 10
570.933411
 20
648.113464
  0
LWPOLYLINE
  5
B1
330
7B
100
AcDbEntity
  8
0
  6
Continuous
 62
     0
370
     0
100
AcDbPolyline
 90
        8
 70
     0
 43
0.0
 10
537.984131
 20
648.113464
 10
537.696472
 20
648.185791
 10
537.42804
 20
648.312683
 10
537.190735
 20
648.489136
 10
536.993591
 20
648.708008
 10
536.843994
 20
648.960999
 10
536.748108
 20
649.238525
 10
536.708801
 20
649.573975
  0
LWPOLYLINE
  5
B2
330
7B
100
AcDbEntity
  8
0
  6
Continuous
 62
     0
370
     0
100
AcDbPolyline
 90
        8
 70
     0
 43
0.0
 10
537.984131
 20
642.606079
 10
537.696472
 20
642.678406
 10
537.42804
 20
642.805298
 10
537.190735
 20
642.98175
 10
536.993591
 20
643.200623
 10
536.843994
 20
643.453613
 10
536.748108
 20
643.731201
 10
536.708801
 20
644.06665
  0
LINE
  5
B3
330
7B
100
AcDbEntity
  8
0
  6
Continuous
 62
     0
370
    30
100
AcDbLine
 10
572.208772
 20
617.847443
 30
0.0
 11
572.208772
 21
631.229839
 31
0.0
  0
LINE
  5
B4
330
7B
100
AcDbEntity
  8
0
  6
Continuous
 62
     0
370
    30
100
AcDbLine
 10
536.708772
 20
617.847443
 30
0.0
 11
536.708772
 21
631.229833
 31
0.0
  0
LWPOLYLINE
  5
B5
330
7B
100
AcDbEntity
  8
0
  6
Continuous
 62
     0
370
    30
100
AcDbPolyline
 90
       56
 70
     0
 43
0.0
 10
536.708801
 20
650.773254
 10
536.759399
 20
651.092346
 10
536.895081
 20
651.376282
 10
537.091797
 20
651.621338
 10
537.336426
 20
651.836121
 10
537.625977
 20
652.031433
 10
537.960754
 20
652.213562
 10
538.341736
 20
652.38623
 10
538.769714
 20
652.55127
 10
539.244751
 20
652.709656
 10
539.766541
 20
652.861694
 10
540.334106
 20
653.007446
 10
540.946045
 20
653.146729
 10
541.60083
 20
653.279236
 10
542.296814
 20
653.404724
 10
543.03186
 20
653.522888
 10
543.803589
 20
653.633362
 10
544.609558
 20
653.735901
 10
545.447388
 20
653.8302
 10
546.314514
 20
653.915894
 10
547.208252
 20
653.992798
 10
548.125549
 20
654.060608
 10
549.063477
 20
654.119141
 10
550.019043
 20
654.168213
 10
550.989075
 20
654.207703
 10
551.970398
 20
654.237427
 10
552.959839
 20
654.257324
 10
553.954224
 20
654.267334
 10
554.950256
 20
654.267395
 10
555.944641
 20
654.257568
 10
556.934204
 20
654.237793
 10
557.915649
 20
654.208191
 10
558.885864
 20
654.168823
 10
559.841614
 20
654.119873
 10
560.779785
 20
654.061462
 10
561.697388
 20
653.993713
 10
562.59137
 20
653.916992
 10
563.458984
 20
653.83136
 10
564.297363
 20
653.737244
 10
565.103882
 20
653.634827
 10
565.876038
 20
653.524414
 10
566.611389
 20
653.406372
 10
567.307739
 20
653.280945
 10
567.963135
 20
653.148499
 10
568.575684
 20
653.009338
 10
569.14386
 20
652.863647
 10
569.666199
 20
652.711731
 10
570.141907
 20
652.553406
 10
570.570496
 20
652.388367
 10
570.952087
 20
652.216003
 10
571.287415
 20
652.033936
 10
571.577637
 20
651.838867
 10
571.822815
 20
651.624268
 10
572.020203
 20
651.379822
 10
572.15686
 20
651.096375
 10
572.208801
 20
650.773254
  0
ELLIPSE
  5
B6
330
7B
100
AcDbEntity
  8
0
  6
Continuous
 62
     0
370
    30
100
AcDbEllipse
 10
554.458772
 20
598.405273
 30
0.0
 11
-9.25
 21
-1.361126531953457E-15
 31
0.0
210
0.0
220
0.0
230
-1.0
 40
0.139173
 41
1.836346180611759
 42
4.354259334589186
  0
ELLIPSE
  5
B7
330
7B
100
AcDbEntity
  8
0
  6
Continuous
 62
     0
370
    30
100
AcDbEllipse
 10
554.458772
 20
598.405273
 30
0.0
 11
-9.25
 21
-1.361126531953457E-15
 31
0.0
210
0.0
220
0.0
230
-1.0
 40
0.139173
 41
1.21266618099939
 42
1.30541981540449
  0
ELLIPSE
  5
B8
330
7B
100
AcDbEntity
  8
0
  6
Continuous
 62
     0
370
    30
100
AcDbEllipse
 10
554.458772
 20
598.405273
 30
0.0
 11
-9.25
 21
-1.361126531953457E-15
 31
0.0
210
0.0
220
0.0
230
-1.0
 40
0.139173
 41
4.354258834589183
 42
7.495851488178976
  0
LINE
  5
B9
330
7B
100
AcDbEntity
  8
0
  6
Continuous
 62
     0
370
    30
100
AcDbLine
 10
545.208772
 20
600.586681
 30
0.0
 11
545.208772
 21
598.405273
 31
0.0
  0
LINE
  5
BA
330
7B
100
AcDbEntity
  8
0
  6
Continuous
 62
     0
370
    30
100
AcDbLine
 10
563.708772
 20
600.587031
 30
0.0
 11
563.708772
 21
598.405273
 31
0.0
  0
LINE
  5
BB
330
7B
100
AcDbEntity
  8
0
  6
Continuous
 62
     0
370
    30
100
AcDbLine
 10
572.058772
 20
481.867439
 30
0.0
 11
554.458772
 21
481.867439
 31
0.0
  0
LINE
  5
BC
330
7B
100
AcDbEntity
  8
0
  6
Continuous
 62
     0
370
    30
100
AcDbLine
 10
572.058772
 20
361.867439
 30
0.0
 11
572.058772
 21
481.867439
 31
0.0
  0
LINE
  5
BD
330
7B
100
AcDbEntity
  8
0
  6
Continuous
 62
     0
370
    30
100
AcDbLine
 10
536.858772
 20
361.867439
 30
0.0
 11
536.858772
 21
481.867439
 31
0.0
  0
LWPOLYLINE
  5
BE
330
7B
100
AcDbEntity
  8
0
  6
Continuous
 62
     0
370
    30
100
AcDbPolyline
 90
       58
 70
     0
 43
0.0
 10
527.684937
 20
361.867432
 10
527.718628
 20
361.867432
 10
527.821777
 20
361.867432
 10
527.997192
 20
361.867432
 10
528.24707
 20
361.867432
 10
528.573242
 20
361.867432
 10
528.976929
 20
361.867432
 10
529.458618
 20
361.867432
 10
530.018188
 20
361.867432
 10
530.654663
 20
361.867432
 10
531.366455
 20
361.867432
 10
532.151306
 20
361.867432
 10
533.006104
 20
361.867432
 10
533.927124
 20
361.867432
 10
534.910034
 20
361.867432
 10
535.950012
 20
361.867432
 10
537.041687
 20
361.867432
 10
538.179382
 20
361.867432
 10
539.356995
 20
361.867432
 10
540.568359
 20
361.867432
 10
541.807251
 20
361.867432
 10
543.067322
 20
361.867432
 10
544.342468
 20
361.867432
 10
545.626709
 20
361.867432
 10
546.914246
 20
361.867432
 10
548.199646
 20
361.867432
 10
549.477844
 20
361.867432
 10
550.744202
 20
361.867432
 10
552.012573
 20
361.867432
 10
553.31012
 20
361.867432
 10
554.633728
 20
361.867432
 10
555.979187
 20
361.867432
 10
557.341797
 20
361.867432
 10
558.716431
 20
361.867432
 10
560.097534
 20
361.867432
 10
561.479248
 20
361.867432
 10
562.855408
 20
361.867432
 10
564.219604
 20
361.867432
 10
565.565308
 20
361.867432
 10
566.885986
 20
361.867432
 10
568.17511
 20
361.867432
 10
569.426392
 20
361.867432
 10
570.633789
 20
361.867432
 10
571.791565
 20
361.867432
 10
572.894531
 20
361.867432
 10
573.937988
 20
361.867432
 10
574.917847
 20
361.867432
 10
575.830566
 20
361.867432
 10
576.673462
 20
361.867432
 10
577.444458
 20
361.867432
 10
578.142151
 20
361.867432
 10
578.76593
 20
361.867432
 10
579.315735
 20
361.867432
 10
579.792236
 20
361.867432
 10
580.196594
 20
361.867432
 10
580.530518
 20
361.867432
 10
580.796265
 20
361.867432
 10
580.998596
 20
361.867432
  0
LINE
  5
BF
330
7B
100
AcDbEntity
  8
0
  6
Continuous
 62
     0
370
    30
100
AcDbLine
 10
580.998573
 20
361.867442
 30
0.0
 11
581.232583
 21
361.867442
 31
0.0
  0
LWPOLYLINE
  5
C0
330
7B
100
AcDbEntity
  8
0
  6
Continuous
 62
     0
370
    30
100
AcDbPolyline
 90
       58
 70
     0
 43
0.0
 10
527.458801
 20
358.66745
 10
527.492737
 20
358.66745
 10
527.596802
 20
358.66745
 10
527.773682
 20
358.66745
 10
528.025696
 20
358.66745
 10
528.354736
 20
358.66745
 10
528.761902
 20
358.66745
 10
529.247742
 20
358.66745
 10
529.812073
 20
358.66745
 10
530.454041
 20
358.66745
 10
531.171936
 20
358.66745
 10
531.963562
 20
358.66745
 10
532.825684
 20
358.66745
 10
533.754639
 20
358.66745
 10
534.745972
 20
358.66745
 10
535.794922
 20
358.66745
 10
536.895935
 20
358.66745
 10
538.043335
 20
358.66745
 10
539.231018
 20
358.66745
 10
540.45282
 20
358.66745
 10
541.702271
 20
358.66745
 10
542.973145
 20
358.66745
 10
544.259216
 20
358.66745
 10
545.554382
 20
358.66745
 10
546.852844
 20
358.66745
 10
548.149231
 20
358.66745
 10
549.438293
 20
358.66745
 10
550.715454
 20
358.66745
 10
551.994629
 20
358.66745
 10
553.303345
 20
358.66745
 10
554.638306
 20
358.66745
 10
555.995239
 20
358.66745
 10
557.369507
 20
358.66745
 10
558.755859
 20
358.66745
 10
560.148743
 20
358.66745
 10
561.542297
 20
358.66745
 10
562.930176
 20
358.66745
 10
564.305908
 20
358.66745
 10
565.663025
 20
358.66745
 10
566.994873
 20
358.66745
 10
568.294922
 20
358.66745
 10
569.556702
 20
358.66745
 10
570.774231
 20
358.66745
 10
571.941711
 20
358.66745
 10
573.053894
 20
358.66745
 10
574.106079
 20
358.66745
 10
575.093994
 20
358.66745
 10
576.014282
 20
358.66745
 10
576.864136
 20
358.66745
 10
577.641418
 20
358.66745
 10
578.344788
 20
358.66745
 10
578.973572
 20
358.66745
 10
579.527832
 20
358.66745
 10
580.008057
 20
358.66745
 10
580.415588
 20
358.66745
 10
580.752075
 20
358.66745
 10
581.019714
 20
358.66745
 10
581.222778
 20
358.66745
  0
LINE
  5
C1
330
7B
100
AcDbEntity
  8
0
  6
Continuous
 62
     0
370
    30
100
AcDbLine
 10
581.222784
 20
358.667442
 30
0.0
 11
581.458772
 21
358.667442
 31
0.0
  0
LWPOLYLINE
  5
C2
330
7B
100
AcDbEntity
  8
0
  6
Continuous
 62
     0
370
     0
100
AcDbPolyline
 90
        4
 70
     0
 43
0.0
 10
581.432556
 20
361.669189
 10
581.410767
 20
361.669189
 10
581.34668
 20
361.669189
 10
581.196838
 20
361.669189
  0
LINE
  5
C3
330
7B
100
AcDbEntity
  8
0
  6
Continuous
 62
     0
370
     0
100
AcDbLine
 10
581.196818
 20
361.669188
 30
0.0
 11
527.484967
 21
361.669188
 31
0.0
  0
ARC
  5
C4
330
7B
100
AcDbEntity
  8
0
  6
Continuous
 62
     0
370
    30
100
AcDbCircle
 10
581.232471
 20
361.667411
 30
0.0
 40
0.2000309228451606
100
AcDbArc
 50
0.508773
 51
89.971828
  0
ARC
  5
C5
330
7B
100
AcDbEntity
  8
0
  6
Continuous
 62
     0
370
    30
100
AcDbCircle
 10
527.685195
 20
361.667412
 30
0.0
 40
0.2000299898825064
100
AcDbArc
 50
90.045471
 51
179.491494
  0
LINE
  5
C6
330
7B
100
AcDbEntity
  8
0
  6
Continuous
 62
     0
370
    30
100
AcDbLine
 10
527.458772
 20
358.667442
 30
0.0
 11
527.484967
 21
361.669188
 31
0.0
  0
LINE
  5
C7
330
7B
100
AcDbEntity
  8
0
  6
Continuous
 62
     0
370
    30
100
AcDbLine
 10
581.458772
 20
358.667442
 30
0.0
 11
581.432576
 21
361.669188
 31
0.0
  0
ENDBLK
  5
C9
330
7B
100
AcDbEntity
  8
0
100
AcDbBlockEnd
  0
BLOCK
  5
141
330
CB
100
AcDbEntity
  8
0
100
AcDbBlockBegin
  2
b
 70
     0
 10
465.443298
 20
0.0
 30
0.0
  3
b
  1

  0
LINE
  5
CC
330
CB
100
AcDbEntity
  8
0
  6
Continuous
 62
     0
370
    30
100
AcDbLine
 10
729.293633
 20
525.746063
 30
0.0
 11
729.293632
 21
524.246063
 31
0.0
  0
LINE
  5
CD
330
CB
100
AcDbEntity
  8
0
  6
Continuous
 62
     0
370
    30
100
AcDbLine
 10
729.293633
 20
527.246063
 30
0.0
 11
729.293633
 21
525.746063
 31
0.0
  0
LINE
  5
CE
330
CB
100
AcDbEntity
  8
0
  6
Continuous
 62
     0
370
    30
100
AcDbLine
 10
729.793633
 20
525.746063
 30
0.0
 11
729.793632
 21
523.746063
 31
0.0
  0
LINE
  5
CF
330
CB
100
AcDbEntity
  8
0
  6
Continuous
 62
     0
370
    30
100
AcDbLine
 10
729.793633
 20
527.746063
 30
0.0
 11
729.793633
 21
525.746063
 31
0.0
  0
LINE
  5
D0
330
CB
100
AcDbEntity
  8
0
  6
Continuous
 62
     0
370
    30
100
AcDbLine
 10
740.788883
 20
525.746063
 30
0.0
 11
740.788883
 21
527.746063
 31
0.0
  0
LINE
  5
D1
330
CB
100
AcDbEntity
  8
0
  6
Continuous
 62
     0
370
    30
100
AcDbLine
 10
740.788883
 20
523.746063
 30
0.0
 11
740.788883
 21
525.746063
 31
0.0
  0
LINE
  5
D2
330
CB
100
AcDbEntity
  8
0
  6
Continuous
 62
     0
370
    30
100
AcDbLine
 10
729.293633
 20
525.746063
 30
0.0
 11
729.293649
 21
524.246264
 31
0.0
  0
LWPOLYLINE
  5
D3
330
CB
100
AcDbEntity
  8
0
  6
Continuous
 62
     0
370
    30
100
AcDbPolyline
 90
        8
 70
     0
 43
0.0
 10
729.29364
 20
527.24585
 10
729.29364
 20
527.208801
 10
729.29364
 20
527.098816
 10
729.293701
 20
526.92218
 10
729.29364
 20
526.687195
 10
729.29364
 20
526.405273
 10
729.293701
 20
526.089783
 10
729.29364
 20
525.746033
  0
LINE
  5
D4
330
CB
100
AcDbEntity
  8
0
  6
Continuous
 62
     0
370
    30
100
AcDbLine
 10
745.773576
 20
522.570463
 30
0.0
 11
743.96096
 21
521.725227
 31
0.0
  0
LINE
  5
D5
330
CB
100
AcDbEntity
  8
0
  6
Continuous
 62
     0
370
    30
100
AcDbLine
 10
747.586191
 20
523.4157
 30
0.0
 11
745.773576
 21
522.570463
 31
0.0
  0
LWPOLYLINE
  5
D6
330
CB
100
AcDbEntity
  8
0
  6
Continuous
 62
     0
370
    30
100
AcDbPolyline
 90
       21
 70
     0
 43
0.0
 10
750.825623
 20
507.004456
 10
750.827576
 20
507.04068
 10
750.833008
 20
507.142853
 10
750.840637
 20
507.293182
 10
750.849487
 20
507.476654
 10
750.858887
 20
507.682312
 10
750.868286
 20
507.903198
 10
750.877563
 20
508.135284
 10
750.886475
 20
508.375671
 10
750.894897
 20
508.621613
 10
750.902649
 20
508.871796
 10
750.909668
 20
509.125397
 10
750.915955
 20
509.381683
 10
750.921509
 20
509.640076
 10
750.92627
 20
509.900238
 10
750.930359
 20
510.161713
 10
750.933655
 20
510.424225
 10
750.936279
 20
510.6875
 10
750.938171
 20
510.951324
 10
750.93927
 20
511.215424
 10
750.939697
 20
511.491669
  0
LWPOLYLINE
  5
D7
330
CB
100
AcDbEntity
  8
0
  6
Continuous
 62
     0
370
    30
100
AcDbPolyline
 90
       24
 70
     0
 43
0.0
 10
750.939697
 20
511.491669
 10
750.939331
 20
511.739624
 10
750.938354
 20
511.987488
 10
750.936707
 20
512.235107
 10
750.93457
 20
512.482361
 10
750.931885
 20
512.729126
 10
750.92865
 20
512.975281
 10
750.924866
 20
513.220703
 10
750.920593
 20
513.465149
 10
750.915771
 20
513.708557
 10
750.9104
 20
513.950684
 10
750.90448
 20
514.191223
 10
750.898132
 20
514.42981
 10
750.891418
 20
514.666016
 10
750.884399
 20
514.899292
 10
750.877136
 20
515.128967
 10
750.869507
 20
515.354431
 10
750.861572
 20
515.57428
 10
750.853638
 20
515.785156
 10
750.845886
 20
515.983398
 10
750.838562
 20
516.164185
 10
750.832214
 20
516.317322
 10
750.827515
 20
516.426147
 10
750.825684
 20
516.468567
  0
LINE
  5
D8
330
CB
100
AcDbEntity
  8
0
  6
Continuous
 62
     0
370
    30
100
AcDbLine
 10
743.96096
 20
521.725227
 30
0.0
 11
750.825689
 21
507.003769
 31
0.0
  0
LINE
  5
D9
330
CB
100
AcDbEntity
  8
0
  6
Continuous
 62
     0
370
    30
100
AcDbLine
 10
747.586191
 20
523.4157
 30
0.0
 11
750.825694
 21
516.468563
 31
0.0
  0
LINE
  5
DA
330
CB
100
AcDbEntity
  8
0
  6
Continuous
 62
     0
370
    30
100
AcDbLine
 10
729.793633
 20
527.746063
 30
0.0
 11
729.293659
 21
527.24609
 31
0.0
  0
LINE
  5
DB
330
CB
100
AcDbEntity
  8
0
  6
Continuous
 62
     0
370
    30
100
AcDbLine
 10
729.793632
 20
523.746063
 30
0.0
 11
729.293659
 21
524.246036
 31
0.0
  0
LINE
  5
DC
330
CB
100
AcDbEntity
  8
0
  6
Continuous
 62
     0
370
    30
100
AcDbLine
 10
729.793632
 20
523.746063
 30
0.0
 11
740.788883
 21
523.746063
 31
0.0
  0
LINE
  5
DD
330
CB
100
AcDbEntity
  8
0
  6
Continuous
 62
     0
370
    30
100
AcDbLine
 10
729.793633
 20
527.746063
 30
0.0
 11
740.788883
 21
527.746063
 31
0.0
  0
ARC
  5
DE
330
CB
100
AcDbEntity
  8
0
  6
Continuous
 62
     0
370
    30
100
AcDbCircle
 10
740.788828
 20
520.245977
 30
0.0
 40
3.500086042938792
100
AcDbArc
 50
25.000897
 51
89.999101
  0
ARC
  5
DF
330
CB
100
AcDbEntity
  8
0
  6
Continuous
 62
     0
370
    30
100
AcDbCircle
 10
740.788976
 20
520.246209
 30
0.0
 40
7.499853779219491
100
AcDbArc
 50
24.999288
 51
90.00071
  0
LWPOLYLINE
  5
E0
330
CB
100
AcDbEntity
  8
0
  6
Continuous
 62
     0
370
    30
100
AcDbPolyline
 90
        5
 70
     0
 43
0.0
 10
912.14209
 20
601.00531
 10
913.241333
 20
601.173401
 10
914.372131
 20
601.327576
 10
915.526306
 20
601.461243
 10
917.164307
 20
601.604675
  0
ARC
  5
E1
330
CB
100
AcDbEntity
  8
0
  6
Continuous
 62
     0
370
    30
100
AcDbCircle
 10
920.424798
 20
548.953064
 30
0.0
 40
52.70710119169685
100
AcDbArc
 50
99.041283
 51
101.771316
  0
LWPOLYLINE
  5
E2
330
CB
100
AcDbEntity
  8
0
  6
Continuous
 62
     0
370
    30
100
AcDbPolyline
 90
       13
 70
     0
 43
0.0
 10
905.280762
 20
599.121033
 10
905.312805
 20
599.133728
 10
905.408997
 20
599.171448
 10
905.568604
 20
599.233398
 10
905.79071
 20
599.318359
 10
906.073975
 20
599.424683
 10
906.416992
 20
599.550049
 10
906.818115
 20
599.691711
 10
907.275269
 20
599.846985
 10
907.786438
 20
600.012817
 10
908.349304
 20
600.185791
 10
908.96167
 20
600.362305
 10
909.672241
 20
600.551697
  0
LWPOLYLINE
  5
E3
330
CB
100
AcDbEntity
  8
0
  6
Continuous
 62
     0
370
    30
100
AcDbPolyline
 90
       20
 70
     0
 43
0.0
 10
919.42572
 20
601.511658
 10
920.321655
 20
601.42627
 10
921.203186
 20
601.324585
 10
922.06604
 20
601.208435
 10
922.903687
 20
601.080566
 10
923.709778
 20
600.943848
 10
924.480896
 20
600.80127
 10
925.21582
 20
600.65625
 10
925.911926
 20
600.511902
 10
926.565063
 20
600.371094
 10
927.171265
 20
600.236511
 10
927.72699
 20
600.110352
 10
928.228577
 20
599.99469
 10
928.672485
 20
599.891052
 10
929.055054
 20
599.801025
 10
929.372925
 20
599.725891
 10
929.623657
 20
599.666321
 10
929.80542
 20
599.622864
 10
929.916626
 20
599.596069
 10
929.956116
 20
599.586426
  0
ARC
  5
E4
330
CB
100
AcDbEntity
  8
0
  6
Continuous
 62
     0
370
    30
100
AcDbCircle
 10
917.284263
 20
576.983827
 30
0.0
 40
24.6211267637242
100
AcDbArc
 50
85.010383
 51
90.27909
  0
ARC
  5
E5
330
CB
100
AcDbEntity
  8
0
  6
Continuous
 62
     0
370
    30
100
AcDbCircle
 10
805.92569
 20
579.22101
 30
0.0
 40
19.8999999999994
100
AcDbArc
 50
90.0
 51
180.0
  0
LWPOLYLINE
  5
E6
330
CB
100
AcDbEntity
  8
0
  6
Continuous
 62
     0
370
     0
100
AcDbPolyline
 90
       43
 70
     0
 43
0.0
 10
768.42572
 20
584.415466
 10
768.796692
 20
584.717102
 10
769.181152
 20
584.980286
 10
769.575073
 20
585.200378
 10
769.98114
 20
585.379639
 10
770.398804
 20
585.517944
 10
770.826965
 20
585.615051
 10
771.264954
 20
585.671448
 10
771.712219
 20
585.688782
 10
772.168457
 20
585.668884
 10
772.633118
 20
585.613831
 10
773.105652
 20
585.526062
 10
773.585693
 20
585.407898
 10
774.072754
 20
585.262146
 10
774.566345
 20
585.091431
 10
775.066223
 20
584.898499
 10
775.571777
 20
584.685913
 10
776.082703
 20
584.45636
 10
776.598206
 20
584.212219
 10
777.117554
 20
583.955994
 10
777.639954
 20
583.689941
 10
778.164368
 20
583.416016
 10
778.68988
 20
583.136475
 10
779.214783
 20
582.852234
 10
779.737366
 20
582.565308
 10
780.26239
 20
582.299744
 10
780.791138
 20
582.070923
 10
781.318359
 20
581.873413
 10
781.83606
 20
581.690857
 10
782.338867
 20
581.514526
 10
782.822144
 20
581.337769
 10
783.282227
 20
581.15564
 10
783.715698
 20
580.964661
 10
784.119446
 20
580.762268
 10
784.491089
 20
580.549255
 10
784.828491
 20
580.327148
 10
785.129395
 20
580.100891
 10
785.391479
 20
579.878845
 10
785.612366
 20
579.670288
 10
785.789246
 20
579.487793
 10
785.918884
 20
579.344788
 10
785.998474
 20
579.252991
 10
786.025696
 20
579.221008
  0
LWPOLYLINE
  5
E7
330
CB
100
AcDbEntity
  8
0
  6
Continuous
 62
     0
370
     0
100
AcDbPolyline
 90
       12
 70
     0
 43
0.0
 10
805.92572
 20
599.121033
 10
805.89386
 20
599.137878
 10
805.799683
 20
599.188232
 10
805.64679
 20
599.271301
 10
805.440552
 20
599.386047
 10
805.187927
 20
599.531311
 10
804.895996
 20
599.705933
 10
804.571533
 20
599.908875
 10
804.21991
 20
600.139282
 10
803.845398
 20
600.396362
 10
803.451416
 20
600.679321
 10
803.015808
 20
601.005249
  0
LWPOLYLINE
  5
E8
330
CB
100
AcDbEntity
  8
0
  6
Continuous
 62
     0
370
     0
100
AcDbPolyline
 90
       37
 70
     0
 43
0.0
 10
803.015808
 20
601.005249
 10
801.915405
 20
601.076904
 10
800.81134
 20
601.103699
 10
799.70636
 20
601.085022
 10
798.603088
 20
601.020874
 10
797.503479
 20
600.913147
 10
796.409729
 20
600.767029
 10
795.323486
 20
600.589172
 10
794.245056
 20
600.386108
 10
793.176086
 20
600.179688
 10
792.117493
 20
600.000305
 10
791.059998
 20
599.82782
 10
789.995667
 20
599.61084
 10
788.932617
 20
599.307495
 10
787.877197
 20
598.965881
 10
786.826904
 20
598.610657
 10
785.785217
 20
598.222351
 10
784.752502
 20
597.805359
 10
783.729736
 20
597.359802
 10
782.718262
 20
596.884888
 10
781.719543
 20
596.379639
 10
780.735046
 20
595.843506
 10
779.766235
 20
595.276611
 10
778.814453
 20
594.679199
 10
777.881104
 20
594.051392
 10
776.967712
 20
593.393188
 10
776.075562
 20
592.704956
 10
775.205811
 20
591.987183
 10
774.359619
 20
591.240784
 10
773.537109
 20
590.467346
 10
772.738098
 20
589.669006
 10
771.96228
 20
588.847351
 10
771.209167
 20
588.004028
 10
770.476685
 20
587.141785
 10
769.764771
 20
586.261658
 10
769.082153
 20
585.358521
 10
768.42572
 20
584.415466
  0
LWPOLYLINE
  5
E9
330
CB
100
AcDbEntity
  8
0
  6
Continuous
 62
     0
370
     0
100
AcDbPolyline
 90
       36
 70
     0
 43
0.0
 10
803.015808
 20
610.518372
 10
801.688232
 20
610.491943
 10
800.362122
 20
610.412048
 10
799.040222
 20
610.278381
 10
797.725159
 20
610.090637
 10
796.419128
 20
609.84906
 10
795.124023
 20
609.553833
 10
793.842102
 20
609.205872
 10
792.575195
 20
608.806824
 10
791.325256
 20
608.358704
 10
790.092712
 20
607.865173
 10
788.87677
 20
607.331787
 10
787.675964
 20
606.765259
 10
786.489685
 20
606.168884
 10
785.321777
 20
605.537354
 10
784.174988
 20
604.868164
 10
783.050232
 20
604.162415
 10
781.948181
 20
603.421509
 10
780.870117
 20
602.645874
 10
779.817688
 20
601.835876
 10
778.792419
 20
600.991821
 10
777.795898
 20
600.113953
 10
776.829956
 20
599.202515
 10
775.89679
 20
598.257507
 10
774.998718
 20
597.279114
 10
774.138367
 20
596.267273
 10
773.318787
 20
595.222168
 10
772.543213
 20
594.143982
 10
771.81543
 20
593.032776
 10
771.139465
 20
591.889038
 10
770.520325
 20
590.713867
 10
769.963074
 20
589.508545
 10
769.472595
 20
588.274658
 10
769.053589
 20
587.014771
 10
768.707092
 20
585.733215
 10
768.42572
 20
584.415466
  0
LINE
  5
EA
330
CB
100
AcDbEntity
  8
0
  6
Continuous
 62
     0
370
     0
100
AcDbLine
 10
803.015807
 20
601.0053
 30
0.0
 11
803.015808
 21
610.518399
 31
0.0
  0
LINE
  5
EB
330
CB
100
AcDbEntity
  8
0
  6
Continuous
 62
     0
370
     0
100
AcDbLine
 10
919.425691
 20
601.511677
 30
0.0
 11
919.425692
 21
610.518385
 31
0.0
  0
LWPOLYLINE
  5
EC
330
CB
100
AcDbEntity
  8
0
  6
Continuous
 62
     0
370
     0
100
AcDbPolyline
 90
       23
 70
     0
 43
0.0
 10
919.42572
 20
610.518372
 10
920.790588
 20
610.511169
 10
922.15509
 20
610.485657
 10
923.486145
 20
610.447571
 10
924.790039
 20
610.39447
 10
926.049561
 20
610.329773
 10
927.259705
 20
610.255066
 10
928.414551
 20
610.172363
 10
929.507263
 20
610.084045
 10
930.53241
 20
609.992371
 10
931.487183
 20
609.899414
 10
932.369202
 20
609.807068
 10
933.176697
 20
609.717224
 10
933.908508
 20
609.63147
 10
934.563477
 20
609.551331
 10
935.141174
 20
609.477905
 10
935.641541
 20
609.412231
 10
936.064392
 20
609.355286
 10
936.409973
 20
609.3078
 10
936.678528
 20
609.270325
 10
936.870667
 20
609.243164
 10
936.986389
 20
609.226624
 10
937.025574
 20
609.221069
  0
LINE
  5
ED
330
CB
100
AcDbEntity
  8
0
  6
Continuous
 62
     0
370
     0
100
AcDbLine
 10
803.015807
 20
601.005299
 30
0.0
 11
912.142084
 21
601.005299
 31
0.0
  0
LINE
  5
EE
330
CB
100
AcDbEntity
  8
0
  6
Continuous
 62
     0
370
     0
100
AcDbLine
 10
919.425692
 20
610.518399
 30
0.0
 11
803.015808
 21
610.518399
 31
0.0
  0
LINE
  5
EF
330
CB
100
AcDbEntity
  8
0
  6
Continuous
 62
     0
370
     0
100
AcDbLine
 10
937.02569
 20
614.797439
 30
0.0
 11
919.42569
 21
614.797439
 31
0.0
  0
LINE
  5
F0
330
CB
100
AcDbEntity
  8
0
  6
Continuous
 62
     0
370
     0
100
AcDbLine
 10
919.42569
 20
614.797439
 30
0.0
 11
919.42569
 21
610.518385
 31
0.0
  0
LINE
  5
F1
330
CB
100
AcDbEntity
  8
0
  6
Continuous
 62
     0
370
    30
100
AcDbLine
 10
919.42569
 20
615.397439
 30
0.0
 11
768.42569
 21
615.397439
 31
0.0
  0
LWPOLYLINE
  5
F2
330
CB
100
AcDbEntity
  8
0
  6
Continuous
 62
     0
370
    30
100
AcDbPolyline
 90
       25
 70
     0
 43
0.0
 10
936.425659
 20
615.397461
 10
936.395569
 20
615.397461
 10
936.30249
 20
615.397461
 10
936.1427
 20
615.397461
 10
935.913208
 20
615.397461
 10
935.611389
 20
615.397461
 10
935.235657
 20
615.397461
 10
934.785339
 20
615.397461
 10
934.26062
 20
615.397461
 10
933.662842
 20
615.397461
 10
932.994507
 20
615.397461
 10
932.258972
 20
615.397461
 10
931.460876
 20
615.397461
 10
930.605591
 20
615.397461
 10
929.699402
 20
615.397461
 10
928.749268
 20
615.397461
 10
927.762573
 20
615.397461
 10
926.74707
 20
615.397461
 10
925.71051
 20
615.397461
 10
924.660645
 20
615.397461
 10
923.605103
 20
615.397461
 10
922.550964
 20
615.397461
 10
921.504883
 20
615.397461
 10
920.4729
 20
615.397461
 10
919.42572
 20
615.397461
  0
LINE
  5
F3
330
CB
100
AcDbEntity
  8
0
  6
Continuous
 62
     0
370
    30
100
AcDbLine
 10
768.42569
 20
615.397439
 30
0.0
 11
751.42569
 21
615.397439
 31
0.0
  0
LINE
  5
F4
330
CB
100
AcDbEntity
  8
0
  6
Continuous
 62
     0
370
    30
100
AcDbLine
 10
750.82569
 20
481.867439
 30
0.0
 11
786.02569
 21
481.867439
 31
0.0
  0
LINE
  5
F5
330
CB
100
AcDbEntity
  8
0
  6
Continuous
 62
     0
370
    30
100
AcDbLine
 10
786.02569
 20
481.867439
 30
0.0
 11
786.02569
 21
579.22101
 31
0.0
  0
LINE
  5
F6
330
CB
100
AcDbEntity
  8
0
  6
Continuous
 62
     0
370
     0
100
AcDbLine
 10
768.42569
 20
584.415487
 30
0.0
 11
768.42569
 21
614.797439
 31
0.0
  0
LINE
  5
F7
330
CB
100
AcDbEntity
  8
0
  6
Continuous
 62
     0
370
     0
100
AcDbLine
 10
768.42569
 20
614.797439
 30
0.0
 11
750.82569
 21
614.797439
 31
0.0
  0
LWPOLYLINE
  5
F8
330
CB
100
AcDbEntity
  8
0
  6
Continuous
 62
     0
370
     0
100
AcDbPolyline
 90
       90
 70
     0
 43
0.0
 10
750.825684
 20
517.06012
 10
750.826233
 20
517.049072
 10
750.827881
 20
517.017944
 10
750.830444
 20
516.963745
 10
750.83374
 20
516.892639
 10
750.837524
 20
516.810669
 10
750.841736
 20
516.720459
 10
750.846191
 20
516.62262
 10
750.850891
 20
516.518311
 10
750.855713
 20
516.40863
 10
750.860596
 20
516.294861
 10
750.86554
 20
516.178101
 10
750.870483
 20
516.058655
 10
750.875427
 20
515.936951
 10
750.88031
 20
515.813232
 10
750.885193
 20
515.687744
 10
750.889954
 20
515.560791
 10
750.894653
 20
515.432556
 10
750.899292
 20
515.303162
 10
750.903748
 20
515.172729
 10
750.908203
 20
515.041382
 10
750.912476
 20
514.909241
 10
750.916626
 20
514.776306
 10
750.920654
 20
514.642822
 10
750.924622
 20
514.508728
 10
750.928345
 20
514.374146
 10
750.932007
 20
514.239014
 10
750.935486
 20
514.103455
 10
750.938843
 20
513.967529
 10
750.942017
 20
513.831177
 10
750.945068
 20
513.694458
 10
750.947937
 20
513.557434
 10
750.950623
 20
513.420166
 10
750.953186
 20
513.282532
 10
750.955566
 20
513.144714
 10
750.957764
 20
513.006592
 10
750.959778
 20
512.868347
 10
750.96167
 20
512.729858
 10
750.963318
 20
512.591309
 10
750.964844
 20
512.452576
 10
750.966125
 20
512.313721
 10
750.967285
 20
512.174744
 10
750.968262
 20
512.035767
 10
750.968994
 20
511.896667
 10
750.969543
 20
511.757538
 10
750.96991
 20
511.618378
 10
750.970093
 20
511.479156
 10
750.970093
 20
511.339966
 10
750.969849
 20
511.200745
 10
750.969421
 20
511.061554
 10
750.968811
 20
510.922363
 10
750.967957
 20
510.783234
 10
750.966919
 20
510.644196
 10
750.965698
 20
510.505249
 10
750.964233
 20
510.366455
 10
750.962585
 20
510.227814
 10
750.960693
 20
510.089386
 10
750.958618
 20
509.951172
 10
750.956299
 20
509.813202
 10
750.953796
 20
509.675568
 10
750.95105
 20
509.538208
 10
750.94812
 20
509.401215
 10
750.945007
 20
509.264618
 10
750.94165
 20
509.128479
 10
750.93811
 20
508.992859
 10
750.934326
 20
508.857788
 10
750.930359
 20
508.723389
 10
750.926208
 20
508.589661
 10
750.921875
 20
508.456726
 10
750.917297
 20
508.324707
 10
750.912598
 20
508.193695
 10
750.907654
 20
508.063782
 10
750.902588
 20
507.93512
 10
750.897339
 20
507.807831
 10
750.891968
 20
507.68219
 10
750.886475
 20
507.558594
 10
750.880859
 20
507.437378
 10
750.875244
 20
507.318878
 10
750.869568
 20
507.20343
 10
750.863953
 20
507.091492
 10
750.858337
 20
506.984192
 10
750.852783
 20
506.882385
 10
750.847534
 20
506.785919
 10
750.842529
 20
506.696564
 10
750.837891
 20
506.61792
 10
750.833862
 20
506.546326
 10
750.830444
 20
506.490326
 10
750.827881
 20
506.449371
 10
750.826233
 20
506.421143
 10
750.825684
 20
506.412201
  0
LINE
  5
F9
330
CB
100
AcDbEntity
  8
0
  6
Continuous
 62
     0
370
     0
100
AcDbLine
 10
919.42569
 20
614.797439
 30
0.0
 11
768.42569
 21
614.797439
 31
0.0
  0
LINE
  5
FA
330
CB
100
AcDbEntity
  8
0
  6
Continuous
 62
     0
370
     0
100
AcDbLine
 10
768.42569
 20
615.397439
 30
0.0
 11
768.42569
 21
614.797439
 31
0.0
  0
LINE
  5
FB
330
CB
100
AcDbEntity
  8
0
  6
Continuous
 62
     0
370
     0
100
AcDbLine
 10
919.42569
 20
614.797439
 30
0.0
 11
919.42569
 21
615.397439
 31
0.0
  0
LINE
  5
FC
330
CB
100
AcDbEntity
  8
0
  6
Continuous
 62
     0
370
    30
100
AcDbLine
 10
750.82569
 20
507.003769
 30
0.0
 11
750.82569
 21
506.412214
 31
0.0
  0
LINE
  5
FD
330
CB
100
AcDbEntity
  8
0
  6
Continuous
 62
     0
370
    30
100
AcDbLine
 10
750.82569
 20
517.06014
 30
0.0
 11
750.82569
 21
516.468562
 31
0.0
  0
ARC
  5
FE
330
CB
100
AcDbEntity
  8
0
  6
Continuous
 62
     0
370
    30
100
AcDbCircle
 10
936.42569
 20
614.797439
 30
0.0
 40
0.6000001403889179
100
AcDbArc
 50
0.000011
 51
89.997064
  0
ARC
  5
FF
330
CB
100
AcDbEntity
  8
0
  6
Continuous
 62
     0
370
    30
100
AcDbCircle
 10
751.42569
 20
614.797439
 30
0.0
 40
0.6000001403964148
100
AcDbArc
 50
90.002936
 51
179.999989
  0
LINE
  5
100
330
CB
100
AcDbEntity
  8
0
  6
Continuous
 62
     0
370
    30
100
AcDbLine
 10
750.82569
 20
481.867439
 30
0.0
 11
750.82569
 21
506.412214
 31
0.0
  0
LINE
  5
101
330
CB
100
AcDbEntity
  8
0
  6
Continuous
 62
     0
370
    30
100
AcDbLine
 10
750.82569
 20
517.060141
 30
0.0
 11
750.82569
 21
614.797439
 31
0.0
  0
LINE
  5
102
330
CB
100
AcDbEntity
  8
0
  6
Continuous
 62
     0
370
    30
100
AcDbLine
 10
937.02569
 20
614.797439
 30
0.0
 11
937.02569
 21
609.220857
 31
0.0
  0
LINE
  5
103
330
CB
100
AcDbEntity
  8
0
  6
Continuous
 62
     0
370
    30
100
AcDbLine
 10
805.92569
 20
599.12101
 30
0.0
 11
905.280745
 21
599.12101
 31
0.0
  0
LWPOLYLINE
  5
104
330
CB
100
AcDbEntity
  8
0
  6
Continuous
 62
     0
370
    30
100
AcDbPolyline
 90
       16
 70
     0
 43
0.0
 10
937.025574
 20
609.221069
 10
936.989441
 20
608.372742
 10
936.882141
 20
607.530029
 10
936.705139
 20
606.699402
 10
936.459167
 20
605.886658
 10
936.145386
 20
605.097534
 10
935.766296
 20
604.337524
 10
935.324768
 20
603.612122
 10
934.823914
 20
602.92627
 10
934.267212
 20
602.284912
 10
933.658447
 20
601.692749
 10
933.002197
 20
601.153748
 10
932.303101
 20
600.67157
 10
931.565796
 20
600.250122
 10
930.795471
 20
599.892639
 10
929.955933
 20
599.587341
  0
LINE
  5
105
330
CB
100
AcDbEntity
  8
0
  6
Continuous
 62
     0
370
     0
100
AcDbLine
 10
751.722118
 20
616.097443
 30
0.0
 11
751.800474
 21
616.097443
 31
0.0
  0
ARC
  5
106
330
CB
100
AcDbEntity
  8
0
  6
Continuous
 62
     0
370
     0
100
AcDbCircle
 10
769.199917
 20
614.556072
 30
0.0
 40
17.46758233428375
100
AcDbArc
 50
174.937533
 51
177.239134
  0
ARC
  5
107
330
CB
100
AcDbEntity
  8
0
  6
Continuous
 62
     0
370
    30
100
AcDbCircle
 10
769.282598
 20
614.225382
 30
0.0
 40
17.65998528549199
100
AcDbArc
 50
173.914881
 51
176.194586
  0
LWPOLYLINE
  5
108
330
CB
100
AcDbEntity
  8
0
  6
Continuous
 62
     0
370
    30
100
AcDbPolyline
 90
        9
 70
     0
 43
0.0
 10
753.945496
 20
623.117798
 10
753.510498
 20
622.306946
 10
753.118713
 20
621.474426
 10
752.77124
 20
620.622375
 10
752.469055
 20
619.753235
 10
752.212952
 20
618.869446
 10
752.003601
 20
617.97345
 10
751.841492
 20
617.067688
 10
751.722107
 20
616.097473
  0
ARC
  5
109
330
CB
100
AcDbEntity
  8
0
  6
Continuous
 62
     0
370
    30
100
AcDbCircle
 10
767.705415
 20
614.441886
 30
0.0
 40
17.50231600156162
100
AcDbArc
 50
3.129678
 51
11.220044
  0
LINE
  5
10A
330
CB
100
AcDbEntity
  8
0
  6
Continuous
 62
     0
370
    30
100
AcDbLine
 10
816.904012
 20
651.265675
 30
0.0
 11
833.891945
 21
654.261106
 31
0.0
  0
LINE
  5
10B
330
CB
100
AcDbEntity
  8
0
  6
Continuous
 62
     0
370
    30
100
AcDbLine
 10
751.088866
 20
639.660689
 30
0.0
 11
768.338866
 21
642.702329
 31
0.0
  0
LINE
  5
10C
330
CB
100
AcDbEntity
  8
0
  6
Continuous
 62
     0
370
    30
100
AcDbLine
 10
768.338866
 20
642.702329
 30
0.0
 11
816.904012
 21
651.265675
 31
0.0
  0
LINE
  5
10D
330
CB
100
AcDbEntity
  8
0
  6
Continuous
 62
     0
370
     0
100
AcDbLine
 10
816.990836
 20
650.773271
 30
0.0
 11
816.904012
 21
651.265675
 31
0.0
  0
LINE
  5
10E
330
CB
100
AcDbEntity
  8
0
  6
Continuous
 62
     0
370
     0
100
AcDbLine
 10
768.338866
 20
642.702329
 30
0.0
 11
768.42569
 21
642.209925
 31
0.0
  0
LINE
  5
10F
330
CB
100
AcDbEntity
  8
0
  6
Continuous
 62
     0
370
     0
100
AcDbLine
 10
768.42569
 20
642.209925
 30
0.0
 11
816.990836
 21
650.773271
 31
0.0
  0
LINE
  5
110
330
CB
100
AcDbEntity
  8
0
  6
Continuous
 62
     0
370
     0
100
AcDbLine
 10
816.990836
 20
650.773271
 30
0.0
 11
834.471173
 21
653.855526
 31
0.0
  0
ARC
  5
111
330
CB
100
AcDbEntity
  8
0
  6
Continuous
 62
     0
370
    30
100
AcDbCircle
 10
751.17569
 20
639.168285
 30
0.0
 40
0.500000000083842
100
AcDbArc
 50
100.0
 51
180.0
  0
LINE
  5
112
330
CB
100
AcDbEntity
  8
0
  6
Continuous
 62
     0
370
     0
100
AcDbLine
 10
768.42569
 20
642.209925
 30
0.0
 11
750.67569
 21
639.168285
 31
0.0
  0
LINE
  5
113
330
CB
100
AcDbEntity
  8
0
  6
Continuous
 62
     0
370
    30
100
AcDbLine
 10
786.17569
 20
635.463679
 30
0.0
 11
786.17569
 21
617.847443
 31
0.0
  0
LINE
  5
114
330
CB
100
AcDbEntity
  8
0
  6
Continuous
 62
     0
370
    30
100
AcDbLine
 10
750.67569
 20
624.307997
 30
0.0
 11
768.42569
 21
617.847443
 31
0.0
  0
LINE
  5
115
330
CB
100
AcDbEntity
  8
0
  6
Continuous
 62
     0
370
    30
100
AcDbLine
 10
768.42569
 20
617.847443
 30
0.0
 11
786.17569
 21
617.847443
 31
0.0
  0
LWPOLYLINE
  5
116
330
CB
100
AcDbEntity
  8
0
  6
Continuous
 62
     0
370
     0
100
AcDbPolyline
 90
       28
 70
     0
 43
0.0
 10
786.17572
 20
635.463684
 10
786.144775
 20
635.440002
 10
786.052429
 20
635.376648
 10
785.899292
 20
635.286316
 10
785.686157
 20
635.18103
 10
785.413696
 20
635.07196
 10
785.08252
 20
634.970398
 10
784.693359
 20
634.88678
 10
784.247742
 20
634.809937
 10
783.747375
 20
634.731384
 10
783.194031
 20
634.64978
 10
782.589905
 20
634.563599
 10
781.937256
 20
634.471069
 10
781.238281
 20
634.370483
 10
780.495422
 20
634.259949
 10
779.712097
 20
634.137756
 10
778.891602
 20
634.002136
 10
778.037109
 20
633.851196
 10
777.15155
 20
633.683167
 10
776.23877
 20
633.496704
 10
775.30304
 20
633.290527
 10
774.348694
 20
633.063599
 10
773.379883
 20
632.815125
 10
772.400513
 20
632.544556
 10
771.414612
 20
632.251648
 10
770.42572
 20
631.936401
 10
769.437622
 20
631.599182
 10
768.42572
 20
631.229858
  0
LINE
  5
117
330
CB
100
AcDbEntity
  8
0
  6
Continuous
 62
     0
370
     0
100
AcDbLine
 10
768.42569
 20
631.229833
 30
0.0
 11
768.42569
 21
642.209925
 31
0.0
  0
LWPOLYLINE
  5
118
330
CB
100
AcDbEntity
  8
0
  6
Continuous
 62
     0
370
     0
100
AcDbPolyline
 90
       20
 70
     0
 43
0.0
 10
768.42572
 20
631.229858
 10
768.799744
 20
632.111267
 10
769.247314
 20
632.984436
 10
769.769043
 20
633.846252
 10
770.362732
 20
634.694336
 10
771.028015
 20
635.526794
 10
771.763611
 20
636.342468
 10
772.568359
 20
637.141479
 10
773.43988
 20
637.925171
 10
774.373962
 20
638.697021
 10
775.362427
 20
639.46344
 10
776.395752
 20
640.209412
 10
777.471863
 20
640.902344
 10
778.588318
 20
641.539001
 10
779.742249
 20
642.116638
 10
780.930115
 20
642.632996
 10
782.148132
 20
643.086487
 10
783.391968
 20
643.475891
 10
784.656982
 20
643.80072
 10
785.968384
 20
644.06665
  0
LINE
  5
119
330
CB
100
AcDbEntity
  8
0
  6
Continuous
 62
     0
370
     0
100
AcDbLine
 10
785.968391
 20
644.066622
 30
0.0
 11
817.202299
 21
649.574003
 31
0.0
  0
LINE
  5
11A
330
CB
100
AcDbEntity
  8
0
  6
Continuous
 62
     0
370
     0
100
AcDbLine
 10
817.202299
 20
649.574003
 30
0.0
 11
816.990836
 21
650.773271
 31
0.0
  0
LWPOLYLINE
  5
11B
330
CB
100
AcDbEntity
  8
0
  6
Continuous
 62
     0
370
     0
100
AcDbPolyline
 90
       16
 70
     0
 43
0.0
 10
786.225952
 20
642.606079
 10
786.988953
 20
642.604431
 10
787.706543
 20
642.597656
 10
788.376038
 20
642.586487
 10
788.994873
 20
642.571777
 10
789.561035
 20
642.554199
 10
790.072632
 20
642.534546
 10
790.527832
 20
642.513489
 10
790.918457
 20
642.49054
 10
791.237122
 20
642.465088
 10
791.487854
 20
642.438904
 10
791.67749
 20
642.41394
 10
791.812073
 20
642.391724
 10
791.898743
 20
642.373901
 10
791.945251
 20
642.361877
 10
791.960144
 20
642.357361
  0
LWPOLYLINE
  5
11C
330
CB
100
AcDbEntity
  8
0
  6
Continuous
 62
     0
370
     0
100
AcDbPolyline
 90
       21
 70
     0
 43
0.0
 10
768.42572
 20
631.229858
 10
769.312317
 20
631.826904
 10
770.180969
 20
632.448059
 10
771.028137
 20
633.095886
 10
771.854675
 20
633.767822
 10
772.663147
 20
634.460449
 10
773.458679
 20
635.168152
 10
774.24884
 20
635.882751
 10
775.042786
 20
636.594177
 10
775.850098
 20
637.291321
 10
776.678589
 20
637.962891
 10
777.529724
 20
638.605774
 10
778.399414
 20
639.224121
 10
779.289001
 20
639.814636
 10
780.201355
 20
640.370422
 10
781.138733
 20
640.883484
 10
782.101074
 20
641.347473
 10
783.088684
 20
641.756409
 10
784.101257
 20
642.104553
 10
785.133301
 20
642.38678
 10
786.225952
 20
642.606079
  0
LINE
  5
11D
330
CB
100
AcDbEntity
  8
0
  6
Continuous
 62
     0
370
    30
100
AcDbLine
 10
786.177458
 20
635.619632
 30
0.0
 11
786.17569
 21
635.463679
 31
0.0
  0
LWPOLYLINE
  5
11E
330
CB
100
AcDbEntity
  8
0
  6
Continuous
 62
     0
370
     0
100
AcDbPolyline
 90
       22
 70
     0
 43
0.0
 10
832.447388
 20
649.496338
 10
832.411377
 20
649.496521
 10
832.302551
 20
649.496643
 10
832.119629
 20
649.496094
 10
831.86145
 20
649.494141
 10
831.526978
 20
649.48999
 10
831.115906
 20
649.482605
 10
830.628296
 20
649.470703
 10
830.064514
 20
649.453064
 10
829.426025
 20
649.428345
 10
828.715881
 20
649.39502
 10
827.937195
 20
649.351624
 10
827.093567
 20
649.296875
 10
826.189453
 20
649.229248
 10
825.229492
 20
649.147522
 10
824.220032
 20
649.050659
 10
823.167908
 20
648.937866
 10
822.078003
 20
648.808228
 10
820.954346
 20
648.660828
 10
819.80603
 20
648.495911
 10
818.645813
 20
648.314575
 10
817.459839
 20
648.113464
  0
LINE
  5
11F
330
CB
100
AcDbEntity
  8
0
  6
Continuous
 62
     0
370
     0
100
AcDbLine
 10
817.459834
 20
648.113453
 30
0.0
 11
786.225925
 21
642.606072
 31
0.0
  0
LWPOLYLINE
  5
120
330
CB
100
AcDbEntity
  8
0
  6
Continuous
 62
     0
370
     0
100
AcDbPolyline
 90
       25
 70
     0
 43
0.0
 10
817.202271
 20
649.573975
 10
818.342896
 20
649.775269
 10
819.481018
 20
649.975464
 10
820.610474
 20
650.173401
 10
821.723877
 20
650.367432
 10
822.816406
 20
650.556641
 10
823.885193
 20
650.740479
 10
824.926331
 20
650.918579
 10
825.935242
 20
651.090637
 10
826.907471
 20
651.256409
 10
827.838501
 20
651.415405
 10
828.723816
 20
651.567322
 10
829.559448
 20
651.711792
 10
830.341797
 20
651.848572
 10
831.0672
 20
651.977295
 10
831.732483
 20
652.097595
 10
832.335266
 20
652.208984
 10
832.873474
 20
652.310852
 10
833.344849
 20
652.402466
 10
833.747437
 20
652.482849
 10
834.079529
 20
652.551147
 10
834.339478
 20
652.606262
 10
834.526062
 20
652.647217
 10
834.639038
 20
652.672852
 10
834.678101
 20
652.682007
  0
LINE
  5
121
330
CB
100
AcDbEntity
  8
0
  6
Continuous
 62
     0
370
     0
100
AcDbLine
 10
817.459834
 20
648.113453
 30
0.0
 11
817.202299
 21
649.574003
 31
0.0
  0
LINE
  5
122
330
CB
100
AcDbEntity
  8
0
  6
Continuous
 62
     0
370
     0
100
AcDbLine
 10
786.225926
 20
642.606072
 30
0.0
 11
785.968391
 21
644.066622
 31
0.0
  0
LINE
  5
123
330
CB
100
AcDbEntity
  8
0
  6
Continuous
 62
     0
370
    30
100
AcDbLine
 10
750.67569
 20
636.111974
 30
0.0
 11
750.67569
 21
631.07967
 31
0.0
  0
ARC
  5
124
330
CB
100
AcDbEntity
  8
0
  6
Continuous
 62
     0
370
    30
100
AcDbCircle
 10
831.969772
 20
652.20461
 30
0.0
 40
2.750077146303301
100
AcDbArc
 50
280.00161
 51
9.998391
  0
LINE
  5
125
330
CB
100
AcDbEntity
  8
0
  6
Continuous
 62
     0
370
    30
100
AcDbLine
 10
786.17569
 20
635.463679
 30
0.0
 11
786.177422
 21
635.619632
 31
0.0
  0
LINE
  5
126
330
CB
100
AcDbEntity
  8
0
  6
Continuous
 62
     0
370
    30
100
AcDbLine
 10
791.960152
 20
642.357333
 30
0.0
 11
791.808964
 21
642.328928
 31
0.0
  0
LINE
  5
127
330
CB
100
AcDbEntity
  8
0
  6
Continuous
 62
     0
370
    30
100
AcDbLine
 10
834.471173
 20
653.855526
 30
0.0
 11
834.678115
 21
652.681897
 31
0.0
  0
LINE
  5
128
330
CB
100
AcDbEntity
  8
0
  6
Continuous
 62
     0
370
    30
100
AcDbLine
 10
791.960152
 20
642.357333
 30
0.0
 11
832.447356
 21
649.49632
 31
0.0
  0
LWPOLYLINE
  5
129
330
CB
100
AcDbEntity
  8
0
  6
Continuous
 62
     0
370
    30
100
AcDbPolyline
 90
       19
 70
     0
 43
0.0
 10
791.960144
 20
642.357361
 10
791.438538
 20
642.244446
 10
790.927063
 20
642.092102
 10
790.428528
 20
641.90155
 10
789.945923
 20
641.673828
 10
789.482117
 20
641.409851
 10
789.039795
 20
641.111145
 10
788.621582
 20
640.779602
 10
788.229797
 20
640.417236
 10
787.866821
 20
640.026062
 10
787.534729
 20
639.608276
 10
787.235352
 20
639.166443
 10
786.970459
 20
638.703125
 10
786.741577
 20
638.221008
 10
786.550354
 20
637.722778
 10
786.397827
 20
637.211365
 10
786.284546
 20
636.689819
 10
786.21106
 20
636.161255
 10
786.177429
 20
635.619629
  0
LINE
  5
12A
330
CB
100
AcDbEntity
  8
0
  6
Continuous
 62
     0
370
    30
100
AcDbLine
 10
750.67569
 20
624.308077
 30
0.0
 11
750.67569
 21
631.079671
 31
0.0
  0
LINE
  5
12B
330
CB
100
AcDbEntity
  8
0
  6
Continuous
 62
     0
370
    30
100
AcDbLine
 10
750.67569
 20
636.111974
 30
0.0
 11
750.67569
 21
639.168285
 31
0.0
  0
ARC
  5
12C
330
CB
100
AcDbEntity
  8
0
  6
Continuous
 62
     0
370
    30
100
AcDbCircle
 10
833.978767
 20
653.768699
 30
0.0
 40
0.5000026319318607
100
AcDbArc
 50
10.000302
 51
99.996137
  0
LINE
  5
12D
330
CB
100
AcDbEntity
  8
0
  6
Continuous
 62
     0
370
    30
100
AcDbLine
 10
750.748954
 20
635.528268
 30
0.0
 11
750.748926
 21
631.680006
 31
0.0
  0
LINE
  5
12E
330
CB
100
AcDbEntity
  8
0
  6
Continuous
 62
     0
370
    30
100
AcDbLine
 10
915.099218
 20
601.414798
 30
0.0
 11
911.857978
 21
600.959272
 31
0.0
  0
LINE
  5
12F
330
CB
100
AcDbEntity
  8
0
  6
Continuous
 62
     0
370
    30
100
AcDbLine
 10
908.174225
 20
600.088726
 30
0.0
 11
908.065777
 21
600.073485
 31
0.0
  0
LINE
  5
130
330
CB
100
AcDbEntity
  8
0
  6
Continuous
 62
     0
370
    30
100
AcDbLine
 10
926.330539
 20
599.610947
 30
0.0
 11
926.911704
 21
599.692625
 31
0.0
  0
LINE
  5
131
330
CB
100
AcDbEntity
  8
0
  6
Continuous
 62
     0
370
    30
100
AcDbLine
 10
908.591745
 20
597.117922
 30
0.0
 11
926.330539
 21
599.610947
 31
0.0
  0
ELLIPSE
  5
132
330
CB
100
AcDbEntity
  8
0
  6
Continuous
 62
     0
370
    30
100
AcDbEllipse
 10
907.926603
 20
601.063753
 30
0.0
 11
-0.1391731053782604
 21
0.9902680681206335
 31
0.0
210
0.0
220
0.0
230
1.0
 40
0.350524
 41
2.964272117766109
 42
3.141593160085308
  0
LINE
  5
133
330
CB
100
AcDbEntity
  8
0
  6
Continuous
 62
     0
370
    30
100
AcDbLine
 10
908.168244
 20
600.131287
 30
0.0
 11
908.591745
 21
597.117922
 31
0.0
  0
LINE
  5
134
330
CB
100
AcDbEntity
  8
0
  6
Continuous
 62
     0
370
    30
100
AcDbLine
 10
926.824379
 20
600.313976
 30
0.0
 11
926.911704
 21
599.692625
 31
0.0
  0
LINE
  5
135
330
CB
100
AcDbEntity
  8
0
  6
Continuous
 62
     0
370
    30
100
AcDbLine
 10
786.02569
 20
361.867439
 30
0.0
 11
786.02569
 21
481.867439
 31
0.0
  0
LINE
  5
136
330
CB
100
AcDbEntity
  8
0
  6
Continuous
 62
     0
370
    30
100
AcDbLine
 10
750.82569
 20
361.867439
 30
0.0
 11
750.82569
 21
481.867439
 31
0.0
  0
LINE
  5
137
330
CB
100
AcDbEntity
  8
0
  6
Continuous
 62
     0
370
    30
100
AcDbLine
 10
764.893563
 20
361.867442
 30
0.0
 11
795.199501
 21
361.867442
 31
0.0
  0
LINE
  5
138
330
CB
100
AcDbEntity
  8
0
  6
Continuous
 62
     0
370
    30
100
AcDbLine
 10
741.651878
 20
361.867442
 30
0.0
 11
764.893563
 21
361.867442
 31
0.0
  0
LINE
  5
139
330
CB
100
AcDbEntity
  8
0
  6
Continuous
 62
     0
370
    30
100
AcDbLine
 10
764.863723
 20
358.667442
 30
0.0
 11
795.42569
 21
358.667442
 31
0.0
  0
LINE
  5
13A
330
CB
100
AcDbEntity
  8
0
  6
Continuous
 62
     0
370
    30
100
AcDbLine
 10
741.42569
 20
358.667442
 30
0.0
 11
764.863723
 21
358.667442
 31
0.0
  0
LINE
  5
13B
330
CB
100
AcDbEntity
  8
0
  6
Continuous
 62
     0
370
     0
100
AcDbLine
 10
764.867179
 20
361.669188
 30
0.0
 11
741.451886
 21
361.669188
 31
0.0
  0
LWPOLYLINE
  5
13C
330
CB
100
AcDbEntity
  8
0
  6
Continuous
 62
     0
370
     0
100
AcDbPolyline
 90
       33
 70
     0
 43
0.0
 10
795.399475
 20
361.669189
 10
795.365479
 20
361.669189
 10
795.265991
 20
361.669189
 10
795.104675
 20
361.669189
 10
794.87793
 20
361.669189
 10
794.581665
 20
361.669189
 10
794.213318
 20
361.669189
 10
793.770752
 20
361.669189
 10
793.252319
 20
361.669189
 10
792.656982
 20
361.669189
 10
791.984375
 20
361.669189
 10
791.234802
 20
361.669189
 10
790.409302
 20
361.669189
 10
789.509644
 20
361.669189
 10
788.538391
 20
361.669189
 10
787.498901
 20
361.669189
 10
786.395142
 20
361.669189
 10
785.231934
 20
361.669189
 10
784.014465
 20
361.669189
 10
782.748718
 20
361.669189
 10
781.440918
 20
361.669189
 10
780.097595
 20
361.669189
 10
778.725769
 20
361.669189
 10
777.332214
 20
361.669189
 10
775.924011
 20
361.669189
 10
774.507996
 20
361.669189
 10
773.090759
 20
361.669189
 10
771.67865
 20
361.669189
 10
770.27771
 20
361.669189
 10
768.893433
 20
361.669189
 10
767.531006
 20
361.669189
 10
766.194885
 20
361.669189
 10
764.867188
 20
361.669189
  0
ARC
  5
13D
330
CB
100
AcDbEntity
  8
0
  6
Continuous
 62
     0
370
    30
100
AcDbCircle
 10
741.65199
 20
361.667411
 30
0.0
 40
0.200030987993985
100
AcDbArc
 50
90.025766
 51
179.491208
  0
ARC
  5
13E
330
CB
100
AcDbEntity
  8
0
  6
Continuous
 62
     0
370
    30
100
AcDbCircle
 10
795.199389
 20
361.667411
 30
0.0
 40
0.2000310312918032
100
AcDbArc
 50
0.508804
 51
89.975875
  0
LINE
  5
13F
330
CB
100
AcDbEntity
  8
0
  6
Continuous
 62
     0
370
    30
100
AcDbLine
 10
795.42569
 20
358.667442
 30
0.0
 11
795.399494
 21
361.669188
 31
0.0
  0
LINE
  5
140
330
CB
100
AcDbEntity
  8
0
  6
Continuous
 62
     0
370
    30
100
AcDbLine
 10
741.42569
 20
358.667442
 30
0.0
 11
741.451886
 21
361.669188
 31
0.0
  0
ENDBLK
  5
142
330
CB
100
AcDbEntity
  8
0
100
AcDbBlockEnd
  0
BLOCK
  5
1BB
330
144
100
AcDbEntity
  8
0
100
AcDbBlockBegin
  2
c
 70
     0
 10
441.755066
 20
0.0
 30
0.0
  3
c
  1

  0
LINE
  5
145
330
144
100
AcDbEntity
  8
0
  6
Continuous
 62
     0
370
    30
100
AcDbLine
 10
393.949196
 20
524.246063
 30
0.0
 11
393.949196
 21
525.746063
 31
0.0
  0
LINE
  5
146
330
144
100
AcDbEntity
  8
0
  6
Continuous
 62
     0
370
    30
100
AcDbLine
 10
393.949196
 20
525.746063
 30
0.0
 11
393.949196
 21
527.246063
 31
0.0
  0
LINE
  5
147
330
144
100
AcDbEntity
  8
0
  6
Continuous
 62
     0
370
    30
100
AcDbLine
 10
393.449196
 20
523.746063
 30
0.0
 11
393.449196
 21
525.746063
 31
0.0
  0
LINE
  5
148
330
144
100
AcDbEntity
  8
0
  6
Continuous
 62
     0
370
    30
100
AcDbLine
 10
393.449196
 20
525.746063
 30
0.0
 11
393.449196
 21
527.746063
 31
0.0
  0
LINE
  5
149
330
144
100
AcDbEntity
  8
0
  6
Continuous
 62
     0
370
    30
100
AcDbLine
 10
382.453945
 20
527.746063
 30
0.0
 11
382.453945
 21
525.746063
 31
0.0
  0
LINE
  5
14A
330
144
100
AcDbEntity
  8
0
  6
Continuous
 62
     0
370
    30
100
AcDbLine
 10
382.453945
 20
525.746063
 30
0.0
 11
382.453946
 21
523.746063
 31
0.0
  0
LINE
  5
14B
330
144
100
AcDbEntity
  8
0
  6
Continuous
 62
     0
370
    30
100
AcDbLine
 10
393.94918
 20
524.246264
 30
0.0
 11
393.949196
 21
525.746063
 31
0.0
  0
LINE
  5
14C
330
144
100
AcDbEntity
  8
0
  6
Continuous
 62
     0
370
    30
100
AcDbLine
 10
393.949196
 20
525.746063
 30
0.0
 11
393.949179
 21
527.245863
 31
0.0
  0
LINE
  5
14D
330
144
100
AcDbEntity
  8
0
  6
Continuous
 62
     0
370
    30
100
AcDbLine
 10
379.281868
 20
521.725227
 30
0.0
 11
377.469253
 21
522.570463
 31
0.0
  0
LINE
  5
14E
330
144
100
AcDbEntity
  8
0
  6
Continuous
 62
     0
370
    30
100
AcDbLine
 10
377.469253
 20
522.570463
 30
0.0
 11
375.656637
 21
523.4157
 31
0.0
  0
LWPOLYLINE
  5
14F
330
144
100
AcDbEntity
  8
0
  6
Continuous
 62
     0
370
    30
100
AcDbPolyline
 90
       40
 70
     0
 43
0.0
 10
372.417145
 20
516.468567
 10
372.414948
 20
516.418274
 10
372.409302
 20
516.284729
 10
372.401611
 20
516.099609
 10
372.392975
 20
515.883911
 10
372.384033
 20
515.649658
 10
372.375122
 20
515.403076
 10
372.366333
 20
515.14801
 10
372.35788
 20
514.886719
 10
372.349945
 20
514.620728
 10
372.342499
 20
514.351074
 10
372.335571
 20
514.078613
 10
372.329193
 20
513.803894
 10
372.323425
 20
513.527405
 10
372.318329
 20
513.24939
 10
372.313934
 20
512.970154
 10
372.310272
 20
512.689941
 10
372.307343
 20
512.408997
 10
372.305176
 20
512.127502
 10
372.303802
 20
511.845551
 10
372.303162
 20
511.563385
 10
372.303345
 20
511.281189
 10
372.304352
 20
510.999146
 10
372.306213
 20
510.717407
 10
372.308899
 20
510.436249
 10
372.312469
 20
510.155884
 10
372.316895
 20
509.876648
 10
372.322205
 20
509.598938
 10
372.328339
 20
509.323151
 10
372.335297
 20
509.049927
 10
372.343048
 20
508.779846
 10
372.351562
 20
508.513916
 10
372.360718
 20
508.253967
 10
372.370453
 20
508.002045
 10
372.380524
 20
507.760895
 10
372.390533
 20
507.535034
 10
372.400208
 20
507.33194
 10
372.408752
 20
507.163605
 10
372.414917
 20
507.047302
 10
372.417206
 20
507.004456
  0
LINE
  5
150
330
144
100
AcDbEntity
  8
0
  6
Continuous
 62
     0
370
    30
100
AcDbLine
 10
379.281868
 20
521.725227
 30
0.0
 11
372.41714
 21
507.003769
 31
0.0
  0
LINE
  5
151
330
144
100
AcDbEntity
  8
0
  6
Continuous
 62
     0
370
    30
100
AcDbLine
 10
375.656637
 20
523.4157
 30
0.0
 11
372.417134
 21
516.468563
 31
0.0
  0
LINE
  5
152
330
144
100
AcDbEntity
  8
0
  6
Continuous
 62
     0
370
    30
100
AcDbLine
 10
393.449196
 20
527.746063
 30
0.0
 11
393.949169
 21
527.24609
 31
0.0
  0
LINE
  5
153
330
144
100
AcDbEntity
  8
0
  6
Continuous
 62
     0
370
    30
100
AcDbLine
 10
393.449196
 20
523.746063
 30
0.0
 11
393.949169
 21
524.246036
 31
0.0
  0
LINE
  5
154
330
144
100
AcDbEntity
  8
0
  6
Continuous
 62
     0
370
    30
100
AcDbLine
 10
393.449196
 20
523.746063
 30
0.0
 11
382.453946
 21
523.746063
 31
0.0
  0
LINE
  5
155
330
144
100
AcDbEntity
  8
0
  6
Continuous
 62
     0
370
    30
100
AcDbLine
 10
393.449196
 20
527.746063
 30
0.0
 11
382.453945
 21
527.746063
 31
0.0
  0
ARC
  5
156
330
144
100
AcDbEntity
  8
0
  6
Continuous
 62
     0
370
    30
100
AcDbCircle
 10
382.454
 20
520.245977
 30
0.0
 40
3.500086042936116
100
AcDbArc
 50
90.000899
 51
154.999103
  0
ARC
  5
157
330
144
100
AcDbEntity
  8
0
  6
Continuous
 62
     0
370
    30
100
AcDbCircle
 10
382.453852
 20
520.246209
 30
0.0
 40
7.499853779214355
100
AcDbArc
 50
89.99929
 51
155.000712
  0
ARC
  5
158
330
144
100
AcDbEntity
  8
0
  6
Continuous
 62
     0
370
    30
100
AcDbCircle
 10
202.818031
 20
548.953064
 30
0.0
 40
52.70710111591642
100
AcDbArc
 50
78.228684
 51
80.958717
  0
LWPOLYLINE
  5
159
330
144
100
AcDbEntity
  8
0
  6
Continuous
 62
     0
370
    30
100
AcDbPolyline
 90
        5
 70
     0
 43
0.0
 10
206.078491
 20
601.604675
 10
207.255157
 20
601.507263
 10
208.416748
 20
601.38324
 10
209.557648
 20
601.23645
 10
211.100739
 20
601.00531
  0
LWPOLYLINE
  5
15A
330
144
100
AcDbEntity
  8
0
  6
Continuous
 62
     0
370
    30
100
AcDbPolyline
 90
       13
 70
     0
 43
0.0
 10
213.570587
 20
600.551697
 10
214.232834
 20
600.375732
 10
214.848862
 20
600.199097
 10
215.415543
 20
600.025757
 10
215.930679
 20
599.859253
 10
216.392029
 20
599.703064
 10
216.79744
 20
599.560242
 10
217.144928
 20
599.433594
 10
217.4328
 20
599.325684
 10
217.659546
 20
599.239075
 10
217.823944
 20
599.175293
 10
217.924942
 20
599.135681
 10
217.962082
 20
599.121033
  0
ARC
  5
15B
330
144
100
AcDbEntity
  8
0
  6
Continuous
 62
     0
370
    30
100
AcDbCircle
 10
205.958565
 20
576.983823
 30
0.0
 40
24.62113036455274
100
AcDbArc
 50
89.72091
 51
94.989628
  0
LWPOLYLINE
  5
15C
330
144
100
AcDbEntity
  8
0
  6
Continuous
 62
     0
370
    30
100
AcDbPolyline
 90
       20
 70
     0
 43
0.0
 10
193.286713
 20
599.586426
 10
193.322662
 20
599.595093
 10
193.43045
 20
599.621094
 10
193.608826
 20
599.663757
 10
193.856339
 20
599.722595
 10
194.171051
 20
599.797119
 10
194.550598
 20
599.886475
 10
194.991653
 20
599.989563
 10
195.490555
 20
600.104675
 10
196.043701
 20
600.230286
 10
196.647568
 20
600.364502
 10
197.298721
 20
600.50531
 10
197.993805
 20
600.649963
 10
198.729523
 20
600.795349
 10
199.502625
 20
600.938293
 10
200.309784
 20
601.075623
 10
201.14682
 20
601.204102
 10
202.008316
 20
601.320801
 10
202.888855
 20
601.422546
 10
203.817139
 20
601.511658
  0
LWPOLYLINE
  5
15D
330
144
100
AcDbEntity
  8
0
  6
Continuous
 62
     0
370
     0
100
AcDbPolyline
 90
       43
 70
     0
 43
0.0
 10
337.217133
 20
579.221008
 10
337.243713
 20
579.252258
 10
337.322693
 20
579.343384
 10
337.451813
 20
579.48584
 10
337.628113
 20
579.667969
 10
337.848511
 20
579.876343
 10
338.110138
 20
580.098267
 10
338.410583
 20
580.324463
 10
338.747589
 20
580.546692
 10
339.118835
 20
580.759827
 10
339.522186
 20
580.962341
 10
339.955322
 20
581.153442
 10
340.4151
 20
581.335632
 10
340.898163
 20
581.512451
 10
341.400757
 20
581.688721
 10
341.918335
 20
581.871216
 10
342.445465
 20
582.06842
 10
342.974213
 20
582.296814
 10
343.499329
 20
582.562012
 10
344.021912
 20
582.848877
 10
344.546814
 20
583.133179
 10
345.072296
 20
583.41272
 10
345.596741
 20
583.686768
 10
346.119171
 20
583.952881
 10
346.63858
 20
584.20929
 10
347.154114
 20
584.453552
 10
347.665039
 20
584.68335
 10
348.170715
 20
584.896118
 10
348.670624
 20
585.089294
 10
349.164337
 20
585.260254
 10
349.651459
 20
585.406372
 10
350.131561
 20
585.524841
 10
350.604248
 20
585.613037
 10
351.069
 20
585.668457
 10
351.525299
 20
585.688782
 10
351.972687
 20
585.671875
 10
352.410736
 20
585.615967
 10
352.839081
 20
585.519348
 10
353.256866
 20
585.38147
 10
353.663086
 20
585.202698
 10
354.057098
 20
584.983093
 10
354.44165
 20
584.720459
 10
354.817139
 20
584.415466
  0
LWPOLYLINE
  5
15E
330
144
100
AcDbEntity
  8
0
  6
Continuous
 62
     0
370
     0
100
AcDbPolyline
 90
       37
 70
     0
 43
0.0
 10
354.817139
 20
584.415466
 10
354.169586
 20
585.346375
 10
353.487335
 20
586.249817
 10
352.775726
 20
587.130249
 10
352.043488
 20
587.992676
 10
351.290588
 20
588.836243
 10
350.515076
 20
589.658203
 10
349.716339
 20
590.456848
 10
348.894135
 20
591.230652
 10
348.048248
 20
591.977417
 10
347.178833
 20
592.695557
 10
346.286926
 20
593.384216
 10
345.373779
 20
594.042786
 10
344.440735
 20
594.671021
 10
343.489197
 20
595.26886
 10
342.520569
 20
595.836243
 10
341.536316
 20
596.372803
 10
340.537781
 20
596.87854
 10
339.526459
 20
597.35376
 10
338.503784
 20
597.799683
 10
337.471191
 20
598.217041
 10
336.429596
 20
598.605774
 10
335.379425
 20
598.961365
 10
334.324005
 20
599.303162
 10
333.261108
 20
599.607422
 10
332.196686
 20
599.825439
 10
331.139069
 20
599.998047
 10
330.080597
 20
600.177124
 10
329.011749
 20
600.383362
 10
327.933411
 20
600.58667
 10
326.84729
 20
600.764893
 10
325.753632
 20
600.911438
 10
324.654022
 20
601.019714
 10
323.550842
 20
601.084473
 10
322.445831
 20
601.10376
 10
321.341705
 20
601.077515
 10
320.22702
 20
601.005249
  0
LWPOLYLINE
  5
15F
330
144
100
AcDbEntity
  8
0
  6
Continuous
 62
     0
370
     0
100
AcDbPolyline
 90
       12
 70
     0
 43
0.0
 10
320.22702
 20
601.005249
 10
319.813995
 20
600.695923
 10
319.419037
 20
600.411499
 10
319.043304
 20
600.152954
 10
318.690308
 20
599.921021
 10
318.364197
 20
599.716553
 10
318.070282
 20
599.540283
 10
317.815247
 20
599.393372
 10
317.606262
 20
599.276855
 10
317.450165
 20
599.192017
 10
317.3526
 20
599.139832
 10
317.317139
 20
599.121033
  0
ARC
  5
160
330
144
100
AcDbEntity
  8
0
  6
Continuous
 62
     0
370
    30
100
AcDbCircle
 10
317.317139
 20
579.22101
 30
0.0
 40
19.89999999999885
100
AcDbArc
 50
0.0
 51
90.0
  0
LINE
  5
161
330
144
100
AcDbEntity
  8
0
  6
Continuous
 62
     0
370
     0
100
AcDbLine
 10
320.227021
 20
601.0053
 30
0.0
 11
320.22702
 21
610.518399
 31
0.0
  0
LWPOLYLINE
  5
162
330
144
100
AcDbEntity
  8
0
  6
Continuous
 62
     0
370
     0
100
AcDbPolyline
 90
       36
 70
     0
 43
0.0
 10
320.22702
 20
610.518372
 10
321.554565
 20
610.491943
 10
322.880676
 20
610.412048
 10
324.202606
 20
610.278381
 10
325.517639
 20
610.090637
 10
326.82373
 20
609.84906
 10
328.118774
 20
609.553833
 10
329.400757
 20
609.205872
 10
330.667603
 20
608.806824
 10
331.917542
 20
608.358704
 10
333.150116
 20
607.865173
 10
334.366058
 20
607.331787
 10
335.566833
 20
606.765259
 10
336.753143
 20
606.168884
 10
337.921082
 20
605.537354
 10
339.067841
 20
604.868164
 10
340.192566
 20
604.162415
 10
341.294678
 20
603.421509
 10
342.372711
 20
602.645874
 10
343.42514
 20
601.835876
 10
344.450409
 20
600.991821
 10
345.44693
 20
600.113953
 10
346.412842
 20
599.202515
 10
347.346008
 20
598.257507
 10
348.244141
 20
597.279114
 10
349.104431
 20
596.267273
 10
349.924042
 20
595.222168
 10
350.699646
 20
594.143982
 10
351.427429
 20
593.032776
 10
352.103363
 20
591.889038
 10
352.722504
 20
590.713867
 10
353.279785
 20
589.508545
 10
353.770264
 20
588.274658
 10
354.18927
 20
587.014771
 10
354.535767
 20
585.733215
 10
354.817139
 20
584.415466
  0
LINE
  5
163
330
144
100
AcDbEntity
  8
0
  6
Continuous
 62
     0
370
     0
100
AcDbLine
 10
203.817136
 20
610.518385
 30
0.0
 11
203.817137
 21
601.511677
 31
0.0
  0
LWPOLYLINE
  5
164
330
144
100
AcDbEntity
  8
0
  6
Continuous
 62
     0
370
     0
100
AcDbPolyline
 90
       23
 70
     0
 43
0.0
 10
186.217224
 20
609.221069
 10
186.255341
 20
609.226501
 10
186.369598
 20
609.242798
 10
186.560272
 20
609.269714
 10
186.828003
 20
609.307129
 10
187.172913
 20
609.354553
 10
187.595062
 20
609.411377
 10
188.094467
 20
609.476929
 10
188.671158
 20
609.550293
 10
189.325119
 20
609.630371
 10
190.055969
 20
609.716125
 10
190.862579
 20
609.805908
 10
191.743622
 20
609.898193
 10
192.697342
 20
609.99115
 10
193.721298
 20
610.082825
 10
194.812805
 20
610.171204
 10
195.966721
 20
610.253967
 10
197.176514
 20
610.328796
 10
198.435776
 20
610.393616
 10
199.737762
 20
610.44696
 10
201.071335
 20
610.485107
 10
202.430435
 20
610.510498
 10
203.817139
 20
610.518372
  0
LINE
  5
165
330
144
100
AcDbEntity
  8
0
  6
Continuous
 62
     0
370
     0
100
AcDbLine
 10
211.100745
 20
601.005299
 30
0.0
 11
320.227021
 21
601.005299
 31
0.0
  0
LINE
  5
166
330
144
100
AcDbEntity
  8
0
  6
Continuous
 62
     0
370
     0
100
AcDbLine
 10
320.22702
 20
610.518399
 30
0.0
 11
203.817136
 21
610.518399
 31
0.0
  0
LINE
  5
167
330
144
100
AcDbEntity
  8
0
  6
Continuous
 62
     0
370
     0
100
AcDbLine
 10
203.817138
 20
610.518385
 30
0.0
 11
203.817138
 21
614.797439
 31
0.0
  0
LINE
  5
168
330
144
100
AcDbEntity
  8
0
  6
Continuous
 62
     0
370
     0
100
AcDbLine
 10
203.817138
 20
614.797439
 30
0.0
 11
186.217139
 21
614.797439
 31
0.0
  0
LINE
  5
169
330
144
100
AcDbEntity
  8
0
  6
Continuous
 62
     0
370
    30
100
AcDbLine
 10
203.817138
 20
615.397439
 30
0.0
 11
186.817139
 21
615.397439
 31
0.0
  0
LINE
  5
16A
330
144
100
AcDbEntity
  8
0
  6
Continuous
 62
     0
370
    30
100
AcDbLine
 10
354.817138
 20
615.397439
 30
0.0
 11
203.817138
 21
615.397439
 31
0.0
  0
LINE
  5
16B
330
144
100
AcDbEntity
  8
0
  6
Continuous
 62
     0
370
    30
100
AcDbLine
 10
371.817139
 20
615.397439
 30
0.0
 11
354.817138
 21
615.397439
 31
0.0
  0
LINE
  5
16C
330
144
100
AcDbEntity
  8
0
  6
Continuous
 62
     0
370
     0
100
AcDbLine
 10
354.817138
 20
584.415487
 30
0.0
 11
354.817138
 21
614.797439
 31
0.0
  0
LINE
  5
16D
330
144
100
AcDbEntity
  8
0
  6
Continuous
 62
     0
370
     0
100
AcDbLine
 10
354.817138
 20
614.797439
 30
0.0
 11
203.817138
 21
614.797439
 31
0.0
  0
LINE
  5
16E
330
144
100
AcDbEntity
  8
0
  6
Continuous
 62
     0
370
    30
100
AcDbLine
 10
337.217139
 20
481.867439
 30
0.0
 11
372.417139
 21
481.867439
 31
0.0
  0
LINE
  5
16F
330
144
100
AcDbEntity
  8
0
  6
Continuous
 62
     0
370
    30
100
AcDbLine
 10
337.217139
 20
481.867439
 30
0.0
 11
337.217139
 21
579.22101
 31
0.0
  0
LINE
  5
170
330
144
100
AcDbEntity
  8
0
  6
Continuous
 62
     0
370
     0
100
AcDbLine
 10
372.417139
 20
614.797439
 30
0.0
 11
354.817138
 21
614.797439
 31
0.0
  0
LWPOLYLINE
  5
171
330
144
100
AcDbEntity
  8
0
  6
Continuous
 62
     0
370
     0
100
AcDbPolyline
 90
       91
 70
     0
 43
0.0
 10
372.417145
 20
506.412201
 10
372.416595
 20
506.420624
 10
372.415039
 20
506.448059
 10
372.412506
 20
506.487762
 10
372.40918
 20
506.543335
 10
372.405212
 20
506.613159
 10
372.400635
 20
506.690094
 10
372.395752
 20
506.778076
 10
372.390533
 20
506.872681
 10
372.385101
 20
506.972839
 10
372.379547
 20
507.078369
 10
372.373962
 20
507.188599
 10
372.368378
 20
507.302338
 10
372.362823
 20
507.419098
 10
372.357269
 20
507.538574
 10
372.351837
 20
507.660431
 10
372.346466
 20
507.784302
 10
372.341248
 20
507.909882
 10
372.336212
 20
508.036865
 10
372.331299
 20
508.16507
 10
372.326599
 20
508.294403
 10
372.322052
 20
508.424744
 10
372.317688
 20
508.556
 10
372.313538
 20
508.688049
 10
372.30957
 20
508.820801
 10
372.305786
 20
508.954163
 10
372.302216
 20
509.088135
 10
372.298828
 20
509.222626
 10
372.295654
 20
509.357544
 10
372.292694
 20
509.492889
 10
372.289948
 20
509.628601
 10
372.287384
 20
509.764618
 10
372.285034
 20
509.90094
 10
372.282928
 20
510.037537
 10
372.280975
 20
510.174347
 10
372.279266
 20
510.311371
 10
372.27774
 20
510.448578
 10
372.276428
 20
510.585938
 10
372.275299
 20
510.723389
 10
372.274384
 20
510.860962
 10
372.273682
 20
510.998566
 10
372.273163
 20
511.1362
 10
372.272827
 20
511.273895
 10
372.272705
 20
511.41156
 10
372.272797
 20
511.549225
 10
372.273071
 20
511.686859
 10
372.273529
 20
511.824463
 10
372.27417
 20
511.962036
 10
372.274994
 20
512.099548
 10
372.276001
 20
512.237
 10
372.277222
 20
512.374329
 10
372.278595
 20
512.511597
 10
372.280151
 20
512.648743
 10
372.281891
 20
512.785767
 10
372.283813
 20
512.922607
 10
372.285889
 20
513.059265
 10
372.288147
 20
513.195679
 10
372.290558
 20
513.331909
 10
372.293121
 20
513.467896
 10
372.295868
 20
513.603577
 10
372.298767
 20
513.739014
 10
372.301819
 20
513.874084
 10
372.304993
 20
514.008789
 10
372.30835
 20
514.143127
 10
372.311829
 20
514.277039
 10
372.31546
 20
514.410522
 10
372.319244
 20
514.543518
 10
372.32312
 20
514.675964
 10
372.327179
 20
514.807861
 10
372.331329
 20
514.939087
 10
372.335602
 20
515.06958
 10
372.339966
 20
515.19928
 10
372.344452
 20
515.328064
 10
372.34903
 20
515.455811
 10
372.353668
 20
515.582458
 10
372.358398
 20
515.707886
 10
372.36319
 20
515.831726
 10
372.368042
 20
515.953796
 10
372.372925
 20
516.073853
 10
372.377838
 20
516.191589
 10
372.382721
 20
516.306763
 10
372.387573
 20
516.418945
 10
372.392334
 20
516.526978
 10
372.396973
 20
516.629761
 10
372.401367
 20
516.726013
 10
372.405487
 20
516.814758
 10
372.409241
 20
516.895447
 10
372.412476
 20
516.965393
 10
372.415009
 20
517.018738
 10
372.416595
 20
517.049255
 10
372.417145
 20
517.06012
  0
LINE
  5
172
330
144
100
AcDbEntity
  8
0
  6
Continuous
 62
     0
370
     0
100
AcDbLine
 10
354.817138
 20
614.797439
 30
0.0
 11
354.817138
 21
615.397439
 31
0.0
  0
LINE
  5
173
330
144
100
AcDbEntity
  8
0
  6
Continuous
 62
     0
370
     0
100
AcDbLine
 10
203.817138
 20
615.397439
 30
0.0
 11
203.817138
 21
614.797439
 31
0.0
  0
LINE
  5
174
330
144
100
AcDbEntity
  8
0
  6
Continuous
 62
     0
370
    30
100
AcDbLine
 10
372.417139
 20
507.003769
 30
0.0
 11
372.417139
 21
506.412214
 31
0.0
  0
LINE
  5
175
330
144
100
AcDbEntity
  8
0
  6
Continuous
 62
     0
370
    30
100
AcDbLine
 10
372.417139
 20
517.06014
 30
0.0
 11
372.417139
 21
516.468562
 31
0.0
  0
ARC
  5
176
330
144
100
AcDbEntity
  8
0
  6
Continuous
 62
     0
370
    30
100
AcDbCircle
 10
186.817139
 20
614.797439
 30
0.0
 40
0.6000001403890886
100
AcDbArc
 50
90.002936
 51
179.999989
  0
ARC
  5
177
330
144
100
AcDbEntity
  8
0
  6
Continuous
 62
     0
370
    30
100
AcDbCircle
 10
371.817139
 20
614.797439
 30
0.0
 40
0.6000001404467721
100
AcDbArc
 50
0.000011
 51
89.997064
  0
LINE
  5
178
330
144
100
AcDbEntity
  8
0
  6
Continuous
 62
     0
370
    30
100
AcDbLine
 10
372.417139
 20
481.867439
 30
0.0
 11
372.417139
 21
506.412214
 31
0.0
  0
LINE
  5
179
330
144
100
AcDbEntity
  8
0
  6
Continuous
 62
     0
370
    30
100
AcDbLine
 10
372.417139
 20
517.060141
 30
0.0
 11
372.417139
 21
614.797439
 31
0.0
  0
LINE
  5
17A
330
144
100
AcDbEntity
  8
0
  6
Continuous
 62
     0
370
    30
100
AcDbLine
 10
186.217139
 20
614.797439
 30
0.0
 11
186.217139
 21
609.220857
 31
0.0
  0
LINE
  5
17B
330
144
100
AcDbEntity
  8
0
  6
Continuous
 62
     0
370
    30
100
AcDbLine
 10
317.317139
 20
599.12101
 30
0.0
 11
217.962083
 21
599.12101
 31
0.0
  0
LWPOLYLINE
  5
17C
330
144
100
AcDbEntity
  8
0
  6
Continuous
 62
     0
370
    30
100
AcDbPolyline
 90
       16
 70
     0
 43
0.0
 10
186.217224
 20
609.221069
 10
186.253403
 20
608.372742
 10
186.360687
 20
607.530029
 10
186.537704
 20
606.699402
 10
186.783646
 20
605.886658
 10
187.097412
 20
605.097534
 10
187.476501
 20
604.337524
 10
187.91806
 20
603.612122
 10
188.4189
 20
602.92627
 10
188.975601
 20
602.284912
 10
189.584381
 20
601.692749
 10
190.240631
 20
601.153748
 10
190.939743
 20
600.67157
 10
191.677048
 20
600.250122
 10
192.447372
 20
599.892639
 10
193.286926
 20
599.587341
  0
ARC
  5
17D
330
144
100
AcDbEntity
  8
0
  6
Continuous
 62
     0
370
     0
100
AcDbCircle
 10
353.942613
 20
614.588515
 30
0.0
 40
17.51080200274263
100
AcDbArc
 50
2.647775
 51
4.943381
  0
LINE
  5
17E
330
144
100
AcDbEntity
  8
0
  6
Continuous
 62
     0
370
     0
100
AcDbLine
 10
371.38828
 20
616.097443
 30
0.0
 11
371.520711
 21
616.097443
 31
0.0
  0
ARC
  5
17F
330
144
100
AcDbEntity
  8
0
  6
Continuous
 62
     0
370
    30
100
AcDbCircle
 10
353.96023
 20
614.225382
 30
0.0
 40
17.65998597093406
100
AcDbArc
 50
3.805414
 51
6.085118
  0
LWPOLYLINE
  5
180
330
144
100
AcDbEntity
  8
0
  6
Continuous
 62
     0
370
    30
100
AcDbPolyline
 90
        9
 70
     0
 43
0.0
 10
369.297333
 20
623.117798
 10
369.73233
 20
622.306946
 10
370.124115
 20
621.474426
 10
370.471588
 20
620.622375
 10
370.773773
 20
619.753235
 10
371.029877
 20
618.869446
 10
371.239197
 20
617.97345
 10
371.401337
 20
617.067688
 10
371.520721
 20
616.097473
  0
ARC
  5
181
330
144
100
AcDbEntity
  8
0
  6
Continuous
 62
     0
370
    30
100
AcDbCircle
 10
355.537413
 20
614.441886
 30
0.0
 40
17.50231600161865
100
AcDbArc
 50
168.779956
 51
176.870322
  0
LWPOLYLINE
  5
182
330
144
100
AcDbEntity
  8
0
  6
Continuous
 62
     0
370
    30
100
AcDbPolyline
 90
       25
 70
     0
 43
0.0
 10
289.350891
 20
654.261108
 10
289.381012
 20
654.255798
 10
289.474091
 20
654.23938
 10
289.63385
 20
654.211243
 10
289.863373
 20
654.170715
 10
290.165161
 20
654.117554
 10
290.540863
 20
654.05127
 10
290.99118
 20
653.971863
 10
291.5159
 20
653.879333
 10
292.113617
 20
653.773987
 10
292.781952
 20
653.656128
 10
293.517395
 20
653.526428
 10
294.31543
 20
653.385742
 10
295.170593
 20
653.234924
 10
296.07663
 20
653.075195
 10
297.026581
 20
652.907654
 10
298.013092
 20
652.733704
 10
299.028381
 20
652.554688
 10
300.064636
 20
652.372009
 10
301.114105
 20
652.186951
 10
302.169281
 20
652.000854
 10
303.222961
 20
651.815063
 10
304.268585
 20
651.630737
 10
305.300049
 20
651.448853
 10
306.338806
 20
651.265686
  0
LINE
  5
183
330
144
100
AcDbEntity
  8
0
  6
Continuous
 62
     0
370
    30
100
AcDbLine
 10
306.338817
 20
651.265675
 30
0.0
 11
354.903962
 21
642.702329
 31
0.0
  0
LINE
  5
184
330
144
100
AcDbEntity
  8
0
  6
Continuous
 62
     0
370
    30
100
AcDbLine
 10
354.903962
 20
642.702329
 30
0.0
 11
372.153963
 21
639.660689
 31
0.0
  0
LWPOLYLINE
  5
185
330
144
100
AcDbEntity
  8
0
  6
Continuous
 62
     0
370
     0
100
AcDbPolyline
 90
       25
 70
     0
 43
0.0
 10
288.771667
 20
653.85553
 10
288.809052
 20
653.848938
 10
288.920898
 20
653.829224
 10
289.10675
 20
653.796448
 10
289.365967
 20
653.750732
 10
289.697266
 20
653.692322
 10
290.099243
 20
653.62146
 10
290.570312
 20
653.538391
 10
291.108337
 20
653.443481
 10
291.711029
 20
653.337219
 10
292.375916
 20
653.219971
 10
293.100037
 20
653.092285
 10
293.88031
 20
652.954712
 10
294.713531
 20
652.8078
 10
295.595978
 20
652.652222
 10
296.523956
 20
652.488586
 10
297.493591
 20
652.317627
 10
298.50058
 20
652.140076
 10
299.540588
 20
651.956665
 10
300.609192
 20
651.76825
 10
301.701996
 20
651.575562
 10
302.814514
 20
651.379395
 10
303.942139
 20
651.180542
 10
305.079346
 20
650.980042
 10
306.251984
 20
650.773254
  0
LINE
  5
186
330
144
100
AcDbEntity
  8
0
  6
Continuous
 62
     0
370
     0
100
AcDbLine
 10
306.251992
 20
650.773271
 30
0.0
 11
306.338817
 21
651.265675
 31
0.0
  0
LINE
  5
187
330
144
100
AcDbEntity
  8
0
  6
Continuous
 62
     0
370
     0
100
AcDbLine
 10
306.251992
 20
650.773271
 30
0.0
 11
354.817138
 21
642.209925
 31
0.0
  0
LINE
  5
188
330
144
100
AcDbEntity
  8
0
  6
Continuous
 62
     0
370
     0
100
AcDbLine
 10
354.817138
 20
642.209925
 30
0.0
 11
354.903962
 21
642.702329
 31
0.0
  0
LINE
  5
189
330
144
100
AcDbEntity
  8
0
  6
Continuous
 62
     0
370
     0
100
AcDbLine
 10
372.567139
 20
639.168285
 30
0.0
 11
354.817138
 21
642.209925
 31
0.0
  0
ARC
  5
18A
330
144
100
AcDbEntity
  8
0
  6
Continuous
 62
     0
370
    30
100
AcDbCircle
 10
372.067139
 20
639.168285
 30
0.0
 40
0.5000000000837086
100
AcDbArc
 50
0.0
 51
80.0
  0
LWPOLYLINE
  5
18B
330
144
100
AcDbEntity
  8
0
  6
Continuous
 62
     0
370
     0
100
AcDbPolyline
 90
       28
 70
     0
 43
0.0
 10
354.817139
 20
631.229858
 10
353.834106
 20
631.588928
 10
352.8461
 20
631.926819
 10
351.857208
 20
632.242676
 10
350.871124
 20
632.536255
 10
349.891541
 20
632.807495
 10
348.922363
 20
633.056641
 10
347.967529
 20
633.28418
 10
347.031189
 20
633.490906
 10
346.117676
 20
633.677979
 10
345.231262
 20
633.846497
 10
344.375763
 20
633.997925
 10
343.55426
 20
634.133972
 10
342.769806
 20
634.256592
 10
342.025726
 20
634.367371
 10
341.325439
 20
634.468262
 10
340.671417
 20
634.560974
 10
340.065796
 20
634.647339
 10
339.510956
 20
634.729065
 10
339.008972
 20
634.807678
 10
338.561737
 20
634.884521
 10
338.170898
 20
634.967651
 10
337.837982
 20
635.068787
 10
337.563812
 20
635.177856
 10
337.348938
 20
635.283386
 10
337.194061
 20
635.374329
 10
337.099854
 20
635.43866
 10
337.067139
 20
635.463684
  0
LINE
  5
18C
330
144
100
AcDbEntity
  8
0
  6
Continuous
 62
     0
370
    30
100
AcDbLine
 10
337.067139
 20
635.463679
 30
0.0
 11
337.067139
 21
617.847443
 31
0.0
  0
LINE
  5
18D
330
144
100
AcDbEntity
  8
0
  6
Continuous
 62
     0
370
    30
100
AcDbLine
 10
337.067139
 20
617.847443
 30
0.0
 11
354.817138
 21
617.847443
 31
0.0
  0
LINE
  5
18E
330
144
100
AcDbEntity
  8
0
  6
Continuous
 62
     0
370
    30
100
AcDbLine
 10
354.817138
 20
617.847443
 30
0.0
 11
372.567139
 21
624.307997
 31
0.0
  0
LINE
  5
18F
330
144
100
AcDbEntity
  8
0
  6
Continuous
 62
     0
370
     0
100
AcDbLine
 10
354.817138
 20
642.209925
 30
0.0
 11
354.817138
 21
631.229839
 31
0.0
  0
ARC
  5
190
330
144
100
AcDbEntity
  8
0
  6
Continuous
 62
     0
370
    30
100
AcDbCircle
 10
330.067139
 20
635.463679
 30
0.0
 40
6.999999999997403
100
AcDbArc
 50
0.0
 51
80.0
  0
LINE
  5
191
330
144
100
AcDbEntity
  8
0
  6
Continuous
 62
     0
370
     0
100
AcDbLine
 10
337.016903
 20
642.606072
 30
0.0
 11
305.782995
 21
648.113453
 31
0.0
  0
LWPOLYLINE
  5
192
330
144
100
AcDbEntity
  8
0
  6
Continuous
 62
     0
370
     0
100
AcDbPolyline
 90
       22
 70
     0
 43
0.0
 10
305.78299
 20
648.113464
 10
304.62088
 20
648.310669
 10
303.46051
 20
648.492371
 10
302.31189
 20
648.657593
 10
301.187592
 20
648.805359
 10
300.096954
 20
648.935364
 10
299.044006
 20
649.048523
 10
298.03363
 20
649.145691
 10
297.072662
 20
649.227722
 10
296.167358
 20
649.295532
 10
295.322479
 20
649.350586
 10
294.54245
 20
649.394165
 10
293.830902
 20
649.427673
 10
293.190948
 20
649.452576
 10
292.62561
 20
649.470337
 10
292.136414
 20
649.482361
 10
291.723785
 20
649.489807
 10
291.387756
 20
649.494019
 10
291.12796
 20
649.496033
 10
290.943451
 20
649.496643
 10
290.833008
 20
649.496521
 10
290.795441
 20
649.496338
  0
LWPOLYLINE
  5
193
330
144
100
AcDbEntity
  8
0
  6
Continuous
 62
     0
370
     0
100
AcDbPolyline
 90
       16
 70
     0
 43
0.0
 10
331.282684
 20
642.357361
 10
331.294952
 20
642.361694
 10
331.338989
 20
642.373535
 10
331.424408
 20
642.391113
 10
331.557678
 20
642.412964
 10
331.745056
 20
642.437744
 10
331.993073
 20
642.463928
 10
332.308777
 20
642.489441
 10
332.696075
 20
642.512573
 10
333.148682
 20
642.533569
 10
333.657562
 20
642.553345
 10
334.221161
 20
642.571045
 10
334.837524
 20
642.585876
 10
335.504333
 20
642.597229
 10
336.21933
 20
642.604187
 10
337.016907
 20
642.606079
  0
LWPOLYLINE
  5
194
330
144
100
AcDbEntity
  8
0
  6
Continuous
 62
     0
370
     0
100
AcDbPolyline
 90
       25
 70
     0
 43
0.0
 10
288.564728
 20
652.682007
 10
288.601807
 20
652.673401
 10
288.71283
 20
652.648254
 10
288.897491
 20
652.607788
 10
289.155457
 20
652.55304
 10
289.485687
 20
652.485168
 10
289.886414
 20
652.40509
 10
290.355927
 20
652.313782
 10
290.892395
 20
652.212158
 10
291.49353
 20
652.101013
 10
292.157135
 20
651.980896
 10
292.880951
 20
651.852417
 10
293.661804
 20
651.71582
 10
294.496094
 20
651.571533
 10
295.380127
 20
651.4198
 10
296.309967
 20
651.260925
 10
297.281158
 20
651.095337
 10
298.289185
 20
650.923401
 10
299.329498
 20
650.745422
 10
300.397614
 20
650.561707
 10
301.489502
 20
650.37262
 10
302.602386
 20
650.17865
 10
303.731537
 20
649.980835
 10
304.869507
 20
649.78064
 10
306.040527
 20
649.573975
  0
LINE
  5
195
330
144
100
AcDbEntity
  8
0
  6
Continuous
 62
     0
370
     0
100
AcDbLine
 10
306.040529
 20
649.574003
 30
0.0
 11
306.251992
 21
650.773271
 31
0.0
  0
LINE
  5
196
330
144
100
AcDbEntity
  8
0
  6
Continuous
 62
     0
370
     0
100
AcDbLine
 10
337.274437
 20
644.066622
 30
0.0
 11
306.040529
 21
649.574003
 31
0.0
  0
LWPOLYLINE
  5
197
330
144
100
AcDbEntity
  8
0
  6
Continuous
 62
     0
370
     0
100
AcDbPolyline
 90
       20
 70
     0
 43
0.0
 10
354.817139
 20
631.229858
 10
354.443054
 20
632.111267
 10
353.995544
 20
632.984436
 10
353.473785
 20
633.846252
 10
352.880066
 20
634.694336
 10
352.214844
 20
635.526794
 10
351.479187
 20
636.342468
 10
350.674469
 20
637.141479
 10
349.802948
 20
637.925171
 10
348.868896
 20
638.697021
 10
347.880402
 20
639.46344
 10
346.847046
 20
640.209412
 10
345.770966
 20
640.902344
 10
344.65448
 20
641.539001
 10
343.50058
 20
642.116638
 10
342.312714
 20
642.632996
 10
341.094696
 20
643.086487
 10
339.850891
 20
643.475891
 10
338.585876
 20
643.80072
 10
337.274445
 20
644.06665
  0
LWPOLYLINE
  5
198
330
144
100
AcDbEntity
  8
0
  6
Continuous
 62
     0
370
     0
100
AcDbPolyline
 90
       21
 70
     0
 43
0.0
 10
337.016907
 20
642.606079
 10
338.062866
 20
642.397827
 10
339.095612
 20
642.118652
 10
340.109222
 20
641.773315
 10
341.098022
 20
641.367065
 10
342.061493
 20
640.905396
 10
342.999969
 20
640.394409
 10
343.913391
 20
639.840332
 10
344.803955
 20
639.251221
 10
345.6745
 20
638.634033
 10
346.526489
 20
637.99231
 10
347.356079
 20
637.322083
 10
348.164154
 20
636.625854
 10
348.958527
 20
635.914795
 10
349.748657
 20
635.200134
 10
350.543762
 20
634.491943
 10
351.351532
 20
633.798523
 10
352.177216
 20
633.125549
 10
353.023376
 20
632.476624
 10
353.891052
 20
631.854187
 10
354.817139
 20
631.229858
  0
LINE
  5
199
330
144
100
AcDbEntity
  8
0
  6
Continuous
 62
     0
370
     0
100
AcDbLine
 10
337.016903
 20
642.606072
 30
0.0
 11
337.274437
 21
644.066622
 31
0.0
  0
LINE
  5
19A
330
144
100
AcDbEntity
  8
0
  6
Continuous
 62
     0
370
     0
100
AcDbLine
 10
306.040529
 20
649.574003
 30
0.0
 11
305.782995
 21
648.113453
 31
0.0
  0
LINE
  5
19B
330
144
100
AcDbEntity
  8
0
  6
Continuous
 62
     0
370
    30
100
AcDbLine
 10
372.567139
 20
636.111974
 30
0.0
 11
372.567139
 21
631.07967
 31
0.0
  0
ARC
  5
19C
330
144
100
AcDbEntity
  8
0
  6
Continuous
 62
     0
370
    30
100
AcDbCircle
 10
291.273056
 20
652.20461
 30
0.0
 40
2.75007714638024
100
AcDbArc
 50
170.001609
 51
259.99839
  0
LINE
  5
19D
330
144
100
AcDbEntity
  8
0
  6
Continuous
 62
     0
370
    30
100
AcDbLine
 10
337.067139
 20
635.463679
 30
0.0
 11
337.065418
 21
635.617503
 31
0.0
  0
LINE
  5
19E
330
144
100
AcDbEntity
  8
0
  6
Continuous
 62
     0
370
    30
100
AcDbLine
 10
331.282676
 20
642.357333
 30
0.0
 11
331.433864
 21
642.328928
 31
0.0
  0
LINE
  5
19F
330
144
100
AcDbEntity
  8
0
  6
Continuous
 62
     0
370
    30
100
AcDbLine
 10
288.771656
 20
653.855526
 30
0.0
 11
288.564713
 21
652.681897
 31
0.0
  0
LINE
  5
1A0
330
144
100
AcDbEntity
  8
0
  6
Continuous
 62
     0
370
    30
100
AcDbLine
 10
331.282676
 20
642.357333
 30
0.0
 11
290.795472
 21
649.49632
 31
0.0
  0
LINE
  5
1A1
330
144
100
AcDbEntity
  8
0
  6
Continuous
 62
     0
370
    30
100
AcDbLine
 10
372.567139
 20
624.308077
 30
0.0
 11
372.567139
 21
631.079671
 31
0.0
  0
LINE
  5
1A2
330
144
100
AcDbEntity
  8
0
  6
Continuous
 62
     0
370
    30
100
AcDbLine
 10
372.567139
 20
636.111974
 30
0.0
 11
372.567139
 21
639.168285
 31
0.0
  0
ARC
  5
1A3
330
144
100
AcDbEntity
  8
0
  6
Continuous
 62
     0
370
    30
100
AcDbCircle
 10
289.264062
 20
653.768699
 30
0.0
 40
0.5000026319600486
100
AcDbArc
 50
80.003863
 51
169.999698
  0
LINE
  5
1A4
330
144
100
AcDbEntity
  8
0
  6
Continuous
 62
     0
370
    30
100
AcDbLine
 10
372.493902
 20
631.680044
 30
0.0
 11
372.493875
 21
635.528186
 31
0.0
  0
LINE
  5
1A5
330
144
100
AcDbEntity
  8
0
  6
Continuous
 62
     0
370
    30
100
AcDbLine
 10
211.38485
 20
600.959272
 30
0.0
 11
208.14361
 21
601.414798
 31
0.0
  0
LINE
  5
1A6
330
144
100
AcDbEntity
  8
0
  6
Continuous
 62
     0
370
    30
100
AcDbLine
 10
215.177052
 20
600.073485
 30
0.0
 11
215.003495
 21
600.097877
 31
0.0
  0
LINE
  5
1A7
330
144
100
AcDbEntity
  8
0
  6
Continuous
 62
     0
370
    30
100
AcDbLine
 10
215.003495
 20
600.097877
 30
0.0
 11
214.397526
 21
600.18304
 31
0.0
  0
LWPOLYLINE
  5
1A8
330
144
100
AcDbEntity
  8
0
  6
Continuous
 62
     0
370
    30
100
AcDbPolyline
 90
        4
 70
     0
 43
0.0
 10
214.397522
 20
600.183044
 10
214.334198
 20
600.20697
 10
214.274185
 20
600.26001
 10
214.196671
 20
600.385681
  0
LINE
  5
1A9
330
144
100
AcDbEntity
  8
0
  6
Continuous
 62
     0
370
    30
100
AcDbLine
 10
196.331124
 20
599.692625
 30
0.0
 11
214.06992
 21
597.199599
 31
0.0
  0
LINE
  5
1AA
330
144
100
AcDbEntity
  8
0
  6
Continuous
 62
     0
370
    30
100
AcDbLine
 10
214.069919
 20
597.1996
 30
0.0
 11
214.651084
 21
597.117922
 31
0.0
  0
ELLIPSE
  5
1AB
330
144
100
AcDbEntity
  8
0
  6
Continuous
 62
     0
370
    30
100
AcDbEllipse
 10
215.142668
 20
601.088145
 30
0.0
 11
-0.1391731098876444
 21
-0.9902680674868809
 31
0.0
210
0.0
220
0.0
230
-1.0
 40
0.350524
 41
-0.0000000064955552
 42
0.3854770264402124
  0
ELLIPSE
  5
1AC
330
144
100
AcDbEntity
  8
0
  6
Continuous
 62
     0
370
    30
100
AcDbEllipse
 10
215.316225
 20
601.063753
 30
0.0
 11
-0.1391731098876444
 21
-0.9902680674868809
 31
0.0
210
0.0
220
0.0
230
-1.0
 40
0.350524
 41
6.105864758364402
 42
6.28318580068401
  0
LINE
  5
1AD
330
144
100
AcDbEntity
  8
0
  6
Continuous
 62
     0
370
    30
100
AcDbLine
 10
215.068603
 20
600.088726
 30
0.0
 11
214.651084
 21
597.117922
 31
0.0
  0
LINE
  5
1AE
330
144
100
AcDbEntity
  8
0
  6
Continuous
 62
     0
370
    30
100
AcDbLine
 10
196.418451
 20
600.313982
 30
0.0
 11
196.331124
 21
599.692625
 31
0.0
  0
LINE
  5
1AF
330
144
100
AcDbEntity
  8
0
  6
Continuous
 62
     0
370
    30
100
AcDbLine
 10
337.217139
 20
361.867439
 30
0.0
 11
337.217139
 21
481.867439
 31
0.0
  0
LINE
  5
1B0
330
144
100
AcDbEntity
  8
0
  6
Continuous
 62
     0
370
    30
100
AcDbLine
 10
372.417139
 20
361.867439
 30
0.0
 11
372.417139
 21
481.867439
 31
0.0
  0
LWPOLYLINE
  5
1B1
330
144
100
AcDbEntity
  8
0
  6
Continuous
 62
     0
370
    30
100
AcDbPolyline
 90
       28
 70
     0
 43
0.0
 10
328.043335
 20
361.867432
 10
328.077362
 20
361.867432
 10
328.18158
 20
361.867432
 10
328.358795
 20
361.867432
 10
328.611328
 20
361.867432
 10
328.940979
 20
361.867432
 10
329.348907
 20
361.867432
 10
329.835632
 20
361.867432
 10
330.401001
 20
361.867432
 10
331.044067
 20
361.867432
 10
331.763123
 20
361.867432
 10
332.555817
 20
361.867432
 10
333.418976
 20
361.867432
 10
334.348785
 20
361.867432
 10
335.340851
 20
361.867432
 10
336.390167
 20
361.867432
 10
337.491272
 20
361.867432
 10
338.638336
 20
361.867432
 10
339.825226
 20
361.867432
 10
341.045685
 20
361.867432
 10
342.293274
 20
361.867432
 10
343.561676
 20
361.867432
 10
344.844604
 20
361.867432
 10
346.136047
 20
361.867432
 10
347.430176
 20
361.867432
 10
348.721497
 20
361.867432
 10
350.004944
 20
361.867432
 10
351.285004
 20
361.867432
  0
LINE
  5
1B2
330
144
100
AcDbEntity
  8
0
  6
Continuous
 62
     0
370
    30
100
AcDbLine
 10
351.28501
 20
361.867442
 30
0.0
 11
381.59095
 21
361.867442
 31
0.0
  0
LWPOLYLINE
  5
1B3
330
144
100
AcDbEntity
  8
0
  6
Continuous
 62
     0
370
    30
100
AcDbPolyline
 90
       28
 70
     0
 43
0.0
 10
327.817139
 20
358.66745
 10
327.851471
 20
358.66745
 10
327.956604
 20
358.66745
 10
328.135376
 20
358.66745
 10
328.390137
 20
358.66745
 10
328.722656
 20
358.66745
 10
329.134186
 20
358.66745
 10
329.625214
 20
358.66745
 10
330.195526
 20
358.66745
 10
330.844238
 20
358.66745
 10
331.569611
 20
358.66745
 10
332.369232
 20
358.66745
 10
333.23996
 20
358.66745
 10
334.177917
 20
358.66745
 10
335.17868
 20
358.66745
 10
336.237152
 20
358.66745
 10
337.34787
 20
358.66745
 10
338.504913
 20
358.66745
 10
339.702148
 20
358.66745
 10
340.933167
 20
358.66745
 10
342.191589
 20
358.66745
 10
343.470978
 20
358.66745
 10
344.765015
 20
358.66745
 10
346.067596
 20
358.66745
 10
347.372864
 20
358.66745
 10
348.675293
 20
358.66745
 10
349.969727
 20
358.66745
 10
351.255157
 20
358.66745
  0
LINE
  5
1B4
330
144
100
AcDbEntity
  8
0
  6
Continuous
 62
     0
370
    30
100
AcDbLine
 10
351.25517
 20
358.667442
 30
0.0
 11
381.817139
 21
358.667442
 31
0.0
  0
LINE
  5
1B5
330
144
100
AcDbEntity
  8
0
  6
Continuous
 62
     0
370
     0
100
AcDbLine
 10
381.790943
 20
361.669188
 30
0.0
 11
351.258626
 21
361.669188
 31
0.0
  0
LINE
  5
1B6
330
144
100
AcDbEntity
  8
0
  6
Continuous
 62
     0
370
     0
100
AcDbLine
 10
351.258626
 20
361.669188
 30
0.0
 11
327.843335
 21
361.669188
 31
0.0
  0
ARC
  5
1B7
330
144
100
AcDbEntity
  8
0
  6
Continuous
 62
     0
370
    30
100
AcDbCircle
 10
381.590838
 20
361.667411
 30
0.0
 40
0.2000309880387583
100
AcDbArc
 50
0.508792
 51
89.974234
  0
ARC
  5
1B8
330
144
100
AcDbEntity
  8
0
  6
Continuous
 62
     0
370
    30
100
AcDbCircle
 10
328.043439
 20
361.667411
 30
0.0
 40
0.2000310314899486
100
AcDbArc
 50
90.024125
 51
179.491195
  0
LINE
  5
1B9
330
144
100
AcDbEntity
  8
0
  6
Continuous
 62
     0
370
    30
100
AcDbLine
 10
327.817139
 20
358.667442
 30
0.0
 11
327.843335
 21
361.669188
 31
0.0
  0
LINE
  5
1BA
330
144
100
AcDbEntity
  8
0
  6
Continuous
 62
     0
370
    30
100
AcDbLine
 10
381.817139
 20
358.667442
 30
0.0
 11
381.790943
 21
361.669188
 31
0.0
  0
ENDBLK
  5
1BC
330
144
100
AcDbEntity
  8
0
100
AcDbBlockEnd
  0
BLOCK
  5
1F6
330
1BE
100
AcDbEntity
  8
0
100
AcDbBlockBegin
  2
d
 70
     0
 10
0.0
 20
278.787292
 30
0.0
  3
d
  1

  0
LINE
  5
1BF
330
1BE
100
AcDbEntity
  8
0
  6
Continuous
 62
     0
370
    30
100
AcDbLine
 10
552.458771
 20
214.501479
 30
0.0
 11
552.458771
 21
219.486171
 31
0.0
  0
LINE
  5
1C0
330
1BE
100
AcDbEntity
  8
0
  6
Continuous
 62
     0
370
    30
100
AcDbLine
 10
555.958771
 20
230.981422
 30
0.0
 11
552.958771
 21
230.981422
 31
0.0
  0
LINE
  5
1C1
330
1BE
100
AcDbEntity
  8
0
  6
Continuous
 62
     0
370
    30
100
AcDbLine
 10
552.458771
 20
219.486171
 30
0.0
 11
552.458771
 21
230.481422
 31
0.0
  0
LINE
  5
1C2
330
1BE
100
AcDbEntity
  8
0
  6
Continuous
 62
     0
370
    30
100
AcDbLine
 10
556.458771
 20
230.481422
 30
0.0
 11
552.458771
 21
230.481422
 31
0.0
  0
LINE
  5
1C3
330
1BE
100
AcDbEntity
  8
0
  6
Continuous
 62
     0
370
    30
100
AcDbLine
 10
552.458771
 20
219.486171
 30
0.0
 11
556.458771
 21
219.486171
 31
0.0
  0
LINE
  5
1C4
330
1BE
100
AcDbEntity
  8
0
  6
Continuous
 62
     0
370
    30
100
AcDbLine
 10
552.458771
 20
230.481422
 30
0.0
 11
552.958771
 21
230.981422
 31
0.0
  0
LWPOLYLINE
  5
1C5
330
1BE
100
AcDbEntity
  8
0
  6
Continuous
 62
     0
370
    30
100
AcDbPolyline
 90
       15
 70
     0
 43
0.0
 10
555.958801
 20
230.981415
 10
555.921204
 20
230.981369
 10
555.810913
 20
230.9814
 10
555.632812
 20
230.981415
 10
555.396423
 20
230.9814
 10
555.112976
 20
230.981384
 10
554.797058
 20
230.9814
 10
554.464172
 20
230.9814
 10
554.130981
 20
230.9814
 10
553.81427
 20
230.981384
 10
553.529602
 20
230.981369
 10
553.291443
 20
230.9814
 10
553.111328
 20
230.9814
 10
552.998718
 20
230.981339
 10
552.958801
 20
230.981415
  0
LINE
  5
1C6
330
1BE
100
AcDbEntity
  8
0
  6
Continuous
 62
     0
370
    30
100
AcDbLine
 10
552.458771
 20
209.526106
 30
0.0
 11
552.458771
 21
214.501479
 31
0.0
  0
ELLIPSE
  5
1C7
330
1BE
100
AcDbEntity
  8
0
  6
Continuous
 62
     0
370
    30
100
AcDbEllipse
 10
554.458771
 20
214.501479
 30
0.0
 11
2.0
 21
0.0
 31
0.0
210
0.0
220
0.0
230
-1.0
 40
0.906308
 41
-0.0000000000000959
 42
3.141592653589793
  0
LINE
  5
1C8
330
1BE
100
AcDbEntity
  8
0
  6
Continuous
 62
     0
370
    30
100
AcDbLine
 10
556.458771
 20
214.501479
 30
0.0
 11
556.458771
 21
209.526123
 31
0.0
  0
LINE
  5
1C9
330
1BE
100
AcDbEntity
  8
0
  6
Continuous
 62
     0
370
    30
100
AcDbLine
 10
556.458771
 20
230.481422
 30
0.0
 11
555.958771
 21
230.981422
 31
0.0
  0
LINE
  5
1CA
330
1BE
100
AcDbEntity
  8
0
  6
Continuous
 62
     0
370
    30
100
AcDbLine
 10
556.458771
 20
230.481422
 30
0.0
 11
556.458771
 21
219.486171
 31
0.0
  0
LINE
  5
1CB
330
1BE
100
AcDbEntity
  8
0
  6
Continuous
 62
     0
370
    30
100
AcDbLine
 10
556.458771
 20
219.486171
 30
0.0
 11
556.458771
 21
214.501479
 31
0.0
  0
ARC
  5
1CC
330
1BE
100
AcDbEntity
  8
0
  6
Continuous
 62
     0
370
    30
100
AcDbCircle
 10
554.458772
 20
40.84936
 30
0.0
 40
17.59999999997302
100
AcDbArc
 50
180.0
 51
0.0
  0
LINE
  5
1CD
330
1BE
100
AcDbEntity
  8
0
  6
Continuous
 62
     0
370
     0
100
AcDbLine
 10
537.458772
 20
40.84936
 30
0.0
 11
537.458772
 21
138.038363
 31
0.0
  0
ARC
  5
1CE
330
1BE
100
AcDbEntity
  8
0
  6
Continuous
 62
     0
370
     0
100
AcDbCircle
 10
554.458772
 20
40.84936
 30
0.0
 40
16.99999997613115
100
AcDbArc
 50
180.0
 51
360.0
  0
LINE
  5
1CF
330
1BE
100
AcDbEntity
  8
0
  6
Continuous
 62
     0
370
     0
100
AcDbLine
 10
571.458772
 20
138.037595
 30
0.0
 11
571.458772
 21
40.84936
 31
0.0
  0
LINE
  5
1D0
330
1BE
100
AcDbEntity
  8
0
  6
Continuous
 62
     0
370
    30
100
AcDbLine
 10
572.058772
 20
140.801972
 30
0.0
 11
572.058772
 21
40.84936
 31
0.0
  0
LINE
  5
1D1
330
1BE
100
AcDbEntity
  8
0
  6
Continuous
 62
     0
370
    30
100
AcDbLine
 10
536.858772
 20
40.84936
 30
0.0
 11
536.858772
 21
140.801723
 31
0.0
  0
LINE
  5
1D2
330
1BE
100
AcDbEntity
  8
0
  6
Continuous
 62
     0
370
     0
100
AcDbLine
 10
536.858772
 20
40.84936
 30
0.0
 11
537.458772
 21
40.84936
 31
0.0
  0
LINE
  5
1D3
330
1BE
100
AcDbEntity
  8
0
  6
Continuous
 62
     0
370
     0
100
AcDbLine
 10
571.458772
 20
40.84936
 30
0.0
 11
572.058772
 21
40.84936
 31
0.0
  0
LWPOLYLINE
  5
1D4
330
1BE
100
AcDbEntity
  8
0
  6
Continuous
 62
     0
370
    30
100
AcDbPolyline
 90
        3
 70
     0
 43
0.0
 10
571.117981
 20
35.172146
 10
571.104187
 20
35.121426
 10
571.048706
 20
34.972595
  0
LWPOLYLINE
  5
1D5
330
1BE
100
AcDbEntity
  8
0
  6
Continuous
 62
     0
370
     0
100
AcDbPolyline
 90
       50
 70
     0
 43
0.0
 10
537.208801
 20
143.371033
 10
537.238159
 20
142.379654
 10
537.328918
 20
141.369278
 10
537.48468
 20
140.344925
 10
537.708313
 20
139.312286
 10
538.00238
 20
138.277542
 10
538.368469
 20
137.247391
 10
538.807373
 20
136.228867
 10
539.31897
 20
135.229279
 10
539.902161
 20
134.256012
 10
540.554688
 20
133.31636
 10
541.27356
 20
132.417404
 10
542.054504
 20
131.565781
 10
542.892578
 20
130.767578
 10
543.781921
 20
130.028168
 10
544.716064
 20
129.352066
 10
545.687988
 20
128.742874
 10
546.69043
 20
128.203232
 10
547.715881
 20
127.734726
 10
548.756836
 20
127.33799
 10
549.806091
 20
127.012703
 10
550.856567
 20
126.757629
 10
551.901733
 20
126.570786
 10
552.935547
 20
126.449463
 10
553.952576
 20
126.390419
 10
554.953857
 20
126.390099
 10
555.970642
 20
126.448479
 10
557.004333
 20
126.569084
 10
558.049377
 20
126.755196
 10
559.099792
 20
127.009499
 10
560.149109
 20
127.334007
 10
561.190247
 20
127.729942
 10
562.215881
 20
128.197647
 10
563.218628
 20
128.736526
 10
564.190918
 20
129.344955
 10
565.125488
 20
130.020325
 10
566.015381
 20
130.759064
 10
566.854065
 20
131.556641
 10
567.635681
 20
132.4077
 10
568.355225
 20
133.306183
 10
569.008545
 20
134.245422
 10
569.592529
 20
135.218353
 10
570.104919
 20
136.217682
 10
570.544617
 20
137.236038
 10
570.911499
 20
138.266098
 10
571.20636
 20
139.300842
 10
571.430786
 20
140.333542
 10
571.587219
 20
141.358002
 10
571.678711
 20
142.368561
 10
571.708801
 20
143.371033
  0
LINE
  5
1D6
330
1BE
100
AcDbEntity
  8
0
  6
Continuous
 62
     0
370
     0
100
AcDbLine
 10
571.708772
 20
143.371038
 30
0.0
 11
571.708772
 21
191.936183
 31
0.0
  0
ARC
  5
1D7
330
1BE
100
AcDbEntity
  8
0
  6
Continuous
 62
     0
370
     0
100
AcDbCircle
 10
554.458771
 20
191.936183
 30
0.0
 40
17.25000006647785
100
AcDbArc
 50
360.0
 51
90.0
  0
ARC
  5
1D8
330
1BE
100
AcDbEntity
  8
0
  6
Continuous
 62
     0
370
     0
100
AcDbCircle
 10
554.458772
 20
191.936183
 30
0.0
 40
17.25000006647706
100
AcDbArc
 50
90.0
 51
180.0
  0
LINE
  5
1D9
330
1BE
100
AcDbEntity
  8
0
  6
Continuous
 62
     0
370
     0
100
AcDbLine
 10
537.208772
 20
191.936183
 30
0.0
 11
537.208772
 21
143.371038
 31
0.0
  0
ELLIPSE
  5
1DA
330
1BE
100
AcDbEntity
  8
0
  6
Continuous
 62
     0
370
     0
100
AcDbEllipse
 10
537.208772
 20
143.284213
 30
0.0
 11
-0.5
 21
1.190763432898574E-15
 31
0.0
210
0.0
220
0.0
230
-1.0
 40
0.173648
 41
-0.0000000000003411
 42
1.570796326794946
  0
ELLIPSE
  5
1DB
330
1BE
100
AcDbEntity
  8
0
  6
Continuous
 62
     0
370
     0
100
AcDbEllipse
 10
537.208772
 20
191.849359
 30
0.0
 11
0.5
 21
-1.190763432898574E-15
 31
0.0
210
0.0
220
0.0
230
1.0
 40
0.173648
 41
1.570796326795124
 42
3.141592653590019
  0
LINE
  5
1DC
330
1BE
100
AcDbEntity
  8
0
  6
Continuous
 62
     0
370
    30
100
AcDbLine
 10
536.708772
 20
191.849359
 30
0.0
 11
536.708772
 21
143.284213
 31
0.0
  0
LWPOLYLINE
  5
1DD
330
1BE
100
AcDbEntity
  8
0
  6
Continuous
 62
     0
370
     0
100
AcDbPolyline
 90
       48
 70
     0
 43
0.0
 10
536.708801
 20
143.28421
 10
536.748474
 20
142.117645
 10
536.867188
 20
140.955032
 10
537.064392
 20
139.802521
 10
537.339417
 20
138.665985
 10
537.690857
 20
137.550369
 10
538.117126
 20
136.460419
 10
538.616455
 20
135.400864
 10
539.186462
 20
134.376404
 10
539.824646
 20
133.391708
 10
540.528259
 20
132.451263
 10
541.294067
 20
131.559158
 10
542.118591
 20
130.719437
 10
542.998352
 20
129.935867
 10
543.929199
 20
129.211838
 10
544.907043
 20
128.550659
 10
545.927612
 20
127.955345
 10
546.986267
 20
127.428406
 10
548.078308
 20
126.972298
 10
549.198792
 20
126.589096
 10
550.342834
 20
126.280365
 10
551.505188
 20
126.047592
 10
552.680786
 20
125.891861
 10
553.864258
 20
125.813705
 10
555.050476
 20
125.813614
 10
556.233948
 20
125.891586
 10
557.409607
 20
126.047134
 10
558.572021
 20
126.279716
 10
559.716064
 20
126.58828
 10
560.836609
 20
126.971298
 10
561.928711
 20
127.427238
 10
562.987427
 20
127.95401
 10
564.008118
 20
128.549164
 10
564.986084
 20
129.21019
 10
565.917053
 20
129.934082
 10
566.796936
 20
130.717514
 10
567.621643
 20
131.557114
 10
568.387512
 20
132.449081
 10
569.091309
 20
133.38942
 10
569.729675
 20
134.374023
 10
570.299866
 20
135.398392
 10
570.799377
 20
136.45787
 10
571.225769
 20
137.54776
 10
571.577393
 20
138.663315
 10
571.852539
 20
139.799805
 10
572.049988
 20
140.952286
 10
572.168884
 20
142.114883
 10
572.208801
 20
143.28421
  0
LWPOLYLINE
  5
1DE
330
1BE
100
AcDbEntity
  8
0
  6
Continuous
 62
     0
370
     0
100
AcDbPolyline
 90
        5
 70
     0
 43
0.0
 10
572.208801
 20
143.28421
 10
572.171143
 20
143.317261
 10
572.063904
 20
143.345337
 10
571.903198
 20
143.364197
 10
571.708801
 20
143.371033
  0
LINE
  5
1DF
330
1BE
100
AcDbEntity
  8
0
  6
Continuous
 62
     0
370
    30
100
AcDbLine
 10
572.208772
 20
143.284213
 30
0.0
 11
572.208772
 21
191.849359
 31
0.0
  0
ELLIPSE
  5
1E0
330
1BE
100
AcDbEntity
  8
0
  6
Continuous
 62
     0
370
     0
100
AcDbEllipse
 10
571.708772
 20
191.849359
 30
0.0
 11
0.5
 21
6.834559348589450E-16
 31
0.0
210
0.0
220
0.0
230
1.0
 40
0.173648
 41
-0.0000000000000053
 42
1.570796326794641
  0
ARC
  5
1E1
330
1BE
100
AcDbEntity
  8
0
  6
Continuous
 62
     0
370
    30
100
AcDbCircle
 10
554.458771
 20
191.849359
 30
0.0
 40
17.75000074422521
100
AcDbArc
 50
0.000002
 51
89.999998
  0
LINE
  5
1E2
330
1BE
100
AcDbEntity
  8
0
  6
Continuous
 62
     0
370
     0
100
AcDbLine
 10
554.458772
 20
209.186184
 30
0.0
 11
554.458772
 21
209.599359
 31
0.0
  0
ARC
  5
1E3
330
1BE
100
AcDbEntity
  8
0
  6
Continuous
 62
     0
370
    30
100
AcDbCircle
 10
554.458772
 20
191.849359
 30
0.0
 40
17.75000074422633
100
AcDbArc
 50
90.000002
 51
179.999998
  0
LWPOLYLINE
  5
1E4
330
1BE
100
AcDbEntity
  8
0
  6
Continuous
 62
     0
370
     0
100
AcDbPolyline
 90
       48
 70
     0
 43
0.0
 10
536.708801
 20
143.072754
 10
536.748352
 20
141.906708
 10
536.86731
 20
140.743362
 10
537.064819
 20
139.589401
 10
537.339661
 20
138.452682
 10
537.690674
 20
137.338104
 10
538.116272
 20
136.248657
 10
538.615051
 20
135.188782
 10
539.185059
 20
134.163269
 10
539.823486
 20
133.176971
 10
540.527466
 20
132.234711
 10
541.294006
 20
131.341202
 10
542.119202
 20
130.500549
 10
542.998962
 20
129.716614
 10
543.92926
 20
128.993286
 10
544.905884
 20
128.333603
 10
545.924927
 20
127.739914
 10
546.982605
 20
127.21463
 10
548.074585
 20
126.760033
 10
549.195618
 20
126.378006
 10
550.340332
 20
126.070404
 10
551.503357
 20
125.838928
 10
552.679443
 20
125.684258
 10
553.863342
 20
125.606712
 10
555.049805
 20
125.606575
 10
556.233765
 20
125.683853
 10
557.409851
 20
125.838242
 10
558.572937
 20
126.06945
 10
559.717712
 20
126.376778
 10
560.838867
 20
126.758537
 10
561.930969
 20
127.212883
 10
562.98877
 20
127.7379
 10
564.007996
 20
128.331329
 10
564.984802
 20
128.990784
 10
565.915222
 20
129.713882
 10
566.795166
 20
130.497589
 10
567.620605
 20
131.338043
 10
568.38739
 20
132.231354
 10
569.091553
 20
133.173431
 10
569.730225
 20
134.159576
 10
570.300476
 20
135.184937
 10
570.799561
 20
136.24469
 10
571.225464
 20
137.33403
 10
571.576721
 20
138.448532
 10
571.851868
 20
139.585159
 10
572.049683
 20
140.739059
 10
572.168884
 20
141.90239
 10
572.208801
 20
143.072754
  0
LWPOLYLINE
  5
1E5
330
1BE
100
AcDbEntity
  8
0
  6
Continuous
 62
     0
370
    30
100
AcDbPolyline
 90
       48
 70
     0
 43
0.0
 10
572.208801
 20
143.072754
 10
572.169128
 20
141.903427
 10
572.050354
 20
140.739182
 10
571.852905
 20
139.585175
 10
571.577698
 20
138.446426
 10
571.226074
 20
137.327972
 10
570.799561
 20
136.234848
 10
570.299988
 20
135.172012
 10
569.729553
 20
134.144302
 10
569.090942
 20
133.156311
 10
568.386963
 20
132.212585
 10
567.62085
 20
131.317413
 10
566.795898
 20
130.474915
 10
565.915833
 20
129.68895
 10
564.98468
 20
128.96312
 10
564.006531
 20
128.300735
 10
562.985901
 20
127.704506
 10
561.927429
 20
127.177063
 10
560.835754
 20
126.721008
 10
559.715698
 20
126.338242
 10
558.572327
 20
126.030182
 10
557.410767
 20
125.798203
 10
556.236145
 20
125.64315
 10
555.05365
 20
125.565361
 10
553.868591
 20
125.565186
 10
552.686157
 20
125.642715
 10
551.511475
 20
125.797531
 10
550.349854
 20
126.029099
 10
549.206421
 20
126.336815
 10
548.086243
 20
126.719353
 10
546.994385
 20
127.175026
 10
545.93573
 20
127.702103
 10
544.915039
 20
128.298157
 10
543.936768
 20
128.960388
 10
543.005371
 20
129.685913
 10
542.125244
 20
130.471741
 10
541.30011
 20
131.314041
 10
540.533569
 20
132.208908
 10
539.829285
 20
133.152374
 10
539.190369
 20
134.140213
 10
538.61969
 20
135.167801
 10
538.119873
 20
136.230499
 10
537.693176
 20
137.323547
 10
537.341309
 20
138.441925
 10
537.065674
 20
139.580597
 10
536.867798
 20
140.734528
 10
536.748718
 20
141.898743
 10
536.708801
 20
143.072754
  0
LWPOLYLINE
  5
1E6
330
1BE
100
AcDbEntity
  8
0
  6
Continuous
 62
     0
370
    30
100
AcDbPolyline
 90
       10
 70
     0
 43
0.0
 10
556.757996
 20
209.526108
 10
556.73291
 20
209.526108
 10
556.637268
 20
209.526108
 10
556.474182
 20
209.526108
 10
556.248535
 20
209.526093
 10
555.967468
 20
209.526093
 10
555.639587
 20
209.526093
 10
555.275085
 20
209.526093
 10
554.885315
 20
209.526093
 10
554.458801
 20
209.526093
  0
LWPOLYLINE
  5
1E7
330
1BE
100
AcDbEntity
  8
0
  6
Continuous
 62
     0
370
    30
100
AcDbPolyline
 90
        6
 70
     0
 43
0.0
 10
552.850586
 20
209.526093
 10
552.610474
 20
209.526093
 10
552.416992
 20
209.526108
 10
552.275085
 20
209.526108
 10
552.188293
 20
209.526108
 10
552.159546
 20
209.526108
  0
LWPOLYLINE
  5
1E8
330
1BE
100
AcDbEntity
  8
0
  6
Continuous
 62
     0
370
    30
100
AcDbPolyline
 90
        8
 70
     0
 43
0.0
 10
551.955627
 20
209.421783
 10
551.982361
 20
209.453232
 10
552.013916
 20
209.479828
 10
552.049377
 20
209.5009
 10
552.087891
 20
209.515808
 10
552.128296
 20
209.524216
 10
552.157898
 20
209.526199
 10
552.159546
 20
209.526108
  0
LWPOLYLINE
  5
1E9
330
1BE
100
AcDbEntity
  8
0
  6
Continuous
 62
     0
370
    30
100
AcDbPolyline
 90
        8
 70
     0
 43
0.0
 10
556.961914
 20
209.421783
 10
556.935181
 20
209.453232
 10
556.903625
 20
209.479828
 10
556.868164
 20
209.5009
 10
556.829651
 20
209.515808
 10
556.789185
 20
209.524216
 10
556.759644
 20
209.526199
 10
556.757996
 20
209.526108
  0
ARC
  5
1EA
330
1BE
100
AcDbEntity
  8
0
  6
Continuous
 62
     0
370
     0
100
AcDbCircle
 10
554.458772
 20
191.849372
 30
0.0
 40
26.77381177800033
100
AcDbArc
 50
311.526108
 51
352.419171
  0
ARC
  5
1EB
330
1BE
100
AcDbEntity
  8
0
  6
Continuous
 62
     0
370
     0
100
AcDbCircle
 10
554.458772
 20
191.849372
 30
0.0
 40
26.77381177799612
100
AcDbArc
 50
172.419171
 51
228.473892
  0
ARC
  5
1EC
330
1BE
100
AcDbEntity
  8
0
  6
Continuous
 62
     0
370
     0
100
AcDbCircle
 10
554.458772
 20
191.849372
 30
0.0
 40
26.7738117779971
100
AcDbArc
 50
94.283977
 51
172.419171
  0
ARC
  5
1ED
330
1BE
100
AcDbEntity
  8
0
  6
Continuous
 62
     0
370
     0
100
AcDbCircle
 10
554.458772
 20
191.849372
 30
0.0
 40
26.77381177799587
100
AcDbArc
 50
352.419171
 51
85.716023
  0
ARC
  5
1EE
330
1BE
100
AcDbEntity
  8
0
  6
Continuous
 62
     0
370
    30
100
AcDbCircle
 10
554.458772
 20
191.849372
 30
0.0
 40
26.99999999999653
100
AcDbArc
 50
311.102445
 51
352.419171
  0
ARC
  5
1EF
330
1BE
100
AcDbEntity
  8
0
  6
Continuous
 62
     0
370
    30
100
AcDbCircle
 10
554.458772
 20
191.849372
 30
0.0
 40
26.99999999999784
100
AcDbArc
 50
172.419171
 51
228.897555
  0
ARC
  5
1F0
330
1BE
100
AcDbEntity
  8
0
  6
Continuous
 62
     0
370
    30
100
AcDbCircle
 10
554.458772
 20
191.849372
 30
0.0
 40
26.99999999999812
100
AcDbArc
 50
94.248023
 51
172.419171
  0
ARC
  5
1F1
330
1BE
100
AcDbEntity
  8
0
  6
Continuous
 62
     0
370
    30
100
AcDbCircle
 10
554.458772
 20
191.849372
 30
0.0
 40
26.99999999999881
100
AcDbArc
 50
352.419171
 51
85.751978
  0
ARC
  5
1F2
330
1BE
100
AcDbEntity
  8
0
  6
Continuous
 62
     0
370
     0
100
AcDbCircle
 10
554.458772
 20
191.849372
 30
0.0
 40
26.97380416550225
100
AcDbArc
 50
352.419171
 51
85.747844
  0
ARC
  5
1F3
330
1BE
100
AcDbEntity
  8
0
  6
Continuous
 62
     0
370
     0
100
AcDbCircle
 10
554.458772
 20
191.849372
 30
0.0
 40
26.97380416550321
100
AcDbArc
 50
94.252156
 51
172.419171
  0
ARC
  5
1F4
330
1BE
100
AcDbEntity
  8
0
  6
Continuous
 62
     0
370
     0
100
AcDbCircle
 10
554.458772
 20
191.849372
 30
0.0
 40
26.97380416550212
100
AcDbArc
 50
172.419171
 51
228.848992
  0
ARC
  5
1F5
330
1BE
100
AcDbEntity
  8
0
  6
Continuous
 62
     0
370
     0
100
AcDbCircle
 10
554.458772
 20
191.849372
 30
0.0
 40
26.97380416550206
100
AcDbArc
 50
311.151008
 51
352.419171
  0
ENDBLK
  5
1F7
330
1BE
100
AcDbEntity
  8
0
100
AcDbBlockEnd
  0
ENDSEC
  0
SECTION
  2
ENTITIES
  0
INSERT
  5
CA
330
1F
100
AcDbEntity
  8
0
  6
Continuous
 62
     7
420
 16250871
370
     0
100
AcDbBlockReference
  2
a
 10
522.916504
 20
352.753296
 30
0.0
  0
INSERT
  5
143
330
1F
100
AcDbEntity
  8
0
  6
Continuous
 62
     7
420
 16250871
370
     0
100
AcDbBlockReference
  2
b
 10
465.443298
 20
0.0
 30
0.0
  0
INSERT
  5
1BD
330
1F
100
AcDbEntity
  8
0
  6
Continuous
 62
     7
420
 16250871
370
     0
100
AcDbBlockReference
  2
c
 10
441.755066
 20
0.0
 30
0.0
  0
INSERT
  5
1F8
330
1F
100
AcDbEntity
  8
0
  6
Continuous
 62
     7
420
 16250871
370
     0
100
AcDbBlockReference
  2
d
 10
0.0
 20
278.787292
 30
0.0
  0
ENDSEC
  0
SECTION
  2
OBJECTS
  0
DICTIONARY
  5
C
330
0
100
AcDbDictionary
281
     1
  3
ACAD_DETAILVIEWSTYLE
350
230
  3
ACAD_GROUP
350
D
  3
ACAD_LAYOUT
350
1A
  3
ACAD_MATERIAL
350
43
  3
ACAD_MLEADERSTYLE
350
6B
  3
ACAD_MLINESTYLE
350
17
  3
ACAD_PLOTSETTINGS
350
19
  3
ACAD_PLOTSTYLENAME
350
E
  3
ACAD_SCALELIST
350
47
  3
ACAD_SECTIONVIEWSTYLE
350
231
  3
ACAD_TABLESTYLE
350
69
  3
ACAD_VISUALSTYLE
350
2A
  3
ACDB_RECOMPOSE_DATA
350
22D
  3
AcDbVariableDictionary
350
1F9
  0
SUN
  5
6D
330
29
100
AcDbSun
 90
        1
290
     0
 63
     7
421
 16777215
 40
1.0
291
     1
 91
  2455826
 92
 54000000
292
     0
 70
     2
 71
   256
280
     1
  0
DICTIONARY
  5
230
102
{ACAD_REACTORS
330
C
102
}
330
C
100
AcDbDictionary
281
     1
  0
DICTIONARY
  5
D
102
{ACAD_REACTORS
330
C
102
}
330
C
100
AcDbDictionary
281
     1
  0
DICTIONARY
  5
1A
102
{ACAD_REACTORS
330
C
102
}
330
C
100
AcDbDictionary
281
     1
  3
Layout1
350
1E
  3
Layout2
350
26
  3
Model
350
22
  0
DICTIONARY
  5
43
102
{ACAD_REACTORS
330
C
102
}
330
C
100
AcDbDictionary
281
     1
  3
ByBlock
350
45
  3
ByLayer
350
44
  3
Global
350
46
  0
DICTIONARY
  5
6B
102
{ACAD_REACTORS
330
C
102
}
330
C
100
AcDbDictionary
281
     1
  3
Standard
350
6C
  0
DICTIONARY
  5
17
102
{ACAD_REACTORS
330
C
102
}
330
C
100
AcDbDictionary
281
     1
  3
Standard
350
18
  0
DICTIONARY
  5
19
102
{ACAD_REACTORS
330
C
102
}
330
C
100
AcDbDictionary
281
     1
  0
ACDBDICTIONARYWDFLT
  5
E
102
{ACAD_REACTORS
330
C
102
}
330
C
100
AcDbDictionary
281
     1
  3
Normal
350
F
100
AcDbDictionaryWithDefault
340
F
  0
DICTIONARY
  5
47
102
{ACAD_REACTORS
330
C
102
}
330
C
100
AcDbDictionary
281
     1
  3
A0
350
48
  3
A1
350
49
  3
A2
350
4A
  3
A3
350
4B
  3
A4
350
4C
  3
A5
350
4D
  3
A6
350
4E
  3
A7
350
4F
  3
A8
350
50
  3
A9
350
51
  3
B0
350
52
  3
B1
350
53
  3
B2
350
54
  3
B3
350
55
  3
B4
350
56
  3
B5
350
57
  3
B6
350
58
  3
B7
350
59
  3
B8
350
5A
  3
B9
350
5B
  3
C0
350
5C
  3
C1
350
5D
  3
C2
350
5E
  3
C3
350
5F
  3
C4
350
60
  3
C5
350
61
  3
C6
350
62
  3
C7
350
63
  3
C8
350
64
  3
C9
350
65
  3
D0
350
66
  3
D1
350
67
  3
D2
350
68
  0
DICTIONARY
  5
231
102
{ACAD_REACTORS
330
C
102
}
330
C
100
AcDbDictionary
281
     1
  0
DICTIONARY
  5
69
102
{ACAD_REACTORS
330
C
102
}
330
C
100
AcDbDictionary
281
     1
  3
Standard
350
6A
  0
DICTIONARY
  5
2A
102
{ACAD_REACTORS
330
C
102
}
330
C
100
AcDbDictionary
281
     1
  3
2dWireframe
350
2F
  3
Basic
350
32
  3
Brighten
350
36
  3
ColorChange
350
3A
  3
Conceptual
350
34
  3
Dim
350
35
  3
EdgeColorOff
350
3D
  3
Facepattern
350
39
  3
Flat
350
2B
  3
FlatWithEdges
350
2C
  3
Gouraud
350
2D
  3
GouraudWithEdges
350
2E
  3
Hidden
350
31
  3
JitterOff
350
3B
  3
Linepattern
350
38
  3
OverhangOff
350
3C
  3
Realistic
350
33
  3
Shaded
350
42
  3
Shaded with edges
350
41
  3
Shades of Gray
350
3E
  3
Sketchy
350
3F
  3
Thicken
350
37
  3
Wireframe
350
30
  3
X-Ray
350
40
  0
XRECORD
  5
22D
102
{ACAD_REACTORS
330
C
102
}
330
C
100
AcDbXrecord
280
     1
 90
        1
330
6A
  0
DICTIONARY
  5
1F9
102
{ACAD_REACTORS
330
C
102
}
330
C
100
AcDbDictionary
281
     1
  3
CANNOSCALE
350
1FA
  3
CMLEADERSTYLE
350
22F
  3
CTABLESTYLE
350
22E
  0
LAYOUT
  5
1E
102
{ACAD_REACTORS
330
1A
102
}
330
1A
100
AcDbPlotSettings
  1

  2
none_device
  4

  6

 40
0.0
 41
0.0
 42
0.0
 43
0.0
 44
0.0
 45
0.0
 46
0.0
 47
0.0
 48
0.0
 49
0.0
140
0.0
141
0.0
142
1.0
143
1.0
 70
   688
 72
     1
 73
     0
 74
     5
  7

 75
    16
 76
     0
 77
     2
 78
   300
147
1.0
148
0.0
149
0.0
100
AcDbLayout
  1
Layout1
 70
     1
 71
     1
 10
0.0
 20
0.0
 11
420.0
 21
297.0
 12
0.0
 22
0.0
 32
0.0
 14
1.000000E+20
 24
1.000000E+20
 34
1.000000E+20
 15
-1.000000E+20
 25
-1.000000E+20
 35
-1.000000E+20
146
0.0
 13
0.0
 23
0.0
 33
0.0
 16
1.0
 26
0.0
 36
0.0
 17
0.0
 27
1.0
 37
0.0
 76
     0
330
1B
  0
LAYOUT
  5
26
102
{ACAD_REACTORS
330
1A
102
}
330
1A
100
AcDbPlotSettings
  1

  2
none_device
  4

  6

 40
0.0
 41
0.0
 42
0.0
 43
0.0
 44
0.0
 45
0.0
 46
0.0
 47
0.0
 48
0.0
 49
0.0
140
0.0
141
0.0
142
1.0
143
1.0
 70
   688
 72
     1
 73
     0
 74
     5
  7

 75
    16
 76
     0
 77
     2
 78
   300
147
1.0
148
0.0
149
0.0
100
AcDbLayout
  1
Layout2
 70
     1
 71
     2
 10
0.0
 20
0.0
 11
0.0
 21
0.0
 12
0.0
 22
0.0
 32
0.0
 14
0.0
 24
0.0
 34
0.0
 15
0.0
 25
0.0
 35
0.0
146
0.0
 13
0.0
 23
0.0
 33
0.0
 16
1.0
 26
0.0
 36
0.0
 17
0.0
 27
1.0
 37
0.0
 76
     0
330
23
  0
LAYOUT
  5
22
102
{ACAD_REACTORS
330
1A
102
}
330
1A
100
AcDbPlotSettings
  1

  2
none_device
  4
Letter_(8.50_x_11.00_Inches)
  6

 40
6.35
 41
6.35
 42
6.350005
 43
6.350005
 44
215.9
 45
279.4
 46
0.0
 47
0.0
 48
0.0
 49
0.0
140
0.0
141
0.0
142
1.0
143
1.0
 70
  1712
 72
     1
 73
     0
 74
     0
  7

 75
     0
 76
     0
 77
     2
 78
   300
147
1.0
148
0.0
149
0.0
100
AcDbLayout
  1
Model
 70
     1
 71
     0
 10
0.0
 20
0.0
 11
420.0
 21
297.0
 12
0.0
 22
0.0
 32
0.0
 14
1.000000E+20
 24
1.000000E+20
 34
1.000000E+20
 15
-1.000000E+20
 25
-1.000000E+20
 35
-1.000000E+20
146
0.0
 13
0.0
 23
0.0
 33
0.0
 16
1.0
 26
0.0
 36
0.0
 17
0.0
 27
1.0
 37
0.0
 76
     0
330
1F
331
29
  0
MATERIAL
  5
45
102
{ACAD_REACTORS
330
43
102
}
330
43
100
AcDbMaterial
  1
ByBlock
 72
     1
 94
      127
  0
MATERIAL
  5
44
102
{ACAD_REACTORS
330
43
102
}
330
43
100
AcDbMaterial
  1
ByLayer
 72
     1
 94
      127
  0
MATERIAL
  5
46
102
{ACAD_REACTORS
330
43
102
}
330
43
100
AcDbMaterial
  1
Global
 72
     1
 94
      127
  0
MLEADERSTYLE
  5
6C
102
{ACAD_REACTORS
330
6B
102
}
330
6B
100
AcDbMLeaderStyle
179
     2
170
     2
171
     1
172
     0
 90
        2
 40
0.0
 41
0.0
173
     1
 91
-1056964608
340
14
 92
       -2
290
     1
 42
2.0
291
     1
 43
8.0
  3
Standard
341
0
 44
4.0
300

342
11
174
     1
178
     6
175
     1
176
     0
 93
-1056964608
 45
4.0
292
     0
297
     0
 46
4.0
343
0
 94
-1056964608
 47
1.0
 49
1.0
140
1.0
293
     1
141
0.0
294
     1
177
     0
142
1.0
295
     0
296
     0
143
3.75
271
     0
272
     9
273
     9
  0
MLINESTYLE
  5
18
102
{ACAD_REACTORS
330
17
102
}
330
17
100
AcDbMlineStyle
  2
Standard
 70
     0
  3

 62
   256
 51
90.0
 52
90.0
 71
     2
 49
0.5
 62
   256
  6
BYLAYER
 49
-0.5
 62
   256
  6
BYLAYER
  0
ACDBPLACEHOLDER
  5
F
102
{ACAD_REACTORS
330
E
102
}
330
E
  0
SCALE
  5
48
102
{ACAD_REACTORS
330
47
102
}
330
47
100
AcDbScale
 70
     0
300
1:1
140
1.0
141
1.0
290
     1
  0
SCALE
  5
49
102
{ACAD_REACTORS
330
47
102
}
330
47
100
AcDbScale
 70
     0
300
1:2
140
1.0
141
2.0
290
     0
  0
SCALE
  5
4A
102
{ACAD_REACTORS
330
47
102
}
330
47
100
AcDbScale
 70
     0
300
1:4
140
1.0
141
4.0
290
     0
  0
SCALE
  5
4B
102
{ACAD_REACTORS
330
47
102
}
330
47
100
AcDbScale
 70
     0
300
1:5
140
1.0
141
5.0
290
     0
  0
SCALE
  5
4C
102
{ACAD_REACTORS
330
47
102
}
330
47
100
AcDbScale
 70
     0
300
1:8
140
1.0
141
8.0
290
     0
  0
SCALE
  5
4D
102
{ACAD_REACTORS
330
47
102
}
330
47
100
AcDbScale
 70
     0
300
1:10
140
1.0
141
10.0
290
     0
  0
SCALE
  5
4E
102
{ACAD_REACTORS
330
47
102
}
330
47
100
AcDbScale
 70
     0
300
1:16
140
1.0
141
16.0
290
     0
  0
SCALE
  5
4F
102
{ACAD_REACTORS
330
47
102
}
330
47
100
AcDbScale
 70
     0
300
1:20
140
1.0
141
20.0
290
     0
  0
SCALE
  5
50
102
{ACAD_REACTORS
330
47
102
}
330
47
100
AcDbScale
 70
     0
300
1:30
140
1.0
141
30.0
290
     0
  0
SCALE
  5
51
102
{ACAD_REACTORS
330
47
102
}
330
47
100
AcDbScale
 70
     0
300
1:40
140
1.0
141
40.0
290
     0
  0
SCALE
  5
52
102
{ACAD_REACTORS
330
47
102
}
330
47
100
AcDbScale
 70
     0
300
1:50
140
1.0
141
50.0
290
     0
  0
SCALE
  5
53
102
{ACAD_REACTORS
330
47
102
}
330
47
100
AcDbScale
 70
     0
300
1:100
140
1.0
141
100.0
290
     0
  0
SCALE
  5
54
102
{ACAD_REACTORS
330
47
102
}
330
47
100
AcDbScale
 70
     0
300
2:1
140
2.0
141
1.0
290
     0
  0
SCALE
  5
55
102
{ACAD_REACTORS
330
47
102
}
330
47
100
AcDbScale
 70
     0
300
4:1
140
4.0
141
1.0
290
     0
  0
SCALE
  5
56
102
{ACAD_REACTORS
330
47
102
}
330
47
100
AcDbScale
 70
     0
300
8:1
140
8.0
141
1.0
290
     0
  0
SCALE
  5
57
102
{ACAD_REACTORS
330
47
102
}
330
47
100
AcDbScale
 70
     0
300
10:1
140
10.0
141
1.0
290
     0
  0
SCALE
  5
58
102
{ACAD_REACTORS
330
47
102
}
330
47
100
AcDbScale
 70
     0
300
100:1
140
100.0
141
1.0
290
     0
  0
SCALE
  5
59
102
{ACAD_REACTORS
330
47
102
}
330
47
100
AcDbScale
 70
     0
300
1/128" = 1'-0"
140
0.007812
141
12.0
290
     0
  0
SCALE
  5
5A
102
{ACAD_REACTORS
330
47
102
}
330
47
100
AcDbScale
 70
     0
300
1/64" = 1'-0"
140
0.015625
141
12.0
290
     0
  0
SCALE
  5
5B
102
{ACAD_REACTORS
330
47
102
}
330
47
100
AcDbScale
 70
     0
300
1/32" = 1'-0"
140
0.03125
141
12.0
290
     0
  0
SCALE
  5
5C
102
{ACAD_REACTORS
330
47
102
}
330
47
100
AcDbScale
 70
     0
300
1/16" = 1'-0"
140
0.0625
141
12.0
290
     0
  0
SCALE
  5
5D
102
{ACAD_REACTORS
330
47
102
}
330
47
100
AcDbScale
 70
     0
300
3/32" = 1'-0"
140
0.09375
141
12.0
290
     0
  0
SCALE
  5
5E
102
{ACAD_REACTORS
330
47
102
}
330
47
100
AcDbScale
 70
     0
300
1/8" = 1'-0"
140
0.125
141
12.0
290
     0
  0
SCALE
  5
5F
102
{ACAD_REACTORS
330
47
102
}
330
47
100
AcDbScale
 70
     0
300
3/16" = 1'-0"
140
0.1875
141
12.0
290
     0
  0
SCALE
  5
60
102
{ACAD_REACTORS
330
47
102
}
330
47
100
AcDbScale
 70
     0
300
1/4" = 1'-0"
140
0.25
141
12.0
290
     0
  0
SCALE
  5
61
102
{ACAD_REACTORS
330
47
102
}
330
47
100
AcDbScale
 70
     0
300
3/8" = 1'-0"
140
0.375
141
12.0
290
     0
  0
SCALE
  5
62
102
{ACAD_REACTORS
330
47
102
}
330
47
100
AcDbScale
 70
     0
300
1/2" = 1'-0"
140
0.5
141
12.0
290
     0
  0
SCALE
  5
63
102
{ACAD_REACTORS
330
47
102
}
330
47
100
AcDbScale
 70
     0
300
3/4" = 1'-0"
140
0.75
141
12.0
290
     0
  0
SCALE
  5
64
102
{ACAD_REACTORS
330
47
102
}
330
47
100
AcDbScale
 70
     0
300
1" = 1'-0"
140
1.0
141
12.0
290
     0
  0
SCALE
  5
65
102
{ACAD_REACTORS
330
47
102
}
330
47
100
AcDbScale
 70
     0
300
1-1/2" = 1'-0"
140
1.5
141
12.0
290
     0
  0
SCALE
  5
66
102
{ACAD_REACTORS
330
47
102
}
330
47
100
AcDbScale
 70
     0
300
3" = 1'-0"
140
3.0
141
12.0
290
     0
  0
SCALE
  5
67
102
{ACAD_REACTORS
330
47
102
}
330
47
100
AcDbScale
 70
     0
300
6" = 1'-0"
140
6.0
141
12.0
290
     0
  0
SCALE
  5
68
102
{ACAD_REACTORS
330
47
102
}
330
47
100
AcDbScale
 70
     0
300
1'-0" = 1'-0"
140
12.0
141
12.0
290
     0
  0
TABLESTYLE
  5
6A
102
{ACAD_REACTORS
330
69
102
}
102
{ACAD_XDICTIONARY
360
22B
102
}
330
69
100
AcDbTableStyle
  3
Standard
 70
     0
 71
     0
 40
0.06
 41
0.06
280
     0
281
     0
  7
Standard
140
4.5
170
     2
 62
     0
 63
   257
283
     0
 90
        4
 91
        0
  1

274
    -2
284
     1
 64
     0
275
    -2
285
     1
 65
     0
276
    -2
286
     1
 66
     0
277
    -2
287
     1
 67
     0
278
    -2
288
     1
 68
     0
279
    -2
289
     1
 69
     0
  7
Standard
140
6.0
170
     5
 62
     0
 63
   257
283
     0
 90
        4
 91
        0
  1

274
    -2
284
     1
 64
     0
275
    -2
285
     1
 65
     0
276
    -2
286
     1
 66
     0
277
    -2
287
     1
 67
     0
278
    -2
288
     1
 68
     0
279
    -2
289
     1
 69
     0
  7
Standard
140
4.5
170
     5
 62
     0
 63
   257
283
     0
 90
        4
 91
        0
  1

274
    -2
284
     1
 64
     0
275
    -2
285
     1
 65
     0
276
    -2
286
     1
 66
     0
277
    -2
287
     1
 67
     0
278
    -2
288
     1
 68
     0
279
    -2
289
     1
 69
     0
  0
VISUALSTYLE
  5
2F
102
{ACAD_REACTORS
330
2A
102
}
102
{ACAD_XDICTIONARY
360
203
102
}
330
2A
100
AcDbVisualStyle
  2
2dWireframe
 70
     4
177
     2
291
     0
 71
     0
176
     1
 72
     2
176
     1
 73
     0
176
     1
 90
        0
176
     1
 40
0.6
176
     1
 41
30.0
176
     1
 62
     5
 63
     7
421
 16777215
176
     1
 74
     1
176
     1
 91
        4
176
     1
 64
     7
176
     1
 65
   257
176
     1
 75
     1
176
     1
175
     1
176
     1
 42
1.0
176
     1
 92
        0
176
     1
 66
   257
176
     1
 43
1.0
176
     1
 76
     1
176
     1
 77
     6
176
     1
 78
     2
176
     1
 67
     7
176
     1
 79
     5
176
     1
170
     0
176
     1
171
     0
176
     1
290
     0
176
     1
 93
        1
176
     1
 44
0.0
176
     1
173
     0
176
     1
  0
VISUALSTYLE
  5
32
102
{ACAD_REACTORS
330
2A
102
}
102
{ACAD_XDICTIONARY
360
209
102
}
330
2A
100
AcDbVisualStyle
  2
Basic
 70
     7
177
     2
291
     1
 71
     1
176
     1
 72
     0
176
     1
 73
     1
176
     1
 90
        0
176
     1
 40
0.6
176
     1
 41
30.0
176
     1
 62
     5
 63
     7
421
 16777215
176
     1
 74
     0
176
     1
 91
        4
176
     1
 64
     7
176
     1
 65
   257
176
     1
 75
     1
176
     1
175
     1
176
     1
 42
1.0
176
     1
 92
        8
176
     1
 66
     7
176
     1
 43
1.0
176
     1
 76
     1
176
     1
 77
     6
176
     1
 78
     2
176
     1
 67
     7
176
     1
 79
     5
176
     1
170
     0
176
     1
171
     0
176
     1
290
     0
176
     1
 93
        1
176
     1
 44
0.0
176
     1
173
     0
176
     1
  0
VISUALSTYLE
  5
36
102
{ACAD_REACTORS
330
2A
102
}
102
{ACAD_XDICTIONARY
360
211
102
}
330
2A
100
AcDbVisualStyle
  2
Brighten
 70
    12
177
     2
291
     1
 71
     2
176
     1
 72
     2
176
     1
 73
     0
176
     1
 90
        0
176
     1
 40
0.6
176
     1
 41
30.0
176
     1
 62
     5
 63
     7
421
 16777215
176
     1
 74
     1
176
     1
 91
        4
176
     1
 64
     7
176
     1
 65
   257
176
     1
 75
     1
176
     1
175
     1
176
     1
 42
1.0
176
     1
 92
        8
176
     1
 66
     7
176
     1
 43
1.0
176
     1
 76
     1
176
     1
 77
     6
176
     1
 78
     2
176
     1
 67
     7
176
     1
 79
     5
176
     1
170
     0
176
     1
171
     0
176
     1
290
     0
176
     1
 93
        1
176
     1
 44
50.0
176
     1
173
     0
176
     1
  0
VISUALSTYLE
  5
3A
102
{ACAD_REACTORS
330
2A
102
}
102
{ACAD_XDICTIONARY
360
219
102
}
330
2A
100
AcDbVisualStyle
  2
ColorChange
 70
    16
177
     2
291
     1
 71
     2
176
     1
 72
     2
176
     1
 73
     3
176
     1
 90
        0
176
     1
 40
0.6
176
     1
 41
30.0
176
     1
 62
     5
 63
     8
421
  8421504
176
     1
 74
     1
176
     1
 91
        4
176
     1
 64
     7
176
     1
 65
   257
176
     1
 75
     1
176
     1
175
     1
176
     1
 42
1.0
176
     1
 92
        8
176
     1
 66
     8
424
  8421504
176
     1
 43
1.0
176
     1
 76
     1
176
     1
 77
     6
176
     1
 78
     2
176
     1
 67
     7
176
     1
 79
     5
176
     1
170
     0
176
     1
171
     0
176
     1
290
     0
176
     1
 93
        1
176
     1
 44
0.0
176
     1
173
     0
176
     1
  0
VISUALSTYLE
  5
34
102
{ACAD_REACTORS
330
2A
102
}
102
{ACAD_XDICTIONARY
360
20D
102
}
330
2A
100
AcDbVisualStyle
  2
Conceptual
 70
     9
177
     2
291
     0
 71
     3
176
     1
 72
     2
176
     1
 73
     0
176
     1
 90
        0
176
     1
 40
0.6
176
     1
 41
30.0
176
     1
 62
     5
 63
     7
421
 16777215
176
     1
 74
     2
176
     1
 91
        2
176
     1
 64
     7
176
     1
 65
   257
176
     1
 75
     1
176
     1
175
     1
176
     1
 42
179.0
176
     1
 92
        8
176
     1
 66
     7
176
     1
 43
1.0
176
     1
 76
     1
176
     1
 77
     6
176
     1
 78
     2
176
     1
 67
     7
176
     1
 79
     3
176
     1
170
     0
176
     1
171
     0
176
     1
290
     0
176
     1
 93
        1
176
     1
 44
0.0
176
     1
173
     0
176
     1
  0
VISUALSTYLE
  5
35
102
{ACAD_REACTORS
330
2A
102
}
102
{ACAD_XDICTIONARY
360
20F
102
}
330
2A
100
AcDbVisualStyle
  2
Dim
 70
    11
177
     2
291
     1
 71
     2
176
     1
 72
     2
176
     1
 73
     0
176
     1
 90
        0
176
     1
 40
0.6
176
     1
 41
30.0
176
     1
 62
     5
 63
     7
421
 16777215
176
     1
 74
     1
176
     1
 91
        4
176
     1
 64
     7
176
     1
 65
   257
176
     1
 75
     1
176
     1
175
     1
176
     1
 42
1.0
176
     1
 92
        8
176
     1
 66
     7
176
     1
 43
1.0
176
     1
 76
     1
176
     1
 77
     6
176
     1
 78
     2
176
     1
 67
     7
176
     1
 79
     5
176
     1
170
     0
176
     1
171
     0
176
     1
290
     0
176
     1
 93
        1
176
     1
 44
-50.0
176
     1
173
     0
176
     1
  0
VISUALSTYLE
  5
3D
102
{ACAD_REACTORS
330
2A
102
}
102
{ACAD_XDICTIONARY
360
21F
102
}
330
2A
100
AcDbVisualStyle
  2
EdgeColorOff
 70
    22
177
     2
291
     1
 71
     2
176
     0
 72
     2
176
     0
 73
     0
176
     0
 90
        0
176
     0
 40
0.6
176
     0
 41
30.0
176
     0
 62
     5
 63
     7
421
 16777215
176
     0
 74
     1
176
     0
 91
        4
176
     0
 64
     7
176
     0
 65
   257
176
     0
 75
     1
176
     0
175
     1
176
     0
 42
1.0
176
     0
 92
        8
176
     2
 66
     7
176
     0
 43
1.0
176
     0
 76
     1
176
     0
 77
     6
176
     0
 78
     2
176
     0
 67
     7
176
     0
 79
     5
176
     0
170
     0
176
     0
171
     0
176
     0
290
     0
176
     0
 93
        1
176
     0
 44
0.0
176
     0
173
     0
176
     0
  0
VISUALSTYLE
  5
39
102
{ACAD_REACTORS
330
2A
102
}
102
{ACAD_XDICTIONARY
360
217
102
}
330
2A
100
AcDbVisualStyle
  2
Facepattern
 70
    15
177
     2
291
     1
 71
     2
176
     1
 72
     2
176
     1
 73
     0
176
     1
 90
        0
176
     1
 40
0.6
176
     1
 41
30.0
176
     1
 62
     5
 63
     7
421
 16777215
176
     1
 74
     1
176
     1
 91
        4
176
     1
 64
     7
176
     1
 65
   257
176
     1
 75
     1
176
     1
175
     1
176
     1
 42
1.0
176
     1
 92
        8
176
     1
 66
     7
176
     1
 43
1.0
176
     1
 76
     1
176
     1
 77
     6
176
     1
 78
     2
176
     1
 67
     7
176
     1
 79
     5
176
     1
170
     0
176
     1
171
     0
176
     1
290
     0
176
     1
 93
        1
176
     1
 44
0.0
176
     1
173
     0
176
     1
  0
VISUALSTYLE
  5
2B
102
{ACAD_REACTORS
330
2A
102
}
102
{ACAD_XDICTIONARY
360
1FB
102
}
330
2A
100
AcDbVisualStyle
  2
Flat
 70
     0
177
     2
291
     1
 71
     2
176
     1
 72
     1
176
     1
 73
     1
176
     1
 90
        2
176
     1
 40
0.6
176
     1
 41
30.0
176
     1
 62
     5
 63
     7
421
 16777215
176
     1
 74
     0
176
     1
 91
        0
176
     1
 64
     7
176
     1
 65
   257
176
     1
 75
     1
176
     1
175
     1
176
     1
 42
1.0
176
     1
 92
        8
176
     1
 66
     7
176
     1
 43
1.0
176
     1
 76
     1
176
     1
 77
     6
176
     1
 78
     2
176
     1
 67
     7
176
     1
 79
     5
176
     1
170
     0
176
     1
171
     0
176
     1
290
     0
176
     1
 93
       13
176
     1
 44
0.0
176
     1
173
     0
176
     1
  0
VISUALSTYLE
  5
2C
102
{ACAD_REACTORS
330
2A
102
}
102
{ACAD_XDICTIONARY
360
1FD
102
}
330
2A
100
AcDbVisualStyle
  2
FlatWithEdges
 70
     1
177
     2
291
     1
 71
     2
176
     1
 72
     1
176
     1
 73
     1
176
     1
 90
        2
176
     1
 40
0.6
176
     1
 41
30.0
176
     1
 62
     5
 63
     7
421
 16777215
176
     1
 74
     1
176
     1
 91
        0
176
     1
 64
     7
176
     1
 65
   257
176
     1
 75
     1
176
     1
175
     1
176
     1
 42
1.0
176
     1
 92
        0
176
     1
 66
   257
176
     1
 43
1.0
176
     1
 76
     1
176
     1
 77
     6
176
     1
 78
     2
176
     1
 67
     7
176
     1
 79
     5
176
     1
170
     0
176
     1
171
     0
176
     1
290
     0
176
     1
 93
       13
176
     1
 44
0.0
176
     1
173
     0
176
     1
  0
VISUALSTYLE
  5
2D
102
{ACAD_REACTORS
330
2A
102
}
102
{ACAD_XDICTIONARY
360
1FF
102
}
330
2A
100
AcDbVisualStyle
  2
Gouraud
 70
     2
177
     2
291
     1
 71
     2
176
     1
 72
     2
176
     1
 73
     1
176
     1
 90
        2
176
     1
 40
0.6
176
     1
 41
30.0
176
     1
 62
     5
 63
     7
421
 16777215
176
     1
 74
     0
176
     1
 91
        0
176
     1
 64
     7
176
     1
 65
   257
176
     1
 75
     1
176
     1
175
     1
176
     1
 42
1.0
176
     1
 92
        0
176
     1
 66
     7
176
     1
 43
1.0
176
     1
 76
     1
176
     1
 77
     6
176
     1
 78
     2
176
     1
 67
     7
176
     1
 79
     5
176
     1
170
     0
176
     1
171
     0
176
     1
290
     0
176
     1
 93
       13
176
     1
 44
0.0
176
     1
173
     0
176
     1
  0
VISUALSTYLE
  5
2E
102
{ACAD_REACTORS
330
2A
102
}
102
{ACAD_XDICTIONARY
360
201
102
}
330
2A
100
AcDbVisualStyle
  2
GouraudWithEdges
 70
     3
177
     2
291
     1
 71
     2
176
     1
 72
     2
176
     1
 73
     1
176
     1
 90
        2
176
     1
 40
0.6
176
     1
 41
30.0
176
     1
 62
     5
 63
     7
421
 16777215
176
     1
 74
     1
176
     1
 91
        0
176
     1
 64
     7
176
     1
 65
   257
176
     1
 75
     1
176
     1
175
     1
176
     1
 42
1.0
176
     1
 92
        0
176
     1
 66
   257
176
     1
 43
1.0
176
     1
 76
     1
176
     1
 77
     6
176
     1
 78
     2
176
     1
 67
     7
176
     1
 79
     5
176
     1
170
     0
176
     1
171
     0
176
     1
290
     0
176
     1
 93
       13
176
     1
 44
0.0
176
     1
173
     0
176
     1
  0
VISUALSTYLE
  5
31
102
{ACAD_REACTORS
330
2A
102
}
102
{ACAD_XDICTIONARY
360
207
102
}
330
2A
100
AcDbVisualStyle
  2
Hidden
 70
     6
177
     2
291
     0
 71
     1
176
     1
 72
     2
176
     1
 73
     2
176
     1
 90
        0
176
     1
 40
0.6
176
     1
 41
30.0
176
     1
 62
     5
 63
     7
421
 16777215
176
     1
 74
     2
176
     1
 91
        2
176
     1
 64
     7
176
     1
 65
   257
176
     1
 75
     2
176
     1
175
     1
176
     1
 42
40.0
176
     1
 92
        0
176
     1
 66
   257
176
     1
 43
1.0
176
     1
 76
     1
176
     1
 77
     6
176
     1
 78
     2
176
     1
 67
     7
176
     1
 79
     3
176
     1
170
     0
176
     1
171
     0
176
     1
290
     0
176
     1
 93
        1
176
     1
 44
0.0
176
     1
173
     0
176
     1
  0
VISUALSTYLE
  5
3B
102
{ACAD_REACTORS
330
2A
102
}
102
{ACAD_XDICTIONARY
360
21B
102
}
330
2A
100
AcDbVisualStyle
  2
JitterOff
 70
    20
177
     2
291
     1
 71
     2
176
     0
 72
     2
176
     0
 73
     0
176
     0
 90
        0
176
     0
 40
0.6
176
     0
 41
30.0
176
     0
 62
     5
 63
     7
421
 16777215
176
     0
 74
     1
176
     0
 91
        4
176
     0
 64
     7
176
     0
 65
   257
176
     0
 75
     1
176
     0
175
     1
176
     0
 42
1.0
176
     0
 92
       10
176
     2
 66
     7
176
     0
 43
1.0
176
     0
 76
     1
176
     0
 77
     6
176
     0
 78
     2
176
     0
 67
     7
176
     0
 79
     5
176
     0
170
     0
176
     0
171
     0
176
     0
290
     0
176
     0
 93
        1
176
     0
 44
0.0
176
     0
173
     0
176
     0
  0
VISUALSTYLE
  5
38
102
{ACAD_REACTORS
330
2A
102
}
102
{ACAD_XDICTIONARY
360
215
102
}
330
2A
100
AcDbVisualStyle
  2
Linepattern
 70
    14
177
     2
291
     1
 71
     2
176
     1
 72
     2
176
     1
 73
     0
176
     1
 90
        0
176
     1
 40
0.6
176
     1
 41
30.0
176
     1
 62
     5
 63
     7
421
 16777215
176
     1
 74
     1
176
     1
 91
        4
176
     1
 64
     7
176
     1
 65
   257
176
     1
 75
     7
176
     1
175
     7
176
     1
 42
1.0
176
     1
 92
        8
176
     1
 66
     7
176
     1
 43
1.0
176
     1
 76
     1
176
     1
 77
     6
176
     1
 78
     2
176
     1
 67
     7
176
     1
 79
     5
176
     1
170
     0
176
     1
171
     0
176
     1
290
     0
176
     1
 93
        1
176
     1
 44
0.0
176
     1
173
     0
176
     1
  0
VISUALSTYLE
  5
3C
102
{ACAD_REACTORS
330
2A
102
}
102
{ACAD_XDICTIONARY
360
21D
102
}
330
2A
100
AcDbVisualStyle
  2
OverhangOff
 70
    21
177
     2
291
     1
 71
     2
176
     0
 72
     2
176
     0
 73
     0
176
     0
 90
        0
176
     0
 40
0.6
176
     0
 41
30.0
176
     0
 62
     5
 63
     7
421
 16777215
176
     0
 74
     1
176
     0
 91
        4
176
     0
 64
     7
176
     0
 65
   257
176
     0
 75
     1
176
     0
175
     1
176
     0
 42
1.0
176
     0
 92
        9
176
     2
 66
     7
176
     0
 43
1.0
176
     0
 76
     1
176
     0
 77
     6
176
     0
 78
     2
176
     0
 67
     7
176
     0
 79
     5
176
     0
170
     0
176
     0
171
     0
176
     0
290
     0
176
     0
 93
        1
176
     0
 44
0.0
176
     0
173
     0
176
     0
  0
VISUALSTYLE
  5
33
102
{ACAD_REACTORS
330
2A
102
}
102
{ACAD_XDICTIONARY
360
20B
102
}
330
2A
100
AcDbVisualStyle
  2
Realistic
 70
     8
177
     2
291
     0
 71
     2
176
     1
 72
     3
176
     1
 73
     0
176
     1
 90
        2
176
     1
 40
0.6
176
     1
 41
30.0
176
     1
 62
     5
 63
     7
421
 16777215
176
     1
 74
     0
176
     1
 91
        0
176
     1
 64
     7
176
     1
 65
   257
176
     1
 75
     1
176
     1
175
     1
176
     1
 42
1.0
176
     1
 92
        8
176
     1
 66
   257
176
     1
 43
1.0
176
     1
 76
     1
176
     1
 77
     6
176
     1
 78
     2
176
     1
 67
     7
176
     1
 79
     3
176
     1
170
     0
176
     1
171
     0
176
     1
290
     0
176
     1
 93
       13
176
     1
 44
0.0
176
     1
173
     0
176
     1
  0
VISUALSTYLE
  5
42
102
{ACAD_REACTORS
330
2A
102
}
102
{ACAD_XDICTIONARY
360
229
102
}
330
2A
100
AcDbVisualStyle
  2
Shaded
 70
    27
177
     2
291
     0
 71
     2
176
     1
 72
     2
176
     1
 73
     1
176
     1
 90
        2
176
     1
 40
0.6
176
     1
 41
30.0
176
     1
 62
     5
 63
     7
421
 16777215
176
     1
 74
     0
176
     1
 91
        4
176
     1
 64
     7
176
     1
 65
   257
176
     1
 75
     1
176
     1
175
     1
176
     1
 42
1.0
176
     1
 92
        8
176
     1
 66
   257
176
     1
 43
1.0
176
     1
 76
     1
176
     1
 77
     6
176
     1
 78
     2
176
     1
 67
     8
425
  7895160
176
     1
 79
     3
176
     1
170
     0
176
     1
171
     0
176
     1
290
     0
176
     1
 93
        5
176
     1
 44
0.0
176
     1
173
     0
176
     1
  0
VISUALSTYLE
  5
41
102
{ACAD_REACTORS
330
2A
102
}
102
{ACAD_XDICTIONARY
360
227
102
}
330
2A
100
AcDbVisualStyle
  2
Shaded with edges
 70
    26
177
     2
291
     0
 71
     2
176
     1
 72
     2
176
     1
 73
     1
176
     1
 90
        2
176
     1
 40
0.6
176
     1
 41
30.0
176
     1
 62
     5
 63
     7
421
 16777215
176
     1
 74
     1
176
     1
 91
       10
176
     1
 64
     7
176
     1
 65
   257
176
     1
 75
     2
176
     1
175
     1
176
     1
 42
1.0
176
     1
 92
        8
176
     1
 66
   257
176
     1
 43
1.0
176
     1
 76
     1
176
     1
 77
     6
176
     1
 78
     2
176
     1
 67
     7
176
     1
 79
     3
176
     1
170
     0
176
     1
171
     0
176
     1
290
     0
176
     1
 93
        5
176
     1
 44
0.0
176
     1
173
     0
176
     1
  0
VISUALSTYLE
  5
3E
102
{ACAD_REACTORS
330
2A
102
}
102
{ACAD_XDICTIONARY
360
221
102
}
330
2A
100
AcDbVisualStyle
  2
Shades of Gray
 70
    23
177
     2
291
     0
 71
     2
176
     1
 72
     2
176
     1
 73
     3
176
     1
 90
        0
176
     1
 40
0.6
176
     1
 41
30.0
176
     1
 62
     5
 63
     7
421
 16777215
176
     1
 74
     2
176
     1
 91
        2
176
     1
 64
     7
176
     1
 65
     7
176
     1
 75
     1
176
     1
175
     1
176
     1
 42
40.0
176
     1
 92
        8
176
     1
 66
     7
176
     1
 43
1.0
176
     1
 76
     1
176
     1
 77
     6
176
     1
 78
     2
176
     1
 67
     7
176
     1
 79
     3
176
     1
170
     0
176
     1
171
     0
176
     1
290
     0
176
     1
 93
        1
176
     1
 44
0.0
176
     1
173
     0
176
     1
  0
VISUALSTYLE
  5
3F
102
{ACAD_REACTORS
330
2A
102
}
102
{ACAD_XDICTIONARY
360
223
102
}
330
2A
100
AcDbVisualStyle
  2
Sketchy
 70
    24
177
     2
291
     0
 71
     1
176
     1
 72
     2
176
     1
 73
     2
176
     1
 90
        0
176
     1
 40
0.6
176
     1
 41
30.0
176
     1
 62
     5
 63
     7
421
 16777215
176
     1
 74
     2
176
     1
 91
        2
176
     1
 64
     7
176
     1
 65
     7
176
     1
 75
     1
176
     1
175
     1
176
     1
 42
40.0
176
     1
 92
       11
176
     1
 66
     7
176
     1
 43
1.0
176
     1
 76
     1
176
     1
 77
     6
176
     1
 78
     2
176
     1
 67
     7
176
     1
 79
     6
176
     1
170
     0
176
     1
171
     0
176
     1
290
     0
176
     1
 93
        1
176
     1
 44
0.0
176
     1
173
     0
176
     1
  0
VISUALSTYLE
  5
37
102
{ACAD_REACTORS
330
2A
102
}
102
{ACAD_XDICTIONARY
360
213
102
}
330
2A
100
AcDbVisualStyle
  2
Thicken
 70
    13
177
     2
291
     1
 71
     2
176
     1
 72
     2
176
     1
 73
     0
176
     1
 90
        0
176
     1
 40
0.6
176
     1
 41
30.0
176
     1
 62
     5
 63
     7
421
 16777215
176
     1
 74
     1
176
     1
 91
        4
176
     1
 64
     7
176
     1
 65
   257
176
     1
 75
     1
176
     1
175
     1
176
     1
 42
1.0
176
     1
 92
       12
176
     1
 66
     7
176
     1
 43
1.0
176
     1
 76
     1
176
     1
 77
     6
176
     1
 78
     2
176
     1
 67
     7
176
     1
 79
     5
176
     1
170
     0
176
     1
171
     0
176
     1
290
     0
176
     1
 93
        1
176
     1
 44
0.0
176
     1
173
     0
176
     1
  0
VISUALSTYLE
  5
30
102
{ACAD_REACTORS
330
2A
102
}
102
{ACAD_XDICTIONARY
360
205
102
}
330
2A
100
AcDbVisualStyle
  2
Wireframe
 70
     5
177
     2
291
     0
 71
     0
176
     1
 72
     2
176
     1
 73
     0
176
     1
 90
        0
176
     1
 40
0.6
176
     1
 41
30.0
176
     1
 62
     5
 63
     7
421
 16777215
176
     1
 74
     1
176
     1
 91
        4
176
     1
 64
     7
176
     1
 65
   257
176
     1
 75
     1
176
     1
175
     1
176
     1
 42
1.0
176
     1
 92
        0
176
     1
 66
   257
176
     1
 43
1.0
176
     1
 76
     1
176
     1
 77
     6
176
     1
 78
     2
176
     1
 67
     7
176
     1
 79
     3
176
     1
170
     0
176
     1
171
     0
176
     1
290
     0
176
     1
 93
        1
176
     1
 44
0.0
176
     1
173
     0
176
     1
  0
VISUALSTYLE
  5
40
102
{ACAD_REACTORS
330
2A
102
}
102
{ACAD_XDICTIONARY
360
225
102
}
330
2A
100
AcDbVisualStyle
  2
X-Ray
 70
    25
177
     2
291
     0
 71
     2
176
     1
 72
     2
176
     1
 73
     1
176
     1
 90
        1
176
     1
 40
0.5
176
     1
 41
30.0
176
     1
 62
     5
 63
     7
421
 16777215
176
     1
 74
     1
176
     1
 91
        0
176
     1
 64
     7
176
     1
 65
   257
176
     1
 75
     1
176
     1
175
     1
176
     1
 42
1.0
176
     1
 92
        8
176
     1
 66
     7
176
     1
 43
1.0
176
     1
 76
     1
176
     1
 77
     6
176
     1
 78
     2
176
     1
 67
     7
176
     1
 79
     3
176
     1
170
     0
176
     1
171
     0
176
     1
290
     0
176
     1
 93
       13
176
     1
 44
0.0
176
     1
173
     0
176
     1
  0
DICTIONARYVAR
  5
1FA
102
{ACAD_REACTORS
330
1F9
102
}
330
1F9
100
DictionaryVariables
280
     0
  1
1:1
  0
DICTIONARYVAR
  5
22F
102
{ACAD_REACTORS
330
1F9
102
}
330
1F9
100
DictionaryVariables
280
     0
  1
Standard
  0
DICTIONARYVAR
  5
22E
102
{ACAD_REACTORS
330
1F9
102
}
330
1F9
100
DictionaryVariables
280
     0
  1
Standard
  0
DICTIONARY
  5
22B
330
6A
100
AcDbDictionary
280
     1
281
     1
  3
ACAD_ROUNDTRIP_2008_TABLESTYLE_CELLSTYLEMAP
360
22C
  0
DICTIONARY
  5
203
330
2F
100
AcDbDictionary
280
     1
281
     1
  3
ACAD_XREC_ROUNDTRIP
360
204
  0
DICTIONARY
  5
209
330
32
100
AcDbDictionary
280
     1
281
     1
  3
ACAD_XREC_ROUNDTRIP
360
20A
  0
DICTIONARY
  5
211
330
36
100
AcDbDictionary
280
     1
281
     1
  3
ACAD_XREC_ROUNDTRIP
360
212
  0
DICTIONARY
  5
219
330
3A
100
AcDbDictionary
280
     1
281
     1
  3
ACAD_XREC_ROUNDTRIP
360
21A
  0
DICTIONARY
  5
20D
330
34
100
AcDbDictionary
280
     1
281
     1
  3
ACAD_XREC_ROUNDTRIP
360
20E
  0
DICTIONARY
  5
20F
330
35
100
AcDbDictionary
280
     1
281
     1
  3
ACAD_XREC_ROUNDTRIP
360
210
  0
DICTIONARY
  5
21F
330
3D
100
AcDbDictionary
280
     1
281
     1
  3
ACAD_XREC_ROUNDTRIP
360
220
  0
DICTIONARY
  5
217
330
39
100
AcDbDictionary
280
     1
281
     1
  3
ACAD_XREC_ROUNDTRIP
360
218
  0
DICTIONARY
  5
1FB
330
2B
100
AcDbDictionary
280
     1
281
     1
  3
ACAD_XREC_ROUNDTRIP
360
1FC
  0
DICTIONARY
  5
1FD
330
2C
100
AcDbDictionary
280
     1
281
     1
  3
ACAD_XREC_ROUNDTRIP
360
1FE
  0
DICTIONARY
  5
1FF
330
2D
100
AcDbDictionary
280
     1
281
     1
  3
ACAD_XREC_ROUNDTRIP
360
200
  0
DICTIONARY
  5
201
330
2E
100
AcDbDictionary
280
     1
281
     1
  3
ACAD_XREC_ROUNDTRIP
360
202
  0
DICTIONARY
  5
207
330
31
100
AcDbDictionary
280
     1
281
     1
  3
ACAD_XREC_ROUNDTRIP
360
208
  0
DICTIONARY
  5
21B
330
3B
100
AcDbDictionary
280
     1
281
     1
  3
ACAD_XREC_ROUNDTRIP
360
21C
  0
DICTIONARY
  5
215
330
38
100
AcDbDictionary
280
     1
281
     1
  3
ACAD_XREC_ROUNDTRIP
360
216
  0
DICTIONARY
  5
21D
330
3C
100
AcDbDictionary
280
     1
281
     1
  3
ACAD_XREC_ROUNDTRIP
360
21E
  0
DICTIONARY
  5
20B
330
33
100
AcDbDictionary
280
     1
281
     1
  3
ACAD_XREC_ROUNDTRIP
360
20C
  0
DICTIONARY
  5
229
330
42
100
AcDbDictionary
280
     1
281
     1
  3
ACAD_XREC_ROUNDTRIP
360
22A
  0
DICTIONARY
  5
227
330
41
100
AcDbDictionary
280
     1
281
     1
  3
ACAD_XREC_ROUNDTRIP
360
228
  0
DICTIONARY
  5
221
330
3E
100
AcDbDictionary
280
     1
281
     1
  3
ACAD_XREC_ROUNDTRIP
360
222
  0
DICTIONARY
  5
223
330
3F
100
AcDbDictionary
280
     1
281
     1
  3
ACAD_XREC_ROUNDTRIP
360
224
  0
DICTIONARY
  5
213
330
37
100
AcDbDictionary
280
     1
281
     1
  3
ACAD_XREC_ROUNDTRIP
360
214
  0
DICTIONARY
  5
205
330
30
100
AcDbDictionary
280
     1
281
     1
  3
ACAD_XREC_ROUNDTRIP
360
206
  0
DICTIONARY
  5
225
330
40
100
AcDbDictionary
280
     1
281
     1
  3
ACAD_XREC_ROUNDTRIP
360
226
  0
CELLSTYLEMAP
  5
22C
102
{ACAD_REACTORS
330
22B
102
}
330
22B
100
AcDbCellStyleMap
 90
        3
300
CELLSTYLE
  1
TABLEFORMAT_BEGIN
 90
        5
170
     1
 91
        0
 92
    32768
 62
   257
 93
        1
300
CONTENTFORMAT
  1
CONTENTFORMAT_BEGIN
 90
        0
 91
        0
 92
        4
 93
        0
300

 40
0.0
140
1.0
 94
        5
 62
     0
340
11
144
6.0
309
CONTENTFORMAT_END
171
     1
301
MARGIN
  1
CELLMARGIN_BEGIN
 40
1.5
 40
1.5
 40
1.5
 40
1.5
 40
1.5
 40
1.5
309
CELLMARGIN_END
 94
        6
 95
        1
302
GRIDFORMAT
  1
GRIDFORMAT_BEGIN
 90
        0
 91
        1
 62
     0
 92
       -2
340
14
 93
        0
 40
0.045
309
GRIDFORMAT_END
 95
        2
302
GRIDFORMAT
  1
GRIDFORMAT_BEGIN
 90
        0
 91
        1
 62
     0
 92
       -2
340
14
 93
        0
 40
0.045
309
GRIDFORMAT_END
 95
        4
302
GRIDFORMAT
  1
GRIDFORMAT_BEGIN
 90
        0
 91
        1
 62
     0
 92
       -2
340
14
 93
        0
 40
0.045
309
GRIDFORMAT_END
 95
        8
302
GRIDFORMAT
  1
GRIDFORMAT_BEGIN
 90
        0
 91
        1
 62
     0
 92
       -2
340
14
 93
        0
 40
0.045
309
GRIDFORMAT_END
 95
       16
302
GRIDFORMAT
  1
GRIDFORMAT_BEGIN
 90
        0
 91
        1
 62
     0
 92
       -2
340
14
 93
        0
 40
0.045
309
GRIDFORMAT_END
 95
       32
302
GRIDFORMAT
  1
GRIDFORMAT_BEGIN
 90
        0
 91
        1
 62
     0
 92
       -2
340
14
 93
        0
 40
0.045
309
GRIDFORMAT_END
309
TABLEFORMAT_END
  1
CELLSTYLE_BEGIN
 90
        1
 91
        1
300
_TITLE
309
CELLSTYLE_END
300
CELLSTYLE
  1
TABLEFORMAT_BEGIN
 90
        5
170
     1
 91
        0
 92
        0
 62
   257
 93
        1
300
CONTENTFORMAT
  1
CONTENTFORMAT_BEGIN
 90
        0
 91
        0
 92
        4
 93
        0
300

 40
0.0
140
1.0
 94
        5
 62
     0
340
11
144
4.5
309
CONTENTFORMAT_END
171
     1
301
MARGIN
  1
CELLMARGIN_BEGIN
 40
1.5
 40
1.5
 40
1.5
 40
1.5
 40
1.5
 40
1.5
309
CELLMARGIN_END
 94
        6
 95
        1
302
GRIDFORMAT
  1
GRIDFORMAT_BEGIN
 90
        0
 91
        1
 62
     0
 92
       -2
340
14
 93
        0
 40
0.045
309
GRIDFORMAT_END
 95
        2
302
GRIDFORMAT
  1
GRIDFORMAT_BEGIN
 90
        0
 91
        1
 62
     0
 92
       -2
340
14
 93
        0
 40
0.045
309
GRIDFORMAT_END
 95
        4
302
GRIDFORMAT
  1
GRIDFORMAT_BEGIN
 90
        0
 91
        1
 62
     0
 92
       -2
340
14
 93
        0
 40
0.045
309
GRIDFORMAT_END
 95
        8
302
GRIDFORMAT
  1
GRIDFORMAT_BEGIN
 90
        0
 91
        1
 62
     0
 92
       -2
340
14
 93
        0
 40
0.045
309
GRIDFORMAT_END
 95
       16
302
GRIDFORMAT
  1
GRIDFORMAT_BEGIN
 90
        0
 91
        1
 62
     0
 92
       -2
340
14
 93
        0
 40
0.045
309
GRIDFORMAT_END
 95
       32
302
GRIDFORMAT
  1
GRIDFORMAT_BEGIN
 90
        0
 91
        1
 62
     0
 92
       -2
340
14
 93
        0
 40
0.045
309
GRIDFORMAT_END
309
TABLEFORMAT_END
  1
CELLSTYLE_BEGIN
 90
        2
 91
        1
300
_HEADER
309
CELLSTYLE_END
300
CELLSTYLE
  1
TABLEFORMAT_BEGIN
 90
        5
170
     1
 91
        0
 92
        0
 62
   257
 93
        1
300
CONTENTFORMAT
  1
CONTENTFORMAT_BEGIN
 90
        0
 91
        0
 92
        4
 93
        0
300

 40
0.0
140
1.0
 94
        2
 62
     0
340
11
144
4.5
309
CONTENTFORMAT_END
171
     1
301
MARGIN
  1
CELLMARGIN_BEGIN
 40
1.5
 40
1.5
 40
1.5
 40
1.5
 40
1.5
 40
1.5
309
CELLMARGIN_END
 94
        6
 95
        1
302
GRIDFORMAT
  1
GRIDFORMAT_BEGIN
 90
        0
 91
        1
 62
     0
 92
       -2
340
14
 93
        0
 40
0.045
309
GRIDFORMAT_END
 95
        2
302
GRIDFORMAT
  1
GRIDFORMAT_BEGIN
 90
        0
 91
        1
 62
     0
 92
       -2
340
14
 93
        0
 40
0.045
309
GRIDFORMAT_END
 95
        4
302
GRIDFORMAT
  1
GRIDFORMAT_BEGIN
 90
        0
 91
        1
 62
     0
 92
       -2
340
14
 93
        0
 40
0.045
309
GRIDFORMAT_END
 95
        8
302
GRIDFORMAT
  1
GRIDFORMAT_BEGIN
 90
        0
 91
        1
 62
     0
 92
       -2
340
14
 93
        0
 40
0.045
309
GRIDFORMAT_END
 95
       16
302
GRIDFORMAT
  1
GRIDFORMAT_BEGIN
 90
        0
 91
        1
 62
     0
 92
       -2
340
14
 93
        0
 40
0.045
309
GRIDFORMAT_END
 95
       32
302
GRIDFORMAT
  1
GRIDFORMAT_BEGIN
 90
        0
 91
        1
 62
     0
 92
       -2
340
14
 93
        0
 40
0.045
309
GRIDFORMAT_END
309
TABLEFORMAT_END
  1
CELLSTYLE_BEGIN
 90
        3
 91
        2
300
_DATA
309
CELLSTYLE_END
  0
XRECORD
  5
204
102
{ACAD_REACTORS
330
203
102
}
330
203
100
AcDbXrecord
280
     1
102
RTVSPost2010Prop28
280
     1
102
RTVSPost2010PropOp28
 70
     1
102
RTVSPost2010Prop29
280
     1
102
RTVSPost2010PropOp29
 70
     1
102
RTVSPost2010Prop30
280
     0
102
RTVSPost2010PropOp30
 70
     1
102
RTVSPost2010Prop31
280
     0
102
RTVSPost2010PropOp31
 70
     1
102
RTVSPost2010Prop32
280
     0
102
RTVSPost2010PropOp32
 70
     1
102
RTVSPost2010Prop33
280
     0
102
RTVSPost2010PropOp33
 70
     1
102
RTVSPost2010Prop34
280
     0
102
RTVSPost2010PropOp34
 70
     1
102
RTVSPost2010Prop35
280
     0
102
RTVSPost2010PropOp35
 70
     1
102
RTVSPost2010Prop36
280
     0
102
RTVSPost2010PropOp36
 70
     1
102
RTVSPost2010Prop37
 90
       50
102
RTVSPost2010PropOp37
 70
     1
102
RTVSPost2010Prop38
140
0.0
102
RTVSPost2010PropOp38
 70
     1
102
RTVSPost2010Prop39
140
1.0
102
RTVSPost2010PropOp39
 70
     1
102
RTVSPost2010Prop40
 90
        0
102
RTVSPost2010PropOp40
 70
     1
102
RTVSPost2010Prop41ColorIndex
 90
       18
102
RTVSPost2010Prop41ColorRGB
 90
        0
102
RTVSPost2010PropOp41
 70
     1
102
RTVSPost2010Prop42
 90
       50
102
RTVSPost2010PropOp42
 70
     1
102
RTVSPost2010Prop43
 90
        3
102
RTVSPost2010PropOp43
 70
     1
102
RTVSPost2010Prop44ColorIndex
 90
        5
102
RTVSPost2010Prop44ColorRGB
 90
      255
102
RTVSPost2010PropOp44
 70
     1
102
RTVSPost2010Prop45
280
     0
102
RTVSPost2010PropOp45
 70
     1
102
RTVSPost2010Prop46
 90
       50
102
RTVSPost2010PropOp46
 70
     1
102
RTVSPost2010Prop47
 90
       50
102
RTVSPost2010PropOp47
 70
     1
102
RTVSPost2010Prop48
 90
       50
102
RTVSPost2010PropOp48
 70
     1
102
RTVSPost2010Prop49
280
     0
102
RTVSPost2010PropOp49
 70
     1
102
RTVSPost2010Prop50
 90
       50
102
RTVSPost2010PropOp50
 70
     1
102
RTVSPost2010Prop51ColorIndex
 90
      256
102
RTVSPost2010Prop51ColorRGB
 90
-16777216
102
RTVSPost2010PropOp51
 70
     0
102
RTVSPost2010Prop52
140
1.0
102
RTVSPost2010PropOp52
 70
     0
102
RTVSPost2010Prop53
 90
        2
102
RTVSPost2010PropOp53
 70
     1
102
RTVSPost2010Prop54
  1
strokes_ogs.tif
102
RTVSPost2010PropOp54
 70
     1
102
RTVSPost2010Prop55
280
     0
102
RTVSPost2010PropOp55
 70
     1
102
RTVSPost2010Prop56
140
1.0
102
RTVSPost2010PropOp56
 70
     1
102
RTVSPost2010Prop57
140
1.0
102
RTVSPost2010PropOp57
 70
     1
  0
XRECORD
  5
20A
102
{ACAD_REACTORS
330
209
102
}
330
209
100
AcDbXrecord
280
     1
102
RTVSPost2010Prop28
280
     0
102
RTVSPost2010PropOp28
 70
     1
102
RTVSPost2010Prop29
280
     1
102
RTVSPost2010PropOp29
 70
     1
102
RTVSPost2010Prop30
280
     1
102
RTVSPost2010PropOp30
 70
     1
102
RTVSPost2010Prop31
280
     0
102
RTVSPost2010PropOp31
 70
     1
102
RTVSPost2010Prop32
280
     0
102
RTVSPost2010PropOp32
 70
     1
102
RTVSPost2010Prop33
280
     0
102
RTVSPost2010PropOp33
 70
     1
102
RTVSPost2010Prop34
280
     0
102
RTVSPost2010PropOp34
 70
     1
102
RTVSPost2010Prop35
280
     0
102
RTVSPost2010PropOp35
 70
     1
102
RTVSPost2010Prop36
280
     0
102
RTVSPost2010PropOp36
 70
     1
102
RTVSPost2010Prop37
 90
       50
102
RTVSPost2010PropOp37
 70
     1
102
RTVSPost2010Prop38
140
0.0
102
RTVSPost2010PropOp38
 70
     1
102
RTVSPost2010Prop39
140
1.0
102
RTVSPost2010PropOp39
 70
     1
102
RTVSPost2010Prop40
 90
        0
102
RTVSPost2010PropOp40
 70
     1
102
RTVSPost2010Prop41ColorIndex
 90
       18
102
RTVSPost2010Prop41ColorRGB
 90
        0
102
RTVSPost2010PropOp41
 70
     1
102
RTVSPost2010Prop42
 90
       50
102
RTVSPost2010PropOp42
 70
     1
102
RTVSPost2010Prop43
 90
        3
102
RTVSPost2010PropOp43
 70
     1
102
RTVSPost2010Prop44ColorIndex
 90
        5
102
RTVSPost2010Prop44ColorRGB
 90
      255
102
RTVSPost2010PropOp44
 70
     1
102
RTVSPost2010Prop45
280
     0
102
RTVSPost2010PropOp45
 70
     1
102
RTVSPost2010Prop46
 90
       50
102
RTVSPost2010PropOp46
 70
     1
102
RTVSPost2010Prop47
 90
       50
102
RTVSPost2010PropOp47
 70
     1
102
RTVSPost2010Prop48
 90
       50
102
RTVSPost2010PropOp48
 70
     1
102
RTVSPost2010Prop49
280
     0
102
RTVSPost2010PropOp49
 70
     1
102
RTVSPost2010Prop50
 90
       50
102
RTVSPost2010PropOp50
 70
     1
102
RTVSPost2010Prop51ColorIndex
 90
      256
102
RTVSPost2010Prop51ColorRGB
 90
-16777216
102
RTVSPost2010PropOp51
 70
     0
102
RTVSPost2010Prop52
140
1.0
102
RTVSPost2010PropOp52
 70
     0
102
RTVSPost2010Prop53
 90
        2
102
RTVSPost2010PropOp53
 70
     1
102
RTVSPost2010Prop54
  1
strokes_ogs.tif
102
RTVSPost2010PropOp54
 70
     1
102
RTVSPost2010Prop55
280
     0
102
RTVSPost2010PropOp55
 70
     1
102
RTVSPost2010Prop56
140
1.0
102
RTVSPost2010PropOp56
 70
     1
102
RTVSPost2010Prop57
140
1.0
102
RTVSPost2010PropOp57
 70
     1
  0
XRECORD
  5
212
102
{ACAD_REACTORS
330
211
102
}
330
211
100
AcDbXrecord
280
     1
102
RTVSPost2010Prop28
280
     0
102
RTVSPost2010PropOp28
 70
     1
102
RTVSPost2010Prop29
280
     1
102
RTVSPost2010PropOp29
 70
     1
102
RTVSPost2010Prop30
280
     1
102
RTVSPost2010PropOp30
 70
     1
102
RTVSPost2010Prop31
280
     0
102
RTVSPost2010PropOp31
 70
     1
102
RTVSPost2010Prop32
280
     0
102
RTVSPost2010PropOp32
 70
     1
102
RTVSPost2010Prop33
280
     0
102
RTVSPost2010PropOp33
 70
     1
102
RTVSPost2010Prop34
280
     0
102
RTVSPost2010PropOp34
 70
     1
102
RTVSPost2010Prop35
280
     0
102
RTVSPost2010PropOp35
 70
     1
102
RTVSPost2010Prop36
280
     0
102
RTVSPost2010PropOp36
 70
     1
102
RTVSPost2010Prop37
 90
       50
102
RTVSPost2010PropOp37
 70
     1
102
RTVSPost2010Prop38
140
0.0
102
RTVSPost2010PropOp38
 70
     1
102
RTVSPost2010Prop39
140
1.0
102
RTVSPost2010PropOp39
 70
     1
102
RTVSPost2010Prop40
 90
        0
102
RTVSPost2010PropOp40
 70
     1
102
RTVSPost2010Prop41ColorIndex
 90
       18
102
RTVSPost2010Prop41ColorRGB
 90
        0
102
RTVSPost2010PropOp41
 70
     1
102
RTVSPost2010Prop42
 90
       50
102
RTVSPost2010PropOp42
 70
     1
102
RTVSPost2010Prop43
 90
        3
102
RTVSPost2010PropOp43
 70
     1
102
RTVSPost2010Prop44ColorIndex
 90
        5
102
RTVSPost2010Prop44ColorRGB
 90
      255
102
RTVSPost2010PropOp44
 70
     1
102
RTVSPost2010Prop45
280
     0
102
RTVSPost2010PropOp45
 70
     1
102
RTVSPost2010Prop46
 90
       50
102
RTVSPost2010PropOp46
 70
     1
102
RTVSPost2010Prop47
 90
       50
102
RTVSPost2010PropOp47
 70
     1
102
RTVSPost2010Prop48
 90
       50
102
RTVSPost2010PropOp48
 70
     1
102
RTVSPost2010Prop49
280
     0
102
RTVSPost2010PropOp49
 70
     1
102
RTVSPost2010Prop50
 90
       50
102
RTVSPost2010PropOp50
 70
     1
102
RTVSPost2010Prop51ColorIndex
 90
      256
102
RTVSPost2010Prop51ColorRGB
 90
-16777216
102
RTVSPost2010PropOp51
 70
     0
102
RTVSPost2010Prop52
140
1.0
102
RTVSPost2010PropOp52
 70
     0
102
RTVSPost2010Prop53
 90
        2
102
RTVSPost2010PropOp53
 70
     1
102
RTVSPost2010Prop54
  1
strokes_ogs.tif
102
RTVSPost2010PropOp54
 70
     1
102
RTVSPost2010Prop55
280
     0
102
RTVSPost2010PropOp55
 70
     1
102
RTVSPost2010Prop56
140
1.0
102
RTVSPost2010PropOp56
 70
     1
102
RTVSPost2010Prop57
140
1.0
102
RTVSPost2010PropOp57
 70
     1
  0
XRECORD
  5
21A
102
{ACAD_REACTORS
330
219
102
}
330
219
100
AcDbXrecord
280
     1
102
RTVSPost2010Prop28
280
     0
102
RTVSPost2010PropOp28
 70
     1
102
RTVSPost2010Prop29
280
     1
102
RTVSPost2010PropOp29
 70
     1
102
RTVSPost2010Prop30
280
     1
102
RTVSPost2010PropOp30
 70
     1
102
RTVSPost2010Prop31
280
     0
102
RTVSPost2010PropOp31
 70
     1
102
RTVSPost2010Prop32
280
     0
102
RTVSPost2010PropOp32
 70
     1
102
RTVSPost2010Prop33
280
     0
102
RTVSPost2010PropOp33
 70
     1
102
RTVSPost2010Prop34
280
     0
102
RTVSPost2010PropOp34
 70
     1
102
RTVSPost2010Prop35
280
     0
102
RTVSPost2010PropOp35
 70
     1
102
RTVSPost2010Prop36
280
     0
102
RTVSPost2010PropOp36
 70
     1
102
RTVSPost2010Prop37
 90
       50
102
RTVSPost2010PropOp37
 70
     1
102
RTVSPost2010Prop38
140
0.0
102
RTVSPost2010PropOp38
 70
     1
102
RTVSPost2010Prop39
140
1.0
102
RTVSPost2010PropOp39
 70
     1
102
RTVSPost2010Prop40
 90
        0
102
RTVSPost2010PropOp40
 70
     1
102
RTVSPost2010Prop41ColorIndex
 90
       18
102
RTVSPost2010Prop41ColorRGB
 90
        0
102
RTVSPost2010PropOp41
 70
     1
102
RTVSPost2010Prop42
 90
       50
102
RTVSPost2010PropOp42
 70
     1
102
RTVSPost2010Prop43
 90
        3
102
RTVSPost2010PropOp43
 70
     1
102
RTVSPost2010Prop44ColorIndex
 90
        5
102
RTVSPost2010Prop44ColorRGB
 90
      255
102
RTVSPost2010PropOp44
 70
     1
102
RTVSPost2010Prop45
280
     0
102
RTVSPost2010PropOp45
 70
     1
102
RTVSPost2010Prop46
 90
       50
102
RTVSPost2010PropOp46
 70
     1
102
RTVSPost2010Prop47
 90
       50
102
RTVSPost2010PropOp47
 70
     1
102
RTVSPost2010Prop48
 90
       50
102
RTVSPost2010PropOp48
 70
     1
102
RTVSPost2010Prop49
280
     0
102
RTVSPost2010PropOp49
 70
     1
102
RTVSPost2010Prop50
 90
       50
102
RTVSPost2010PropOp50
 70
     1
102
RTVSPost2010Prop51ColorIndex
 90
      256
102
RTVSPost2010Prop51ColorRGB
 90
-16777216
102
RTVSPost2010PropOp51
 70
     0
102
RTVSPost2010Prop52
140
1.0
102
RTVSPost2010PropOp52
 70
     0
102
RTVSPost2010Prop53
 90
        2
102
RTVSPost2010PropOp53
 70
     1
102
RTVSPost2010Prop54
  1
strokes_ogs.tif
102
RTVSPost2010PropOp54
 70
     1
102
RTVSPost2010Prop55
280
     0
102
RTVSPost2010PropOp55
 70
     1
102
RTVSPost2010Prop56
140
1.0
102
RTVSPost2010PropOp56
 70
     1
102
RTVSPost2010Prop57
140
1.0
102
RTVSPost2010PropOp57
 70
     1
  0
XRECORD
  5
20E
102
{ACAD_REACTORS
330
20D
102
}
330
20D
100
AcDbXrecord
280
     1
102
RTVSPost2010Prop28
280
     0
102
RTVSPost2010PropOp28
 70
     1
102
RTVSPost2010Prop29
280
     1
102
RTVSPost2010PropOp29
 70
     1
102
RTVSPost2010Prop30
280
     1
102
RTVSPost2010PropOp30
 70
     1
102
RTVSPost2010Prop31
280
     0
102
RTVSPost2010PropOp31
 70
     1
102
RTVSPost2010Prop32
280
     0
102
RTVSPost2010PropOp32
 70
     1
102
RTVSPost2010Prop33
280
     0
102
RTVSPost2010PropOp33
 70
     1
102
RTVSPost2010Prop34
280
     0
102
RTVSPost2010PropOp34
 70
     1
102
RTVSPost2010Prop35
280
     0
102
RTVSPost2010PropOp35
 70
     1
102
RTVSPost2010Prop36
280
     0
102
RTVSPost2010PropOp36
 70
     1
102
RTVSPost2010Prop37
 90
       50
102
RTVSPost2010PropOp37
 70
     1
102
RTVSPost2010Prop38
140
0.0
102
RTVSPost2010PropOp38
 70
     1
102
RTVSPost2010Prop39
140
1.0
102
RTVSPost2010PropOp39
 70
     1
102
RTVSPost2010Prop40
 90
        0
102
RTVSPost2010PropOp40
 70
     1
102
RTVSPost2010Prop41ColorIndex
 90
       18
102
RTVSPost2010Prop41ColorRGB
 90
        0
102
RTVSPost2010PropOp41
 70
     1
102
RTVSPost2010Prop42
 90
       50
102
RTVSPost2010PropOp42
 70
     1
102
RTVSPost2010Prop43
 90
        3
102
RTVSPost2010PropOp43
 70
     1
102
RTVSPost2010Prop44ColorIndex
 90
        5
102
RTVSPost2010Prop44ColorRGB
 90
      255
102
RTVSPost2010PropOp44
 70
     1
102
RTVSPost2010Prop45
280
     0
102
RTVSPost2010PropOp45
 70
     1
102
RTVSPost2010Prop46
 90
       50
102
RTVSPost2010PropOp46
 70
     1
102
RTVSPost2010Prop47
 90
       50
102
RTVSPost2010PropOp47
 70
     1
102
RTVSPost2010Prop48
 90
       50
102
RTVSPost2010PropOp48
 70
     1
102
RTVSPost2010Prop49
280
     0
102
RTVSPost2010PropOp49
 70
     1
102
RTVSPost2010Prop50
 90
       50
102
RTVSPost2010PropOp50
 70
     1
102
RTVSPost2010Prop51ColorIndex
 90
      256
102
RTVSPost2010Prop51ColorRGB
 90
-16777216
102
RTVSPost2010PropOp51
 70
     0
102
RTVSPost2010Prop52
140
1.0
102
RTVSPost2010PropOp52
 70
     0
102
RTVSPost2010Prop53
 90
        2
102
RTVSPost2010PropOp53
 70
     1
102
RTVSPost2010Prop54
  1
strokes_ogs.tif
102
RTVSPost2010PropOp54
 70
     1
102
RTVSPost2010Prop55
280
     0
102
RTVSPost2010PropOp55
 70
     1
102
RTVSPost2010Prop56
140
1.0
102
RTVSPost2010PropOp56
 70
     1
102
RTVSPost2010Prop57
140
1.0
102
RTVSPost2010PropOp57
 70
     1
  0
XRECORD
  5
210
102
{ACAD_REACTORS
330
20F
102
}
330
20F
100
AcDbXrecord
280
     1
102
RTVSPost2010Prop28
280
     0
102
RTVSPost2010PropOp28
 70
     1
102
RTVSPost2010Prop29
280
     1
102
RTVSPost2010PropOp29
 70
     1
102
RTVSPost2010Prop30
280
     1
102
RTVSPost2010PropOp30
 70
     1
102
RTVSPost2010Prop31
280
     0
102
RTVSPost2010PropOp31
 70
     1
102
RTVSPost2010Prop32
280
     0
102
RTVSPost2010PropOp32
 70
     1
102
RTVSPost2010Prop33
280
     0
102
RTVSPost2010PropOp33
 70
     1
102
RTVSPost2010Prop34
280
     0
102
RTVSPost2010PropOp34
 70
     1
102
RTVSPost2010Prop35
280
     0
102
RTVSPost2010PropOp35
 70
     1
102
RTVSPost2010Prop36
280
     0
102
RTVSPost2010PropOp36
 70
     1
102
RTVSPost2010Prop37
 90
       50
102
RTVSPost2010PropOp37
 70
     1
102
RTVSPost2010Prop38
140
0.0
102
RTVSPost2010PropOp38
 70
     1
102
RTVSPost2010Prop39
140
1.0
102
RTVSPost2010PropOp39
 70
     1
102
RTVSPost2010Prop40
 90
        0
102
RTVSPost2010PropOp40
 70
     1
102
RTVSPost2010Prop41ColorIndex
 90
       18
102
RTVSPost2010Prop41ColorRGB
 90
        0
102
RTVSPost2010PropOp41
 70
     1
102
RTVSPost2010Prop42
 90
       50
102
RTVSPost2010PropOp42
 70
     1
102
RTVSPost2010Prop43
 90
        3
102
RTVSPost2010PropOp43
 70
     1
102
RTVSPost2010Prop44ColorIndex
 90
        5
102
RTVSPost2010Prop44ColorRGB
 90
      255
102
RTVSPost2010PropOp44
 70
     1
102
RTVSPost2010Prop45
280
     0
102
RTVSPost2010PropOp45
 70
     1
102
RTVSPost2010Prop46
 90
       50
102
RTVSPost2010PropOp46
 70
     1
102
RTVSPost2010Prop47
 90
       50
102
RTVSPost2010PropOp47
 70
     1
102
RTVSPost2010Prop48
 90
       50
102
RTVSPost2010PropOp48
 70
     1
102
RTVSPost2010Prop49
280
     0
102
RTVSPost2010PropOp49
 70
     1
102
RTVSPost2010Prop50
 90
       50
102
RTVSPost2010PropOp50
 70
     1
102
RTVSPost2010Prop51ColorIndex
 90
      256
102
RTVSPost2010Prop51ColorRGB
 90
-16777216
102
RTVSPost2010PropOp51
 70
     0
102
RTVSPost2010Prop52
140
1.0
102
RTVSPost2010PropOp52
 70
     0
102
RTVSPost2010Prop53
 90
        2
102
RTVSPost2010PropOp53
 70
     1
102
RTVSPost2010Prop54
  1
strokes_ogs.tif
102
RTVSPost2010PropOp54
 70
     1
102
RTVSPost2010Prop55
280
     0
102
RTVSPost2010PropOp55
 70
     1
102
RTVSPost2010Prop56
140
1.0
102
RTVSPost2010PropOp56
 70
     1
102
RTVSPost2010Prop57
140
1.0
102
RTVSPost2010PropOp57
 70
     1
  0
XRECORD
  5
220
102
{ACAD_REACTORS
330
21F
102
}
330
21F
100
AcDbXrecord
280
     1
102
RTVSPost2010Prop28
280
     0
102
RTVSPost2010PropOp28
 70
     0
102
RTVSPost2010Prop29
280
     1
102
RTVSPost2010PropOp29
 70
     0
102
RTVSPost2010Prop30
280
     1
102
RTVSPost2010PropOp30
 70
     0
102
RTVSPost2010Prop31
280
     0
102
RTVSPost2010PropOp31
 70
     0
102
RTVSPost2010Prop32
280
     0
102
RTVSPost2010PropOp32
 70
     0
102
RTVSPost2010Prop33
280
     0
102
RTVSPost2010PropOp33
 70
     0
102
RTVSPost2010Prop34
280
     0
102
RTVSPost2010PropOp34
 70
     0
102
RTVSPost2010Prop35
280
     0
102
RTVSPost2010PropOp35
 70
     0
102
RTVSPost2010Prop36
280
     0
102
RTVSPost2010PropOp36
 70
     0
102
RTVSPost2010Prop37
 90
       50
102
RTVSPost2010PropOp37
 70
     0
102
RTVSPost2010Prop38
140
0.0
102
RTVSPost2010PropOp38
 70
     0
102
RTVSPost2010Prop39
140
1.0
102
RTVSPost2010PropOp39
 70
     0
102
RTVSPost2010Prop40
 90
        0
102
RTVSPost2010PropOp40
 70
     0
102
RTVSPost2010Prop41ColorIndex
 90
       18
102
RTVSPost2010Prop41ColorRGB
 90
        0
102
RTVSPost2010PropOp41
 70
     0
102
RTVSPost2010Prop42
 90
       50
102
RTVSPost2010PropOp42
 70
     0
102
RTVSPost2010Prop43
 90
        3
102
RTVSPost2010PropOp43
 70
     0
102
RTVSPost2010Prop44ColorIndex
 90
        5
102
RTVSPost2010Prop44ColorRGB
 90
      255
102
RTVSPost2010PropOp44
 70
     0
102
RTVSPost2010Prop45
280
     0
102
RTVSPost2010PropOp45
 70
     0
102
RTVSPost2010Prop46
 90
       50
102
RTVSPost2010PropOp46
 70
     0
102
RTVSPost2010Prop47
 90
       50
102
RTVSPost2010PropOp47
 70
     0
102
RTVSPost2010Prop48
 90
       50
102
RTVSPost2010PropOp48
 70
     0
102
RTVSPost2010Prop49
280
     0
102
RTVSPost2010PropOp49
 70
     0
102
RTVSPost2010Prop50
 90
       50
102
RTVSPost2010PropOp50
 70
     0
102
RTVSPost2010Prop51ColorIndex
 90
      256
102
RTVSPost2010Prop51ColorRGB
 90
-16777216
102
RTVSPost2010PropOp51
 70
     0
102
RTVSPost2010Prop52
140
1.0
102
RTVSPost2010PropOp52
 70
     0
102
RTVSPost2010Prop53
 90
        2
102
RTVSPost2010PropOp53
 70
     0
102
RTVSPost2010Prop54
  1
strokes_ogs.tif
102
RTVSPost2010PropOp54
 70
     0
102
RTVSPost2010Prop55
280
     0
102
RTVSPost2010PropOp55
 70
     0
102
RTVSPost2010Prop56
140
1.0
102
RTVSPost2010PropOp56
 70
     0
102
RTVSPost2010Prop57
140
1.0
102
RTVSPost2010PropOp57
 70
     0
  0
XRECORD
  5
218
102
{ACAD_REACTORS
330
217
102
}
330
217
100
AcDbXrecord
280
     1
102
RTVSPost2010Prop28
280
     0
102
RTVSPost2010PropOp28
 70
     1
102
RTVSPost2010Prop29
280
     1
102
RTVSPost2010PropOp29
 70
     1
102
RTVSPost2010Prop30
280
     1
102
RTVSPost2010PropOp30
 70
     1
102
RTVSPost2010Prop31
280
     0
102
RTVSPost2010PropOp31
 70
     1
102
RTVSPost2010Prop32
280
     0
102
RTVSPost2010PropOp32
 70
     1
102
RTVSPost2010Prop33
280
     0
102
RTVSPost2010PropOp33
 70
     1
102
RTVSPost2010Prop34
280
     0
102
RTVSPost2010PropOp34
 70
     1
102
RTVSPost2010Prop35
280
     0
102
RTVSPost2010PropOp35
 70
     1
102
RTVSPost2010Prop36
280
     0
102
RTVSPost2010PropOp36
 70
     1
102
RTVSPost2010Prop37
 90
       50
102
RTVSPost2010PropOp37
 70
     1
102
RTVSPost2010Prop38
140
0.0
102
RTVSPost2010PropOp38
 70
     1
102
RTVSPost2010Prop39
140
1.0
102
RTVSPost2010PropOp39
 70
     1
102
RTVSPost2010Prop40
 90
        0
102
RTVSPost2010PropOp40
 70
     1
102
RTVSPost2010Prop41ColorIndex
 90
       18
102
RTVSPost2010Prop41ColorRGB
 90
        0
102
RTVSPost2010PropOp41
 70
     1
102
RTVSPost2010Prop42
 90
       50
102
RTVSPost2010PropOp42
 70
     1
102
RTVSPost2010Prop43
 90
        3
102
RTVSPost2010PropOp43
 70
     1
102
RTVSPost2010Prop44ColorIndex
 90
        5
102
RTVSPost2010Prop44ColorRGB
 90
      255
102
RTVSPost2010PropOp44
 70
     1
102
RTVSPost2010Prop45
280
     0
102
RTVSPost2010PropOp45
 70
     1
102
RTVSPost2010Prop46
 90
       50
102
RTVSPost2010PropOp46
 70
     1
102
RTVSPost2010Prop47
 90
       50
102
RTVSPost2010PropOp47
 70
     1
102
RTVSPost2010Prop48
 90
       50
102
RTVSPost2010PropOp48
 70
     1
102
RTVSPost2010Prop49
280
     0
102
RTVSPost2010PropOp49
 70
     1
102
RTVSPost2010Prop50
 90
       50
102
RTVSPost2010PropOp50
 70
     1
102
RTVSPost2010Prop51ColorIndex
 90
      256
102
RTVSPost2010Prop51ColorRGB
 90
-16777216
102
RTVSPost2010PropOp51
 70
     0
102
RTVSPost2010Prop52
140
1.0
102
RTVSPost2010PropOp52
 70
     0
102
RTVSPost2010Prop53
 90
        2
102
RTVSPost2010PropOp53
 70
     1
102
RTVSPost2010Prop54
  1
strokes_ogs.tif
102
RTVSPost2010PropOp54
 70
     1
102
RTVSPost2010Prop55
280
     0
102
RTVSPost2010PropOp55
 70
     1
102
RTVSPost2010Prop56
140
1.0
102
RTVSPost2010PropOp56
 70
     1
102
RTVSPost2010Prop57
140
1.0
102
RTVSPost2010PropOp57
 70
     1
  0
XRECORD
  5
1FC
102
{ACAD_REACTORS
330
1FB
102
}
330
1FB
100
AcDbXrecord
280
     1
102
RTVSPost2010Prop28
280
     0
102
RTVSPost2010PropOp28
 70
     1
102
RTVSPost2010Prop29
280
     1
102
RTVSPost2010PropOp29
 70
     1
102
RTVSPost2010Prop30
280
     1
102
RTVSPost2010PropOp30
 70
     1
102
RTVSPost2010Prop31
280
     0
102
RTVSPost2010PropOp31
 70
     1
102
RTVSPost2010Prop32
280
     0
102
RTVSPost2010PropOp32
 70
     1
102
RTVSPost2010Prop33
280
     0
102
RTVSPost2010PropOp33
 70
     1
102
RTVSPost2010Prop34
280
     0
102
RTVSPost2010PropOp34
 70
     1
102
RTVSPost2010Prop35
280
     0
102
RTVSPost2010PropOp35
 70
     1
102
RTVSPost2010Prop36
280
     0
102
RTVSPost2010PropOp36
 70
     1
102
RTVSPost2010Prop37
 90
       50
102
RTVSPost2010PropOp37
 70
     1
102
RTVSPost2010Prop38
140
0.0
102
RTVSPost2010PropOp38
 70
     1
102
RTVSPost2010Prop39
140
1.0
102
RTVSPost2010PropOp39
 70
     1
102
RTVSPost2010Prop40
 90
        0
102
RTVSPost2010PropOp40
 70
     1
102
RTVSPost2010Prop41ColorIndex
 90
       18
102
RTVSPost2010Prop41ColorRGB
 90
        0
102
RTVSPost2010PropOp41
 70
     1
102
RTVSPost2010Prop42
 90
       50
102
RTVSPost2010PropOp42
 70
     1
102
RTVSPost2010Prop43
 90
        3
102
RTVSPost2010PropOp43
 70
     1
102
RTVSPost2010Prop44ColorIndex
 90
        5
102
RTVSPost2010Prop44ColorRGB
 90
      255
102
RTVSPost2010PropOp44
 70
     1
102
RTVSPost2010Prop45
280
     0
102
RTVSPost2010PropOp45
 70
     1
102
RTVSPost2010Prop46
 90
       50
102
RTVSPost2010PropOp46
 70
     1
102
RTVSPost2010Prop47
 90
       50
102
RTVSPost2010PropOp47
 70
     1
102
RTVSPost2010Prop48
 90
       50
102
RTVSPost2010PropOp48
 70
     1
102
RTVSPost2010Prop49
280
     0
102
RTVSPost2010PropOp49
 70
     1
102
RTVSPost2010Prop50
 90
       50
102
RTVSPost2010PropOp50
 70
     1
102
RTVSPost2010Prop51ColorIndex
 90
      256
102
RTVSPost2010Prop51ColorRGB
 90
-16777216
102
RTVSPost2010PropOp51
 70
     0
102
RTVSPost2010Prop52
140
1.0
102
RTVSPost2010PropOp52
 70
     0
102
RTVSPost2010Prop53
 90
        2
102
RTVSPost2010PropOp53
 70
     1
102
RTVSPost2010Prop54
  1
strokes_ogs.tif
102
RTVSPost2010PropOp54
 70
     1
102
RTVSPost2010Prop55
280
     0
102
RTVSPost2010PropOp55
 70
     1
102
RTVSPost2010Prop56
140
1.0
102
RTVSPost2010PropOp56
 70
     1
102
RTVSPost2010Prop57
140
1.0
102
RTVSPost2010PropOp57
 70
     1
  0
XRECORD
  5
1FE
102
{ACAD_REACTORS
330
1FD
102
}
330
1FD
100
AcDbXrecord
280
     1
102
RTVSPost2010Prop28
280
     0
102
RTVSPost2010PropOp28
 70
     1
102
RTVSPost2010Prop29
280
     1
102
RTVSPost2010PropOp29
 70
     1
102
RTVSPost2010Prop30
280
     1
102
RTVSPost2010PropOp30
 70
     1
102
RTVSPost2010Prop31
280
     0
102
RTVSPost2010PropOp31
 70
     1
102
RTVSPost2010Prop32
280
     0
102
RTVSPost2010PropOp32
 70
     1
102
RTVSPost2010Prop33
280
     0
102
RTVSPost2010PropOp33
 70
     1
102
RTVSPost2010Prop34
280
     0
102
RTVSPost2010PropOp34
 70
     1
102
RTVSPost2010Prop35
280
     0
102
RTVSPost2010PropOp35
 70
     1
102
RTVSPost2010Prop36
280
     0
102
RTVSPost2010PropOp36
 70
     1
102
RTVSPost2010Prop37
 90
       50
102
RTVSPost2010PropOp37
 70
     1
102
RTVSPost2010Prop38
140
0.0
102
RTVSPost2010PropOp38
 70
     1
102
RTVSPost2010Prop39
140
1.0
102
RTVSPost2010PropOp39
 70
     1
102
RTVSPost2010Prop40
 90
        0
102
RTVSPost2010PropOp40
 70
     1
102
RTVSPost2010Prop41ColorIndex
 90
       18
102
RTVSPost2010Prop41ColorRGB
 90
        0
102
RTVSPost2010PropOp41
 70
     1
102
RTVSPost2010Prop42
 90
       50
102
RTVSPost2010PropOp42
 70
     1
102
RTVSPost2010Prop43
 90
        3
102
RTVSPost2010PropOp43
 70
     1
102
RTVSPost2010Prop44ColorIndex
 90
        5
102
RTVSPost2010Prop44ColorRGB
 90
      255
102
RTVSPost2010PropOp44
 70
     1
102
RTVSPost2010Prop45
280
     0
102
RTVSPost2010PropOp45
 70
     1
102
RTVSPost2010Prop46
 90
       50
102
RTVSPost2010PropOp46
 70
     1
102
RTVSPost2010Prop47
 90
       50
102
RTVSPost2010PropOp47
 70
     1
102
RTVSPost2010Prop48
 90
       50
102
RTVSPost2010PropOp48
 70
     1
102
RTVSPost2010Prop49
280
     0
102
RTVSPost2010PropOp49
 70
     1
102
RTVSPost2010Prop50
 90
       50
102
RTVSPost2010PropOp50
 70
     1
102
RTVSPost2010Prop51ColorIndex
 90
      256
102
RTVSPost2010Prop51ColorRGB
 90
-16777216
102
RTVSPost2010PropOp51
 70
     0
102
RTVSPost2010Prop52
140
1.0
102
RTVSPost2010PropOp52
 70
     0
102
RTVSPost2010Prop53
 90
        2
102
RTVSPost2010PropOp53
 70
     1
102
RTVSPost2010Prop54
  1
strokes_ogs.tif
102
RTVSPost2010PropOp54
 70
     1
102
RTVSPost2010Prop55
280
     0
102
RTVSPost2010PropOp55
 70
     1
102
RTVSPost2010Prop56
140
1.0
102
RTVSPost2010PropOp56
 70
     1
102
RTVSPost2010Prop57
140
1.0
102
RTVSPost2010PropOp57
 70
     1
  0
XRECORD
  5
200
102
{ACAD_REACTORS
330
1FF
102
}
330
1FF
100
AcDbXrecord
280
     1
102
RTVSPost2010Prop28
280
     0
102
RTVSPost2010PropOp28
 70
     1
102
RTVSPost2010Prop29
280
     1
102
RTVSPost2010PropOp29
 70
     1
102
RTVSPost2010Prop30
280
     1
102
RTVSPost2010PropOp30
 70
     1
102
RTVSPost2010Prop31
280
     0
102
RTVSPost2010PropOp31
 70
     1
102
RTVSPost2010Prop32
280
     0
102
RTVSPost2010PropOp32
 70
     1
102
RTVSPost2010Prop33
280
     0
102
RTVSPost2010PropOp33
 70
     1
102
RTVSPost2010Prop34
280
     0
102
RTVSPost2010PropOp34
 70
     1
102
RTVSPost2010Prop35
280
     0
102
RTVSPost2010PropOp35
 70
     1
102
RTVSPost2010Prop36
280
     0
102
RTVSPost2010PropOp36
 70
     1
102
RTVSPost2010Prop37
 90
       50
102
RTVSPost2010PropOp37
 70
     1
102
RTVSPost2010Prop38
140
0.0
102
RTVSPost2010PropOp38
 70
     1
102
RTVSPost2010Prop39
140
1.0
102
RTVSPost2010PropOp39
 70
     1
102
RTVSPost2010Prop40
 90
        0
102
RTVSPost2010PropOp40
 70
     1
102
RTVSPost2010Prop41ColorIndex
 90
       18
102
RTVSPost2010Prop41ColorRGB
 90
        0
102
RTVSPost2010PropOp41
 70
     1
102
RTVSPost2010Prop42
 90
       50
102
RTVSPost2010PropOp42
 70
     1
102
RTVSPost2010Prop43
 90
        3
102
RTVSPost2010PropOp43
 70
     1
102
RTVSPost2010Prop44ColorIndex
 90
        5
102
RTVSPost2010Prop44ColorRGB
 90
      255
102
RTVSPost2010PropOp44
 70
     1
102
RTVSPost2010Prop45
280
     0
102
RTVSPost2010PropOp45
 70
     1
102
RTVSPost2010Prop46
 90
       50
102
RTVSPost2010PropOp46
 70
     1
102
RTVSPost2010Prop47
 90
       50
102
RTVSPost2010PropOp47
 70
     1
102
RTVSPost2010Prop48
 90
       50
102
RTVSPost2010PropOp48
 70
     1
102
RTVSPost2010Prop49
280
     0
102
RTVSPost2010PropOp49
 70
     1
102
RTVSPost2010Prop50
 90
       50
102
RTVSPost2010PropOp50
 70
     1
102
RTVSPost2010Prop51ColorIndex
 90
      256
102
RTVSPost2010Prop51ColorRGB
 90
-16777216
102
RTVSPost2010PropOp51
 70
     0
102
RTVSPost2010Prop52
140
1.0
102
RTVSPost2010PropOp52
 70
     0
102
RTVSPost2010Prop53
 90
        2
102
RTVSPost2010PropOp53
 70
     1
102
RTVSPost2010Prop54
  1
strokes_ogs.tif
102
RTVSPost2010PropOp54
 70
     1
102
RTVSPost2010Prop55
280
     0
102
RTVSPost2010PropOp55
 70
     1
102
RTVSPost2010Prop56
140
1.0
102
RTVSPost2010PropOp56
 70
     1
102
RTVSPost2010Prop57
140
1.0
102
RTVSPost2010PropOp57
 70
     1
  0
XRECORD
  5
202
102
{ACAD_REACTORS
330
201
102
}
330
201
100
AcDbXrecord
280
     1
102
RTVSPost2010Prop28
280
     0
102
RTVSPost2010PropOp28
 70
     1
102
RTVSPost2010Prop29
280
     1
102
RTVSPost2010PropOp29
 70
     1
102
RTVSPost2010Prop30
280
     1
102
RTVSPost2010PropOp30
 70
     1
102
RTVSPost2010Prop31
280
     0
102
RTVSPost2010PropOp31
 70
     1
102
RTVSPost2010Prop32
280
     0
102
RTVSPost2010PropOp32
 70
     1
102
RTVSPost2010Prop33
280
     0
102
RTVSPost2010PropOp33
 70
     1
102
RTVSPost2010Prop34
280
     0
102
RTVSPost2010PropOp34
 70
     1
102
RTVSPost2010Prop35
280
     0
102
RTVSPost2010PropOp35
 70
     1
102
RTVSPost2010Prop36
280
     0
102
RTVSPost2010PropOp36
 70
     1
102
RTVSPost2010Prop37
 90
       50
102
RTVSPost2010PropOp37
 70
     1
102
RTVSPost2010Prop38
140
0.0
102
RTVSPost2010PropOp38
 70
     1
102
RTVSPost2010Prop39
140
1.0
102
RTVSPost2010PropOp39
 70
     1
102
RTVSPost2010Prop40
 90
        0
102
RTVSPost2010PropOp40
 70
     1
102
RTVSPost2010Prop41ColorIndex
 90
       18
102
RTVSPost2010Prop41ColorRGB
 90
        0
102
RTVSPost2010PropOp41
 70
     1
102
RTVSPost2010Prop42
 90
       50
102
RTVSPost2010PropOp42
 70
     1
102
RTVSPost2010Prop43
 90
        3
102
RTVSPost2010PropOp43
 70
     1
102
RTVSPost2010Prop44ColorIndex
 90
        5
102
RTVSPost2010Prop44ColorRGB
 90
      255
102
RTVSPost2010PropOp44
 70
     1
102
RTVSPost2010Prop45
280
     0
102
RTVSPost2010PropOp45
 70
     1
102
RTVSPost2010Prop46
 90
       50
102
RTVSPost2010PropOp46
 70
     1
102
RTVSPost2010Prop47
 90
       50
102
RTVSPost2010PropOp47
 70
     1
102
RTVSPost2010Prop48
 90
       50
102
RTVSPost2010PropOp48
 70
     1
102
RTVSPost2010Prop49
280
     0
102
RTVSPost2010PropOp49
 70
     1
102
RTVSPost2010Prop50
 90
       50
102
RTVSPost2010PropOp50
 70
     1
102
RTVSPost2010Prop51ColorIndex
 90
      256
102
RTVSPost2010Prop51ColorRGB
 90
-16777216
102
RTVSPost2010PropOp51
 70
     0
102
RTVSPost2010Prop52
140
1.0
102
RTVSPost2010PropOp52
 70
     0
102
RTVSPost2010Prop53
 90
        2
102
RTVSPost2010PropOp53
 70
     1
102
RTVSPost2010Prop54
  1
strokes_ogs.tif
102
RTVSPost2010PropOp54
 70
     1
102
RTVSPost2010Prop55
280
     0
102
RTVSPost2010PropOp55
 70
     1
102
RTVSPost2010Prop56
140
1.0
102
RTVSPost2010PropOp56
 70
     1
102
RTVSPost2010Prop57
140
1.0
102
RTVSPost2010PropOp57
 70
     1
  0
XRECORD
  5
208
102
{ACAD_REACTORS
330
207
102
}
330
207
100
AcDbXrecord
280
     1
102
RTVSPost2010Prop28
280
     0
102
RTVSPost2010PropOp28
 70
     1
102
RTVSPost2010Prop29
280
     1
102
RTVSPost2010PropOp29
 70
     1
102
RTVSPost2010Prop30
280
     1
102
RTVSPost2010PropOp30
 70
     1
102
RTVSPost2010Prop31
280
     0
102
RTVSPost2010PropOp31
 70
     1
102
RTVSPost2010Prop32
280
     0
102
RTVSPost2010PropOp32
 70
     1
102
RTVSPost2010Prop33
280
     0
102
RTVSPost2010PropOp33
 70
     1
102
RTVSPost2010Prop34
280
     0
102
RTVSPost2010PropOp34
 70
     1
102
RTVSPost2010Prop35
280
     0
102
RTVSPost2010PropOp35
 70
     1
102
RTVSPost2010Prop36
280
     0
102
RTVSPost2010PropOp36
 70
     1
102
RTVSPost2010Prop37
 90
       50
102
RTVSPost2010PropOp37
 70
     1
102
RTVSPost2010Prop38
140
0.0
102
RTVSPost2010PropOp38
 70
     1
102
RTVSPost2010Prop39
140
1.0
102
RTVSPost2010PropOp39
 70
     1
102
RTVSPost2010Prop40
 90
        0
102
RTVSPost2010PropOp40
 70
     1
102
RTVSPost2010Prop41ColorIndex
 90
       18
102
RTVSPost2010Prop41ColorRGB
 90
        0
102
RTVSPost2010PropOp41
 70
     1
102
RTVSPost2010Prop42
 90
       50
102
RTVSPost2010PropOp42
 70
     1
102
RTVSPost2010Prop43
 90
        3
102
RTVSPost2010PropOp43
 70
     1
102
RTVSPost2010Prop44ColorIndex
 90
        5
102
RTVSPost2010Prop44ColorRGB
 90
      255
102
RTVSPost2010PropOp44
 70
     1
102
RTVSPost2010Prop45
280
     0
102
RTVSPost2010PropOp45
 70
     1
102
RTVSPost2010Prop46
 90
       50
102
RTVSPost2010PropOp46
 70
     1
102
RTVSPost2010Prop47
 90
       50
102
RTVSPost2010PropOp47
 70
     1
102
RTVSPost2010Prop48
 90
       50
102
RTVSPost2010PropOp48
 70
     1
102
RTVSPost2010Prop49
280
     0
102
RTVSPost2010PropOp49
 70
     1
102
RTVSPost2010Prop50
 90
       50
102
RTVSPost2010PropOp50
 70
     1
102
RTVSPost2010Prop51ColorIndex
 90
      256
102
RTVSPost2010Prop51ColorRGB
 90
-16777216
102
RTVSPost2010PropOp51
 70
     0
102
RTVSPost2010Prop52
140
1.0
102
RTVSPost2010PropOp52
 70
     0
102
RTVSPost2010Prop53
 90
        2
102
RTVSPost2010PropOp53
 70
     1
102
RTVSPost2010Prop54
  1
strokes_ogs.tif
102
RTVSPost2010PropOp54
 70
     1
102
RTVSPost2010Prop55
280
     0
102
RTVSPost2010PropOp55
 70
     1
102
RTVSPost2010Prop56
140
1.0
102
RTVSPost2010PropOp56
 70
     1
102
RTVSPost2010Prop57
140
1.0
102
RTVSPost2010PropOp57
 70
     1
  0
XRECORD
  5
21C
102
{ACAD_REACTORS
330
21B
102
}
330
21B
100
AcDbXrecord
280
     1
102
RTVSPost2010Prop28
280
     0
102
RTVSPost2010PropOp28
 70
     0
102
RTVSPost2010Prop29
280
     1
102
RTVSPost2010PropOp29
 70
     0
102
RTVSPost2010Prop30
280
     1
102
RTVSPost2010PropOp30
 70
     0
102
RTVSPost2010Prop31
280
     0
102
RTVSPost2010PropOp31
 70
     0
102
RTVSPost2010Prop32
280
     0
102
RTVSPost2010PropOp32
 70
     0
102
RTVSPost2010Prop33
280
     0
102
RTVSPost2010PropOp33
 70
     0
102
RTVSPost2010Prop34
280
     0
102
RTVSPost2010PropOp34
 70
     0
102
RTVSPost2010Prop35
280
     0
102
RTVSPost2010PropOp35
 70
     0
102
RTVSPost2010Prop36
280
     0
102
RTVSPost2010PropOp36
 70
     0
102
RTVSPost2010Prop37
 90
       50
102
RTVSPost2010PropOp37
 70
     0
102
RTVSPost2010Prop38
140
0.0
102
RTVSPost2010PropOp38
 70
     0
102
RTVSPost2010Prop39
140
1.0
102
RTVSPost2010PropOp39
 70
     0
102
RTVSPost2010Prop40
 90
        0
102
RTVSPost2010PropOp40
 70
     0
102
RTVSPost2010Prop41ColorIndex
 90
       18
102
RTVSPost2010Prop41ColorRGB
 90
        0
102
RTVSPost2010PropOp41
 70
     0
102
RTVSPost2010Prop42
 90
       50
102
RTVSPost2010PropOp42
 70
     0
102
RTVSPost2010Prop43
 90
        3
102
RTVSPost2010PropOp43
 70
     0
102
RTVSPost2010Prop44ColorIndex
 90
        5
102
RTVSPost2010Prop44ColorRGB
 90
      255
102
RTVSPost2010PropOp44
 70
     0
102
RTVSPost2010Prop45
280
     0
102
RTVSPost2010PropOp45
 70
     0
102
RTVSPost2010Prop46
 90
       50
102
RTVSPost2010PropOp46
 70
     0
102
RTVSPost2010Prop47
 90
       50
102
RTVSPost2010PropOp47
 70
     0
102
RTVSPost2010Prop48
 90
       50
102
RTVSPost2010PropOp48
 70
     0
102
RTVSPost2010Prop49
280
     0
102
RTVSPost2010PropOp49
 70
     0
102
RTVSPost2010Prop50
 90
       50
102
RTVSPost2010PropOp50
 70
     0
102
RTVSPost2010Prop51ColorIndex
 90
      256
102
RTVSPost2010Prop51ColorRGB
 90
-16777216
102
RTVSPost2010PropOp51
 70
     0
102
RTVSPost2010Prop52
140
1.0
102
RTVSPost2010PropOp52
 70
     0
102
RTVSPost2010Prop53
 90
        2
102
RTVSPost2010PropOp53
 70
     0
102
RTVSPost2010Prop54
  1
strokes_ogs.tif
102
RTVSPost2010PropOp54
 70
     0
102
RTVSPost2010Prop55
280
     0
102
RTVSPost2010PropOp55
 70
     0
102
RTVSPost2010Prop56
140
1.0
102
RTVSPost2010PropOp56
 70
     0
102
RTVSPost2010Prop57
140
1.0
102
RTVSPost2010PropOp57
 70
     0
  0
XRECORD
  5
216
102
{ACAD_REACTORS
330
215
102
}
330
215
100
AcDbXrecord
280
     1
102
RTVSPost2010Prop28
280
     0
102
RTVSPost2010PropOp28
 70
     1
102
RTVSPost2010Prop29
280
     1
102
RTVSPost2010PropOp29
 70
     1
102
RTVSPost2010Prop30
280
     1
102
RTVSPost2010PropOp30
 70
     1
102
RTVSPost2010Prop31
280
     0
102
RTVSPost2010PropOp31
 70
     1
102
RTVSPost2010Prop32
280
     0
102
RTVSPost2010PropOp32
 70
     1
102
RTVSPost2010Prop33
280
     0
102
RTVSPost2010PropOp33
 70
     1
102
RTVSPost2010Prop34
280
     0
102
RTVSPost2010PropOp34
 70
     1
102
RTVSPost2010Prop35
280
     0
102
RTVSPost2010PropOp35
 70
     1
102
RTVSPost2010Prop36
280
     0
102
RTVSPost2010PropOp36
 70
     1
102
RTVSPost2010Prop37
 90
       50
102
RTVSPost2010PropOp37
 70
     1
102
RTVSPost2010Prop38
140
0.0
102
RTVSPost2010PropOp38
 70
     1
102
RTVSPost2010Prop39
140
1.0
102
RTVSPost2010PropOp39
 70
     1
102
RTVSPost2010Prop40
 90
        0
102
RTVSPost2010PropOp40
 70
     1
102
RTVSPost2010Prop41ColorIndex
 90
       18
102
RTVSPost2010Prop41ColorRGB
 90
        0
102
RTVSPost2010PropOp41
 70
     1
102
RTVSPost2010Prop42
 90
       50
102
RTVSPost2010PropOp42
 70
     1
102
RTVSPost2010Prop43
 90
        3
102
RTVSPost2010PropOp43
 70
     1
102
RTVSPost2010Prop44ColorIndex
 90
        5
102
RTVSPost2010Prop44ColorRGB
 90
      255
102
RTVSPost2010PropOp44
 70
     1
102
RTVSPost2010Prop45
280
     0
102
RTVSPost2010PropOp45
 70
     1
102
RTVSPost2010Prop46
 90
       50
102
RTVSPost2010PropOp46
 70
     1
102
RTVSPost2010Prop47
 90
       50
102
RTVSPost2010PropOp47
 70
     1
102
RTVSPost2010Prop48
 90
       50
102
RTVSPost2010PropOp48
 70
     1
102
RTVSPost2010Prop49
280
     0
102
RTVSPost2010PropOp49
 70
     1
102
RTVSPost2010Prop50
 90
       50
102
RTVSPost2010PropOp50
 70
     1
102
RTVSPost2010Prop51ColorIndex
 90
      256
102
RTVSPost2010Prop51ColorRGB
 90
-16777216
102
RTVSPost2010PropOp51
 70
     0
102
RTVSPost2010Prop52
140
1.0
102
RTVSPost2010PropOp52
 70
     0
102
RTVSPost2010Prop53
 90
        2
102
RTVSPost2010PropOp53
 70
     1
102
RTVSPost2010Prop54
  1
strokes_ogs.tif
102
RTVSPost2010PropOp54
 70
     1
102
RTVSPost2010Prop55
280
     0
102
RTVSPost2010PropOp55
 70
     1
102
RTVSPost2010Prop56
140
1.0
102
RTVSPost2010PropOp56
 70
     1
102
RTVSPost2010Prop57
140
1.0
102
RTVSPost2010PropOp57
 70
     1
  0
XRECORD
  5
21E
102
{ACAD_REACTORS
330
21D
102
}
330
21D
100
AcDbXrecord
280
     1
102
RTVSPost2010Prop28
280
     0
102
RTVSPost2010PropOp28
 70
     0
102
RTVSPost2010Prop29
280
     1
102
RTVSPost2010PropOp29
 70
     0
102
RTVSPost2010Prop30
280
     1
102
RTVSPost2010PropOp30
 70
     0
102
RTVSPost2010Prop31
280
     0
102
RTVSPost2010PropOp31
 70
     0
102
RTVSPost2010Prop32
280
     0
102
RTVSPost2010PropOp32
 70
     0
102
RTVSPost2010Prop33
280
     0
102
RTVSPost2010PropOp33
 70
     0
102
RTVSPost2010Prop34
280
     0
102
RTVSPost2010PropOp34
 70
     0
102
RTVSPost2010Prop35
280
     0
102
RTVSPost2010PropOp35
 70
     0
102
RTVSPost2010Prop36
280
     0
102
RTVSPost2010PropOp36
 70
     0
102
RTVSPost2010Prop37
 90
       50
102
RTVSPost2010PropOp37
 70
     0
102
RTVSPost2010Prop38
140
0.0
102
RTVSPost2010PropOp38
 70
     0
102
RTVSPost2010Prop39
140
1.0
102
RTVSPost2010PropOp39
 70
     0
102
RTVSPost2010Prop40
 90
        0
102
RTVSPost2010PropOp40
 70
     0
102
RTVSPost2010Prop41ColorIndex
 90
       18
102
RTVSPost2010Prop41ColorRGB
 90
        0
102
RTVSPost2010PropOp41
 70
     0
102
RTVSPost2010Prop42
 90
       50
102
RTVSPost2010PropOp42
 70
     0
102
RTVSPost2010Prop43
 90
        3
102
RTVSPost2010PropOp43
 70
     0
102
RTVSPost2010Prop44ColorIndex
 90
        5
102
RTVSPost2010Prop44ColorRGB
 90
      255
102
RTVSPost2010PropOp44
 70
     0
102
RTVSPost2010Prop45
280
     0
102
RTVSPost2010PropOp45
 70
     0
102
RTVSPost2010Prop46
 90
       50
102
RTVSPost2010PropOp46
 70
     0
102
RTVSPost2010Prop47
 90
       50
102
RTVSPost2010PropOp47
 70
     0
102
RTVSPost2010Prop48
 90
       50
102
RTVSPost2010PropOp48
 70
     0
102
RTVSPost2010Prop49
280
     0
102
RTVSPost2010PropOp49
 70
     0
102
RTVSPost2010Prop50
 90
       50
102
RTVSPost2010PropOp50
 70
     0
102
RTVSPost2010Prop51ColorIndex
 90
      256
102
RTVSPost2010Prop51ColorRGB
 90
-16777216
102
RTVSPost2010PropOp51
 70
     0
102
RTVSPost2010Prop52
140
1.0
102
RTVSPost2010PropOp52
 70
     0
102
RTVSPost2010Prop53
 90
        2
102
RTVSPost2010PropOp53
 70
     0
102
RTVSPost2010Prop54
  1
strokes_ogs.tif
102
RTVSPost2010PropOp54
 70
     0
102
RTVSPost2010Prop55
280
     0
102
RTVSPost2010PropOp55
 70
     0
102
RTVSPost2010Prop56
140
1.0
102
RTVSPost2010PropOp56
 70
     0
102
RTVSPost2010Prop57
140
1.0
102
RTVSPost2010PropOp57
 70
     0
  0
XRECORD
  5
20C
102
{ACAD_REACTORS
330
20B
102
}
330
20B
100
AcDbXrecord
280
     1
102
RTVSPost2010Prop28
280
     0
102
RTVSPost2010PropOp28
 70
     1
102
RTVSPost2010Prop29
280
     1
102
RTVSPost2010PropOp29
 70
     1
102
RTVSPost2010Prop30
280
     1
102
RTVSPost2010PropOp30
 70
     1
102
RTVSPost2010Prop31
280
     0
102
RTVSPost2010PropOp31
 70
     1
102
RTVSPost2010Prop32
280
     0
102
RTVSPost2010PropOp32
 70
     1
102
RTVSPost2010Prop33
280
     0
102
RTVSPost2010PropOp33
 70
     1
102
RTVSPost2010Prop34
280
     0
102
RTVSPost2010PropOp34
 70
     1
102
RTVSPost2010Prop35
280
     0
102
RTVSPost2010PropOp35
 70
     1
102
RTVSPost2010Prop36
280
     0
102
RTVSPost2010PropOp36
 70
     1
102
RTVSPost2010Prop37
 90
       50
102
RTVSPost2010PropOp37
 70
     1
102
RTVSPost2010Prop38
140
0.0
102
RTVSPost2010PropOp38
 70
     1
102
RTVSPost2010Prop39
140
1.0
102
RTVSPost2010PropOp39
 70
     1
102
RTVSPost2010Prop40
 90
        0
102
RTVSPost2010PropOp40
 70
     1
102
RTVSPost2010Prop41ColorIndex
 90
       18
102
RTVSPost2010Prop41ColorRGB
 90
        0
102
RTVSPost2010PropOp41
 70
     1
102
RTVSPost2010Prop42
 90
       50
102
RTVSPost2010PropOp42
 70
     1
102
RTVSPost2010Prop43
 90
        3
102
RTVSPost2010PropOp43
 70
     1
102
RTVSPost2010Prop44ColorIndex
 90
        5
102
RTVSPost2010Prop44ColorRGB
 90
      255
102
RTVSPost2010PropOp44
 70
     1
102
RTVSPost2010Prop45
280
     0
102
RTVSPost2010PropOp45
 70
     1
102
RTVSPost2010Prop46
 90
       50
102
RTVSPost2010PropOp46
 70
     1
102
RTVSPost2010Prop47
 90
       50
102
RTVSPost2010PropOp47
 70
     1
102
RTVSPost2010Prop48
 90
       50
102
RTVSPost2010PropOp48
 70
     1
102
RTVSPost2010Prop49
280
     0
102
RTVSPost2010PropOp49
 70
     1
102
RTVSPost2010Prop50
 90
       50
102
RTVSPost2010PropOp50
 70
     1
102
RTVSPost2010Prop51ColorIndex
 90
      256
102
RTVSPost2010Prop51ColorRGB
 90
-16777216
102
RTVSPost2010PropOp51
 70
     0
102
RTVSPost2010Prop52
140
1.0
102
RTVSPost2010PropOp52
 70
     0
102
RTVSPost2010Prop53
 90
        2
102
RTVSPost2010PropOp53
 70
     1
102
RTVSPost2010Prop54
  1
strokes_ogs.tif
102
RTVSPost2010PropOp54
 70
     1
102
RTVSPost2010Prop55
280
     0
102
RTVSPost2010PropOp55
 70
     1
102
RTVSPost2010Prop56
140
1.0
102
RTVSPost2010PropOp56
 70
     1
102
RTVSPost2010Prop57
140
1.0
102
RTVSPost2010PropOp57
 70
     1
  0
XRECORD
  5
22A
102
{ACAD_REACTORS
330
229
102
}
330
229
100
AcDbXrecord
280
     1
102
RTVSPost2010Prop28
280
     0
102
RTVSPost2010PropOp28
 70
     1
102
RTVSPost2010Prop29
280
     1
102
RTVSPost2010PropOp29
 70
     1
102
RTVSPost2010Prop30
280
     1
102
RTVSPost2010PropOp30
 70
     1
102
RTVSPost2010Prop31
280
     0
102
RTVSPost2010PropOp31
 70
     1
102
RTVSPost2010Prop32
280
     0
102
RTVSPost2010PropOp32
 70
     1
102
RTVSPost2010Prop33
280
     0
102
RTVSPost2010PropOp33
 70
     1
102
RTVSPost2010Prop34
280
     0
102
RTVSPost2010PropOp34
 70
     1
102
RTVSPost2010Prop35
280
     0
102
RTVSPost2010PropOp35
 70
     1
102
RTVSPost2010Prop36
280
     0
102
RTVSPost2010PropOp36
 70
     1
102
RTVSPost2010Prop37
 90
       50
102
RTVSPost2010PropOp37
 70
     1
102
RTVSPost2010Prop38
140
0.0
102
RTVSPost2010PropOp38
 70
     1
102
RTVSPost2010Prop39
140
1.0
102
RTVSPost2010PropOp39
 70
     1
102
RTVSPost2010Prop40
 90
        0
102
RTVSPost2010PropOp40
 70
     1
102
RTVSPost2010Prop41ColorIndex
 90
       18
102
RTVSPost2010Prop41ColorRGB
 90
        0
102
RTVSPost2010PropOp41
 70
     1
102
RTVSPost2010Prop42
 90
       50
102
RTVSPost2010PropOp42
 70
     1
102
RTVSPost2010Prop43
 90
        3
102
RTVSPost2010PropOp43
 70
     1
102
RTVSPost2010Prop44ColorIndex
 90
        5
102
RTVSPost2010Prop44ColorRGB
 90
      255
102
RTVSPost2010PropOp44
 70
     1
102
RTVSPost2010Prop45
280
     0
102
RTVSPost2010PropOp45
 70
     1
102
RTVSPost2010Prop46
 90
       50
102
RTVSPost2010PropOp46
 70
     1
102
RTVSPost2010Prop47
 90
       50
102
RTVSPost2010PropOp47
 70
     1
102
RTVSPost2010Prop48
 90
       50
102
RTVSPost2010PropOp48
 70
     1
102
RTVSPost2010Prop49
280
     0
102
RTVSPost2010PropOp49
 70
     1
102
RTVSPost2010Prop50
 90
       50
102
RTVSPost2010PropOp50
 70
     1
102
RTVSPost2010Prop51ColorIndex
 90
      256
102
RTVSPost2010Prop51ColorRGB
 90
-16777216
102
RTVSPost2010PropOp51
 70
     0
102
RTVSPost2010Prop52
140
1.0
102
RTVSPost2010PropOp52
 70
     0
102
RTVSPost2010Prop53
 90
        2
102
RTVSPost2010PropOp53
 70
     1
102
RTVSPost2010Prop54
  1
strokes_ogs.tif
102
RTVSPost2010PropOp54
 70
     1
102
RTVSPost2010Prop55
280
     0
102
RTVSPost2010PropOp55
 70
     1
102
RTVSPost2010Prop56
140
1.0
102
RTVSPost2010PropOp56
 70
     1
102
RTVSPost2010Prop57
140
1.0
102
RTVSPost2010PropOp57
 70
     1
  0
XRECORD
  5
228
102
{ACAD_REACTORS
330
227
102
}
330
227
100
AcDbXrecord
280
     1
102
RTVSPost2010Prop28
280
     0
102
RTVSPost2010PropOp28
 70
     1
102
RTVSPost2010Prop29
280
     1
102
RTVSPost2010PropOp29
 70
     1
102
RTVSPost2010Prop30
280
     1
102
RTVSPost2010PropOp30
 70
     1
102
RTVSPost2010Prop31
280
     0
102
RTVSPost2010PropOp31
 70
     1
102
RTVSPost2010Prop32
280
     0
102
RTVSPost2010PropOp32
 70
     1
102
RTVSPost2010Prop33
280
     0
102
RTVSPost2010PropOp33
 70
     1
102
RTVSPost2010Prop34
280
     0
102
RTVSPost2010PropOp34
 70
     1
102
RTVSPost2010Prop35
280
     0
102
RTVSPost2010PropOp35
 70
     1
102
RTVSPost2010Prop36
280
     0
102
RTVSPost2010PropOp36
 70
     1
102
RTVSPost2010Prop37
 90
       50
102
RTVSPost2010PropOp37
 70
     1
102
RTVSPost2010Prop38
140
0.0
102
RTVSPost2010PropOp38
 70
     1
102
RTVSPost2010Prop39
140
1.0
102
RTVSPost2010PropOp39
 70
     1
102
RTVSPost2010Prop40
 90
        0
102
RTVSPost2010PropOp40
 70
     1
102
RTVSPost2010Prop41ColorIndex
 90
       18
102
RTVSPost2010Prop41ColorRGB
 90
        0
102
RTVSPost2010PropOp41
 70
     1
102
RTVSPost2010Prop42
 90
       50
102
RTVSPost2010PropOp42
 70
     1
102
RTVSPost2010Prop43
 90
        3
102
RTVSPost2010PropOp43
 70
     1
102
RTVSPost2010Prop44ColorIndex
 90
        5
102
RTVSPost2010Prop44ColorRGB
 90
      255
102
RTVSPost2010PropOp44
 70
     1
102
RTVSPost2010Prop45
280
     0
102
RTVSPost2010PropOp45
 70
     1
102
RTVSPost2010Prop46
 90
       50
102
RTVSPost2010PropOp46
 70
     1
102
RTVSPost2010Prop47
 90
       50
102
RTVSPost2010PropOp47
 70
     1
102
RTVSPost2010Prop48
 90
       50
102
RTVSPost2010PropOp48
 70
     1
102
RTVSPost2010Prop49
280
     0
102
RTVSPost2010PropOp49
 70
     1
102
RTVSPost2010Prop50
 90
       50
102
RTVSPost2010PropOp50
 70
     1
102
RTVSPost2010Prop51ColorIndex
 90
      256
102
RTVSPost2010Prop51ColorRGB
 90
-16777216
102
RTVSPost2010PropOp51
 70
     0
102
RTVSPost2010Prop52
140
1.0
102
RTVSPost2010PropOp52
 70
     0
102
RTVSPost2010Prop53
 90
        2
102
RTVSPost2010PropOp53
 70
     1
102
RTVSPost2010Prop54
  1
strokes_ogs.tif
102
RTVSPost2010PropOp54
 70
     1
102
RTVSPost2010Prop55
280
     0
102
RTVSPost2010PropOp55
 70
     1
102
RTVSPost2010Prop56
140
1.0
102
RTVSPost2010PropOp56
 70
     1
102
RTVSPost2010Prop57
140
1.0
102
RTVSPost2010PropOp57
 70
     1
  0
XRECORD
  5
222
102
{ACAD_REACTORS
330
221
102
}
330
221
100
AcDbXrecord
280
     1
102
RTVSPost2010Prop28
280
     0
102
RTVSPost2010PropOp28
 70
     1
102
RTVSPost2010Prop29
280
     1
102
RTVSPost2010PropOp29
 70
     1
102
RTVSPost2010Prop30
280
     1
102
RTVSPost2010PropOp30
 70
     1
102
RTVSPost2010Prop31
280
     0
102
RTVSPost2010PropOp31
 70
     1
102
RTVSPost2010Prop32
280
     0
102
RTVSPost2010PropOp32
 70
     1
102
RTVSPost2010Prop33
280
     0
102
RTVSPost2010PropOp33
 70
     1
102
RTVSPost2010Prop34
280
     0
102
RTVSPost2010PropOp34
 70
     1
102
RTVSPost2010Prop35
280
     0
102
RTVSPost2010PropOp35
 70
     1
102
RTVSPost2010Prop36
280
     0
102
RTVSPost2010PropOp36
 70
     1
102
RTVSPost2010Prop37
 90
       50
102
RTVSPost2010PropOp37
 70
     1
102
RTVSPost2010Prop38
140
0.0
102
RTVSPost2010PropOp38
 70
     1
102
RTVSPost2010Prop39
140
1.0
102
RTVSPost2010PropOp39
 70
     1
102
RTVSPost2010Prop40
 90
        0
102
RTVSPost2010PropOp40
 70
     1
102
RTVSPost2010Prop41ColorIndex
 90
       18
102
RTVSPost2010Prop41ColorRGB
 90
        0
102
RTVSPost2010PropOp41
 70
     1
102
RTVSPost2010Prop42
 90
       50
102
RTVSPost2010PropOp42
 70
     1
102
RTVSPost2010Prop43
 90
        3
102
RTVSPost2010PropOp43
 70
     1
102
RTVSPost2010Prop44ColorIndex
 90
        5
102
RTVSPost2010Prop44ColorRGB
 90
      255
102
RTVSPost2010PropOp44
 70
     1
102
RTVSPost2010Prop45
280
     0
102
RTVSPost2010PropOp45
 70
     1
102
RTVSPost2010Prop46
 90
       50
102
RTVSPost2010PropOp46
 70
     1
102
RTVSPost2010Prop47
 90
       50
102
RTVSPost2010PropOp47
 70
     1
102
RTVSPost2010Prop48
 90
       50
102
RTVSPost2010PropOp48
 70
     1
102
RTVSPost2010Prop49
280
     0
102
RTVSPost2010PropOp49
 70
     1
102
RTVSPost2010Prop50
 90
       50
102
RTVSPost2010PropOp50
 70
     1
102
RTVSPost2010Prop51ColorIndex
 90
      256
102
RTVSPost2010Prop51ColorRGB
 90
-16777216
102
RTVSPost2010PropOp51
 70
     0
102
RTVSPost2010Prop52
140
1.0
102
RTVSPost2010PropOp52
 70
     0
102
RTVSPost2010Prop53
 90
        2
102
RTVSPost2010PropOp53
 70
     1
102
RTVSPost2010Prop54
  1
strokes_ogs.tif
102
RTVSPost2010PropOp54
 70
     1
102
RTVSPost2010Prop55
280
     0
102
RTVSPost2010PropOp55
 70
     1
102
RTVSPost2010Prop56
140
1.0
102
RTVSPost2010PropOp56
 70
     1
102
RTVSPost2010Prop57
140
1.0
102
RTVSPost2010PropOp57
 70
     1
  0
XRECORD
  5
224
102
{ACAD_REACTORS
330
223
102
}
330
223
100
AcDbXrecord
280
     1
102
RTVSPost2010Prop28
280
     0
102
RTVSPost2010PropOp28
 70
     1
102
RTVSPost2010Prop29
280
     1
102
RTVSPost2010PropOp29
 70
     1
102
RTVSPost2010Prop30
280
     1
102
RTVSPost2010PropOp30
 70
     1
102
RTVSPost2010Prop31
280
     0
102
RTVSPost2010PropOp31
 70
     1
102
RTVSPost2010Prop32
280
     0
102
RTVSPost2010PropOp32
 70
     1
102
RTVSPost2010Prop33
280
     0
102
RTVSPost2010PropOp33
 70
     1
102
RTVSPost2010Prop34
280
     0
102
RTVSPost2010PropOp34
 70
     1
102
RTVSPost2010Prop35
280
     0
102
RTVSPost2010PropOp35
 70
     1
102
RTVSPost2010Prop36
280
     0
102
RTVSPost2010PropOp36
 70
     1
102
RTVSPost2010Prop37
 90
       50
102
RTVSPost2010PropOp37
 70
     1
102
RTVSPost2010Prop38
140
0.0
102
RTVSPost2010PropOp38
 70
     1
102
RTVSPost2010Prop39
140
1.0
102
RTVSPost2010PropOp39
 70
     1
102
RTVSPost2010Prop40
 90
        0
102
RTVSPost2010PropOp40
 70
     1
102
RTVSPost2010Prop41ColorIndex
 90
       18
102
RTVSPost2010Prop41ColorRGB
 90
        0
102
RTVSPost2010PropOp41
 70
     1
102
RTVSPost2010Prop42
 90
       50
102
RTVSPost2010PropOp42
 70
     1
102
RTVSPost2010Prop43
 90
        3
102
RTVSPost2010PropOp43
 70
     1
102
RTVSPost2010Prop44ColorIndex
 90
        5
102
RTVSPost2010Prop44ColorRGB
 90
      255
102
RTVSPost2010PropOp44
 70
     1
102
RTVSPost2010Prop45
280
     0
102
RTVSPost2010PropOp45
 70
     1
102
RTVSPost2010Prop46
 90
       50
102
RTVSPost2010PropOp46
 70
     1
102
RTVSPost2010Prop47
 90
       50
102
RTVSPost2010PropOp47
 70
     1
102
RTVSPost2010Prop48
 90
       50
102
RTVSPost2010PropOp48
 70
     1
102
RTVSPost2010Prop49
280
     0
102
RTVSPost2010PropOp49
 70
     1
102
RTVSPost2010Prop50
 90
       50
102
RTVSPost2010PropOp50
 70
     1
102
RTVSPost2010Prop51ColorIndex
 90
      256
102
RTVSPost2010Prop51ColorRGB
 90
-16777216
102
RTVSPost2010PropOp51
 70
     0
102
RTVSPost2010Prop52
140
1.0
102
RTVSPost2010PropOp52
 70
     0
102
RTVSPost2010Prop53
 90
        2
102
RTVSPost2010PropOp53
 70
     1
102
RTVSPost2010Prop54
  1
strokes_ogs.tif
102
RTVSPost2010PropOp54
 70
     1
102
RTVSPost2010Prop55
280
     0
102
RTVSPost2010PropOp55
 70
     1
102
RTVSPost2010Prop56
140
1.0
102
RTVSPost2010PropOp56
 70
     1
102
RTVSPost2010Prop57
140
1.0
102
RTVSPost2010PropOp57
 70
     1
  0
XRECORD
  5
214
102
{ACAD_REACTORS
330
213
102
}
330
213
100
AcDbXrecord
280
     1
102
RTVSPost2010Prop28
280
     0
102
RTVSPost2010PropOp28
 70
     1
102
RTVSPost2010Prop29
280
     1
102
RTVSPost2010PropOp29
 70
     1
102
RTVSPost2010Prop30
280
     1
102
RTVSPost2010PropOp30
 70
     1
102
RTVSPost2010Prop31
280
     0
102
RTVSPost2010PropOp31
 70
     1
102
RTVSPost2010Prop32
280
     0
102
RTVSPost2010PropOp32
 70
     1
102
RTVSPost2010Prop33
280
     0
102
RTVSPost2010PropOp33
 70
     1
102
RTVSPost2010Prop34
280
     0
102
RTVSPost2010PropOp34
 70
     1
102
RTVSPost2010Prop35
280
     0
102
RTVSPost2010PropOp35
 70
     1
102
RTVSPost2010Prop36
280
     0
102
RTVSPost2010PropOp36
 70
     1
102
RTVSPost2010Prop37
 90
       50
102
RTVSPost2010PropOp37
 70
     1
102
RTVSPost2010Prop38
140
0.0
102
RTVSPost2010PropOp38
 70
     1
102
RTVSPost2010Prop39
140
1.0
102
RTVSPost2010PropOp39
 70
     1
102
RTVSPost2010Prop40
 90
        0
102
RTVSPost2010PropOp40
 70
     1
102
RTVSPost2010Prop41ColorIndex
 90
       18
102
RTVSPost2010Prop41ColorRGB
 90
        0
102
RTVSPost2010PropOp41
 70
     1
102
RTVSPost2010Prop42
 90
       50
102
RTVSPost2010PropOp42
 70
     1
102
RTVSPost2010Prop43
 90
        3
102
RTVSPost2010PropOp43
 70
     1
102
RTVSPost2010Prop44ColorIndex
 90
        5
102
RTVSPost2010Prop44ColorRGB
 90
      255
102
RTVSPost2010PropOp44
 70
     1
102
RTVSPost2010Prop45
280
     0
102
RTVSPost2010PropOp45
 70
     1
102
RTVSPost2010Prop46
 90
       50
102
RTVSPost2010PropOp46
 70
     1
102
RTVSPost2010Prop47
 90
       50
102
RTVSPost2010PropOp47
 70
     1
102
RTVSPost2010Prop48
 90
       50
102
RTVSPost2010PropOp48
 70
     1
102
RTVSPost2010Prop49
280
     0
102
RTVSPost2010PropOp49
 70
     1
102
RTVSPost2010Prop50
 90
       50
102
RTVSPost2010PropOp50
 70
     1
102
RTVSPost2010Prop51ColorIndex
 90
      256
102
RTVSPost2010Prop51ColorRGB
 90
-16777216
102
RTVSPost2010PropOp51
 70
     0
102
RTVSPost2010Prop52
140
1.0
102
RTVSPost2010PropOp52
 70
     0
102
RTVSPost2010Prop53
 90
        2
102
RTVSPost2010PropOp53
 70
     1
102
RTVSPost2010Prop54
  1
strokes_ogs.tif
102
RTVSPost2010PropOp54
 70
     1
102
RTVSPost2010Prop55
280
     0
102
RTVSPost2010PropOp55
 70
     1
102
RTVSPost2010Prop56
140
1.0
102
RTVSPost2010PropOp56
 70
     1
102
RTVSPost2010Prop57
140
1.0
102
RTVSPost2010PropOp57
 70
     1
  0
XRECORD
  5
206
102
{ACAD_REACTORS
330
205
102
}
330
205
100
AcDbXrecord
280
     1
102
RTVSPost2010Prop28
280
     0
102
RTVSPost2010PropOp28
 70
     1
102
RTVSPost2010Prop29
280
     1
102
RTVSPost2010PropOp29
 70
     1
102
RTVSPost2010Prop30
280
     1
102
RTVSPost2010PropOp30
 70
     1
102
RTVSPost2010Prop31
280
     0
102
RTVSPost2010PropOp31
 70
     1
102
RTVSPost2010Prop32
280
     0
102
RTVSPost2010PropOp32
 70
     1
102
RTVSPost2010Prop33
280
     0
102
RTVSPost2010PropOp33
 70
     1
102
RTVSPost2010Prop34
280
     0
102
RTVSPost2010PropOp34
 70
     1
102
RTVSPost2010Prop35
280
     0
102
RTVSPost2010PropOp35
 70
     1
102
RTVSPost2010Prop36
280
     0
102
RTVSPost2010PropOp36
 70
     1
102
RTVSPost2010Prop37
 90
       50
102
RTVSPost2010PropOp37
 70
     1
102
RTVSPost2010Prop38
140
0.0
102
RTVSPost2010PropOp38
 70
     1
102
RTVSPost2010Prop39
140
1.0
102
RTVSPost2010PropOp39
 70
     1
102
RTVSPost2010Prop40
 90
        0
102
RTVSPost2010PropOp40
 70
     1
102
RTVSPost2010Prop41ColorIndex
 90
       18
102
RTVSPost2010Prop41ColorRGB
 90
        0
102
RTVSPost2010PropOp41
 70
     1
102
RTVSPost2010Prop42
 90
       50
102
RTVSPost2010PropOp42
 70
     1
102
RTVSPost2010Prop43
 90
        3
102
RTVSPost2010PropOp43
 70
     1
102
RTVSPost2010Prop44ColorIndex
 90
        5
102
RTVSPost2010Prop44ColorRGB
 90
      255
102
RTVSPost2010PropOp44
 70
     1
102
RTVSPost2010Prop45
280
     0
102
RTVSPost2010PropOp45
 70
     1
102
RTVSPost2010Prop46
 90
       50
102
RTVSPost2010PropOp46
 70
     1
102
RTVSPost2010Prop47
 90
       50
102
RTVSPost2010PropOp47
 70
     1
102
RTVSPost2010Prop48
 90
       50
102
RTVSPost2010PropOp48
 70
     1
102
RTVSPost2010Prop49
280
     0
102
RTVSPost2010PropOp49
 70
     1
102
RTVSPost2010Prop50
 90
       50
102
RTVSPost2010PropOp50
 70
     1
102
RTVSPost2010Prop51ColorIndex
 90
      256
102
RTVSPost2010Prop51ColorRGB
 90
-16777216
102
RTVSPost2010PropOp51
 70
     0
102
RTVSPost2010Prop52
140
1.0
102
RTVSPost2010PropOp52
 70
     0
102
RTVSPost2010Prop53
 90
        2
102
RTVSPost2010PropOp53
 70
     1
102
RTVSPost2010Prop54
  1
strokes_ogs.tif
102
RTVSPost2010PropOp54
 70
     1
102
RTVSPost2010Prop55
280
     0
102
RTVSPost2010PropOp55
 70
     1
102
RTVSPost2010Prop56
140
1.0
102
RTVSPost2010PropOp56
 70
     1
102
RTVSPost2010Prop57
140
1.0
102
RTVSPost2010PropOp57
 70
     1
  0
XRECORD
  5
226
102
{ACAD_REACTORS
330
225
102
}
330
225
100
AcDbXrecord
280
     1
102
RTVSPost2010Prop28
280
     0
102
RTVSPost2010PropOp28
 70
     1
102
RTVSPost2010Prop29
280
     1
102
RTVSPost2010PropOp29
 70
     1
102
RTVSPost2010Prop30
280
     1
102
RTVSPost2010PropOp30
 70
     1
102
RTVSPost2010Prop31
280
     0
102
RTVSPost2010PropOp31
 70
     1
102
RTVSPost2010Prop32
280
     0
102
RTVSPost2010PropOp32
 70
     1
102
RTVSPost2010Prop33
280
     0
102
RTVSPost2010PropOp33
 70
     1
102
RTVSPost2010Prop34
280
     0
102
RTVSPost2010PropOp34
 70
     1
102
RTVSPost2010Prop35
280
     0
102
RTVSPost2010PropOp35
 70
     1
102
RTVSPost2010Prop36
280
     0
102
RTVSPost2010PropOp36
 70
     1
102
RTVSPost2010Prop37
 90
       50
102
RTVSPost2010PropOp37
 70
     1
102
RTVSPost2010Prop38
140
0.0
102
RTVSPost2010PropOp38
 70
     1
102
RTVSPost2010Prop39
140
1.0
102
RTVSPost2010PropOp39
 70
     1
102
RTVSPost2010Prop40
 90
        0
102
RTVSPost2010PropOp40
 70
     1
102
RTVSPost2010Prop41ColorIndex
 90
       18
102
RTVSPost2010Prop41ColorRGB
 90
        0
102
RTVSPost2010PropOp41
 70
     1
102
RTVSPost2010Prop42
 90
       50
102
RTVSPost2010PropOp42
 70
     1
102
RTVSPost2010Prop43
 90
        3
102
RTVSPost2010PropOp43
 70
     1
102
RTVSPost2010Prop44ColorIndex
 90
        5
102
RTVSPost2010Prop44ColorRGB
 90
      255
102
RTVSPost2010PropOp44
 70
     1
102
RTVSPost2010Prop45
280
     0
102
RTVSPost2010PropOp45
 70
     1
102
RTVSPost2010Prop46
 90
       50
102
RTVSPost2010PropOp46
 70
     1
102
RTVSPost2010Prop47
 90
       50
102
RTVSPost2010PropOp47
 70
     1
102
RTVSPost2010Prop48
 90
       50
102
RTVSPost2010PropOp48
 70
     1
102
RTVSPost2010Prop49
280
     0
102
RTVSPost2010PropOp49
 70
     1
102
RTVSPost2010Prop50
 90
       50
102
RTVSPost2010PropOp50
 70
     1
102
RTVSPost2010Prop51ColorIndex
 90
      256
102
RTVSPost2010Prop51ColorRGB
 90
-16777216
102
RTVSPost2010PropOp51
 70
     0
102
RTVSPost2010Prop52
140
1.0
102
RTVSPost2010PropOp52
 70
     0
102
RTVSPost2010Prop53
 90
        2
102
RTVSPost2010PropOp53
 70
     1
102
RTVSPost2010Prop54
  1
strokes_ogs.tif
102
RTVSPost2010PropOp54
 70
     1
102
RTVSPost2010Prop55
280
     0
102
RTVSPost2010PropOp55
 70
     1
102
RTVSPost2010Prop56
140
1.0
102
RTVSPost2010PropOp56
 70
     1
102
RTVSPost2010Prop57
140
1.0
102
RTVSPost2010PropOp57
 70
     1
  0
ENDSEC
  0
EOF
