  0
SECTION
  2
HEADER
  9
$ACADVER
  1
AC1024
  9
$ACADMAINTVER
 70
     6
  9
$DWGCODEPAGE
  3
ANSI_1252
  9
$INSBASE
 10
0.0
 20
0.0
 30
0.0
  9
$EXTMIN
 10
1.000000E+20
 20
1.000000E+20
 30
1.000000E+20
  9
$EXTMAX
 10
-1.000000E+20
 20
-1.000000E+20
 30
-1.000000E+20
  9
$LIMMIN
 10
0.0
 20
0.0
  9
$LIMMAX
 10
420.0
 20
297.0
  9
$ORTHOMODE
 70
     0
  9
$REGENMODE
 70
     1
  9
$FILLMODE
 70
     1
  9
$QTEXTMODE
 70
     0
  9
$MIRRTEXT
 70
     1
  9
$LTSCALE
 40
1.0
  9
$ATTMODE
 70
     1
  9
$TEXTSIZE
 40
2.5
  9
$TRACEWID
 40
1.0
  9
$TEXTSTYLE
  7
Standard
  9
$CLAYER
  8
0
  9
$CELTYPE
  6
ByLayer
  9
$CECOLOR
 62
   256
  9
$CELTSCALE
 40
1.0
  9
$DISPSILH
 70
     0
  9
$DIMSCALE
 40
1.0
  9
$DIMASZ
 40
2.5
  9
$DIMEXO
 40
0.625
  9
$DIMDLI
 40
3.75
  9
$DIMRND
 40
0.0
  9
$DIMDLE
 40
0.0
  9
$DIMEXE
 40
1.25
  9
$DIMTP
 40
0.0
  9
$DIMTM
 40
0.0
  9
$DIMTXT
 40
2.5
  9
$DIMCEN
 40
2.5
  9
$DIMTSZ
 40
0.0
  9
$DIMTOL
 70
     0
  9
$DIMLIM
 70
     0
  9
$DIMTIH
 70
     0
  9
$DIMTOH
 70
     0
  9
$DIMSE1
 70
     0
  9
$DIMSE2
 70
     0
  9
$DIMTAD
 70
     1
  9
$DIMZIN
 70
     8
  9
$DIMBLK
  1

  9
$DIMASO
 70
     1
  9
$DIMSHO
 70
     1
  9
$DIMPOST
  1

  9
$DIMAPOST
  1

  9
$DIMALT
 70
     0
  9
$DIMALTD
 70
     3
  9
$DIMALTF
 40
0.03937
  9
$DIMLFAC
 40
1.0
  9
$DIMTOFL
 70
     1
  9
$DIMTVP
 40
0.0
  9
$DIMTIX
 70
     0
  9
$DIMSOXD
 70
     0
  9
$DIMSAH
 70
     0
  9
$DIMBLK1
  1

  9
$DIMBLK2
  1

  9
$DIMSTYLE
  2
ISO-25
  9
$DIMCLRD
 70
     0
  9
$DIMCLRE
 70
     0
  9
$DIMCLRT
 70
     0
  9
$DIMTFAC
 40
1.0
  9
$DIMGAP
 40
0.625
  9
$DIMJUST
 70
     0
  9
$DIMSD1
 70
     0
  9
$DIMSD2
 70
     0
  9
$DIMTOLJ
 70
     0
  9
$DIMTZIN
 70
     8
  9
$DIMALTZ
 70
     0
  9
$DIMALTTZ
 70
     0
  9
$DIMUPT
 70
     0
  9
$DIMDEC
 70
     2
  9
$DIMTDEC
 70
     2
  9
$DIMALTU
 70
     2
  9
$DIMALTTD
 70
     3
  9
$DIMTXSTY
  7
Standard
  9
$DIMAUNIT
 70
     0
  9
$DIMADEC
 70
     0
  9
$DIMALTRND
 40
0.0
  9
$DIMAZIN
 70
     0
  9
$DIMDSEP
 70
    44
  9
$DIMATFIT
 70
     3
  9
$DIMFRAC
 70
     0
  9
$DIMLDRBLK
  1

  9
$DIMLUNIT
 70
     2
  9
$DIMLWD
 70
    -2
  9
$DIMLWE
 70
    -2
  9
$DIMTMOVE
 70
     0
  9
$DIMFXL
 40
1.0
  9
$DIMFXLON
 70
     0
  9
$DIMJOGANG
 40
0.785398
  9
$DIMTFILL
 70
     0
  9
$DIMTFILLCLR
 70
     0
  9
$DIMARCSYM
 70
     0
  9
$DIMLTYPE
  6

  9
$DIMLTEX1
  6

  9
$DIMLTEX2
  6

  9
$DIMTXTDIRECTION
 70
     0
  9
$LUNITS
 70
     2
  9
$LUPREC
 70
     4
  9
$SKETCHINC
 40
1.0
  9
$FILLETRAD
 40
10.0
  9
$AUNITS
 70
     0
  9
$AUPREC
 70
     0
  9
$MENU
  1
.
  9
$ELEVATION
 40
0.0
  9
$PELEVATION
 40
0.0
  9
$THICKNESS
 40
0.0
  9
$LIMCHECK
 70
     0
  9
$CHAMFERA
 40
0.0
  9
$CHAMFERB
 40
0.0
  9
$CHAMFERC
 40
0.0
  9
$CHAMFERD
 40
0.0
  9
$SKPOLY
 70
     0
  9
$TDCREATE
 40
2458620.454284664
  9
$TDUCREATE
 40
2458620.370951331
  9
$TDUPDATE
 40
2458620.454285266
  9
$TDUUPDATE
 40
2458620.370951933
  9
$TDINDWG
 40
0.0000000116
  9
$TDUSRTIMER
 40
0.0000000116
  9
$USRTIMER
 70
     1
  9
$ANGBASE
 50
0.0
  9
$ANGDIR
 70
     0
  9
$PDMODE
 70
     0
  9
$PDSIZE
 40
0.0
  9
$PLINEWID
 40
0.0
  9
$SPLFRAME
 70
     0
  9
$SPLINETYPE
 70
     6
  9
$SPLINESEGS
 70
     8
  9
$HANDSEED
  5
213
  9
$SURFTAB1
 70
     6
  9
$SURFTAB2
 70
     6
  9
$SURFTYPE
 70
     6
  9
$SURFU
 70
     6
  9
$SURFV
 70
     6
  9
$UCSBASE
  2

  9
$UCSNAME
  2

  9
$UCSORG
 10
0.0
 20
0.0
 30
0.0
  9
$UCSXDIR
 10
1.0
 20
0.0
 30
0.0
  9
$UCSYDIR
 10
0.0
 20
1.0
 30
0.0
  9
$UCSORTHOREF
  2

  9
$UCSORTHOVIEW
 70
     0
  9
$UCSORGTOP
 10
0.0
 20
0.0
 30
0.0
  9
$UCSORGBOTTOM
 10
0.0
 20
0.0
 30
0.0
  9
$UCSORGLEFT
 10
0.0
 20
0.0
 30
0.0
  9
$UCSORGRIGHT
 10
0.0
 20
0.0
 30
0.0
  9
$UCSORGFRONT
 10
0.0
 20
0.0
 30
0.0
  9
$UCSORGBACK
 10
0.0
 20
0.0
 30
0.0
  9
$PUCSBASE
  2

  9
$PUCSNAME
  2

  9
$PUCSORG
 10
0.0
 20
0.0
 30
0.0
  9
$PUCSXDIR
 10
1.0
 20
0.0
 30
0.0
  9
$PUCSYDIR
 10
0.0
 20
1.0
 30
0.0
  9
$PUCSORTHOREF
  2

  9
$PUCSORTHOVIEW
 70
     0
  9
$PUCSORGTOP
 10
0.0
 20
0.0
 30
0.0
  9
$PUCSORGBOTTOM
 10
0.0
 20
0.0
 30
0.0
  9
$PUCSORGLEFT
 10
0.0
 20
0.0
 30
0.0
  9
$PUCSORGRIGHT
 10
0.0
 20
0.0
 30
0.0
  9
$PUCSORGFRONT
 10
0.0
 20
0.0
 30
0.0
  9
$PUCSORGBACK
 10
0.0
 20
0.0
 30
0.0
  9
$USERI1
 70
     0
  9
$USERI2
 70
     0
  9
$USERI3
 70
     0
  9
$USERI4
 70
     0
  9
$USERI5
 70
     0
  9
$USERR1
 40
0.0
  9
$USERR2
 40
0.0
  9
$USERR3
 40
0.0
  9
$USERR4
 40
0.0
  9
$USERR5
 40
0.0
  9
$WORLDVIEW
 70
     1
  9
$SHADEDGE
 70
     3
  9
$SHADEDIF
 70
    70
  9
$TILEMODE
 70
     1
  9
$MAXACTVP
 70
    64
  9
$PINSBASE
 10
0.0
 20
0.0
 30
0.0
  9
$PLIMCHECK
 70
     0
  9
$PEXTMIN
 10
1.000000E+20
 20
1.000000E+20
 30
1.000000E+20
  9
$PEXTMAX
 10
-1.000000E+20
 20
-1.000000E+20
 30
-1.000000E+20
  9
$PLIMMIN
 10
0.0
 20
0.0
  9
$PLIMMAX
 10
420.0
 20
297.0
  9
$UNITMODE
 70
     0
  9
$VISRETAIN
 70
     1
  9
$PLINEGEN
 70
     0
  9
$PSLTSCALE
 70
     1
  9
$TREEDEPTH
 70
  3020
  9
$CMLSTYLE
  2
Standard
  9
$CMLJUST
 70
     0
  9
$CMLSCALE
 40
20.0
  9
$PROXYGRAPHICS
 70
     1
  9
$MEASUREMENT
 70
     1
  9
$CELWEIGHT
370
    -1
  9
$ENDCAPS
280
     0
  9
$JOINSTYLE
280
     0
  9
$LWDISPLAY
290
     0
  9
$INSUNITS
 70
     4
  9
$HYPERLINKBASE
  1

  9
$STYLESHEET
  1

  9
$XEDIT
290
     1
  9
$CEPSNTYPE
380
     0
  9
$PSTYLEMODE
290
     1
  9
$FINGERPRINTGUID
  2
{7F6BCD1D-E47D-487E-BB0A-06EC25B3C3D2}
  9
$VERSIONGUID
  2
{FAEB1C32-E019-11D5-929B-00C0DF256EC4}
  9
$EXTNAMES
290
     1
  9
$PSVPSCALE
 40
0.0
  9
$OLESTARTUP
290
     0
  9
$SORTENTS
280
   127
  9
$INDEXCTL
280
     0
  9
$HIDETEXT
280
     1
  9
$XCLIPFRAME
280
     2
  9
$HALOGAP
280
     0
  9
$OBSCOLOR
 70
   257
  9
$OBSLTYPE
280
     0
  9
$INTERSECTIONDISPLAY
280
     0
  9
$INTERSECTIONCOLOR
 70
   257
  9
$DIMASSOC
280
     2
  9
$PROJECTNAME
  1

  9
$CAMERADISPLAY
290
     0
  9
$LENSLENGTH
 40
50.0
  9
$CAMERAHEIGHT
 40
0.0
  9
$STEPSPERSEC
 40
2.0
  9
$STEPSIZE
 40
6.0
  9
$3DDWFPREC
 40
2.0
  9
$PSOLWIDTH
 40
5.0
  9
$PSOLHEIGHT
 40
80.0
  9
$LOFTANG1
 40
1.570796
  9
$LOFTANG2
 40
1.570796
  9
$LOFTMAG1
 40
0.0
  9
$LOFTMAG2
 40
0.0
  9
$LOFTPARAM
 70
     7
  9
$LOFTNORMALS
280
     1
  9
$LATITUDE
 40
37.795
  9
$LONGITUDE
 40
-122.394
  9
$NORTHDIRECTION
 40
0.0
  9
$TIMEZONE
 70
 -8000
  9
$LIGHTGLYPHDISPLAY
280
     1
  9
$TILEMODELIGHTSYNCH
280
     1
  9
$CMATERIAL
347
44
  9
$SOLIDHIST
280
     0
  9
$SHOWHIST
280
     1
  9
$DWFFRAME
280
     2
  9
$DGNFRAME
280
     2
  9
$REALWORLDSCALE
290
     1
  9
$INTERFERECOLOR
 62
   256
  9
$CSHADOW
280
     0
  9
$SHADOWPLANELOCATION
 40
0.0
  0
ENDSEC
  0
SECTION
  2
CLASSES
  0
CLASS
  1
ACDBDICTIONARYWDFLT
  2
AcDbDictionaryWithDefault
  3
ObjectDBX Classes
 90
        0
 91
        4
280
     0
281
     0
  0
CLASS
  1
VISUALSTYLE
  2
AcDbVisualStyle
  3
ObjectDBX Classes
 90
     4095
 91
        4
280
     0
281
     0
  0
CLASS
  1
MATERIAL
  2
AcDbMaterial
  3
ObjectDBX Classes
 90
     1153
 91
        4
280
     0
281
     0
  0
CLASS
  1
SCALE
  2
AcDbScale
  3
ObjectDBX Classes
 90
     1153
 91
        4
280
     0
281
     0
  0
CLASS
  1
TABLESTYLE
  2
AcDbTableStyle
  3
ObjectDBX Classes
 90
     4095
 91
        4
280
     0
281
     0
  0
CLASS
  1
MLEADERSTYLE
  2
AcDbMLeaderStyle
  3
ACDB_MLEADERSTYLE_CLASS
 90
     4095
 91
        4
280
     0
281
     0
  0
CLASS
  1
SUN
  2
AcDbSun
  3
SCENEOE
 90
     1153
 91
        4
280
     0
281
     0
  0
CLASS
  1
DICTIONARYVAR
  2
AcDbDictionaryVar
  3
ObjectDBX Classes
 90
        0
 91
        4
280
     0
281
     0
  0
CLASS
  1
CELLSTYLEMAP
  2
AcDbCellStyleMap
  3
ObjectDBX Classes
 90
     1152
 91
        4
280
     0
281
     0
  0
ENDSEC
  0
SECTION
  2
TABLES
  0
TABLE
  2
VPORT
  5
8
330
0
100
AcDbSymbolTable
 70
     1
  0
VPORT
  5
29
330
8
100
AcDbSymbolTableRecord
100
AcDbViewportTableRecord
  2
*Active
 70
     0
 10
0.0
 20
0.0
 11
1.0
 21
1.0
 12
344.186916
 22
148.5
 13
0.0
 23
0.0
 14
10.0
 24
10.0
 15
10.0
 25
10.0
 16
0.0
 26
0.0
 36
1.0
 17
0.0
 27
0.0
 37
0.0
 40
297.0
 41
1.972973
 42
50.0
 43
0.0
 44
0.0
 50
0.0
 51
0.0
 71
     0
 72
   100
 73
     1
 74
     3
 75
     0
 76
     0
 77
     0
 78
     0
281
     0
 65
     1
110
0.0
120
0.0
130
0.0
111
1.0
121
0.0
131
0.0
112
0.0
122
1.0
132
0.0
 79
     0
146
0.0
348
2F
 60
     3
 61
     5
292
     1
282
     1
141
0.0
142
0.0
 63
   250
361
6D
  0
ENDTAB
  0
TABLE
  2
LTYPE
  5
5
330
0
100
AcDbSymbolTable
 70
     1
  0
LTYPE
  5
14
330
5
100
AcDbSymbolTableRecord
100
AcDbLinetypeTableRecord
  2
ByBlock
 70
     0
  3

 72
    65
 73
     0
 40
0.0
  0
LTYPE
  5
15
330
5
100
AcDbSymbolTableRecord
100
AcDbLinetypeTableRecord
  2
ByLayer
 70
     0
  3

 72
    65
 73
     0
 40
0.0
  0
LTYPE
  5
16
330
5
100
AcDbSymbolTableRecord
100
AcDbLinetypeTableRecord
  2
Continuous
 70
     0
  3
Solid line
 72
    65
 73
     0
 40
0.0
  0
ENDTAB
  0
TABLE
  2
LAYER
  5
2
330
0
100
AcDbSymbolTable
 70
     1
  0
LAYER
  5
10
330
2
100
AcDbSymbolTableRecord
100
AcDbLayerTableRecord
  2
0
 70
     0
 62
   106
  6
Continuous
370
     0
390
F
347
46
  0
ENDTAB
  0
TABLE
  2
STYLE
  5
3
330
0
100
AcDbSymbolTable
 70
     4
  0
STYLE
  5
11
330
3
100
AcDbSymbolTableRecord
100
AcDbTextStyleTableRecord
  2
Standard
 70
     0
 40
0.0
 41
1.0
 50
0.0
 71
     0
 42
2.5
  3
txt
  4

  0
STYLE
  5
6E
330
3
100
AcDbSymbolTableRecord
100
AcDbTextStyleTableRecord
  2
Default
 70
     0
 40
0.0
 41
1.0
 50
0.0
 71
     0
 42
2.5
  3

  4

1001
ACAD
1000
txt
1071
        0
  0
STYLE
  5
6F
330
3
100
AcDbSymbolTableRecord
100
AcDbTextStyleTableRecord
  2
ISO
 70
     0
 40
0.0
 41
1.0
 50
0.0
 71
     0
 42
2.5
  3

  4

1001
ACAD
1000
txt
1071
        0
  0
STYLE
  5
70
330
3
100
AcDbSymbolTableRecord
100
AcDbTextStyleTableRecord
  2
zucchetti
 70
     0
 40
0.0
 41
1.0
 50
0.0
 71
     0
 42
2.5
  3

  4

1001
ACAD
1000
Arial
1071
        0
  0
ENDTAB
  0
TABLE
  2
VIEW
  5
6
330
0
100
AcDbSymbolTable
 70
     0
  0
ENDTAB
  0
TABLE
  2
UCS
  5
7
330
0
100
AcDbSymbolTable
 70
     0
  0
ENDTAB
  0
TABLE
  2
APPID
  5
9
330
0
100
AcDbSymbolTable
 70
     1
  0
APPID
  5
12
330
9
100
AcDbSymbolTableRecord
100
AcDbRegAppTableRecord
  2
ACAD
 70
     0
  0
ENDTAB
  0
TABLE
  2
DIMSTYLE
  5
A
330
0
100
AcDbSymbolTable
 70
     4
100
AcDbDimStyleTable
  0
DIMSTYLE
105
27
330
A
100
AcDbSymbolTableRecord
100
AcDbDimStyleTableRecord
  2
ISO-25
 70
     0
 41
2.5
 42
0.625
 43
3.75
 44
1.25
 73
     0
 74
     0
 77
     1
 78
     8
140
2.5
141
2.5
143
0.03937
147
0.625
171
     3
172
     1
178
     0
271
     2
272
     2
274
     3
278
    44
283
     0
284
     8
340
11
  0
DIMSTYLE
105
71
330
A
100
AcDbSymbolTableRecord
100
AcDbDimStyleTableRecord
  2
Default
 70
     0
  3
<>
 41
4.375
 42
1.05
 44
2.1
 49
10.01
 73
     0
 74
     0
 77
     1
 78
     8
140
3.5
146
0.4
147
1.75
172
     1
271
     2
178
     3
271
     2
272
     3
284
     8
340
6E
341
72
342
72
  0
DIMSTYLE
105
79
330
A
100
AcDbSymbolTableRecord
100
AcDbDimStyleTableRecord
  2
ISO
 70
     0
  3
<>
 41
4.375
 42
1.05
 44
2.1
 49
10.01
 73
     0
 74
     0
 77
     1
 78
     8
140
3.5
146
0.4
147
1.75
172
     1
271
     2
178
     3
271
     2
272
     3
284
     8
340
6F
341
72
342
72
  0
DIMSTYLE
105
7A
330
A
100
AcDbSymbolTableRecord
100
AcDbDimStyleTableRecord
  2
zucchetti
 70
     0
  3
<>
 41
3.0
 42
0.9
 44
1.8
 49
8.58
 73
     0
 74
     0
 77
     1
 78
     8
140
3.0
146
0.6
147
1.5
172
     1
176
     3
177
     3
271
     2
178
     3
271
     2
272
     2
284
     8
340
70
  0
ENDTAB
  0
TABLE
  2
BLOCK_RECORD
  5
1
330
0
100
AcDbSymbolTable
 70
     6
  0
BLOCK_RECORD
  5
1F
330
1
100
AcDbSymbolTableRecord
100
AcDbBlockTableRecord
  2
*Model_Space
340
22
 70
     0
280
     1
281
     0
  0
BLOCK_RECORD
  5
1B
330
1
100
AcDbSymbolTableRecord
100
AcDbBlockTableRecord
  2
*Paper_Space
340
1E
 70
     0
280
     1
281
     0
  0
BLOCK_RECORD
  5
23
330
1
100
AcDbSymbolTableRecord
100
AcDbBlockTableRecord
  2
*Paper_Space0
340
26
 70
     0
280
     1
281
     0
  0
BLOCK_RECORD
  5
72
330
1
100
AcDbSymbolTableRecord
100
AcDbBlockTableRecord
  2
_CLOSED
340
0
 70
     0
280
     1
281
     0
  0
BLOCK_RECORD
  5
7B
330
1
100
AcDbSymbolTableRecord
100
AcDbBlockTableRecord
  2
a
340
0
102
{BLKREFS
331
C2
102
}
 70
     0
280
     1
281
     0
  0
BLOCK_RECORD
  5
C3
330
1
100
AcDbSymbolTableRecord
100
AcDbBlockTableRecord
  2
b
340
0
102
{BLKREFS
331
FC
102
}
 70
     0
280
     1
281
     0
  0
BLOCK_RECORD
  5
FD
330
1
100
AcDbSymbolTableRecord
100
AcDbBlockTableRecord
  2
c
340
0
102
{BLKREFS
331
16B
102
}
 70
     0
280
     1
281
     0
  0
BLOCK_RECORD
  5
16C
330
1
100
AcDbSymbolTableRecord
100
AcDbBlockTableRecord
  2
d
340
0
102
{BLKREFS
331
1D9
102
}
 70
     0
280
     1
281
     0
  0
ENDTAB
  0
ENDSEC
  0
SECTION
  2
BLOCKS
  0
BLOCK
  5
20
330
1F
100
AcDbEntity
  8
0
100
AcDbBlockBegin
  2
*Model_Space
 70
     0
 10
0.0
 20
0.0
 30
0.0
  3
*Model_Space
  1

  0
ENDBLK
  5
21
330
1F
100
AcDbEntity
  8
0
100
AcDbBlockEnd
  0
BLOCK
  5
1C
330
1B
100
AcDbEntity
 67
     1
  8
0
100
AcDbBlockBegin
  2
*Paper_Space
 70
     0
 10
0.0
 20
0.0
 30
0.0
  3
*Paper_Space
  1

  0
ENDBLK
  5
1D
330
1B
100
AcDbEntity
 67
     1
  8
0
100
AcDbBlockEnd
  0
BLOCK
  5
24
330
23
100
AcDbEntity
  8
0
100
AcDbBlockBegin
  2
*Paper_Space0
 70
     0
 10
0.0
 20
0.0
 30
0.0
  3
*Paper_Space0
  1

  0
ENDBLK
  5
25
330
23
100
AcDbEntity
  8
0
100
AcDbBlockEnd
  0
BLOCK
  5
73
330
72
100
AcDbEntity
  8
0
100
AcDbBlockBegin
  2
_CLOSED
 70
     0
 10
0.0
 20
0.0
 30
0.0
  3
_CLOSED
  1

  0
LINE
  5
75
330
72
100
AcDbEntity
  8
0
  6
ByBlock
 62
     0
370
    -2
100
AcDbLine
 10
-1.0
 20
0.166667
 30
0.0
 11
0.0
 21
0.0
 31
0.0
  0
LINE
  5
76
330
72
100
AcDbEntity
  8
0
  6
ByBlock
 62
     0
370
    -2
100
AcDbLine
 10
0.0
 20
0.0
 30
0.0
 11
-1.0
 21
-0.166667
 31
0.0
  0
LINE
  5
77
330
72
100
AcDbEntity
  8
0
  6
ByBlock
 62
     0
370
    -2
100
AcDbLine
 10
-1.0
 20
0.166667
 30
0.0
 11
-1.0
 21
-0.166667
 31
0.0
  0
LINE
  5
78
330
72
100
AcDbEntity
  8
0
  6
ByBlock
 62
     0
370
    -2
100
AcDbLine
 10
0.0
 20
0.0
 30
0.0
 11
-1.0
 21
0.0
 31
0.0
  0
ENDBLK
  5
74
330
72
100
AcDbEntity
  8
0
100
AcDbBlockEnd
  0
BLOCK
  5
C0
330
7B
100
AcDbEntity
  8
0
100
AcDbBlockBegin
  2
a
 70
     0
 10
419.118713
 20
412.645508
 30
0.0
  3
a
  1

  0
LINE
  5
7C
330
7B
100
AcDbEntity
  8
0
  6
Continuous
 62
     0
370
    30
100
AcDbLine
 10
430.017138
 20
418.948135
 30
0.0
 11
480.741146
 21
418.948135
 31
0.0
  0
LINE
  5
7D
330
7B
100
AcDbEntity
  8
0
  6
Continuous
 62
     0
370
    30
100
AcDbLine
 10
480.741146
 20
418.948135
 30
0.0
 11
483.564761
 21
418.948135
 31
0.0
  0
LINE
  5
7E
330
7B
100
AcDbEntity
  8
0
  6
Continuous
 62
     0
370
    30
100
AcDbLine
 10
429.79095
 20
415.748135
 30
0.0
 11
480.94348
 21
415.748135
 31
0.0
  0
LINE
  5
7F
330
7B
100
AcDbEntity
  8
0
  6
Continuous
 62
     0
370
    30
100
AcDbLine
 10
480.94348
 20
415.748135
 30
0.0
 11
483.79095
 21
415.748135
 31
0.0
  0
LINE
  5
80
330
7B
100
AcDbEntity
  8
0
  6
Continuous
 62
     0
370
     0
100
AcDbLine
 10
483.764754
 20
418.74988
 30
0.0
 11
480.920046
 21
418.74988
 31
0.0
  0
LINE
  5
81
330
7B
100
AcDbEntity
  8
0
  6
Continuous
 62
     0
370
     0
100
AcDbLine
 10
480.920046
 20
418.74988
 30
0.0
 11
429.817145
 21
418.74988
 31
0.0
  0
ARC
  5
82
330
7B
100
AcDbEntity
  8
0
  6
Continuous
 62
     0
370
    30
100
AcDbCircle
 10
483.564641
 20
418.748104
 30
0.0
 40
0.2000310204901298
100
AcDbArc
 50
0.508802
 51
89.976598
  0
ARC
  5
83
330
7B
100
AcDbEntity
  8
0
  6
Continuous
 62
     0
370
    30
100
AcDbCircle
 10
430.017304
 20
418.748104
 30
0.0
 40
0.2000310776295162
100
AcDbArc
 50
90.014802
 51
179.491181
  0
LINE
  5
84
330
7B
100
AcDbEntity
  8
0
  6
Continuous
 62
     0
370
    30
100
AcDbLine
 10
429.79095
 20
415.748135
 30
0.0
 11
429.817145
 21
418.74988
 31
0.0
  0
LINE
  5
85
330
7B
100
AcDbEntity
  8
0
  6
Continuous
 62
     0
370
    30
100
AcDbLine
 10
483.79095
 20
415.748135
 30
0.0
 11
483.764754
 21
418.74988
 31
0.0
  0
LWPOLYLINE
  5
86
330
7B
100
AcDbEntity
  8
0
  6
Continuous
 62
     0
370
     0
100
AcDbPolyline
 90
       41
 70
     0
 43
0.0
 10
445.761719
 20
516.709961
 10
445.515503
 20
516.780334
 10
445.272888
 20
516.814758
 10
445.033478
 20
516.812561
 10
444.796753
 20
516.773499
 10
444.560791
 20
516.698608
 10
444.322021
 20
516.590637
 10
444.075714
 20
516.454529
 10
443.818909
 20
516.295349
 10
443.550659
 20
516.118225
 10
443.25116
 20
515.945251
 10
442.912292
 20
515.796936
 10
442.568085
 20
515.655579
 10
442.25589
 20
515.485901
 10
442.008453
 20
515.244141
 10
441.792877
 20
514.954224
 10
441.573578
 20
514.654175
 10
441.361145
 20
514.333801
 10
441.160095
 20
513.987488
 10
440.96756
 20
513.618347
 10
440.783661
 20
513.226013
 10
440.608551
 20
512.809937
 10
440.442444
 20
512.369263
 10
440.285248
 20
511.903442
 10
440.136505
 20
511.412689
 10
439.995819
 20
510.897156
 10
439.862823
 20
510.356934
 10
439.737305
 20
509.792084
 10
439.618958
 20
509.202698
 10
439.507568
 20
508.589081
 10
439.402863
 20
507.951721
 10
439.304688
 20
507.291138
 10
439.212952
 20
506.608734
 10
439.127563
 20
505.906006
 10
439.048828
 20
505.184357
 10
438.977631
 20
504.444763
 10
438.915161
 20
503.688873
 10
438.862976
 20
502.918945
 10
438.823364
 20
502.133331
 10
438.798859
 20
501.328827
 10
438.790955
 20
500.496185
  0
LWPOLYLINE
  5
87
330
7B
100
AcDbEntity
  8
0
  6
Continuous
 62
     0
370
     0
100
AcDbPolyline
 90
       37
 70
     0
 43
0.0
 10
438.790955
 20
500.496185
 10
438.796539
 20
500.847565
 10
438.814117
 20
501.143463
 10
438.845032
 20
501.380981
 10
438.890533
 20
501.562042
 10
438.951965
 20
501.686188
 10
439.03067
 20
501.754028
 10
439.127869
 20
501.768188
 10
439.244934
 20
501.731659
 10
439.383148
 20
501.648102
 10
439.543884
 20
501.521423
 10
439.728638
 20
501.355865
 10
439.938873
 20
501.155914
 10
440.17627
 20
500.925903
 10
440.442596
 20
500.670105
 10
440.739624
 20
500.392609
 10
441.069275
 20
500.097382
 10
441.433502
 20
499.788208
 10
441.834137
 20
499.468445
 10
442.273712
 20
499.141357
 10
442.75296
 20
498.807617
 10
443.275574
 20
498.483429
 10
443.8526
 20
498.204102
 10
444.48877
 20
497.970215
 10
445.180237
 20
497.758057
 10
445.923004
 20
497.553497
 10
446.714478
 20
497.346375
 10
447.551697
 20
497.129944
 10
448.431793
 20
496.899109
 10
449.352661
 20
496.653381
 10
450.312805
 20
496.395172
 10
451.310913
 20
496.132263
 10
452.345978
 20
495.87793
 10
453.416473
 20
495.648224
 10
454.519165
 20
495.463684
 10
455.646942
 20
495.343506
 10
456.790955
 20
495.301697
  0
LINE
  5
88
330
7B
100
AcDbEntity
  8
0
  6
Continuous
 62
     0
370
     0
100
AcDbLine
 10
456.79095
 20
495.301706
 30
0.0
 11
456.79095
 21
513.298617
 31
0.0
  0
LWPOLYLINE
  5
89
330
7B
100
AcDbEntity
  8
0
  6
Continuous
 62
     0
370
     0
100
AcDbPolyline
 90
       37
 70
     0
 43
0.0
 10
456.790955
 20
495.301697
 10
457.932526
 20
495.343323
 10
459.060364
 20
495.463348
 10
460.163116
 20
495.647766
 10
461.233673
 20
495.877411
 10
462.268829
 20
496.131714
 10
463.267029
 20
496.394623
 10
464.227264
 20
496.652832
 10
465.148193
 20
496.89859
 10
466.028351
 20
497.129456
 10
466.865692
 20
497.345917
 10
467.657257
 20
497.55307
 10
468.400146
 20
497.757629
 10
469.091705
 20
497.969727
 10
469.727997
 20
498.203583
 10
470.305145
 20
498.482788
 10
470.827881
 20
498.806915
 10
471.30722
 20
499.140656
 10
471.746857
 20
499.467743
 10
472.147583
 20
499.787537
 10
472.511871
 20
500.096741
 10
472.841614
 20
500.391998
 10
473.138702
 20
500.669525
 10
473.40509
 20
500.925385
 10
473.642548
 20
501.155457
 10
473.852844
 20
501.355469
 10
474.037628
 20
501.521118
 10
474.198425
 20
501.647858
 10
474.3367
 20
501.731506
 10
474.453796
 20
501.768158
 10
474.551056
 20
501.75412
 10
474.629791
 20
501.686401
 10
474.691254
 20
501.562347
 10
474.736786
 20
501.381439
 10
474.767731
 20
501.144012
 10
474.785339
 20
500.848267
 10
474.790955
 20
500.496185
  0
LWPOLYLINE
  5
8A
330
7B
100
AcDbEntity
  8
0
  6
Continuous
 62
     0
370
     0
100
AcDbPolyline
 90
       41
 70
     0
 43
0.0
 10
474.790955
 20
500.496185
 10
474.783142
 20
501.324799
 10
474.758698
 20
502.129364
 10
474.719147
 20
502.91507
 10
474.667023
 20
503.685089
 10
474.604614
 20
504.441071
 10
474.533478
 20
505.180786
 10
474.454773
 20
505.902557
 10
474.369446
 20
506.605377
 10
474.27771
 20
507.287903
 10
474.179565
 20
507.948578
 10
474.074921
 20
508.58609
 10
473.963593
 20
509.19986
 10
473.845276
 20
509.789368
 10
473.719788
 20
510.354309
 10
473.586823
 20
510.894623
 10
473.446167
 20
511.410248
 10
473.297424
 20
511.901062
 10
473.140228
 20
512.366943
 10
472.974182
 20
512.8078
 10
472.799133
 20
513.223999
 10
472.615265
 20
513.616455
 10
472.422791
 20
513.985718
 10
472.221771
 20
514.332153
 10
472.009399
 20
514.652649
 10
471.7901
 20
514.952759
 10
471.574524
 20
515.242737
 10
471.327393
 20
515.484863
 10
471.015472
 20
515.654846
 10
470.671326
 20
515.796204
 10
470.332336
 20
515.944458
 10
470.032623
 20
516.11731
 10
469.764282
 20
516.294495
 10
469.507416
 20
516.453796
 10
469.261047
 20
516.590088
 10
469.022278
 20
516.698181
 10
468.786316
 20
516.773254
 10
468.549591
 20
516.812439
 10
468.310211
 20
516.814819
 10
468.067566
 20
516.78064
 10
467.82016
 20
516.709961
  0
ARC
  5
8B
330
7B
100
AcDbEntity
  8
0
  6
Continuous
 62
     0
370
    30
100
AcDbCircle
 10
464.29095
 20
526.599095
 30
0.0
 40
10.50000000000001
100
AcDbArc
 50
305.450295
 51
0.0
  0
ARC
  5
8C
330
7B
100
AcDbEntity
  8
0
  6
Continuous
 62
     0
370
    30
100
AcDbCircle
 10
464.235241
 20
526.739023
 30
0.0
 40
10.650512049131
100
AcDbArc
 50
289.657799
 51
295.709365
  0
LWPOLYLINE
  5
8D
330
7B
100
AcDbEntity
  8
0
  6
Continuous
 62
     0
370
    30
100
AcDbPolyline
 90
       30
 70
     0
 43
0.0
 10
474.790955
 20
526.599121
 10
474.790955
 20
526.560486
 10
474.790955
 20
526.443909
 10
474.790955
 20
526.248779
 10
474.790955
 20
525.975098
 10
474.790955
 20
525.623108
 10
474.790955
 20
525.194458
 10
474.790955
 20
524.692017
 10
474.790955
 20
524.120178
 10
474.790955
 20
523.487366
 10
474.790955
 20
522.80481
 10
474.790955
 20
522.078003
 10
474.790955
 20
521.29834
 10
474.790955
 20
520.464417
 10
474.790955
 20
519.578735
 10
474.790955
 20
518.642395
 10
474.790955
 20
517.656006
 10
474.790955
 20
516.620178
 10
474.790955
 20
515.535217
 10
474.790955
 20
514.401428
 10
474.790955
 20
513.218872
 10
474.790955
 20
511.987732
 10
474.790955
 20
510.70816
 10
474.790955
 20
509.380432
 10
474.790955
 20
508.005096
 10
474.790955
 20
506.583893
 10
474.790955
 20
505.119202
 10
474.790955
 20
503.614105
 10
474.790955
 20
502.074646
 10
474.790955
 20
500.496185
  0
ARC
  5
8E
330
7B
100
AcDbEntity
  8
0
  6
Continuous
 62
     0
370
     0
100
AcDbCircle
 10
449.2921
 20
526.599823
 30
0.0
 40
10.50114929358773
100
AcDbArc
 50
180.004051
 51
244.115793
  0
LWPOLYLINE
  5
8F
330
7B
100
AcDbEntity
  8
0
  6
Continuous
 62
     0
370
    30
100
AcDbPolyline
 90
       37
 70
     0
 43
0.0
 10
468.874115
 20
517.152161
 10
468.680847
 20
517.066345
 10
468.419098
 20
516.963623
 10
468.086884
 20
516.842896
 10
467.689026
 20
516.708618
 10
467.228027
 20
516.565063
 10
466.705322
 20
516.415771
 10
466.123138
 20
516.264771
 10
465.483887
 20
516.115784
 10
464.790466
 20
515.972046
 10
464.045959
 20
515.836487
 10
463.254059
 20
515.71167
 10
462.419067
 20
515.599487
 10
461.545349
 20
515.501831
 10
460.638458
 20
515.419983
 10
459.704346
 20
515.355103
 10
458.749115
 20
515.308167
 10
457.779602
 20
515.279663
 10
456.802948
 20
515.269958
 10
455.826172
 20
515.279297
 10
454.856445
 20
515.307373
 10
453.900787
 20
515.353882
 10
452.966095
 20
515.418335
 10
452.058472
 20
515.499695
 10
451.183868
 20
515.596985
 10
450.347809
 20
515.708801
 10
449.554779
 20
515.833313
 10
448.809052
 20
515.968567
 10
448.11441
 20
516.112122
 10
447.473785
 20
516.260986
 10
446.890076
 20
516.412048
 10
446.365784
 20
516.561523
 10
445.90332
 20
516.705261
 10
445.503815
 20
516.839844
 10
445.170502
 20
516.960571
 10
444.907074
 20
517.063965
 10
444.707794
 20
517.152161
  0
LWPOLYLINE
  5
90
330
7B
100
AcDbEntity
  8
0
  6
Continuous
 62
     0
370
     0
100
AcDbPolyline
 90
       50
 70
     0
 43
0.0
 10
438.790955
 20
526.59906
 10
438.830566
 20
526.595032
 10
438.936981
 20
526.575867
 10
439.123108
 20
526.549805
 10
439.379974
 20
526.513123
 10
439.706848
 20
526.466553
 10
440.105072
 20
526.411682
 10
440.571716
 20
526.34906
 10
441.104858
 20
526.279846
 10
441.702362
 20
526.205139
 10
442.361664
 20
526.126343
 10
443.08017
 20
526.044861
 10
443.855225
 20
525.961975
 10
444.683289
 20
525.879028
 10
445.560669
 20
525.797485
 10
446.483551
 20
525.718628
 10
447.448273
 20
525.643738
 10
448.451294
 20
525.573853
 10
449.489166
 20
525.510071
 10
450.558167
 20
525.453369
 10
451.653687
 20
525.404663
 10
452.770813
 20
525.364685
 10
453.904663
 20
525.334167
 10
455.050476
 20
525.313538
 10
456.203491
 20
525.303101
 10
457.358948
 20
525.302979
 10
458.512115
 20
525.313293
 10
459.658112
 20
525.333679
 10
460.792053
 20
525.364014
 10
461.909241
 20
525.403809
 10
463.005066
 20
525.452393
 10
464.075012
 20
525.508972
 10
465.114655
 20
525.572754
 10
466.119843
 20
525.642761
 10
467.086517
 20
525.717712
 10
468.010681
 20
525.796631
 10
468.888672
 20
525.878113
 10
469.717072
 20
525.960999
 10
470.492523
 20
526.043884
 10
471.211792
 20
526.125427
 10
471.87204
 20
526.204285
 10
472.47052
 20
526.278992
 10
473.004456
 20
526.348267
 10
473.471619
 20
526.410889
 10
473.870239
 20
526.466064
 10
474.198822
 20
526.512756
 10
474.45636
 20
526.5495
 10
474.642242
 20
526.575317
 10
474.752014
 20
526.594482
 10
474.790955
 20
526.59906
  0
LWPOLYLINE
  5
91
330
7B
100
AcDbEntity
  8
0
  6
Continuous
 62
     0
370
    30
100
AcDbPolyline
 90
       30
 70
     0
 43
0.0
 10
438.790955
 20
526.599121
 10
438.790955
 20
526.560486
 10
438.790955
 20
526.443909
 10
438.790955
 20
526.248779
 10
438.790955
 20
525.975098
 10
438.790955
 20
525.623108
 10
438.790955
 20
525.194458
 10
438.790955
 20
524.692017
 10
438.790955
 20
524.120178
 10
438.790955
 20
523.487366
 10
438.790955
 20
522.80481
 10
438.790955
 20
522.078003
 10
438.790955
 20
521.29834
 10
438.790955
 20
520.464417
 10
438.790955
 20
519.578735
 10
438.790955
 20
518.642395
 10
438.790955
 20
517.656006
 10
438.790955
 20
516.620178
 10
438.790955
 20
515.535217
 10
438.790955
 20
514.401428
 10
438.790955
 20
513.218872
 10
438.790955
 20
511.987732
 10
438.790955
 20
510.70816
 10
438.790955
 20
509.380432
 10
438.790955
 20
508.005096
 10
438.790955
 20
506.583893
 10
438.790955
 20
505.119202
 10
438.790955
 20
503.614105
 10
438.790955
 20
502.074646
 10
438.790955
 20
500.496185
  0
ARC
  5
92
330
7B
100
AcDbEntity
  8
0
  6
Continuous
 62
     0
370
    30
100
AcDbCircle
 10
449.351182
 20
526.750064
 30
0.0
 40
10.66243075399519
100
AcDbArc
 50
244.182608
 51
250.339266
  0
ARC
  5
93
330
7B
100
AcDbEntity
  8
0
  6
Continuous
 62
     0
370
    30
100
AcDbCircle
 10
456.791321
 20
547.627397
 30
0.0
 40
32.82563387742899
100
AcDbArc
 50
286.366508
 51
289.628463
  0
ARC
  5
94
330
7B
100
AcDbEntity
  8
0
  6
Continuous
 62
     0
370
    30
100
AcDbCircle
 10
456.790602
 20
547.62747
 30
0.0
 40
32.82570987082622
100
AcDbArc
 50
250.37154
 51
253.633487
  0
LINE
  5
95
330
7B
100
AcDbEntity
  8
0
  6
Continuous
 62
     0
370
    30
100
AcDbLine
 10
474.79095
 20
526.599095
 30
0.0
 11
474.79095
 21
530.878135
 31
0.0
  0
LINE
  5
96
330
7B
100
AcDbEntity
  8
0
  6
Continuous
 62
     0
370
     0
100
AcDbLine
 10
474.79095
 20
530.878135
 30
0.0
 11
438.79095
 21
530.878135
 31
0.0
  0
LINE
  5
97
330
7B
100
AcDbEntity
  8
0
  6
Continuous
 62
     0
370
    30
100
AcDbLine
 10
438.79095
 20
530.878135
 30
0.0
 11
438.79095
 21
526.599081
 31
0.0
  0
LINE
  5
98
330
7B
100
AcDbEntity
  8
0
  6
Continuous
 62
     0
370
    30
100
AcDbLine
 10
474.29095
 20
531.378135
 30
0.0
 11
439.29095
 21
531.378135
 31
0.0
  0
ARC
  5
99
330
7B
100
AcDbEntity
  8
0
  6
Continuous
 62
     0
370
    30
100
AcDbCircle
 10
439.29095
 20
530.878135
 30
0.0
 40
0.4999999999999931
100
AcDbArc
 50
90.0
 51
180.0
  0
ARC
  5
9A
330
7B
100
AcDbEntity
  8
0
  6
Continuous
 62
     0
370
    30
100
AcDbCircle
 10
474.29095
 20
530.878135
 30
0.0
 40
0.5
100
AcDbArc
 50
0.0
 51
90.0
  0
LINE
  5
9B
330
7B
100
AcDbEntity
  8
0
  6
Continuous
 62
     0
370
    30
100
AcDbLine
 10
474.79095
 20
418.948135
 30
0.0
 11
474.79095
 21
500.496183
 31
0.0
  0
LINE
  5
9C
330
7B
100
AcDbEntity
  8
0
  6
Continuous
 62
     0
370
    30
100
AcDbLine
 10
438.79095
 20
418.948135
 30
0.0
 11
438.79095
 21
500.496183
 31
0.0
  0
ARC
  5
9D
330
7B
100
AcDbEntity
  8
0
  6
Continuous
 62
     0
370
    30
100
AcDbCircle
 10
464.279683
 20
526.618131
 30
0.0
 40
10.52209651435585
100
AcDbArc
 50
295.796771
 51
305.440149
  0
ARC
  5
9E
330
7B
100
AcDbEntity
  8
0
  6
Continuous
 62
     0
370
    30
100
AcDbCircle
 10
457.510635
 20
530.422637
 30
0.0
 40
17.50172392934038
100
AcDbArc
 50
168.546057
 51
176.870418
  0
ARC
  5
9F
330
7B
100
AcDbEntity
  8
0
  6
Continuous
 62
     0
370
    30
100
AcDbCircle
 10
456.071264
 20
530.422637
 30
0.0
 40
17.50172392933999
100
AcDbArc
 50
3.129582
 51
11.453943
  0
LWPOLYLINE
  5
A0
330
7B
100
AcDbEntity
  8
0
  6
Continuous
 62
     0
370
     0
100
AcDbPolyline
 90
       48
 70
     0
 43
0.0
 10
439.040955
 20
566.823975
 10
439.080627
 20
567.029663
 10
439.19931
 20
567.234619
 10
439.396515
 20
567.437805
 10
439.671478
 20
567.638184
 10
440.022797
 20
567.8349
 10
440.448944
 20
568.027039
 10
440.948181
 20
568.213867
 10
441.518066
 20
568.39447
 10
442.156128
 20
568.568115
 10
442.859589
 20
568.733948
 10
443.625214
 20
568.891235
 10
444.449615
 20
569.039246
 10
445.329163
 20
569.177429
 10
446.259827
 20
569.305115
 10
447.237518
 20
569.421692
 10
448.257935
 20
569.526672
 10
449.316376
 20
569.619629
 10
450.408203
 20
569.700012
 10
451.528534
 20
569.767639
 10
452.672363
 20
569.822083
 10
453.834564
 20
569.863159
 10
455.009979
 20
569.890625
 10
456.193359
 20
569.90448
 10
457.379395
 20
569.904541
 10
458.562805
 20
569.890808
 10
459.738312
 20
569.863403
 10
460.900635
 20
569.822449
 10
462.044617
 20
569.768127
 10
463.165161
 20
569.700623
 10
464.257233
 20
569.620239
 10
465.315948
 20
569.527466
 10
466.336639
 20
569.422546
 10
467.314697
 20
569.30603
 10
468.245758
 20
569.178467
 10
469.125702
 20
569.040405
 10
469.950531
 20
568.892395
 10
470.716614
 20
568.735168
 10
471.420593
 20
568.569397
 10
472.059174
 20
568.395874
 10
472.629578
 20
568.215271
 10
473.129364
 20
568.028503
 10
473.556091
 20
567.836365
 10
473.90802
 20
567.639709
 10
474.183563
 20
567.439392
 10
474.381348
 20
567.236206
 10
474.500641
 20
567.03125
 10
474.540955
 20
566.823975
  0
LWPOLYLINE
  5
A1
330
7B
100
AcDbEntity
  8
0
  6
Continuous
 62
     0
370
     0
100
AcDbPolyline
 90
       25
 70
     0
 43
0.0
 10
474.540955
 20
547.280518
 10
474.506409
 20
547.683289
 10
474.401611
 20
548.05896
 10
474.225372
 20
548.406677
 10
473.976837
 20
548.726013
 10
473.65564
 20
549.017212
 10
473.26178
 20
549.280823
 10
472.79599
 20
549.517761
 10
472.260193
 20
549.729553
 10
471.656464
 20
549.917908
 10
470.98703
 20
550.0849
 10
470.254364
 20
550.233032
 10
469.4617
 20
550.364868
 10
468.613068
 20
550.482971
 10
467.712311
 20
550.589966
 10
466.763153
 20
550.688354
 10
465.769745
 20
550.780579
 10
464.736877
 20
550.868835
 10
463.669312
 20
550.955444
 10
462.572571
 20
551.055786
 10
461.451996
 20
551.17511
 10
460.311584
 20
551.296997
 10
459.154358
 20
551.405457
 10
457.983246
 20
551.483948
 10
456.790955
 20
551.514343
  0
LINE
  5
A2
330
7B
100
AcDbEntity
  8
0
  6
Continuous
 62
     0
370
    30
100
AcDbLine
 10
456.79095
 20
533.898132
 30
0.0
 11
474.54095
 21
533.898132
 31
0.0
  0
LINE
  5
A3
330
7B
100
AcDbEntity
  8
0
  6
Continuous
 62
     0
370
    30
100
AcDbLine
 10
439.04095
 20
533.898132
 30
0.0
 11
456.79095
 21
533.898132
 31
0.0
  0
LWPOLYLINE
  5
A4
330
7B
100
AcDbEntity
  8
0
  6
Continuous
 62
     0
370
     0
100
AcDbPolyline
 90
       25
 70
     0
 43
0.0
 10
456.790955
 20
551.514343
 10
455.613403
 20
551.48468
 10
454.442139
 20
551.406677
 10
453.28476
 20
551.298462
 10
452.144073
 20
551.176697
 10
451.023254
 20
551.05719
 10
449.926178
 20
550.956543
 10
448.858215
 20
550.869934
 10
447.82486
 20
550.781677
 10
446.830963
 20
550.689514
 10
445.881195
 20
550.591248
 10
444.979828
 20
550.484375
 10
444.130524
 20
550.366455
 10
443.337128
 20
550.234741
 10
442.603668
 20
550.086853
 10
441.933441
 20
549.920166
 10
441.328857
 20
549.732056
 10
440.792206
 20
549.520569
 10
440.3255
 20
549.283997
 10
439.930756
 20
549.020691
 10
439.608643
 20
548.729858
 10
439.359192
 20
548.410828
 10
439.182037
 20
548.063538
 10
439.076385
 20
547.688171
 10
439.040955
 20
547.280518
  0
LINE
  5
A5
330
7B
100
AcDbEntity
  8
0
  6
Continuous
 62
     0
370
    30
100
AcDbLine
 10
439.04095
 20
547.280523
 30
0.0
 11
439.04095
 21
560.117312
 31
0.0
  0
LINE
  5
A6
330
7B
100
AcDbEntity
  8
0
  6
Continuous
 62
     0
370
    30
100
AcDbLine
 10
439.04095
 20
560.117312
 30
0.0
 11
439.04095
 21
565.624693
 31
0.0
  0
LINE
  5
A7
330
7B
100
AcDbEntity
  8
0
  6
Continuous
 62
     0
370
    30
100
AcDbLine
 10
439.04095
 20
565.624693
 30
0.0
 11
439.04095
 21
566.823961
 31
0.0
  0
LWPOLYLINE
  5
A8
330
7B
100
AcDbEntity
  8
0
  6
Continuous
 62
     0
370
     0
100
AcDbPolyline
 90
       12
 70
     0
 43
0.0
 10
440.316284
 20
558.656738
 10
441.565094
 20
558.653198
 10
442.880524
 20
558.640686
 10
444.256836
 20
558.621094
 10
445.688904
 20
558.596375
 10
447.169891
 20
558.568481
 10
448.695679
 20
558.537231
 10
450.26123
 20
558.502014
 10
451.8526
 20
558.467407
 10
453.45929
 20
558.437622
 10
455.073486
 20
558.416504
 10
456.790955
 20
558.40802
  0
LWPOLYLINE
  5
A9
330
7B
100
AcDbEntity
  8
0
  6
Continuous
 62
     0
370
     0
100
AcDbPolyline
 90
       21
 70
     0
 43
0.0
 10
439.040955
 20
547.280518
 10
439.059723
 20
547.878113
 10
439.111084
 20
548.499878
 10
439.186859
 20
549.148254
 10
439.278168
 20
549.820862
 10
439.375946
 20
550.514099
 10
439.472137
 20
551.222473
 10
439.56134
 20
551.937683
 10
439.64151
 20
552.649597
 10
439.714752
 20
553.347229
 10
439.788361
 20
554.019104
 10
439.862213
 20
554.662292
 10
439.927887
 20
555.280945
 10
439.981781
 20
555.871582
 10
440.025604
 20
556.427429
 10
440.063873
 20
556.940369
 10
440.098969
 20
557.404053
 10
440.135284
 20
557.8125
 10
440.179077
 20
558.160034
 10
440.236603
 20
558.441406
 10
440.316284
 20
558.656738
  0
LINE
  5
AA
330
7B
100
AcDbEntity
  8
0
  6
Continuous
 62
     0
370
     0
100
AcDbLine
 10
456.79095
 20
558.408023
 30
0.0
 11
456.79095
 21
551.514369
 31
0.0
  0
LINE
  5
AB
330
7B
100
AcDbEntity
  8
0
  6
Continuous
 62
     0
370
     0
100
AcDbLine
 10
473.265604
 20
558.656762
 30
0.0
 11
473.265604
 21
564.164143
 31
0.0
  0
LWPOLYLINE
  5
AC
330
7B
100
AcDbEntity
  8
0
  6
Continuous
 62
     0
370
     0
100
AcDbPolyline
 90
       49
 70
     0
 43
0.0
 10
473.265594
 20
564.164124
 10
473.227234
 20
564.337646
 10
473.112152
 20
564.499329
 10
472.921722
 20
564.648621
 10
472.658234
 20
564.78479
 10
472.324036
 20
564.907227
 10
471.921387
 20
565.016296
 10
471.452454
 20
565.11261
 10
470.920044
 20
565.196777
 10
470.327393
 20
565.269348
 10
469.677795
 20
565.330933
 10
468.974762
 20
565.382385
 10
468.221832
 20
565.424683
 10
467.422882
 20
565.45874
 10
466.582306
 20
565.485535
 10
465.70459
 20
565.506042
 10
464.79422
 20
565.521179
 10
463.855347
 20
565.531921
 10
462.89209
 20
565.539062
 10
461.908264
 20
565.543457
 10
460.907257
 20
565.545959
 10
459.892334
 20
565.547058
 10
458.867035
 20
565.547302
 10
457.834778
 20
565.54718
 10
456.799011
 20
565.546997
 10
455.763245
 20
565.54718
 10
454.730865
 20
565.547363
 10
453.705414
 20
565.547119
 10
452.690308
 20
565.546021
 10
451.689026
 20
565.543579
 10
450.704926
 20
565.539185
 10
449.741302
 20
565.532104
 10
448.802032
 20
565.521484
 10
447.891174
 20
565.506409
 10
447.012939
 20
565.485962
 10
446.171753
 20
565.45929
 10
445.372131
 20
565.425354
 10
444.618469
 20
565.383179
 10
443.914642
 20
565.331848
 10
443.264191
 20
565.270447
 10
442.670624
 20
565.198059
 10
442.137268
 20
565.114075
 10
441.667358
 20
565.017944
 10
441.263641
 20
564.909058
 10
440.928375
 20
564.786804
 10
440.663757
 20
564.650879
 10
440.472168
 20
564.501831
 10
440.355896
 20
564.340332
 10
440.316284
 20
564.164124
  0
LINE
  5
AD
330
7B
100
AcDbEntity
  8
0
  6
Continuous
 62
     0
370
     0
100
AcDbLine
 10
440.316295
 20
564.164143
 30
0.0
 11
440.316295
 21
558.656762
 31
0.0
  0
LWPOLYLINE
  5
AE
330
7B
100
AcDbEntity
  8
0
  6
Continuous
 62
     0
370
     0
100
AcDbPolyline
 90
       12
 70
     0
 43
0.0
 10
456.790955
 20
558.40802
 10
458.406952
 20
558.415894
 10
460.022827
 20
558.436401
 10
461.631897
 20
558.465515
 10
463.224854
 20
558.499878
 10
464.791534
 20
558.535095
 10
466.319427
 20
558.56665
 10
467.802246
 20
558.594727
 10
469.236481
 20
558.61969
 10
470.615417
 20
558.639648
 10
471.933594
 20
558.652649
 10
473.265594
 20
558.656738
  0
LWPOLYLINE
  5
AF
330
7B
100
AcDbEntity
  8
0
  6
Continuous
 62
     0
370
     0
100
AcDbPolyline
 90
       48
 70
     0
 43
0.0
 10
439.040955
 20
565.624695
 10
439.080536
 20
565.830444
 10
439.199463
 20
566.035034
 10
439.396973
 20
566.237183
 10
439.671844
 20
566.435242
 10
440.022797
 20
566.628113
 10
440.448395
 20
566.815308
 10
440.947144
 20
566.996521
 10
441.51709
 20
567.171387
 10
442.155487
 20
567.339539
 10
442.859406
 20
567.50061
 10
443.625916
 20
567.654114
 10
444.45108
 20
567.799866
 10
445.330811
 20
567.937378
 10
446.261017
 20
568.066467
 10
447.23761
 20
568.186523
 10
448.256622
 20
568.297119
 10
449.31424
 20
568.397522
 10
450.406158
 20
568.486816
 10
451.527161
 20
568.564026
 10
452.671814
 20
568.628113
 10
453.834808
 20
568.677979
 10
455.010834
 20
568.712463
 10
456.194702
 20
568.730347
 10
457.381165
 20
568.730469
 10
458.565063
 20
568.712769
 10
459.741119
 20
568.678406
 10
460.904205
 20
568.628662
 10
462.048981
 20
568.564697
 10
463.170105
 20
568.487549
 10
464.262207
 20
568.398376
 10
465.319977
 20
568.298035
 10
466.339203
 20
568.1875
 10
467.31601
 20
568.067383
 10
468.24646
 20
567.938416
 10
469.126465
 20
567.800842
 10
469.951935
 20
567.655151
 10
470.71875
 20
567.501648
 10
471.423004
 20
567.340576
 10
472.061737
 20
567.172424
 10
472.63205
 20
566.997559
 10
473.131165
 20
566.816406
 10
473.557129
 20
566.62915
 10
473.908478
 20
566.436279
 10
474.183746
 20
566.23822
 10
474.381622
 20
566.036133
 10
474.500946
 20
565.831482
 10
474.540955
 20
565.624695
  0
LINE
  5
B0
330
7B
100
AcDbEntity
  8
0
  6
Continuous
 62
     0
370
    30
100
AcDbLine
 10
474.54095
 20
565.624693
 30
0.0
 11
474.54095
 21
566.823961
 31
0.0
  0
LINE
  5
B1
330
7B
100
AcDbEntity
  8
0
  6
Continuous
 62
     0
370
    30
100
AcDbLine
 10
474.54095
 20
560.117312
 30
0.0
 11
474.54095
 21
565.624693
 31
0.0
  0
LINE
  5
B2
330
7B
100
AcDbEntity
  8
0
  6
Continuous
 62
     0
370
    30
100
AcDbLine
 10
474.54095
 20
547.280529
 30
0.0
 11
474.54095
 21
560.117312
 31
0.0
  0
LWPOLYLINE
  5
B3
330
7B
100
AcDbEntity
  8
0
  6
Continuous
 62
     0
370
     0
100
AcDbPolyline
 90
       21
 70
     0
 43
0.0
 10
473.265594
 20
558.656738
 10
473.343445
 20
558.448303
 10
473.401428
 20
558.168823
 10
473.445526
 20
557.823059
 10
473.481964
 20
557.41626
 10
473.517029
 20
556.954041
 10
473.555176
 20
556.442383
 10
473.598755
 20
555.887634
 10
473.652313
 20
555.297852
 10
473.717712
 20
554.679932
 10
473.791412
 20
554.037476
 10
473.865112
 20
553.366394
 10
473.938263
 20
552.669373
 10
474.018188
 20
551.957642
 10
474.107147
 20
551.242432
 10
474.203217
 20
550.533752
 10
474.301056
 20
549.839966
 10
474.39267
 20
549.166748
 10
474.468994
 20
548.517639
 10
474.521149
 20
547.895142
 10
474.540955
 20
547.280518
  0
LWPOLYLINE
  5
B4
330
7B
100
AcDbEntity
  8
0
  6
Continuous
 62
     0
370
     0
100
AcDbPolyline
 90
        8
 70
     0
 43
0.0
 10
473.265594
 20
558.656738
 10
473.553284
 20
558.729065
 10
473.821686
 20
558.855957
 10
474.05896
 20
559.03241
 10
474.256134
 20
559.251343
 10
474.405701
 20
559.504333
 10
474.501648
 20
559.78186
 10
474.540955
 20
560.11731
  0
LWPOLYLINE
  5
B5
330
7B
100
AcDbEntity
  8
0
  6
Continuous
 62
     0
370
     0
100
AcDbPolyline
 90
        8
 70
     0
 43
0.0
 10
474.540955
 20
565.624695
 10
474.511444
 20
565.33374
 10
474.424255
 20
565.053406
 10
474.282623
 20
564.795959
 10
474.092377
 20
564.571167
 10
473.860779
 20
564.387634
 10
473.596497
 20
564.252686
 10
473.265594
 20
564.164124
  0
LWPOLYLINE
  5
B6
330
7B
100
AcDbEntity
  8
0
  6
Continuous
 62
     0
370
     0
100
AcDbPolyline
 90
        8
 70
     0
 43
0.0
 10
440.316284
 20
564.164124
 10
440.028625
 20
564.23645
 10
439.760193
 20
564.363342
 10
439.522949
 20
564.539795
 10
439.325775
 20
564.758728
 10
439.176178
 20
565.011719
 10
439.080261
 20
565.289246
 10
439.040955
 20
565.624695
  0
LWPOLYLINE
  5
B7
330
7B
100
AcDbEntity
  8
0
  6
Continuous
 62
     0
370
     0
100
AcDbPolyline
 90
        8
 70
     0
 43
0.0
 10
440.316284
 20
558.656738
 10
440.028625
 20
558.729065
 10
439.760193
 20
558.855957
 10
439.522949
 20
559.03241
 10
439.325775
 20
559.251343
 10
439.176178
 20
559.504333
 10
439.080261
 20
559.78186
 10
439.040955
 20
560.11731
  0
LINE
  5
B8
330
7B
100
AcDbEntity
  8
0
  6
Continuous
 62
     0
370
    30
100
AcDbLine
 10
474.54095
 20
533.898132
 30
0.0
 11
474.54095
 21
547.280529
 31
0.0
  0
LINE
  5
B9
330
7B
100
AcDbEntity
  8
0
  6
Continuous
 62
     0
370
    30
100
AcDbLine
 10
439.04095
 20
533.898132
 30
0.0
 11
439.04095
 21
547.280523
 31
0.0
  0
LWPOLYLINE
  5
BA
330
7B
100
AcDbEntity
  8
0
  6
Continuous
 62
     0
370
    30
100
AcDbPolyline
 90
       56
 70
     0
 43
0.0
 10
474.540955
 20
566.823975
 10
474.490326
 20
567.143005
 10
474.354645
 20
567.427002
 10
474.157959
 20
567.672058
 10
473.91333
 20
567.886841
 10
473.623718
 20
568.082153
 10
473.288971
 20
568.264221
 10
472.90799
 20
568.43689
 10
472.480011
 20
568.601929
 10
472.004944
 20
568.760315
 10
471.483154
 20
568.912415
 10
470.915649
 20
569.058167
 10
470.30368
 20
569.197449
 10
469.648865
 20
569.329956
 10
468.952911
 20
569.455444
 10
468.217865
 20
569.573547
 10
467.446136
 20
569.684082
 10
466.640137
 20
569.786621
 10
465.802338
 20
569.880859
 10
464.935181
 20
569.966614
 10
464.041473
 20
570.043457
 10
463.124176
 20
570.111267
 10
462.186249
 20
570.169861
 10
461.230682
 20
570.218933
 10
460.260651
 20
570.258362
 10
459.279327
 20
570.288147
 10
458.289886
 20
570.308044
 10
457.295502
 20
570.318054
 10
456.299469
 20
570.318115
 10
455.305054
 20
570.308228
 10
454.315491
 20
570.288452
 10
453.334045
 20
570.25885
 10
452.363861
 20
570.219482
 10
451.408112
 20
570.170532
 10
450.46991
 20
570.112122
 10
449.552338
 20
570.044434
 10
448.658325
 20
569.967651
 10
447.790741
 20
569.88208
 10
446.952362
 20
569.787903
 10
446.145844
 20
569.685486
 10
445.373688
 20
569.575073
 10
444.638336
 20
569.457031
 10
443.941986
 20
569.331665
 10
443.286621
 20
569.199219
 10
442.674011
 20
569.060059
 10
442.105865
 20
568.914368
 10
441.583527
 20
568.76239
 10
441.107819
 20
568.604065
 10
440.679199
 20
568.439087
 10
440.297607
 20
568.266724
 10
439.96228
 20
568.084656
 10
439.672119
 20
567.889587
 10
439.42688
 20
567.674927
 10
439.229523
 20
567.430542
 10
439.092865
 20
567.147034
 10
439.040955
 20
566.823975
  0
ELLIPSE
  5
BB
330
7B
100
AcDbEntity
  8
0
  6
Continuous
 62
     0
370
    30
100
AcDbEllipse
 10
456.79095
 20
514.585968
 30
0.0
 11
-9.250000000000004
 21
-7.777865896876902E-16
 31
0.0
210
0.0
220
0.0
230
-1.0
 40
0.139173
 41
2.608881621244481
 42
5.750474274834274
  0
ELLIPSE
  5
BC
330
7B
100
AcDbEntity
  8
0
  6
Continuous
 62
     0
370
    30
100
AcDbEllipse
 10
456.79095
 20
514.585968
 30
0.0
 11
-9.250000000000004
 21
-7.777865896876902E-16
 31
0.0
210
0.0
220
0.0
230
-1.0
 40
0.139173
 41
2.229687369987772
 42
2.608881621244481
  0
ELLIPSE
  5
BD
330
7B
100
AcDbEntity
  8
0
  6
Continuous
 62
     0
370
    30
100
AcDbEllipse
 10
456.79095
 20
514.585968
 30
0.0
 11
-9.250000000000004
 21
-7.777865896876902E-16
 31
0.0
210
0.0
220
0.0
230
-1.0
 40
0.139173
 41
5.750474274834275
 42
7.195133179299668
  0
LINE
  5
BE
330
7B
100
AcDbEntity
  8
0
  6
Continuous
 62
     0
370
    30
100
AcDbLine
 10
466.04095
 20
516.244658
 30
0.0
 11
466.04095
 21
514.585968
 31
0.0
  0
LINE
  5
BF
330
7B
100
AcDbEntity
  8
0
  6
Continuous
 62
     0
370
    30
100
AcDbLine
 10
447.54095
 20
516.244582
 30
0.0
 11
447.54095
 21
514.585968
 31
0.0
  0
ENDBLK
  5
C1
330
7B
100
AcDbEntity
  8
0
100
AcDbBlockEnd
  0
BLOCK
  5
FA
330
C3
100
AcDbEntity
  8
0
100
AcDbBlockBegin
  2
b
 70
     0
 10
0.0
 20
391.218018
 30
0.0
  3
b
  1

  0
ARC
  5
C4
330
C3
100
AcDbEntity
  8
0
  6
Continuous
 62
     0
370
     0
100
AcDbCircle
 10
456.79095
 20
318.246021
 30
0.0
 40
26.77381177800883
100
AcDbArc
 50
312.244732
 51
333.449168
  0
ARC
  5
C5
330
C3
100
AcDbEntity
  8
0
  6
Continuous
 62
     0
370
     0
100
AcDbCircle
 10
456.79095
 20
318.246021
 30
0.0
 40
26.77381177799577
100
AcDbArc
 50
153.449168
 51
227.755268
  0
ARC
  5
C6
330
C3
100
AcDbEntity
  8
0
  6
Continuous
 62
     0
370
     0
100
AcDbCircle
 10
456.79095
 20
318.246021
 30
0.0
 40
26.77381177799517
100
AcDbArc
 50
94.280169
 51
153.449168
  0
ARC
  5
C7
330
C3
100
AcDbEntity
  8
0
  6
Continuous
 62
     0
370
     0
100
AcDbCircle
 10
456.79095
 20
318.246021
 30
0.0
 40
26.77381177799565
100
AcDbArc
 50
333.449168
 51
85.712213
  0
ARC
  5
C8
330
C3
100
AcDbEntity
  8
0
  6
Continuous
 62
     0
370
    30
100
AcDbCircle
 10
456.79095
 20
318.246021
 30
0.0
 40
26.99999999998362
100
AcDbArc
 50
311.810315
 51
333.449168
  0
ARC
  5
C9
330
C3
100
AcDbEntity
  8
0
  6
Continuous
 62
     0
370
    30
100
AcDbCircle
 10
456.79095
 20
318.246021
 30
0.0
 40
26.9999999999995
100
AcDbArc
 50
153.449168
 51
228.189685
  0
ARC
  5
CA
330
C3
100
AcDbEntity
  8
0
  6
Continuous
 62
     0
370
    30
100
AcDbCircle
 10
456.79095
 20
318.246021
 30
0.0
 40
27.00000000000259
100
AcDbArc
 50
94.24397
 51
153.449168
  0
ARC
  5
CB
330
C3
100
AcDbEntity
  8
0
  6
Continuous
 62
     0
370
    30
100
AcDbCircle
 10
456.79095
 20
318.246021
 30
0.0
 40
26.99999999999962
100
AcDbArc
 50
333.449168
 51
85.747923
  0
ARC
  5
CC
330
C3
100
AcDbEntity
  8
0
  6
Continuous
 62
     0
370
     0
100
AcDbCircle
 10
456.79095
 20
318.246021
 30
0.0
 40
26.97380416550327
100
AcDbArc
 50
333.449168
 51
85.743819
  0
ARC
  5
CD
330
C3
100
AcDbEntity
  8
0
  6
Continuous
 62
     0
370
     0
100
AcDbCircle
 10
456.79095
 20
318.246021
 30
0.0
 40
26.97380416550385
100
AcDbArc
 50
94.248131
 51
153.449168
  0
ARC
  5
CE
330
C3
100
AcDbEntity
  8
0
  6
Continuous
 62
     0
370
     0
100
AcDbCircle
 10
456.79095
 20
318.246021
 30
0.0
 40
26.97380416550148
100
AcDbArc
 50
153.449168
 51
228.139897
  0
ARC
  5
CF
330
C3
100
AcDbEntity
  8
0
  6
Continuous
 62
     0
370
     0
100
AcDbCircle
 10
456.79095
 20
318.246021
 30
0.0
 40
26.97380416551534
100
AcDbArc
 50
311.860103
 51
333.449168
  0
ARC
  5
D0
330
C3
100
AcDbEntity
  8
0
  6
Continuous
 62
     0
370
    30
100
AcDbCircle
 10
456.79095
 20
205.746016
 30
0.0
 40
17.99999999997296
100
AcDbArc
 50
180.0
 51
0.0
  0
LINE
  5
D1
330
C3
100
AcDbEntity
  8
0
  6
Continuous
 62
     0
370
     0
100
AcDbLine
 10
439.29095
 20
205.746016
 30
0.0
 11
439.29095
 21
266.541886
 31
0.0
  0
ARC
  5
D2
330
C3
100
AcDbEntity
  8
0
  6
Continuous
 62
     0
370
     0
100
AcDbCircle
 10
456.79095
 20
205.746016
 30
0.0
 40
17.49999999997297
100
AcDbArc
 50
180.0
 51
0.0
  0
LINE
  5
D3
330
C3
100
AcDbEntity
  8
0
  6
Continuous
 62
     0
370
     0
100
AcDbLine
 10
474.29095
 20
266.541857
 30
0.0
 11
474.29095
 21
205.746016
 31
0.0
  0
LINE
  5
D4
330
C3
100
AcDbEntity
  8
0
  6
Continuous
 62
     0
370
    30
100
AcDbLine
 10
474.79095
 20
318.246016
 30
0.0
 11
474.79095
 21
205.746016
 31
0.0
  0
ARC
  5
D5
330
C3
100
AcDbEntity
  8
0
  6
Continuous
 62
     0
370
    30
100
AcDbCircle
 10
456.79095
 20
318.246016
 30
0.0
 40
18.0
100
AcDbArc
 50
0.0
 51
180.0
  0
LINE
  5
D6
330
C3
100
AcDbEntity
  8
0
  6
Continuous
 62
     0
370
    30
100
AcDbLine
 10
438.79095
 20
205.746016
 30
0.0
 11
438.79095
 21
318.246016
 31
0.0
  0
LINE
  5
D7
330
C3
100
AcDbEntity
  8
0
  6
Continuous
 62
     0
370
     0
100
AcDbLine
 10
438.79095
 20
205.746016
 30
0.0
 11
439.29095
 21
205.746016
 31
0.0
  0
LINE
  5
D8
330
C3
100
AcDbEntity
  8
0
  6
Continuous
 62
     0
370
     0
100
AcDbLine
 10
439.04095
 20
318.246016
 30
0.0
 11
438.79095
 21
318.246016
 31
0.0
  0
LINE
  5
D9
330
C3
100
AcDbEntity
  8
0
  6
Continuous
 62
     0
370
     0
100
AcDbLine
 10
474.79095
 20
318.246016
 30
0.0
 11
474.54095
 21
318.246016
 31
0.0
  0
LINE
  5
DA
330
C3
100
AcDbEntity
  8
0
  6
Continuous
 62
     0
370
     0
100
AcDbLine
 10
474.29095
 20
205.746016
 30
0.0
 11
474.79095
 21
205.746016
 31
0.0
  0
LWPOLYLINE
  5
DB
330
C3
100
AcDbEntity
  8
0
  6
Continuous
 62
     0
370
    30
100
AcDbPolyline
 90
        2
 70
     0
 43
0.0
 10
470.17984
 20
193.715317
 10
470.006714
 20
193.525375
  0
LWPOLYLINE
  5
DC
330
C3
100
AcDbEntity
  8
0
  6
Continuous
 62
     0
370
     0
100
AcDbPolyline
 90
       49
 70
     0
 43
0.0
 10
439.540955
 20
269.7677
 10
439.575165
 20
268.698456
 10
439.679688
 20
267.617584
 10
439.856812
 20
266.531586
 10
440.108063
 20
265.44751
 10
440.43396
 20
264.37262
 10
440.834076
 20
263.314301
 10
441.306976
 20
262.279968
 10
441.850189
 20
261.276825
 10
442.460327
 20
260.311676
 10
443.133087
 20
259.3909
 10
443.863373
 20
258.520172
 10
444.645355
 20
257.704407
 10
445.472778
 20
256.947723
 10
446.338989
 20
256.253235
 10
447.237061
 20
255.623245
 10
448.160095
 20
255.059036
 10
449.117157
 20
254.553284
 10
450.119659
 20
254.101624
 10
451.162994
 20
253.70932
 10
452.24173
 20
253.381149
 10
453.349762
 20
253.121216
 10
454.480377
 20
252.932846
 10
455.626312
 20
252.818527
 10
456.78006
 20
252.77977
 10
457.933899
 20
252.817093
 10
459.080048
 20
252.930008
 10
460.211029
 20
253.116989
 10
461.31955
 20
253.375626
 10
462.398895
 20
253.702545
 10
463.442932
 20
254.093674
 10
464.446259
 20
254.54425
 10
465.404236
 20
255.049057
 10
466.327667
 20
255.612
 10
467.226288
 20
256.240784
 10
468.09314
 20
256.934052
 10
468.921356
 20
257.689606
 10
469.704285
 20
258.504303
 10
470.435577
 20
259.374023
 10
471.109467
 20
260.293915
 10
471.720825
 20
261.25827
 10
472.26532
 20
262.260773
 10
472.739563
 20
263.294586
 10
473.141083
 20
264.352509
 10
473.468384
 20
265.427185
 10
473.721039
 20
266.511139
 10
473.899567
 20
267.597137
 10
474.005432
 20
268.678192
 10
474.040955
 20
269.7677
  0
LINE
  5
DD
330
C3
100
AcDbEntity
  8
0
  6
Continuous
 62
     0
370
     0
100
AcDbLine
 10
474.04095
 20
269.767693
 30
0.0
 11
474.04095
 21
318.332839
 31
0.0
  0
ARC
  5
DE
330
C3
100
AcDbEntity
  8
0
  6
Continuous
 62
     0
370
     0
100
AcDbCircle
 10
456.79095
 20
318.332839
 30
0.0
 40
17.25000006647704
100
AcDbArc
 50
360.0
 51
90.0
  0
ARC
  5
DF
330
C3
100
AcDbEntity
  8
0
  6
Continuous
 62
     0
370
     0
100
AcDbCircle
 10
456.79095
 20
318.332839
 30
0.0
 40
17.25000006647668
100
AcDbArc
 50
90.0
 51
180.0
  0
LINE
  5
E0
330
C3
100
AcDbEntity
  8
0
  6
Continuous
 62
     0
370
     0
100
AcDbLine
 10
439.54095
 20
318.332839
 30
0.0
 11
439.54095
 21
269.767693
 31
0.0
  0
ELLIPSE
  5
E1
330
C3
100
AcDbEntity
  8
0
  6
Continuous
 62
     0
370
     0
100
AcDbEllipse
 10
439.54095
 20
269.680869
 30
0.0
 11
-0.5
 21
1.247130932680755E-15
 31
0.0
210
0.0
220
0.0
230
-1.0
 40
0.173648
 41
-0.0000000000002602
 42
1.57079632679491
  0
ELLIPSE
  5
E2
330
C3
100
AcDbEntity
  8
0
  6
Continuous
 62
     0
370
     0
100
AcDbEllipse
 10
439.54095
 20
318.246015
 30
0.0
 11
0.5
 21
-1.247130932680755E-15
 31
0.0
210
0.0
220
0.0
230
1.0
 40
0.173648
 41
1.570796326795145
 42
3.141592653590139
  0
LINE
  5
E3
330
C3
100
AcDbEntity
  8
0
  6
Continuous
 62
     0
370
    30
100
AcDbLine
 10
439.04095
 20
318.246015
 30
0.0
 11
439.04095
 21
269.680869
 31
0.0
  0
LWPOLYLINE
  5
E4
330
C3
100
AcDbEntity
  8
0
  6
Continuous
 62
     0
370
     0
100
AcDbPolyline
 90
       48
 70
     0
 43
0.0
 10
439.040955
 20
269.680878
 10
439.080627
 20
268.514313
 10
439.199371
 20
267.351685
 10
439.396606
 20
266.199188
 10
439.6716
 20
265.062653
 10
440.02301
 20
263.947021
 10
440.44928
 20
262.857086
 10
440.948608
 20
261.797516
 10
441.518616
 20
260.773071
 10
442.156799
 20
259.788361
 10
442.860443
 20
258.847931
 10
443.626221
 20
257.955811
 10
444.450775
 20
257.116089
 10
445.330505
 20
256.33252
 10
446.261353
 20
255.60849
 10
447.239227
 20
254.947311
 10
448.259827
 20
254.352005
 10
449.318451
 20
253.825058
 10
450.410461
 20
253.368958
 10
451.531006
 20
252.985748
 10
452.674988
 20
252.677017
 10
453.837372
 20
252.444244
 10
455.012939
 20
252.288513
 10
456.196472
 20
252.210358
 10
457.382629
 20
252.210266
 10
458.566162
 20
252.288239
 10
459.74176
 20
252.443787
 10
460.904175
 20
252.676376
 10
462.048218
 20
252.984924
 10
463.168823
 20
253.36795
 10
464.260895
 20
253.823898
 10
465.319611
 20
254.350662
 10
466.340302
 20
254.945816
 10
467.318268
 20
255.606842
 10
468.249237
 20
256.330719
 10
469.12912
 20
257.114166
 10
469.953796
 20
257.953766
 10
470.719727
 20
258.845734
 10
471.423492
 20
259.786072
 10
472.061859
 20
260.770691
 10
472.632019
 20
261.795044
 10
473.131531
 20
262.854523
 10
473.557953
 20
263.944397
 10
473.909546
 20
265.059967
 10
474.184753
 20
266.196472
 10
474.382172
 20
267.348938
 10
474.501068
 20
268.511536
 10
474.540955
 20
269.680878
  0
LWPOLYLINE
  5
E5
330
C3
100
AcDbEntity
  8
0
  6
Continuous
 62
     0
370
     0
100
AcDbPolyline
 90
        5
 70
     0
 43
0.0
 10
474.540955
 20
269.680878
 10
474.503326
 20
269.713928
 10
474.396088
 20
269.741974
 10
474.235382
 20
269.760864
 10
474.040955
 20
269.7677
  0
LINE
  5
E6
330
C3
100
AcDbEntity
  8
0
  6
Continuous
 62
     0
370
    30
100
AcDbLine
 10
474.54095
 20
269.680869
 30
0.0
 11
474.54095
 21
318.246015
 31
0.0
  0
ELLIPSE
  5
E7
330
C3
100
AcDbEntity
  8
0
  6
Continuous
 62
     0
370
     0
100
AcDbEllipse
 10
474.04095
 20
318.246015
 30
0.0
 11
0.5
 21
6.411803100223091E-16
 31
0.0
210
0.0
220
0.0
230
1.0
 40
0.173648
 41
0.0000000000001714
 42
1.570796326794655
  0
ARC
  5
E8
330
C3
100
AcDbEntity
  8
0
  6
Continuous
 62
     0
370
    30
100
AcDbCircle
 10
456.790949
 20
318.246014
 30
0.0
 40
17.75000074422631
100
AcDbArc
 50
0.000002
 51
89.999998
  0
LINE
  5
E9
330
C3
100
AcDbEntity
  8
0
  6
Continuous
 62
     0
370
     0
100
AcDbLine
 10
456.79095
 20
335.582839
 30
0.0
 11
456.79095
 21
335.996015
 31
0.0
  0
ARC
  5
EA
330
C3
100
AcDbEntity
  8
0
  6
Continuous
 62
     0
370
    30
100
AcDbCircle
 10
456.79095
 20
318.246014
 30
0.0
 40
17.75000074422555
100
AcDbArc
 50
90.000002
 51
179.999998
  0
LWPOLYLINE
  5
EB
330
C3
100
AcDbEntity
  8
0
  6
Continuous
 62
     0
370
     0
100
AcDbPolyline
 90
       48
 70
     0
 43
0.0
 10
439.040955
 20
269.469391
 10
439.080536
 20
268.303375
 10
439.199493
 20
267.140015
 10
439.396973
 20
265.986053
 10
439.671875
 20
264.849335
 10
440.022827
 20
263.734741
 10
440.448456
 20
262.645325
 10
440.947266
 20
261.585449
 10
441.517242
 20
260.559937
 10
442.15564
 20
259.573639
 10
442.859619
 20
258.631378
 10
443.62616
 20
257.737854
 10
444.451385
 20
256.897186
 10
445.331177
 20
256.113281
 10
446.261414
 20
255.389938
 10
447.238037
 20
254.730255
 10
448.257111
 20
254.136566
 10
449.314758
 20
253.611282
 10
450.406738
 20
253.156693
 10
451.527771
 20
252.774658
 10
452.672516
 20
252.467056
 10
453.835541
 20
252.23558
 10
455.011597
 20
252.080917
 10
456.195496
 20
252.003372
 10
457.382019
 20
252.003235
 10
458.565918
 20
252.080505
 10
459.742035
 20
252.234894
 10
460.905121
 20
252.46611
 10
462.049927
 20
252.773438
 10
463.171051
 20
253.155197
 10
464.263153
 20
253.609543
 10
465.320923
 20
254.134552
 10
466.340149
 20
254.727997
 10
467.316956
 20
255.387436
 10
468.247375
 20
256.110535
 10
469.12735
 20
256.894226
 10
469.952789
 20
257.73468
 10
470.719543
 20
258.628021
 10
471.423767
 20
259.570099
 10
472.062408
 20
260.556244
 10
472.63266
 20
261.581604
 10
473.131714
 20
262.641357
 10
473.557617
 20
263.730682
 10
473.908875
 20
264.845184
 10
474.184052
 20
265.981812
 10
474.381836
 20
267.135712
 10
474.501068
 20
268.299042
 10
474.540955
 20
269.469391
  0
LWPOLYLINE
  5
EC
330
C3
100
AcDbEntity
  8
0
  6
Continuous
 62
     0
370
    30
100
AcDbPolyline
 90
       48
 70
     0
 43
0.0
 10
474.540955
 20
269.469391
 10
474.501282
 20
268.300079
 10
474.382507
 20
267.135834
 10
474.185089
 20
265.981842
 10
473.909882
 20
264.843079
 10
473.558258
 20
263.724609
 10
473.131714
 20
262.6315
 10
472.632172
 20
261.568665
 10
472.061737
 20
260.540955
 10
471.423126
 20
259.552979
 10
470.719177
 20
258.609222
 10
469.953003
 20
257.714081
 10
469.128052
 20
256.871582
 10
468.248016
 20
256.085602
 10
467.316833
 20
255.359772
 10
466.338684
 20
254.697388
 10
465.318085
 20
254.101151
 10
464.259644
 20
253.573715
 10
463.167938
 20
253.117661
 10
462.047882
 20
252.734894
 10
460.90451
 20
252.426834
 10
459.74295
 20
252.194855
 10
458.568329
 20
252.03981
 10
457.385864
 20
251.962021
 10
456.200775
 20
251.961838
 10
455.018311
 20
252.039368
 10
453.843658
 20
252.194183
 10
452.682007
 20
252.425751
 10
451.538574
 20
252.733475
 10
450.418427
 20
253.115997
 10
449.326569
 20
253.571686
 10
448.267914
 20
254.098755
 10
447.247223
 20
254.694824
 10
446.268921
 20
255.35704
 10
445.337555
 20
256.082581
 10
444.457428
 20
256.868378
 10
443.632294
 20
257.710693
 10
442.865753
 20
258.60556
 10
442.161438
 20
259.549042
 10
441.522552
 20
260.536865
 10
440.951843
 20
261.564453
 10
440.452057
 20
262.627167
 10
440.025391
 20
263.720215
 10
439.673462
 20
264.838562
 10
439.397827
 20
265.977234
 10
439.200012
 20
267.131195
 10
439.080933
 20
268.29538
 10
439.040955
 20
269.469391
  0
LINE
  5
ED
330
C3
100
AcDbEntity
  8
0
  6
Continuous
 62
     0
370
    30
100
AcDbLine
 10
454.790982
 20
340.842118
 30
0.0
 11
454.79303
 21
345.472497
 31
0.0
  0
LINE
  5
EE
330
C3
100
AcDbEntity
  8
0
  6
Continuous
 62
     0
370
     0
100
AcDbLine
 10
458.79303
 20
345.470122
 30
0.0
 11
454.79303
 21
345.472497
 31
0.0
  0
LWPOLYLINE
  5
EF
330
C3
100
AcDbEntity
  8
0
  6
Continuous
 62
     0
370
     0
100
AcDbPolyline
 90
       18
 70
     0
 43
0.0
 10
454.790955
 20
340.487793
 10
454.820038
 20
340.178619
 10
454.913574
 20
339.861725
 10
455.076233
 20
339.553619
 10
455.305786
 20
339.272614
 10
455.592072
 20
339.035767
 10
455.91864
 20
338.855499
 10
456.265503
 20
338.737671
 10
456.613068
 20
338.681183
 10
456.950134
 20
338.679749
 10
457.297363
 20
338.733063
 10
457.644867
 20
338.847534
 10
457.973083
 20
339.024536
 10
458.262054
 20
339.258606
 10
458.494934
 20
339.537598
 10
458.661316
 20
339.844666
 10
458.758514
 20
340.161438
 10
458.790955
 20
340.485443
  0
LINE
  5
F0
330
C3
100
AcDbEntity
  8
0
  6
Continuous
 62
     0
370
    30
100
AcDbLine
 10
458.299855
 20
356.965667
 30
0.0
 11
455.299856
 21
356.967449
 31
0.0
  0
LINE
  5
F1
330
C3
100
AcDbEntity
  8
0
  6
Continuous
 62
     0
370
    30
100
AcDbLine
 10
454.79303
 20
345.472497
 30
0.0
 11
454.799559
 21
356.467746
 31
0.0
  0
LINE
  5
F2
330
C3
100
AcDbEntity
  8
0
  6
Continuous
 62
     0
370
    30
100
AcDbLine
 10
458.799558
 20
356.46537
 30
0.0
 11
454.799559
 21
356.467746
 31
0.0
  0
LINE
  5
F3
330
C3
100
AcDbEntity
  8
0
  6
Continuous
 62
     0
370
    30
100
AcDbLine
 10
454.799559
 20
356.467746
 30
0.0
 11
455.299856
 21
356.967449
 31
0.0
  0
LINE
  5
F4
330
C3
100
AcDbEntity
  8
0
  6
Continuous
 62
     0
370
    30
100
AcDbLine
 10
458.79095
 20
340.48543
 30
0.0
 11
458.79095
 21
336.134538
 31
0.0
  0
LINE
  5
F5
330
C3
100
AcDbEntity
  8
0
  6
Continuous
 62
     0
370
    30
100
AcDbLine
 10
454.79095
 20
340.486618
 30
0.0
 11
454.79095
 21
336.134562
 31
0.0
  0
LINE
  5
F6
330
C3
100
AcDbEntity
  8
0
  6
Continuous
 62
     0
370
    30
100
AcDbLine
 10
458.799558
 20
356.46537
 30
0.0
 11
458.312536
 21
356.952971
 31
0.0
  0
LINE
  5
F7
330
C3
100
AcDbEntity
  8
0
  6
Continuous
 62
     0
370
    30
100
AcDbLine
 10
458.799558
 20
356.46537
 30
0.0
 11
458.79303
 21
345.470122
 31
0.0
  0
LINE
  5
F8
330
C3
100
AcDbEntity
  8
0
  6
Continuous
 62
     0
370
    30
100
AcDbLine
 10
458.79303
 20
345.470122
 30
0.0
 11
458.79095
 21
340.486615
 31
0.0
  0
LINE
  5
F9
330
C3
100
AcDbEntity
  8
0
  6
Continuous
 62
     0
370
    30
100
AcDbLine
 10
454.79095
 20
340.486618
 30
0.0
 11
454.790982
 21
340.842118
 31
0.0
  0
ENDBLK
  5
FB
330
C3
100
AcDbEntity
  8
0
100
AcDbBlockEnd
  0
BLOCK
  5
169
330
FD
100
AcDbEntity
  8
0
100
AcDbBlockBegin
  2
c
 70
     0
 10
369.278992
 20
0.0
 30
0.0
  3
c
  1

  0
LINE
  5
FE
330
FD
100
AcDbEntity
  8
0
  6
Continuous
 62
     0
370
    30
100
AcDbLine
 10
606.276732
 20
418.948135
 30
0.0
 11
645.018212
 21
418.948135
 31
0.0
  0
LINE
  5
FF
330
FD
100
AcDbEntity
  8
0
  6
Continuous
 62
     0
370
    30
100
AcDbLine
 10
591.470588
 20
418.948135
 30
0.0
 11
606.276732
 21
418.948135
 31
0.0
  0
LINE
  5
100
330
FD
100
AcDbEntity
  8
0
  6
Continuous
 62
     0
370
    30
100
AcDbLine
 10
606.175627
 20
415.748135
 30
0.0
 11
645.2444
 21
415.748135
 31
0.0
  0
LINE
  5
101
330
FD
100
AcDbEntity
  8
0
  6
Continuous
 62
     0
370
    30
100
AcDbLine
 10
591.2444
 20
415.748135
 30
0.0
 11
606.175627
 21
415.748135
 31
0.0
  0
LINE
  5
102
330
FD
100
AcDbEntity
  8
0
  6
Continuous
 62
     0
370
     0
100
AcDbLine
 10
606.187337
 20
418.74988
 30
0.0
 11
591.270596
 21
418.74988
 31
0.0
  0
LWPOLYLINE
  5
103
330
FD
100
AcDbEntity
  8
0
  6
Continuous
 62
     0
370
     0
100
AcDbPolyline
 90
       39
 70
     0
 43
0.0
 10
645.218201
 20
418.749878
 10
645.177246
 20
418.749878
 10
645.056091
 20
418.749878
 10
644.858093
 20
418.749878
 10
644.586792
 20
418.749878
 10
644.246582
 20
418.749878
 10
643.841858
 20
418.749878
 10
643.377563
 20
418.749878
 10
642.858643
 20
418.749878
 10
642.290039
 20
418.749878
 10
641.660583
 20
418.749878
 10
640.960938
 20
418.749878
 10
640.190186
 20
418.749878
 10
639.347961
 20
418.749878
 10
638.43457
 20
418.749878
 10
637.450989
 20
418.749878
 10
636.398804
 20
418.749878
 10
635.280396
 20
418.749878
 10
634.098938
 20
418.749878
 10
632.858276
 20
418.749878
 10
631.562988
 20
418.749878
 10
630.218201
 20
418.749878
 10
628.829834
 20
418.749878
 10
627.404114
 20
418.749878
 10
625.947815
 20
418.749878
 10
624.468018
 20
418.749878
 10
622.971985
 20
418.749878
 10
621.46698
 20
418.749878
 10
619.960388
 20
418.749878
 10
618.459351
 20
418.749878
 10
616.970764
 20
418.749878
 10
615.50116
 20
418.749878
 10
614.056641
 20
418.749878
 10
612.642883
 20
418.749878
 10
611.264832
 20
418.749878
 10
609.927002
 20
418.749878
 10
608.63324
 20
418.749878
 10
607.386719
 20
418.749878
 10
606.187317
 20
418.749878
  0
ARC
  5
104
330
FD
100
AcDbEntity
  8
0
  6
Continuous
 62
     0
370
    30
100
AcDbCircle
 10
591.470707
 20
418.748104
 30
0.0
 40
0.2000310472731509
100
AcDbArc
 50
90.022582
 51
179.491191
  0
ARC
  5
105
330
FD
100
AcDbEntity
  8
0
  6
Continuous
 62
     0
370
    30
100
AcDbCircle
 10
645.018092
 20
418.748104
 30
0.0
 40
0.2000309750204919
100
AcDbArc
 50
0.508788
 51
89.974904
  0
LINE
  5
106
330
FD
100
AcDbEntity
  8
0
  6
Continuous
 62
     0
370
    30
100
AcDbLine
 10
645.2444
 20
415.748135
 30
0.0
 11
645.218204
 21
418.74988
 31
0.0
  0
LINE
  5
107
330
FD
100
AcDbEntity
  8
0
  6
Continuous
 62
     0
370
    30
100
AcDbLine
 10
591.2444
 20
415.748135
 30
0.0
 11
591.270596
 21
418.74988
 31
0.0
  0
LWPOLYLINE
  5
108
330
FD
100
AcDbEntity
  8
0
  6
Continuous
 62
     0
370
     0
100
AcDbPolyline
 90
       12
 70
     0
 43
0.0
 10
655.744385
 20
514.801697
 10
655.712646
 20
514.818726
 10
655.618652
 20
514.869629
 10
655.465881
 20
514.953613
 10
655.259888
 20
515.069641
 10
655.007446
 20
515.216553
 10
654.715576
 20
515.393311
 10
654.391113
 20
515.598755
 10
654.039368
 20
515.832031
 10
653.664612
 20
516.092407
 10
653.270325
 20
516.379089
 10
652.834534
 20
516.709229
  0
LWPOLYLINE
  5
109
330
FD
100
AcDbEntity
  8
0
  6
Continuous
 62
     0
370
     0
100
AcDbPolyline
 90
       37
 70
     0
 43
0.0
 10
652.834534
 20
516.709229
 10
651.741821
 20
516.785522
 10
650.645142
 20
516.817383
 10
649.547241
 20
516.803955
 10
648.450867
 20
516.7453
 10
647.357788
 20
516.643616
 10
646.270508
 20
516.504272
 10
645.190674
 20
516.334351
 10
644.118591
 20
516.140564
 10
643.056396
 20
515.947266
 10
642.005127
 20
515.783081
 10
640.954041
 20
515.624268
 10
639.894531
 20
515.41687
 10
638.835144
 20
515.122437
 10
637.782532
 20
514.792542
 10
636.734863
 20
514.448914
 10
635.69519
 20
514.072021
 10
634.66394
 20
513.666626
 10
633.64209
 20
513.232788
 10
632.631104
 20
512.769653
 10
631.632446
 20
512.276001
 10
630.647461
 20
511.751465
 10
629.677673
 20
511.196198
 10
628.724426
 20
510.610413
 10
627.789124
 20
509.994232
 10
626.873169
 20
509.347748
 10
625.977905
 20
508.671234
 10
625.104431
 20
507.965332
 10
624.253845
 20
507.230835
 10
623.426147
 20
506.469543
 10
622.621094
 20
505.683594
 10
621.838318
 20
504.874664
 10
621.077209
 20
504.044373
 10
620.335876
 20
503.195404
 10
619.614136
 20
502.328766
 10
618.920837
 20
501.439087
 10
618.244385
 20
500.496185
  0
LWPOLYLINE
  5
10A
330
FD
100
AcDbEntity
  8
0
  6
Continuous
 62
     0
370
     0
100
AcDbPolyline
 90
       43
 70
     0
 43
0.0
 10
618.244385
 20
500.496185
 10
618.627197
 20
500.800323
 10
619.023682
 20
501.064941
 10
619.429749
 20
501.285919
 10
619.848389
 20
501.465332
 10
620.278931
 20
501.603149
 10
620.720215
 20
501.699158
 10
621.171326
 20
501.753967
 10
621.631958
 20
501.769348
 10
622.101624
 20
501.747162
 10
622.579773
 20
501.689636
 10
623.065979
 20
501.599213
 10
623.55957
 20
501.478394
 10
624.060181
 20
501.329956
 10
624.567383
 20
501.156708
 10
625.080688
 20
500.961395
 10
625.599609
 20
500.746674
 10
626.123718
 20
500.515198
 10
626.652161
 20
500.269409
 10
627.184326
 20
500.011841
 10
627.719177
 20
499.744781
 10
628.255615
 20
499.470245
 10
628.79303
 20
499.190369
 10
629.329285
 20
498.905731
 10
629.862183
 20
498.620361
 10
630.396301
 20
498.359344
 10
630.933289
 20
498.135223
 10
631.468628
 20
497.940582
 10
631.994629
 20
497.759583
 10
632.505371
 20
497.584229
 10
632.99646
 20
497.407898
 10
633.464111
 20
497.225952
 10
633.904602
 20
497.034882
 10
634.314819
 20
496.832428
 10
634.692322
 20
496.619476
 10
635.03479
 20
496.397583
 10
635.339783
 20
496.172119
 10
635.605103
 20
495.951385
 10
635.828247
 20
495.744629
 10
636.00647
 20
495.564362
 10
636.136963
 20
495.423492
 10
636.216919
 20
495.333282
 10
636.244385
 20
495.301697
  0
ARC
  5
10B
330
FD
100
AcDbEntity
  8
0
  6
Continuous
 62
     0
370
    30
100
AcDbCircle
 10
655.7444
 20
495.301706
 30
0.0
 40
19.49999999998025
100
AcDbArc
 50
90.0
 51
180.0
  0
LINE
  5
10C
330
FD
100
AcDbEntity
  8
0
  6
Continuous
 62
     0
370
     0
100
AcDbLine
 10
730.744401
 20
517.152169
 30
0.0
 11
730.744401
 21
526.599081
 31
0.0
  0
LWPOLYLINE
  5
10D
330
FD
100
AcDbEntity
  8
0
  6
Continuous
 62
     0
370
    30
100
AcDbPolyline
 90
       20
 70
     0
 43
0.0
 10
741.34491
 20
515.269958
 10
741.308289
 20
515.278503
 10
741.199036
 20
515.303894
 10
741.018433
 20
515.345764
 10
740.767578
 20
515.40387
 10
740.449036
 20
515.477356
 10
740.065613
 20
515.565247
 10
739.620117
 20
515.666626
 10
739.116089
 20
515.779968
 10
738.557251
 20
515.903687
 10
737.947266
 20
516.036011
 10
737.289856
 20
516.1745
 10
736.588745
 20
516.316589
 10
735.847595
 20
516.459473
 10
735.070374
 20
516.599792
 10
734.261169
 20
516.73407
 10
733.423584
 20
516.859497
 10
732.560364
 20
516.97168
 10
731.675476
 20
517.068481
 10
730.744385
 20
517.152161
  0
LWPOLYLINE
  5
10E
330
FD
100
AcDbEntity
  8
0
  6
Continuous
 62
     0
370
     0
100
AcDbPolyline
 90
       25
 70
     0
 43
0.0
 10
730.744385
 20
526.59906
 10
731.921265
 20
526.594727
 10
733.093689
 20
526.574951
 10
734.254578
 20
526.547913
 10
735.400513
 20
526.509644
 10
736.526428
 20
526.461304
 10
737.626953
 20
526.404358
 10
738.69812
 20
526.339539
 10
739.735718
 20
526.267944
 10
740.735596
 20
526.190857
 10
741.693176
 20
526.109802
 10
742.603882
 20
526.026245
 10
743.463501
 20
525.941528
 10
744.268494
 20
525.857117
 10
745.015381
 20
525.774536
 10
745.700867
 20
525.695129
 10
746.322388
 20
525.620239
 10
746.877686
 20
525.550903
 10
747.364502
 20
525.488281
 10
747.780762
 20
525.433411
 10
748.124512
 20
525.387146
 10
748.393921
 20
525.350342
 10
748.587402
 20
525.323608
 10
748.704346
 20
525.307373
 10
748.744324
 20
525.301758
  0
LINE
  5
10F
330
FD
100
AcDbEntity
  8
0
  6
Continuous
 62
     0
370
     0
100
AcDbLine
 10
652.834517
 20
516.70924
 30
0.0
 11
652.834519
 21
526.599095
 31
0.0
  0
LWPOLYLINE
  5
110
330
FD
100
AcDbEntity
  8
0
  6
Continuous
 62
     0
370
     0
100
AcDbPolyline
 90
       36
 70
     0
 43
0.0
 10
652.834534
 20
526.599121
 10
651.506958
 20
526.572632
 10
650.180847
 20
526.492737
 10
648.858948
 20
526.35907
 10
647.543884
 20
526.171326
 10
646.237793
 20
525.929749
 10
644.942688
 20
525.634521
 10
643.660706
 20
525.28656
 10
642.39386
 20
524.887512
 10
641.143921
 20
524.439392
 10
639.911316
 20
523.945801
 10
638.695374
 20
523.412476
 10
637.494629
 20
522.845886
 10
636.308289
 20
522.249573
 10
635.140381
 20
521.617981
 10
633.993591
 20
520.948792
 10
632.868896
 20
520.243042
 10
631.766785
 20
519.502136
 10
630.688782
 20
518.726501
 10
629.636353
 20
517.916504
 10
628.611023
 20
517.072449
 10
627.614563
 20
516.19458
 10
626.648621
 20
515.283142
 10
625.715454
 20
514.338135
 10
624.817322
 20
513.35968
 10
623.957031
 20
512.3479
 10
623.13739
 20
511.302795
 10
622.361816
 20
510.224548
 10
621.634033
 20
509.113373
 10
620.95813
 20
507.969635
 10
620.338989
 20
506.794434
 10
619.781738
 20
505.589111
 10
619.29126
 20
504.355255
 10
618.872253
 20
503.095367
 10
618.525757
 20
501.813782
 10
618.244385
 20
500.496185
  0
LINE
  5
111
330
FD
100
AcDbEntity
  8
0
  6
Continuous
 62
     0
370
     0
100
AcDbLine
 10
652.834517
 20
516.709238
 30
0.0
 11
723.384371
 21
516.709238
 31
0.0
  0
LWPOLYLINE
  5
112
330
FD
100
AcDbEntity
  8
0
  6
Continuous
 62
     0
370
    30
100
AcDbPolyline
 90
        7
 70
     0
 43
0.0
 10
723.384399
 20
516.709229
 10
724.511169
 20
516.894897
 10
725.687927
 20
517.054138
 10
726.899902
 20
517.168884
 10
728.133667
 20
517.228333
 10
729.375793
 20
517.225586
 10
730.744385
 20
517.152161
  0
LINE
  5
113
330
FD
100
AcDbEntity
  8
0
  6
Continuous
 62
     0
370
     0
100
AcDbLine
 10
730.744401
 20
526.599095
 30
0.0
 11
652.834519
 21
526.599095
 31
0.0
  0
LWPOLYLINE
  5
114
330
FD
100
AcDbEntity
  8
0
  6
Continuous
 62
     0
370
    30
100
AcDbPolyline
 90
       16
 70
     0
 43
0.0
 10
716.669739
 20
514.801697
 10
716.701599
 20
514.814453
 10
716.800415
 20
514.852356
 10
716.962646
 20
514.914612
 10
717.188721
 20
514.999939
 10
717.477295
 20
515.106506
 10
717.826843
 20
515.2323
 10
718.235474
 20
515.374573
 10
718.701172
 20
515.530334
 10
719.221802
 20
515.69635
 10
719.794861
 20
515.869141
 10
720.417908
 20
516.045044
 10
721.088196
 20
516.220276
 10
721.802612
 20
516.390991
 10
722.557922
 20
516.553284
 10
723.384399
 20
516.709229
  0
LINE
  5
115
330
FD
100
AcDbEntity
  8
0
  6
Continuous
 62
     0
370
     0
100
AcDbLine
 10
748.7444
 20
530.878135
 30
0.0
 11
730.744401
 21
530.878135
 31
0.0
  0
LINE
  5
116
330
FD
100
AcDbEntity
  8
0
  6
Continuous
 62
     0
370
     0
100
AcDbLine
 10
730.744401
 20
530.878135
 30
0.0
 11
730.744401
 21
526.599081
 31
0.0
  0
LINE
  5
117
330
FD
100
AcDbEntity
  8
0
  6
Continuous
 62
     0
370
    30
100
AcDbLine
 10
730.744401
 20
531.378135
 30
0.0
 11
618.244401
 21
531.378135
 31
0.0
  0
LWPOLYLINE
  5
118
330
FD
100
AcDbEntity
  8
0
  6
Continuous
 62
     0
370
    30
100
AcDbPolyline
 90
       25
 70
     0
 43
0.0
 10
748.244385
 20
531.378113
 10
748.213318
 20
531.378113
 10
748.117371
 20
531.378113
 10
747.952698
 20
531.378113
 10
747.716125
 20
531.378113
 10
747.405029
 20
531.378113
 10
747.017761
 20
531.378113
 10
746.553528
 20
531.378113
 10
746.012634
 20
531.378113
 10
745.396484
 20
531.378113
 10
744.707581
 20
531.378113
 10
743.949524
 20
531.378113
 10
743.126953
 20
531.378113
 10
742.245483
 20
531.378113
 10
741.311646
 20
531.378113
 10
740.33252
 20
531.378113
 10
739.315796
 20
531.378113
 10
738.26947
 20
531.378113
 10
737.201538
 20
531.378113
 10
736.119995
 20
531.378113
 10
735.032654
 20
531.378113
 10
733.946899
 20
531.378113
 10
732.869507
 20
531.378113
 10
731.806763
 20
531.378113
 10
730.744385
 20
531.378113
  0
LINE
  5
119
330
FD
100
AcDbEntity
  8
0
  6
Continuous
 62
     0
370
    30
100
AcDbLine
 10
618.244401
 20
531.378135
 30
0.0
 11
600.7444
 21
531.378135
 31
0.0
  0
LINE
  5
11A
330
FD
100
AcDbEntity
  8
0
  6
Continuous
 62
     0
370
     0
100
AcDbLine
 10
618.244401
 20
500.496183
 30
0.0
 11
618.244401
 21
530.878135
 31
0.0
  0
LINE
  5
11B
330
FD
100
AcDbEntity
  8
0
  6
Continuous
 62
     0
370
     0
100
AcDbLine
 10
618.244401
 20
530.878135
 30
0.0
 11
600.2444
 21
530.878135
 31
0.0
  0
LINE
  5
11C
330
FD
100
AcDbEntity
  8
0
  6
Continuous
 62
     0
370
    30
100
AcDbLine
 10
636.2444
 20
495.301706
 30
0.0
 11
636.2444
 21
418.948135
 31
0.0
  0
LWPOLYLINE
  5
11D
330
FD
100
AcDbEntity
  8
0
  6
Continuous
 62
     0
370
     0
100
AcDbPolyline
 90
       92
 70
     0
 43
0.0
 10
600.244385
 20
454.998627
 10
600.244934
 20
454.987976
 10
600.246399
 20
454.958435
 10
600.24884
 20
454.906586
 10
600.251953
 20
454.838165
 10
600.255554
 20
454.759003
 10
600.259521
 20
454.671814
 10
600.263794
 20
454.57724
 10
600.26825
 20
454.476227
 10
600.272827
 20
454.369904
 10
600.277527
 20
454.25943
 10
600.282227
 20
454.145874
 10
600.286987
 20
454.029755
 10
600.291748
 20
453.911346
 10
600.296448
 20
453.790924
 10
600.301086
 20
453.668762
 10
600.305664
 20
453.545074
 10
600.310181
 20
453.420074
 10
600.314636
 20
453.293945
 10
600.319031
 20
453.166809
 10
600.323242
 20
453.038727
 10
600.327393
 20
452.909821
 10
600.331482
 20
452.780182
 10
600.335388
 20
452.649902
 10
600.339172
 20
452.519043
 10
600.342896
 20
452.387665
 10
600.346436
 20
452.255798
 10
600.349854
 20
452.123474
 10
600.353088
 20
451.990723
 10
600.356262
 20
451.857605
 10
600.359253
 20
451.724152
 10
600.362061
 20
451.590332
 10
600.364807
 20
451.456238
 10
600.36731
 20
451.321869
 10
600.36969
 20
451.187225
 10
600.371948
 20
451.052338
 10
600.374023
 20
450.917236
 10
600.375916
 20
450.781982
 10
600.377686
 20
450.646515
 10
600.379211
 20
450.510956
 10
600.380676
 20
450.375244
 10
600.381897
 20
450.239441
 10
600.382935
 20
450.103546
 10
600.38385
 20
449.96759
 10
600.384521
 20
449.831573
 10
600.385071
 20
449.695496
 10
600.385437
 20
449.559387
 10
600.385559
 20
449.423248
 10
600.385559
 20
449.287079
 10
600.385376
 20
449.15094
 10
600.384949
 20
449.014801
 10
600.384399
 20
448.878693
 10
600.383606
 20
448.742615
 10
600.382629
 20
448.606628
 10
600.38147
 20
448.470734
 10
600.380066
 20
448.334961
 10
600.37854
 20
448.199341
 10
600.37677
 20
448.063904
 10
600.374817
 20
447.92868
 10
600.372681
 20
447.793701
 10
600.370361
 20
447.658966
 10
600.367798
 20
447.524567
 10
600.365051
 20
447.390472
 10
600.362122
 20
447.256744
 10
600.359009
 20
447.123413
 10
600.355713
 20
446.99057
 10
600.352173
 20
446.858246
 10
600.348511
 20
446.726471
 10
600.344604
 20
446.595367
 10
600.340515
 20
446.464966
 10
600.336304
 20
446.335358
 10
600.331848
 20
446.206665
 10
600.327271
 20
446.078979
 10
600.32251
 20
445.952393
 10
600.317566
 20
445.827057
 10
600.3125
 20
445.703125
 10
600.307373
 20
445.580902
 10
600.302063
 20
445.460693
 10
600.296692
 20
445.342865
 10
600.291321
 20
445.227692
 10
600.28595
 20
445.11554
 10
600.280579
 20
445.006836
 10
600.275208
 20
444.902985
 10
600.269958
 20
444.804199
 10
600.264954
 20
444.711182
 10
600.260254
 20
444.624359
 10
600.255859
 20
444.548798
 10
600.252075
 20
444.480103
 10
600.24884
 20
444.424957
 10
600.246399
 20
444.386444
 10
600.244934
 20
444.359314
 10
600.244385
 20
444.350708
  0
LINE
  5
11E
330
FD
100
AcDbEntity
  8
0
  6
Continuous
 62
     0
370
     0
100
AcDbLine
 10
730.744401
 20
530.878135
 30
0.0
 11
618.244401
 21
530.878135
 31
0.0
  0
LINE
  5
11F
330
FD
100
AcDbEntity
  8
0
  6
Continuous
 62
     0
370
     0
100
AcDbLine
 10
730.744401
 20
530.878135
 30
0.0
 11
730.744401
 21
531.378135
 31
0.0
  0
LINE
  5
120
330
FD
100
AcDbEntity
  8
0
  6
Continuous
 62
     0
370
     0
100
AcDbLine
 10
618.244401
 20
531.378135
 30
0.0
 11
618.244401
 21
530.878135
 31
0.0
  0
LINE
  5
121
330
FD
100
AcDbEntity
  8
0
  6
Continuous
 62
     0
370
    30
100
AcDbLine
 10
600.2444
 20
444.942956
 30
0.0
 11
600.2444
 21
444.350713
 31
0.0
  0
LINE
  5
122
330
FD
100
AcDbEntity
  8
0
  6
Continuous
 62
     0
370
    30
100
AcDbLine
 10
600.2444
 20
454.998638
 30
0.0
 11
600.2444
 21
454.405862
 31
0.0
  0
ARC
  5
123
330
FD
100
AcDbEntity
  8
0
  6
Continuous
 62
     0
370
    30
100
AcDbCircle
 10
748.244397
 20
530.878132
 30
0.0
 40
0.5000026303632501
100
AcDbArc
 50
0.000301
 51
89.996086
  0
ARC
  5
124
330
FD
100
AcDbEntity
  8
0
  6
Continuous
 62
     0
370
    30
100
AcDbCircle
 10
600.744403
 20
530.878132
 30
0.0
 40
0.5000026304333935
100
AcDbArc
 50
90.003914
 51
179.999699
  0
LINE
  5
125
330
FD
100
AcDbEntity
  8
0
  6
Continuous
 62
     0
370
    30
100
AcDbLine
 10
600.2444
 20
418.948135
 30
0.0
 11
600.2444
 21
444.350713
 31
0.0
  0
LINE
  5
126
330
FD
100
AcDbEntity
  8
0
  6
Continuous
 62
     0
370
    30
100
AcDbLine
 10
600.2444
 20
454.998639
 30
0.0
 11
600.2444
 21
530.878135
 31
0.0
  0
LINE
  5
127
330
FD
100
AcDbEntity
  8
0
  6
Continuous
 62
     0
370
    30
100
AcDbLine
 10
748.7444
 20
530.878135
 30
0.0
 11
748.7444
 21
525.30156
 31
0.0
  0
LINE
  5
128
330
FD
100
AcDbEntity
  8
0
  6
Continuous
 62
     0
370
    30
100
AcDbLine
 10
655.7444
 20
514.801706
 30
0.0
 11
716.669726
 21
514.801706
 31
0.0
  0
LWPOLYLINE
  5
129
330
FD
100
AcDbEntity
  8
0
  6
Continuous
 62
     0
370
    30
100
AcDbPolyline
 90
       20
 70
     0
 43
0.0
 10
748.744324
 20
525.301758
 10
748.720825
 20
524.601379
 10
748.650696
 20
523.903564
 10
748.534302
 20
523.212036
 10
748.372009
 20
522.529968
 10
748.16449
 20
521.860413
 10
747.912354
 20
521.206238
 10
747.617126
 20
520.570374
 10
747.280334
 20
519.955444
 10
746.903564
 20
519.364197
 10
746.488281
 20
518.799316
 10
746.036133
 20
518.26355
 10
745.548889
 20
517.759399
 10
745.028992
 20
517.289062
 10
744.479004
 20
516.854187
 10
743.901489
 20
516.456726
 10
743.298828
 20
516.098511
 10
742.673523
 20
515.781494
 10
742.02832
 20
515.507202
 10
741.345093
 20
515.27002
  0
LINE
  5
12A
330
FD
100
AcDbEntity
  8
0
  6
Continuous
 62
     0
370
     0
100
AcDbLine
 10
601.540854
 20
532.078133
 30
0.0
 11
601.83206
 21
532.078133
 31
0.0
  0
ARC
  5
12B
330
FD
100
AcDbEntity
  8
0
  6
Continuous
 62
     0
370
     0
100
AcDbCircle
 10
619.424251
 20
530.637895
 30
0.0
 40
17.65104692319626
100
AcDbArc
 50
175.319747
 51
177.596465
  0
ARC
  5
12C
330
FD
100
AcDbEntity
  8
0
  6
Continuous
 62
     0
370
    30
100
AcDbCircle
 10
618.964937
 20
530.425494
 30
0.0
 40
17.50230854389946
100
AcDbArc
 50
174.581831
 51
176.87989
  0
LWPOLYLINE
  5
12D
330
FD
100
AcDbEntity
  8
0
  6
Continuous
 62
     0
370
    30
100
AcDbPolyline
 90
        9
 70
     0
 43
0.0
 10
603.797424
 20
539.156433
 10
603.356018
 20
538.340698
 10
602.958435
 20
537.502808
 10
602.605835
 20
536.64502
 10
602.299194
 20
535.769714
 10
602.039307
 20
534.879395
 10
601.826965
 20
533.976562
 10
601.662598
 20
533.063782
 10
601.540833
 20
532.078125
  0
ARC
  5
12E
330
FD
100
AcDbEntity
  8
0
  6
Continuous
 62
     0
370
    30
100
AcDbCircle
 10
617.524715
 20
530.422637
 30
0.0
 40
17.5017239292227
100
AcDbArc
 50
3.129582
 51
11.453943
  0
LINE
  5
12F
330
FD
100
AcDbEntity
  8
0
  6
Continuous
 62
     0
370
    30
100
AcDbLine
 10
666.722722
 20
567.316364
 30
0.0
 11
683.710655
 21
570.311796
 31
0.0
  0
LINE
  5
130
330
FD
100
AcDbEntity
  8
0
  6
Continuous
 62
     0
370
    30
100
AcDbLine
 10
600.907576
 20
555.711379
 30
0.0
 11
618.157577
 21
558.753019
 31
0.0
  0
LINE
  5
131
330
FD
100
AcDbEntity
  8
0
  6
Continuous
 62
     0
370
    30
100
AcDbLine
 10
618.157577
 20
558.753019
 30
0.0
 11
666.722722
 21
567.316364
 31
0.0
  0
LINE
  5
132
330
FD
100
AcDbEntity
  8
0
  6
Continuous
 62
     0
370
     0
100
AcDbLine
 10
666.809546
 20
566.823961
 30
0.0
 11
666.722722
 21
567.316364
 31
0.0
  0
LINE
  5
133
330
FD
100
AcDbEntity
  8
0
  6
Continuous
 62
     0
370
     0
100
AcDbLine
 10
618.157577
 20
558.753019
 30
0.0
 11
618.244401
 21
558.260615
 31
0.0
  0
LINE
  5
134
330
FD
100
AcDbEntity
  8
0
  6
Continuous
 62
     0
370
     0
100
AcDbLine
 10
618.244401
 20
558.260615
 30
0.0
 11
666.809546
 21
566.823961
 31
0.0
  0
LINE
  5
135
330
FD
100
AcDbEntity
  8
0
  6
Continuous
 62
     0
370
     0
100
AcDbLine
 10
666.809546
 20
566.823961
 30
0.0
 11
684.289883
 21
569.906216
 31
0.0
  0
ARC
  5
136
330
FD
100
AcDbEntity
  8
0
  6
Continuous
 62
     0
370
    30
100
AcDbCircle
 10
600.9944
 20
555.218975
 30
0.0
 40
0.4999999999708631
100
AcDbArc
 50
100.0
 51
180.0
  0
LINE
  5
137
330
FD
100
AcDbEntity
  8
0
  6
Continuous
 62
     0
370
     0
100
AcDbLine
 10
618.244401
 20
558.260615
 30
0.0
 11
600.4944
 21
555.218975
 31
0.0
  0
LINE
  5
138
330
FD
100
AcDbEntity
  8
0
  6
Continuous
 62
     0
370
    30
100
AcDbLine
 10
635.9944
 20
551.514369
 30
0.0
 11
635.9944
 21
533.898132
 31
0.0
  0
LINE
  5
139
330
FD
100
AcDbEntity
  8
0
  6
Continuous
 62
     0
370
    30
100
AcDbLine
 10
600.4944
 20
540.358685
 30
0.0
 11
618.244401
 21
533.898132
 31
0.0
  0
LINE
  5
13A
330
FD
100
AcDbEntity
  8
0
  6
Continuous
 62
     0
370
    30
100
AcDbLine
 10
618.244401
 20
533.898132
 30
0.0
 11
635.9944
 21
533.898132
 31
0.0
  0
LWPOLYLINE
  5
13B
330
FD
100
AcDbEntity
  8
0
  6
Continuous
 62
     0
370
     0
100
AcDbPolyline
 90
       28
 70
     0
 43
0.0
 10
635.994385
 20
551.514343
 10
635.963501
 20
551.490662
 10
635.871094
 20
551.427368
 10
635.717957
 20
551.337036
 10
635.504883
 20
551.23175
 10
635.232422
 20
551.12262
 10
634.901245
 20
551.021118
 10
634.512085
 20
550.937439
 10
634.066467
 20
550.860596
 10
633.56604
 20
550.782104
 10
633.012756
 20
550.7005
 10
632.408569
 20
550.614258
 10
631.75592
 20
550.52179
 10
631.056946
 20
550.421204
 10
630.314148
 20
550.310669
 10
629.530823
 20
550.188477
 10
628.710327
 20
550.052795
 10
627.855835
 20
549.901855
 10
626.970276
 20
549.733887
 10
626.057434
 20
549.547363
 10
625.121765
 20
549.341248
 10
624.167419
 20
549.114319
 10
623.198608
 20
548.865784
 10
622.219238
 20
548.595215
 10
621.233276
 20
548.302307
 10
620.244446
 20
547.987122
 10
619.256348
 20
547.649841
 10
618.244385
 20
547.280518
  0
LINE
  5
13C
330
FD
100
AcDbEntity
  8
0
  6
Continuous
 62
     0
370
     0
100
AcDbLine
 10
618.244401
 20
547.280523
 30
0.0
 11
618.244401
 21
558.260615
 31
0.0
  0
LWPOLYLINE
  5
13D
330
FD
100
AcDbEntity
  8
0
  6
Continuous
 62
     0
370
     0
100
AcDbPolyline
 90
       20
 70
     0
 43
0.0
 10
600.494385
 20
552.162659
 10
600.499207
 20
552.128967
 10
600.513062
 20
552.02771
 10
600.534485
 20
551.862671
 10
600.561218
 20
551.637512
 10
600.590271
 20
551.357727
 10
600.618652
 20
551.030396
 10
600.643127
 20
550.665405
 10
600.66095
 20
550.272949
 10
600.670227
 20
549.863953
 10
600.669983
 20
549.449463
 10
600.6604
 20
549.040894
 10
600.642456
 20
548.648926
 10
600.618103
 20
548.283569
 10
600.590027
 20
547.95459
 10
600.561279
 20
547.671448
 10
600.534729
 20
547.44165
 10
600.513367
 20
547.271606
 10
600.49939
 20
547.166382
 10
600.494385
 20
547.130371
  0
LWPOLYLINE
  5
13E
330
FD
100
AcDbEntity
  8
0
  6
Continuous
 62
     0
370
     0
100
AcDbPolyline
 90
       20
 70
     0
 43
0.0
 10
618.244385
 20
547.280518
 10
618.618469
 20
548.161987
 10
619.065979
 20
549.035095
 10
619.587769
 20
549.896912
 10
620.181458
 20
550.745056
 10
620.84668
 20
551.577454
 10
621.582336
 20
552.393188
 10
622.387085
 20
553.192139
 10
623.258606
 20
553.97583
 10
624.192627
 20
554.747742
 10
625.181152
 20
555.514099
 10
626.214478
 20
556.260132
 10
627.290588
 20
556.953064
 10
628.407043
 20
557.589722
 10
629.560974
 20
558.167297
 10
630.74884
 20
558.683716
 10
631.966858
 20
559.137146
 10
633.210693
 20
559.52655
 10
634.475647
 20
559.85144
 10
635.787109
 20
560.11731
  0
LINE
  5
13F
330
FD
100
AcDbEntity
  8
0
  6
Continuous
 62
     0
370
     0
100
AcDbLine
 10
635.787102
 20
560.117312
 30
0.0
 11
667.02101
 21
565.624693
 31
0.0
  0
LINE
  5
140
330
FD
100
AcDbEntity
  8
0
  6
Continuous
 62
     0
370
     0
100
AcDbLine
 10
667.02101
 20
565.624693
 30
0.0
 11
666.809546
 21
566.823961
 31
0.0
  0
LWPOLYLINE
  5
141
330
FD
100
AcDbEntity
  8
0
  6
Continuous
 62
     0
370
     0
100
AcDbPolyline
 90
       16
 70
     0
 43
0.0
 10
636.044617
 20
558.656738
 10
636.807617
 20
558.65509
 10
637.525269
 20
558.648315
 10
638.194702
 20
558.637207
 10
638.813599
 20
558.622437
 10
639.3797
 20
558.604858
 10
639.891357
 20
558.585205
 10
640.346558
 20
558.564209
 10
640.737122
 20
558.541199
 10
641.055847
 20
558.515747
 10
641.30658
 20
558.489624
 10
641.496216
 20
558.4646
 10
641.630798
 20
558.442444
 10
641.717468
 20
558.424561
 10
641.763977
 20
558.412598
 10
641.77887
 20
558.40802
  0
LWPOLYLINE
  5
142
330
FD
100
AcDbEntity
  8
0
  6
Continuous
 62
     0
370
     0
100
AcDbPolyline
 90
       21
 70
     0
 43
0.0
 10
618.244385
 20
547.280518
 10
619.131042
 20
547.877563
 10
619.999695
 20
548.498779
 10
620.846802
 20
549.146606
 10
621.67334
 20
549.818542
 10
622.481873
 20
550.511169
 10
623.277405
 20
551.218872
 10
624.067566
 20
551.933472
 10
624.861511
 20
552.644836
 10
625.668762
 20
553.342041
 10
626.497314
 20
554.01355
 10
627.348389
 20
554.656433
 10
628.21814
 20
555.27478
 10
629.107727
 20
555.865295
 10
630.020081
 20
556.421082
 10
630.957397
 20
556.934204
 10
631.919739
 20
557.398193
 10
632.90741
 20
557.807068
 10
633.919983
 20
558.155212
 10
634.952026
 20
558.437439
 10
636.044617
 20
558.656738
  0
LINE
  5
143
330
FD
100
AcDbEntity
  8
0
  6
Continuous
 62
     0
370
    30
100
AcDbLine
 10
635.996168
 20
551.670322
 30
0.0
 11
635.9944
 21
551.514369
 31
0.0
  0
LWPOLYLINE
  5
144
330
FD
100
AcDbEntity
  8
0
  6
Continuous
 62
     0
370
     0
100
AcDbPolyline
 90
       22
 70
     0
 43
0.0
 10
682.266113
 20
565.546997
 10
682.230103
 20
565.547241
 10
682.121277
 20
565.547363
 10
681.938354
 20
565.546753
 10
681.680115
 20
565.5448
 10
681.345703
 20
565.540649
 10
680.934631
 20
565.533264
 10
680.447021
 20
565.521423
 10
679.883179
 20
565.503784
 10
679.24469
 20
565.479004
 10
678.534546
 20
565.445679
 10
677.75592
 20
565.402344
 10
676.912292
 20
565.347534
 10
676.008118
 20
565.279968
 10
675.048218
 20
565.198242
 10
674.038757
 20
565.101379
 10
672.986633
 20
564.988586
 10
671.896729
 20
564.858948
 10
670.77301
 20
564.711548
 10
669.624756
 20
564.546631
 10
668.464539
 20
564.365234
 10
667.278564
 20
564.164124
  0
LINE
  5
145
330
FD
100
AcDbEntity
  8
0
  6
Continuous
 62
     0
370
     0
100
AcDbLine
 10
667.278544
 20
564.164143
 30
0.0
 11
636.044636
 21
558.656762
 31
0.0
  0
LWPOLYLINE
  5
146
330
FD
100
AcDbEntity
  8
0
  6
Continuous
 62
     0
370
     0
100
AcDbPolyline
 90
       25
 70
     0
 43
0.0
 10
667.020996
 20
565.624695
 10
668.161621
 20
565.825928
 10
669.299744
 20
566.026184
 10
670.429199
 20
566.22406
 10
671.542603
 20
566.418152
 10
672.635071
 20
566.607361
 10
673.703918
 20
566.791199
 10
674.744995
 20
566.969238
 10
675.753967
 20
567.141357
 10
676.726196
 20
567.307068
 10
677.657227
 20
567.466064
 10
678.542542
 20
567.617981
 10
679.378174
 20
567.762512
 10
680.160522
 20
567.899231
 10
680.885925
 20
568.027954
 10
681.551147
 20
568.148254
 10
682.153992
 20
568.259644
 10
682.6922
 20
568.361511
 10
683.163513
 20
568.453125
 10
683.566101
 20
568.533569
 10
683.898254
 20
568.601807
 10
684.158142
 20
568.656982
 10
684.344788
 20
568.697937
 10
684.457764
 20
568.723572
 10
684.496826
 20
568.732727
  0
LINE
  5
147
330
FD
100
AcDbEntity
  8
0
  6
Continuous
 62
     0
370
     0
100
AcDbLine
 10
667.278544
 20
564.164143
 30
0.0
 11
667.02101
 21
565.624693
 31
0.0
  0
LINE
  5
148
330
FD
100
AcDbEntity
  8
0
  6
Continuous
 62
     0
370
     0
100
AcDbLine
 10
636.044636
 20
558.656762
 30
0.0
 11
635.787102
 21
560.117312
 31
0.0
  0
LINE
  5
149
330
FD
100
AcDbEntity
  8
0
  6
Continuous
 62
     0
370
    30
100
AcDbLine
 10
600.4944
 20
552.162664
 30
0.0
 11
600.4944
 21
547.13036
 31
0.0
  0
ARC
  5
14A
330
FD
100
AcDbEntity
  8
0
  6
Continuous
 62
     0
370
    30
100
AcDbCircle
 10
681.788483
 20
568.2553
 30
0.0
 40
2.750077146302327
100
AcDbArc
 50
280.00161
 51
9.998391
  0
LINE
  5
14B
330
FD
100
AcDbEntity
  8
0
  6
Continuous
 62
     0
370
    30
100
AcDbLine
 10
635.9944
 20
551.514369
 30
0.0
 11
635.996132
 21
551.670322
 31
0.0
  0
LINE
  5
14C
330
FD
100
AcDbEntity
  8
0
  6
Continuous
 62
     0
370
    30
100
AcDbLine
 10
641.778863
 20
558.408023
 30
0.0
 11
641.627675
 21
558.379618
 31
0.0
  0
LINE
  5
14D
330
FD
100
AcDbEntity
  8
0
  6
Continuous
 62
     0
370
    30
100
AcDbLine
 10
684.289883
 20
569.906216
 30
0.0
 11
684.496825
 21
568.732587
 31
0.0
  0
LINE
  5
14E
330
FD
100
AcDbEntity
  8
0
  6
Continuous
 62
     0
370
    30
100
AcDbLine
 10
641.778863
 20
558.408023
 30
0.0
 11
682.266066
 21
565.547009
 31
0.0
  0
LWPOLYLINE
  5
14F
330
FD
100
AcDbEntity
  8
0
  6
Continuous
 62
     0
370
    30
100
AcDbPolyline
 90
       19
 70
     0
 43
0.0
 10
641.77887
 20
558.40802
 10
641.257263
 20
558.295105
 10
640.745789
 20
558.142761
 10
640.247253
 20
557.952271
 10
639.764648
 20
557.724487
 10
639.300842
 20
557.46051
 10
638.858521
 20
557.161865
 10
638.440308
 20
556.830322
 10
638.048523
 20
556.467896
 10
637.685486
 20
556.076721
 10
637.353394
 20
555.658936
 10
637.054077
 20
555.217163
 10
636.789185
 20
554.753845
 10
636.560303
 20
554.271729
 10
636.369019
 20
553.773499
 10
636.216492
 20
553.262024
 10
636.103271
 20
552.74054
 10
636.029724
 20
552.211914
 10
635.996155
 20
551.670349
  0
LINE
  5
150
330
FD
100
AcDbEntity
  8
0
  6
Continuous
 62
     0
370
    30
100
AcDbLine
 10
600.4944
 20
540.358765
 30
0.0
 11
600.4944
 21
547.13036
 31
0.0
  0
LINE
  5
151
330
FD
100
AcDbEntity
  8
0
  6
Continuous
 62
     0
370
    30
100
AcDbLine
 10
600.4944
 20
552.162664
 30
0.0
 11
600.4944
 21
555.218975
 31
0.0
  0
ARC
  5
152
330
FD
100
AcDbEntity
  8
0
  6
Continuous
 62
     0
370
    30
100
AcDbCircle
 10
683.797477
 20
569.819389
 30
0.0
 40
0.5000026321073868
100
AcDbArc
 50
10.000302
 51
99.996143
  0
LINE
  5
153
330
FD
100
AcDbEntity
  8
0
  6
Continuous
 62
     0
370
    30
100
AcDbLine
 10
719.910455
 20
513.298617
 30
0.0
 11
724.418351
 21
513.93216
 31
0.0
  0
LINE
  5
154
330
FD
100
AcDbEntity
  8
0
  6
Continuous
 62
     0
370
    30
100
AcDbLine
 10
724.418351
 20
513.93216
 30
0.0
 11
738.230414
 21
515.873319
 31
0.0
  0
LINE
  5
155
330
FD
100
AcDbEntity
  8
0
  6
Continuous
 62
     0
370
    30
100
AcDbLine
 10
719.559008
 20
515.799292
 30
0.0
 11
719.910455
 21
513.298617
 31
0.0
  0
LINE
  5
156
330
FD
100
AcDbEntity
  8
0
  6
Continuous
 62
     0
370
    30
100
AcDbLine
 10
738.215677
 20
515.978179
 30
0.0
 11
738.230414
 21
515.873319
 31
0.0
  0
LWPOLYLINE
  5
157
330
FD
100
AcDbEntity
  8
0
  6
Continuous
 62
     0
370
     0
100
AcDbPolyline
 90
        9
 70
     0
 43
0.0
 10
591.017944
 20
461.943695
 10
591.017944
 20
461.580078
 10
591.018005
 20
461.20813
 10
591.018127
 20
460.850189
 10
591.01825
 20
460.530579
 10
591.018433
 20
460.270874
 10
591.018677
 20
460.085175
 10
591.018921
 20
459.977936
 10
591.019104
 20
459.944244
  0
ARC
  5
158
330
FD
100
AcDbEntity
  8
0
  6
Continuous
 62
     0
370
     0
100
AcDbCircle
 10
1433.455262
 20
462.443846
 30
0.0
 40
842.4374882952063
100
AcDbArc
 50
179.897954
 51
180.034016
  0
LINE
  5
159
330
FD
100
AcDbEntity
  8
0
  6
Continuous
 62
     0
370
     0
100
AcDbLine
 10
596.002614
 20
458.768101
 30
0.0
 11
597.816417
 21
459.613891
 31
0.0
  0
LWPOLYLINE
  5
15A
330
FD
100
AcDbEntity
  8
0
  6
Continuous
 62
     0
370
     0
100
AcDbPolyline
 90
        9
 70
     0
 43
0.0
 10
594.191162
 20
457.923431
 10
594.221191
 20
457.937408
 10
594.317871
 20
457.982483
 10
594.485657
 20
458.06073
 10
594.720642
 20
458.170319
 10
595.01001
 20
458.305267
 10
595.334351
 20
458.456482
 10
595.671448
 20
458.613678
 10
596.002625
 20
458.768097
  0
LINE
  5
15B
330
FD
100
AcDbEntity
  8
0
  6
Continuous
 62
     0
370
    30
100
AcDbLine
 10
579.523861
 20
463.444256
 30
0.0
 11
579.52297
 21
461.943841
 31
0.0
  0
LINE
  5
15C
330
FD
100
AcDbEntity
  8
0
  6
Continuous
 62
     0
370
    30
100
AcDbLine
 10
579.52297
 20
461.943841
 30
0.0
 11
579.523861
 21
460.444256
 31
0.0
  0
ELLIPSE
  5
15D
330
FD
100
AcDbEntity
  8
0
  6
Continuous
 62
     0
370
    30
100
AcDbEllipse
 10
580.023861
 20
461.944256
 30
0.0
 11
2.152004919306370E-7
 21
1.999999999999988
 31
0.0
210
0.0
220
0.0
230
1.0
 40
0.000594
 41
1.571073207935295
 42
3.141592653588161
  0
ELLIPSE
  5
15E
330
FD
100
AcDbEntity
  8
0
  6
Continuous
 62
     0
370
    30
100
AcDbEllipse
 10
580.023861
 20
461.944256
 30
0.0
 11
2.152004919306370E-7
 21
1.999999999999988
 31
0.0
210
0.0
220
0.0
230
1.0
 40
0.000594
 41
-0.0000000000016325
 42
1.571073207935295
  0
LWPOLYLINE
  5
15F
330
FD
100
AcDbEntity
  8
0
  6
Continuous
 62
     0
370
    30
100
AcDbPolyline
 90
       24
 70
     0
 43
0.0
 10
600.355835
 20
449.432556
 10
600.35553
 20
449.680511
 10
600.354553
 20
449.928375
 10
600.352966
 20
450.176056
 10
600.350891
 20
450.42334
 10
600.348206
 20
450.670166
 10
600.345093
 20
450.916351
 10
600.341431
 20
451.161774
 10
600.337219
 20
451.406281
 10
600.33252
 20
451.649689
 10
600.327271
 20
451.891846
 10
600.321472
 20
452.132446
 10
600.315247
 20
452.371033
 10
600.308655
 20
452.607208
 10
600.301819
 20
452.840454
 10
600.294678
 20
453.070129
 10
600.28717
 20
453.295563
 10
600.27948
 20
453.51535
 10
600.271729
 20
453.726135
 10
600.264099
 20
453.924133
 10
600.256958
 20
454.104584
 10
600.250732
 20
454.257477
 10
600.246216
 20
454.365601
 10
600.244446
 20
454.405853
  0
LWPOLYLINE
  5
160
330
FD
100
AcDbEntity
  8
0
  6
Continuous
 62
     0
370
    30
100
AcDbPolyline
 90
       21
 70
     0
 43
0.0
 10
600.244324
 20
444.942963
 10
600.246277
 20
444.979279
 10
600.251526
 20
445.081696
 10
600.259033
 20
445.2323
 10
600.2677
 20
445.416046
 10
600.276794
 20
445.621948
 10
600.286011
 20
445.842987
 10
600.295105
 20
446.075226
 10
600.303772
 20
446.315735
 10
600.312012
 20
446.561798
 10
600.31958
 20
446.812073
 10
600.326477
 20
447.065765
 10
600.332581
 20
447.322083
 10
600.338013
 20
447.580566
 10
600.342712
 20
447.84082
 10
600.34668
 20
448.102478
 10
600.349976
 20
448.365173
 10
600.3526
 20
448.628632
 10
600.354431
 20
448.892517
 10
600.355469
 20
449.156525
 10
600.355835
 20
449.432556
  0
LINE
  5
161
330
FD
100
AcDbEntity
  8
0
  6
Continuous
 62
     0
370
    30
100
AcDbLine
 10
594.191186
 20
457.923418
 30
0.0
 11
600.244013
 21
444.943088
 31
0.0
  0
LINE
  5
162
330
FD
100
AcDbEntity
  8
0
  6
Continuous
 62
     0
370
    30
100
AcDbLine
 10
597.816417
 20
459.613891
 30
0.0
 11
600.245324
 21
454.405083
 31
0.0
  0
LINE
  5
163
330
FD
100
AcDbEntity
  8
0
  6
Continuous
 62
     0
370
    30
100
AcDbLine
 10
580.02386
 20
463.944255
 30
0.0
 11
579.523887
 21
463.444282
 31
0.0
  0
LINE
  5
164
330
FD
100
AcDbEntity
  8
0
  6
Continuous
 62
     0
370
    30
100
AcDbLine
 10
580.02386
 20
459.944256
 30
0.0
 11
579.523887
 21
460.444229
 31
0.0
  0
LINE
  5
165
330
FD
100
AcDbEntity
  8
0
  6
Continuous
 62
     0
370
    30
100
AcDbLine
 10
580.023861
 20
459.944256
 30
0.0
 11
591.019109
 21
459.944255
 31
0.0
  0
LINE
  5
166
330
FD
100
AcDbEntity
  8
0
  6
Continuous
 62
     0
370
    30
100
AcDbLine
 10
580.023861
 20
463.944256
 30
0.0
 11
591.019109
 21
463.944255
 31
0.0
  0
ARC
  5
167
330
FD
100
AcDbEntity
  8
0
  6
Continuous
 62
     0
370
    30
100
AcDbCircle
 10
591.019054
 20
456.444168
 30
0.0
 40
3.500086122796548
100
AcDbArc
 50
25.000893
 51
89.999091
  0
ARC
  5
168
330
FD
100
AcDbEntity
  8
0
  6
Continuous
 62
     0
370
    30
100
AcDbCircle
 10
591.019201
 20
456.444401
 30
0.0
 40
7.499853859638824
100
AcDbArc
 50
24.999286
 51
90.000703
  0
ENDBLK
  5
16A
330
FD
100
AcDbEntity
  8
0
100
AcDbBlockEnd
  0
BLOCK
  5
1D7
330
16C
100
AcDbEntity
  8
0
100
AcDbBlockBegin
  2
d
 70
     0
 10
357.501465
 20
0.0
 30
0.0
  3
d
  1

  0
LWPOLYLINE
  5
16D
330
16C
100
AcDbEntity
  8
0
  6
Continuous
 62
     0
370
    30
100
AcDbPolyline
 90
       22
 70
     0
 43
0.0
 10
257.755646
 20
418.94812
 10
257.794281
 20
418.94812
 10
257.911163
 20
418.94812
 10
258.10733
 20
418.94812
 10
258.383148
 20
418.94812
 10
258.73819
 20
418.94812
 10
259.171387
 20
418.94812
 10
259.680939
 20
418.94812
 10
260.264313
 20
418.94812
 10
260.918396
 20
418.94812
 10
261.639435
 20
418.94812
 10
262.423157
 20
418.94812
 10
263.264893
 20
418.94812
 10
264.159515
 20
418.94812
 10
265.101654
 20
418.94812
 10
266.085815
 20
418.94812
 10
267.106354
 20
418.94812
 10
268.157532
 20
418.94812
 10
269.233795
 20
418.94812
 10
270.329681
 20
418.94812
 10
271.43988
 20
418.94812
 10
272.561798
 20
418.94812
  0
LINE
  5
16E
330
16C
100
AcDbEntity
  8
0
  6
Continuous
 62
     0
370
    30
100
AcDbLine
 10
272.561794
 20
418.948135
 30
0.0
 11
311.303276
 21
418.948135
 31
0.0
  0
LWPOLYLINE
  5
16F
330
16C
100
AcDbEntity
  8
0
  6
Continuous
 62
     0
370
    30
100
AcDbPolyline
 90
       23
 70
     0
 43
0.0
 10
257.529449
 20
415.748138
 10
257.564789
 20
415.748138
 10
257.671692
 20
415.748138
 10
257.851074
 20
415.748138
 10
258.103333
 20
415.748138
 10
258.428223
 20
415.748138
 10
258.824951
 20
415.748138
 10
259.292053
 20
415.748138
 10
259.827576
 20
415.748138
 10
260.428925
 20
415.748138
 10
261.093109
 20
415.748138
 10
261.816559
 20
415.748138
 10
262.595367
 20
415.748138
 10
263.425262
 20
415.748138
 10
264.301697
 20
415.748138
 10
265.219971
 20
415.748138
 10
266.175201
 20
415.748138
 10
267.162445
 20
415.748138
 10
268.176727
 20
415.748138
 10
269.213257
 20
415.748138
 10
270.267212
 20
415.748138
 10
271.334015
 20
415.748138
 10
272.460693
 20
415.748138
  0
LINE
  5
170
330
16C
100
AcDbEntity
  8
0
  6
Continuous
 62
     0
370
    30
100
AcDbLine
 10
272.46069
 20
415.748135
 30
0.0
 11
311.529465
 21
415.748135
 31
0.0
  0
LINE
  5
171
330
16C
100
AcDbEntity
  8
0
  6
Continuous
 62
     0
370
     0
100
AcDbLine
 10
311.503269
 20
418.74988
 30
0.0
 11
272.472399
 21
418.74988
 31
0.0
  0
LINE
  5
172
330
16C
100
AcDbEntity
  8
0
  6
Continuous
 62
     0
370
     0
100
AcDbLine
 10
272.472399
 20
418.74988
 30
0.0
 11
257.555661
 21
418.74988
 31
0.0
  0
ARC
  5
173
330
16C
100
AcDbEntity
  8
0
  6
Continuous
 62
     0
370
    30
100
AcDbCircle
 10
311.303157
 20
418.748104
 30
0.0
 40
0.2000310473856995
100
AcDbArc
 50
0.508809
 51
89.977418
  0
ARC
  5
174
330
16C
100
AcDbEntity
  8
0
  6
Continuous
 62
     0
370
    30
100
AcDbCircle
 10
257.755773
 20
418.748104
 30
0.0
 40
0.2000309749764237
100
AcDbArc
 50
90.025096
 51
179.491212
  0
LINE
  5
175
330
16C
100
AcDbEntity
  8
0
  6
Continuous
 62
     0
370
    30
100
AcDbLine
 10
257.529465
 20
415.748135
 30
0.0
 11
257.555661
 21
418.74988
 31
0.0
  0
LINE
  5
176
330
16C
100
AcDbEntity
  8
0
  6
Continuous
 62
     0
370
    30
100
AcDbLine
 10
311.529465
 20
415.748135
 30
0.0
 11
311.503269
 21
418.74988
 31
0.0
  0
ARC
  5
177
330
16C
100
AcDbEntity
  8
0
  6
Continuous
 62
     0
370
    30
100
AcDbCircle
 10
247.029465
 20
495.301706
 30
0.0
 40
19.49999999997977
100
AcDbArc
 50
360.0
 51
90.0
  0
LWPOLYLINE
  5
178
330
16C
100
AcDbEntity
  8
0
  6
Continuous
 62
     0
370
     0
100
AcDbPolyline
 90
       12
 70
     0
 43
0.0
 10
249.939346
 20
516.709229
 10
249.525925
 20
516.395752
 10
249.130646
 20
516.107605
 10
248.75473
 20
515.845764
 10
248.401596
 20
515.610962
 10
248.07547
 20
515.403931
 10
247.781662
 20
515.225586
 10
247.52681
 20
515.076965
 10
247.318054
 20
514.959167
 10
247.162216
 20
514.873413
 10
247.064835
 20
514.820679
 10
247.029465
 20
514.801697
  0
LWPOLYLINE
  5
179
330
16C
100
AcDbEntity
  8
0
  6
Continuous
 62
     0
370
     0
100
AcDbPolyline
 90
       43
 70
     0
 43
0.0
 10
266.529449
 20
495.301697
 10
266.556091
 20
495.332336
 10
266.635284
 20
495.421692
 10
266.764984
 20
495.561859
 10
266.942535
 20
495.741608
 10
267.165009
 20
495.948059
 10
267.429657
 20
496.16864
 10
267.7341
 20
496.394135
 10
268.075989
 20
496.616119
 10
268.452942
 20
496.829224
 10
268.862671
 20
497.03186
 10
269.302765
 20
497.223083
 10
269.769989
 20
497.405151
 10
270.260742
 20
497.581512
 10
270.77124
 20
497.756866
 10
271.297028
 20
497.937714
 10
271.832275
 20
498.13205
 10
272.369293
 20
498.355621
 10
272.903503
 20
498.616089
 10
273.43631
 20
498.901276
 10
273.972565
 20
499.186005
 10
274.509949
 20
499.465942
 10
275.046417
 20
499.740601
 10
275.581329
 20
500.007782
 10
276.113495
 20
500.265533
 10
276.642059
 20
500.511505
 10
277.166199
 20
500.743225
 10
277.685211
 20
500.958221
 10
278.198608
 20
501.153839
 10
278.705902
 20
501.327454
 10
279.206604
 20
501.476318
 10
279.700348
 20
501.597565
 10
280.186615
 20
501.688477
 10
280.664948
 20
501.746552
 10
281.134735
 20
501.769287
 10
281.59549
 20
501.754486
 10
282.046783
 20
501.700287
 10
282.48819
 20
501.60495
 10
282.918884
 20
501.467773
 10
283.337738
 20
501.289001
 10
283.744019
 20
501.068665
 10
284.140625
 20
500.804718
 10
284.529449
 20
500.496185
  0
LWPOLYLINE
  5
17A
330
16C
100
AcDbEntity
  8
0
  6
Continuous
 62
     0
370
     0
100
AcDbPolyline
 90
       37
 70
     0
 43
0.0
 10
284.529449
 20
500.496185
 10
283.871521
 20
501.414581
 10
283.178955
 20
502.304901
 10
282.457916
 20
503.172058
 10
281.717072
 20
504.021515
 10
280.956573
 20
504.852386
 10
280.174438
 20
505.661926
 10
279.369995
 20
506.448547
 10
278.542938
 20
507.21051
 10
277.692993
 20
507.94577
 10
276.82019
 20
508.652466
 10
275.925476
 20
509.329803
 10
275.010101
 20
509.977112
 10
274.075287
 20
510.594116
 10
273.122498
 20
511.180664
 10
272.153137
 20
511.736694
 10
271.168549
 20
512.262024
 10
270.170227
 20
512.75647
 10
269.159576
 20
513.22052
 10
268.138062
 20
513.655151
 10
267.107056
 20
514.061279
 10
266.067627
 20
514.439026
 10
265.020111
 20
514.783447
 10
263.967651
 20
515.113586
 10
262.908478
 20
515.40979
 10
261.848785
 20
515.619568
 10
260.797516
 20
515.778748
 10
259.746399
 20
515.942383
 10
258.684601
 20
516.13501
 10
257.612701
 20
516.329285
 10
256.533112
 20
516.5
 10
255.446045
 20
516.640259
 10
254.353134
 20
516.743103
 10
253.25679
 20
516.802917
 10
252.15892
 20
516.817627
 10
251.06218
 20
516.786987
 10
249.939346
 20
516.709229
  0
LINE
  5
17B
330
16C
100
AcDbEntity
  8
0
  6
Continuous
 62
     0
370
     0
100
AcDbLine
 10
179.389494
 20
516.709238
 30
0.0
 11
249.939347
 21
516.709238
 31
0.0
  0
LINE
  5
17C
330
16C
100
AcDbEntity
  8
0
  6
Continuous
 62
     0
370
     0
100
AcDbLine
 10
249.939347
 20
516.70924
 30
0.0
 11
249.939347
 21
526.599095
 31
0.0
  0
LINE
  5
17D
330
16C
100
AcDbEntity
  8
0
  6
Continuous
 62
     0
370
     0
100
AcDbLine
 10
249.939347
 20
526.599095
 30
0.0
 11
172.029463
 21
526.599095
 31
0.0
  0
LINE
  5
17E
330
16C
100
AcDbEntity
  8
0
  6
Continuous
 62
     0
370
     0
100
AcDbLine
 10
172.029463
 20
526.599095
 30
0.0
 11
172.029463
 21
517.152161
 31
0.0
  0
LWPOLYLINE
  5
17F
330
16C
100
AcDbEntity
  8
0
  6
Continuous
 62
     0
370
    30
100
AcDbPolyline
 90
        7
 70
     0
 43
0.0
 10
172.029465
 20
517.152161
 10
173.259384
 20
517.221436
 10
174.501358
 20
517.231201
 10
175.736786
 20
517.178467
 10
176.951797
 20
517.069458
 10
178.133255
 20
516.914368
 10
179.389496
 20
516.709229
  0
LWPOLYLINE
  5
180
330
16C
100
AcDbEntity
  8
0
  6
Continuous
 62
     0
370
     0
100
AcDbPolyline
 90
       36
 70
     0
 43
0.0
 10
249.939346
 20
526.599121
 10
251.266907
 20
526.572632
 10
252.593018
 20
526.492737
 10
253.914948
 20
526.35907
 10
255.230011
 20
526.171326
 10
256.536102
 20
525.929749
 10
257.831146
 20
525.634521
 10
259.113129
 20
525.28656
 10
260.380005
 20
524.887512
 10
261.629944
 20
524.439392
 10
262.862518
 20
523.945801
 10
264.078461
 20
523.412476
 10
265.279266
 20
522.845886
 10
266.465546
 20
522.249573
 10
267.633484
 20
521.617981
 10
268.780273
 20
520.948792
 10
269.904999
 20
520.243042
 10
271.00708
 20
519.502136
 10
272.085114
 20
518.726501
 10
273.137543
 20
517.916504
 10
274.162811
 20
517.072449
 10
275.159332
 20
516.19458
 10
276.125244
 20
515.283142
 10
277.058411
 20
514.338135
 10
277.956512
 20
513.35968
 10
278.816833
 20
512.3479
 10
279.636444
 20
511.302795
 10
280.412018
 20
510.224548
 10
281.139801
 20
509.113373
 10
281.815735
 20
507.969635
 10
282.434906
 20
506.794434
 10
282.992157
 20
505.589111
 10
283.482635
 20
504.355255
 10
283.901642
 20
503.095367
 10
284.248108
 20
501.813782
 10
284.529449
 20
500.496185
  0
LWPOLYLINE
  5
181
330
16C
100
AcDbEntity
  8
0
  6
Continuous
 62
     0
370
    30
100
AcDbPolyline
 90
       20
 70
     0
 43
0.0
 10
172.029465
 20
517.152161
 10
171.127991
 20
517.071289
 10
170.242401
 20
516.975525
 10
169.378662
 20
516.863342
 10
168.540192
 20
516.738342
 10
167.72998
 20
516.604248
 10
166.951614
 20
516.464172
 10
166.209106
 20
516.321411
 10
165.506561
 20
516.17926
 10
164.847687
 20
516.040588
 10
164.23613
 20
515.90802
 10
163.675491
 20
515.783936
 10
163.169525
 20
515.670166
 10
162.721985
 20
515.568359
 10
162.336426
 20
515.479919
 10
162.015701
 20
515.405945
 10
161.762634
 20
515.34729
 10
161.579651
 20
515.304871
 10
161.468079
 20
515.279053
 10
161.428955
 20
515.269958
  0
LWPOLYLINE
  5
182
330
16C
100
AcDbEntity
  8
0
  6
Continuous
 62
     0
370
     0
100
AcDbPolyline
 90
       25
 70
     0
 43
0.0
 10
154.029556
 20
525.301758
 10
154.068024
 20
525.307129
 10
154.183472
 20
525.323181
 10
154.375381
 20
525.34967
 10
154.643097
 20
525.386292
 10
154.985275
 20
525.432312
 10
155.400299
 20
525.487061
 10
155.886475
 20
525.549622
 10
156.441605
 20
525.619019
 10
157.063126
 20
525.69397
 10
157.748428
 20
525.773438
 10
158.49469
 20
525.856018
 10
159.298752
 20
525.940369
 10
160.15741
 20
526.025024
 10
161.067276
 20
526.108704
 10
162.024078
 20
526.189819
 10
163.023285
 20
526.266907
 10
164.060318
 20
526.338501
 10
165.131042
 20
526.403381
 10
166.23175
 20
526.460632
 10
167.357758
 20
526.509155
 10
168.50354
 20
526.547485
 10
169.664368
 20
526.574341
 10
170.836594
 20
526.594177
 10
172.029465
 20
526.59906
  0
LWPOLYLINE
  5
183
330
16C
100
AcDbEntity
  8
0
  6
Continuous
 62
     0
370
    30
100
AcDbPolyline
 90
       16
 70
     0
 43
0.0
 10
179.389496
 20
516.709229
 10
180.18335
 20
516.559814
 10
180.940338
 20
516.39801
 10
181.65654
 20
516.2276
 10
182.328735
 20
516.05249
 10
182.953812
 20
515.876465
 10
183.529037
 20
515.703491
 10
184.051865
 20
515.537109
 10
184.519943
 20
515.380859
 10
184.931046
 20
515.237976
 10
185.283096
 20
515.11145
 10
185.574249
 20
515.003967
 10
185.802994
 20
514.917725
 10
185.967926
 20
514.854492
 10
186.069443
 20
514.815552
 10
186.104141
 20
514.801697
  0
LINE
  5
184
330
16C
100
AcDbEntity
  8
0
  6
Continuous
 62
     0
370
     0
100
AcDbLine
 10
172.029464
 20
526.599095
 30
0.0
 11
172.029464
 21
530.878135
 31
0.0
  0
LINE
  5
185
330
16C
100
AcDbEntity
  8
0
  6
Continuous
 62
     0
370
     0
100
AcDbLine
 10
172.029464
 20
530.878135
 30
0.0
 11
154.029465
 21
530.878135
 31
0.0
  0
LINE
  5
186
330
16C
100
AcDbEntity
  8
0
  6
Continuous
 62
     0
370
    30
100
AcDbLine
 10
172.029464
 20
531.378135
 30
0.0
 11
154.529465
 21
531.378135
 31
0.0
  0
LINE
  5
187
330
16C
100
AcDbEntity
  8
0
  6
Continuous
 62
     0
370
    30
100
AcDbLine
 10
284.529464
 20
531.378135
 30
0.0
 11
172.029464
 21
531.378135
 31
0.0
  0
LINE
  5
188
330
16C
100
AcDbEntity
  8
0
  6
Continuous
 62
     0
370
    30
100
AcDbLine
 10
302.029465
 20
531.378135
 30
0.0
 11
284.529464
 21
531.378135
 31
0.0
  0
LINE
  5
189
330
16C
100
AcDbEntity
  8
0
  6
Continuous
 62
     0
370
     0
100
AcDbLine
 10
284.529464
 20
500.496183
 30
0.0
 11
284.529464
 21
530.878135
 31
0.0
  0
LINE
  5
18A
330
16C
100
AcDbEntity
  8
0
  6
Continuous
 62
     0
370
     0
100
AcDbLine
 10
284.529464
 20
530.878135
 30
0.0
 11
172.029464
 21
530.878135
 31
0.0
  0
LINE
  5
18B
330
16C
100
AcDbEntity
  8
0
  6
Continuous
 62
     0
370
     0
100
AcDbLine
 10
302.529465
 20
530.878135
 30
0.0
 11
284.529464
 21
530.878135
 31
0.0
  0
LINE
  5
18C
330
16C
100
AcDbEntity
  8
0
  6
Continuous
 62
     0
370
    30
100
AcDbLine
 10
266.529465
 20
495.301706
 30
0.0
 11
266.529465
 21
418.948135
 31
0.0
  0
LWPOLYLINE
  5
18D
330
16C
100
AcDbEntity
  8
0
  6
Continuous
 62
     0
370
     0
100
AcDbPolyline
 90
       93
 70
     0
 43
0.0
 10
302.529449
 20
444.350708
 10
302.528961
 20
444.358826
 10
302.527496
 20
444.385132
 10
302.525116
 20
444.422455
 10
302.522003
 20
444.477386
 10
302.51825
 20
444.544159
 10
302.513947
 20
444.618378
 10
302.509338
 20
444.703735
 10
302.504395
 20
444.794891
 10
302.499237
 20
444.892212
 10
302.493927
 20
444.994324
 10
302.488617
 20
445.101349
 10
302.483276
 20
445.211914
 10
302.477966
 20
445.325409
 10
302.472656
 20
445.441589
 10
302.467438
 20
445.56012
 10
302.46228
 20
445.680664
 10
302.457245
 20
445.802948
 10
302.452362
 20
445.926697
 10
302.447601
 20
446.051636
 10
302.443024
 20
446.177704
 10
302.438629
 20
446.304779
 10
302.434357
 20
446.43277
 10
302.430298
 20
446.561584
 10
302.426422
 20
446.691101
 10
302.422699
 20
446.821259
 10
302.419159
 20
446.951996
 10
302.415833
 20
447.083282
 10
302.412689
 20
447.215027
 10
302.409729
 20
447.347168
 10
302.406952
 20
447.479675
 10
302.404358
 20
447.612549
 10
302.401978
 20
447.745697
 10
302.39978
 20
447.87912
 10
302.397797
 20
448.012787
 10
302.395966
 20
448.146667
 10
302.394348
 20
448.280731
 10
302.392944
 20
448.414978
 10
302.391693
 20
448.549347
 10
302.390656
 20
448.683838
 10
302.389801
 20
448.81839
 10
302.38913
 20
448.953033
 10
302.388641
 20
449.087677
 10
302.388336
 20
449.222351
 10
302.388245
 20
449.357025
 10
302.388306
 20
449.491669
 10
302.38858
 20
449.626343
 10
302.389008
 20
449.760956
 10
302.389618
 20
449.895538
 10
302.390411
 20
450.03006
 10
302.391357
 20
450.16452
 10
302.392487
 20
450.298889
 10
302.393799
 20
450.433167
 10
302.395264
 20
450.567352
 10
302.396881
 20
450.701416
 10
302.398682
 20
450.835327
 10
302.400635
 20
450.969055
 10
302.40274
 20
451.1026
 10
302.404999
 20
451.235931
 10
302.40741
 20
451.369019
 10
302.409973
 20
451.501862
 10
302.412689
 20
451.634399
 10
302.415558
 20
451.766663
 10
302.418549
 20
451.89856
 10
302.421692
 20
452.030151
 10
302.424988
 20
452.161346
 10
302.428406
 20
452.292114
 10
302.431946
 20
452.422424
 10
302.435608
 20
452.552246
 10
302.439423
 20
452.681519
 10
302.443329
 20
452.810242
 10
302.447357
 20
452.938324
 10
302.451508
 20
453.065643
 10
302.455719
 20
453.192139
 10
302.460052
 20
453.317719
 10
302.464447
 20
453.442291
 10
302.468933
 20
453.565765
 10
302.473511
 20
453.687927
 10
302.478119
 20
453.808563
 10
302.482758
 20
453.927399
 10
302.487457
 20
454.04422
 10
302.492157
 20
454.158752
 10
302.496826
 20
454.270782
 10
302.501465
 20
454.3797
 10
302.506012
 20
454.484497
 10
302.510406
 20
454.583984
 10
302.514587
 20
454.677063
 10
302.518494
 20
454.762878
 10
302.522034
 20
454.840851
 10
302.525085
 20
454.908203
 10
302.527466
 20
454.959198
 10
302.528961
 20
454.98819
 10
302.529449
 20
454.998627
  0
LINE
  5
18E
330
16C
100
AcDbEntity
  8
0
  6
Continuous
 62
     0
370
     0
100
AcDbLine
 10
284.529464
 20
530.878135
 30
0.0
 11
284.529464
 21
531.378135
 31
0.0
  0
LINE
  5
18F
330
16C
100
AcDbEntity
  8
0
  6
Continuous
 62
     0
370
     0
100
AcDbLine
 10
172.029464
 20
531.378135
 30
0.0
 11
172.029464
 21
530.878135
 31
0.0
  0
LINE
  5
190
330
16C
100
AcDbEntity
  8
0
  6
Continuous
 62
     0
370
    30
100
AcDbLine
 10
302.529465
 20
444.94586
 30
0.0
 11
302.529465
 21
444.350713
 31
0.0
  0
LINE
  5
191
330
16C
100
AcDbEntity
  8
0
  6
Continuous
 62
     0
370
    30
100
AcDbLine
 10
302.529465
 20
454.998638
 30
0.0
 11
302.529465
 21
454.405862
 31
0.0
  0
ARC
  5
192
330
16C
100
AcDbEntity
  8
0
  6
Continuous
 62
     0
370
    30
100
AcDbCircle
 10
154.529467
 20
530.878132
 30
0.0
 40
0.5000026303618645
100
AcDbArc
 50
90.003914
 51
179.999699
  0
ARC
  5
193
330
16C
100
AcDbEntity
  8
0
  6
Continuous
 62
     0
370
    30
100
AcDbCircle
 10
302.029462
 20
530.878132
 30
0.0
 40
0.5000026303449956
100
AcDbArc
 50
0.000301
 51
89.996086
  0
LINE
  5
194
330
16C
100
AcDbEntity
  8
0
  6
Continuous
 62
     0
370
    30
100
AcDbLine
 10
302.529465
 20
418.948135
 30
0.0
 11
302.529465
 21
444.350713
 31
0.0
  0
LINE
  5
195
330
16C
100
AcDbEntity
  8
0
  6
Continuous
 62
     0
370
    30
100
AcDbLine
 10
302.529465
 20
454.998639
 30
0.0
 11
302.529465
 21
530.878135
 31
0.0
  0
LINE
  5
196
330
16C
100
AcDbEntity
  8
0
  6
Continuous
 62
     0
370
    30
100
AcDbLine
 10
154.029465
 20
530.878135
 30
0.0
 11
154.029465
 21
525.30156
 31
0.0
  0
LINE
  5
197
330
16C
100
AcDbEntity
  8
0
  6
Continuous
 62
     0
370
    30
100
AcDbLine
 10
247.029465
 20
514.801706
 30
0.0
 11
186.104139
 21
514.801706
 31
0.0
  0
LWPOLYLINE
  5
198
330
16C
100
AcDbEntity
  8
0
  6
Continuous
 62
     0
370
    30
100
AcDbPolyline
 90
       20
 70
     0
 43
0.0
 10
154.029556
 20
525.301758
 10
154.053009
 20
524.601379
 10
154.123138
 20
523.903564
 10
154.239578
 20
523.212036
 10
154.401855
 20
522.529968
 10
154.60939
 20
521.860413
 10
154.861496
 20
521.206238
 10
155.156754
 20
520.570374
 10
155.493546
 20
519.955444
 10
155.870316
 20
519.364197
 10
156.285599
 20
518.799316
 10
156.737762
 20
518.26355
 10
157.22496
 20
517.759399
 10
157.744873
 20
517.289062
 10
158.29483
 20
516.854187
 10
158.872375
 20
516.456726
 10
159.475052
 20
516.098511
 10
160.100357
 20
515.781494
 10
160.74556
 20
515.507202
 10
161.428787
 20
515.27002
  0
ARC
  5
199
330
16C
100
AcDbEntity
  8
0
  6
Continuous
 62
     0
370
     0
100
AcDbCircle
 10
283.871299
 20
530.469158
 30
0.0
 40
17.42541951038089
100
AcDbArc
 50
2.990119
 51
5.297949
  0
LINE
  5
19A
330
16C
100
AcDbEntity
  8
0
  6
Continuous
 62
     0
370
     0
100
AcDbLine
 10
301.222277
 20
532.078133
 30
0.0
 11
301.23301
 21
532.078133
 31
0.0
  0
ARC
  5
19B
330
16C
100
AcDbEntity
  8
0
  6
Continuous
 62
     0
370
    30
100
AcDbCircle
 10
283.808927
 20
530.425494
 30
0.0
 40
17.50230861997903
100
AcDbArc
 50
3.12011
 51
5.418169
  0
LWPOLYLINE
  5
19C
330
16C
100
AcDbEntity
  8
0
  6
Continuous
 62
     0
370
    30
100
AcDbPolyline
 90
        9
 70
     0
 43
0.0
 10
298.976471
 20
539.156433
 10
299.417847
 20
538.340698
 10
299.815399
 20
537.502808
 10
300.16803
 20
536.64502
 10
300.47467
 20
535.769714
 10
300.734528
 20
534.879395
 10
300.946899
 20
533.976562
 10
301.111298
 20
533.063782
 10
301.233032
 20
532.078125
  0
ARC
  5
19D
330
16C
100
AcDbEntity
  8
0
  6
Continuous
 62
     0
370
    30
100
AcDbCircle
 10
285.24915
 20
530.422637
 30
0.0
 40
17.50172392927489
100
AcDbArc
 50
168.546057
 51
176.870418
  0
LWPOLYLINE
  5
19E
330
16C
100
AcDbEntity
  8
0
  6
Continuous
 62
     0
370
    30
100
AcDbPolyline
 90
       25
 70
     0
 43
0.0
 10
219.063217
 20
570.311768
 10
219.101227
 20
570.305115
 10
219.214752
 20
570.285095
 10
219.402267
 20
570.252014
 10
219.661346
 20
570.206299
 10
219.988632
 20
570.148621
 10
220.380035
 20
570.07959
 10
220.830826
 20
570.000122
 10
221.335739
 20
569.911072
 10
221.898849
 20
569.811768
 10
222.52771
 20
569.700928
 10
223.221024
 20
569.578674
 10
223.976547
 20
569.445435
 10
224.791138
 20
569.301819
 10
225.660721
 20
569.148499
 10
226.580383
 20
568.986328
 10
227.544464
 20
568.816345
 10
228.546646
 20
568.639587
 10
229.580078
 20
568.457397
 10
230.637604
 20
568.270935
 10
231.711838
 20
568.081482
 10
232.795364
 20
567.890442
 10
233.88092
 20
567.699036
 10
234.961533
 20
567.508484
 10
236.051147
 20
567.316345
  0
LINE
  5
19F
330
16C
100
AcDbEntity
  8
0
  6
Continuous
 62
     0
370
    30
100
AcDbLine
 10
236.051143
 20
567.316364
 30
0.0
 11
284.616288
 21
558.753019
 31
0.0
  0
LINE
  5
1A0
330
16C
100
AcDbEntity
  8
0
  6
Continuous
 62
     0
370
    30
100
AcDbLine
 10
284.616288
 20
558.753019
 30
0.0
 11
301.866289
 21
555.711379
 31
0.0
  0
LWPOLYLINE
  5
1A1
330
16C
100
AcDbEntity
  8
0
  6
Continuous
 62
     0
370
     0
100
AcDbPolyline
 90
       25
 70
     0
 43
0.0
 10
218.483978
 20
569.906189
 10
218.521378
 20
569.899597
 10
218.63324
 20
569.879883
 10
218.819092
 20
569.847107
 10
219.078293
 20
569.801453
 10
219.409592
 20
569.742981
 10
219.811554
 20
569.672119
 10
220.282639
 20
569.58905
 10
220.820663
 20
569.494202
 10
221.42334
 20
569.387939
 10
222.088242
 20
569.270691
 10
222.812378
 20
569.143005
 10
223.592651
 20
569.005432
 10
224.425842
 20
568.858521
 10
225.308319
 20
568.702881
 10
226.236282
 20
568.539246
 10
227.205917
 20
568.368286
 10
228.212921
 20
568.190735
 10
229.252914
 20
568.007385
 10
230.321533
 20
567.818909
 10
231.414322
 20
567.626221
 10
232.526855
 20
567.430054
 10
233.654465
 20
567.231262
 10
234.791656
 20
567.030762
 10
235.964325
 20
566.823975
  0
LINE
  5
1A2
330
16C
100
AcDbEntity
  8
0
  6
Continuous
 62
     0
370
     0
100
AcDbLine
 10
235.964318
 20
566.823961
 30
0.0
 11
236.051143
 21
567.316364
 31
0.0
  0
LINE
  5
1A3
330
16C
100
AcDbEntity
  8
0
  6
Continuous
 62
     0
370
     0
100
AcDbLine
 10
235.964318
 20
566.823961
 30
0.0
 11
284.529464
 21
558.260615
 31
0.0
  0
LINE
  5
1A4
330
16C
100
AcDbEntity
  8
0
  6
Continuous
 62
     0
370
     0
100
AcDbLine
 10
284.529464
 20
558.260615
 30
0.0
 11
284.616288
 21
558.753019
 31
0.0
  0
LINE
  5
1A5
330
16C
100
AcDbEntity
  8
0
  6
Continuous
 62
     0
370
     0
100
AcDbLine
 10
302.279465
 20
555.218975
 30
0.0
 11
284.529464
 21
558.260615
 31
0.0
  0
ARC
  5
1A6
330
16C
100
AcDbEntity
  8
0
  6
Continuous
 62
     0
370
    30
100
AcDbCircle
 10
301.779465
 20
555.218975
 30
0.0
 40
0.4999999999165209
100
AcDbArc
 50
360.0
 51
80.0
  0
LWPOLYLINE
  5
1A7
330
16C
100
AcDbEntity
  8
0
  6
Continuous
 62
     0
370
     0
100
AcDbPolyline
 90
       28
 70
     0
 43
0.0
 10
284.529449
 20
547.280518
 10
283.546417
 20
547.639648
 10
282.558441
 20
547.977539
 10
281.569519
 20
548.293396
 10
280.583435
 20
548.586975
 10
279.603851
 20
548.858154
 10
278.634674
 20
549.107361
 10
277.67984
 20
549.3349
 10
276.74353
 20
549.541626
 10
275.829987
 20
549.728638
 10
274.943573
 20
549.897217
 10
274.088104
 20
550.048584
 10
273.266602
 20
550.184692
 10
272.482117
 20
550.307251
 10
271.738068
 20
550.418091
 10
271.03775
 20
550.518921
 10
270.383728
 20
550.611633
 10
269.778137
 20
550.698059
 10
269.223267
 20
550.779724
 10
268.721283
 20
550.858337
 10
268.274078
 20
550.935242
 10
267.88324
 20
551.018372
 10
267.550323
 20
551.119507
 10
267.276123
 20
551.228516
 10
267.061279
 20
551.334106
 10
266.906372
 20
551.425049
 10
266.812195
 20
551.489319
 10
266.779449
 20
551.514343
  0
LINE
  5
1A8
330
16C
100
AcDbEntity
  8
0
  6
Continuous
 62
     0
370
    30
100
AcDbLine
 10
266.779465
 20
551.514369
 30
0.0
 11
266.779465
 21
533.898132
 31
0.0
  0
LINE
  5
1A9
330
16C
100
AcDbEntity
  8
0
  6
Continuous
 62
     0
370
    30
100
AcDbLine
 10
266.779465
 20
533.898132
 30
0.0
 11
284.529464
 21
533.898132
 31
0.0
  0
LINE
  5
1AA
330
16C
100
AcDbEntity
  8
0
  6
Continuous
 62
     0
370
    30
100
AcDbLine
 10
284.529464
 20
533.898132
 30
0.0
 11
302.279465
 21
540.358685
 31
0.0
  0
LINE
  5
1AB
330
16C
100
AcDbEntity
  8
0
  6
Continuous
 62
     0
370
     0
100
AcDbLine
 10
284.529464
 20
558.260615
 30
0.0
 11
284.529464
 21
547.280529
 31
0.0
  0
LWPOLYLINE
  5
1AC
330
16C
100
AcDbEntity
  8
0
  6
Continuous
 62
     0
370
     0
100
AcDbPolyline
 90
       20
 70
     0
 43
0.0
 10
302.279449
 20
547.130371
 10
302.274658
 20
547.165161
 10
302.260834
 20
547.269348
 10
302.239532
 20
547.43811
 10
302.213074
 20
547.667053
 10
302.184296
 20
547.949585
 10
302.156189
 20
548.277893
 10
302.131775
 20
548.642639
 10
302.113708
 20
549.034363
 10
302.103943
 20
549.44281
 10
302.103577
 20
549.857361
 10
302.112701
 20
550.266602
 10
302.130371
 20
550.659424
 10
302.154755
 20
551.025085
 10
302.183105
 20
551.353088
 10
302.21225
 20
551.633545
 10
302.239014
 20
551.859436
 10
302.260529
 20
552.025635
 10
302.274506
 20
552.12793
 10
302.279449
 20
552.162659
  0
ARC
  5
1AD
330
16C
100
AcDbEntity
  8
0
  6
Continuous
 62
     0
370
    30
100
AcDbCircle
 10
259.779465
 20
551.514369
 30
0.0
 40
7.0000000000005
100
AcDbArc
 50
0.0
 51
80.0
  0
LINE
  5
1AE
330
16C
100
AcDbEntity
  8
0
  6
Continuous
 62
     0
370
     0
100
AcDbLine
 10
266.729229
 20
558.656762
 30
0.0
 11
235.495321
 21
564.164143
 31
0.0
  0
LWPOLYLINE
  5
1AF
330
16C
100
AcDbEntity
  8
0
  6
Continuous
 62
     0
370
     0
100
AcDbPolyline
 90
       22
 70
     0
 43
0.0
 10
235.495316
 20
564.164124
 10
234.333191
 20
564.361389
 10
233.172836
 20
564.543091
 10
232.024216
 20
564.708313
 10
230.899918
 20
564.856079
 10
229.809296
 20
564.986084
 10
228.756348
 20
565.099182
 10
227.745956
 20
565.19635
 10
226.784973
 20
565.278381
 10
225.879669
 20
565.346252
 10
225.03479
 20
565.401306
 10
224.254791
 20
565.444824
 10
223.543228
 20
565.478333
 10
222.903275
 20
565.503296
 10
222.337936
 20
565.521057
 10
221.84874
 20
565.53302
 10
221.436096
 20
565.540527
 10
221.100067
 20
565.544678
 10
220.840286
 20
565.546692
 10
220.655777
 20
565.547302
 10
220.545349
 20
565.54718
 10
220.507782
 20
565.546997
  0
LWPOLYLINE
  5
1B0
330
16C
100
AcDbEntity
  8
0
  6
Continuous
 62
     0
370
     0
100
AcDbPolyline
 90
       16
 70
     0
 43
0.0
 10
260.994995
 20
558.40802
 10
261.007263
 20
558.412415
 10
261.051331
 20
558.424255
 10
261.136749
 20
558.441772
 10
261.27002
 20
558.463684
 10
261.457367
 20
558.488464
 10
261.705414
 20
558.514587
 10
262.021118
 20
558.5401
 10
262.408417
 20
558.563232
 10
262.860992
 20
558.58429
 10
263.369873
 20
558.604065
 10
263.933502
 20
558.621704
 10
264.549866
 20
558.636597
 10
265.216644
 20
558.647888
 10
265.931671
 20
558.654907
 10
266.729218
 20
558.656738
  0
LWPOLYLINE
  5
1B1
330
16C
100
AcDbEntity
  8
0
  6
Continuous
 62
     0
370
     0
100
AcDbPolyline
 90
       25
 70
     0
 43
0.0
 10
218.277054
 20
568.732727
 10
218.314133
 20
568.724121
 10
218.42514
 20
568.698975
 10
218.609802
 20
568.658447
 10
218.867783
 20
568.60376
 10
219.197998
 20
568.535889
 10
219.59874
 20
568.45575
 10
220.068268
 20
568.364441
 10
220.604706
 20
568.262878
 10
221.205856
 20
568.151672
 10
221.869461
 20
568.031616
 10
222.593277
 20
567.903076
 10
223.374146
 20
567.766541
 10
224.208405
 20
567.622192
 10
225.092438
 20
567.470459
 10
226.022293
 20
567.311584
 10
226.993484
 20
567.145996
 10
228.001495
 20
566.97406
 10
229.041824
 20
566.796082
 10
230.10994
 20
566.612427
 10
231.201843
 20
566.423279
 10
232.314728
 20
566.22937
 10
233.443863
 20
566.031494
 10
234.581848
 20
565.831299
 10
235.752853
 20
565.624695
  0
LINE
  5
1B2
330
16C
100
AcDbEntity
  8
0
  6
Continuous
 62
     0
370
     0
100
AcDbLine
 10
235.752855
 20
565.624693
 30
0.0
 11
235.964318
 21
566.823961
 31
0.0
  0
LINE
  5
1B3
330
16C
100
AcDbEntity
  8
0
  6
Continuous
 62
     0
370
     0
100
AcDbLine
 10
266.986763
 20
560.117312
 30
0.0
 11
235.752855
 21
565.624693
 31
0.0
  0
LWPOLYLINE
  5
1B4
330
16C
100
AcDbEntity
  8
0
  6
Continuous
 62
     0
370
     0
100
AcDbPolyline
 90
       20
 70
     0
 43
0.0
 10
284.529449
 20
547.280518
 10
284.155365
 20
548.161987
 10
283.707855
 20
549.035095
 10
283.186127
 20
549.896912
 10
282.592407
 20
550.745056
 10
281.927155
 20
551.577454
 10
281.191528
 20
552.393188
 10
280.38681
 20
553.192139
 10
279.515289
 20
553.97583
 10
278.581207
 20
554.747742
 10
277.592712
 20
555.514099
 10
276.559387
 20
556.260132
 10
275.483307
 20
556.953064
 10
274.366821
 20
557.589722
 10
273.212921
 20
558.167297
 10
272.025024
 20
558.683716
 10
270.807037
 20
559.137146
 10
269.563202
 20
559.52655
 10
268.298187
 20
559.85144
 10
266.986755
 20
560.11731
  0
LWPOLYLINE
  5
1B5
330
16C
100
AcDbEntity
  8
0
  6
Continuous
 62
     0
370
     0
100
AcDbPolyline
 90
       21
 70
     0
 43
0.0
 10
266.729218
 20
558.656738
 10
267.775208
 20
558.448486
 10
268.807953
 20
558.169373
 10
269.821533
 20
557.824036
 10
270.810364
 20
557.417725
 10
271.773804
 20
556.956116
 10
272.71228
 20
556.445068
 10
273.625702
 20
555.891052
 10
274.516266
 20
555.301941
 10
275.38681
 20
554.684753
 10
276.2388
 20
554.042969
 10
277.06842
 20
553.372803
 10
277.876465
 20
552.676514
 10
278.670868
 20
551.965515
 10
279.460999
 20
551.250854
 10
280.256073
 20
550.542664
 10
281.063873
 20
549.849182
 10
281.889526
 20
549.176208
 10
282.735718
 20
548.527283
 10
283.603394
 20
547.904907
 10
284.529449
 20
547.280518
  0
LINE
  5
1B6
330
16C
100
AcDbEntity
  8
0
  6
Continuous
 62
     0
370
     0
100
AcDbLine
 10
266.729229
 20
558.656762
 30
0.0
 11
266.986763
 21
560.117312
 31
0.0
  0
LINE
  5
1B7
330
16C
100
AcDbEntity
  8
0
  6
Continuous
 62
     0
370
     0
100
AcDbLine
 10
235.752855
 20
565.624693
 30
0.0
 11
235.495321
 21
564.164143
 31
0.0
  0
LINE
  5
1B8
330
16C
100
AcDbEntity
  8
0
  6
Continuous
 62
     0
370
    30
100
AcDbLine
 10
302.279465
 20
552.162664
 30
0.0
 11
302.279465
 21
547.13036
 31
0.0
  0
ARC
  5
1B9
330
16C
100
AcDbEntity
  8
0
  6
Continuous
 62
     0
370
    30
100
AcDbCircle
 10
220.985382
 20
568.2553
 30
0.0
 40
2.750077146388305
100
AcDbArc
 50
170.001609
 51
259.99839
  0
LINE
  5
1BA
330
16C
100
AcDbEntity
  8
0
  6
Continuous
 62
     0
370
    30
100
AcDbLine
 10
266.779465
 20
551.514369
 30
0.0
 11
266.777744
 21
551.668193
 31
0.0
  0
LINE
  5
1BB
330
16C
100
AcDbEntity
  8
0
  6
Continuous
 62
     0
370
    30
100
AcDbLine
 10
260.995002
 20
558.408023
 30
0.0
 11
261.14619
 21
558.379618
 31
0.0
  0
LINE
  5
1BC
330
16C
100
AcDbEntity
  8
0
  6
Continuous
 62
     0
370
    30
100
AcDbLine
 10
218.483982
 20
569.906216
 30
0.0
 11
218.277039
 21
568.732587
 31
0.0
  0
LINE
  5
1BD
330
16C
100
AcDbEntity
  8
0
  6
Continuous
 62
     0
370
    30
100
AcDbLine
 10
260.995002
 20
558.408023
 30
0.0
 11
220.507798
 21
565.547009
 31
0.0
  0
LINE
  5
1BE
330
16C
100
AcDbEntity
  8
0
  6
Continuous
 62
     0
370
    30
100
AcDbLine
 10
302.279465
 20
540.358765
 30
0.0
 11
302.279465
 21
547.13036
 31
0.0
  0
LINE
  5
1BF
330
16C
100
AcDbEntity
  8
0
  6
Continuous
 62
     0
370
    30
100
AcDbLine
 10
302.279465
 20
552.162664
 30
0.0
 11
302.279465
 21
555.218975
 31
0.0
  0
ARC
  5
1C0
330
16C
100
AcDbEntity
  8
0
  6
Continuous
 62
     0
370
    30
100
AcDbCircle
 10
218.976388
 20
569.819389
 30
0.0
 40
0.5000026320920677
100
AcDbArc
 50
80.003857
 51
169.999698
  0
LINE
  5
1C1
330
16C
100
AcDbEntity
  8
0
  6
Continuous
 62
     0
370
    30
100
AcDbLine
 10
169.051346
 20
515.239776
 30
0.0
 11
182.86341
 21
513.298617
 31
0.0
  0
LINE
  5
1C2
330
16C
100
AcDbEntity
  8
0
  6
Continuous
 62
     0
370
    30
100
AcDbLine
 10
164.543451
 20
515.873319
 30
0.0
 11
169.051346
 21
515.239776
 31
0.0
  0
LINE
  5
1C3
330
16C
100
AcDbEntity
  8
0
  6
Continuous
 62
     0
370
    30
100
AcDbLine
 10
183.214857
 20
515.799292
 30
0.0
 11
182.86341
 21
513.298617
 31
0.0
  0
LINE
  5
1C4
330
16C
100
AcDbEntity
  8
0
  6
Continuous
 62
     0
370
    30
100
AcDbLine
 10
164.558195
 20
515.978233
 30
0.0
 11
164.543451
 21
515.873319
 31
0.0
  0
ARC
  5
1C5
330
16C
100
AcDbEntity
  8
0
  6
Continuous
 62
     0
370
     0
100
AcDbCircle
 10
1154.066714
 20
461.444663
 30
0.0
 40
842.3132952395298
100
AcDbArc
 50
179.965979
 51
180.102061
  0
LWPOLYLINE
  5
1C6
330
16C
100
AcDbEntity
  8
0
  6
Continuous
 62
     0
370
     0
100
AcDbPolyline
 90
        9
 70
     0
 43
0.0
 10
311.753571
 20
461.944794
 10
311.753601
 20
462.308441
 10
311.753662
 20
462.680359
 10
311.753754
 20
463.0383
 10
311.753906
 20
463.35791
 10
311.75412
 20
463.617645
 10
311.754303
 20
463.803345
 10
311.754547
 20
463.910583
 10
311.754761
 20
463.944244
  0
LWPOLYLINE
  5
1C7
330
16C
100
AcDbEntity
  8
0
  6
Continuous
 62
     0
370
     0
100
AcDbPolyline
 90
        9
 70
     0
 43
0.0
 10
304.957458
 20
459.613892
 10
304.987457
 20
459.599884
 10
305.084137
 20
459.55481
 10
305.251923
 20
459.476593
 10
305.486908
 20
459.367004
 10
305.776306
 20
459.232056
 10
306.100586
 20
459.080841
 10
306.437714
 20
458.923645
 10
306.76889
 20
458.769196
  0
LINE
  5
1C8
330
16C
100
AcDbEntity
  8
0
  6
Continuous
 62
     0
370
     0
100
AcDbLine
 10
306.768876
 20
458.769209
 30
0.0
 11
308.582678
 21
457.923418
 31
0.0
  0
LWPOLYLINE
  5
1C9
330
16C
100
AcDbEntity
  8
0
  6
Continuous
 62
     0
370
    30
100
AcDbPolyline
 90
       15
 70
     0
 43
0.0
 10
323.249115
 20
461.944672
 10
323.249146
 20
462.257111
 10
323.249207
 20
462.574707
 10
323.249298
 20
462.871826
 10
323.249451
 20
463.121887
 10
323.249634
 20
463.304535
 10
323.249817
 20
463.410919
 10
323.25
 20
463.444244
 10
323.250183
 20
463.411804
 10
323.250366
 20
463.306458
 10
323.250549
 20
463.124786
 10
323.250702
 20
462.875488
 10
323.250824
 20
462.578827
 10
323.250885
 20
462.261261
 10
323.250885
 20
461.943848
  0
LWPOLYLINE
  5
1CA
330
16C
100
AcDbEntity
  8
0
  6
Continuous
 62
     0
370
    30
100
AcDbPolyline
 90
       15
 70
     0
 43
0.0
 10
323.250885
 20
461.943848
 10
323.250885
 20
461.617035
 10
323.250793
 20
461.295654
 10
323.250702
 20
461.00528
 10
323.250549
 20
460.76767
 10
323.250397
 20
460.594696
 10
323.250214
 20
460.483398
 10
323.25
 20
460.444244
 10
323.249817
 20
460.483124
 10
323.249603
 20
460.594208
 10
323.249451
 20
460.766968
 10
323.249298
 20
461.004333
 10
323.249207
 20
461.294556
 10
323.249146
 20
461.615906
 10
323.249115
 20
461.944672
  0
ELLIPSE
  5
1CB
330
16C
100
AcDbEntity
  8
0
  6
Continuous
 62
     0
370
    30
100
AcDbEllipse
 10
322.750004
 20
461.944256
 30
0.0
 11
2.152004919418079E-7
 21
-1.999999999999988
 31
0.0
210
0.0
220
0.0
230
-1.0
 40
0.000594
 41
6.282591534110273
 42
7.854258515114891
  0
ELLIPSE
  5
1CC
330
16C
100
AcDbEntity
  8
0
  6
Continuous
 62
     0
370
    30
100
AcDbEllipse
 10
322.750004
 20
461.944256
 30
0.0
 11
2.152004919418079E-7
 21
-1.999999999999988
 31
0.0
210
0.0
220
0.0
230
-1.0
 40
0.000594
 41
1.571073207935305
 42
3.142186426651802
  0
LWPOLYLINE
  5
1CD
330
16C
100
AcDbEntity
  8
0
  6
Continuous
 62
     0
370
    30
100
AcDbPolyline
 90
       23
 70
     0
 43
0.0
 10
302.529388
 20
454.405853
 10
302.527924
 20
454.369843
 10
302.523682
 20
454.268646
 10
302.5177
 20
454.123993
 10
302.510803
 20
453.951996
 10
302.50351
 20
453.762299
 10
302.496033
 20
453.560547
 10
302.488617
 20
453.350342
 10
302.481293
 20
453.133881
 10
302.474152
 20
452.912689
 10
302.467346
 20
452.687805
 10
302.460907
 20
452.4599
 10
302.454834
 20
452.229584
 10
302.449158
 20
451.997345
 10
302.443848
 20
451.76355
 10
302.438965
 20
451.528381
 10
302.43457
 20
451.292114
 10
302.430664
 20
451.054871
 10
302.427246
 20
450.816864
 10
302.424377
 20
450.578156
 10
302.422028
 20
450.338959
 10
302.420197
 20
450.099365
 10
302.418884
 20
449.847778
  0
LWPOLYLINE
  5
1CE
330
16C
100
AcDbEntity
  8
0
  6
Continuous
 62
     0
370
    30
100
AcDbPolyline
 90
       22
 70
     0
 43
0.0
 10
302.418884
 20
449.847778
 10
302.418121
 20
449.576111
 10
302.418091
 20
449.304382
 10
302.418823
 20
449.032745
 10
302.420288
 20
448.761353
 10
302.422516
 20
448.490387
 10
302.425537
 20
448.220062
 10
302.429321
 20
447.950653
 10
302.433929
 20
447.682465
 10
302.43927
 20
447.415894
 10
302.445374
 20
447.151306
 10
302.45224
 20
446.889313
 10
302.459778
 20
446.630524
 10
302.467987
 20
446.376038
 10
302.476776
 20
446.127625
 10
302.486023
 20
445.887177
 10
302.495514
 20
445.65744
 10
302.504883
 20
445.442841
 10
302.513885
 20
445.25058
 10
302.52179
 20
445.09201
 10
302.527435
 20
444.983002
 10
302.529541
 20
444.942963
  0
LINE
  5
1CF
330
16C
100
AcDbEntity
  8
0
  6
Continuous
 62
     0
370
    30
100
AcDbLine
 10
308.582679
 20
457.923418
 30
0.0
 11
302.529852
 21
444.943088
 31
0.0
  0
LINE
  5
1D0
330
16C
100
AcDbEntity
  8
0
  6
Continuous
 62
     0
370
    30
100
AcDbLine
 10
304.957448
 20
459.613891
 30
0.0
 11
302.52854
 21
454.405083
 31
0.0
  0
LINE
  5
1D1
330
16C
100
AcDbEntity
  8
0
  6
Continuous
 62
     0
370
    30
100
AcDbLine
 10
322.750004
 20
463.944255
 30
0.0
 11
323.249978
 21
463.444282
 31
0.0
  0
LINE
  5
1D2
330
16C
100
AcDbEntity
  8
0
  6
Continuous
 62
     0
370
    30
100
AcDbLine
 10
322.750005
 20
459.944256
 30
0.0
 11
323.249977
 21
460.444229
 31
0.0
  0
LINE
  5
1D3
330
16C
100
AcDbEntity
  8
0
  6
Continuous
 62
     0
370
    30
100
AcDbLine
 10
322.750004
 20
459.944256
 30
0.0
 11
311.754756
 21
459.944255
 31
0.0
  0
LINE
  5
1D4
330
16C
100
AcDbEntity
  8
0
  6
Continuous
 62
     0
370
    30
100
AcDbLine
 10
322.750004
 20
463.944256
 30
0.0
 11
311.754755
 21
463.944255
 31
0.0
  0
ARC
  5
1D5
330
16C
100
AcDbEntity
  8
0
  6
Continuous
 62
     0
370
    30
100
AcDbCircle
 10
311.754811
 20
456.444168
 30
0.0
 40
3.500086122667809
100
AcDbArc
 50
90.000909
 51
154.999107
  0
ARC
  5
1D6
330
16C
100
AcDbEntity
  8
0
  6
Continuous
 62
     0
370
    30
100
AcDbCircle
 10
311.754663
 20
456.444401
 30
0.0
 40
7.499853859489008
100
AcDbArc
 50
89.999297
 51
155.000714
  0
ENDBLK
  5
1D8
330
16C
100
AcDbEntity
  8
0
100
AcDbBlockEnd
  0
ENDSEC
  0
SECTION
  2
ENTITIES
  0
INSERT
  5
C2
330
1F
100
AcDbEntity
  8
0
  6
Continuous
 62
     7
420
 16250871
370
     0
100
AcDbBlockReference
  2
a
 10
419.118713
 20
412.645508
 30
0.0
  0
INSERT
  5
FC
330
1F
100
AcDbEntity
  8
0
  6
Continuous
 62
     7
420
 16250871
370
     0
100
AcDbBlockReference
  2
b
 10
0.0
 20
391.218018
 30
0.0
  0
INSERT
  5
16B
330
1F
100
AcDbEntity
  8
0
  6
Continuous
 62
     7
420
 16250871
370
     0
100
AcDbBlockReference
  2
c
 10
369.278992
 20
0.0
 30
0.0
  0
INSERT
  5
1D9
330
1F
100
AcDbEntity
  8
0
  6
Continuous
 62
     7
420
 16250871
370
     0
100
AcDbBlockReference
  2
d
 10
357.501465
 20
0.0
 30
0.0
  0
ENDSEC
  0
SECTION
  2
OBJECTS
  0
DICTIONARY
  5
C
330
0
100
AcDbDictionary
281
     1
  3
ACAD_DETAILVIEWSTYLE
350
211
  3
ACAD_GROUP
350
D
  3
ACAD_LAYOUT
350
1A
  3
ACAD_MATERIAL
350
43
  3
ACAD_MLEADERSTYLE
350
6B
  3
ACAD_MLINESTYLE
350
17
  3
ACAD_PLOTSETTINGS
350
19
  3
ACAD_PLOTSTYLENAME
350
E
  3
ACAD_SCALELIST
350
47
  3
ACAD_SECTIONVIEWSTYLE
350
212
  3
ACAD_TABLESTYLE
350
69
  3
ACAD_VISUALSTYLE
350
2A
  3
ACDB_RECOMPOSE_DATA
350
20E
  3
AcDbVariableDictionary
350
1DA
  0
SUN
  5
6D
330
29
100
AcDbSun
 90
        1
290
     0
 63
     7
421
 16777215
 40
1.0
291
     1
 91
  2455826
 92
 54000000
292
     0
 70
     2
 71
   256
280
     1
  0
DICTIONARY
  5
211
102
{ACAD_REACTORS
330
C
102
}
330
C
100
AcDbDictionary
281
     1
  0
DICTIONARY
  5
D
102
{ACAD_REACTORS
330
C
102
}
330
C
100
AcDbDictionary
281
     1
  0
DICTIONARY
  5
1A
102
{ACAD_REACTORS
330
C
102
}
330
C
100
AcDbDictionary
281
     1
  3
Layout1
350
1E
  3
Layout2
350
26
  3
Model
350
22
  0
DICTIONARY
  5
43
102
{ACAD_REACTORS
330
C
102
}
330
C
100
AcDbDictionary
281
     1
  3
ByBlock
350
45
  3
ByLayer
350
44
  3
Global
350
46
  0
DICTIONARY
  5
6B
102
{ACAD_REACTORS
330
C
102
}
330
C
100
AcDbDictionary
281
     1
  3
Standard
350
6C
  0
DICTIONARY
  5
17
102
{ACAD_REACTORS
330
C
102
}
330
C
100
AcDbDictionary
281
     1
  3
Standard
350
18
  0
DICTIONARY
  5
19
102
{ACAD_REACTORS
330
C
102
}
330
C
100
AcDbDictionary
281
     1
  0
ACDBDICTIONARYWDFLT
  5
E
102
{ACAD_REACTORS
330
C
102
}
330
C
100
AcDbDictionary
281
     1
  3
Normal
350
F
100
AcDbDictionaryWithDefault
340
F
  0
DICTIONARY
  5
47
102
{ACAD_REACTORS
330
C
102
}
330
C
100
AcDbDictionary
281
     1
  3
A0
350
48
  3
A1
350
49
  3
A2
350
4A
  3
A3
350
4B
  3
A4
350
4C
  3
A5
350
4D
  3
A6
350
4E
  3
A7
350
4F
  3
A8
350
50
  3
A9
350
51
  3
B0
350
52
  3
B1
350
53
  3
B2
350
54
  3
B3
350
55
  3
B4
350
56
  3
B5
350
57
  3
B6
350
58
  3
B7
350
59
  3
B8
350
5A
  3
B9
350
5B
  3
C0
350
5C
  3
C1
350
5D
  3
C2
350
5E
  3
C3
350
5F
  3
C4
350
60
  3
C5
350
61
  3
C6
350
62
  3
C7
350
63
  3
C8
350
64
  3
C9
350
65
  3
D0
350
66
  3
D1
350
67
  3
D2
350
68
  0
DICTIONARY
  5
212
102
{ACAD_REACTORS
330
C
102
}
330
C
100
AcDbDictionary
281
     1
  0
DICTIONARY
  5
69
102
{ACAD_REACTORS
330
C
102
}
330
C
100
AcDbDictionary
281
     1
  3
Standard
350
6A
  0
DICTIONARY
  5
2A
102
{ACAD_REACTORS
330
C
102
}
330
C
100
AcDbDictionary
281
     1
  3
2dWireframe
350
2F
  3
Basic
350
32
  3
Brighten
350
36
  3
ColorChange
350
3A
  3
Conceptual
350
34
  3
Dim
350
35
  3
EdgeColorOff
350
3D
  3
Facepattern
350
39
  3
Flat
350
2B
  3
FlatWithEdges
350
2C
  3
Gouraud
350
2D
  3
GouraudWithEdges
350
2E
  3
Hidden
350
31
  3
JitterOff
350
3B
  3
Linepattern
350
38
  3
OverhangOff
350
3C
  3
Realistic
350
33
  3
Shaded
350
42
  3
Shaded with edges
350
41
  3
Shades of Gray
350
3E
  3
Sketchy
350
3F
  3
Thicken
350
37
  3
Wireframe
350
30
  3
X-Ray
350
40
  0
XRECORD
  5
20E
102
{ACAD_REACTORS
330
C
102
}
330
C
100
AcDbXrecord
280
     1
 90
        1
330
6A
  0
DICTIONARY
  5
1DA
102
{ACAD_REACTORS
330
C
102
}
330
C
100
AcDbDictionary
281
     1
  3
CANNOSCALE
350
1DB
  3
CMLEADERSTYLE
350
210
  3
CTABLESTYLE
350
20F
  0
LAYOUT
  5
1E
102
{ACAD_REACTORS
330
1A
102
}
330
1A
100
AcDbPlotSettings
  1

  2
none_device
  4

  6

 40
0.0
 41
0.0
 42
0.0
 43
0.0
 44
0.0
 45
0.0
 46
0.0
 47
0.0
 48
0.0
 49
0.0
140
0.0
141
0.0
142
1.0
143
1.0
 70
   688
 72
     1
 73
     0
 74
     5
  7

 75
    16
 76
     0
 77
     2
 78
   300
147
1.0
148
0.0
149
0.0
100
AcDbLayout
  1
Layout1
 70
     1
 71
     1
 10
0.0
 20
0.0
 11
420.0
 21
297.0
 12
0.0
 22
0.0
 32
0.0
 14
1.000000E+20
 24
1.000000E+20
 34
1.000000E+20
 15
-1.000000E+20
 25
-1.000000E+20
 35
-1.000000E+20
146
0.0
 13
0.0
 23
0.0
 33
0.0
 16
1.0
 26
0.0
 36
0.0
 17
0.0
 27
1.0
 37
0.0
 76
     0
330
1B
  0
LAYOUT
  5
26
102
{ACAD_REACTORS
330
1A
102
}
330
1A
100
AcDbPlotSettings
  1

  2
none_device
  4

  6

 40
0.0
 41
0.0
 42
0.0
 43
0.0
 44
0.0
 45
0.0
 46
0.0
 47
0.0
 48
0.0
 49
0.0
140
0.0
141
0.0
142
1.0
143
1.0
 70
   688
 72
     1
 73
     0
 74
     5
  7

 75
    16
 76
     0
 77
     2
 78
   300
147
1.0
148
0.0
149
0.0
100
AcDbLayout
  1
Layout2
 70
     1
 71
     2
 10
0.0
 20
0.0
 11
0.0
 21
0.0
 12
0.0
 22
0.0
 32
0.0
 14
0.0
 24
0.0
 34
0.0
 15
0.0
 25
0.0
 35
0.0
146
0.0
 13
0.0
 23
0.0
 33
0.0
 16
1.0
 26
0.0
 36
0.0
 17
0.0
 27
1.0
 37
0.0
 76
     0
330
23
  0
LAYOUT
  5
22
102
{ACAD_REACTORS
330
1A
102
}
330
1A
100
AcDbPlotSettings
  1

  2
none_device
  4
Letter_(8.50_x_11.00_Inches)
  6

 40
6.35
 41
6.35
 42
6.350005
 43
6.350005
 44
215.9
 45
279.4
 46
0.0
 47
0.0
 48
0.0
 49
0.0
140
0.0
141
0.0
142
1.0
143
1.0
 70
  1712
 72
     1
 73
     0
 74
     0
  7

 75
     0
 76
     0
 77
     2
 78
   300
147
1.0
148
0.0
149
0.0
100
AcDbLayout
  1
Model
 70
     1
 71
     0
 10
0.0
 20
0.0
 11
420.0
 21
297.0
 12
0.0
 22
0.0
 32
0.0
 14
1.000000E+20
 24
1.000000E+20
 34
1.000000E+20
 15
-1.000000E+20
 25
-1.000000E+20
 35
-1.000000E+20
146
0.0
 13
0.0
 23
0.0
 33
0.0
 16
1.0
 26
0.0
 36
0.0
 17
0.0
 27
1.0
 37
0.0
 76
     0
330
1F
331
29
  0
MATERIAL
  5
45
102
{ACAD_REACTORS
330
43
102
}
330
43
100
AcDbMaterial
  1
ByBlock
 72
     1
 94
      127
  0
MATERIAL
  5
44
102
{ACAD_REACTORS
330
43
102
}
330
43
100
AcDbMaterial
  1
ByLayer
 72
     1
 94
      127
  0
MATERIAL
  5
46
102
{ACAD_REACTORS
330
43
102
}
330
43
100
AcDbMaterial
  1
Global
 72
     1
 94
      127
  0
MLEADERSTYLE
  5
6C
102
{ACAD_REACTORS
330
6B
102
}
330
6B
100
AcDbMLeaderStyle
179
     2
170
     2
171
     1
172
     0
 90
        2
 40
0.0
 41
0.0
173
     1
 91
-1056964608
340
14
 92
       -2
290
     1
 42
2.0
291
     1
 43
8.0
  3
Standard
341
0
 44
4.0
300

342
11
174
     1
178
     6
175
     1
176
     0
 93
-1056964608
 45
4.0
292
     0
297
     0
 46
4.0
343
0
 94
-1056964608
 47
1.0
 49
1.0
140
1.0
293
     1
141
0.0
294
     1
177
     0
142
1.0
295
     0
296
     0
143
3.75
271
     0
272
     9
273
     9
  0
MLINESTYLE
  5
18
102
{ACAD_REACTORS
330
17
102
}
330
17
100
AcDbMlineStyle
  2
Standard
 70
     0
  3

 62
   256
 51
90.0
 52
90.0
 71
     2
 49
0.5
 62
   256
  6
BYLAYER
 49
-0.5
 62
   256
  6
BYLAYER
  0
ACDBPLACEHOLDER
  5
F
102
{ACAD_REACTORS
330
E
102
}
330
E
  0
SCALE
  5
48
102
{ACAD_REACTORS
330
47
102
}
330
47
100
AcDbScale
 70
     0
300
1:1
140
1.0
141
1.0
290
     1
  0
SCALE
  5
49
102
{ACAD_REACTORS
330
47
102
}
330
47
100
AcDbScale
 70
     0
300
1:2
140
1.0
141
2.0
290
     0
  0
SCALE
  5
4A
102
{ACAD_REACTORS
330
47
102
}
330
47
100
AcDbScale
 70
     0
300
1:4
140
1.0
141
4.0
290
     0
  0
SCALE
  5
4B
102
{ACAD_REACTORS
330
47
102
}
330
47
100
AcDbScale
 70
     0
300
1:5
140
1.0
141
5.0
290
     0
  0
SCALE
  5
4C
102
{ACAD_REACTORS
330
47
102
}
330
47
100
AcDbScale
 70
     0
300
1:8
140
1.0
141
8.0
290
     0
  0
SCALE
  5
4D
102
{ACAD_REACTORS
330
47
102
}
330
47
100
AcDbScale
 70
     0
300
1:10
140
1.0
141
10.0
290
     0
  0
SCALE
  5
4E
102
{ACAD_REACTORS
330
47
102
}
330
47
100
AcDbScale
 70
     0
300
1:16
140
1.0
141
16.0
290
     0
  0
SCALE
  5
4F
102
{ACAD_REACTORS
330
47
102
}
330
47
100
AcDbScale
 70
     0
300
1:20
140
1.0
141
20.0
290
     0
  0
SCALE
  5
50
102
{ACAD_REACTORS
330
47
102
}
330
47
100
AcDbScale
 70
     0
300
1:30
140
1.0
141
30.0
290
     0
  0
SCALE
  5
51
102
{ACAD_REACTORS
330
47
102
}
330
47
100
AcDbScale
 70
     0
300
1:40
140
1.0
141
40.0
290
     0
  0
SCALE
  5
52
102
{ACAD_REACTORS
330
47
102
}
330
47
100
AcDbScale
 70
     0
300
1:50
140
1.0
141
50.0
290
     0
  0
SCALE
  5
53
102
{ACAD_REACTORS
330
47
102
}
330
47
100
AcDbScale
 70
     0
300
1:100
140
1.0
141
100.0
290
     0
  0
SCALE
  5
54
102
{ACAD_REACTORS
330
47
102
}
330
47
100
AcDbScale
 70
     0
300
2:1
140
2.0
141
1.0
290
     0
  0
SCALE
  5
55
102
{ACAD_REACTORS
330
47
102
}
330
47
100
AcDbScale
 70
     0
300
4:1
140
4.0
141
1.0
290
     0
  0
SCALE
  5
56
102
{ACAD_REACTORS
330
47
102
}
330
47
100
AcDbScale
 70
     0
300
8:1
140
8.0
141
1.0
290
     0
  0
SCALE
  5
57
102
{ACAD_REACTORS
330
47
102
}
330
47
100
AcDbScale
 70
     0
300
10:1
140
10.0
141
1.0
290
     0
  0
SCALE
  5
58
102
{ACAD_REACTORS
330
47
102
}
330
47
100
AcDbScale
 70
     0
300
100:1
140
100.0
141
1.0
290
     0
  0
SCALE
  5
59
102
{ACAD_REACTORS
330
47
102
}
330
47
100
AcDbScale
 70
     0
300
1/128" = 1'-0"
140
0.007812
141
12.0
290
     0
  0
SCALE
  5
5A
102
{ACAD_REACTORS
330
47
102
}
330
47
100
AcDbScale
 70
     0
300
1/64" = 1'-0"
140
0.015625
141
12.0
290
     0
  0
SCALE
  5
5B
102
{ACAD_REACTORS
330
47
102
}
330
47
100
AcDbScale
 70
     0
300
1/32" = 1'-0"
140
0.03125
141
12.0
290
     0
  0
SCALE
  5
5C
102
{ACAD_REACTORS
330
47
102
}
330
47
100
AcDbScale
 70
     0
300
1/16" = 1'-0"
140
0.0625
141
12.0
290
     0
  0
SCALE
  5
5D
102
{ACAD_REACTORS
330
47
102
}
330
47
100
AcDbScale
 70
     0
300
3/32" = 1'-0"
140
0.09375
141
12.0
290
     0
  0
SCALE
  5
5E
102
{ACAD_REACTORS
330
47
102
}
330
47
100
AcDbScale
 70
     0
300
1/8" = 1'-0"
140
0.125
141
12.0
290
     0
  0
SCALE
  5
5F
102
{ACAD_REACTORS
330
47
102
}
330
47
100
AcDbScale
 70
     0
300
3/16" = 1'-0"
140
0.1875
141
12.0
290
     0
  0
SCALE
  5
60
102
{ACAD_REACTORS
330
47
102
}
330
47
100
AcDbScale
 70
     0
300
1/4" = 1'-0"
140
0.25
141
12.0
290
     0
  0
SCALE
  5
61
102
{ACAD_REACTORS
330
47
102
}
330
47
100
AcDbScale
 70
     0
300
3/8" = 1'-0"
140
0.375
141
12.0
290
     0
  0
SCALE
  5
62
102
{ACAD_REACTORS
330
47
102
}
330
47
100
AcDbScale
 70
     0
300
1/2" = 1'-0"
140
0.5
141
12.0
290
     0
  0
SCALE
  5
63
102
{ACAD_REACTORS
330
47
102
}
330
47
100
AcDbScale
 70
     0
300
3/4" = 1'-0"
140
0.75
141
12.0
290
     0
  0
SCALE
  5
64
102
{ACAD_REACTORS
330
47
102
}
330
47
100
AcDbScale
 70
     0
300
1" = 1'-0"
140
1.0
141
12.0
290
     0
  0
SCALE
  5
65
102
{ACAD_REACTORS
330
47
102
}
330
47
100
AcDbScale
 70
     0
300
1-1/2" = 1'-0"
140
1.5
141
12.0
290
     0
  0
SCALE
  5
66
102
{ACAD_REACTORS
330
47
102
}
330
47
100
AcDbScale
 70
     0
300
3" = 1'-0"
140
3.0
141
12.0
290
     0
  0
SCALE
  5
67
102
{ACAD_REACTORS
330
47
102
}
330
47
100
AcDbScale
 70
     0
300
6" = 1'-0"
140
6.0
141
12.0
290
     0
  0
SCALE
  5
68
102
{ACAD_REACTORS
330
47
102
}
330
47
100
AcDbScale
 70
     0
300
1'-0" = 1'-0"
140
12.0
141
12.0
290
     0
  0
TABLESTYLE
  5
6A
102
{ACAD_REACTORS
330
69
102
}
102
{ACAD_XDICTIONARY
360
20C
102
}
330
69
100
AcDbTableStyle
  3
Standard
 70
     0
 71
     0
 40
0.06
 41
0.06
280
     0
281
     0
  7
Standard
140
4.5
170
     2
 62
     0
 63
   257
283
     0
 90
        4
 91
        0
  1

274
    -2
284
     1
 64
     0
275
    -2
285
     1
 65
     0
276
    -2
286
     1
 66
     0
277
    -2
287
     1
 67
     0
278
    -2
288
     1
 68
     0
279
    -2
289
     1
 69
     0
  7
Standard
140
6.0
170
     5
 62
     0
 63
   257
283
     0
 90
        4
 91
        0
  1

274
    -2
284
     1
 64
     0
275
    -2
285
     1
 65
     0
276
    -2
286
     1
 66
     0
277
    -2
287
     1
 67
     0
278
    -2
288
     1
 68
     0
279
    -2
289
     1
 69
     0
  7
Standard
140
4.5
170
     5
 62
     0
 63
   257
283
     0
 90
        4
 91
        0
  1

274
    -2
284
     1
 64
     0
275
    -2
285
     1
 65
     0
276
    -2
286
     1
 66
     0
277
    -2
287
     1
 67
     0
278
    -2
288
     1
 68
     0
279
    -2
289
     1
 69
     0
  0
VISUALSTYLE
  5
2F
102
{ACAD_REACTORS
330
2A
102
}
102
{ACAD_XDICTIONARY
360
1E4
102
}
330
2A
100
AcDbVisualStyle
  2
2dWireframe
 70
     4
177
     2
291
     0
 71
     0
176
     1
 72
     2
176
     1
 73
     0
176
     1
 90
        0
176
     1
 40
0.6
176
     1
 41
30.0
176
     1
 62
     5
 63
     7
421
 16777215
176
     1
 74
     1
176
     1
 91
        4
176
     1
 64
     7
176
     1
 65
   257
176
     1
 75
     1
176
     1
175
     1
176
     1
 42
1.0
176
     1
 92
        0
176
     1
 66
   257
176
     1
 43
1.0
176
     1
 76
     1
176
     1
 77
     6
176
     1
 78
     2
176
     1
 67
     7
176
     1
 79
     5
176
     1
170
     0
176
     1
171
     0
176
     1
290
     0
176
     1
 93
        1
176
     1
 44
0.0
176
     1
173
     0
176
     1
  0
VISUALSTYLE
  5
32
102
{ACAD_REACTORS
330
2A
102
}
102
{ACAD_XDICTIONARY
360
1EA
102
}
330
2A
100
AcDbVisualStyle
  2
Basic
 70
     7
177
     2
291
     1
 71
     1
176
     1
 72
     0
176
     1
 73
     1
176
     1
 90
        0
176
     1
 40
0.6
176
     1
 41
30.0
176
     1
 62
     5
 63
     7
421
 16777215
176
     1
 74
     0
176
     1
 91
        4
176
     1
 64
     7
176
     1
 65
   257
176
     1
 75
     1
176
     1
175
     1
176
     1
 42
1.0
176
     1
 92
        8
176
     1
 66
     7
176
     1
 43
1.0
176
     1
 76
     1
176
     1
 77
     6
176
     1
 78
     2
176
     1
 67
     7
176
     1
 79
     5
176
     1
170
     0
176
     1
171
     0
176
     1
290
     0
176
     1
 93
        1
176
     1
 44
0.0
176
     1
173
     0
176
     1
  0
VISUALSTYLE
  5
36
102
{ACAD_REACTORS
330
2A
102
}
102
{ACAD_XDICTIONARY
360
1F2
102
}
330
2A
100
AcDbVisualStyle
  2
Brighten
 70
    12
177
     2
291
     1
 71
     2
176
     1
 72
     2
176
     1
 73
     0
176
     1
 90
        0
176
     1
 40
0.6
176
     1
 41
30.0
176
     1
 62
     5
 63
     7
421
 16777215
176
     1
 74
     1
176
     1
 91
        4
176
     1
 64
     7
176
     1
 65
   257
176
     1
 75
     1
176
     1
175
     1
176
     1
 42
1.0
176
     1
 92
        8
176
     1
 66
     7
176
     1
 43
1.0
176
     1
 76
     1
176
     1
 77
     6
176
     1
 78
     2
176
     1
 67
     7
176
     1
 79
     5
176
     1
170
     0
176
     1
171
     0
176
     1
290
     0
176
     1
 93
        1
176
     1
 44
50.0
176
     1
173
     0
176
     1
  0
VISUALSTYLE
  5
3A
102
{ACAD_REACTORS
330
2A
102
}
102
{ACAD_XDICTIONARY
360
1FA
102
}
330
2A
100
AcDbVisualStyle
  2
ColorChange
 70
    16
177
     2
291
     1
 71
     2
176
     1
 72
     2
176
     1
 73
     3
176
     1
 90
        0
176
     1
 40
0.6
176
     1
 41
30.0
176
     1
 62
     5
 63
     8
421
  8421504
176
     1
 74
     1
176
     1
 91
        4
176
     1
 64
     7
176
     1
 65
   257
176
     1
 75
     1
176
     1
175
     1
176
     1
 42
1.0
176
     1
 92
        8
176
     1
 66
     8
424
  8421504
176
     1
 43
1.0
176
     1
 76
     1
176
     1
 77
     6
176
     1
 78
     2
176
     1
 67
     7
176
     1
 79
     5
176
     1
170
     0
176
     1
171
     0
176
     1
290
     0
176
     1
 93
        1
176
     1
 44
0.0
176
     1
173
     0
176
     1
  0
VISUALSTYLE
  5
34
102
{ACAD_REACTORS
330
2A
102
}
102
{ACAD_XDICTIONARY
360
1EE
102
}
330
2A
100
AcDbVisualStyle
  2
Conceptual
 70
     9
177
     2
291
     0
 71
     3
176
     1
 72
     2
176
     1
 73
     0
176
     1
 90
        0
176
     1
 40
0.6
176
     1
 41
30.0
176
     1
 62
     5
 63
     7
421
 16777215
176
     1
 74
     2
176
     1
 91
        2
176
     1
 64
     7
176
     1
 65
   257
176
     1
 75
     1
176
     1
175
     1
176
     1
 42
179.0
176
     1
 92
        8
176
     1
 66
     7
176
     1
 43
1.0
176
     1
 76
     1
176
     1
 77
     6
176
     1
 78
     2
176
     1
 67
     7
176
     1
 79
     3
176
     1
170
     0
176
     1
171
     0
176
     1
290
     0
176
     1
 93
        1
176
     1
 44
0.0
176
     1
173
     0
176
     1
  0
VISUALSTYLE
  5
35
102
{ACAD_REACTORS
330
2A
102
}
102
{ACAD_XDICTIONARY
360
1F0
102
}
330
2A
100
AcDbVisualStyle
  2
Dim
 70
    11
177
     2
291
     1
 71
     2
176
     1
 72
     2
176
     1
 73
     0
176
     1
 90
        0
176
     1
 40
0.6
176
     1
 41
30.0
176
     1
 62
     5
 63
     7
421
 16777215
176
     1
 74
     1
176
     1
 91
        4
176
     1
 64
     7
176
     1
 65
   257
176
     1
 75
     1
176
     1
175
     1
176
     1
 42
1.0
176
     1
 92
        8
176
     1
 66
     7
176
     1
 43
1.0
176
     1
 76
     1
176
     1
 77
     6
176
     1
 78
     2
176
     1
 67
     7
176
     1
 79
     5
176
     1
170
     0
176
     1
171
     0
176
     1
290
     0
176
     1
 93
        1
176
     1
 44
-50.0
176
     1
173
     0
176
     1
  0
VISUALSTYLE
  5
3D
102
{ACAD_REACTORS
330
2A
102
}
102
{ACAD_XDICTIONARY
360
200
102
}
330
2A
100
AcDbVisualStyle
  2
EdgeColorOff
 70
    22
177
     2
291
     1
 71
     2
176
     0
 72
     2
176
     0
 73
     0
176
     0
 90
        0
176
     0
 40
0.6
176
     0
 41
30.0
176
     0
 62
     5
 63
     7
421
 16777215
176
     0
 74
     1
176
     0
 91
        4
176
     0
 64
     7
176
     0
 65
   257
176
     0
 75
     1
176
     0
175
     1
176
     0
 42
1.0
176
     0
 92
        8
176
     2
 66
     7
176
     0
 43
1.0
176
     0
 76
     1
176
     0
 77
     6
176
     0
 78
     2
176
     0
 67
     7
176
     0
 79
     5
176
     0
170
     0
176
     0
171
     0
176
     0
290
     0
176
     0
 93
        1
176
     0
 44
0.0
176
     0
173
     0
176
     0
  0
VISUALSTYLE
  5
39
102
{ACAD_REACTORS
330
2A
102
}
102
{ACAD_XDICTIONARY
360
1F8
102
}
330
2A
100
AcDbVisualStyle
  2
Facepattern
 70
    15
177
     2
291
     1
 71
     2
176
     1
 72
     2
176
     1
 73
     0
176
     1
 90
        0
176
     1
 40
0.6
176
     1
 41
30.0
176
     1
 62
     5
 63
     7
421
 16777215
176
     1
 74
     1
176
     1
 91
        4
176
     1
 64
     7
176
     1
 65
   257
176
     1
 75
     1
176
     1
175
     1
176
     1
 42
1.0
176
     1
 92
        8
176
     1
 66
     7
176
     1
 43
1.0
176
     1
 76
     1
176
     1
 77
     6
176
     1
 78
     2
176
     1
 67
     7
176
     1
 79
     5
176
     1
170
     0
176
     1
171
     0
176
     1
290
     0
176
     1
 93
        1
176
     1
 44
0.0
176
     1
173
     0
176
     1
  0
VISUALSTYLE
  5
2B
102
{ACAD_REACTORS
330
2A
102
}
102
{ACAD_XDICTIONARY
360
1DC
102
}
330
2A
100
AcDbVisualStyle
  2
Flat
 70
     0
177
     2
291
     1
 71
     2
176
     1
 72
     1
176
     1
 73
     1
176
     1
 90
        2
176
     1
 40
0.6
176
     1
 41
30.0
176
     1
 62
     5
 63
     7
421
 16777215
176
     1
 74
     0
176
     1
 91
        0
176
     1
 64
     7
176
     1
 65
   257
176
     1
 75
     1
176
     1
175
     1
176
     1
 42
1.0
176
     1
 92
        8
176
     1
 66
     7
176
     1
 43
1.0
176
     1
 76
     1
176
     1
 77
     6
176
     1
 78
     2
176
     1
 67
     7
176
     1
 79
     5
176
     1
170
     0
176
     1
171
     0
176
     1
290
     0
176
     1
 93
       13
176
     1
 44
0.0
176
     1
173
     0
176
     1
  0
VISUALSTYLE
  5
2C
102
{ACAD_REACTORS
330
2A
102
}
102
{ACAD_XDICTIONARY
360
1DE
102
}
330
2A
100
AcDbVisualStyle
  2
FlatWithEdges
 70
     1
177
     2
291
     1
 71
     2
176
     1
 72
     1
176
     1
 73
     1
176
     1
 90
        2
176
     1
 40
0.6
176
     1
 41
30.0
176
     1
 62
     5
 63
     7
421
 16777215
176
     1
 74
     1
176
     1
 91
        0
176
     1
 64
     7
176
     1
 65
   257
176
     1
 75
     1
176
     1
175
     1
176
     1
 42
1.0
176
     1
 92
        0
176
     1
 66
   257
176
     1
 43
1.0
176
     1
 76
     1
176
     1
 77
     6
176
     1
 78
     2
176
     1
 67
     7
176
     1
 79
     5
176
     1
170
     0
176
     1
171
     0
176
     1
290
     0
176
     1
 93
       13
176
     1
 44
0.0
176
     1
173
     0
176
     1
  0
VISUALSTYLE
  5
2D
102
{ACAD_REACTORS
330
2A
102
}
102
{ACAD_XDICTIONARY
360
1E0
102
}
330
2A
100
AcDbVisualStyle
  2
Gouraud
 70
     2
177
     2
291
     1
 71
     2
176
     1
 72
     2
176
     1
 73
     1
176
     1
 90
        2
176
     1
 40
0.6
176
     1
 41
30.0
176
     1
 62
     5
 63
     7
421
 16777215
176
     1
 74
     0
176
     1
 91
        0
176
     1
 64
     7
176
     1
 65
   257
176
     1
 75
     1
176
     1
175
     1
176
     1
 42
1.0
176
     1
 92
        0
176
     1
 66
     7
176
     1
 43
1.0
176
     1
 76
     1
176
     1
 77
     6
176
     1
 78
     2
176
     1
 67
     7
176
     1
 79
     5
176
     1
170
     0
176
     1
171
     0
176
     1
290
     0
176
     1
 93
       13
176
     1
 44
0.0
176
     1
173
     0
176
     1
  0
VISUALSTYLE
  5
2E
102
{ACAD_REACTORS
330
2A
102
}
102
{ACAD_XDICTIONARY
360
1E2
102
}
330
2A
100
AcDbVisualStyle
  2
GouraudWithEdges
 70
     3
177
     2
291
     1
 71
     2
176
     1
 72
     2
176
     1
 73
     1
176
     1
 90
        2
176
     1
 40
0.6
176
     1
 41
30.0
176
     1
 62
     5
 63
     7
421
 16777215
176
     1
 74
     1
176
     1
 91
        0
176
     1
 64
     7
176
     1
 65
   257
176
     1
 75
     1
176
     1
175
     1
176
     1
 42
1.0
176
     1
 92
        0
176
     1
 66
   257
176
     1
 43
1.0
176
     1
 76
     1
176
     1
 77
     6
176
     1
 78
     2
176
     1
 67
     7
176
     1
 79
     5
176
     1
170
     0
176
     1
171
     0
176
     1
290
     0
176
     1
 93
       13
176
     1
 44
0.0
176
     1
173
     0
176
     1
  0
VISUALSTYLE
  5
31
102
{ACAD_REACTORS
330
2A
102
}
102
{ACAD_XDICTIONARY
360
1E8
102
}
330
2A
100
AcDbVisualStyle
  2
Hidden
 70
     6
177
     2
291
     0
 71
     1
176
     1
 72
     2
176
     1
 73
     2
176
     1
 90
        0
176
     1
 40
0.6
176
     1
 41
30.0
176
     1
 62
     5
 63
     7
421
 16777215
176
     1
 74
     2
176
     1
 91
        2
176
     1
 64
     7
176
     1
 65
   257
176
     1
 75
     2
176
     1
175
     1
176
     1
 42
40.0
176
     1
 92
        0
176
     1
 66
   257
176
     1
 43
1.0
176
     1
 76
     1
176
     1
 77
     6
176
     1
 78
     2
176
     1
 67
     7
176
     1
 79
     3
176
     1
170
     0
176
     1
171
     0
176
     1
290
     0
176
     1
 93
        1
176
     1
 44
0.0
176
     1
173
     0
176
     1
  0
VISUALSTYLE
  5
3B
102
{ACAD_REACTORS
330
2A
102
}
102
{ACAD_XDICTIONARY
360
1FC
102
}
330
2A
100
AcDbVisualStyle
  2
JitterOff
 70
    20
177
     2
291
     1
 71
     2
176
     0
 72
     2
176
     0
 73
     0
176
     0
 90
        0
176
     0
 40
0.6
176
     0
 41
30.0
176
     0
 62
     5
 63
     7
421
 16777215
176
     0
 74
     1
176
     0
 91
        4
176
     0
 64
     7
176
     0
 65
   257
176
     0
 75
     1
176
     0
175
     1
176
     0
 42
1.0
176
     0
 92
       10
176
     2
 66
     7
176
     0
 43
1.0
176
     0
 76
     1
176
     0
 77
     6
176
     0
 78
     2
176
     0
 67
     7
176
     0
 79
     5
176
     0
170
     0
176
     0
171
     0
176
     0
290
     0
176
     0
 93
        1
176
     0
 44
0.0
176
     0
173
     0
176
     0
  0
VISUALSTYLE
  5
38
102
{ACAD_REACTORS
330
2A
102
}
102
{ACAD_XDICTIONARY
360
1F6
102
}
330
2A
100
AcDbVisualStyle
  2
Linepattern
 70
    14
177
     2
291
     1
 71
     2
176
     1
 72
     2
176
     1
 73
     0
176
     1
 90
        0
176
     1
 40
0.6
176
     1
 41
30.0
176
     1
 62
     5
 63
     7
421
 16777215
176
     1
 74
     1
176
     1
 91
        4
176
     1
 64
     7
176
     1
 65
   257
176
     1
 75
     7
176
     1
175
     7
176
     1
 42
1.0
176
     1
 92
        8
176
     1
 66
     7
176
     1
 43
1.0
176
     1
 76
     1
176
     1
 77
     6
176
     1
 78
     2
176
     1
 67
     7
176
     1
 79
     5
176
     1
170
     0
176
     1
171
     0
176
     1
290
     0
176
     1
 93
        1
176
     1
 44
0.0
176
     1
173
     0
176
     1
  0
VISUALSTYLE
  5
3C
102
{ACAD_REACTORS
330
2A
102
}
102
{ACAD_XDICTIONARY
360
1FE
102
}
330
2A
100
AcDbVisualStyle
  2
OverhangOff
 70
    21
177
     2
291
     1
 71
     2
176
     0
 72
     2
176
     0
 73
     0
176
     0
 90
        0
176
     0
 40
0.6
176
     0
 41
30.0
176
     0
 62
     5
 63
     7
421
 16777215
176
     0
 74
     1
176
     0
 91
        4
176
     0
 64
     7
176
     0
 65
   257
176
     0
 75
     1
176
     0
175
     1
176
     0
 42
1.0
176
     0
 92
        9
176
     2
 66
     7
176
     0
 43
1.0
176
     0
 76
     1
176
     0
 77
     6
176
     0
 78
     2
176
     0
 67
     7
176
     0
 79
     5
176
     0
170
     0
176
     0
171
     0
176
     0
290
     0
176
     0
 93
        1
176
     0
 44
0.0
176
     0
173
     0
176
     0
  0
VISUALSTYLE
  5
33
102
{ACAD_REACTORS
330
2A
102
}
102
{ACAD_XDICTIONARY
360
1EC
102
}
330
2A
100
AcDbVisualStyle
  2
Realistic
 70
     8
177
     2
291
     0
 71
     2
176
     1
 72
     3
176
     1
 73
     0
176
     1
 90
        2
176
     1
 40
0.6
176
     1
 41
30.0
176
     1
 62
     5
 63
     7
421
 16777215
176
     1
 74
     0
176
     1
 91
        0
176
     1
 64
     7
176
     1
 65
   257
176
     1
 75
     1
176
     1
175
     1
176
     1
 42
1.0
176
     1
 92
        8
176
     1
 66
   257
176
     1
 43
1.0
176
     1
 76
     1
176
     1
 77
     6
176
     1
 78
     2
176
     1
 67
     7
176
     1
 79
     3
176
     1
170
     0
176
     1
171
     0
176
     1
290
     0
176
     1
 93
       13
176
     1
 44
0.0
176
     1
173
     0
176
     1
  0
VISUALSTYLE
  5
42
102
{ACAD_REACTORS
330
2A
102
}
102
{ACAD_XDICTIONARY
360
20A
102
}
330
2A
100
AcDbVisualStyle
  2
Shaded
 70
    27
177
     2
291
     0
 71
     2
176
     1
 72
     2
176
     1
 73
     1
176
     1
 90
        2
176
     1
 40
0.6
176
     1
 41
30.0
176
     1
 62
     5
 63
     7
421
 16777215
176
     1
 74
     0
176
     1
 91
        4
176
     1
 64
     7
176
     1
 65
   257
176
     1
 75
     1
176
     1
175
     1
176
     1
 42
1.0
176
     1
 92
        8
176
     1
 66
   257
176
     1
 43
1.0
176
     1
 76
     1
176
     1
 77
     6
176
     1
 78
     2
176
     1
 67
     8
425
  7895160
176
     1
 79
     3
176
     1
170
     0
176
     1
171
     0
176
     1
290
     0
176
     1
 93
        5
176
     1
 44
0.0
176
     1
173
     0
176
     1
  0
VISUALSTYLE
  5
41
102
{ACAD_REACTORS
330
2A
102
}
102
{ACAD_XDICTIONARY
360
208
102
}
330
2A
100
AcDbVisualStyle
  2
Shaded with edges
 70
    26
177
     2
291
     0
 71
     2
176
     1
 72
     2
176
     1
 73
     1
176
     1
 90
        2
176
     1
 40
0.6
176
     1
 41
30.0
176
     1
 62
     5
 63
     7
421
 16777215
176
     1
 74
     1
176
     1
 91
       10
176
     1
 64
     7
176
     1
 65
   257
176
     1
 75
     2
176
     1
175
     1
176
     1
 42
1.0
176
     1
 92
        8
176
     1
 66
   257
176
     1
 43
1.0
176
     1
 76
     1
176
     1
 77
     6
176
     1
 78
     2
176
     1
 67
     7
176
     1
 79
     3
176
     1
170
     0
176
     1
171
     0
176
     1
290
     0
176
     1
 93
        5
176
     1
 44
0.0
176
     1
173
     0
176
     1
  0
VISUALSTYLE
  5
3E
102
{ACAD_REACTORS
330
2A
102
}
102
{ACAD_XDICTIONARY
360
202
102
}
330
2A
100
AcDbVisualStyle
  2
Shades of Gray
 70
    23
177
     2
291
     0
 71
     2
176
     1
 72
     2
176
     1
 73
     3
176
     1
 90
        0
176
     1
 40
0.6
176
     1
 41
30.0
176
     1
 62
     5
 63
     7
421
 16777215
176
     1
 74
     2
176
     1
 91
        2
176
     1
 64
     7
176
     1
 65
     7
176
     1
 75
     1
176
     1
175
     1
176
     1
 42
40.0
176
     1
 92
        8
176
     1
 66
     7
176
     1
 43
1.0
176
     1
 76
     1
176
     1
 77
     6
176
     1
 78
     2
176
     1
 67
     7
176
     1
 79
     3
176
     1
170
     0
176
     1
171
     0
176
     1
290
     0
176
     1
 93
        1
176
     1
 44
0.0
176
     1
173
     0
176
     1
  0
VISUALSTYLE
  5
3F
102
{ACAD_REACTORS
330
2A
102
}
102
{ACAD_XDICTIONARY
360
204
102
}
330
2A
100
AcDbVisualStyle
  2
Sketchy
 70
    24
177
     2
291
     0
 71
     1
176
     1
 72
     2
176
     1
 73
     2
176
     1
 90
        0
176
     1
 40
0.6
176
     1
 41
30.0
176
     1
 62
     5
 63
     7
421
 16777215
176
     1
 74
     2
176
     1
 91
        2
176
     1
 64
     7
176
     1
 65
     7
176
     1
 75
     1
176
     1
175
     1
176
     1
 42
40.0
176
     1
 92
       11
176
     1
 66
     7
176
     1
 43
1.0
176
     1
 76
     1
176
     1
 77
     6
176
     1
 78
     2
176
     1
 67
     7
176
     1
 79
     6
176
     1
170
     0
176
     1
171
     0
176
     1
290
     0
176
     1
 93
        1
176
     1
 44
0.0
176
     1
173
     0
176
     1
  0
VISUALSTYLE
  5
37
102
{ACAD_REACTORS
330
2A
102
}
102
{ACAD_XDICTIONARY
360
1F4
102
}
330
2A
100
AcDbVisualStyle
  2
Thicken
 70
    13
177
     2
291
     1
 71
     2
176
     1
 72
     2
176
     1
 73
     0
176
     1
 90
        0
176
     1
 40
0.6
176
     1
 41
30.0
176
     1
 62
     5
 63
     7
421
 16777215
176
     1
 74
     1
176
     1
 91
        4
176
     1
 64
     7
176
     1
 65
   257
176
     1
 75
     1
176
     1
175
     1
176
     1
 42
1.0
176
     1
 92
       12
176
     1
 66
     7
176
     1
 43
1.0
176
     1
 76
     1
176
     1
 77
     6
176
     1
 78
     2
176
     1
 67
     7
176
     1
 79
     5
176
     1
170
     0
176
     1
171
     0
176
     1
290
     0
176
     1
 93
        1
176
     1
 44
0.0
176
     1
173
     0
176
     1
  0
VISUALSTYLE
  5
30
102
{ACAD_REACTORS
330
2A
102
}
102
{ACAD_XDICTIONARY
360
1E6
102
}
330
2A
100
AcDbVisualStyle
  2
Wireframe
 70
     5
177
     2
291
     0
 71
     0
176
     1
 72
     2
176
     1
 73
     0
176
     1
 90
        0
176
     1
 40
0.6
176
     1
 41
30.0
176
     1
 62
     5
 63
     7
421
 16777215
176
     1
 74
     1
176
     1
 91
        4
176
     1
 64
     7
176
     1
 65
   257
176
     1
 75
     1
176
     1
175
     1
176
     1
 42
1.0
176
     1
 92
        0
176
     1
 66
   257
176
     1
 43
1.0
176
     1
 76
     1
176
     1
 77
     6
176
     1
 78
     2
176
     1
 67
     7
176
     1
 79
     3
176
     1
170
     0
176
     1
171
     0
176
     1
290
     0
176
     1
 93
        1
176
     1
 44
0.0
176
     1
173
     0
176
     1
  0
VISUALSTYLE
  5
40
102
{ACAD_REACTORS
330
2A
102
}
102
{ACAD_XDICTIONARY
360
206
102
}
330
2A
100
AcDbVisualStyle
  2
X-Ray
 70
    25
177
     2
291
     0
 71
     2
176
     1
 72
     2
176
     1
 73
     1
176
     1
 90
        1
176
     1
 40
0.5
176
     1
 41
30.0
176
     1
 62
     5
 63
     7
421
 16777215
176
     1
 74
     1
176
     1
 91
        0
176
     1
 64
     7
176
     1
 65
   257
176
     1
 75
     1
176
     1
175
     1
176
     1
 42
1.0
176
     1
 92
        8
176
     1
 66
     7
176
     1
 43
1.0
176
     1
 76
     1
176
     1
 77
     6
176
     1
 78
     2
176
     1
 67
     7
176
     1
 79
     3
176
     1
170
     0
176
     1
171
     0
176
     1
290
     0
176
     1
 93
       13
176
     1
 44
0.0
176
     1
173
     0
176
     1
  0
DICTIONARYVAR
  5
1DB
102
{ACAD_REACTORS
330
1DA
102
}
330
1DA
100
DictionaryVariables
280
     0
  1
1:1
  0
DICTIONARYVAR
  5
210
102
{ACAD_REACTORS
330
1DA
102
}
330
1DA
100
DictionaryVariables
280
     0
  1
Standard
  0
DICTIONARYVAR
  5
20F
102
{ACAD_REACTORS
330
1DA
102
}
330
1DA
100
DictionaryVariables
280
     0
  1
Standard
  0
DICTIONARY
  5
20C
330
6A
100
AcDbDictionary
280
     1
281
     1
  3
ACAD_ROUNDTRIP_2008_TABLESTYLE_CELLSTYLEMAP
360
20D
  0
DICTIONARY
  5
1E4
330
2F
100
AcDbDictionary
280
     1
281
     1
  3
ACAD_XREC_ROUNDTRIP
360
1E5
  0
DICTIONARY
  5
1EA
330
32
100
AcDbDictionary
280
     1
281
     1
  3
ACAD_XREC_ROUNDTRIP
360
1EB
  0
DICTIONARY
  5
1F2
330
36
100
AcDbDictionary
280
     1
281
     1
  3
ACAD_XREC_ROUNDTRIP
360
1F3
  0
DICTIONARY
  5
1FA
330
3A
100
AcDbDictionary
280
     1
281
     1
  3
ACAD_XREC_ROUNDTRIP
360
1FB
  0
DICTIONARY
  5
1EE
330
34
100
AcDbDictionary
280
     1
281
     1
  3
ACAD_XREC_ROUNDTRIP
360
1EF
  0
DICTIONARY
  5
1F0
330
35
100
AcDbDictionary
280
     1
281
     1
  3
ACAD_XREC_ROUNDTRIP
360
1F1
  0
DICTIONARY
  5
200
330
3D
100
AcDbDictionary
280
     1
281
     1
  3
ACAD_XREC_ROUNDTRIP
360
201
  0
DICTIONARY
  5
1F8
330
39
100
AcDbDictionary
280
     1
281
     1
  3
ACAD_XREC_ROUNDTRIP
360
1F9
  0
DICTIONARY
  5
1DC
330
2B
100
AcDbDictionary
280
     1
281
     1
  3
ACAD_XREC_ROUNDTRIP
360
1DD
  0
DICTIONARY
  5
1DE
330
2C
100
AcDbDictionary
280
     1
281
     1
  3
ACAD_XREC_ROUNDTRIP
360
1DF
  0
DICTIONARY
  5
1E0
330
2D
100
AcDbDictionary
280
     1
281
     1
  3
ACAD_XREC_ROUNDTRIP
360
1E1
  0
DICTIONARY
  5
1E2
330
2E
100
AcDbDictionary
280
     1
281
     1
  3
ACAD_XREC_ROUNDTRIP
360
1E3
  0
DICTIONARY
  5
1E8
330
31
100
AcDbDictionary
280
     1
281
     1
  3
ACAD_XREC_ROUNDTRIP
360
1E9
  0
DICTIONARY
  5
1FC
330
3B
100
AcDbDictionary
280
     1
281
     1
  3
ACAD_XREC_ROUNDTRIP
360
1FD
  0
DICTIONARY
  5
1F6
330
38
100
AcDbDictionary
280
     1
281
     1
  3
ACAD_XREC_ROUNDTRIP
360
1F7
  0
DICTIONARY
  5
1FE
330
3C
100
AcDbDictionary
280
     1
281
     1
  3
ACAD_XREC_ROUNDTRIP
360
1FF
  0
DICTIONARY
  5
1EC
330
33
100
AcDbDictionary
280
     1
281
     1
  3
ACAD_XREC_ROUNDTRIP
360
1ED
  0
DICTIONARY
  5
20A
330
42
100
AcDbDictionary
280
     1
281
     1
  3
ACAD_XREC_ROUNDTRIP
360
20B
  0
DICTIONARY
  5
208
330
41
100
AcDbDictionary
280
     1
281
     1
  3
ACAD_XREC_ROUNDTRIP
360
209
  0
DICTIONARY
  5
202
330
3E
100
AcDbDictionary
280
     1
281
     1
  3
ACAD_XREC_ROUNDTRIP
360
203
  0
DICTIONARY
  5
204
330
3F
100
AcDbDictionary
280
     1
281
     1
  3
ACAD_XREC_ROUNDTRIP
360
205
  0
DICTIONARY
  5
1F4
330
37
100
AcDbDictionary
280
     1
281
     1
  3
ACAD_XREC_ROUNDTRIP
360
1F5
  0
DICTIONARY
  5
1E6
330
30
100
AcDbDictionary
280
     1
281
     1
  3
ACAD_XREC_ROUNDTRIP
360
1E7
  0
DICTIONARY
  5
206
330
40
100
AcDbDictionary
280
     1
281
     1
  3
ACAD_XREC_ROUNDTRIP
360
207
  0
CELLSTYLEMAP
  5
20D
102
{ACAD_REACTORS
330
20C
102
}
330
20C
100
AcDbCellStyleMap
 90
        3
300
CELLSTYLE
  1
TABLEFORMAT_BEGIN
 90
        5
170
     1
 91
        0
 92
    32768
 62
   257
 93
        1
300
CONTENTFORMAT
  1
CONTENTFORMAT_BEGIN
 90
        0
 91
        0
 92
        4
 93
        0
300

 40
0.0
140
1.0
 94
        5
 62
     0
340
11
144
6.0
309
CONTENTFORMAT_END
171
     1
301
MARGIN
  1
CELLMARGIN_BEGIN
 40
1.5
 40
1.5
 40
1.5
 40
1.5
 40
1.5
 40
1.5
309
CELLMARGIN_END
 94
        6
 95
        1
302
GRIDFORMAT
  1
GRIDFORMAT_BEGIN
 90
        0
 91
        1
 62
     0
 92
       -2
340
14
 93
        0
 40
0.045
309
GRIDFORMAT_END
 95
        2
302
GRIDFORMAT
  1
GRIDFORMAT_BEGIN
 90
        0
 91
        1
 62
     0
 92
       -2
340
14
 93
        0
 40
0.045
309
GRIDFORMAT_END
 95
        4
302
GRIDFORMAT
  1
GRIDFORMAT_BEGIN
 90
        0
 91
        1
 62
     0
 92
       -2
340
14
 93
        0
 40
0.045
309
GRIDFORMAT_END
 95
        8
302
GRIDFORMAT
  1
GRIDFORMAT_BEGIN
 90
        0
 91
        1
 62
     0
 92
       -2
340
14
 93
        0
 40
0.045
309
GRIDFORMAT_END
 95
       16
302
GRIDFORMAT
  1
GRIDFORMAT_BEGIN
 90
        0
 91
        1
 62
     0
 92
       -2
340
14
 93
        0
 40
0.045
309
GRIDFORMAT_END
 95
       32
302
GRIDFORMAT
  1
GRIDFORMAT_BEGIN
 90
        0
 91
        1
 62
     0
 92
       -2
340
14
 93
        0
 40
0.045
309
GRIDFORMAT_END
309
TABLEFORMAT_END
  1
CELLSTYLE_BEGIN
 90
        1
 91
        1
300
_TITLE
309
CELLSTYLE_END
300
CELLSTYLE
  1
TABLEFORMAT_BEGIN
 90
        5
170
     1
 91
        0
 92
        0
 62
   257
 93
        1
300
CONTENTFORMAT
  1
CONTENTFORMAT_BEGIN
 90
        0
 91
        0
 92
        4
 93
        0
300

 40
0.0
140
1.0
 94
        5
 62
     0
340
11
144
4.5
309
CONTENTFORMAT_END
171
     1
301
MARGIN
  1
CELLMARGIN_BEGIN
 40
1.5
 40
1.5
 40
1.5
 40
1.5
 40
1.5
 40
1.5
309
CELLMARGIN_END
 94
        6
 95
        1
302
GRIDFORMAT
  1
GRIDFORMAT_BEGIN
 90
        0
 91
        1
 62
     0
 92
       -2
340
14
 93
        0
 40
0.045
309
GRIDFORMAT_END
 95
        2
302
GRIDFORMAT
  1
GRIDFORMAT_BEGIN
 90
        0
 91
        1
 62
     0
 92
       -2
340
14
 93
        0
 40
0.045
309
GRIDFORMAT_END
 95
        4
302
GRIDFORMAT
  1
GRIDFORMAT_BEGIN
 90
        0
 91
        1
 62
     0
 92
       -2
340
14
 93
        0
 40
0.045
309
GRIDFORMAT_END
 95
        8
302
GRIDFORMAT
  1
GRIDFORMAT_BEGIN
 90
        0
 91
        1
 62
     0
 92
       -2
340
14
 93
        0
 40
0.045
309
GRIDFORMAT_END
 95
       16
302
GRIDFORMAT
  1
GRIDFORMAT_BEGIN
 90
        0
 91
        1
 62
     0
 92
       -2
340
14
 93
        0
 40
0.045
309
GRIDFORMAT_END
 95
       32
302
GRIDFORMAT
  1
GRIDFORMAT_BEGIN
 90
        0
 91
        1
 62
     0
 92
       -2
340
14
 93
        0
 40
0.045
309
GRIDFORMAT_END
309
TABLEFORMAT_END
  1
CELLSTYLE_BEGIN
 90
        2
 91
        1
300
_HEADER
309
CELLSTYLE_END
300
CELLSTYLE
  1
TABLEFORMAT_BEGIN
 90
        5
170
     1
 91
        0
 92
        0
 62
   257
 93
        1
300
CONTENTFORMAT
  1
CONTENTFORMAT_BEGIN
 90
        0
 91
        0
 92
        4
 93
        0
300

 40
0.0
140
1.0
 94
        2
 62
     0
340
11
144
4.5
309
CONTENTFORMAT_END
171
     1
301
MARGIN
  1
CELLMARGIN_BEGIN
 40
1.5
 40
1.5
 40
1.5
 40
1.5
 40
1.5
 40
1.5
309
CELLMARGIN_END
 94
        6
 95
        1
302
GRIDFORMAT
  1
GRIDFORMAT_BEGIN
 90
        0
 91
        1
 62
     0
 92
       -2
340
14
 93
        0
 40
0.045
309
GRIDFORMAT_END
 95
        2
302
GRIDFORMAT
  1
GRIDFORMAT_BEGIN
 90
        0
 91
        1
 62
     0
 92
       -2
340
14
 93
        0
 40
0.045
309
GRIDFORMAT_END
 95
        4
302
GRIDFORMAT
  1
GRIDFORMAT_BEGIN
 90
        0
 91
        1
 62
     0
 92
       -2
340
14
 93
        0
 40
0.045
309
GRIDFORMAT_END
 95
        8
302
GRIDFORMAT
  1
GRIDFORMAT_BEGIN
 90
        0
 91
        1
 62
     0
 92
       -2
340
14
 93
        0
 40
0.045
309
GRIDFORMAT_END
 95
       16
302
GRIDFORMAT
  1
GRIDFORMAT_BEGIN
 90
        0
 91
        1
 62
     0
 92
       -2
340
14
 93
        0
 40
0.045
309
GRIDFORMAT_END
 95
       32
302
GRIDFORMAT
  1
GRIDFORMAT_BEGIN
 90
        0
 91
        1
 62
     0
 92
       -2
340
14
 93
        0
 40
0.045
309
GRIDFORMAT_END
309
TABLEFORMAT_END
  1
CELLSTYLE_BEGIN
 90
        3
 91
        2
300
_DATA
309
CELLSTYLE_END
  0
XRECORD
  5
1E5
102
{ACAD_REACTORS
330
1E4
102
}
330
1E4
100
AcDbXrecord
280
     1
102
RTVSPost2010Prop28
280
     1
102
RTVSPost2010PropOp28
 70
     1
102
RTVSPost2010Prop29
280
     1
102
RTVSPost2010PropOp29
 70
     1
102
RTVSPost2010Prop30
280
     0
102
RTVSPost2010PropOp30
 70
     1
102
RTVSPost2010Prop31
280
     0
102
RTVSPost2010PropOp31
 70
     1
102
RTVSPost2010Prop32
280
     0
102
RTVSPost2010PropOp32
 70
     1
102
RTVSPost2010Prop33
280
     0
102
RTVSPost2010PropOp33
 70
     1
102
RTVSPost2010Prop34
280
     0
102
RTVSPost2010PropOp34
 70
     1
102
RTVSPost2010Prop35
280
     0
102
RTVSPost2010PropOp35
 70
     1
102
RTVSPost2010Prop36
280
     0
102
RTVSPost2010PropOp36
 70
     1
102
RTVSPost2010Prop37
 90
       50
102
RTVSPost2010PropOp37
 70
     1
102
RTVSPost2010Prop38
140
0.0
102
RTVSPost2010PropOp38
 70
     1
102
RTVSPost2010Prop39
140
1.0
102
RTVSPost2010PropOp39
 70
     1
102
RTVSPost2010Prop40
 90
        0
102
RTVSPost2010PropOp40
 70
     1
102
RTVSPost2010Prop41ColorIndex
 90
       18
102
RTVSPost2010Prop41ColorRGB
 90
        0
102
RTVSPost2010PropOp41
 70
     1
102
RTVSPost2010Prop42
 90
       50
102
RTVSPost2010PropOp42
 70
     1
102
RTVSPost2010Prop43
 90
        3
102
RTVSPost2010PropOp43
 70
     1
102
RTVSPost2010Prop44ColorIndex
 90
        5
102
RTVSPost2010Prop44ColorRGB
 90
      255
102
RTVSPost2010PropOp44
 70
     1
102
RTVSPost2010Prop45
280
     0
102
RTVSPost2010PropOp45
 70
     1
102
RTVSPost2010Prop46
 90
       50
102
RTVSPost2010PropOp46
 70
     1
102
RTVSPost2010Prop47
 90
       50
102
RTVSPost2010PropOp47
 70
     1
102
RTVSPost2010Prop48
 90
       50
102
RTVSPost2010PropOp48
 70
     1
102
RTVSPost2010Prop49
280
     0
102
RTVSPost2010PropOp49
 70
     1
102
RTVSPost2010Prop50
 90
       50
102
RTVSPost2010PropOp50
 70
     1
102
RTVSPost2010Prop51ColorIndex
 90
      256
102
RTVSPost2010Prop51ColorRGB
 90
-16777216
102
RTVSPost2010PropOp51
 70
     0
102
RTVSPost2010Prop52
140
1.0
102
RTVSPost2010PropOp52
 70
     0
102
RTVSPost2010Prop53
 90
        2
102
RTVSPost2010PropOp53
 70
     1
102
RTVSPost2010Prop54
  1
strokes_ogs.tif
102
RTVSPost2010PropOp54
 70
     1
102
RTVSPost2010Prop55
280
     0
102
RTVSPost2010PropOp55
 70
     1
102
RTVSPost2010Prop56
140
1.0
102
RTVSPost2010PropOp56
 70
     1
102
RTVSPost2010Prop57
140
1.0
102
RTVSPost2010PropOp57
 70
     1
  0
XRECORD
  5
1EB
102
{ACAD_REACTORS
330
1EA
102
}
330
1EA
100
AcDbXrecord
280
     1
102
RTVSPost2010Prop28
280
     0
102
RTVSPost2010PropOp28
 70
     1
102
RTVSPost2010Prop29
280
     1
102
RTVSPost2010PropOp29
 70
     1
102
RTVSPost2010Prop30
280
     1
102
RTVSPost2010PropOp30
 70
     1
102
RTVSPost2010Prop31
280
     0
102
RTVSPost2010PropOp31
 70
     1
102
RTVSPost2010Prop32
280
     0
102
RTVSPost2010PropOp32
 70
     1
102
RTVSPost2010Prop33
280
     0
102
RTVSPost2010PropOp33
 70
     1
102
RTVSPost2010Prop34
280
     0
102
RTVSPost2010PropOp34
 70
     1
102
RTVSPost2010Prop35
280
     0
102
RTVSPost2010PropOp35
 70
     1
102
RTVSPost2010Prop36
280
     0
102
RTVSPost2010PropOp36
 70
     1
102
RTVSPost2010Prop37
 90
       50
102
RTVSPost2010PropOp37
 70
     1
102
RTVSPost2010Prop38
140
0.0
102
RTVSPost2010PropOp38
 70
     1
102
RTVSPost2010Prop39
140
1.0
102
RTVSPost2010PropOp39
 70
     1
102
RTVSPost2010Prop40
 90
        0
102
RTVSPost2010PropOp40
 70
     1
102
RTVSPost2010Prop41ColorIndex
 90
       18
102
RTVSPost2010Prop41ColorRGB
 90
        0
102
RTVSPost2010PropOp41
 70
     1
102
RTVSPost2010Prop42
 90
       50
102
RTVSPost2010PropOp42
 70
     1
102
RTVSPost2010Prop43
 90
        3
102
RTVSPost2010PropOp43
 70
     1
102
RTVSPost2010Prop44ColorIndex
 90
        5
102
RTVSPost2010Prop44ColorRGB
 90
      255
102
RTVSPost2010PropOp44
 70
     1
102
RTVSPost2010Prop45
280
     0
102
RTVSPost2010PropOp45
 70
     1
102
RTVSPost2010Prop46
 90
       50
102
RTVSPost2010PropOp46
 70
     1
102
RTVSPost2010Prop47
 90
       50
102
RTVSPost2010PropOp47
 70
     1
102
RTVSPost2010Prop48
 90
       50
102
RTVSPost2010PropOp48
 70
     1
102
RTVSPost2010Prop49
280
     0
102
RTVSPost2010PropOp49
 70
     1
102
RTVSPost2010Prop50
 90
       50
102
RTVSPost2010PropOp50
 70
     1
102
RTVSPost2010Prop51ColorIndex
 90
      256
102
RTVSPost2010Prop51ColorRGB
 90
-16777216
102
RTVSPost2010PropOp51
 70
     0
102
RTVSPost2010Prop52
140
1.0
102
RTVSPost2010PropOp52
 70
     0
102
RTVSPost2010Prop53
 90
        2
102
RTVSPost2010PropOp53
 70
     1
102
RTVSPost2010Prop54
  1
strokes_ogs.tif
102
RTVSPost2010PropOp54
 70
     1
102
RTVSPost2010Prop55
280
     0
102
RTVSPost2010PropOp55
 70
     1
102
RTVSPost2010Prop56
140
1.0
102
RTVSPost2010PropOp56
 70
     1
102
RTVSPost2010Prop57
140
1.0
102
RTVSPost2010PropOp57
 70
     1
  0
XRECORD
  5
1F3
102
{ACAD_REACTORS
330
1F2
102
}
330
1F2
100
AcDbXrecord
280
     1
102
RTVSPost2010Prop28
280
     0
102
RTVSPost2010PropOp28
 70
     1
102
RTVSPost2010Prop29
280
     1
102
RTVSPost2010PropOp29
 70
     1
102
RTVSPost2010Prop30
280
     1
102
RTVSPost2010PropOp30
 70
     1
102
RTVSPost2010Prop31
280
     0
102
RTVSPost2010PropOp31
 70
     1
102
RTVSPost2010Prop32
280
     0
102
RTVSPost2010PropOp32
 70
     1
102
RTVSPost2010Prop33
280
     0
102
RTVSPost2010PropOp33
 70
     1
102
RTVSPost2010Prop34
280
     0
102
RTVSPost2010PropOp34
 70
     1
102
RTVSPost2010Prop35
280
     0
102
RTVSPost2010PropOp35
 70
     1
102
RTVSPost2010Prop36
280
     0
102
RTVSPost2010PropOp36
 70
     1
102
RTVSPost2010Prop37
 90
       50
102
RTVSPost2010PropOp37
 70
     1
102
RTVSPost2010Prop38
140
0.0
102
RTVSPost2010PropOp38
 70
     1
102
RTVSPost2010Prop39
140
1.0
102
RTVSPost2010PropOp39
 70
     1
102
RTVSPost2010Prop40
 90
        0
102
RTVSPost2010PropOp40
 70
     1
102
RTVSPost2010Prop41ColorIndex
 90
       18
102
RTVSPost2010Prop41ColorRGB
 90
        0
102
RTVSPost2010PropOp41
 70
     1
102
RTVSPost2010Prop42
 90
       50
102
RTVSPost2010PropOp42
 70
     1
102
RTVSPost2010Prop43
 90
        3
102
RTVSPost2010PropOp43
 70
     1
102
RTVSPost2010Prop44ColorIndex
 90
        5
102
RTVSPost2010Prop44ColorRGB
 90
      255
102
RTVSPost2010PropOp44
 70
     1
102
RTVSPost2010Prop45
280
     0
102
RTVSPost2010PropOp45
 70
     1
102
RTVSPost2010Prop46
 90
       50
102
RTVSPost2010PropOp46
 70
     1
102
RTVSPost2010Prop47
 90
       50
102
RTVSPost2010PropOp47
 70
     1
102
RTVSPost2010Prop48
 90
       50
102
RTVSPost2010PropOp48
 70
     1
102
RTVSPost2010Prop49
280
     0
102
RTVSPost2010PropOp49
 70
     1
102
RTVSPost2010Prop50
 90
       50
102
RTVSPost2010PropOp50
 70
     1
102
RTVSPost2010Prop51ColorIndex
 90
      256
102
RTVSPost2010Prop51ColorRGB
 90
-16777216
102
RTVSPost2010PropOp51
 70
     0
102
RTVSPost2010Prop52
140
1.0
102
RTVSPost2010PropOp52
 70
     0
102
RTVSPost2010Prop53
 90
        2
102
RTVSPost2010PropOp53
 70
     1
102
RTVSPost2010Prop54
  1
strokes_ogs.tif
102
RTVSPost2010PropOp54
 70
     1
102
RTVSPost2010Prop55
280
     0
102
RTVSPost2010PropOp55
 70
     1
102
RTVSPost2010Prop56
140
1.0
102
RTVSPost2010PropOp56
 70
     1
102
RTVSPost2010Prop57
140
1.0
102
RTVSPost2010PropOp57
 70
     1
  0
XRECORD
  5
1FB
102
{ACAD_REACTORS
330
1FA
102
}
330
1FA
100
AcDbXrecord
280
     1
102
RTVSPost2010Prop28
280
     0
102
RTVSPost2010PropOp28
 70
     1
102
RTVSPost2010Prop29
280
     1
102
RTVSPost2010PropOp29
 70
     1
102
RTVSPost2010Prop30
280
     1
102
RTVSPost2010PropOp30
 70
     1
102
RTVSPost2010Prop31
280
     0
102
RTVSPost2010PropOp31
 70
     1
102
RTVSPost2010Prop32
280
     0
102
RTVSPost2010PropOp32
 70
     1
102
RTVSPost2010Prop33
280
     0
102
RTVSPost2010PropOp33
 70
     1
102
RTVSPost2010Prop34
280
     0
102
RTVSPost2010PropOp34
 70
     1
102
RTVSPost2010Prop35
280
     0
102
RTVSPost2010PropOp35
 70
     1
102
RTVSPost2010Prop36
280
     0
102
RTVSPost2010PropOp36
 70
     1
102
RTVSPost2010Prop37
 90
       50
102
RTVSPost2010PropOp37
 70
     1
102
RTVSPost2010Prop38
140
0.0
102
RTVSPost2010PropOp38
 70
     1
102
RTVSPost2010Prop39
140
1.0
102
RTVSPost2010PropOp39
 70
     1
102
RTVSPost2010Prop40
 90
        0
102
RTVSPost2010PropOp40
 70
     1
102
RTVSPost2010Prop41ColorIndex
 90
       18
102
RTVSPost2010Prop41ColorRGB
 90
        0
102
RTVSPost2010PropOp41
 70
     1
102
RTVSPost2010Prop42
 90
       50
102
RTVSPost2010PropOp42
 70
     1
102
RTVSPost2010Prop43
 90
        3
102
RTVSPost2010PropOp43
 70
     1
102
RTVSPost2010Prop44ColorIndex
 90
        5
102
RTVSPost2010Prop44ColorRGB
 90
      255
102
RTVSPost2010PropOp44
 70
     1
102
RTVSPost2010Prop45
280
     0
102
RTVSPost2010PropOp45
 70
     1
102
RTVSPost2010Prop46
 90
       50
102
RTVSPost2010PropOp46
 70
     1
102
RTVSPost2010Prop47
 90
       50
102
RTVSPost2010PropOp47
 70
     1
102
RTVSPost2010Prop48
 90
       50
102
RTVSPost2010PropOp48
 70
     1
102
RTVSPost2010Prop49
280
     0
102
RTVSPost2010PropOp49
 70
     1
102
RTVSPost2010Prop50
 90
       50
102
RTVSPost2010PropOp50
 70
     1
102
RTVSPost2010Prop51ColorIndex
 90
      256
102
RTVSPost2010Prop51ColorRGB
 90
-16777216
102
RTVSPost2010PropOp51
 70
     0
102
RTVSPost2010Prop52
140
1.0
102
RTVSPost2010PropOp52
 70
     0
102
RTVSPost2010Prop53
 90
        2
102
RTVSPost2010PropOp53
 70
     1
102
RTVSPost2010Prop54
  1
strokes_ogs.tif
102
RTVSPost2010PropOp54
 70
     1
102
RTVSPost2010Prop55
280
     0
102
RTVSPost2010PropOp55
 70
     1
102
RTVSPost2010Prop56
140
1.0
102
RTVSPost2010PropOp56
 70
     1
102
RTVSPost2010Prop57
140
1.0
102
RTVSPost2010PropOp57
 70
     1
  0
XRECORD
  5
1EF
102
{ACAD_REACTORS
330
1EE
102
}
330
1EE
100
AcDbXrecord
280
     1
102
RTVSPost2010Prop28
280
     0
102
RTVSPost2010PropOp28
 70
     1
102
RTVSPost2010Prop29
280
     1
102
RTVSPost2010PropOp29
 70
     1
102
RTVSPost2010Prop30
280
     1
102
RTVSPost2010PropOp30
 70
     1
102
RTVSPost2010Prop31
280
     0
102
RTVSPost2010PropOp31
 70
     1
102
RTVSPost2010Prop32
280
     0
102
RTVSPost2010PropOp32
 70
     1
102
RTVSPost2010Prop33
280
     0
102
RTVSPost2010PropOp33
 70
     1
102
RTVSPost2010Prop34
280
     0
102
RTVSPost2010PropOp34
 70
     1
102
RTVSPost2010Prop35
280
     0
102
RTVSPost2010PropOp35
 70
     1
102
RTVSPost2010Prop36
280
     0
102
RTVSPost2010PropOp36
 70
     1
102
RTVSPost2010Prop37
 90
       50
102
RTVSPost2010PropOp37
 70
     1
102
RTVSPost2010Prop38
140
0.0
102
RTVSPost2010PropOp38
 70
     1
102
RTVSPost2010Prop39
140
1.0
102
RTVSPost2010PropOp39
 70
     1
102
RTVSPost2010Prop40
 90
        0
102
RTVSPost2010PropOp40
 70
     1
102
RTVSPost2010Prop41ColorIndex
 90
       18
102
RTVSPost2010Prop41ColorRGB
 90
        0
102
RTVSPost2010PropOp41
 70
     1
102
RTVSPost2010Prop42
 90
       50
102
RTVSPost2010PropOp42
 70
     1
102
RTVSPost2010Prop43
 90
        3
102
RTVSPost2010PropOp43
 70
     1
102
RTVSPost2010Prop44ColorIndex
 90
        5
102
RTVSPost2010Prop44ColorRGB
 90
      255
102
RTVSPost2010PropOp44
 70
     1
102
RTVSPost2010Prop45
280
     0
102
RTVSPost2010PropOp45
 70
     1
102
RTVSPost2010Prop46
 90
       50
102
RTVSPost2010PropOp46
 70
     1
102
RTVSPost2010Prop47
 90
       50
102
RTVSPost2010PropOp47
 70
     1
102
RTVSPost2010Prop48
 90
       50
102
RTVSPost2010PropOp48
 70
     1
102
RTVSPost2010Prop49
280
     0
102
RTVSPost2010PropOp49
 70
     1
102
RTVSPost2010Prop50
 90
       50
102
RTVSPost2010PropOp50
 70
     1
102
RTVSPost2010Prop51ColorIndex
 90
      256
102
RTVSPost2010Prop51ColorRGB
 90
-16777216
102
RTVSPost2010PropOp51
 70
     0
102
RTVSPost2010Prop52
140
1.0
102
RTVSPost2010PropOp52
 70
     0
102
RTVSPost2010Prop53
 90
        2
102
RTVSPost2010PropOp53
 70
     1
102
RTVSPost2010Prop54
  1
strokes_ogs.tif
102
RTVSPost2010PropOp54
 70
     1
102
RTVSPost2010Prop55
280
     0
102
RTVSPost2010PropOp55
 70
     1
102
RTVSPost2010Prop56
140
1.0
102
RTVSPost2010PropOp56
 70
     1
102
RTVSPost2010Prop57
140
1.0
102
RTVSPost2010PropOp57
 70
     1
  0
XRECORD
  5
1F1
102
{ACAD_REACTORS
330
1F0
102
}
330
1F0
100
AcDbXrecord
280
     1
102
RTVSPost2010Prop28
280
     0
102
RTVSPost2010PropOp28
 70
     1
102
RTVSPost2010Prop29
280
     1
102
RTVSPost2010PropOp29
 70
     1
102
RTVSPost2010Prop30
280
     1
102
RTVSPost2010PropOp30
 70
     1
102
RTVSPost2010Prop31
280
     0
102
RTVSPost2010PropOp31
 70
     1
102
RTVSPost2010Prop32
280
     0
102
RTVSPost2010PropOp32
 70
     1
102
RTVSPost2010Prop33
280
     0
102
RTVSPost2010PropOp33
 70
     1
102
RTVSPost2010Prop34
280
     0
102
RTVSPost2010PropOp34
 70
     1
102
RTVSPost2010Prop35
280
     0
102
RTVSPost2010PropOp35
 70
     1
102
RTVSPost2010Prop36
280
     0
102
RTVSPost2010PropOp36
 70
     1
102
RTVSPost2010Prop37
 90
       50
102
RTVSPost2010PropOp37
 70
     1
102
RTVSPost2010Prop38
140
0.0
102
RTVSPost2010PropOp38
 70
     1
102
RTVSPost2010Prop39
140
1.0
102
RTVSPost2010PropOp39
 70
     1
102
RTVSPost2010Prop40
 90
        0
102
RTVSPost2010PropOp40
 70
     1
102
RTVSPost2010Prop41ColorIndex
 90
       18
102
RTVSPost2010Prop41ColorRGB
 90
        0
102
RTVSPost2010PropOp41
 70
     1
102
RTVSPost2010Prop42
 90
       50
102
RTVSPost2010PropOp42
 70
     1
102
RTVSPost2010Prop43
 90
        3
102
RTVSPost2010PropOp43
 70
     1
102
RTVSPost2010Prop44ColorIndex
 90
        5
102
RTVSPost2010Prop44ColorRGB
 90
      255
102
RTVSPost2010PropOp44
 70
     1
102
RTVSPost2010Prop45
280
     0
102
RTVSPost2010PropOp45
 70
     1
102
RTVSPost2010Prop46
 90
       50
102
RTVSPost2010PropOp46
 70
     1
102
RTVSPost2010Prop47
 90
       50
102
RTVSPost2010PropOp47
 70
     1
102
RTVSPost2010Prop48
 90
       50
102
RTVSPost2010PropOp48
 70
     1
102
RTVSPost2010Prop49
280
     0
102
RTVSPost2010PropOp49
 70
     1
102
RTVSPost2010Prop50
 90
       50
102
RTVSPost2010PropOp50
 70
     1
102
RTVSPost2010Prop51ColorIndex
 90
      256
102
RTVSPost2010Prop51ColorRGB
 90
-16777216
102
RTVSPost2010PropOp51
 70
     0
102
RTVSPost2010Prop52
140
1.0
102
RTVSPost2010PropOp52
 70
     0
102
RTVSPost2010Prop53
 90
        2
102
RTVSPost2010PropOp53
 70
     1
102
RTVSPost2010Prop54
  1
strokes_ogs.tif
102
RTVSPost2010PropOp54
 70
     1
102
RTVSPost2010Prop55
280
     0
102
RTVSPost2010PropOp55
 70
     1
102
RTVSPost2010Prop56
140
1.0
102
RTVSPost2010PropOp56
 70
     1
102
RTVSPost2010Prop57
140
1.0
102
RTVSPost2010PropOp57
 70
     1
  0
XRECORD
  5
201
102
{ACAD_REACTORS
330
200
102
}
330
200
100
AcDbXrecord
280
     1
102
RTVSPost2010Prop28
280
     0
102
RTVSPost2010PropOp28
 70
     0
102
RTVSPost2010Prop29
280
     1
102
RTVSPost2010PropOp29
 70
     0
102
RTVSPost2010Prop30
280
     1
102
RTVSPost2010PropOp30
 70
     0
102
RTVSPost2010Prop31
280
     0
102
RTVSPost2010PropOp31
 70
     0
102
RTVSPost2010Prop32
280
     0
102
RTVSPost2010PropOp32
 70
     0
102
RTVSPost2010Prop33
280
     0
102
RTVSPost2010PropOp33
 70
     0
102
RTVSPost2010Prop34
280
     0
102
RTVSPost2010PropOp34
 70
     0
102
RTVSPost2010Prop35
280
     0
102
RTVSPost2010PropOp35
 70
     0
102
RTVSPost2010Prop36
280
     0
102
RTVSPost2010PropOp36
 70
     0
102
RTVSPost2010Prop37
 90
       50
102
RTVSPost2010PropOp37
 70
     0
102
RTVSPost2010Prop38
140
0.0
102
RTVSPost2010PropOp38
 70
     0
102
RTVSPost2010Prop39
140
1.0
102
RTVSPost2010PropOp39
 70
     0
102
RTVSPost2010Prop40
 90
        0
102
RTVSPost2010PropOp40
 70
     0
102
RTVSPost2010Prop41ColorIndex
 90
       18
102
RTVSPost2010Prop41ColorRGB
 90
        0
102
RTVSPost2010PropOp41
 70
     0
102
RTVSPost2010Prop42
 90
       50
102
RTVSPost2010PropOp42
 70
     0
102
RTVSPost2010Prop43
 90
        3
102
RTVSPost2010PropOp43
 70
     0
102
RTVSPost2010Prop44ColorIndex
 90
        5
102
RTVSPost2010Prop44ColorRGB
 90
      255
102
RTVSPost2010PropOp44
 70
     0
102
RTVSPost2010Prop45
280
     0
102
RTVSPost2010PropOp45
 70
     0
102
RTVSPost2010Prop46
 90
       50
102
RTVSPost2010PropOp46
 70
     0
102
RTVSPost2010Prop47
 90
       50
102
RTVSPost2010PropOp47
 70
     0
102
RTVSPost2010Prop48
 90
       50
102
RTVSPost2010PropOp48
 70
     0
102
RTVSPost2010Prop49
280
     0
102
RTVSPost2010PropOp49
 70
     0
102
RTVSPost2010Prop50
 90
       50
102
RTVSPost2010PropOp50
 70
     0
102
RTVSPost2010Prop51ColorIndex
 90
      256
102
RTVSPost2010Prop51ColorRGB
 90
-16777216
102
RTVSPost2010PropOp51
 70
     0
102
RTVSPost2010Prop52
140
1.0
102
RTVSPost2010PropOp52
 70
     0
102
RTVSPost2010Prop53
 90
        2
102
RTVSPost2010PropOp53
 70
     0
102
RTVSPost2010Prop54
  1
strokes_ogs.tif
102
RTVSPost2010PropOp54
 70
     0
102
RTVSPost2010Prop55
280
     0
102
RTVSPost2010PropOp55
 70
     0
102
RTVSPost2010Prop56
140
1.0
102
RTVSPost2010PropOp56
 70
     0
102
RTVSPost2010Prop57
140
1.0
102
RTVSPost2010PropOp57
 70
     0
  0
XRECORD
  5
1F9
102
{ACAD_REACTORS
330
1F8
102
}
330
1F8
100
AcDbXrecord
280
     1
102
RTVSPost2010Prop28
280
     0
102
RTVSPost2010PropOp28
 70
     1
102
RTVSPost2010Prop29
280
     1
102
RTVSPost2010PropOp29
 70
     1
102
RTVSPost2010Prop30
280
     1
102
RTVSPost2010PropOp30
 70
     1
102
RTVSPost2010Prop31
280
     0
102
RTVSPost2010PropOp31
 70
     1
102
RTVSPost2010Prop32
280
     0
102
RTVSPost2010PropOp32
 70
     1
102
RTVSPost2010Prop33
280
     0
102
RTVSPost2010PropOp33
 70
     1
102
RTVSPost2010Prop34
280
     0
102
RTVSPost2010PropOp34
 70
     1
102
RTVSPost2010Prop35
280
     0
102
RTVSPost2010PropOp35
 70
     1
102
RTVSPost2010Prop36
280
     0
102
RTVSPost2010PropOp36
 70
     1
102
RTVSPost2010Prop37
 90
       50
102
RTVSPost2010PropOp37
 70
     1
102
RTVSPost2010Prop38
140
0.0
102
RTVSPost2010PropOp38
 70
     1
102
RTVSPost2010Prop39
140
1.0
102
RTVSPost2010PropOp39
 70
     1
102
RTVSPost2010Prop40
 90
        0
102
RTVSPost2010PropOp40
 70
     1
102
RTVSPost2010Prop41ColorIndex
 90
       18
102
RTVSPost2010Prop41ColorRGB
 90
        0
102
RTVSPost2010PropOp41
 70
     1
102
RTVSPost2010Prop42
 90
       50
102
RTVSPost2010PropOp42
 70
     1
102
RTVSPost2010Prop43
 90
        3
102
RTVSPost2010PropOp43
 70
     1
102
RTVSPost2010Prop44ColorIndex
 90
        5
102
RTVSPost2010Prop44ColorRGB
 90
      255
102
RTVSPost2010PropOp44
 70
     1
102
RTVSPost2010Prop45
280
     0
102
RTVSPost2010PropOp45
 70
     1
102
RTVSPost2010Prop46
 90
       50
102
RTVSPost2010PropOp46
 70
     1
102
RTVSPost2010Prop47
 90
       50
102
RTVSPost2010PropOp47
 70
     1
102
RTVSPost2010Prop48
 90
       50
102
RTVSPost2010PropOp48
 70
     1
102
RTVSPost2010Prop49
280
     0
102
RTVSPost2010PropOp49
 70
     1
102
RTVSPost2010Prop50
 90
       50
102
RTVSPost2010PropOp50
 70
     1
102
RTVSPost2010Prop51ColorIndex
 90
      256
102
RTVSPost2010Prop51ColorRGB
 90
-16777216
102
RTVSPost2010PropOp51
 70
     0
102
RTVSPost2010Prop52
140
1.0
102
RTVSPost2010PropOp52
 70
     0
102
RTVSPost2010Prop53
 90
        2
102
RTVSPost2010PropOp53
 70
     1
102
RTVSPost2010Prop54
  1
strokes_ogs.tif
102
RTVSPost2010PropOp54
 70
     1
102
RTVSPost2010Prop55
280
     0
102
RTVSPost2010PropOp55
 70
     1
102
RTVSPost2010Prop56
140
1.0
102
RTVSPost2010PropOp56
 70
     1
102
RTVSPost2010Prop57
140
1.0
102
RTVSPost2010PropOp57
 70
     1
  0
XRECORD
  5
1DD
102
{ACAD_REACTORS
330
1DC
102
}
330
1DC
100
AcDbXrecord
280
     1
102
RTVSPost2010Prop28
280
     0
102
RTVSPost2010PropOp28
 70
     1
102
RTVSPost2010Prop29
280
     1
102
RTVSPost2010PropOp29
 70
     1
102
RTVSPost2010Prop30
280
     1
102
RTVSPost2010PropOp30
 70
     1
102
RTVSPost2010Prop31
280
     0
102
RTVSPost2010PropOp31
 70
     1
102
RTVSPost2010Prop32
280
     0
102
RTVSPost2010PropOp32
 70
     1
102
RTVSPost2010Prop33
280
     0
102
RTVSPost2010PropOp33
 70
     1
102
RTVSPost2010Prop34
280
     0
102
RTVSPost2010PropOp34
 70
     1
102
RTVSPost2010Prop35
280
     0
102
RTVSPost2010PropOp35
 70
     1
102
RTVSPost2010Prop36
280
     0
102
RTVSPost2010PropOp36
 70
     1
102
RTVSPost2010Prop37
 90
       50
102
RTVSPost2010PropOp37
 70
     1
102
RTVSPost2010Prop38
140
0.0
102
RTVSPost2010PropOp38
 70
     1
102
RTVSPost2010Prop39
140
1.0
102
RTVSPost2010PropOp39
 70
     1
102
RTVSPost2010Prop40
 90
        0
102
RTVSPost2010PropOp40
 70
     1
102
RTVSPost2010Prop41ColorIndex
 90
       18
102
RTVSPost2010Prop41ColorRGB
 90
        0
102
RTVSPost2010PropOp41
 70
     1
102
RTVSPost2010Prop42
 90
       50
102
RTVSPost2010PropOp42
 70
     1
102
RTVSPost2010Prop43
 90
        3
102
RTVSPost2010PropOp43
 70
     1
102
RTVSPost2010Prop44ColorIndex
 90
        5
102
RTVSPost2010Prop44ColorRGB
 90
      255
102
RTVSPost2010PropOp44
 70
     1
102
RTVSPost2010Prop45
280
     0
102
RTVSPost2010PropOp45
 70
     1
102
RTVSPost2010Prop46
 90
       50
102
RTVSPost2010PropOp46
 70
     1
102
RTVSPost2010Prop47
 90
       50
102
RTVSPost2010PropOp47
 70
     1
102
RTVSPost2010Prop48
 90
       50
102
RTVSPost2010PropOp48
 70
     1
102
RTVSPost2010Prop49
280
     0
102
RTVSPost2010PropOp49
 70
     1
102
RTVSPost2010Prop50
 90
       50
102
RTVSPost2010PropOp50
 70
     1
102
RTVSPost2010Prop51ColorIndex
 90
      256
102
RTVSPost2010Prop51ColorRGB
 90
-16777216
102
RTVSPost2010PropOp51
 70
     0
102
RTVSPost2010Prop52
140
1.0
102
RTVSPost2010PropOp52
 70
     0
102
RTVSPost2010Prop53
 90
        2
102
RTVSPost2010PropOp53
 70
     1
102
RTVSPost2010Prop54
  1
strokes_ogs.tif
102
RTVSPost2010PropOp54
 70
     1
102
RTVSPost2010Prop55
280
     0
102
RTVSPost2010PropOp55
 70
     1
102
RTVSPost2010Prop56
140
1.0
102
RTVSPost2010PropOp56
 70
     1
102
RTVSPost2010Prop57
140
1.0
102
RTVSPost2010PropOp57
 70
     1
  0
XRECORD
  5
1DF
102
{ACAD_REACTORS
330
1DE
102
}
330
1DE
100
AcDbXrecord
280
     1
102
RTVSPost2010Prop28
280
     0
102
RTVSPost2010PropOp28
 70
     1
102
RTVSPost2010Prop29
280
     1
102
RTVSPost2010PropOp29
 70
     1
102
RTVSPost2010Prop30
280
     1
102
RTVSPost2010PropOp30
 70
     1
102
RTVSPost2010Prop31
280
     0
102
RTVSPost2010PropOp31
 70
     1
102
RTVSPost2010Prop32
280
     0
102
RTVSPost2010PropOp32
 70
     1
102
RTVSPost2010Prop33
280
     0
102
RTVSPost2010PropOp33
 70
     1
102
RTVSPost2010Prop34
280
     0
102
RTVSPost2010PropOp34
 70
     1
102
RTVSPost2010Prop35
280
     0
102
RTVSPost2010PropOp35
 70
     1
102
RTVSPost2010Prop36
280
     0
102
RTVSPost2010PropOp36
 70
     1
102
RTVSPost2010Prop37
 90
       50
102
RTVSPost2010PropOp37
 70
     1
102
RTVSPost2010Prop38
140
0.0
102
RTVSPost2010PropOp38
 70
     1
102
RTVSPost2010Prop39
140
1.0
102
RTVSPost2010PropOp39
 70
     1
102
RTVSPost2010Prop40
 90
        0
102
RTVSPost2010PropOp40
 70
     1
102
RTVSPost2010Prop41ColorIndex
 90
       18
102
RTVSPost2010Prop41ColorRGB
 90
        0
102
RTVSPost2010PropOp41
 70
     1
102
RTVSPost2010Prop42
 90
       50
102
RTVSPost2010PropOp42
 70
     1
102
RTVSPost2010Prop43
 90
        3
102
RTVSPost2010PropOp43
 70
     1
102
RTVSPost2010Prop44ColorIndex
 90
        5
102
RTVSPost2010Prop44ColorRGB
 90
      255
102
RTVSPost2010PropOp44
 70
     1
102
RTVSPost2010Prop45
280
     0
102
RTVSPost2010PropOp45
 70
     1
102
RTVSPost2010Prop46
 90
       50
102
RTVSPost2010PropOp46
 70
     1
102
RTVSPost2010Prop47
 90
       50
102
RTVSPost2010PropOp47
 70
     1
102
RTVSPost2010Prop48
 90
       50
102
RTVSPost2010PropOp48
 70
     1
102
RTVSPost2010Prop49
280
     0
102
RTVSPost2010PropOp49
 70
     1
102
RTVSPost2010Prop50
 90
       50
102
RTVSPost2010PropOp50
 70
     1
102
RTVSPost2010Prop51ColorIndex
 90
      256
102
RTVSPost2010Prop51ColorRGB
 90
-16777216
102
RTVSPost2010PropOp51
 70
     0
102
RTVSPost2010Prop52
140
1.0
102
RTVSPost2010PropOp52
 70
     0
102
RTVSPost2010Prop53
 90
        2
102
RTVSPost2010PropOp53
 70
     1
102
RTVSPost2010Prop54
  1
strokes_ogs.tif
102
RTVSPost2010PropOp54
 70
     1
102
RTVSPost2010Prop55
280
     0
102
RTVSPost2010PropOp55
 70
     1
102
RTVSPost2010Prop56
140
1.0
102
RTVSPost2010PropOp56
 70
     1
102
RTVSPost2010Prop57
140
1.0
102
RTVSPost2010PropOp57
 70
     1
  0
XRECORD
  5
1E1
102
{ACAD_REACTORS
330
1E0
102
}
330
1E0
100
AcDbXrecord
280
     1
102
RTVSPost2010Prop28
280
     0
102
RTVSPost2010PropOp28
 70
     1
102
RTVSPost2010Prop29
280
     1
102
RTVSPost2010PropOp29
 70
     1
102
RTVSPost2010Prop30
280
     1
102
RTVSPost2010PropOp30
 70
     1
102
RTVSPost2010Prop31
280
     0
102
RTVSPost2010PropOp31
 70
     1
102
RTVSPost2010Prop32
280
     0
102
RTVSPost2010PropOp32
 70
     1
102
RTVSPost2010Prop33
280
     0
102
RTVSPost2010PropOp33
 70
     1
102
RTVSPost2010Prop34
280
     0
102
RTVSPost2010PropOp34
 70
     1
102
RTVSPost2010Prop35
280
     0
102
RTVSPost2010PropOp35
 70
     1
102
RTVSPost2010Prop36
280
     0
102
RTVSPost2010PropOp36
 70
     1
102
RTVSPost2010Prop37
 90
       50
102
RTVSPost2010PropOp37
 70
     1
102
RTVSPost2010Prop38
140
0.0
102
RTVSPost2010PropOp38
 70
     1
102
RTVSPost2010Prop39
140
1.0
102
RTVSPost2010PropOp39
 70
     1
102
RTVSPost2010Prop40
 90
        0
102
RTVSPost2010PropOp40
 70
     1
102
RTVSPost2010Prop41ColorIndex
 90
       18
102
RTVSPost2010Prop41ColorRGB
 90
        0
102
RTVSPost2010PropOp41
 70
     1
102
RTVSPost2010Prop42
 90
       50
102
RTVSPost2010PropOp42
 70
     1
102
RTVSPost2010Prop43
 90
        3
102
RTVSPost2010PropOp43
 70
     1
102
RTVSPost2010Prop44ColorIndex
 90
        5
102
RTVSPost2010Prop44ColorRGB
 90
      255
102
RTVSPost2010PropOp44
 70
     1
102
RTVSPost2010Prop45
280
     0
102
RTVSPost2010PropOp45
 70
     1
102
RTVSPost2010Prop46
 90
       50
102
RTVSPost2010PropOp46
 70
     1
102
RTVSPost2010Prop47
 90
       50
102
RTVSPost2010PropOp47
 70
     1
102
RTVSPost2010Prop48
 90
       50
102
RTVSPost2010PropOp48
 70
     1
102
RTVSPost2010Prop49
280
     0
102
RTVSPost2010PropOp49
 70
     1
102
RTVSPost2010Prop50
 90
       50
102
RTVSPost2010PropOp50
 70
     1
102
RTVSPost2010Prop51ColorIndex
 90
      256
102
RTVSPost2010Prop51ColorRGB
 90
-16777216
102
RTVSPost2010PropOp51
 70
     0
102
RTVSPost2010Prop52
140
1.0
102
RTVSPost2010PropOp52
 70
     0
102
RTVSPost2010Prop53
 90
        2
102
RTVSPost2010PropOp53
 70
     1
102
RTVSPost2010Prop54
  1
strokes_ogs.tif
102
RTVSPost2010PropOp54
 70
     1
102
RTVSPost2010Prop55
280
     0
102
RTVSPost2010PropOp55
 70
     1
102
RTVSPost2010Prop56
140
1.0
102
RTVSPost2010PropOp56
 70
     1
102
RTVSPost2010Prop57
140
1.0
102
RTVSPost2010PropOp57
 70
     1
  0
XRECORD
  5
1E3
102
{ACAD_REACTORS
330
1E2
102
}
330
1E2
100
AcDbXrecord
280
     1
102
RTVSPost2010Prop28
280
     0
102
RTVSPost2010PropOp28
 70
     1
102
RTVSPost2010Prop29
280
     1
102
RTVSPost2010PropOp29
 70
     1
102
RTVSPost2010Prop30
280
     1
102
RTVSPost2010PropOp30
 70
     1
102
RTVSPost2010Prop31
280
     0
102
RTVSPost2010PropOp31
 70
     1
102
RTVSPost2010Prop32
280
     0
102
RTVSPost2010PropOp32
 70
     1
102
RTVSPost2010Prop33
280
     0
102
RTVSPost2010PropOp33
 70
     1
102
RTVSPost2010Prop34
280
     0
102
RTVSPost2010PropOp34
 70
     1
102
RTVSPost2010Prop35
280
     0
102
RTVSPost2010PropOp35
 70
     1
102
RTVSPost2010Prop36
280
     0
102
RTVSPost2010PropOp36
 70
     1
102
RTVSPost2010Prop37
 90
       50
102
RTVSPost2010PropOp37
 70
     1
102
RTVSPost2010Prop38
140
0.0
102
RTVSPost2010PropOp38
 70
     1
102
RTVSPost2010Prop39
140
1.0
102
RTVSPost2010PropOp39
 70
     1
102
RTVSPost2010Prop40
 90
        0
102
RTVSPost2010PropOp40
 70
     1
102
RTVSPost2010Prop41ColorIndex
 90
       18
102
RTVSPost2010Prop41ColorRGB
 90
        0
102
RTVSPost2010PropOp41
 70
     1
102
RTVSPost2010Prop42
 90
       50
102
RTVSPost2010PropOp42
 70
     1
102
RTVSPost2010Prop43
 90
        3
102
RTVSPost2010PropOp43
 70
     1
102
RTVSPost2010Prop44ColorIndex
 90
        5
102
RTVSPost2010Prop44ColorRGB
 90
      255
102
RTVSPost2010PropOp44
 70
     1
102
RTVSPost2010Prop45
280
     0
102
RTVSPost2010PropOp45
 70
     1
102
RTVSPost2010Prop46
 90
       50
102
RTVSPost2010PropOp46
 70
     1
102
RTVSPost2010Prop47
 90
       50
102
RTVSPost2010PropOp47
 70
     1
102
RTVSPost2010Prop48
 90
       50
102
RTVSPost2010PropOp48
 70
     1
102
RTVSPost2010Prop49
280
     0
102
RTVSPost2010PropOp49
 70
     1
102
RTVSPost2010Prop50
 90
       50
102
RTVSPost2010PropOp50
 70
     1
102
RTVSPost2010Prop51ColorIndex
 90
      256
102
RTVSPost2010Prop51ColorRGB
 90
-16777216
102
RTVSPost2010PropOp51
 70
     0
102
RTVSPost2010Prop52
140
1.0
102
RTVSPost2010PropOp52
 70
     0
102
RTVSPost2010Prop53
 90
        2
102
RTVSPost2010PropOp53
 70
     1
102
RTVSPost2010Prop54
  1
strokes_ogs.tif
102
RTVSPost2010PropOp54
 70
     1
102
RTVSPost2010Prop55
280
     0
102
RTVSPost2010PropOp55
 70
     1
102
RTVSPost2010Prop56
140
1.0
102
RTVSPost2010PropOp56
 70
     1
102
RTVSPost2010Prop57
140
1.0
102
RTVSPost2010PropOp57
 70
     1
  0
XRECORD
  5
1E9
102
{ACAD_REACTORS
330
1E8
102
}
330
1E8
100
AcDbXrecord
280
     1
102
RTVSPost2010Prop28
280
     0
102
RTVSPost2010PropOp28
 70
     1
102
RTVSPost2010Prop29
280
     1
102
RTVSPost2010PropOp29
 70
     1
102
RTVSPost2010Prop30
280
     1
102
RTVSPost2010PropOp30
 70
     1
102
RTVSPost2010Prop31
280
     0
102
RTVSPost2010PropOp31
 70
     1
102
RTVSPost2010Prop32
280
     0
102
RTVSPost2010PropOp32
 70
     1
102
RTVSPost2010Prop33
280
     0
102
RTVSPost2010PropOp33
 70
     1
102
RTVSPost2010Prop34
280
     0
102
RTVSPost2010PropOp34
 70
     1
102
RTVSPost2010Prop35
280
     0
102
RTVSPost2010PropOp35
 70
     1
102
RTVSPost2010Prop36
280
     0
102
RTVSPost2010PropOp36
 70
     1
102
RTVSPost2010Prop37
 90
       50
102
RTVSPost2010PropOp37
 70
     1
102
RTVSPost2010Prop38
140
0.0
102
RTVSPost2010PropOp38
 70
     1
102
RTVSPost2010Prop39
140
1.0
102
RTVSPost2010PropOp39
 70
     1
102
RTVSPost2010Prop40
 90
        0
102
RTVSPost2010PropOp40
 70
     1
102
RTVSPost2010Prop41ColorIndex
 90
       18
102
RTVSPost2010Prop41ColorRGB
 90
        0
102
RTVSPost2010PropOp41
 70
     1
102
RTVSPost2010Prop42
 90
       50
102
RTVSPost2010PropOp42
 70
     1
102
RTVSPost2010Prop43
 90
        3
102
RTVSPost2010PropOp43
 70
     1
102
RTVSPost2010Prop44ColorIndex
 90
        5
102
RTVSPost2010Prop44ColorRGB
 90
      255
102
RTVSPost2010PropOp44
 70
     1
102
RTVSPost2010Prop45
280
     0
102
RTVSPost2010PropOp45
 70
     1
102
RTVSPost2010Prop46
 90
       50
102
RTVSPost2010PropOp46
 70
     1
102
RTVSPost2010Prop47
 90
       50
102
RTVSPost2010PropOp47
 70
     1
102
RTVSPost2010Prop48
 90
       50
102
RTVSPost2010PropOp48
 70
     1
102
RTVSPost2010Prop49
280
     0
102
RTVSPost2010PropOp49
 70
     1
102
RTVSPost2010Prop50
 90
       50
102
RTVSPost2010PropOp50
 70
     1
102
RTVSPost2010Prop51ColorIndex
 90
      256
102
RTVSPost2010Prop51ColorRGB
 90
-16777216
102
RTVSPost2010PropOp51
 70
     0
102
RTVSPost2010Prop52
140
1.0
102
RTVSPost2010PropOp52
 70
     0
102
RTVSPost2010Prop53
 90
        2
102
RTVSPost2010PropOp53
 70
     1
102
RTVSPost2010Prop54
  1
strokes_ogs.tif
102
RTVSPost2010PropOp54
 70
     1
102
RTVSPost2010Prop55
280
     0
102
RTVSPost2010PropOp55
 70
     1
102
RTVSPost2010Prop56
140
1.0
102
RTVSPost2010PropOp56
 70
     1
102
RTVSPost2010Prop57
140
1.0
102
RTVSPost2010PropOp57
 70
     1
  0
XRECORD
  5
1FD
102
{ACAD_REACTORS
330
1FC
102
}
330
1FC
100
AcDbXrecord
280
     1
102
RTVSPost2010Prop28
280
     0
102
RTVSPost2010PropOp28
 70
     0
102
RTVSPost2010Prop29
280
     1
102
RTVSPost2010PropOp29
 70
     0
102
RTVSPost2010Prop30
280
     1
102
RTVSPost2010PropOp30
 70
     0
102
RTVSPost2010Prop31
280
     0
102
RTVSPost2010PropOp31
 70
     0
102
RTVSPost2010Prop32
280
     0
102
RTVSPost2010PropOp32
 70
     0
102
RTVSPost2010Prop33
280
     0
102
RTVSPost2010PropOp33
 70
     0
102
RTVSPost2010Prop34
280
     0
102
RTVSPost2010PropOp34
 70
     0
102
RTVSPost2010Prop35
280
     0
102
RTVSPost2010PropOp35
 70
     0
102
RTVSPost2010Prop36
280
     0
102
RTVSPost2010PropOp36
 70
     0
102
RTVSPost2010Prop37
 90
       50
102
RTVSPost2010PropOp37
 70
     0
102
RTVSPost2010Prop38
140
0.0
102
RTVSPost2010PropOp38
 70
     0
102
RTVSPost2010Prop39
140
1.0
102
RTVSPost2010PropOp39
 70
     0
102
RTVSPost2010Prop40
 90
        0
102
RTVSPost2010PropOp40
 70
     0
102
RTVSPost2010Prop41ColorIndex
 90
       18
102
RTVSPost2010Prop41ColorRGB
 90
        0
102
RTVSPost2010PropOp41
 70
     0
102
RTVSPost2010Prop42
 90
       50
102
RTVSPost2010PropOp42
 70
     0
102
RTVSPost2010Prop43
 90
        3
102
RTVSPost2010PropOp43
 70
     0
102
RTVSPost2010Prop44ColorIndex
 90
        5
102
RTVSPost2010Prop44ColorRGB
 90
      255
102
RTVSPost2010PropOp44
 70
     0
102
RTVSPost2010Prop45
280
     0
102
RTVSPost2010PropOp45
 70
     0
102
RTVSPost2010Prop46
 90
       50
102
RTVSPost2010PropOp46
 70
     0
102
RTVSPost2010Prop47
 90
       50
102
RTVSPost2010PropOp47
 70
     0
102
RTVSPost2010Prop48
 90
       50
102
RTVSPost2010PropOp48
 70
     0
102
RTVSPost2010Prop49
280
     0
102
RTVSPost2010PropOp49
 70
     0
102
RTVSPost2010Prop50
 90
       50
102
RTVSPost2010PropOp50
 70
     0
102
RTVSPost2010Prop51ColorIndex
 90
      256
102
RTVSPost2010Prop51ColorRGB
 90
-16777216
102
RTVSPost2010PropOp51
 70
     0
102
RTVSPost2010Prop52
140
1.0
102
RTVSPost2010PropOp52
 70
     0
102
RTVSPost2010Prop53
 90
        2
102
RTVSPost2010PropOp53
 70
     0
102
RTVSPost2010Prop54
  1
strokes_ogs.tif
102
RTVSPost2010PropOp54
 70
     0
102
RTVSPost2010Prop55
280
     0
102
RTVSPost2010PropOp55
 70
     0
102
RTVSPost2010Prop56
140
1.0
102
RTVSPost2010PropOp56
 70
     0
102
RTVSPost2010Prop57
140
1.0
102
RTVSPost2010PropOp57
 70
     0
  0
XRECORD
  5
1F7
102
{ACAD_REACTORS
330
1F6
102
}
330
1F6
100
AcDbXrecord
280
     1
102
RTVSPost2010Prop28
280
     0
102
RTVSPost2010PropOp28
 70
     1
102
RTVSPost2010Prop29
280
     1
102
RTVSPost2010PropOp29
 70
     1
102
RTVSPost2010Prop30
280
     1
102
RTVSPost2010PropOp30
 70
     1
102
RTVSPost2010Prop31
280
     0
102
RTVSPost2010PropOp31
 70
     1
102
RTVSPost2010Prop32
280
     0
102
RTVSPost2010PropOp32
 70
     1
102
RTVSPost2010Prop33
280
     0
102
RTVSPost2010PropOp33
 70
     1
102
RTVSPost2010Prop34
280
     0
102
RTVSPost2010PropOp34
 70
     1
102
RTVSPost2010Prop35
280
     0
102
RTVSPost2010PropOp35
 70
     1
102
RTVSPost2010Prop36
280
     0
102
RTVSPost2010PropOp36
 70
     1
102
RTVSPost2010Prop37
 90
       50
102
RTVSPost2010PropOp37
 70
     1
102
RTVSPost2010Prop38
140
0.0
102
RTVSPost2010PropOp38
 70
     1
102
RTVSPost2010Prop39
140
1.0
102
RTVSPost2010PropOp39
 70
     1
102
RTVSPost2010Prop40
 90
        0
102
RTVSPost2010PropOp40
 70
     1
102
RTVSPost2010Prop41ColorIndex
 90
       18
102
RTVSPost2010Prop41ColorRGB
 90
        0
102
RTVSPost2010PropOp41
 70
     1
102
RTVSPost2010Prop42
 90
       50
102
RTVSPost2010PropOp42
 70
     1
102
RTVSPost2010Prop43
 90
        3
102
RTVSPost2010PropOp43
 70
     1
102
RTVSPost2010Prop44ColorIndex
 90
        5
102
RTVSPost2010Prop44ColorRGB
 90
      255
102
RTVSPost2010PropOp44
 70
     1
102
RTVSPost2010Prop45
280
     0
102
RTVSPost2010PropOp45
 70
     1
102
RTVSPost2010Prop46
 90
       50
102
RTVSPost2010PropOp46
 70
     1
102
RTVSPost2010Prop47
 90
       50
102
RTVSPost2010PropOp47
 70
     1
102
RTVSPost2010Prop48
 90
       50
102
RTVSPost2010PropOp48
 70
     1
102
RTVSPost2010Prop49
280
     0
102
RTVSPost2010PropOp49
 70
     1
102
RTVSPost2010Prop50
 90
       50
102
RTVSPost2010PropOp50
 70
     1
102
RTVSPost2010Prop51ColorIndex
 90
      256
102
RTVSPost2010Prop51ColorRGB
 90
-16777216
102
RTVSPost2010PropOp51
 70
     0
102
RTVSPost2010Prop52
140
1.0
102
RTVSPost2010PropOp52
 70
     0
102
RTVSPost2010Prop53
 90
        2
102
RTVSPost2010PropOp53
 70
     1
102
RTVSPost2010Prop54
  1
strokes_ogs.tif
102
RTVSPost2010PropOp54
 70
     1
102
RTVSPost2010Prop55
280
     0
102
RTVSPost2010PropOp55
 70
     1
102
RTVSPost2010Prop56
140
1.0
102
RTVSPost2010PropOp56
 70
     1
102
RTVSPost2010Prop57
140
1.0
102
RTVSPost2010PropOp57
 70
     1
  0
XRECORD
  5
1FF
102
{ACAD_REACTORS
330
1FE
102
}
330
1FE
100
AcDbXrecord
280
     1
102
RTVSPost2010Prop28
280
     0
102
RTVSPost2010PropOp28
 70
     0
102
RTVSPost2010Prop29
280
     1
102
RTVSPost2010PropOp29
 70
     0
102
RTVSPost2010Prop30
280
     1
102
RTVSPost2010PropOp30
 70
     0
102
RTVSPost2010Prop31
280
     0
102
RTVSPost2010PropOp31
 70
     0
102
RTVSPost2010Prop32
280
     0
102
RTVSPost2010PropOp32
 70
     0
102
RTVSPost2010Prop33
280
     0
102
RTVSPost2010PropOp33
 70
     0
102
RTVSPost2010Prop34
280
     0
102
RTVSPost2010PropOp34
 70
     0
102
RTVSPost2010Prop35
280
     0
102
RTVSPost2010PropOp35
 70
     0
102
RTVSPost2010Prop36
280
     0
102
RTVSPost2010PropOp36
 70
     0
102
RTVSPost2010Prop37
 90
       50
102
RTVSPost2010PropOp37
 70
     0
102
RTVSPost2010Prop38
140
0.0
102
RTVSPost2010PropOp38
 70
     0
102
RTVSPost2010Prop39
140
1.0
102
RTVSPost2010PropOp39
 70
     0
102
RTVSPost2010Prop40
 90
        0
102
RTVSPost2010PropOp40
 70
     0
102
RTVSPost2010Prop41ColorIndex
 90
       18
102
RTVSPost2010Prop41ColorRGB
 90
        0
102
RTVSPost2010PropOp41
 70
     0
102
RTVSPost2010Prop42
 90
       50
102
RTVSPost2010PropOp42
 70
     0
102
RTVSPost2010Prop43
 90
        3
102
RTVSPost2010PropOp43
 70
     0
102
RTVSPost2010Prop44ColorIndex
 90
        5
102
RTVSPost2010Prop44ColorRGB
 90
      255
102
RTVSPost2010PropOp44
 70
     0
102
RTVSPost2010Prop45
280
     0
102
RTVSPost2010PropOp45
 70
     0
102
RTVSPost2010Prop46
 90
       50
102
RTVSPost2010PropOp46
 70
     0
102
RTVSPost2010Prop47
 90
       50
102
RTVSPost2010PropOp47
 70
     0
102
RTVSPost2010Prop48
 90
       50
102
RTVSPost2010PropOp48
 70
     0
102
RTVSPost2010Prop49
280
     0
102
RTVSPost2010PropOp49
 70
     0
102
RTVSPost2010Prop50
 90
       50
102
RTVSPost2010PropOp50
 70
     0
102
RTVSPost2010Prop51ColorIndex
 90
      256
102
RTVSPost2010Prop51ColorRGB
 90
-16777216
102
RTVSPost2010PropOp51
 70
     0
102
RTVSPost2010Prop52
140
1.0
102
RTVSPost2010PropOp52
 70
     0
102
RTVSPost2010Prop53
 90
        2
102
RTVSPost2010PropOp53
 70
     0
102
RTVSPost2010Prop54
  1
strokes_ogs.tif
102
RTVSPost2010PropOp54
 70
     0
102
RTVSPost2010Prop55
280
     0
102
RTVSPost2010PropOp55
 70
     0
102
RTVSPost2010Prop56
140
1.0
102
RTVSPost2010PropOp56
 70
     0
102
RTVSPost2010Prop57
140
1.0
102
RTVSPost2010PropOp57
 70
     0
  0
XRECORD
  5
1ED
102
{ACAD_REACTORS
330
1EC
102
}
330
1EC
100
AcDbXrecord
280
     1
102
RTVSPost2010Prop28
280
     0
102
RTVSPost2010PropOp28
 70
     1
102
RTVSPost2010Prop29
280
     1
102
RTVSPost2010PropOp29
 70
     1
102
RTVSPost2010Prop30
280
     1
102
RTVSPost2010PropOp30
 70
     1
102
RTVSPost2010Prop31
280
     0
102
RTVSPost2010PropOp31
 70
     1
102
RTVSPost2010Prop32
280
     0
102
RTVSPost2010PropOp32
 70
     1
102
RTVSPost2010Prop33
280
     0
102
RTVSPost2010PropOp33
 70
     1
102
RTVSPost2010Prop34
280
     0
102
RTVSPost2010PropOp34
 70
     1
102
RTVSPost2010Prop35
280
     0
102
RTVSPost2010PropOp35
 70
     1
102
RTVSPost2010Prop36
280
     0
102
RTVSPost2010PropOp36
 70
     1
102
RTVSPost2010Prop37
 90
       50
102
RTVSPost2010PropOp37
 70
     1
102
RTVSPost2010Prop38
140
0.0
102
RTVSPost2010PropOp38
 70
     1
102
RTVSPost2010Prop39
140
1.0
102
RTVSPost2010PropOp39
 70
     1
102
RTVSPost2010Prop40
 90
        0
102
RTVSPost2010PropOp40
 70
     1
102
RTVSPost2010Prop41ColorIndex
 90
       18
102
RTVSPost2010Prop41ColorRGB
 90
        0
102
RTVSPost2010PropOp41
 70
     1
102
RTVSPost2010Prop42
 90
       50
102
RTVSPost2010PropOp42
 70
     1
102
RTVSPost2010Prop43
 90
        3
102
RTVSPost2010PropOp43
 70
     1
102
RTVSPost2010Prop44ColorIndex
 90
        5
102
RTVSPost2010Prop44ColorRGB
 90
      255
102
RTVSPost2010PropOp44
 70
     1
102
RTVSPost2010Prop45
280
     0
102
RTVSPost2010PropOp45
 70
     1
102
RTVSPost2010Prop46
 90
       50
102
RTVSPost2010PropOp46
 70
     1
102
RTVSPost2010Prop47
 90
       50
102
RTVSPost2010PropOp47
 70
     1
102
RTVSPost2010Prop48
 90
       50
102
RTVSPost2010PropOp48
 70
     1
102
RTVSPost2010Prop49
280
     0
102
RTVSPost2010PropOp49
 70
     1
102
RTVSPost2010Prop50
 90
       50
102
RTVSPost2010PropOp50
 70
     1
102
RTVSPost2010Prop51ColorIndex
 90
      256
102
RTVSPost2010Prop51ColorRGB
 90
-16777216
102
RTVSPost2010PropOp51
 70
     0
102
RTVSPost2010Prop52
140
1.0
102
RTVSPost2010PropOp52
 70
     0
102
RTVSPost2010Prop53
 90
        2
102
RTVSPost2010PropOp53
 70
     1
102
RTVSPost2010Prop54
  1
strokes_ogs.tif
102
RTVSPost2010PropOp54
 70
     1
102
RTVSPost2010Prop55
280
     0
102
RTVSPost2010PropOp55
 70
     1
102
RTVSPost2010Prop56
140
1.0
102
RTVSPost2010PropOp56
 70
     1
102
RTVSPost2010Prop57
140
1.0
102
RTVSPost2010PropOp57
 70
     1
  0
XRECORD
  5
20B
102
{ACAD_REACTORS
330
20A
102
}
330
20A
100
AcDbXrecord
280
     1
102
RTVSPost2010Prop28
280
     0
102
RTVSPost2010PropOp28
 70
     1
102
RTVSPost2010Prop29
280
     1
102
RTVSPost2010PropOp29
 70
     1
102
RTVSPost2010Prop30
280
     1
102
RTVSPost2010PropOp30
 70
     1
102
RTVSPost2010Prop31
280
     0
102
RTVSPost2010PropOp31
 70
     1
102
RTVSPost2010Prop32
280
     0
102
RTVSPost2010PropOp32
 70
     1
102
RTVSPost2010Prop33
280
     0
102
RTVSPost2010PropOp33
 70
     1
102
RTVSPost2010Prop34
280
     0
102
RTVSPost2010PropOp34
 70
     1
102
RTVSPost2010Prop35
280
     0
102
RTVSPost2010PropOp35
 70
     1
102
RTVSPost2010Prop36
280
     0
102
RTVSPost2010PropOp36
 70
     1
102
RTVSPost2010Prop37
 90
       50
102
RTVSPost2010PropOp37
 70
     1
102
RTVSPost2010Prop38
140
0.0
102
RTVSPost2010PropOp38
 70
     1
102
RTVSPost2010Prop39
140
1.0
102
RTVSPost2010PropOp39
 70
     1
102
RTVSPost2010Prop40
 90
        0
102
RTVSPost2010PropOp40
 70
     1
102
RTVSPost2010Prop41ColorIndex
 90
       18
102
RTVSPost2010Prop41ColorRGB
 90
        0
102
RTVSPost2010PropOp41
 70
     1
102
RTVSPost2010Prop42
 90
       50
102
RTVSPost2010PropOp42
 70
     1
102
RTVSPost2010Prop43
 90
        3
102
RTVSPost2010PropOp43
 70
     1
102
RTVSPost2010Prop44ColorIndex
 90
        5
102
RTVSPost2010Prop44ColorRGB
 90
      255
102
RTVSPost2010PropOp44
 70
     1
102
RTVSPost2010Prop45
280
     0
102
RTVSPost2010PropOp45
 70
     1
102
RTVSPost2010Prop46
 90
       50
102
RTVSPost2010PropOp46
 70
     1
102
RTVSPost2010Prop47
 90
       50
102
RTVSPost2010PropOp47
 70
     1
102
RTVSPost2010Prop48
 90
       50
102
RTVSPost2010PropOp48
 70
     1
102
RTVSPost2010Prop49
280
     0
102
RTVSPost2010PropOp49
 70
     1
102
RTVSPost2010Prop50
 90
       50
102
RTVSPost2010PropOp50
 70
     1
102
RTVSPost2010Prop51ColorIndex
 90
      256
102
RTVSPost2010Prop51ColorRGB
 90
-16777216
102
RTVSPost2010PropOp51
 70
     0
102
RTVSPost2010Prop52
140
1.0
102
RTVSPost2010PropOp52
 70
     0
102
RTVSPost2010Prop53
 90
        2
102
RTVSPost2010PropOp53
 70
     1
102
RTVSPost2010Prop54
  1
strokes_ogs.tif
102
RTVSPost2010PropOp54
 70
     1
102
RTVSPost2010Prop55
280
     0
102
RTVSPost2010PropOp55
 70
     1
102
RTVSPost2010Prop56
140
1.0
102
RTVSPost2010PropOp56
 70
     1
102
RTVSPost2010Prop57
140
1.0
102
RTVSPost2010PropOp57
 70
     1
  0
XRECORD
  5
209
102
{ACAD_REACTORS
330
208
102
}
330
208
100
AcDbXrecord
280
     1
102
RTVSPost2010Prop28
280
     0
102
RTVSPost2010PropOp28
 70
     1
102
RTVSPost2010Prop29
280
     1
102
RTVSPost2010PropOp29
 70
     1
102
RTVSPost2010Prop30
280
     1
102
RTVSPost2010PropOp30
 70
     1
102
RTVSPost2010Prop31
280
     0
102
RTVSPost2010PropOp31
 70
     1
102
RTVSPost2010Prop32
280
     0
102
RTVSPost2010PropOp32
 70
     1
102
RTVSPost2010Prop33
280
     0
102
RTVSPost2010PropOp33
 70
     1
102
RTVSPost2010Prop34
280
     0
102
RTVSPost2010PropOp34
 70
     1
102
RTVSPost2010Prop35
280
     0
102
RTVSPost2010PropOp35
 70
     1
102
RTVSPost2010Prop36
280
     0
102
RTVSPost2010PropOp36
 70
     1
102
RTVSPost2010Prop37
 90
       50
102
RTVSPost2010PropOp37
 70
     1
102
RTVSPost2010Prop38
140
0.0
102
RTVSPost2010PropOp38
 70
     1
102
RTVSPost2010Prop39
140
1.0
102
RTVSPost2010PropOp39
 70
     1
102
RTVSPost2010Prop40
 90
        0
102
RTVSPost2010PropOp40
 70
     1
102
RTVSPost2010Prop41ColorIndex
 90
       18
102
RTVSPost2010Prop41ColorRGB
 90
        0
102
RTVSPost2010PropOp41
 70
     1
102
RTVSPost2010Prop42
 90
       50
102
RTVSPost2010PropOp42
 70
     1
102
RTVSPost2010Prop43
 90
        3
102
RTVSPost2010PropOp43
 70
     1
102
RTVSPost2010Prop44ColorIndex
 90
        5
102
RTVSPost2010Prop44ColorRGB
 90
      255
102
RTVSPost2010PropOp44
 70
     1
102
RTVSPost2010Prop45
280
     0
102
RTVSPost2010PropOp45
 70
     1
102
RTVSPost2010Prop46
 90
       50
102
RTVSPost2010PropOp46
 70
     1
102
RTVSPost2010Prop47
 90
       50
102
RTVSPost2010PropOp47
 70
     1
102
RTVSPost2010Prop48
 90
       50
102
RTVSPost2010PropOp48
 70
     1
102
RTVSPost2010Prop49
280
     0
102
RTVSPost2010PropOp49
 70
     1
102
RTVSPost2010Prop50
 90
       50
102
RTVSPost2010PropOp50
 70
     1
102
RTVSPost2010Prop51ColorIndex
 90
      256
102
RTVSPost2010Prop51ColorRGB
 90
-16777216
102
RTVSPost2010PropOp51
 70
     0
102
RTVSPost2010Prop52
140
1.0
102
RTVSPost2010PropOp52
 70
     0
102
RTVSPost2010Prop53
 90
        2
102
RTVSPost2010PropOp53
 70
     1
102
RTVSPost2010Prop54
  1
strokes_ogs.tif
102
RTVSPost2010PropOp54
 70
     1
102
RTVSPost2010Prop55
280
     0
102
RTVSPost2010PropOp55
 70
     1
102
RTVSPost2010Prop56
140
1.0
102
RTVSPost2010PropOp56
 70
     1
102
RTVSPost2010Prop57
140
1.0
102
RTVSPost2010PropOp57
 70
     1
  0
XRECORD
  5
203
102
{ACAD_REACTORS
330
202
102
}
330
202
100
AcDbXrecord
280
     1
102
RTVSPost2010Prop28
280
     0
102
RTVSPost2010PropOp28
 70
     1
102
RTVSPost2010Prop29
280
     1
102
RTVSPost2010PropOp29
 70
     1
102
RTVSPost2010Prop30
280
     1
102
RTVSPost2010PropOp30
 70
     1
102
RTVSPost2010Prop31
280
     0
102
RTVSPost2010PropOp31
 70
     1
102
RTVSPost2010Prop32
280
     0
102
RTVSPost2010PropOp32
 70
     1
102
RTVSPost2010Prop33
280
     0
102
RTVSPost2010PropOp33
 70
     1
102
RTVSPost2010Prop34
280
     0
102
RTVSPost2010PropOp34
 70
     1
102
RTVSPost2010Prop35
280
     0
102
RTVSPost2010PropOp35
 70
     1
102
RTVSPost2010Prop36
280
     0
102
RTVSPost2010PropOp36
 70
     1
102
RTVSPost2010Prop37
 90
       50
102
RTVSPost2010PropOp37
 70
     1
102
RTVSPost2010Prop38
140
0.0
102
RTVSPost2010PropOp38
 70
     1
102
RTVSPost2010Prop39
140
1.0
102
RTVSPost2010PropOp39
 70
     1
102
RTVSPost2010Prop40
 90
        0
102
RTVSPost2010PropOp40
 70
     1
102
RTVSPost2010Prop41ColorIndex
 90
       18
102
RTVSPost2010Prop41ColorRGB
 90
        0
102
RTVSPost2010PropOp41
 70
     1
102
RTVSPost2010Prop42
 90
       50
102
RTVSPost2010PropOp42
 70
     1
102
RTVSPost2010Prop43
 90
        3
102
RTVSPost2010PropOp43
 70
     1
102
RTVSPost2010Prop44ColorIndex
 90
        5
102
RTVSPost2010Prop44ColorRGB
 90
      255
102
RTVSPost2010PropOp44
 70
     1
102
RTVSPost2010Prop45
280
     0
102
RTVSPost2010PropOp45
 70
     1
102
RTVSPost2010Prop46
 90
       50
102
RTVSPost2010PropOp46
 70
     1
102
RTVSPost2010Prop47
 90
       50
102
RTVSPost2010PropOp47
 70
     1
102
RTVSPost2010Prop48
 90
       50
102
RTVSPost2010PropOp48
 70
     1
102
RTVSPost2010Prop49
280
     0
102
RTVSPost2010PropOp49
 70
     1
102
RTVSPost2010Prop50
 90
       50
102
RTVSPost2010PropOp50
 70
     1
102
RTVSPost2010Prop51ColorIndex
 90
      256
102
RTVSPost2010Prop51ColorRGB
 90
-16777216
102
RTVSPost2010PropOp51
 70
     0
102
RTVSPost2010Prop52
140
1.0
102
RTVSPost2010PropOp52
 70
     0
102
RTVSPost2010Prop53
 90
        2
102
RTVSPost2010PropOp53
 70
     1
102
RTVSPost2010Prop54
  1
strokes_ogs.tif
102
RTVSPost2010PropOp54
 70
     1
102
RTVSPost2010Prop55
280
     0
102
RTVSPost2010PropOp55
 70
     1
102
RTVSPost2010Prop56
140
1.0
102
RTVSPost2010PropOp56
 70
     1
102
RTVSPost2010Prop57
140
1.0
102
RTVSPost2010PropOp57
 70
     1
  0
XRECORD
  5
205
102
{ACAD_REACTORS
330
204
102
}
330
204
100
AcDbXrecord
280
     1
102
RTVSPost2010Prop28
280
     0
102
RTVSPost2010PropOp28
 70
     1
102
RTVSPost2010Prop29
280
     1
102
RTVSPost2010PropOp29
 70
     1
102
RTVSPost2010Prop30
280
     1
102
RTVSPost2010PropOp30
 70
     1
102
RTVSPost2010Prop31
280
     0
102
RTVSPost2010PropOp31
 70
     1
102
RTVSPost2010Prop32
280
     0
102
RTVSPost2010PropOp32
 70
     1
102
RTVSPost2010Prop33
280
     0
102
RTVSPost2010PropOp33
 70
     1
102
RTVSPost2010Prop34
280
     0
102
RTVSPost2010PropOp34
 70
     1
102
RTVSPost2010Prop35
280
     0
102
RTVSPost2010PropOp35
 70
     1
102
RTVSPost2010Prop36
280
     0
102
RTVSPost2010PropOp36
 70
     1
102
RTVSPost2010Prop37
 90
       50
102
RTVSPost2010PropOp37
 70
     1
102
RTVSPost2010Prop38
140
0.0
102
RTVSPost2010PropOp38
 70
     1
102
RTVSPost2010Prop39
140
1.0
102
RTVSPost2010PropOp39
 70
     1
102
RTVSPost2010Prop40
 90
        0
102
RTVSPost2010PropOp40
 70
     1
102
RTVSPost2010Prop41ColorIndex
 90
       18
102
RTVSPost2010Prop41ColorRGB
 90
        0
102
RTVSPost2010PropOp41
 70
     1
102
RTVSPost2010Prop42
 90
       50
102
RTVSPost2010PropOp42
 70
     1
102
RTVSPost2010Prop43
 90
        3
102
RTVSPost2010PropOp43
 70
     1
102
RTVSPost2010Prop44ColorIndex
 90
        5
102
RTVSPost2010Prop44ColorRGB
 90
      255
102
RTVSPost2010PropOp44
 70
     1
102
RTVSPost2010Prop45
280
     0
102
RTVSPost2010PropOp45
 70
     1
102
RTVSPost2010Prop46
 90
       50
102
RTVSPost2010PropOp46
 70
     1
102
RTVSPost2010Prop47
 90
       50
102
RTVSPost2010PropOp47
 70
     1
102
RTVSPost2010Prop48
 90
       50
102
RTVSPost2010PropOp48
 70
     1
102
RTVSPost2010Prop49
280
     0
102
RTVSPost2010PropOp49
 70
     1
102
RTVSPost2010Prop50
 90
       50
102
RTVSPost2010PropOp50
 70
     1
102
RTVSPost2010Prop51ColorIndex
 90
      256
102
RTVSPost2010Prop51ColorRGB
 90
-16777216
102
RTVSPost2010PropOp51
 70
     0
102
RTVSPost2010Prop52
140
1.0
102
RTVSPost2010PropOp52
 70
     0
102
RTVSPost2010Prop53
 90
        2
102
RTVSPost2010PropOp53
 70
     1
102
RTVSPost2010Prop54
  1
strokes_ogs.tif
102
RTVSPost2010PropOp54
 70
     1
102
RTVSPost2010Prop55
280
     0
102
RTVSPost2010PropOp55
 70
     1
102
RTVSPost2010Prop56
140
1.0
102
RTVSPost2010PropOp56
 70
     1
102
RTVSPost2010Prop57
140
1.0
102
RTVSPost2010PropOp57
 70
     1
  0
XRECORD
  5
1F5
102
{ACAD_REACTORS
330
1F4
102
}
330
1F4
100
AcDbXrecord
280
     1
102
RTVSPost2010Prop28
280
     0
102
RTVSPost2010PropOp28
 70
     1
102
RTVSPost2010Prop29
280
     1
102
RTVSPost2010PropOp29
 70
     1
102
RTVSPost2010Prop30
280
     1
102
RTVSPost2010PropOp30
 70
     1
102
RTVSPost2010Prop31
280
     0
102
RTVSPost2010PropOp31
 70
     1
102
RTVSPost2010Prop32
280
     0
102
RTVSPost2010PropOp32
 70
     1
102
RTVSPost2010Prop33
280
     0
102
RTVSPost2010PropOp33
 70
     1
102
RTVSPost2010Prop34
280
     0
102
RTVSPost2010PropOp34
 70
     1
102
RTVSPost2010Prop35
280
     0
102
RTVSPost2010PropOp35
 70
     1
102
RTVSPost2010Prop36
280
     0
102
RTVSPost2010PropOp36
 70
     1
102
RTVSPost2010Prop37
 90
       50
102
RTVSPost2010PropOp37
 70
     1
102
RTVSPost2010Prop38
140
0.0
102
RTVSPost2010PropOp38
 70
     1
102
RTVSPost2010Prop39
140
1.0
102
RTVSPost2010PropOp39
 70
     1
102
RTVSPost2010Prop40
 90
        0
102
RTVSPost2010PropOp40
 70
     1
102
RTVSPost2010Prop41ColorIndex
 90
       18
102
RTVSPost2010Prop41ColorRGB
 90
        0
102
RTVSPost2010PropOp41
 70
     1
102
RTVSPost2010Prop42
 90
       50
102
RTVSPost2010PropOp42
 70
     1
102
RTVSPost2010Prop43
 90
        3
102
RTVSPost2010PropOp43
 70
     1
102
RTVSPost2010Prop44ColorIndex
 90
        5
102
RTVSPost2010Prop44ColorRGB
 90
      255
102
RTVSPost2010PropOp44
 70
     1
102
RTVSPost2010Prop45
280
     0
102
RTVSPost2010PropOp45
 70
     1
102
RTVSPost2010Prop46
 90
       50
102
RTVSPost2010PropOp46
 70
     1
102
RTVSPost2010Prop47
 90
       50
102
RTVSPost2010PropOp47
 70
     1
102
RTVSPost2010Prop48
 90
       50
102
RTVSPost2010PropOp48
 70
     1
102
RTVSPost2010Prop49
280
     0
102
RTVSPost2010PropOp49
 70
     1
102
RTVSPost2010Prop50
 90
       50
102
RTVSPost2010PropOp50
 70
     1
102
RTVSPost2010Prop51ColorIndex
 90
      256
102
RTVSPost2010Prop51ColorRGB
 90
-16777216
102
RTVSPost2010PropOp51
 70
     0
102
RTVSPost2010Prop52
140
1.0
102
RTVSPost2010PropOp52
 70
     0
102
RTVSPost2010Prop53
 90
        2
102
RTVSPost2010PropOp53
 70
     1
102
RTVSPost2010Prop54
  1
strokes_ogs.tif
102
RTVSPost2010PropOp54
 70
     1
102
RTVSPost2010Prop55
280
     0
102
RTVSPost2010PropOp55
 70
     1
102
RTVSPost2010Prop56
140
1.0
102
RTVSPost2010PropOp56
 70
     1
102
RTVSPost2010Prop57
140
1.0
102
RTVSPost2010PropOp57
 70
     1
  0
XRECORD
  5
1E7
102
{ACAD_REACTORS
330
1E6
102
}
330
1E6
100
AcDbXrecord
280
     1
102
RTVSPost2010Prop28
280
     0
102
RTVSPost2010PropOp28
 70
     1
102
RTVSPost2010Prop29
280
     1
102
RTVSPost2010PropOp29
 70
     1
102
RTVSPost2010Prop30
280
     1
102
RTVSPost2010PropOp30
 70
     1
102
RTVSPost2010Prop31
280
     0
102
RTVSPost2010PropOp31
 70
     1
102
RTVSPost2010Prop32
280
     0
102
RTVSPost2010PropOp32
 70
     1
102
RTVSPost2010Prop33
280
     0
102
RTVSPost2010PropOp33
 70
     1
102
RTVSPost2010Prop34
280
     0
102
RTVSPost2010PropOp34
 70
     1
102
RTVSPost2010Prop35
280
     0
102
RTVSPost2010PropOp35
 70
     1
102
RTVSPost2010Prop36
280
     0
102
RTVSPost2010PropOp36
 70
     1
102
RTVSPost2010Prop37
 90
       50
102
RTVSPost2010PropOp37
 70
     1
102
RTVSPost2010Prop38
140
0.0
102
RTVSPost2010PropOp38
 70
     1
102
RTVSPost2010Prop39
140
1.0
102
RTVSPost2010PropOp39
 70
     1
102
RTVSPost2010Prop40
 90
        0
102
RTVSPost2010PropOp40
 70
     1
102
RTVSPost2010Prop41ColorIndex
 90
       18
102
RTVSPost2010Prop41ColorRGB
 90
        0
102
RTVSPost2010PropOp41
 70
     1
102
RTVSPost2010Prop42
 90
       50
102
RTVSPost2010PropOp42
 70
     1
102
RTVSPost2010Prop43
 90
        3
102
RTVSPost2010PropOp43
 70
     1
102
RTVSPost2010Prop44ColorIndex
 90
        5
102
RTVSPost2010Prop44ColorRGB
 90
      255
102
RTVSPost2010PropOp44
 70
     1
102
RTVSPost2010Prop45
280
     0
102
RTVSPost2010PropOp45
 70
     1
102
RTVSPost2010Prop46
 90
       50
102
RTVSPost2010PropOp46
 70
     1
102
RTVSPost2010Prop47
 90
       50
102
RTVSPost2010PropOp47
 70
     1
102
RTVSPost2010Prop48
 90
       50
102
RTVSPost2010PropOp48
 70
     1
102
RTVSPost2010Prop49
280
     0
102
RTVSPost2010PropOp49
 70
     1
102
RTVSPost2010Prop50
 90
       50
102
RTVSPost2010PropOp50
 70
     1
102
RTVSPost2010Prop51ColorIndex
 90
      256
102
RTVSPost2010Prop51ColorRGB
 90
-16777216
102
RTVSPost2010PropOp51
 70
     0
102
RTVSPost2010Prop52
140
1.0
102
RTVSPost2010PropOp52
 70
     0
102
RTVSPost2010Prop53
 90
        2
102
RTVSPost2010PropOp53
 70
     1
102
RTVSPost2010Prop54
  1
strokes_ogs.tif
102
RTVSPost2010PropOp54
 70
     1
102
RTVSPost2010Prop55
280
     0
102
RTVSPost2010PropOp55
 70
     1
102
RTVSPost2010Prop56
140
1.0
102
RTVSPost2010PropOp56
 70
     1
102
RTVSPost2010Prop57
140
1.0
102
RTVSPost2010PropOp57
 70
     1
  0
XRECORD
  5
207
102
{ACAD_REACTORS
330
206
102
}
330
206
100
AcDbXrecord
280
     1
102
RTVSPost2010Prop28
280
     0
102
RTVSPost2010PropOp28
 70
     1
102
RTVSPost2010Prop29
280
     1
102
RTVSPost2010PropOp29
 70
     1
102
RTVSPost2010Prop30
280
     1
102
RTVSPost2010PropOp30
 70
     1
102
RTVSPost2010Prop31
280
     0
102
RTVSPost2010PropOp31
 70
     1
102
RTVSPost2010Prop32
280
     0
102
RTVSPost2010PropOp32
 70
     1
102
RTVSPost2010Prop33
280
     0
102
RTVSPost2010PropOp33
 70
     1
102
RTVSPost2010Prop34
280
     0
102
RTVSPost2010PropOp34
 70
     1
102
RTVSPost2010Prop35
280
     0
102
RTVSPost2010PropOp35
 70
     1
102
RTVSPost2010Prop36
280
     0
102
RTVSPost2010PropOp36
 70
     1
102
RTVSPost2010Prop37
 90
       50
102
RTVSPost2010PropOp37
 70
     1
102
RTVSPost2010Prop38
140
0.0
102
RTVSPost2010PropOp38
 70
     1
102
RTVSPost2010Prop39
140
1.0
102
RTVSPost2010PropOp39
 70
     1
102
RTVSPost2010Prop40
 90
        0
102
RTVSPost2010PropOp40
 70
     1
102
RTVSPost2010Prop41ColorIndex
 90
       18
102
RTVSPost2010Prop41ColorRGB
 90
        0
102
RTVSPost2010PropOp41
 70
     1
102
RTVSPost2010Prop42
 90
       50
102
RTVSPost2010PropOp42
 70
     1
102
RTVSPost2010Prop43
 90
        3
102
RTVSPost2010PropOp43
 70
     1
102
RTVSPost2010Prop44ColorIndex
 90
        5
102
RTVSPost2010Prop44ColorRGB
 90
      255
102
RTVSPost2010PropOp44
 70
     1
102
RTVSPost2010Prop45
280
     0
102
RTVSPost2010PropOp45
 70
     1
102
RTVSPost2010Prop46
 90
       50
102
RTVSPost2010PropOp46
 70
     1
102
RTVSPost2010Prop47
 90
       50
102
RTVSPost2010PropOp47
 70
     1
102
RTVSPost2010Prop48
 90
       50
102
RTVSPost2010PropOp48
 70
     1
102
RTVSPost2010Prop49
280
     0
102
RTVSPost2010PropOp49
 70
     1
102
RTVSPost2010Prop50
 90
       50
102
RTVSPost2010PropOp50
 70
     1
102
RTVSPost2010Prop51ColorIndex
 90
      256
102
RTVSPost2010Prop51ColorRGB
 90
-16777216
102
RTVSPost2010PropOp51
 70
     0
102
RTVSPost2010Prop52
140
1.0
102
RTVSPost2010PropOp52
 70
     0
102
RTVSPost2010Prop53
 90
        2
102
RTVSPost2010PropOp53
 70
     1
102
RTVSPost2010Prop54
  1
strokes_ogs.tif
102
RTVSPost2010PropOp54
 70
     1
102
RTVSPost2010Prop55
280
     0
102
RTVSPost2010PropOp55
 70
     1
102
RTVSPost2010Prop56
140
1.0
102
RTVSPost2010PropOp56
 70
     1
102
RTVSPost2010Prop57
140
1.0
102
RTVSPost2010PropOp57
 70
     1
  0
ENDSEC
  0
EOF
