  0
SECTION
  2
HEADER
  9
$ACADVER
  1
AC1024
  9
$ACADMAINTVER
 70
     6
  9
$DWGCODEPAGE
  3
ANSI_1252
  9
$INSBASE
 10
0.0
 20
0.0
 30
0.0
  9
$EXTMIN
 10
1.000000E+20
 20
1.000000E+20
 30
1.000000E+20
  9
$EXTMAX
 10
-1.000000E+20
 20
-1.000000E+20
 30
-1.000000E+20
  9
$LIMMIN
 10
0.0
 20
0.0
  9
$LIMMAX
 10
420.0
 20
297.0
  9
$ORTHOMODE
 70
     0
  9
$REGENMODE
 70
     1
  9
$FILLMODE
 70
     1
  9
$QTEXTMODE
 70
     0
  9
$MIRRTEXT
 70
     1
  9
$LTSCALE
 40
1.0
  9
$ATTMODE
 70
     1
  9
$TEXTSIZE
 40
2.5
  9
$TRACEWID
 40
1.0
  9
$TEXTSTYLE
  7
Standard
  9
$CLAYER
  8
0
  9
$CELTYPE
  6
ByLayer
  9
$CECOLOR
 62
   256
  9
$CELTSCALE
 40
1.0
  9
$DISPSILH
 70
     0
  9
$DIMSCALE
 40
1.0
  9
$DIMASZ
 40
2.5
  9
$DIMEXO
 40
0.625
  9
$DIMDLI
 40
3.75
  9
$DIMRND
 40
0.0
  9
$DIMDLE
 40
0.0
  9
$DIMEXE
 40
1.25
  9
$DIMTP
 40
0.0
  9
$DIMTM
 40
0.0
  9
$DIMTXT
 40
2.5
  9
$DIMCEN
 40
2.5
  9
$DIMTSZ
 40
0.0
  9
$DIMTOL
 70
     0
  9
$DIMLIM
 70
     0
  9
$DIMTIH
 70
     0
  9
$DIMTOH
 70
     0
  9
$DIMSE1
 70
     0
  9
$DIMSE2
 70
     0
  9
$DIMTAD
 70
     1
  9
$DIMZIN
 70
     8
  9
$DIMBLK
  1

  9
$DIMASO
 70
     1
  9
$DIMSHO
 70
     1
  9
$DIMPOST
  1

  9
$DIMAPOST
  1

  9
$DIMALT
 70
     0
  9
$DIMALTD
 70
     3
  9
$DIMALTF
 40
0.03937
  9
$DIMLFAC
 40
1.0
  9
$DIMTOFL
 70
     1
  9
$DIMTVP
 40
0.0
  9
$DIMTIX
 70
     0
  9
$DIMSOXD
 70
     0
  9
$DIMSAH
 70
     0
  9
$DIMBLK1
  1

  9
$DIMBLK2
  1

  9
$DIMSTYLE
  2
ISO-25
  9
$DIMCLRD
 70
     0
  9
$DIMCLRE
 70
     0
  9
$DIMCLRT
 70
     0
  9
$DIMTFAC
 40
1.0
  9
$DIMGAP
 40
0.625
  9
$DIMJUST
 70
     0
  9
$DIMSD1
 70
     0
  9
$DIMSD2
 70
     0
  9
$DIMTOLJ
 70
     0
  9
$DIMTZIN
 70
     8
  9
$DIMALTZ
 70
     0
  9
$DIMALTTZ
 70
     0
  9
$DIMUPT
 70
     0
  9
$DIMDEC
 70
     2
  9
$DIMTDEC
 70
     2
  9
$DIMALTU
 70
     2
  9
$DIMALTTD
 70
     3
  9
$DIMTXSTY
  7
Standard
  9
$DIMAUNIT
 70
     0
  9
$DIMADEC
 70
     0
  9
$DIMALTRND
 40
0.0
  9
$DIMAZIN
 70
     0
  9
$DIMDSEP
 70
    44
  9
$DIMATFIT
 70
     3
  9
$DIMFRAC
 70
     0
  9
$DIMLDRBLK
  1

  9
$DIMLUNIT
 70
     2
  9
$DIMLWD
 70
    -2
  9
$DIMLWE
 70
    -2
  9
$DIMTMOVE
 70
     0
  9
$DIMFXL
 40
1.0
  9
$DIMFXLON
 70
     0
  9
$DIMJOGANG
 40
0.785398
  9
$DIMTFILL
 70
     0
  9
$DIMTFILLCLR
 70
     0
  9
$DIMARCSYM
 70
     0
  9
$DIMLTYPE
  6

  9
$DIMLTEX1
  6

  9
$DIMLTEX2
  6

  9
$DIMTXTDIRECTION
 70
     0
  9
$LUNITS
 70
     2
  9
$LUPREC
 70
     4
  9
$SKETCHINC
 40
1.0
  9
$FILLETRAD
 40
10.0
  9
$AUNITS
 70
     0
  9
$AUPREC
 70
     0
  9
$MENU
  1
.
  9
$ELEVATION
 40
0.0
  9
$PELEVATION
 40
0.0
  9
$THICKNESS
 40
0.0
  9
$LIMCHECK
 70
     0
  9
$CHAMFERA
 40
0.0
  9
$CHAMFERB
 40
0.0
  9
$CHAMFERC
 40
0.0
  9
$CHAMFERD
 40
0.0
  9
$SKPOLY
 70
     0
  9
$TDCREATE
 40
2458621.662272419
  9
$TDUCREATE
 40
2458621.578939086
  9
$TDUPDATE
 40
2458621.662273044
  9
$TDUUPDATE
 40
2458621.578939711
  9
$TDINDWG
 40
0.0000000116
  9
$TDUSRTIMER
 40
0.0000000116
  9
$USRTIMER
 70
     1
  9
$ANGBASE
 50
0.0
  9
$ANGDIR
 70
     0
  9
$PDMODE
 70
     0
  9
$PDSIZE
 40
0.0
  9
$PLINEWID
 40
0.0
  9
$SPLFRAME
 70
     0
  9
$SPLINETYPE
 70
     6
  9
$SPLINESEGS
 70
     8
  9
$HANDSEED
  5
222
  9
$SURFTAB1
 70
     6
  9
$SURFTAB2
 70
     6
  9
$SURFTYPE
 70
     6
  9
$SURFU
 70
     6
  9
$SURFV
 70
     6
  9
$UCSBASE
  2

  9
$UCSNAME
  2

  9
$UCSORG
 10
0.0
 20
0.0
 30
0.0
  9
$UCSXDIR
 10
1.0
 20
0.0
 30
0.0
  9
$UCSYDIR
 10
0.0
 20
1.0
 30
0.0
  9
$UCSORTHOREF
  2

  9
$UCSORTHOVIEW
 70
     0
  9
$UCSORGTOP
 10
0.0
 20
0.0
 30
0.0
  9
$UCSORGBOTTOM
 10
0.0
 20
0.0
 30
0.0
  9
$UCSORGLEFT
 10
0.0
 20
0.0
 30
0.0
  9
$UCSORGRIGHT
 10
0.0
 20
0.0
 30
0.0
  9
$UCSORGFRONT
 10
0.0
 20
0.0
 30
0.0
  9
$UCSORGBACK
 10
0.0
 20
0.0
 30
0.0
  9
$PUCSBASE
  2

  9
$PUCSNAME
  2

  9
$PUCSORG
 10
0.0
 20
0.0
 30
0.0
  9
$PUCSXDIR
 10
1.0
 20
0.0
 30
0.0
  9
$PUCSYDIR
 10
0.0
 20
1.0
 30
0.0
  9
$PUCSORTHOREF
  2

  9
$PUCSORTHOVIEW
 70
     0
  9
$PUCSORGTOP
 10
0.0
 20
0.0
 30
0.0
  9
$PUCSORGBOTTOM
 10
0.0
 20
0.0
 30
0.0
  9
$PUCSORGLEFT
 10
0.0
 20
0.0
 30
0.0
  9
$PUCSORGRIGHT
 10
0.0
 20
0.0
 30
0.0
  9
$PUCSORGFRONT
 10
0.0
 20
0.0
 30
0.0
  9
$PUCSORGBACK
 10
0.0
 20
0.0
 30
0.0
  9
$USERI1
 70
     0
  9
$USERI2
 70
     0
  9
$USERI3
 70
     0
  9
$USERI4
 70
     0
  9
$USERI5
 70
     0
  9
$USERR1
 40
0.0
  9
$USERR2
 40
0.0
  9
$USERR3
 40
0.0
  9
$USERR4
 40
0.0
  9
$USERR5
 40
0.0
  9
$WORLDVIEW
 70
     1
  9
$SHADEDGE
 70
     3
  9
$SHADEDIF
 70
    70
  9
$TILEMODE
 70
     1
  9
$MAXACTVP
 70
    64
  9
$PINSBASE
 10
0.0
 20
0.0
 30
0.0
  9
$PLIMCHECK
 70
     0
  9
$PEXTMIN
 10
1.000000E+20
 20
1.000000E+20
 30
1.000000E+20
  9
$PEXTMAX
 10
-1.000000E+20
 20
-1.000000E+20
 30
-1.000000E+20
  9
$PLIMMIN
 10
0.0
 20
0.0
  9
$PLIMMAX
 10
420.0
 20
297.0
  9
$UNITMODE
 70
     0
  9
$VISRETAIN
 70
     1
  9
$PLINEGEN
 70
     0
  9
$PSLTSCALE
 70
     1
  9
$TREEDEPTH
 70
  3020
  9
$CMLSTYLE
  2
Standard
  9
$CMLJUST
 70
     0
  9
$CMLSCALE
 40
20.0
  9
$PROXYGRAPHICS
 70
     1
  9
$MEASUREMENT
 70
     1
  9
$CELWEIGHT
370
    -1
  9
$ENDCAPS
280
     0
  9
$JOINSTYLE
280
     0
  9
$LWDISPLAY
290
     0
  9
$INSUNITS
 70
     4
  9
$HYPERLINKBASE
  1

  9
$STYLESHEET
  1

  9
$XEDIT
290
     1
  9
$CEPSNTYPE
380
     0
  9
$PSTYLEMODE
290
     1
  9
$FINGERPRINTGUID
  2
{4D191C16-A185-44B7-A299-88160DB88636}
  9
$VERSIONGUID
  2
{FAEB1C32-E019-11D5-929B-00C0DF256EC4}
  9
$EXTNAMES
290
     1
  9
$PSVPSCALE
 40
0.0
  9
$OLESTARTUP
290
     0
  9
$SORTENTS
280
   127
  9
$INDEXCTL
280
     0
  9
$HIDETEXT
280
     1
  9
$XCLIPFRAME
280
     2
  9
$HALOGAP
280
     0
  9
$OBSCOLOR
 70
   257
  9
$OBSLTYPE
280
     0
  9
$INTERSECTIONDISPLAY
280
     0
  9
$INTERSECTIONCOLOR
 70
   257
  9
$DIMASSOC
280
     2
  9
$PROJECTNAME
  1

  9
$CAMERADISPLAY
290
     0
  9
$LENSLENGTH
 40
50.0
  9
$CAMERAHEIGHT
 40
0.0
  9
$STEPSPERSEC
 40
2.0
  9
$STEPSIZE
 40
6.0
  9
$3DDWFPREC
 40
2.0
  9
$PSOLWIDTH
 40
5.0
  9
$PSOLHEIGHT
 40
80.0
  9
$LOFTANG1
 40
1.570796
  9
$LOFTANG2
 40
1.570796
  9
$LOFTMAG1
 40
0.0
  9
$LOFTMAG2
 40
0.0
  9
$LOFTPARAM
 70
     7
  9
$LOFTNORMALS
280
     1
  9
$LATITUDE
 40
37.795
  9
$LONGITUDE
 40
-122.394
  9
$NORTHDIRECTION
 40
0.0
  9
$TIMEZONE
 70
 -8000
  9
$LIGHTGLYPHDISPLAY
280
     1
  9
$TILEMODELIGHTSYNCH
280
     1
  9
$CMATERIAL
347
44
  9
$SOLIDHIST
280
     0
  9
$SHOWHIST
280
     1
  9
$DWFFRAME
280
     2
  9
$DGNFRAME
280
     2
  9
$REALWORLDSCALE
290
     1
  9
$INTERFERECOLOR
 62
   256
  9
$CSHADOW
280
     0
  9
$SHADOWPLANELOCATION
 40
0.0
  0
ENDSEC
  0
SECTION
  2
CLASSES
  0
CLASS
  1
ACDBDICTIONARYWDFLT
  2
AcDbDictionaryWithDefault
  3
ObjectDBX Classes
 90
        0
 91
        4
280
     0
281
     0
  0
CLASS
  1
VISUALSTYLE
  2
AcDbVisualStyle
  3
ObjectDBX Classes
 90
     4095
 91
        4
280
     0
281
     0
  0
CLASS
  1
MATERIAL
  2
AcDbMaterial
  3
ObjectDBX Classes
 90
     1153
 91
        4
280
     0
281
     0
  0
CLASS
  1
SCALE
  2
AcDbScale
  3
ObjectDBX Classes
 90
     1153
 91
        4
280
     0
281
     0
  0
CLASS
  1
TABLESTYLE
  2
AcDbTableStyle
  3
ObjectDBX Classes
 90
     4095
 91
        4
280
     0
281
     0
  0
CLASS
  1
MLEADERSTYLE
  2
AcDbMLeaderStyle
  3
ACDB_MLEADERSTYLE_CLASS
 90
     4095
 91
        4
280
     0
281
     0
  0
CLASS
  1
SUN
  2
AcDbSun
  3
SCENEOE
 90
     1153
 91
        4
280
     0
281
     0
  0
CLASS
  1
DICTIONARYVAR
  2
AcDbDictionaryVar
  3
ObjectDBX Classes
 90
        0
 91
        4
280
     0
281
     0
  0
CLASS
  1
CELLSTYLEMAP
  2
AcDbCellStyleMap
  3
ObjectDBX Classes
 90
     1152
 91
        4
280
     0
281
     0
  0
ENDSEC
  0
SECTION
  2
TABLES
  0
TABLE
  2
VPORT
  5
8
330
0
100
AcDbSymbolTable
 70
     1
  0
VPORT
  5
29
330
8
100
AcDbSymbolTableRecord
100
AcDbViewportTableRecord
  2
*Active
 70
     0
 10
0.0
 20
0.0
 11
1.0
 21
1.0
 12
344.186916
 22
148.5
 13
0.0
 23
0.0
 14
10.0
 24
10.0
 15
10.0
 25
10.0
 16
0.0
 26
0.0
 36
1.0
 17
0.0
 27
0.0
 37
0.0
 40
297.0
 41
1.972973
 42
50.0
 43
0.0
 44
0.0
 50
0.0
 51
0.0
 71
     0
 72
   100
 73
     1
 74
     3
 75
     0
 76
     0
 77
     0
 78
     0
281
     0
 65
     1
110
0.0
120
0.0
130
0.0
111
1.0
121
0.0
131
0.0
112
0.0
122
1.0
132
0.0
 79
     0
146
0.0
348
2F
 60
     3
 61
     5
292
     1
282
     1
141
0.0
142
0.0
 63
   250
361
6D
  0
ENDTAB
  0
TABLE
  2
LTYPE
  5
5
330
0
100
AcDbSymbolTable
 70
     1
  0
LTYPE
  5
14
330
5
100
AcDbSymbolTableRecord
100
AcDbLinetypeTableRecord
  2
ByBlock
 70
     0
  3

 72
    65
 73
     0
 40
0.0
  0
LTYPE
  5
15
330
5
100
AcDbSymbolTableRecord
100
AcDbLinetypeTableRecord
  2
ByLayer
 70
     0
  3

 72
    65
 73
     0
 40
0.0
  0
LTYPE
  5
16
330
5
100
AcDbSymbolTableRecord
100
AcDbLinetypeTableRecord
  2
Continuous
 70
     0
  3
Solid line
 72
    65
 73
     0
 40
0.0
  0
ENDTAB
  0
TABLE
  2
LAYER
  5
2
330
0
100
AcDbSymbolTable
 70
     1
  0
LAYER
  5
10
330
2
100
AcDbSymbolTableRecord
100
AcDbLayerTableRecord
  2
0
 70
     0
 62
   106
  6
Continuous
370
     0
390
F
347
46
  0
ENDTAB
  0
TABLE
  2
STYLE
  5
3
330
0
100
AcDbSymbolTable
 70
     4
  0
STYLE
  5
11
330
3
100
AcDbSymbolTableRecord
100
AcDbTextStyleTableRecord
  2
Standard
 70
     0
 40
0.0
 41
1.0
 50
0.0
 71
     0
 42
2.5
  3
txt
  4

  0
STYLE
  5
6E
330
3
100
AcDbSymbolTableRecord
100
AcDbTextStyleTableRecord
  2
Default
 70
     0
 40
0.0
 41
1.0
 50
0.0
 71
     0
 42
2.5
  3

  4

1001
ACAD
1000
txt
1071
        0
  0
STYLE
  5
6F
330
3
100
AcDbSymbolTableRecord
100
AcDbTextStyleTableRecord
  2
ISO
 70
     0
 40
0.0
 41
1.0
 50
0.0
 71
     0
 42
2.5
  3

  4

1001
ACAD
1000
txt
1071
        0
  0
STYLE
  5
70
330
3
100
AcDbSymbolTableRecord
100
AcDbTextStyleTableRecord
  2
zucchetti
 70
     0
 40
0.0
 41
1.0
 50
0.0
 71
     0
 42
2.5
  3

  4

1001
ACAD
1000
Arial
1071
        0
  0
ENDTAB
  0
TABLE
  2
VIEW
  5
6
330
0
100
AcDbSymbolTable
 70
     0
  0
ENDTAB
  0
TABLE
  2
UCS
  5
7
330
0
100
AcDbSymbolTable
 70
     0
  0
ENDTAB
  0
TABLE
  2
APPID
  5
9
330
0
100
AcDbSymbolTable
 70
     1
  0
APPID
  5
12
330
9
100
AcDbSymbolTableRecord
100
AcDbRegAppTableRecord
  2
ACAD
 70
     0
  0
ENDTAB
  0
TABLE
  2
DIMSTYLE
  5
A
330
0
100
AcDbSymbolTable
 70
     4
100
AcDbDimStyleTable
  0
DIMSTYLE
105
27
330
A
100
AcDbSymbolTableRecord
100
AcDbDimStyleTableRecord
  2
ISO-25
 70
     0
 41
2.5
 42
0.625
 43
3.75
 44
1.25
 73
     0
 74
     0
 77
     1
 78
     8
140
2.5
141
2.5
143
0.03937
147
0.625
171
     3
172
     1
178
     0
271
     2
272
     2
274
     3
278
    44
283
     0
284
     8
340
11
  0
DIMSTYLE
105
71
330
A
100
AcDbSymbolTableRecord
100
AcDbDimStyleTableRecord
  2
Default
 70
     0
  3
<>
 41
4.375
 42
1.05
 44
2.1
 49
10.01
 73
     0
 74
     0
 77
     1
 78
     8
140
3.5
146
0.4
147
1.75
172
     1
271
     2
178
     3
271
     2
272
     3
284
     8
340
6E
341
72
342
72
  0
DIMSTYLE
105
79
330
A
100
AcDbSymbolTableRecord
100
AcDbDimStyleTableRecord
  2
ISO
 70
     0
  3
<>
 41
4.375
 42
1.05
 44
2.1
 49
10.01
 73
     0
 74
     0
 77
     1
 78
     8
140
3.5
146
0.4
147
1.75
172
     1
271
     2
178
     3
271
     2
272
     3
284
     8
340
6F
341
72
342
72
  0
DIMSTYLE
105
7A
330
A
100
AcDbSymbolTableRecord
100
AcDbDimStyleTableRecord
  2
zucchetti
 70
     0
  3
<>
 41
3.0
 42
0.9
 44
1.8
 49
8.58
 73
     0
 74
     0
 77
     1
 78
     8
140
3.0
146
0.6
147
1.5
172
     1
176
     3
177
     3
271
     2
178
     3
271
     2
272
     2
284
     8
340
70
  0
ENDTAB
  0
TABLE
  2
BLOCK_RECORD
  5
1
330
0
100
AcDbSymbolTable
 70
     6
  0
BLOCK_RECORD
  5
1F
330
1
100
AcDbSymbolTableRecord
100
AcDbBlockTableRecord
  2
*Model_Space
340
22
 70
     0
280
     1
281
     0
  0
BLOCK_RECORD
  5
1B
330
1
100
AcDbSymbolTableRecord
100
AcDbBlockTableRecord
  2
*Paper_Space
340
1E
 70
     0
280
     1
281
     0
  0
BLOCK_RECORD
  5
23
330
1
100
AcDbSymbolTableRecord
100
AcDbBlockTableRecord
  2
*Paper_Space0
340
26
 70
     0
280
     1
281
     0
  0
BLOCK_RECORD
  5
72
330
1
100
AcDbSymbolTableRecord
100
AcDbBlockTableRecord
  2
_CLOSED
340
0
 70
     0
280
     1
281
     0
  0
BLOCK_RECORD
  5
7B
330
1
100
AcDbSymbolTableRecord
100
AcDbBlockTableRecord
  2
a
340
0
102
{BLKREFS
331
D4
102
}
 70
     0
280
     1
281
     0
  0
BLOCK_RECORD
  5
D5
330
1
100
AcDbSymbolTableRecord
100
AcDbBlockTableRecord
  2
b
340
0
102
{BLKREFS
331
125
102
}
 70
     0
280
     1
281
     0
  0
BLOCK_RECORD
  5
126
330
1
100
AcDbSymbolTableRecord
100
AcDbBlockTableRecord
  2
c
340
0
102
{BLKREFS
331
17E
102
}
 70
     0
280
     1
281
     0
  0
BLOCK_RECORD
  5
17F
330
1
100
AcDbSymbolTableRecord
100
AcDbBlockTableRecord
  2
d
340
0
102
{BLKREFS
331
1E8
102
}
 70
     0
280
     1
281
     0
  0
ENDTAB
  0
ENDSEC
  0
SECTION
  2
BLOCKS
  0
BLOCK
  5
20
330
1F
100
AcDbEntity
  8
0
100
AcDbBlockBegin
  2
*Model_Space
 70
     0
 10
0.0
 20
0.0
 30
0.0
  3
*Model_Space
  1

  0
ENDBLK
  5
21
330
1F
100
AcDbEntity
  8
0
100
AcDbBlockEnd
  0
BLOCK
  5
1C
330
1B
100
AcDbEntity
 67
     1
  8
0
100
AcDbBlockBegin
  2
*Paper_Space
 70
     0
 10
0.0
 20
0.0
 30
0.0
  3
*Paper_Space
  1

  0
ENDBLK
  5
1D
330
1B
100
AcDbEntity
 67
     1
  8
0
100
AcDbBlockEnd
  0
BLOCK
  5
24
330
23
100
AcDbEntity
  8
0
100
AcDbBlockBegin
  2
*Paper_Space0
 70
     0
 10
0.0
 20
0.0
 30
0.0
  3
*Paper_Space0
  1

  0
ENDBLK
  5
25
330
23
100
AcDbEntity
  8
0
100
AcDbBlockEnd
  0
BLOCK
  5
73
330
72
100
AcDbEntity
  8
0
100
AcDbBlockBegin
  2
_CLOSED
 70
     0
 10
0.0
 20
0.0
 30
0.0
  3
_CLOSED
  1

  0
LINE
  5
75
330
72
100
AcDbEntity
  8
0
  6
ByBlock
 62
     0
370
    -2
100
AcDbLine
 10
-1.0
 20
0.166667
 30
0.0
 11
0.0
 21
0.0
 31
0.0
  0
LINE
  5
76
330
72
100
AcDbEntity
  8
0
  6
ByBlock
 62
     0
370
    -2
100
AcDbLine
 10
0.0
 20
0.0
 30
0.0
 11
-1.0
 21
-0.166667
 31
0.0
  0
LINE
  5
77
330
72
100
AcDbEntity
  8
0
  6
ByBlock
 62
     0
370
    -2
100
AcDbLine
 10
-1.0
 20
0.166667
 30
0.0
 11
-1.0
 21
-0.166667
 31
0.0
  0
LINE
  5
78
330
72
100
AcDbEntity
  8
0
  6
ByBlock
 62
     0
370
    -2
100
AcDbLine
 10
0.0
 20
0.0
 30
0.0
 11
-1.0
 21
0.0
 31
0.0
  0
ENDBLK
  5
74
330
72
100
AcDbEntity
  8
0
100
AcDbBlockEnd
  0
BLOCK
  5
D2
330
7B
100
AcDbEntity
  8
0
100
AcDbBlockBegin
  2
a
 70
     0
 10
188.883301
 20
145.379242
 30
0.0
  3
a
  1

  0
ARC
  5
7C
330
7B
100
AcDbEntity
  8
0
  6
Continuous
 62
     0
370
    30
100
AcDbCircle
 10
338.495716
 20
470.661632
 30
0.0
 40
22.00000080727037
100
AcDbArc
 50
90.000002
 51
179.833364
  0
LWPOLYLINE
  5
7D
330
7B
100
AcDbEntity
  8
0
  6
Continuous
 62
     0
370
     0
100
AcDbPolyline
 90
        5
 70
     0
 43
0.0
 10
316.495819
 20
470.725616
 10
316.533508
 20
470.75882
 10
316.640472
 20
470.787018
 10
316.801453
 20
470.805786
 10
316.995819
 20
470.812439
  0
ARC
  5
7E
330
7B
100
AcDbEntity
  8
0
  6
Continuous
 62
     0
370
     0
100
AcDbCircle
 10
338.495995
 20
470.748176
 30
0.0
 40
21.50028067613265
100
AcDbArc
 50
90.000745
 51
179.82871
  0
LINE
  5
7F
330
7B
100
AcDbEntity
  8
0
  6
Continuous
 62
     0
370
     0
100
AcDbLine
 10
338.495715
 20
492.248457
 30
0.0
 11
338.495715
 21
492.661633
 31
0.0
  0
LINE
  5
80
330
7B
100
AcDbEntity
  8
0
  6
Continuous
 62
     0
370
    30
100
AcDbLine
 10
316.495808
 20
470.725572
 30
0.0
 11
316.500298
 21
470.364016
 31
0.0
  0
LWPOLYLINE
  5
81
330
7B
100
AcDbEntity
  8
0
  6
Continuous
 62
     0
370
     0
100
AcDbPolyline
 90
        5
 70
     0
 43
0.0
 10
316.500305
 20
470.364014
 10
316.537933
 20
470.397858
 10
316.645142
 20
470.428192
 10
316.805786
 20
470.450439
 10
317.000183
 20
470.461395
  0
LINE
  5
82
330
7B
100
AcDbEntity
  8
0
  6
Continuous
 62
     0
370
     0
100
AcDbLine
 10
317.000184
 20
470.461381
 30
0.0
 11
316.99581
 21
470.812453
 31
0.0
  0
LINE
  5
83
330
7B
100
AcDbEntity
  8
0
  6
Continuous
 62
     0
370
     0
100
AcDbLine
 10
317.000184
 20
470.461381
 30
0.0
 11
318.095601
 21
420.079114
 31
0.0
  0
LWPOLYLINE
  5
84
330
7B
100
AcDbEntity
  8
0
  6
Continuous
 62
     0
370
     0
100
AcDbPolyline
 90
       53
 70
     0
 43
0.0
 10
318.095612
 20
420.079102
 10
318.149506
 20
418.987549
 10
318.266632
 20
417.877869
 10
318.450226
 20
416.754852
 10
318.703125
 20
415.623901
 10
319.027588
 20
414.490906
 10
319.425171
 20
413.362122
 10
319.89679
 20
412.244202
 10
320.442474
 20
411.143982
 10
321.061401
 20
410.06842
 10
321.751923
 20
409.024506
 10
322.511414
 20
408.018982
 10
323.336426
 20
407.058411
 10
324.222656
 20
406.148804
 10
325.16507
 20
405.295715
 10
326.157928
 20
404.503998
 10
327.194977
 20
403.77774
 10
328.269562
 20
403.120239
 10
329.374695
 20
402.533844
 10
330.503326
 20
402.020142
 10
331.648346
 20
401.579742
 10
332.802795
 20
401.212433
 10
333.959991
 20
400.917267
 10
335.113525
 20
400.692474
 10
336.257568
 20
400.535767
 10
337.386658
 20
400.444214
 10
338.495972
 20
400.41452
 10
339.605225
 20
400.444244
 10
340.734283
 20
400.535797
 10
341.878296
 20
400.692535
 10
343.031799
 20
400.917358
 10
344.188965
 20
401.212555
 10
345.343384
 20
401.579865
 10
346.488373
 20
402.020264
 10
347.616974
 20
402.533997
 10
348.722107
 20
403.120361
 10
349.796661
 20
403.777893
 10
350.833679
 20
404.50415
 10
351.826538
 20
405.295898
 10
352.768921
 20
406.148987
 10
353.655121
 20
407.058594
 10
354.480133
 20
408.019226
 10
355.239624
 20
409.02475
 10
355.930115
 20
410.068695
 10
356.549072
 20
411.144257
 10
357.094727
 20
412.244507
 10
357.566345
 20
413.362457
 10
357.963928
 20
414.491272
 10
358.288361
 20
415.624298
 10
358.541229
 20
416.75528
 10
358.724823
 20
417.878326
 10
358.841919
 20
418.988068
 10
358.895844
 20
420.081299
  0
LINE
  5
85
330
7B
100
AcDbEntity
  8
0
  6
Continuous
 62
     0
370
     0
100
AcDbLine
 10
358.895829
 20
420.081298
 30
0.0
 11
359.98611
 21
470.483326
 31
0.0
  0
ARC
  5
86
330
7B
100
AcDbEntity
  8
0
  6
Continuous
 62
     0
370
     0
100
AcDbCircle
 10
340.737944
 20
470.899769
 30
0.0
 40
19.25267085177587
100
AcDbArc
 50
358.760571
 51
3.855982
  0
ARC
  5
87
330
7B
100
AcDbEntity
  8
0
  6
Continuous
 62
     0
370
     0
100
AcDbCircle
 10
338.495715
 20
470.748457
 30
0.0
 40
21.49999998924797
100
AcDbArc
 50
3.85647
 51
90.0
  0
ARC
  5
88
330
7B
100
AcDbEntity
  8
0
  6
Continuous
 62
     0
370
    30
100
AcDbCircle
 10
341.098669
 20
470.661633
 30
0.0
 40
19.3970458486774
100
AcDbArc
 50
358.760785
 51
359.999998
  0
LINE
  5
89
330
7B
100
AcDbEntity
  8
0
  6
Continuous
 62
     0
370
    30
100
AcDbLine
 10
360.495094
 20
470.826918
 30
0.0
 11
360.495715
 21
470.661633
 31
0.0
  0
ARC
  5
8A
330
7B
100
AcDbEntity
  8
0
  6
Continuous
 62
     0
370
    30
100
AcDbCircle
 10
338.475107
 20
470.660909
 30
0.0
 40
22.02061852705251
100
AcDbArc
 50
0.75279
 51
2.103501
  0
ARC
  5
8B
330
7B
100
AcDbEntity
  8
0
  6
Continuous
 62
     0
370
    30
100
AcDbCircle
 10
340.735989
 20
470.812937
 30
0.0
 40
19.754621254108
100
AcDbArc
 50
358.761667
 51
3.855628
  0
LWPOLYLINE
  5
8C
330
7B
100
AcDbEntity
  8
0
  6
Continuous
 62
     0
370
     0
100
AcDbPolyline
 90
        4
 70
     0
 43
0.0
 10
360.49118
 20
470.242126
 10
360.490082
 20
470.308502
 10
360.48819
 20
470.351624
 10
360.485992
 20
470.386017
  0
ARC
  5
8D
330
7B
100
AcDbEntity
  8
0
  6
Continuous
 62
     0
370
    30
100
AcDbCircle
 10
338.495115
 20
470.660991
 30
0.0
 40
22.00064234342175
100
AcDbArc
 50
3.858034
 51
89.998436
  0
LWPOLYLINE
  5
8E
330
7B
100
AcDbEntity
  8
0
  6
Continuous
 62
     0
370
     0
100
AcDbPolyline
 90
        5
 70
     0
 43
0.0
 10
359.947021
 20
472.194489
 10
360.135132
 20
472.200378
 10
360.295441
 20
472.192596
 10
360.404358
 20
472.172272
 10
360.445892
 20
472.141296
  0
LWPOLYLINE
  5
8F
330
7B
100
AcDbEntity
  8
0
  6
Continuous
 62
     0
370
     0
100
AcDbPolyline
 90
        5
 70
     0
 43
0.0
 10
360.485992
 20
470.386017
 10
360.448364
 20
470.419861
 10
360.341156
 20
470.450165
 10
360.180511
 20
470.472412
 10
359.986115
 20
470.483337
  0
ELLIPSE
  5
90
330
7B
100
AcDbEntity
  8
0
  6
Continuous
 62
     0
370
     0
100
AcDbEllipse
 10
358.895829
 20
419.994474
 30
0.0
 11
-0.4998830584178284
 21
0.01081332080537493
 31
0.0
210
0.0
220
0.0
230
-1.0
 40
0.173609
 41
1.567040891222432
 42
3.137837218018213
  0
LINE
  5
91
330
7B
100
AcDbEntity
  8
0
  6
Continuous
 62
     0
370
     0
100
AcDbLine
 10
359.395715
 20
419.983986
 30
0.0
 11
360.485997
 21
470.386014
 31
0.0
  0
LWPOLYLINE
  5
92
330
7B
100
AcDbEntity
  8
0
  6
Continuous
 62
     0
370
     0
100
AcDbPolyline
 90
        5
 70
     0
 43
0.0
 10
318.095612
 20
420.079102
 10
317.905334
 20
420.068573
 10
317.743713
 20
420.046539
 10
317.635071
 20
420.016357
 10
317.595703
 20
419.98175
  0
LWPOLYLINE
  5
93
330
7B
100
AcDbEntity
  8
0
  6
Continuous
 62
     0
370
     0
100
AcDbPolyline
 90
       52
 70
     0
 43
0.0
 10
317.595703
 20
419.98175
 10
317.661469
 20
418.734131
 10
317.804047
 20
417.491455
 10
318.022858
 20
416.259155
 10
318.317322
 20
415.042572
 10
318.686157
 20
413.846191
 10
319.127991
 20
412.674194
 10
319.641357
 20
411.530762
 10
320.224274
 20
410.420013
 10
320.874512
 20
409.346039
 10
321.589752
 20
408.312988
 10
322.367432
 20
407.324646
 10
323.204529
 20
406.384583
 10
324.098022
 20
405.496338
 10
325.044708
 20
404.663177
 10
326.040924
 20
403.888062
 10
327.083099
 20
403.17392
 10
328.167389
 20
402.523499
 10
329.289764
 20
401.939056
 10
330.446075
 20
401.422729
 10
331.632111
 20
400.976593
 10
332.843475
 20
400.602142
 10
334.075653
 20
400.300751
 10
335.324127
 20
400.073639
 10
336.58432
 20
399.9216
 10
337.851562
 20
399.845093
 10
339.121185
 20
399.844513
 10
340.388489
 20
399.919922
 10
341.648834
 20
400.070862
 10
342.897522
 20
400.296875
 10
344.129974
 20
400.597198
 10
345.341675
 20
400.970581
 10
346.528107
 20
401.41568
 10
347.684875
 20
401.931
 10
348.80777
 20
402.514465
 10
349.89267
 20
403.16391
 10
350.935486
 20
403.877136
 10
351.932404
 20
404.651367
 10
352.879852
 20
405.483704
 10
353.774139
 20
406.371185
 10
354.612091
 20
407.310516
 10
355.390656
 20
408.298157
 10
356.106842
 20
409.330597
 10
356.758057
 20
410.403961
 10
357.34198
 20
411.514191
 10
357.856354
 20
412.657196
 10
358.299255
 20
413.828796
 10
358.669189
 20
415.024841
 10
358.964722
 20
416.24118
 10
359.184692
 20
417.473297
 10
359.328369
 20
418.715851
 10
359.395721
 20
419.983978
  0
LINE
  5
94
330
7B
100
AcDbEntity
  8
0
  6
Continuous
 62
     0
370
     0
100
AcDbLine
 10
316.500298
 20
470.364016
 30
0.0
 11
317.595715
 21
419.981749
 31
0.0
  0
LINE
  5
95
330
7B
100
AcDbEntity
  8
0
  6
Continuous
 62
     0
370
    30
100
AcDbLine
 10
316.495715
 20
468.994142
 30
0.0
 11
316.495715
 21
470.661633
 31
0.0
  0
ARC
  5
96
330
7B
100
AcDbEntity
  8
0
  6
Continuous
 62
     0
370
    30
100
AcDbCircle
 10
331.948504
 20
468.996051
 30
0.0
 40
15.45278861479042
100
AcDbArc
 50
180.007077
 51
181.395498
  0
LINE
  5
97
330
7B
100
AcDbEntity
  8
0
  6
Continuous
 62
     0
370
     0
100
AcDbLine
 10
316.500298
 20
468.619719
 30
0.0
 11
316.500298
 21
470.364016
 31
0.0
  0
LWPOLYLINE
  5
98
330
7B
100
AcDbEntity
  8
0
  6
Continuous
 62
     0
370
     0
100
AcDbPolyline
 90
       14
 70
     0
 43
0.0
 10
316.500305
 20
468.61972
 10
316.530212
 20
467.454102
 10
316.560822
 20
466.252289
 10
316.592499
 20
464.988617
 10
316.625427
 20
463.654602
 10
316.659607
 20
462.246857
 10
316.695007
 20
460.764404
 10
316.731598
 20
459.207855
 10
316.769257
 20
457.579407
 10
316.807831
 20
455.884613
 10
316.847198
 20
454.13089
 10
316.887207
 20
452.327271
 10
316.927643
 20
450.484772
 10
316.969727
 20
448.553558
  0
LINE
  5
99
330
7B
100
AcDbEntity
  8
0
  6
Continuous
 62
     0
370
     0
100
AcDbLine
 10
316.969725
 20
448.553567
 30
0.0
 11
317.595715
 21
419.747429
 31
0.0
  0
LINE
  5
9A
330
7B
100
AcDbEntity
  8
0
  6
Continuous
 62
     0
370
     0
100
AcDbLine
 10
317.595715
 20
419.747429
 30
0.0
 11
317.595715
 21
419.981749
 31
0.0
  0
LWPOLYLINE
  5
9B
330
7B
100
AcDbEntity
  8
0
  6
Continuous
 62
     0
370
     0
100
AcDbPolyline
 90
       52
 70
     0
 43
0.0
 10
317.595703
 20
419.747437
 10
317.661346
 20
418.499939
 10
317.804138
 20
417.256592
 10
318.023376
 20
416.022919
 10
318.317871
 20
414.80603
 10
318.686401
 20
413.611328
 10
319.127686
 20
412.441437
 10
319.640381
 20
411.299561
 10
320.222961
 20
410.18988
 10
320.873413
 20
409.116516
 10
321.58902
 20
408.08371
 10
322.367188
 20
407.095642
 10
323.20517
 20
406.156403
 10
324.099457
 20
405.26944
 10
325.046326
 20
404.438141
 10
326.042114
 20
403.665802
 10
327.08313
 20
402.955292
 10
328.165863
 20
402.308655
 10
329.286804
 20
401.727936
 10
330.442505
 20
401.215118
 10
331.628693
 20
400.771973
 10
332.840576
 20
400.400085
 10
334.073456
 20
400.101044
 10
335.322601
 20
399.876099
 10
336.583344
 20
399.725708
 10
337.851074
 20
399.650085
 10
339.121124
 20
399.649506
 10
340.388916
 20
399.723999
 10
341.649811
 20
399.873291
 10
342.899139
 20
400.097107
 10
344.132294
 20
400.39505
 10
345.344574
 20
400.765839
 10
346.531158
 20
401.207916
 10
347.687378
 20
401.719696
 10
348.808868
 20
402.299408
 10
349.892181
 20
402.945068
 10
350.933868
 20
403.654633
 10
351.930359
 20
404.426056
 10
352.877991
 20
405.2565
 10
353.773102
 20
406.142609
 10
354.611969
 20
407.081116
 10
355.391052
 20
408.068481
 10
356.107635
 20
409.100647
 10
356.759064
 20
410.173401
 10
357.342743
 20
411.282593
 10
357.856476
 20
412.423981
 10
358.298859
 20
413.593475
 10
358.668488
 20
414.787811
 10
358.964111
 20
416.004395
 10
359.184509
 20
417.237854
 10
359.32843
 20
418.48111
 10
359.395721
 20
419.749664
  0
LINE
  5
9C
330
7B
100
AcDbEntity
  8
0
  6
Continuous
 62
     0
370
     0
100
AcDbLine
 10
359.395715
 20
419.749665
 30
0.0
 11
359.395715
 21
419.983986
 31
0.0
  0
LINE
  5
9D
330
7B
100
AcDbEntity
  8
0
  6
Continuous
 62
     0
370
     0
100
AcDbLine
 10
359.395715
 20
419.749665
 30
0.0
 11
360.01842
 21
448.550841
 31
0.0
  0
LWPOLYLINE
  5
9E
330
7B
100
AcDbEntity
  8
0
  6
Continuous
 62
     0
370
     0
100
AcDbPolyline
 90
       14
 70
     0
 43
0.0
 10
360.018433
 20
448.550842
 10
360.059601
 20
450.449951
 10
360.100525
 20
452.323181
 10
360.141022
 20
454.156433
 10
360.180847
 20
455.938202
 10
360.219849
 20
457.658966
 10
360.257904
 20
459.311066
 10
360.29483
 20
460.888794
 10
360.330536
 20
462.389557
 10
360.36496
 20
463.812622
 10
360.398102
 20
465.159058
 10
360.429962
 20
466.432373
 10
360.460663
 20
467.641693
 10
360.49118
 20
468.833649
  0
LINE
  5
9F
330
7B
100
AcDbEntity
  8
0
  6
Continuous
 62
     0
370
     0
100
AcDbLine
 10
360.491179
 20
468.833663
 30
0.0
 11
360.491179
 21
470.24214
 31
0.0
  0
ARC
  5
A0
330
7B
100
AcDbEntity
  8
0
  6
Continuous
 62
     0
370
    30
100
AcDbCircle
 10
345.046588
 20
469.208041
 30
0.0
 40
15.44912745859609
100
AcDbArc
 50
358.611419
 51
359.992254
  0
LINE
  5
A1
330
7B
100
AcDbEntity
  8
0
  6
Continuous
 62
     0
370
    30
100
AcDbLine
 10
360.495715
 20
469.205953
 30
0.0
 11
360.495715
 21
470.465858
 31
0.0
  0
LINE
  5
A2
330
7B
100
AcDbEntity
  8
0
  6
Continuous
 62
     0
370
     0
100
AcDbLine
 10
360.491179
 20
468.833663
 30
0.0
 11
360.490543
 21
468.804537
 31
0.0
  0
LINE
  5
A3
330
7B
100
AcDbEntity
  8
0
  6
Continuous
 62
     0
370
     0
100
AcDbLine
 10
316.500298
 20
468.619719
 30
0.0
 11
316.500934
 21
468.590747
 31
0.0
  0
LWPOLYLINE
  5
A4
330
7B
100
AcDbEntity
  8
0
  6
Continuous
 62
     0
370
    30
100
AcDbPolyline
 90
       14
 70
     0
 43
0.0
 10
316.969727
 20
448.552612
 10
316.92981
 20
450.385803
 10
316.889923
 20
452.203461
 10
316.85022
 20
453.995239
 10
316.810883
 20
455.749115
 10
316.772125
 20
457.452362
 10
316.734253
 20
459.092621
 10
316.697449
 20
460.660461
 10
316.661835
 20
462.152344
 10
316.627472
 20
463.569183
 10
316.59433
 20
464.911743
 10
316.562469
 20
466.183105
 10
316.531708
 20
467.391907
 10
316.500946
 20
468.590759
  0
LWPOLYLINE
  5
A5
330
7B
100
AcDbEntity
  8
0
  6
Continuous
 62
     0
370
    30
100
AcDbPolyline
 90
       52
 70
     0
 43
0.0
 10
317.595734
 20
419.74649
 10
317.661469
 20
418.49646
 10
317.804047
 20
417.252106
 10
318.023132
 20
416.018646
 10
318.31781
 20
414.800812
 10
318.686768
 20
413.602905
 10
319.128723
 20
412.429291
 10
319.642303
 20
411.28418
 10
320.225616
 20
410.171875
 10
320.876312
 20
409.096405
 10
321.59198
 20
408.06189
 10
322.370209
 20
407.072388
 10
323.207947
 20
406.131439
 10
324.101898
 20
405.242493
 10
325.048889
 20
404.408966
 10
326.045563
 20
403.634155
 10
327.088104
 20
402.920746
 10
328.172546
 20
402.27121
 10
329.294861
 20
401.687958
 10
330.450989
 20
401.17334
 10
331.636658
 20
400.729034
 10
332.847412
 20
400.356476
 10
334.078827
 20
400.057007
 10
335.326416
 20
399.831665
 10
336.585541
 20
399.680847
 10
337.851624
 20
399.60495
 10
339.120056
 20
399.60437
 10
340.38623
 20
399.679047
 10
341.645508
 20
399.828674
 10
342.89328
 20
400.052887
 10
344.125
 20
400.351288
 10
345.336121
 20
400.722687
 10
346.522217
 20
401.165863
 10
347.678802
 20
401.679474
 10
348.801697
 20
402.261688
 10
349.88678
 20
402.910126
 10
350.929993
 20
403.622528
 10
351.927338
 20
404.396515
 10
352.875122
 20
405.229187
 10
353.769989
 20
406.117249
 10
354.608643
 20
407.057373
 10
355.387756
 20
408.046204
 10
356.104431
 20
409.080017
 10
356.756226
 20
410.154816
 10
357.340546
 20
411.266602
 10
357.855103
 20
412.411346
 10
358.298187
 20
413.584717
 10
358.668365
 20
414.782349
 10
358.964264
 20
415.999786
 10
359.184509
 20
417.232666
 10
359.328278
 20
418.476624
 10
359.395691
 20
419.748718
  0
LWPOLYLINE
  5
A6
330
7B
100
AcDbEntity
  8
0
  6
Continuous
 62
     0
370
    30
100
AcDbPolyline
 90
       14
 70
     0
 43
0.0
 10
360.018402
 20
448.549896
 10
360.058777
 20
450.41214
 10
360.099091
 20
452.257355
 10
360.139221
 20
454.074951
 10
360.178955
 20
455.852783
 10
360.218048
 20
457.578247
 10
360.256256
 20
459.239075
 10
360.293365
 20
460.825623
 10
360.329254
 20
462.333893
 10
360.363831
 20
463.763855
 10
360.397125
 20
465.11676
 10
360.429108
 20
466.395935
 10
360.459961
 20
467.610687
 10
360.49054
 20
468.804535
  0
LINE
  5
A7
330
7B
100
AcDbEntity
  8
0
  6
Continuous
 62
     0
370
    30
100
AcDbLine
 10
360.477171
 20
471.564712
 30
0.0
 11
360.480887
 21
471.469171
 31
0.0
  0
LINE
  5
A8
330
7B
100
AcDbEntity
  8
0
  6
Continuous
 62
     0
370
    30
100
AcDbLine
 10
360.493825
 20
470.950222
 30
0.0
 11
360.495094
 21
470.826918
 31
0.0
  0
ARC
  5
A9
330
7B
100
AcDbEntity
  8
0
  6
Continuous
 62
     0
370
    30
100
AcDbCircle
 10
338.545715
 20
470.705658
 30
0.0
 40
22.5
100
AcDbArc
 50
346.276234
 51
107.99563
  0
ARC
  5
AA
330
7B
100
AcDbEntity
  8
0
  6
Continuous
 62
     0
370
    30
100
AcDbCircle
 10
338.545715
 20
470.705658
 30
0.0
 40
22.5
100
AcDbArc
 50
107.99563
 51
192.395687
  0
ARC
  5
AB
330
7B
100
AcDbEntity
  8
0
  6
Continuous
 62
     0
370
     0
100
AcDbCircle
 10
338.545715
 20
470.705658
 30
0.0
 40
29.50000000000001
100
AcDbArc
 50
316.830973
 51
107.99563
  0
ARC
  5
AC
330
7B
100
AcDbEntity
  8
0
  6
Continuous
 62
     0
370
     0
100
AcDbCircle
 10
338.545715
 20
470.705658
 30
0.0
 40
29.50000000000002
100
AcDbArc
 50
107.99563
 51
222.867503
  0
ARC
  5
AD
330
7B
100
AcDbEntity
  8
0
  6
Continuous
 62
     0
370
    30
100
AcDbCircle
 10
338.545715
 20
470.705658
 30
0.0
 40
30.0
100
AcDbArc
 50
107.99563
 51
223.931397
  0
ARC
  5
AE
330
7B
100
AcDbEntity
  8
0
  6
Continuous
 62
     0
370
    30
100
AcDbCircle
 10
338.545715
 20
470.705658
 30
0.0
 40
30.0
100
AcDbArc
 50
315.778293
 51
107.99563
  0
ARC
  5
AF
330
7B
100
AcDbEntity
  8
0
  6
Continuous
 62
     0
370
    30
100
AcDbCircle
 10
338.545715
 20
470.658462
 30
0.0
 40
22.1
100
AcDbArc
 50
52.241557
 51
183.854854
  0
ARC
  5
B0
330
7B
100
AcDbEntity
  8
0
  6
Continuous
 62
     0
370
    30
100
AcDbCircle
 10
338.545715
 20
470.658462
 30
0.0
 40
22.1
100
AcDbArc
 50
352.687768
 51
52.241557
  0
LINE
  5
B1
330
7B
100
AcDbEntity
  8
0
  6
Continuous
 62
     0
370
    30
100
AcDbLine
 10
277.545716
 20
480.705658
 30
0.0
 11
239.545716
 21
480.705658
 31
0.0
  0
ARC
  5
B2
330
7B
100
AcDbEntity
  8
0
  6
Continuous
 62
     0
370
    30
100
AcDbCircle
 10
239.545716
 20
479.205658
 30
0.0
 40
1.500000000001062
100
AcDbArc
 50
90.0
 51
180.0
  0
LINE
  5
B3
330
7B
100
AcDbEntity
  8
0
  6
Continuous
 62
     0
370
     0
100
AcDbLine
 10
238.045716
 20
479.205658
 30
0.0
 11
279.045716
 21
479.205658
 31
0.0
  0
ARC
  5
B4
330
7B
100
AcDbEntity
  8
0
  6
Continuous
 62
     0
370
    30
100
AcDbCircle
 10
277.545716
 20
479.205658
 30
0.0
 40
1.499999999999885
100
AcDbArc
 50
360.0
 51
90.0
  0
LWPOLYLINE
  5
B5
330
7B
100
AcDbEntity
  8
0
  6
Continuous
 62
     0
370
     0
100
AcDbPolyline
 90
       14
 70
     0
 43
0.0
 10
276.907593
 20
473.061981
 10
277.221191
 20
472.993713
 10
277.51236
 20
472.982147
 10
277.778992
 20
473.008484
 10
278.020386
 20
473.064789
 10
278.236176
 20
473.145386
 10
278.4263
 20
473.246643
 10
278.59082
 20
473.365906
 10
278.729736
 20
473.501129
 10
278.84317
 20
473.650482
 10
278.931274
 20
473.812622
 10
278.994263
 20
473.986267
 10
279.032318
 20
474.170349
 10
279.045715
 20
474.372833
  0
LINE
  5
B6
330
7B
100
AcDbEntity
  8
0
  6
Continuous
 62
     0
370
    30
100
AcDbLine
 10
279.045716
 20
474.372842
 30
0.0
 11
279.045716
 21
479.205658
 31
0.0
  0
LINE
  5
B7
330
7B
100
AcDbEntity
  8
0
  6
Continuous
 62
     0
370
    30
100
AcDbLine
 10
238.045716
 20
479.205658
 30
0.0
 11
238.045716
 21
474.372842
 31
0.0
  0
LWPOLYLINE
  5
B8
330
7B
100
AcDbEntity
  8
0
  6
Continuous
 62
     0
370
     0
100
AcDbPolyline
 90
       14
 70
     0
 43
0.0
 10
238.045715
 20
474.372833
 10
238.057983
 20
474.178894
 10
238.094925
 20
473.994354
 10
238.156784
 20
473.82019
 10
238.243759
 20
473.657532
 10
238.356049
 20
473.507568
 10
238.49382
 20
473.371674
 10
238.65715
 20
473.251648
 10
238.84613
 20
473.149506
 10
239.06076
 20
473.067932
 10
239.301025
 20
473.010437
 10
239.566528
 20
472.982605
 10
239.856598
 20
472.992157
 10
240.183853
 20
473.061981
  0
LWPOLYLINE
  5
B9
330
7B
100
AcDbEntity
  8
0
  6
Continuous
 62
     0
370
     0
100
AcDbPolyline
 90
       35
 70
     0
 43
0.0
 10
240.183853
 20
473.061981
 10
240.815613
 20
473.015503
 10
241.523972
 20
472.968109
 10
242.30632
 20
472.921082
 10
243.158813
 20
472.876007
 10
244.077454
 20
472.834442
 10
245.0578
 20
472.797272
 10
246.095062
 20
472.765137
 10
247.184479
 20
472.738556
 10
248.321259
 20
472.71814
 10
249.500641
 20
472.704254
 10
250.717911
 20
472.696228
 10
251.968369
 20
472.692963
 10
253.247009
 20
472.69342
 10
254.548233
 20
472.696289
 10
255.866425
 20
472.700378
 10
257.195953
 20
472.704102
 10
258.531158
 20
472.70578
 10
259.866425
 20
472.704193
 10
261.196136
 20
472.7005
 10
262.514618
 20
472.696442
 10
263.816284
 20
472.693542
 10
265.095459
 20
472.693024
 10
266.346588
 20
472.696198
 10
267.564636
 20
472.704132
 10
268.744904
 20
472.717896
 10
269.88266
 20
472.738159
 10
270.973145
 20
472.764587
 10
272.011627
 20
472.796631
 10
272.993256
 20
472.833679
 10
273.9133
 20
472.875153
 10
274.767273
 20
472.920135
 10
275.551208
 20
472.967102
 10
276.2612
 20
473.014465
 10
276.907593
 20
473.061981
  0
LWPOLYLINE
  5
BA
330
7B
100
AcDbEntity
  8
0
  6
Continuous
 62
     0
370
     0
100
AcDbPolyline
 90
       17
 70
     0
 43
0.0
 10
270.117157
 20
462.393921
 10
270.87851
 20
462.659943
 10
271.61554
 20
462.996155
 10
272.322449
 20
463.39978
 10
272.993469
 20
463.868073
 10
273.623138
 20
464.398071
 10
274.207611
 20
464.98587
 10
274.743317
 20
465.627319
 10
275.226776
 20
466.318268
 10
275.654663
 20
467.054443
 10
276.024384
 20
467.830902
 10
276.333618
 20
468.642578
 10
276.579987
 20
469.484375
 10
276.761383
 20
470.350922
 10
276.877075
 20
471.235504
 10
276.926575
 20
472.131042
 10
276.907593
 20
473.061981
  0
ARC
  5
BB
330
7B
100
AcDbEntity
  8
0
  6
Continuous
 62
     0
370
    30
100
AcDbCircle
 10
266.532798
 20
474.405798
 30
0.0
 40
12.53527318016077
100
AcDbArc
 50
286.615096
 51
299.045742
  0
ARC
  5
BC
330
7B
100
AcDbEntity
  8
0
  6
Continuous
 62
     0
370
    30
100
AcDbCircle
 10
266.546966
 20
474.372549
 30
0.0
 40
12.49875017742411
100
AcDbArc
 50
309.737566
 51
0.001341
  0
LINE
  5
BD
330
7B
100
AcDbEntity
  8
0
  6
Continuous
 62
     0
370
    30
100
AcDbLine
 10
247.159549
 20
462.339165
 30
0.0
 11
247.026381
 21
462.378514
 31
0.0
  0
LWPOLYLINE
  5
BE
330
7B
100
AcDbEntity
  8
0
  6
Continuous
 62
     0
370
    30
100
AcDbPolyline
 90
       16
 70
     0
 43
0.0
 10
258.545715
 20
461.30481
 10
257.569122
 20
461.309296
 10
256.597321
 20
461.322845
 10
255.638535
 20
461.345764
 10
254.699738
 20
461.37854
 10
253.786621
 20
461.421631
 10
252.904846
 20
461.475342
 10
252.060028
 20
461.539581
 10
251.257706
 20
461.614136
 10
250.502747
 20
461.698608
 10
249.799713
 20
461.79245
 10
249.152359
 20
461.894165
 10
248.563965
 20
462.001801
 10
248.038101
 20
462.112762
 10
247.577942
 20
462.224091
 10
247.159546
 20
462.339172
  0
LWPOLYLINE
  5
BF
330
7B
100
AcDbEntity
  8
0
  6
Continuous
 62
     0
370
    30
100
AcDbPolyline
 90
       16
 70
     0
 43
0.0
 10
269.931885
 20
462.339172
 10
269.542572
 20
462.231628
 10
269.086945
 20
462.120392
 10
268.56546
 20
462.009308
 10
267.981232
 20
461.901367
 10
267.337799
 20
461.799194
 10
266.638489
 20
461.704773
 10
265.886932
 20
461.619629
 10
265.087677
 20
461.544373
 10
264.245605
 20
461.479431
 10
263.36618
 20
461.424988
 10
262.455017
 20
461.381165
 10
261.517822
 20
461.347717
 10
260.560181
 20
461.324097
 10
259.588989
 20
461.309937
 10
258.545715
 20
461.30481
  0
LINE
  5
C0
330
7B
100
AcDbEntity
  8
0
  6
Continuous
 62
     0
370
    30
100
AcDbLine
 10
270.065043
 20
462.378511
 30
0.0
 11
269.931889
 21
462.339167
 31
0.0
  0
LWPOLYLINE
  5
C1
330
7B
100
AcDbEntity
  8
0
  6
Continuous
 62
     0
370
     0
100
AcDbPolyline
 90
       17
 70
     0
 43
0.0
 10
246.974289
 20
462.393921
 10
246.211075
 20
462.660339
 10
245.473679
 20
462.99646
 10
244.767807
 20
463.399933
 10
244.098114
 20
463.86795
 10
243.468918
 20
464.397522
 10
242.884384
 20
464.985046
 10
242.348526
 20
465.626617
 10
241.864883
 20
466.317932
 10
241.436722
 20
467.054352
 10
241.066849
 20
467.830994
 10
240.757812
 20
468.642639
 10
240.511612
 20
469.483795
 10
240.329956
 20
470.348816
 10
240.214005
 20
471.232178
 10
240.164612
 20
472.128021
 10
240.183853
 20
473.061981
  0
ARC
  5
C2
330
7B
100
AcDbEntity
  8
0
  6
Continuous
 62
     0
370
    30
100
AcDbCircle
 10
250.544466
 20
474.372549
 30
0.0
 40
12.49875019863024
100
AcDbArc
 50
179.998659
 51
230.262398
  0
ARC
  5
C3
330
7B
100
AcDbEntity
  8
0
  6
Continuous
 62
     0
370
    30
100
AcDbCircle
 10
250.558634
 20
474.405797
 30
0.0
 40
12.53527209642794
100
AcDbArc
 50
240.954239
 51
253.384905
  0
ARC
  5
C4
330
7B
100
AcDbEntity
  8
0
  6
Continuous
 62
     0
370
    30
100
AcDbCircle
 10
258.542871
 20
501.195212
 30
0.0
 40
40.48917428549287
100
AcDbArc
 50
253.671453
 51
256.797929
  0
ARC
  5
C5
330
7B
100
AcDbEntity
  8
0
  6
Continuous
 62
     0
370
    30
100
AcDbCircle
 10
258.548356
 20
501.19595
 30
0.0
 40
40.48993945873576
100
AcDbArc
 50
283.202092
 51
286.328543
  0
ARC
  5
C6
330
7B
100
AcDbEntity
  8
0
  6
Continuous
 62
     0
370
    30
100
AcDbCircle
 10
250.558671
 20
474.387785
 30
0.0
 40
12.51954642317751
100
AcDbArc
 50
230.256981
 51
240.914069
  0
LINE
  5
C7
330
7B
100
AcDbEntity
  8
0
  6
Continuous
 62
     0
370
    30
100
AcDbLine
 10
246.972672
 20
462.394388
 30
0.0
 11
247.026353
 21
462.378417
 31
0.0
  0
LINE
  5
C8
330
7B
100
AcDbEntity
  8
0
  6
Continuous
 62
     0
370
    30
100
AcDbLine
 10
270.11876
 20
462.394388
 30
0.0
 11
270.065072
 21
462.378415
 31
0.0
  0
ARC
  5
C9
330
7B
100
AcDbEntity
  8
0
  6
Continuous
 62
     0
370
    30
100
AcDbCircle
 10
266.532761
 20
474.387785
 30
0.0
 40
12.5195470418399
100
AcDbArc
 50
299.085913
 51
309.742983
  0
ARC
  5
CA
330
7B
100
AcDbEntity
  8
0
  6
Continuous
 62
     0
370
    30
100
AcDbCircle
 10
258.545715
 20
470.705658
 30
0.0
 40
30.0
100
AcDbArc
 50
301.277771
 51
121.277771
  0
ARC
  5
CB
330
7B
100
AcDbEntity
  8
0
  6
Continuous
 62
     0
370
    30
100
AcDbCircle
 10
258.545715
 20
470.705658
 30
0.0
 40
30.0
100
AcDbArc
 50
121.277771
 51
301.277771
  0
ARC
  5
CC
330
7B
100
AcDbEntity
  8
0
  6
Continuous
 62
     0
370
     0
100
AcDbCircle
 10
258.545766
 20
470.705689
 30
0.0
 40
29.50000000007876
100
AcDbArc
 50
301.277656
 51
121.277885
  0
ARC
  5
CD
330
7B
100
AcDbEntity
  8
0
  6
Continuous
 62
     0
370
     0
100
AcDbCircle
 10
258.545665
 20
470.705627
 30
0.0
 40
29.50000000005916
100
AcDbArc
 50
121.277656
 51
301.277885
  0
ELLIPSE
  5
CE
330
7B
100
AcDbEntity
  8
0
  6
Continuous
 62
     0
370
    30
100
AcDbEllipse
 10
258.545708
 20
460.456596
 30
0.0
 11
-9.25
 21
9.563512825921485E-9
 31
0.0
210
0.0
220
0.0
230
-1.0
 40
0.087156
 41
3.052006806411408
 42
6.193599460001203
  0
ELLIPSE
  5
CF
330
7B
100
AcDbEntity
  8
0
  6
Continuous
 62
     0
370
    30
100
AcDbEllipse
 10
258.545708
 20
460.456596
 30
0.0
 11
-9.25
 21
9.563512825921485E-9
 31
0.0
210
0.0
220
0.0
230
-1.0
 40
0.087156
 41
6.193599460001203
 42
9.33519211359099
  0
LINE
  5
D0
330
7B
100
AcDbEntity
  8
0
  6
Continuous
 62
     0
370
    30
100
AcDbLine
 10
249.295708
 20
461.870244
 30
0.0
 11
249.295708
 21
460.456596
 31
0.0
  0
LINE
  5
D1
330
7B
100
AcDbEntity
  8
0
  6
Continuous
 62
     0
370
    30
100
AcDbLine
 10
267.795708
 20
461.870254
 30
0.0
 11
267.795708
 21
460.456596
 31
0.0
  0
ENDBLK
  5
D3
330
7B
100
AcDbEntity
  8
0
100
AcDbBlockEnd
  0
BLOCK
  5
123
330
D5
100
AcDbEntity
  8
0
100
AcDbBlockBegin
  2
b
 70
     0
 10
188.883301
 20
145.379242
 30
0.0
  3
b
  1

  0
LWPOLYLINE
  5
D6
330
D5
100
AcDbEntity
  8
0
  6
Continuous
 62
     0
370
     0
100
AcDbPolyline
 90
       27
 70
     0
 43
0.0
 10
338.495697
 20
304.616241
 10
337.161163
 20
304.609192
 10
335.830231
 20
304.588257
 10
334.508942
 20
304.553467
 10
333.203156
 20
304.504913
 10
331.917847
 20
304.44281
 10
330.657562
 20
304.367462
 10
329.42688
 20
304.279144
 10
328.230194
 20
304.178192
 10
327.07193
 20
304.065063
 10
325.956421
 20
303.940155
 10
324.887787
 20
303.803986
 10
323.869659
 20
303.657104
 10
322.90564
 20
303.500031
 10
321.999237
 20
303.333405
 10
321.153381
 20
303.157837
 10
320.371002
 20
302.973969
 10
319.654816
 20
302.782501
 10
319.007172
 20
302.584137
 10
318.430115
 20
302.379608
 10
317.925659
 20
302.169647
 10
317.495422
 20
301.955017
 10
317.140625
 20
301.736389
 10
316.862488
 20
301.514526
 10
316.661926
 20
301.290253
 10
316.539551
 20
301.064423
 10
316.495789
 20
300.836212
  0
ARC
  5
D7
330
D5
100
AcDbEntity
  8
0
  6
Continuous
 62
     0
370
     0
100
AcDbCircle
 10
316.991783
 20
300.840062
 30
0.0
 40
0.4959970744807206
100
AcDbArc
 50
180.443085
 51
270.464348
  0
LWPOLYLINE
  5
D8
330
D5
100
AcDbEntity
  8
0
  6
Continuous
 62
     0
370
     0
100
AcDbPolyline
 90
       27
 70
     0
 43
0.0
 10
316.995789
 20
300.344086
 10
317.037933
 20
300.570221
 10
317.156921
 20
300.795868
 10
317.352234
 20
301.020203
 10
317.623322
 20
301.242126
 10
317.96933
 20
301.460754
 10
318.388947
 20
301.675323
 10
318.88089
 20
301.885193
 10
319.443787
 20
302.08963
 10
320.075745
 20
302.287903
 10
320.774536
 20
302.47937
 10
321.537811
 20
302.663239
 10
322.363251
 20
302.838806
 10
323.247925
 20
303.005463
 10
324.18869
 20
303.162598
 10
325.182434
 20
303.30957
 10
326.225769
 20
303.445801
 10
327.314758
 20
303.570801
 10
328.445282
 20
303.684082
 10
329.613281
 20
303.785187
 10
330.814606
 20
303.873657
 10
332.045166
 20
303.949188
 10
333.30072
 20
304.011505
 10
334.576996
 20
304.060303
 10
335.868195
 20
304.095367
 10
337.167664
 20
304.116577
 10
338.495697
 20
304.12384
  0
LINE
  5
D9
330
D5
100
AcDbEntity
  8
0
  6
Continuous
 62
     0
370
     0
100
AcDbLine
 10
338.495708
 20
304.123826
 30
0.0
 11
338.495708
 21
304.61623
 31
0.0
  0
ARC
  5
DA
330
D5
100
AcDbEntity
  8
0
  6
Continuous
 62
     0
370
     0
100
AcDbCircle
 10
316.99426
 20
300.776132
 30
0.0
 40
0.4939905874538361
100
AcDbArc
 50
180.557153
 51
270.686203
  0
LINE
  5
DB
330
D5
100
AcDbEntity
  8
0
  6
Continuous
 62
     0
370
     0
100
AcDbLine
 10
317.000176
 20
300.282177
 30
0.0
 11
316.995803
 21
300.344081
 31
0.0
  0
LINE
  5
DC
330
D5
100
AcDbEntity
  8
0
  6
Continuous
 62
     0
370
     0
100
AcDbLine
 10
317.000176
 20
300.282177
 30
0.0
 11
318.095593
 21
291.398426
 31
0.0
  0
LWPOLYLINE
  5
DD
330
D5
100
AcDbEntity
  8
0
  6
Continuous
 62
     0
370
     0
100
AcDbPolyline
 90
       52
 70
     0
 43
0.0
 10
318.095581
 20
291.398438
 10
318.151154
 20
291.202209
 10
318.272461
 20
291.002686
 10
318.462921
 20
290.800781
 10
318.725555
 20
290.597443
 10
319.062683
 20
290.393829
 10
319.475922
 20
290.191132
 10
319.966095
 20
289.99054
 10
320.533142
 20
289.793365
 10
321.176117
 20
289.600922
 10
321.893005
 20
289.414459
 10
322.680969
 20
289.235291
 10
323.536102
 20
289.064606
 10
324.453705
 20
288.903473
 10
325.428223
 20
288.75296
 10
326.45343
 20
288.613892
 10
327.522614
 20
288.487
 10
328.628601
 20
288.372833
 10
329.763916
 20
288.271851
 10
330.921051
 20
288.184204
 10
332.09256
 20
288.110016
 10
333.271149
 20
288.049133
 10
334.44986
 20
288.001373
 10
335.622131
 20
287.966339
 10
336.781952
 20
287.943542
 10
337.923859
 20
287.932404
 10
339.049011
 20
287.932343
 10
340.190552
 20
287.943268
 10
341.350067
 20
287.965851
 10
342.522156
 20
288.000702
 10
343.700745
 20
288.048248
 10
344.879364
 20
288.108887
 10
346.051025
 20
288.182861
 10
347.208435
 20
288.270294
 10
348.344177
 20
288.371063
 10
349.450684
 20
288.484985
 10
350.520508
 20
288.611664
 10
351.546539
 20
288.750549
 10
352.521942
 20
288.900879
 10
353.440521
 20
289.061829
 10
354.296722
 20
289.232391
 10
355.085846
 20
289.411438
 10
355.803955
 20
289.597778
 10
356.448181
 20
289.790131
 10
357.01651
 20
289.987244
 10
357.507965
 20
290.187775
 10
357.922485
 20
290.390472
 10
358.260864
 20
290.594086
 10
358.524689
 20
290.797424
 10
358.71637
 20
290.99939
 10
358.838776
 20
291.198975
 10
358.895813
 20
291.398804
  0
LINE
  5
DE
330
D5
100
AcDbEntity
  8
0
  6
Continuous
 62
     0
370
     0
100
AcDbLine
 10
358.895821
 20
291.398811
 30
0.0
 11
359.986103
 21
300.286047
 31
0.0
  0
ARC
  5
DF
330
D5
100
AcDbEntity
  8
0
  6
Continuous
 62
     0
370
     0
100
AcDbCircle
 10
359.368217
 20
300.359412
 30
0.0
 40
0.6222255210212709
100
AcDbArc
 50
353.228667
 51
21.530961
  0
LWPOLYLINE
  5
E0
330
D5
100
AcDbEntity
  8
0
  6
Continuous
 62
     0
370
     0
100
AcDbPolyline
 90
       26
 70
     0
 43
0.0
 10
359.947021
 20
300.587769
 10
359.821442
 20
300.814484
 10
359.618896
 20
301.039459
 10
359.340057
 20
301.261871
 10
358.985962
 20
301.480957
 10
358.557892
 20
301.695862
 10
358.057404
 20
301.905853
 10
357.486267
 20
302.110199
 10
356.846588
 20
302.308105
 10
356.140656
 20
302.498871
 10
355.371002
 20
302.681824
 10
354.540436
 20
302.856293
 10
353.651917
 20
303.021637
 10
352.70871
 20
303.177307
 10
351.714172
 20
303.322693
 10
350.671906
 20
303.457275
 10
349.585693
 20
303.580566
 10
348.459442
 20
303.692169
 10
347.29718
 20
303.791595
 10
346.10318
 20
303.878571
 10
344.881714
 20
303.952728
 10
343.637177
 20
304.013824
 10
342.374084
 20
304.061646
 10
341.096985
 20
304.095978
 10
339.810486
 20
304.11673
 10
338.495697
 20
304.12384
  0
LWPOLYLINE
  5
E1
330
D5
100
AcDbEntity
  8
0
  6
Continuous
 62
     0
370
     0
100
AcDbPolyline
 90
        8
 70
     0
 43
0.0
 10
360.445892
 20
301.08017
 10
360.455017
 20
301.378082
 10
360.463837
 20
301.673859
 10
360.472229
 20
301.966644
 10
360.480072
 20
302.255127
 10
360.487061
 20
302.536682
 10
360.492706
 20
302.805756
 10
360.495697
 20
303.067291
  0
ARC
  5
E2
330
D5
100
AcDbEntity
  8
0
  6
Continuous
 62
     0
370
     0
100
AcDbCircle
 10
359.875177
 20
300.850357
 30
0.0
 40
0.6152491056206473
100
AcDbArc
 50
353.114863
 51
21.933945
  0
LINE
  5
E3
330
D5
100
AcDbEntity
  8
0
  6
Continuous
 62
     0
370
    30
100
AcDbLine
 10
316.495708
 20
313.659402
 30
0.0
 11
316.495708
 21
301.550402
 31
0.0
  0
LINE
  5
E4
330
D5
100
AcDbEntity
  8
0
  6
Continuous
 62
     0
370
    30
100
AcDbLine
 10
316.495708
 20
301.550402
 30
0.0
 11
316.495801
 21
300.836226
 31
0.0
  0
LWPOLYLINE
  5
E5
330
D5
100
AcDbEntity
  8
0
  6
Continuous
 62
     0
370
     0
100
AcDbPolyline
 90
       26
 70
     0
 43
0.0
 10
338.495697
 20
304.616241
 10
339.825256
 20
304.609406
 10
341.152313
 20
304.58847
 10
342.471649
 20
304.553864
 10
343.775909
 20
304.505615
 10
345.058289
 20
304.443878
 10
346.314301
 20
304.368896
 10
347.540466
 20
304.281067
 10
348.733093
 20
304.180725
 10
349.887726
 20
304.068329
 10
350.999817
 20
303.944336
 10
352.065704
 20
303.809143
 10
353.082092
 20
303.663147
 10
354.045441
 20
303.506958
 10
354.952118
 20
303.341187
 10
355.798492
 20
303.166534
 10
356.581543
 20
302.983704
 10
357.29892
 20
302.793274
 10
357.948334
 20
302.595947
 10
358.52771
 20
302.392426
 10
359.035187
 20
302.183472
 10
359.468994
 20
301.969818
 10
359.827881
 20
301.752197
 10
360.110748
 20
301.53125
 10
360.31662
 20
301.307892
 10
360.445892
 20
301.08017
  0
LINE
  5
E6
330
D5
100
AcDbEntity
  8
0
  6
Continuous
 62
     0
370
    30
100
AcDbLine
 10
360.495708
 20
303.067283
 30
0.0
 11
360.495708
 21
313.659375
 31
0.0
  0
LWPOLYLINE
  5
E7
330
D5
100
AcDbEntity
  8
0
  6
Continuous
 62
     0
370
    30
100
AcDbPolyline
 90
       52
 70
     0
 43
0.0
 10
360.495697
 20
326.484589
 10
360.456482
 20
326.007019
 10
360.338409
 20
325.53006
 10
360.141541
 20
325.055054
 10
359.866669
 20
324.58429
 10
359.514709
 20
324.120087
 10
359.086578
 20
323.664612
 10
358.58313
 20
323.218933
 10
358.005219
 20
322.783936
 10
357.354004
 20
322.360931
 10
356.631012
 20
321.951569
 10
355.83783
 20
321.557526
 10
354.976776
 20
321.180481
 10
354.050781
 20
320.822083
 10
353.062744
 20
320.484009
 10
352.015594
 20
320.167694
 10
350.912476
 20
319.874481
 10
349.756866
 20
319.605743
 10
348.552582
 20
319.362885
 10
347.304443
 20
319.147156
 10
346.018066
 20
318.959869
 10
344.699066
 20
318.802124
 10
343.352264
 20
318.674835
 10
341.982483
 20
318.578583
 10
340.595947
 20
318.513916
 10
339.199341
 20
318.481293
 10
337.799347
 20
318.481232
 10
336.40271
 20
318.513641
 10
335.016113
 20
318.578156
 10
333.64624
 20
318.674255
 10
332.299286
 20
318.801392
 10
330.980133
 20
318.958954
 10
329.693573
 20
319.146118
 10
328.445221
 20
319.361664
 10
327.240723
 20
319.604431
 10
326.084808
 20
319.873016
 10
324.981415
 20
320.166107
 10
323.93399
 20
320.4823
 10
322.945618
 20
320.820282
 10
322.019287
 20
321.178558
 10
321.157898
 20
321.555511
 10
320.364349
 20
321.949463
 10
319.640991
 20
322.358765
 10
318.98941
 20
322.781708
 10
318.411102
 20
323.216644
 10
317.907257
 20
323.662262
 10
317.478729
 20
324.117706
 10
317.126373
 20
324.581848
 10
316.851105
 20
325.052582
 10
316.653839
 20
325.527588
 10
316.535339
 20
326.004517
 10
316.495697
 20
326.484558
  0
ARC
  5
E8
330
D5
100
AcDbEntity
  8
0
  6
Continuous
 62
     0
370
     0
100
AcDbCircle
 10
359.943235
 20
301.090521
 30
0.0
 40
0.5027639357624998
100
AcDbArc
 50
270.431878
 51
358.820896
  0
ARC
  5
E9
330
D5
100
AcDbEntity
  8
0
  6
Continuous
 62
     0
370
     0
100
AcDbCircle
 10
359.992022
 20
300.77999
 30
0.0
 40
0.4939787056443755
100
AcDbArc
 50
269.31339
 51
359.606964
  0
ELLIPSE
  5
EA
330
D5
100
AcDbEntity
  8
0
  6
Continuous
 62
     0
370
     0
100
AcDbEllipse
 10
358.895821
 20
291.891215
 30
0.0
 11
-0.4962793802000886
 21
0.06088330467556763
 31
0.0
210
0.0
220
0.0
230
1.0
 40
0.984584
 41
1.691002305343439
 42
3.141592684020156
  0
ARC
  5
EB
330
D5
100
AcDbEntity
  8
0
  6
Continuous
 62
     0
370
     0
100
AcDbCircle
 10
318.090235
 20
291.893349
 30
0.0
 40
0.4949516566160041
100
AcDbArc
 50
187.344016
 51
270.620254
  0
LINE
  5
EC
330
D5
100
AcDbEntity
  8
0
  6
Continuous
 62
     0
370
    30
100
AcDbLine
 10
318.761445
 20
326.484573
 30
0.0
 11
316.495708
 21
326.484573
 31
0.0
  0
LINE
  5
ED
330
D5
100
AcDbEntity
  8
0
  6
Continuous
 62
     0
370
    30
100
AcDbLine
 10
360.495708
 20
326.484573
 30
0.0
 11
358.329959
 21
326.484573
 31
0.0
  0
LINE
  5
EE
330
D5
100
AcDbEntity
  8
0
  6
Continuous
 62
     0
370
    30
100
AcDbLine
 10
317.599351
 20
291.829641
 30
0.0
 11
316.503934
 21
300.713392
 31
0.0
  0
LWPOLYLINE
  5
EF
330
D5
100
AcDbEntity
  8
0
  6
Continuous
 62
     0
370
    30
100
AcDbPolyline
 90
       56
 70
     0
 43
0.0
 10
317.599335
 20
291.830078
 10
317.69342
 20
291.493622
 10
317.870483
 20
291.197845
 10
318.110809
 20
290.9375
 10
318.405212
 20
290.70343
 10
318.753052
 20
290.486084
 10
319.15448
 20
290.280731
 10
319.610504
 20
290.084381
 10
320.121338
 20
289.895874
 10
320.686798
 20
289.714447
 10
321.306
 20
289.539978
 10
321.977722
 20
289.37265
 10
322.700287
 20
289.212708
 10
323.471771
 20
289.060455
 10
324.289948
 20
288.91629
 10
325.152496
 20
288.780518
 10
326.056885
 20
288.653595
 10
327.000336
 20
288.535828
 10
327.980042
 20
288.427551
 10
328.992889
 20
288.329132
 10
330.035767
 20
288.240845
 10
331.105408
 20
288.162964
 10
332.198364
 20
288.095703
 10
333.311249
 20
288.039276
 10
334.440582
 20
287.993896
 10
335.582825
 20
287.959656
 10
336.734253
 20
287.936676
 10
337.891266
 20
287.925049
 10
339.050201
 20
287.924805
 10
340.207397
 20
287.935944
 10
341.359192
 20
287.958435
 10
342.501862
 20
287.992157
 10
343.631805
 20
288.037079
 10
344.745514
 20
288.093048
 10
345.839447
 20
288.159821
 10
346.910126
 20
288.237274
 10
347.954193
 20
288.325134
 10
348.968414
 20
288.423126
 10
349.949554
 20
288.530975
 10
350.894623
 20
288.648346
 10
351.800751
 20
288.774902
 10
352.665161
 20
288.910248
 10
353.485352
 20
289.054077
 10
354.258881
 20
289.205963
 10
354.983582
 20
289.365601
 10
355.657532
 20
289.532623
 10
356.279022
 20
289.706787
 10
356.846802
 20
289.887909
 10
357.360046
 20
290.076172
 10
357.818359
 20
290.272095
 10
358.222198
 20
290.47699
 10
358.572235
 20
290.693726
 10
358.86908
 20
290.927124
 10
359.111755
 20
291.185913
 10
359.291809
 20
291.479919
 10
359.390869
 20
291.821136
  0
LINE
  5
F0
330
D5
100
AcDbEntity
  8
0
  6
Continuous
 62
     0
370
    30
100
AcDbLine
 10
360.482382
 20
300.717567
 30
0.0
 11
359.3921
 21
291.830332
 31
0.0
  0
ARC
  5
F1
330
D5
100
AcDbEntity
  8
0
  6
Continuous
 62
     0
370
    30
100
AcDbCircle
 10
359.391499
 20
300.852163
 30
0.0
 40
1.099108440050149
100
AcDbArc
 50
352.988792
 51
359.821875
  0
LINE
  5
F2
330
D5
100
AcDbEntity
  8
0
  6
Continuous
 62
     0
370
    30
100
AcDbLine
 10
360.495708
 20
326.484573
 30
0.0
 11
360.495708
 21
313.659375
 31
0.0
  0
LINE
  5
F3
330
D5
100
AcDbEntity
  8
0
  6
Continuous
 62
     0
370
    30
100
AcDbLine
 10
316.495708
 20
326.484573
 30
0.0
 11
316.495708
 21
313.659402
 31
0.0
  0
LINE
  5
F4
330
D5
100
AcDbEntity
  8
0
  6
Continuous
 62
     0
370
    30
100
AcDbLine
 10
360.490602
 20
300.848747
 30
0.0
 11
360.495708
 21
303.067239
 31
0.0
  0
ARC
  5
F5
330
D5
100
AcDbEntity
  8
0
  6
Continuous
 62
     0
370
    30
100
AcDbCircle
 10
317.586027
 20
300.847502
 30
0.0
 40
1.090325269903665
100
AcDbArc
 50
181.017228
 51
187.041455
  0
ARC
  5
F6
330
D5
100
AcDbEntity
  8
0
  6
Continuous
 62
     0
370
    30
100
AcDbCircle
 10
338.649885
 20
331.454478
 30
0.0
 40
20.4999999999954
100
AcDbArc
 50
183.831629
 51
194.030265
  0
LINE
  5
F7
330
D5
100
AcDbEntity
  8
0
  6
Continuous
 62
     0
370
     0
100
AcDbLine
 10
358.856071
 20
329.584572
 30
0.0
 11
358.757359
 21
329.584572
 31
0.0
  0
ARC
  5
F8
330
D5
100
AcDbEntity
  8
0
  6
Continuous
 62
     0
370
     0
100
AcDbCircle
 10
338.239703
 20
331.470596
 30
0.0
 40
20.60415707072019
100
AcDbArc
 50
354.748016
 51
356.142848
  0
ARC
  5
F9
330
D5
100
AcDbEntity
  8
0
  6
Continuous
 62
     0
370
    30
100
AcDbCircle
 10
338.390355
 20
331.44875
 30
0.0
 40
20.55044243820791
100
AcDbArc
 50
354.795412
 51
356.193795
  0
ARC
  5
FA
330
D5
100
AcDbEntity
  8
0
  6
Continuous
 62
     0
370
    30
100
AcDbCircle
 10
338.438869
 20
331.455008
 30
0.0
 40
20.50269875248375
100
AcDbArc
 50
345.970094
 51
354.765698
  0
LINE
  5
FB
330
D5
100
AcDbEntity
  8
0
  6
Continuous
 62
     0
370
    30
100
AcDbLine
 10
329.431846
 20
333.08457
 30
0.0
 11
368.045708
 21
333.084571
 31
0.0
  0
LINE
  5
FC
330
D5
100
AcDbEntity
  8
0
  6
Continuous
 62
     0
370
    30
100
AcDbLine
 10
309.045708
 20
333.084571
 30
0.0
 11
329.431846
 21
333.08457
 31
0.0
  0
LINE
  5
FD
330
D5
100
AcDbEntity
  8
0
  6
Continuous
 62
     0
370
     0
100
AcDbLine
 10
308.545708
 20
333.584571
 30
0.0
 11
329.277374
 21
333.584571
 31
0.0
  0
LINE
  5
FE
330
D5
100
AcDbEntity
  8
0
  6
Continuous
 62
     0
370
     0
100
AcDbLine
 10
329.277374
 20
333.584571
 30
0.0
 11
368.545708
 21
333.584571
 31
0.0
  0
LINE
  5
FF
330
D5
100
AcDbEntity
  8
0
  6
Continuous
 62
     0
370
     0
100
AcDbLine
 10
368.545708
 20
337.584571
 30
0.0
 11
329.277374
 21
337.584571
 31
0.0
  0
LINE
  5
100
330
D5
100
AcDbEntity
  8
0
  6
Continuous
 62
     0
370
     0
100
AcDbLine
 10
329.277374
 20
337.584571
 30
0.0
 11
308.545708
 21
337.584571
 31
0.0
  0
LINE
  5
101
330
D5
100
AcDbEntity
  8
0
  6
Continuous
 62
     0
370
    30
100
AcDbLine
 10
329.431846
 20
338.08457
 30
0.0
 11
309.045708
 21
338.084571
 31
0.0
  0
LINE
  5
102
330
D5
100
AcDbEntity
  8
0
  6
Continuous
 62
     0
370
    30
100
AcDbLine
 10
368.045708
 20
338.084571
 30
0.0
 11
329.431846
 21
338.08457
 31
0.0
  0
ARC
  5
103
330
D5
100
AcDbEntity
  8
0
  6
Continuous
 62
     0
370
    30
100
AcDbCircle
 10
309.045948
 20
333.584571
 30
0.0
 40
0.500000462046597
100
AcDbArc
 50
180.000051
 51
269.989906
  0
ARC
  5
104
330
D5
100
AcDbEntity
  8
0
  6
Continuous
 62
     0
370
    30
100
AcDbCircle
 10
368.045523
 20
333.584572
 30
0.0
 40
0.5000009214187792
100
AcDbArc
 50
270.010415
 51
359.999897
  0
ARC
  5
105
330
D5
100
AcDbEntity
  8
0
  6
Continuous
 62
     0
370
    30
100
AcDbCircle
 10
309.045949
 20
337.58457
 30
0.0
 40
0.5000007736644707
100
AcDbArc
 50
90.01013
 51
179.999914
  0
ARC
  5
106
330
D5
100
AcDbEntity
  8
0
  6
Continuous
 62
     0
370
    30
100
AcDbCircle
 10
368.045522
 20
337.58457
 30
0.0
 40
0.5000012410945124
100
AcDbArc
 50
0.00014
 51
89.989549
  0
LINE
  5
107
330
D5
100
AcDbEntity
  8
0
  6
Continuous
 62
     0
370
    30
100
AcDbLine
 10
368.545708
 20
337.584571
 30
0.0
 11
368.545708
 21
333.584571
 31
0.0
  0
LINE
  5
108
330
D5
100
AcDbEntity
  8
0
  6
Continuous
 62
     0
370
    30
100
AcDbLine
 10
308.545708
 20
337.584571
 30
0.0
 11
308.545708
 21
333.584571
 31
0.0
  0
LINE
  5
109
330
D5
100
AcDbEntity
  8
0
  6
Continuous
 62
     0
370
    30
100
AcDbLine
 10
316.445708
 20
330.084573
 30
0.0
 11
352.078284
 21
330.084573
 31
0.0
  0
LINE
  5
10A
330
D5
100
AcDbEntity
  8
0
  6
Continuous
 62
     0
370
    30
100
AcDbLine
 10
352.078284
 20
330.084573
 30
0.0
 11
360.645708
 21
330.084573
 31
0.0
  0
LINE
  5
10B
330
D5
100
AcDbEntity
  8
0
  6
Continuous
 62
     0
370
    30
100
AcDbLine
 10
360.645708
 20
330.084573
 30
0.0
 11
360.645708
 21
333.084571
 31
0.0
  0
LINE
  5
10C
330
D5
100
AcDbEntity
  8
0
  6
Continuous
 62
     0
370
    30
100
AcDbLine
 10
316.445708
 20
330.084573
 30
0.0
 11
316.445708
 21
333.084571
 31
0.0
  0
ARC
  5
10D
330
D5
100
AcDbEntity
  8
0
  6
Continuous
 62
     0
370
     0
100
AcDbCircle
 10
258.545708
 20
166.784571
 30
0.0
 40
19.00000000000001
100
AcDbArc
 50
180.0
 51
0.0
  0
LINE
  5
10E
330
D5
100
AcDbEntity
  8
0
  6
Continuous
 62
     0
370
     0
100
AcDbLine
 10
239.545708
 20
166.784571
 30
0.0
 11
238.045708
 21
166.784571
 31
0.0
  0
ARC
  5
10F
330
D5
100
AcDbEntity
  8
0
  6
Continuous
 62
     0
370
    30
100
AcDbCircle
 10
258.545708
 20
166.784571
 30
0.0
 40
20.5
100
AcDbArc
 50
180.0
 51
360.0
  0
LINE
  5
110
330
D5
100
AcDbEntity
  8
0
  6
Continuous
 62
     0
370
     0
100
AcDbLine
 10
279.045708
 20
166.784571
 30
0.0
 11
277.545708
 21
166.784571
 31
0.0
  0
LINE
  5
111
330
D5
100
AcDbEntity
  8
0
  6
Continuous
 62
     0
370
     0
100
AcDbLine
 10
277.545708
 20
166.784571
 30
0.0
 11
277.545708
 21
333.084571
 31
0.0
  0
LINE
  5
112
330
D5
100
AcDbEntity
  8
0
  6
Continuous
 62
     0
370
     0
100
AcDbLine
 10
239.545708
 20
333.084571
 30
0.0
 11
239.545708
 21
166.784571
 31
0.0
  0
LINE
  5
113
330
D5
100
AcDbEntity
  8
0
  6
Continuous
 62
     0
370
    30
100
AcDbLine
 10
238.045708
 20
333.084571
 30
0.0
 11
238.045708
 21
166.784571
 31
0.0
  0
LINE
  5
114
330
D5
100
AcDbEntity
  8
0
  6
Continuous
 62
     0
370
    30
100
AcDbLine
 10
279.045708
 20
333.084571
 30
0.0
 11
279.045708
 21
166.784571
 31
0.0
  0
LINE
  5
115
330
D5
100
AcDbEntity
  8
0
  6
Continuous
 62
     0
370
     0
100
AcDbLine
 10
242.970081
 20
337.584572
 30
0.0
 11
228.545708
 21
337.584572
 31
0.0
  0
LINE
  5
116
330
D5
100
AcDbEntity
  8
0
  6
Continuous
 62
     0
370
     0
100
AcDbLine
 10
288.545708
 20
337.584572
 30
0.0
 11
242.970081
 21
337.584572
 31
0.0
  0
LINE
  5
117
330
D5
100
AcDbEntity
  8
0
  6
Continuous
 62
     0
370
     0
100
AcDbLine
 10
242.970081
 20
333.584572
 30
0.0
 11
288.545708
 21
333.584572
 31
0.0
  0
LINE
  5
118
330
D5
100
AcDbEntity
  8
0
  6
Continuous
 62
     0
370
     0
100
AcDbLine
 10
228.545708
 20
333.584572
 30
0.0
 11
242.970081
 21
333.584572
 31
0.0
  0
LINE
  5
119
330
D5
100
AcDbEntity
  8
0
  6
Continuous
 62
     0
370
    30
100
AcDbLine
 10
288.045776
 20
333.084572
 30
0.0
 11
243.229675
 21
333.084571
 31
0.0
  0
LINE
  5
11A
330
D5
100
AcDbEntity
  8
0
  6
Continuous
 62
     0
370
    30
100
AcDbLine
 10
243.229675
 20
333.084571
 30
0.0
 11
229.045966
 21
333.084572
 31
0.0
  0
LINE
  5
11B
330
D5
100
AcDbEntity
  8
0
  6
Continuous
 62
     0
370
    30
100
AcDbLine
 10
243.229675
 20
338.084571
 30
0.0
 11
229.045966
 21
338.084572
 31
0.0
  0
LINE
  5
11C
330
D5
100
AcDbEntity
  8
0
  6
Continuous
 62
     0
370
    30
100
AcDbLine
 10
288.045776
 20
338.084572
 30
0.0
 11
243.229675
 21
338.084571
 31
0.0
  0
ARC
  5
11D
330
D5
100
AcDbEntity
  8
0
  6
Continuous
 62
     0
370
    30
100
AcDbCircle
 10
288.045689
 20
337.58457
 30
0.0
 40
0.5000023318128957
100
AcDbArc
 50
0.000266
 51
89.991804
  0
ARC
  5
11E
330
D5
100
AcDbEntity
  8
0
  6
Continuous
 62
     0
370
    30
100
AcDbCircle
 10
229.04568
 20
337.584569
 30
0.0
 40
0.5000028400843934
100
AcDbArc
 50
90.002697
 51
179.999676
  0
ARC
  5
11F
330
D5
100
AcDbEntity
  8
0
  6
Continuous
 62
     0
370
    30
100
AcDbCircle
 10
288.045689
 20
333.584574
 30
0.0
 40
0.5000023318102699
100
AcDbArc
 50
270.008196
 51
359.999734
  0
ARC
  5
120
330
D5
100
AcDbEntity
  8
0
  6
Continuous
 62
     0
370
    30
100
AcDbCircle
 10
229.04568
 20
333.584575
 30
0.0
 40
0.5000028400847805
100
AcDbArc
 50
180.000324
 51
269.997303
  0
LINE
  5
121
330
D5
100
AcDbEntity
  8
0
  6
Continuous
 62
     0
370
    30
100
AcDbLine
 10
228.545708
 20
337.584572
 30
0.0
 11
228.545708
 21
333.584572
 31
0.0
  0
LINE
  5
122
330
D5
100
AcDbEntity
  8
0
  6
Continuous
 62
     0
370
    30
100
AcDbLine
 10
288.545708
 20
337.584572
 30
0.0
 11
288.545708
 21
333.584572
 31
0.0
  0
ENDBLK
  5
124
330
D5
100
AcDbEntity
  8
0
100
AcDbBlockEnd
  0
BLOCK
  5
17C
330
126
100
AcDbEntity
  8
0
100
AcDbBlockBegin
  2
c
 70
     0
 10
194.256226
 20
145.379272
 30
0.0
  3
c
  1

  0
LINE
  5
127
330
126
100
AcDbEntity
  8
0
  6
Continuous
 62
     0
370
     0
100
AcDbLine
 10
458.495609
 20
492.661694
 30
0.0
 11
460.555858
 21
480.705719
 31
0.0
  0
LINE
  5
128
330
126
100
AcDbEntity
  8
0
  6
Continuous
 62
     0
370
    30
100
AcDbLine
 10
461.02332
 20
480.705719
 30
0.0
 11
458.988013
 21
492.248518
 31
0.0
  0
ARC
  5
129
330
126
100
AcDbEntity
  8
0
  6
Continuous
 62
     0
370
    30
100
AcDbCircle
 10
458.495609
 20
492.161694
 30
0.0
 40
0.4999999999986503
100
AcDbArc
 50
10.0
 51
90.0
  0
LINE
  5
12A
330
126
100
AcDbEntity
  8
0
  6
Continuous
 62
     0
370
    30
100
AcDbLine
 10
464.54986
 20
460.705719
 30
0.0
 11
471.713416
 21
420.079175
 31
0.0
  0
LINE
  5
12B
330
126
100
AcDbEntity
  8
0
  6
Continuous
 62
     0
370
    30
100
AcDbLine
 10
471.713416
 20
420.079175
 30
0.0
 11
475.180816
 21
400.41457
 31
0.0
  0
LINE
  5
12C
330
126
100
AcDbEntity
  8
0
  6
Continuous
 62
     0
370
    30
100
AcDbLine
 10
436.627266
 20
460.705719
 30
0.0
 11
436.627266
 21
448.661694
 31
0.0
  0
LINE
  5
12D
330
126
100
AcDbEntity
  8
0
  6
Continuous
 62
     0
370
    30
100
AcDbLine
 10
436.627266
 20
448.661694
 30
0.0
 11
446.910676
 21
448.661694
 31
0.0
  0
LWPOLYLINE
  5
12E
330
126
100
AcDbEntity
  8
0
  6
Continuous
 62
     0
370
    30
100
AcDbPolyline
 90
       16
 70
     0
 43
0.0
 10
447.506317
 20
448.719757
 10
447.795135
 20
448.742706
 10
448.126678
 20
448.764648
 10
448.491913
 20
448.783295
 10
448.881561
 20
448.796692
 10
449.28595
 20
448.803497
 10
449.694855
 20
448.802948
 10
450.097565
 20
448.795044
 10
450.483643
 20
448.780579
 10
450.842712
 20
448.760986
 10
451.164948
 20
448.738403
 10
451.440765
 20
448.715302
 10
451.663422
 20
448.694061
 10
451.827332
 20
448.676971
 10
451.929596
 20
448.665802
 10
451.964935
 20
448.661682
  0
LINE
  5
12F
330
126
100
AcDbEntity
  8
0
  6
Continuous
 62
     0
370
    30
100
AcDbLine
 10
451.964951
 20
448.661694
 30
0.0
 11
454.428242
 21
448.661694
 31
0.0
  0
LWPOLYLINE
  5
130
330
126
100
AcDbEntity
  8
0
  6
Continuous
 62
     0
370
     0
100
AcDbPolyline
 90
       21
 70
     0
 43
0.0
 10
454.428253
 20
448.661682
 10
454.406891
 20
448.695343
 10
454.348541
 20
448.796082
 10
454.263672
 20
448.963257
 10
454.162628
 20
449.196106
 10
454.054932
 20
449.493988
 10
453.949829
 20
449.856049
 10
453.857361
 20
450.281555
 10
453.775818
 20
450.769348
 10
453.692841
 20
451.317535
 10
453.605804
 20
451.9245
 10
453.513855
 20
452.588379
 10
453.415314
 20
453.306854
 10
453.308624
 20
454.077454
 10
453.19223
 20
454.897675
 10
453.064453
 20
455.765198
 10
452.923676
 20
456.67688
 10
452.768402
 20
457.62915
 10
452.597107
 20
458.618561
 10
452.408234
 20
459.642059
 10
452.198456
 20
460.705719
  0
LWPOLYLINE
  5
131
330
126
100
AcDbEntity
  8
0
  6
Continuous
 62
     0
370
    30
100
AcDbPolyline
 90
       21
 70
     0
 43
0.0
 10
444.634674
 20
492.661682
 10
444.62207
 20
492.627167
 10
444.584503
 20
492.524078
 10
444.522308
 20
492.353302
 10
444.435791
 20
492.115631
 10
444.325317
 20
491.811981
 10
444.191284
 20
491.443695
 10
444.034271
 20
491.012268
 10
443.855011
 20
490.519745
 10
443.654327
 20
489.968384
 10
443.433075
 20
489.360504
 10
443.192169
 20
488.698608
 10
442.932556
 20
487.985352
 10
442.655182
 20
487.223206
 10
442.36087
 20
486.414673
 10
442.050659
 20
485.562347
 10
441.725647
 20
484.669373
 10
441.386932
 20
483.73877
 10
441.035675
 20
482.773651
 10
440.672974
 20
481.777161
 10
440.28299
 20
480.705719
  0
LWPOLYLINE
  5
132
330
126
100
AcDbEntity
  8
0
  6
Continuous
 62
     0
370
     0
100
AcDbPolyline
 90
        5
 70
     0
 43
0.0
 10
471.713409
 20
420.079163
 10
471.677063
 20
420.068634
 10
471.572052
 20
420.0466
 10
471.414215
 20
420.016418
 10
471.22287
 20
419.981812
  0
LINE
  5
133
330
126
100
AcDbEntity
  8
0
  6
Continuous
 62
     0
370
     0
100
AcDbLine
 10
471.222871
 20
419.98181
 30
0.0
 11
474.775236
 21
399.835342
 31
0.0
  0
LINE
  5
134
330
126
100
AcDbEntity
  8
0
  6
Continuous
 62
     0
370
     0
100
AcDbLine
 10
464.042147
 20
460.705719
 30
0.0
 11
471.222871
 21
419.98181
 31
0.0
  0
ARC
  5
135
330
126
100
AcDbEntity
  8
0
  6
Continuous
 62
     0
370
    30
100
AcDbCircle
 10
454.429016
 20
439.66321
 30
0.0
 40
8.998252156938307
100
AcDbArc
 50
40.890711
 51
86.898915
  0
LWPOLYLINE
  5
136
330
126
100
AcDbEntity
  8
0
  6
Continuous
 62
     0
370
     0
100
AcDbPolyline
 90
       17
 70
     0
 43
0.0
 10
463.291504
 20
441.224518
 10
463.294617
 20
441.24295
 10
463.303711
 20
441.29892
 10
463.317169
 20
441.4021
 10
463.334015
 20
441.556976
 10
463.352997
 20
441.768188
 10
463.372772
 20
442.042542
 10
463.391907
 20
442.384155
 10
463.408875
 20
442.797302
 10
463.422577
 20
443.283173
 10
463.43399
 20
443.83252
 10
463.443085
 20
444.440887
 10
463.449188
 20
445.106384
 10
463.451721
 20
445.827118
 10
463.449951
 20
446.601166
 10
463.443268
 20
447.426239
 10
463.430511
 20
448.327148
  0
LWPOLYLINE
  5
137
330
126
100
AcDbEntity
  8
0
  6
Continuous
 62
     0
370
     0
100
AcDbPolyline
 90
       13
 70
     0
 43
0.0
 10
463.430511
 20
448.327148
 10
463.205017
 20
449.471741
 10
462.905304
 20
450.603516
 10
462.53537
 20
451.715332
 10
462.100281
 20
452.800964
 10
461.605774
 20
453.860168
 10
461.059174
 20
454.893768
 10
460.469086
 20
455.902649
 10
459.844299
 20
456.889404
 10
459.193054
 20
457.857483
 10
458.522247
 20
458.810272
 10
457.836212
 20
459.750458
 10
457.119934
 20
460.705719
  0
LWPOLYLINE
  5
138
330
126
100
AcDbEntity
  8
0
  6
Continuous
 62
     0
370
     0
100
AcDbPolyline
 90
       11
 70
     0
 43
0.0
 10
460.308746
 20
460.705719
 10
461.020721
 20
459.630463
 10
461.674713
 20
458.519958
 10
462.268738
 20
457.375763
 10
462.802704
 20
456.19989
 10
463.277374
 20
454.994873
 10
463.69458
 20
453.763489
 10
464.057648
 20
452.509033
 10
464.371643
 20
451.235168
 10
464.643768
 20
449.946228
 10
464.899811
 20
448.553619
  0
LINE
  5
139
330
126
100
AcDbEntity
  8
0
  6
Continuous
 62
     0
370
     0
100
AcDbLine
 10
464.899807
 20
448.553628
 30
0.0
 11
469.893971
 21
419.74749
 31
0.0
  0
LINE
  5
13A
330
126
100
AcDbEntity
  8
0
  6
Continuous
 62
     0
370
     0
100
AcDbLine
 10
469.893971
 20
419.74749
 30
0.0
 11
471.222871
 21
419.98181
 31
0.0
  0
LWPOLYLINE
  5
13B
330
126
100
AcDbEntity
  8
0
  6
Continuous
 62
     0
370
     0
100
AcDbPolyline
 90
       24
 70
     0
 43
0.0
 10
470.194824
 20
402.073944
 10
470.194275
 20
402.108459
 10
470.192139
 20
402.213104
 10
470.187927
 20
402.388916
 10
470.181091
 20
402.636993
 10
470.171112
 20
402.958282
 10
470.157227
 20
403.353394
 10
470.13855
 20
403.82251
 10
470.114075
 20
404.365448
 10
470.082855
 20
404.981812
 10
470.043884
 20
405.669922
 10
469.996124
 20
406.427124
 10
469.938538
 20
407.250732
 10
469.870117
 20
408.137817
 10
469.789856
 20
409.084534
 10
469.696808
 20
410.087036
 10
469.590271
 20
411.140411
 10
469.469727
 20
412.23877
 10
469.334534
 20
413.376831
 10
469.184082
 20
414.551239
 10
469.017853
 20
415.757843
 10
468.836517
 20
416.987152
 10
468.641022
 20
418.228302
 10
468.423859
 20
419.520874
  0
LINE
  5
13C
330
126
100
AcDbEntity
  8
0
  6
Continuous
 62
     0
370
     0
100
AcDbLine
 10
468.423844
 20
419.520872
 30
0.0
 11
463.430514
 21
448.327158
 31
0.0
  0
LWPOLYLINE
  5
13D
330
126
100
AcDbEntity
  8
0
  6
Continuous
 62
     0
370
     0
100
AcDbPolyline
 90
       27
 70
     0
 43
0.0
 10
469.893982
 20
419.747498
 10
470.10733
 20
418.52536
 10
470.321472
 20
417.307159
 10
470.535278
 20
416.097961
 10
470.747223
 20
414.904419
 10
470.956116
 20
413.731934
 10
471.161285
 20
412.583008
 10
471.362244
 20
411.460541
 10
471.558533
 20
410.368347
 10
471.749695
 20
409.310394
 10
471.935272
 20
408.290619
 10
472.114655
 20
407.312958
 10
472.287415
 20
406.381287
 10
472.453003
 20
405.499054
 10
472.610962
 20
404.669342
 10
472.760773
 20
403.895355
 10
472.901917
 20
403.179932
 10
473.033875
 20
402.525238
 10
473.156006
 20
401.933075
 10
473.267517
 20
401.405426
 10
473.367493
 20
400.944
 10
473.454987
 20
400.550354
 10
473.528992
 20
400.225983
 10
473.588531
 20
399.97226
 10
473.632599
 20
399.789948
 10
473.660065
 20
399.67926
 10
473.669983
 20
399.640442
  0
LWPOLYLINE
  5
13E
330
126
100
AcDbEntity
  8
0
  6
Continuous
 62
     0
370
     0
100
AcDbPolyline
 90
        8
 70
     0
 43
0.0
 10
468.423859
 20
419.520874
 10
468.493134
 20
419.52652
 10
468.618835
 20
419.542358
 10
468.795898
 20
419.56778
 10
469.016876
 20
419.601715
 10
469.273193
 20
419.642853
 10
469.55481
 20
419.689545
 10
469.893982
 20
419.747498
  0
LWPOLYLINE
  5
13F
330
126
100
AcDbEntity
  8
0
  6
Continuous
 62
     0
370
     0
100
AcDbPolyline
 90
        8
 70
     0
 43
0.0
 10
463.430511
 20
448.327148
 10
463.500702
 20
448.332977
 10
463.626801
 20
448.348907
 10
463.803802
 20
448.374329
 10
464.024353
 20
448.408203
 10
464.279877
 20
448.449188
 10
464.560547
 20
448.495697
 10
464.899811
 20
448.553619
  0
ARC
  5
140
330
126
100
AcDbEntity
  8
0
  6
Continuous
 62
     0
370
    30
100
AcDbCircle
 10
473.14931
 20
402.595021
 30
0.0
 40
3.000092126527444
100
AcDbArc
 50
190.001434
 51
279.998241
  0
LINE
  5
141
330
126
100
AcDbEntity
  8
0
  6
Continuous
 62
     0
370
    30
100
AcDbLine
 10
474.775236
 20
399.835342
 30
0.0
 11
473.669759
 21
399.640417
 31
0.0
  0
LINE
  5
142
330
126
100
AcDbEntity
  8
0
  6
Continuous
 62
     0
370
    30
100
AcDbLine
 10
463.291512
 20
441.224528
 30
0.0
 11
470.194802
 21
402.074026
 31
0.0
  0
ARC
  5
143
330
126
100
AcDbEntity
  8
0
  6
Continuous
 62
     0
370
    30
100
AcDbCircle
 10
454.427713
 20
439.769806
 30
0.0
 40
8.891885376189883
100
AcDbArc
 50
86.853372
 51
89.996594
  0
ARC
  5
144
330
126
100
AcDbEntity
  8
0
  6
Continuous
 62
     0
370
    30
100
AcDbCircle
 10
454.418331
 20
439.656636
 30
0.0
 40
9.01063299066346
100
AcDbArc
 50
10.020015
 51
40.877836
  0
ARC
  5
145
330
126
100
AcDbEntity
  8
0
  6
Continuous
 62
     0
370
    30
100
AcDbCircle
 10
474.688409
 20
400.327748
 30
0.0
 40
0.5000026258392786
100
AcDbArc
 50
280.000301
 51
9.995713
  0
LINE
  5
146
330
126
100
AcDbEntity
  8
0
  6
Continuous
 62
     0
370
    30
100
AcDbLine
 10
444.634713
 20
492.661694
 30
0.0
 11
458.495609
 21
492.661694
 31
0.0
  0
ARC
  5
147
330
126
100
AcDbEntity
  8
0
  6
Continuous
 62
     0
370
    30
100
AcDbCircle
 10
431.657693
 20
470.759169
 30
0.0
 40
20.49645508329436
100
AcDbArc
 50
273.831363
 51
284.031785
  0
ARC
  5
148
330
126
100
AcDbEntity
  8
0
  6
Continuous
 62
     0
370
    30
100
AcDbCircle
 10
431.657247
 20
470.554053
 30
0.0
 40
20.50030006072672
100
AcDbArc
 50
56.937142
 51
86.168108
  0
LINE
  5
149
330
126
100
AcDbEntity
  8
0
  6
Continuous
 62
     0
370
    30
100
AcDbLine
 10
433.027267
 20
480.705719
 30
0.0
 11
433.027267
 21
492.758523
 31
0.0
  0
LINE
  5
14A
330
126
100
AcDbEntity
  8
0
  6
Continuous
 62
     0
370
    30
100
AcDbLine
 10
433.027267
 20
453.186277
 30
0.0
 11
433.027267
 21
460.705719
 31
0.0
  0
LINE
  5
14B
330
126
100
AcDbEntity
  8
0
  6
Continuous
 62
     0
370
    30
100
AcDbLine
 10
433.027267
 20
448.558523
 30
0.0
 11
433.027267
 21
453.186277
 31
0.0
  0
LINE
  5
14C
330
126
100
AcDbEntity
  8
0
  6
Continuous
 62
     0
370
    30
100
AcDbLine
 10
433.027267
 20
448.558523
 30
0.0
 11
430.027269
 21
448.558523
 31
0.0
  0
LINE
  5
14D
330
126
100
AcDbEntity
  8
0
  6
Continuous
 62
     0
370
    30
100
AcDbLine
 10
433.027267
 20
492.758523
 30
0.0
 11
430.027269
 21
492.758523
 31
0.0
  0
LINE
  5
14E
330
126
100
AcDbEntity
  8
0
  6
Continuous
 62
     0
370
    30
100
AcDbLine
 10
447.149923
 20
448.457305
 30
0.0
 11
451.778098
 21
448.336112
 31
0.0
  0
LINE
  5
14F
330
126
100
AcDbEntity
  8
0
  6
Continuous
 62
     0
370
    30
100
AcDbLine
 10
446.908901
 20
448.742012
 30
0.0
 11
452.032209
 21
448.551233
 31
0.0
  0
ARC
  5
150
330
126
100
AcDbEntity
  8
0
  6
Continuous
 62
     0
370
    30
100
AcDbCircle
 10
447.156474
 20
448.707192
 30
0.0
 40
0.2499732245109927
100
AcDbArc
 50
190.487051
 51
268.498437
  0
ARC
  5
151
330
126
100
AcDbEntity
  8
0
  6
Continuous
 62
     0
370
    30
100
AcDbCircle
 10
451.784642
 20
448.586026
 30
0.0
 40
0.249999999998788
100
AcDbArc
 50
268.5
 51
352.0
  0
LWPOLYLINE
  5
152
330
126
100
AcDbEntity
  8
0
  6
Continuous
 62
     0
370
    30
100
AcDbPolyline
 90
       26
 70
     0
 43
0.0
 10
615.327271
 20
480.705719
 10
615.289856
 20
480.705719
 10
615.177795
 20
480.705719
 10
614.991638
 20
480.705719
 10
614.731995
 20
480.705719
 10
614.399841
 20
480.705719
 10
613.996704
 20
480.705719
 10
613.523926
 20
480.705719
 10
612.983459
 20
480.705719
 10
612.377563
 20
480.705719
 10
611.708374
 20
480.705719
 10
610.978638
 20
480.705719
 10
610.191345
 20
480.705719
 10
609.349487
 20
480.705719
 10
608.456299
 20
480.705719
 10
607.515442
 20
480.705719
 10
606.530518
 20
480.705719
 10
605.505371
 20
480.705719
 10
604.444153
 20
480.705719
 10
603.351135
 20
480.705719
 10
602.23053
 20
480.705719
 10
601.086548
 20
480.705719
 10
599.923523
 20
480.705719
 10
598.745972
 20
480.705719
 10
597.559265
 20
480.705719
 10
596.327271
 20
480.705719
  0
LINE
  5
153
330
126
100
AcDbEntity
  8
0
  6
Continuous
 62
     0
370
     0
100
AcDbLine
 10
596.327272
 20
480.705719
 30
0.0
 11
596.327272
 21
479.205719
 31
0.0
  0
LINE
  5
154
330
126
100
AcDbEntity
  8
0
  6
Continuous
 62
     0
370
     0
100
AcDbLine
 10
596.327272
 20
479.205719
 30
0.0
 11
616.827271
 21
479.205719
 31
0.0
  0
LINE
  5
155
330
126
100
AcDbEntity
  8
0
  6
Continuous
 62
     0
370
     0
100
AcDbLine
 10
596.327272
 20
479.205719
 30
0.0
 11
596.327272
 21
474.372903
 31
0.0
  0
LWPOLYLINE
  5
156
330
126
100
AcDbEntity
  8
0
  6
Continuous
 62
     0
370
     0
100
AcDbPolyline
 90
       14
 70
     0
 43
0.0
 10
596.327271
 20
474.372894
 10
597.03595
 20
474.179016
 10
597.746277
 20
473.994568
 10
598.457458
 20
473.820465
 10
599.168823
 20
473.657837
 10
599.879395
 20
473.507904
 10
600.588379
 20
473.37204
 10
601.294739
 20
473.252014
 10
601.997498
 20
473.149872
 10
602.695557
 20
473.068237
 10
603.387939
 20
473.010651
 10
604.072937
 20
472.982697
 10
604.748291
 20
472.992065
 10
605.442749
 20
473.062042
  0
LWPOLYLINE
  5
157
330
126
100
AcDbEntity
  8
0
  6
Continuous
 62
     0
370
     0
100
AcDbPolyline
 90
       19
 70
     0
 43
0.0
 10
605.442749
 20
473.062042
 10
606.553223
 20
473.018188
 10
607.626831
 20
472.97345
 10
608.659851
 20
472.928925
 10
609.647278
 20
472.885864
 10
610.583923
 20
472.845673
 10
611.465637
 20
472.809235
 10
612.289368
 20
472.7771
 10
613.052185
 20
472.749756
 10
613.751099
 20
472.727631
 10
614.383301
 20
472.711273
 10
614.946289
 20
472.700562
 10
615.438477
 20
472.694733
 10
615.858276
 20
472.692841
 10
616.204346
 20
472.693939
 10
616.475281
 20
472.696991
 10
616.6698
 20
472.700897
 10
616.787231
 20
472.704315
 10
616.827271
 20
472.705841
  0
LINE
  5
158
330
126
100
AcDbEntity
  8
0
  6
Continuous
 62
     0
370
     0
100
AcDbLine
 10
600.720217
 20
462.339226
 30
0.0
 11
600.492769
 21
462.393967
 31
0.0
  0
LWPOLYLINE
  5
159
330
126
100
AcDbEntity
  8
0
  6
Continuous
 62
     0
370
    30
100
AcDbPolyline
 90
       17
 70
     0
 43
0.0
 10
608.571655
 20
461.304871
 10
608.536804
 20
461.308807
 10
608.432434
 20
461.320709
 10
608.259216
 20
461.34082
 10
608.018372
 20
461.369507
 10
607.711426
 20
461.407166
 10
607.34021
 20
461.454132
 10
606.907227
 20
461.510406
 10
606.415222
 20
461.575867
 10
605.867432
 20
461.650208
 10
605.267151
 20
461.733124
 10
604.617981
 20
461.823914
 10
603.92395
 20
461.921082
 10
603.189087
 20
462.022949
 10
602.41687
 20
462.127289
 10
601.611023
 20
462.231598
 10
600.720215
 20
462.339233
  0
LWPOLYLINE
  5
15A
330
126
100
AcDbEntity
  8
0
  6
Continuous
 62
     0
370
     0
100
AcDbPolyline
 90
       17
 70
     0
 43
0.0
 10
600.492798
 20
462.393982
 10
600.910339
 20
462.659851
 10
601.325439
 20
462.995239
 10
601.734863
 20
463.397675
 10
602.135986
 20
463.864471
 10
602.526123
 20
464.392639
 10
602.90271
 20
464.978607
 10
603.263306
 20
465.618439
 10
603.605347
 20
466.307892
 10
603.926636
 20
467.042389
 10
604.225098
 20
467.817017
 10
604.498657
 20
468.626648
 10
604.745483
 20
469.465759
 10
604.963989
 20
470.328827
 10
605.152649
 20
471.210236
 10
605.310303
 20
472.104248
 10
605.442749
 20
473.062042
  0
LWPOLYLINE
  5
15B
330
126
100
AcDbEntity
  8
0
  6
Continuous
 62
     0
370
     0
100
AcDbPolyline
 90
       20
 70
     0
 43
0.0
 10
600.492798
 20
462.393982
 10
600.397949
 20
462.726837
 10
600.285889
 20
463.127991
 10
600.157471
 20
463.588409
 10
600.013245
 20
464.100952
 10
599.853455
 20
464.659576
 10
599.678833
 20
465.257538
 10
599.490112
 20
465.888214
 10
599.287842
 20
466.545807
 10
599.072632
 20
467.225281
 10
598.845032
 20
467.921814
 10
598.605652
 20
468.631104
 10
598.355103
 20
469.348938
 10
598.093994
 20
470.071777
 10
597.822937
 20
470.796265
 10
597.54248
 20
471.51944
 10
597.253235
 20
472.238556
 10
596.955627
 20
472.951447
 10
596.650269
 20
473.655945
 10
596.327271
 20
474.372894
  0
LINE
  5
15C
330
126
100
AcDbEntity
  8
0
  6
Continuous
 62
     0
370
    30
100
AcDbLine
 10
430.027272
 20
480.705719
 30
0.0
 11
596.327272
 21
480.705719
 31
0.0
  0
LINE
  5
15D
330
126
100
AcDbEntity
  8
0
  6
Continuous
 62
     0
370
     0
100
AcDbLine
 10
430.027272
 20
479.205719
 30
0.0
 11
596.327272
 21
479.205719
 31
0.0
  0
LINE
  5
15E
330
126
100
AcDbEntity
  8
0
  6
Continuous
 62
     0
370
     0
100
AcDbLine
 10
430.027272
 20
474.372903
 30
0.0
 11
596.327272
 21
474.372903
 31
0.0
  0
LINE
  5
15F
330
126
100
AcDbEntity
  8
0
  6
Continuous
 62
     0
370
     0
100
AcDbLine
 10
430.027271
 20
462.393967
 30
0.0
 11
592.143694
 21
462.393967
 31
0.0
  0
LWPOLYLINE
  5
160
330
126
100
AcDbEntity
  8
0
  6
Continuous
 62
     0
370
    30
100
AcDbPolyline
 90
        7
 70
     0
 43
0.0
 10
592.143677
 20
462.393982
 10
593.416931
 20
462.509766
 10
594.728516
 20
462.587677
 10
596.057556
 20
462.616974
 10
597.387634
 20
462.595612
 10
598.703552
 20
462.525696
 10
600.215454
 20
462.393982
  0
LINE
  5
161
330
126
100
AcDbEntity
  8
0
  6
Continuous
 62
     0
370
     0
100
AcDbLine
 10
600.215444
 20
462.393967
 30
0.0
 11
600.492769
 21
462.393967
 31
0.0
  0
LWPOLYLINE
  5
162
330
126
100
AcDbEntity
  8
0
  6
Continuous
 62
     0
370
    30
100
AcDbPolyline
 90
       17
 70
     0
 43
0.0
 10
584.030518
 20
460.705719
 10
584.066833
 20
460.717102
 10
584.174866
 20
460.750427
 10
584.353333
 20
460.804535
 10
584.600891
 20
460.878265
 10
584.916077
 20
460.970245
 10
585.297363
 20
461.078339
 10
585.742676
 20
461.199951
 10
586.249146
 20
461.332275
 10
586.813904
 20
461.47229
 10
587.434021
 20
461.616852
 10
588.106323
 20
461.762573
 10
588.826965
 20
461.906067
 10
589.592529
 20
462.043915
 10
590.400574
 20
462.172943
 10
591.245239
 20
462.289886
 10
592.143677
 20
462.393982
  0
LWPOLYLINE
  5
163
330
126
100
AcDbEntity
  8
0
  6
Continuous
 62
     0
370
     0
100
AcDbPolyline
 90
       18
 70
     0
 43
0.0
 10
445.027283
 20
461.047424
 10
445.440552
 20
461.04245
 10
445.840851
 20
461.027832
 10
446.212463
 20
461.004761
 10
446.542633
 20
460.975067
 10
446.82132
 20
460.940826
 10
447.039551
 20
460.904388
 10
447.189667
 20
460.86795
 10
447.266968
 20
460.833405
 10
447.267944
 20
460.802429
 10
447.192322
 20
460.776215
 10
447.043304
 20
460.755188
 10
446.825714
 20
460.739288
 10
446.54715
 20
460.727936
 10
446.216614
 20
460.720398
 10
445.84491
 20
460.71579
 10
445.444641
 20
460.713409
 10
445.027222
 20
460.712677
  0
LWPOLYLINE
  5
164
330
126
100
AcDbEntity
  8
0
  6
Continuous
 62
     0
370
     0
100
AcDbPolyline
 90
       19
 70
     0
 43
0.0
 10
445.027222
 20
460.712677
 10
444.638763
 20
460.713318
 10
444.26062
 20
460.715393
 10
443.906006
 20
460.719299
 10
443.586029
 20
460.725708
 10
443.309662
 20
460.73526
 10
443.084381
 20
460.748688
 10
442.917542
 20
460.766754
 10
442.813812
 20
460.789368
 10
442.777374
 20
460.816406
 10
442.811035
 20
460.847443
 10
442.911926
 20
460.881104
 10
443.075623
 20
460.915741
 10
443.297363
 20
460.949646
 10
443.570496
 20
460.981079
 10
443.887695
 20
461.008118
 10
444.240082
 20
461.029083
 10
444.617004
 20
461.042511
 10
445.027283
 20
461.047424
  0
LINE
  5
165
330
126
100
AcDbEntity
  8
0
  6
Continuous
 62
     0
370
    30
100
AcDbLine
 10
600.215444
 20
462.393967
 30
0.0
 11
600.720216
 21
462.339215
 31
0.0
  0
LINE
  5
166
330
126
100
AcDbEntity
  8
0
  6
Continuous
 62
     0
370
    30
100
AcDbLine
 10
430.027271
 20
460.705719
 30
0.0
 11
584.030583
 21
460.705719
 31
0.0
  0
LWPOLYLINE
  5
167
330
126
100
AcDbEntity
  8
0
  6
Continuous
 62
     0
370
    30
100
AcDbPolyline
 90
       18
 70
     0
 43
0.0
 10
616.827271
 20
472.705719
 10
616.7948
 20
471.824677
 10
616.697754
 20
470.94809
 10
616.536682
 20
470.081116
 10
616.312378
 20
469.228424
 10
616.026001
 20
468.39447
 10
615.679138
 20
467.583771
 10
615.273743
 20
466.80069
 10
614.812012
 20
466.0495
 10
614.296204
 20
465.33432
 10
613.729248
 20
464.658966
 10
613.114319
 20
464.026978
 10
612.454773
 20
463.441772
 10
611.753906
 20
462.906647
 10
611.015625
 20
462.4245
 10
610.243958
 20
461.997864
 10
609.443054
 20
461.628998
 10
608.571655
 20
461.304871
  0
LINE
  5
168
330
126
100
AcDbEntity
  8
0
  6
Continuous
 62
     0
370
    30
100
AcDbLine
 10
616.827271
 20
479.205719
 30
0.0
 11
616.827271
 21
472.705781
 31
0.0
  0
ARC
  5
169
330
126
100
AcDbEntity
  8
0
  6
Continuous
 62
     0
370
    30
100
AcDbCircle
 10
615.327245
 20
479.205693
 30
0.0
 40
1.500025465212576
100
AcDbArc
 50
0.000973
 51
89.995208
  0
LINE
  5
16A
330
126
100
AcDbEntity
  8
0
  6
Continuous
 62
     0
370
     0
100
AcDbLine
 10
425.527271
 20
496.345529
 30
0.0
 11
425.527271
 21
440.705719
 31
0.0
  0
LINE
  5
16B
330
126
100
AcDbEntity
  8
0
  6
Continuous
 62
     0
370
     0
100
AcDbLine
 10
425.527271
 20
500.705719
 30
0.0
 11
425.527271
 21
496.345529
 31
0.0
  0
LINE
  5
16C
330
126
100
AcDbEntity
  8
0
  6
Continuous
 62
     0
370
     0
100
AcDbLine
 10
429.527271
 20
496.345529
 30
0.0
 11
429.527271
 21
500.705719
 31
0.0
  0
LINE
  5
16D
330
126
100
AcDbEntity
  8
0
  6
Continuous
 62
     0
370
     0
100
AcDbLine
 10
429.527271
 20
440.705719
 30
0.0
 11
429.527271
 21
496.345529
 31
0.0
  0
LWPOLYLINE
  5
16E
330
126
100
AcDbEntity
  8
0
  6
Continuous
 62
     0
370
    30
100
AcDbPolyline
 90
       12
 70
     0
 43
0.0
 10
430.027283
 20
500.205353
 10
430.027283
 20
500.169495
 10
430.027283
 20
500.061951
 10
430.027283
 20
499.882812
 10
430.027283
 20
499.632568
 10
430.027283
 20
499.311829
 10
430.027283
 20
498.921112
 10
430.027283
 20
498.461029
 10
430.027283
 20
497.932892
 10
430.027283
 20
497.338837
 10
430.027283
 20
496.680908
 10
430.027283
 20
495.918213
  0
LINE
  5
16F
330
126
100
AcDbEntity
  8
0
  6
Continuous
 62
     0
370
    30
100
AcDbLine
 10
430.027272
 20
495.918199
 30
0.0
 11
430.027271
 21
441.20601
 31
0.0
  0
LINE
  5
170
330
126
100
AcDbEntity
  8
0
  6
Continuous
 62
     0
370
    30
100
AcDbLine
 10
425.027272
 20
495.918199
 30
0.0
 11
425.027271
 21
441.20601
 31
0.0
  0
LWPOLYLINE
  5
171
330
126
100
AcDbEntity
  8
0
  6
Continuous
 62
     0
370
    30
100
AcDbPolyline
 90
       12
 70
     0
 43
0.0
 10
425.027283
 20
500.205353
 10
425.027283
 20
500.169495
 10
425.027283
 20
500.061951
 10
425.027283
 20
499.882812
 10
425.027283
 20
499.632568
 10
425.027283
 20
499.311829
 10
425.027283
 20
498.921112
 10
425.027283
 20
498.461029
 10
425.027283
 20
497.932892
 10
425.027283
 20
497.338837
 10
425.027283
 20
496.680908
 10
425.027283
 20
495.918213
  0
ARC
  5
172
330
126
100
AcDbEntity
  8
0
  6
Continuous
 62
     0
370
    30
100
AcDbCircle
 10
425.527273
 20
500.205613
 30
0.0
 40
0.5000017181848004
100
AcDbArc
 50
90.000196
 51
179.997579
  0
ARC
  5
173
330
126
100
AcDbEntity
  8
0
  6
Continuous
 62
     0
370
    30
100
AcDbCircle
 10
425.527273
 20
441.205779
 30
0.0
 40
0.5000021266779462
100
AcDbArc
 50
180.001541
 51
269.999757
  0
ARC
  5
174
330
126
100
AcDbEntity
  8
0
  6
Continuous
 62
     0
370
    30
100
AcDbCircle
 10
429.527269
 20
500.205613
 30
0.0
 40
0.5000017181877368
100
AcDbArc
 50
0.002421
 51
89.999804
  0
ARC
  5
175
330
126
100
AcDbEntity
  8
0
  6
Continuous
 62
     0
370
    30
100
AcDbCircle
 10
429.527269
 20
441.205779
 30
0.0
 40
0.5000021266742369
100
AcDbArc
 50
270.000243
 51
359.998459
  0
LINE
  5
176
330
126
100
AcDbEntity
  8
0
  6
Continuous
 62
     0
370
    30
100
AcDbLine
 10
425.527271
 20
440.705719
 30
0.0
 11
429.527271
 21
440.705719
 31
0.0
  0
LINE
  5
177
330
126
100
AcDbEntity
  8
0
  6
Continuous
 62
     0
370
    30
100
AcDbLine
 10
425.527271
 20
500.705719
 30
0.0
 11
429.527271
 21
500.705719
 31
0.0
  0
LINE
  5
178
330
126
100
AcDbEntity
  8
0
  6
Continuous
 62
     0
370
    30
100
AcDbLine
 10
587.134263
 20
459.650467
 30
0.0
 11
595.524652
 21
460.384531
 31
0.0
  0
LINE
  5
179
330
126
100
AcDbEntity
  8
0
  6
Continuous
 62
     0
370
    30
100
AcDbLine
 10
595.524652
 20
460.384531
 30
0.0
 11
605.563865
 21
461.262848
 31
0.0
  0
LINE
  5
17A
330
126
100
AcDbEntity
  8
0
  6
Continuous
 62
     0
370
    30
100
AcDbLine
 10
605.525861
 20
461.697232
 30
0.0
 11
605.563865
 21
461.262848
 31
0.0
  0
LINE
  5
17B
330
126
100
AcDbEntity
  8
0
  6
Continuous
 62
     0
370
    30
100
AcDbLine
 10
586.971577
 20
461.509972
 30
0.0
 11
587.134263
 21
459.650467
 31
0.0
  0
ENDBLK
  5
17D
330
126
100
AcDbEntity
  8
0
100
AcDbBlockEnd
  0
BLOCK
  5
1E6
330
17F
100
AcDbEntity
  8
0
100
AcDbBlockBegin
  2
d
 70
     0
 10
206.534805
 20
0.000031
 30
0.0
  3
d
  1

  0
ARC
  5
180
330
17F
100
AcDbEntity
  8
0
  6
Continuous
 62
     0
370
    30
100
AcDbCircle
 10
138.364316
 20
492.161633
 30
0.0
 40
0.4999999999984978
100
AcDbArc
 50
90.0
 51
170.0
  0
LINE
  5
181
330
17F
100
AcDbEntity
  8
0
  6
Continuous
 62
     0
370
    30
100
AcDbLine
 10
121.679108
 20
400.414509
 30
0.0
 11
125.146893
 21
420.081298
 31
0.0
  0
LINE
  5
182
330
17F
100
AcDbEntity
  8
0
  6
Continuous
 62
     0
370
    30
100
AcDbLine
 10
125.146893
 20
420.081298
 30
0.0
 11
134.034131
 21
470.483326
 31
0.0
  0
LINE
  5
183
330
17F
100
AcDbEntity
  8
0
  6
Continuous
 62
     0
370
    30
100
AcDbLine
 10
134.034131
 20
470.483326
 30
0.0
 11
134.335855
 21
472.194488
 31
0.0
  0
LINE
  5
184
330
17F
100
AcDbEntity
  8
0
  6
Continuous
 62
     0
370
    30
100
AcDbLine
 10
134.335855
 20
472.194489
 30
0.0
 11
137.871912
 21
492.248457
 31
0.0
  0
LINE
  5
185
330
17F
100
AcDbEntity
  8
0
  6
Continuous
 62
     0
370
     0
100
AcDbLine
 10
136.815367
 20
470.661633
 30
0.0
 11
136.741399
 21
470.24214
 31
0.0
  0
LWPOLYLINE
  5
186
330
17F
100
AcDbEntity
  8
0
  6
Continuous
 62
     0
370
     0
100
AcDbPolyline
 90
       11
 70
     0
 43
0.0
 10
134.828262
 20
472.141296
 10
135.039505
 20
472.041443
 10
135.249786
 20
471.936371
 10
135.458832
 20
471.825134
 10
135.666336
 20
471.706604
 10
135.871841
 20
471.579193
 10
136.0746
 20
471.440643
 10
136.273483
 20
471.287781
 10
136.466415
 20
471.115356
 10
136.649261
 20
470.914581
 10
136.815369
 20
470.661621
  0
LINE
  5
187
330
17F
100
AcDbEntity
  8
0
  6
Continuous
 62
     0
370
     0
100
AcDbLine
 10
134.524685
 20
470.386014
 30
0.0
 11
134.82826
 21
472.14129
 31
0.0
  0
LWPOLYLINE
  5
188
330
17F
100
AcDbEntity
  8
0
  6
Continuous
 62
     0
370
     0
100
AcDbPolyline
 90
        9
 70
     0
 43
0.0
 10
136.741394
 20
470.242126
 10
136.514343
 20
470.271729
 10
136.256531
 20
470.294708
 10
135.985626
 20
470.313934
 10
135.70755
 20
470.33078
 10
135.425003
 20
470.345886
 10
135.13942
 20
470.359711
 10
134.851624
 20
470.372528
 10
134.524689
 20
470.386017
  0
LINE
  5
189
330
17F
100
AcDbEntity
  8
0
  6
Continuous
 62
     0
370
    30
100
AcDbLine
 10
160.232658
 20
448.661633
 30
0.0
 11
149.949248
 21
448.661633
 31
0.0
  0
LINE
  5
18A
330
17F
100
AcDbEntity
  8
0
  6
Continuous
 62
     0
370
    30
100
AcDbLine
 10
144.894974
 20
448.661633
 30
0.0
 11
142.431683
 21
448.661633
 31
0.0
  0
LWPOLYLINE
  5
18B
330
17F
100
AcDbEntity
  8
0
  6
Continuous
 62
     0
370
     0
100
AcDbPolyline
 90
       27
 70
     0
 43
0.0
 10
138.364319
 20
492.661621
 10
138.358017
 20
492.624451
 10
138.338669
 20
492.512634
 10
138.306686
 20
492.32666
 10
138.262131
 20
492.067444
 10
138.205048
 20
491.736115
 10
138.135696
 20
491.334015
 10
138.054382
 20
490.862671
 10
137.961426
 20
490.323669
 10
137.857208
 20
489.719055
 10
137.742126
 20
489.051239
 10
137.616562
 20
488.322418
 10
137.480865
 20
487.53479
 10
137.335449
 20
486.690948
 10
137.180908
 20
485.794128
 10
137.017822
 20
484.847778
 10
136.846802
 20
483.855255
 10
136.668396
 20
482.819977
 10
136.483231
 20
481.745331
 10
136.291855
 20
480.634827
 10
136.094955
 20
479.492188
 10
135.893188
 20
478.321289
 10
135.68721
 20
477.125916
 10
135.477631
 20
475.909698
 10
135.265091
 20
474.67627
 10
135.050354
 20
473.430084
 10
134.828262
 20
472.141296
  0
LINE
  5
18C
330
17F
100
AcDbEntity
  8
0
  6
Continuous
 62
     0
370
     0
100
AcDbLine
 10
136.815367
 20
470.661633
 30
0.0
 11
147.407459
 21
470.661633
 31
0.0
  0
LWPOLYLINE
  5
18D
330
17F
100
AcDbEntity
  8
0
  6
Continuous
 62
     0
370
     0
100
AcDbPolyline
 90
       30
 70
     0
 43
0.0
 10
147.407455
 20
470.661621
 10
147.013641
 20
469.521179
 10
146.64035
 20
468.376343
 10
146.288406
 20
467.231171
 10
145.958191
 20
466.089264
 10
145.649918
 20
464.954224
 10
145.363464
 20
463.829712
 10
145.098602
 20
462.719574
 10
144.854919
 20
461.627777
 10
144.631577
 20
460.558441
 10
144.427734
 20
459.515808
 10
144.242432
 20
458.503937
 10
144.074249
 20
457.52594
 10
143.921707
 20
456.5849
 10
143.783295
 20
455.684143
 10
143.657547
 20
454.827209
 10
143.542892
 20
454.017059
 10
143.437637
 20
453.255951
 10
143.340317
 20
452.546387
 10
143.24939
 20
451.890717
 10
143.163223
 20
451.291199
 10
143.081009
 20
450.749634
 10
142.999985
 20
450.26767
 10
142.907791
 20
449.847046
 10
142.80336
 20
449.488922
 10
142.696487
 20
449.194031
 10
142.596252
 20
448.963196
 10
142.511948
 20
448.797058
 10
142.453659
 20
448.696289
 10
142.431686
 20
448.661621
  0
LWPOLYLINE
  5
18E
330
17F
100
AcDbEntity
  8
0
  6
Continuous
 62
     0
370
    30
100
AcDbPolyline
 90
       16
 70
     0
 43
0.0
 10
144.894974
 20
448.661621
 10
144.927338
 20
448.665405
 10
145.026917
 20
448.6763
 10
145.188171
 20
448.693176
 10
145.408386
 20
448.714264
 10
145.682037
 20
448.737335
 10
146.002441
 20
448.759979
 10
146.360138
 20
448.779755
 10
146.745239
 20
448.794464
 10
147.147476
 20
448.802704
 10
147.55632
 20
448.803558
 10
147.961121
 20
448.797089
 10
148.351608
 20
448.783936
 10
148.718079
 20
448.765472
 10
149.05127
 20
448.743622
 10
149.353607
 20
448.719696
  0
LINE
  5
18F
330
17F
100
AcDbEntity
  8
0
  6
Continuous
 62
     0
370
    30
100
AcDbLine
 10
160.232658
 20
448.661633
 30
0.0
 11
160.232658
 21
470.661633
 31
0.0
  0
LINE
  5
190
330
17F
100
AcDbEntity
  8
0
  6
Continuous
 62
     0
370
    30
100
AcDbLine
 10
160.232657
 20
470.661633
 30
0.0
 11
152.225259
 21
492.661633
 31
0.0
  0
LWPOLYLINE
  5
191
330
17F
100
AcDbEntity
  8
0
  6
Continuous
 62
     0
370
     0
100
AcDbPolyline
 90
        5
 70
     0
 43
0.0
 10
134.335861
 20
472.194489
 10
134.374359
 20
472.200378
 10
134.479843
 20
472.192596
 10
134.636749
 20
472.172272
 10
134.828262
 20
472.141296
  0
LWPOLYLINE
  5
192
330
17F
100
AcDbEntity
  8
0
  6
Continuous
 62
     0
370
     0
100
AcDbPolyline
 90
        5
 70
     0
 43
0.0
 10
134.524689
 20
470.386017
 10
134.337418
 20
470.419861
 10
134.178604
 20
470.450165
 10
134.072174
 20
470.472412
 10
134.034134
 20
470.483337
  0
ELLIPSE
  5
193
330
17F
100
AcDbEntity
  8
0
  6
Continuous
 62
     0
370
     0
100
AcDbEllipse
 10
125.639297
 20
419.994474
 30
0.0
 11
-0.4924038759103435
 21
0.08682409221220258
 31
0.0
210
0.0
220
0.0
230
1.0
 40
0.021298
 41
-0.0000000427315312
 42
1.570796284064023
  0
LINE
  5
194
330
17F
100
AcDbEntity
  8
0
  6
Continuous
 62
     0
370
     0
100
AcDbLine
 10
125.637448
 20
419.983986
 30
0.0
 11
134.524685
 21
470.386014
 31
0.0
  0
LINE
  5
195
330
17F
100
AcDbEntity
  8
0
  6
Continuous
 62
     0
370
     0
100
AcDbLine
 10
122.084688
 20
399.835281
 30
0.0
 11
125.637448
 21
419.983986
 31
0.0
  0
ARC
  5
196
330
17F
100
AcDbEntity
  8
0
  6
Continuous
 62
     0
370
    30
100
AcDbCircle
 10
142.430905
 20
439.663156
 30
0.0
 40
8.998244363003796
100
AcDbArc
 50
93.100544
 51
139.085007
  0
LINE
  5
197
330
17F
100
AcDbEntity
  8
0
  6
Continuous
 62
     0
370
     0
100
AcDbLine
 10
133.42936
 20
448.32421
 30
0.0
 11
128.436447
 21
419.522887
 31
0.0
  0
LWPOLYLINE
  5
198
330
17F
100
AcDbEntity
  8
0
  6
Continuous
 62
     0
370
     0
100
AcDbPolyline
 90
       24
 70
     0
 43
0.0
 10
128.436447
 20
419.522888
 10
128.22702
 20
418.278015
 10
128.030975
 20
417.036591
 10
127.84906
 20
415.80661
 10
127.68222
 20
414.598907
 10
127.531128
 20
413.423096
 10
127.395363
 20
412.283539
 10
127.274216
 20
411.183533
 10
127.16713
 20
410.128265
 10
127.073578
 20
409.123627
 10
126.992836
 20
408.174591
 10
126.923943
 20
407.285095
 10
126.865936
 20
406.458862
 10
126.817802
 20
405.698975
 10
126.778503
 20
405.008057
 10
126.747002
 20
404.388763
 10
126.722282
 20
403.842896
 10
126.703369
 20
403.370789
 10
126.689293
 20
402.972717
 10
126.679192
 20
402.648468
 10
126.672287
 20
402.397552
 10
126.667999
 20
402.218933
 10
126.665794
 20
402.11142
 10
126.665108
 20
402.073883
  0
LWPOLYLINE
  5
199
330
17F
100
AcDbEntity
  8
0
  6
Continuous
 62
     0
370
     0
100
AcDbPolyline
 90
       17
 70
     0
 43
0.0
 10
133.568405
 20
441.224457
 10
133.565399
 20
441.243347
 10
133.556168
 20
441.298981
 10
133.54274
 20
441.402252
 10
133.525894
 20
441.556885
 10
133.506912
 20
441.768616
 10
133.487152
 20
442.042847
 10
133.467987
 20
442.384308
 10
133.450989
 20
442.797485
 10
133.437347
 20
443.283813
 10
133.425919
 20
443.833038
 10
133.41684
 20
444.441315
 10
133.410721
 20
445.106842
 10
133.408203
 20
445.827606
 10
133.409958
 20
446.60144
 10
133.416641
 20
447.42627
 10
133.429367
 20
448.324219
  0
LWPOLYLINE
  5
19A
330
17F
100
AcDbEntity
  8
0
  6
Continuous
 62
     0
370
     0
100
AcDbPolyline
 90
       27
 70
     0
 43
0.0
 10
123.189949
 20
399.640381
 10
123.199135
 20
399.676514
 10
123.225975
 20
399.784546
 10
123.269409
 20
399.964233
 10
123.328377
 20
400.215302
 10
123.401855
 20
400.537109
 10
123.488846
 20
400.928223
 10
123.588371
 20
401.387177
 10
123.699455
 20
401.912415
 10
123.821205
 20
402.502228
 10
123.952812
 20
403.154663
 10
124.093643
 20
403.867859
 10
124.243134
 20
404.639771
 10
124.400787
 20
405.467438
 10
124.566109
 20
406.347809
 10
124.738609
 20
407.27771
 10
124.917793
 20
408.253754
 10
125.103142
 20
409.272034
 10
125.294128
 20
410.328644
 10
125.490257
 20
411.419647
 10
125.691048
 20
412.541077
 10
125.896095
 20
413.689056
 10
126.104874
 20
414.860718
 10
126.316742
 20
416.053528
 10
126.530502
 20
417.262268
 10
126.744698
 20
418.480255
 10
126.966347
 20
419.749664
  0
LINE
  5
19B
330
17F
100
AcDbEntity
  8
0
  6
Continuous
 62
     0
370
     0
100
AcDbLine
 10
126.966348
 20
419.749665
 30
0.0
 11
125.637448
 21
419.983986
 31
0.0
  0
LINE
  5
19C
330
17F
100
AcDbEntity
  8
0
  6
Continuous
 62
     0
370
     0
100
AcDbLine
 10
126.966348
 20
419.749665
 30
0.0
 11
131.960091
 21
448.550841
 31
0.0
  0
LWPOLYLINE
  5
19D
330
17F
100
AcDbEntity
  8
0
  6
Continuous
 62
     0
370
     0
100
AcDbPolyline
 90
       19
 70
     0
 43
0.0
 10
131.960083
 20
448.550842
 10
132.213989
 20
449.923737
 10
132.506241
 20
451.2854
 10
132.84671
 20
452.630066
 10
133.242737
 20
453.952789
 10
133.699402
 20
455.249237
 10
134.219727
 20
456.515686
 10
134.805191
 20
457.748871
 10
135.456055
 20
458.946045
 10
136.171707
 20
460.10498
 10
136.948715
 20
461.224152
 10
137.780167
 20
462.303101
 10
138.661102
 20
463.341522
 10
139.586792
 20
464.33963
 10
140.552689
 20
465.298279
 10
141.554077
 20
466.218994
 10
142.585602
 20
467.10495
 10
143.639679
 20
467.962799
 10
144.729263
 20
468.833649
  0
LINE
  5
19E
330
17F
100
AcDbEntity
  8
0
  6
Continuous
 62
     0
370
     0
100
AcDbLine
 10
144.729264
 20
468.833663
 30
0.0
 11
136.741399
 21
470.24214
 31
0.0
  0
LWPOLYLINE
  5
19F
330
17F
100
AcDbEntity
  8
0
  6
Continuous
 62
     0
370
     0
100
AcDbPolyline
 90
        2
 70
     0
 43
0.0
 10
147.407455
 20
470.661621
 10
145.601898
 20
468.381348
  0
ARC
  5
1A0
330
17F
100
AcDbEntity
  8
0
  6
Continuous
 62
     0
370
     0
100
AcDbCircle
 10
150.657634
 20
464.345156
 30
0.0
 40
6.469252012488154
100
AcDbArc
 50
141.398241
 51
145.133638
  0
LWPOLYLINE
  5
1A1
330
17F
100
AcDbEntity
  8
0
  6
Continuous
 62
     0
370
     0
100
AcDbPolyline
 90
       21
 70
     0
 43
0.0
 10
145.349686
 20
468.043396
 10
144.671829
 20
467.099121
 10
143.974548
 20
466.170624
 10
143.267273
 20
465.251373
 10
142.555969
 20
464.336853
 10
141.842911
 20
463.424683
 10
141.130157
 20
462.512634
 10
140.420044
 20
461.598358
 10
139.715134
 20
460.679321
 10
139.018158
 20
459.752991
 10
138.332657
 20
458.816589
 10
137.662537
 20
457.867126
 10
137.012375
 20
456.901703
 10
136.389526
 20
455.917267
 10
135.802063
 20
454.910828
 10
135.258118
 20
453.879822
 10
134.765945
 20
452.823486
 10
134.332443
 20
451.740997
 10
133.963135
 20
450.632721
 10
133.662964
 20
449.50473
 10
133.429367
 20
448.324219
  0
ARC
  5
1A2
330
17F
100
AcDbEntity
  8
0
  6
Continuous
 62
     0
370
     0
100
AcDbCircle
 10
149.483346
 20
464.813442
 30
0.0
 40
6.226032843486835
100
AcDbArc
 50
135.12947
 51
139.780952
  0
LINE
  5
1A3
330
17F
100
AcDbEntity
  8
0
  6
Continuous
 62
     0
370
     0
100
AcDbLine
 10
145.07094
 20
469.205953
 30
0.0
 11
136.815367
 21
470.661633
 31
0.0
  0
ARC
  5
1A4
330
17F
100
AcDbEntity
  8
0
  6
Continuous
 62
     0
370
     0
100
AcDbCircle
 10
170.63825
 20
430.770757
 30
0.0
 40
46.16223181565761
100
AcDbArc
 50
120.214747
 51
123.632076
  0
LINE
  5
1A5
330
17F
100
AcDbEntity
  8
0
  6
Continuous
 62
     0
370
     0
100
AcDbLine
 10
145.07094
 20
469.205953
 30
0.0
 11
145.601872
 21
468.381398
 31
0.0
  0
LINE
  5
1A6
330
17F
100
AcDbEntity
  8
0
  6
Continuous
 62
     0
370
     0
100
AcDbLine
 10
144.729264
 20
468.833663
 30
0.0
 11
145.349647
 21
468.043466
 31
0.0
  0
LWPOLYLINE
  5
1A7
330
17F
100
AcDbEntity
  8
0
  6
Continuous
 62
     0
370
     0
100
AcDbPolyline
 90
        8
 70
     0
 43
0.0
 10
131.960083
 20
448.550842
 10
132.254333
 20
448.500488
 10
132.537872
 20
448.453278
 10
132.797989
 20
448.411285
 10
133.024567
 20
448.376221
 10
133.208817
 20
448.349365
 10
133.343201
 20
448.331879
 10
133.429367
 20
448.324219
  0
LWPOLYLINE
  5
1A8
330
17F
100
AcDbEntity
  8
0
  6
Continuous
 62
     0
370
     0
100
AcDbPolyline
 90
        8
 70
     0
 43
0.0
 10
128.436447
 20
419.522888
 10
128.367157
 20
419.528564
 10
128.241455
 20
419.544434
 10
128.064423
 20
419.569885
 10
127.84343
 20
419.603851
 10
127.587135
 20
419.644989
 10
127.305504
 20
419.691711
 10
126.966347
 20
419.749664
  0
ARC
  5
1A9
330
17F
100
AcDbEntity
  8
0
  6
Continuous
 62
     0
370
    30
100
AcDbCircle
 10
123.710615
 20
402.59496
 30
0.0
 40
3.00009212649961
100
AcDbArc
 50
260.001759
 51
349.998566
  0
ARC
  5
1AA
330
17F
100
AcDbEntity
  8
0
  6
Continuous
 62
     0
370
    30
100
AcDbCircle
 10
142.44043
 20
439.657126
 30
0.0
 40
9.009392381086641
100
AcDbArc
 50
139.095699
 51
169.981537
  0
ARC
  5
1AB
330
17F
100
AcDbEntity
  8
0
  6
Continuous
 62
     0
370
    30
100
AcDbCircle
 10
142.432211
 20
439.769756
 30
0.0
 40
8.89187409245508
100
AcDbArc
 50
90.003404
 51
93.146101
  0
LINE
  5
1AC
330
17F
100
AcDbEntity
  8
0
  6
Continuous
 62
     0
370
    30
100
AcDbLine
 10
122.084688
 20
399.835281
 30
0.0
 11
123.190166
 21
399.640356
 31
0.0
  0
LINE
  5
1AD
330
17F
100
AcDbEntity
  8
0
  6
Continuous
 62
     0
370
    30
100
AcDbLine
 10
133.568413
 20
441.224466
 30
0.0
 11
126.665123
 21
402.073965
 31
0.0
  0
ARC
  5
1AE
330
17F
100
AcDbEntity
  8
0
  6
Continuous
 62
     0
370
    30
100
AcDbCircle
 10
122.171515
 20
400.327687
 30
0.0
 40
0.5000026258441959
100
AcDbArc
 50
170.004287
 51
259.999699
  0
LINE
  5
1AF
330
17F
100
AcDbEntity
  8
0
  6
Continuous
 62
     0
370
    30
100
AcDbLine
 10
152.225211
 20
492.661633
 30
0.0
 11
138.364316
 21
492.661633
 31
0.0
  0
LINE
  5
1B0
330
17F
100
AcDbEntity
  8
0
  6
Continuous
 62
     0
370
     0
100
AcDbLine
 10
163.832656
 20
468.658462
 30
0.0
 11
163.332656
 21
468.658462
 31
0.0
  0
LINE
  5
1B1
330
17F
100
AcDbEntity
  8
0
  6
Continuous
 62
     0
370
     0
100
AcDbLine
 10
163.332656
 20
468.658462
 30
0.0
 11
163.332656
 21
472.658462
 31
0.0
  0
LINE
  5
1B2
330
17F
100
AcDbEntity
  8
0
  6
Continuous
 62
     0
370
     0
100
AcDbLine
 10
163.332656
 20
472.658462
 30
0.0
 11
163.832656
 21
472.658462
 31
0.0
  0
ARC
  5
1B3
330
17F
100
AcDbEntity
  8
0
  6
Continuous
 62
     0
370
    30
100
AcDbCircle
 10
165.202231
 20
470.759108
 30
0.0
 40
20.49645508329471
100
AcDbArc
 50
255.968215
 51
266.168637
  0
ARC
  5
1B4
330
17F
100
AcDbEntity
  8
0
  6
Continuous
 62
     0
370
    30
100
AcDbCircle
 10
165.202677
 20
470.553992
 30
0.0
 40
20.50030006073263
100
AcDbArc
 50
93.831892
 51
123.062858
  0
LWPOLYLINE
  5
1B5
330
17F
100
AcDbEntity
  8
0
  6
Continuous
 62
     0
370
    30
100
AcDbPolyline
 90
       58
 70
     0
 43
0.0
 10
166.832657
 20
500.205658
 10
166.832657
 20
500.169586
 10
166.832657
 20
500.059906
 10
166.832657
 20
499.874817
 10
166.832657
 20
499.613007
 10
166.832657
 20
499.273773
 10
166.832657
 20
498.857025
 10
166.832657
 20
498.363251
 10
166.832657
 20
497.79361
 10
166.832657
 20
497.149872
 10
166.832657
 20
496.434448
 10
166.832657
 20
495.650299
 10
166.832657
 20
494.800934
 10
166.832657
 20
493.890381
 10
166.832657
 20
492.923065
 10
166.832657
 20
491.903778
 10
166.832657
 20
490.837646
 10
166.832657
 20
489.729919
 10
166.832657
 20
488.58606
 10
166.832657
 20
487.411591
 10
166.832657
 20
486.211945
 10
166.832657
 20
484.992584
 10
166.832657
 20
483.758728
 10
166.832657
 20
482.515503
 10
166.832657
 20
481.267731
 10
166.832657
 20
480.019958
 10
166.832657
 20
478.760132
 10
166.832657
 20
477.461975
 10
166.832657
 20
476.127502
 10
166.832657
 20
474.759827
 10
166.832657
 20
473.362549
 10
166.832657
 20
471.939636
 10
166.832657
 20
470.495544
 10
166.832657
 20
469.035034
 10
166.832657
 20
467.563354
 10
166.832657
 20
466.085968
 10
166.832657
 20
464.608582
 10
166.832657
 20
463.137177
 10
166.832657
 20
461.677795
 10
166.832657
 20
460.236481
 10
166.832657
 20
458.819275
 10
166.832657
 20
457.432068
 10
166.832657
 20
456.080627
 10
166.832657
 20
454.770294
 10
166.832657
 20
453.506134
 10
166.832657
 20
452.292816
 10
166.832657
 20
451.13443
 10
166.832657
 20
450.034668
 10
166.832657
 20
448.996582
 10
166.832657
 20
448.022644
 10
166.832657
 20
447.114807
 10
166.832657
 20
446.274414
 10
166.832657
 20
445.502228
 10
166.832657
 20
444.798462
 10
166.832657
 20
444.162872
 10
166.832657
 20
443.594666
 10
166.832657
 20
443.092682
 10
166.832657
 20
442.648804
  0
LINE
  5
1B6
330
17F
100
AcDbEntity
  8
0
  6
Continuous
 62
     0
370
    30
100
AcDbLine
 10
166.832655
 20
442.648796
 30
0.0
 11
166.832656
 21
441.205658
 31
0.0
  0
LINE
  5
1B7
330
17F
100
AcDbEntity
  8
0
  6
Continuous
 62
     0
370
     0
100
AcDbLine
 10
167.332656
 20
442.173256
 30
0.0
 11
167.332656
 21
440.705658
 31
0.0
  0
LINE
  5
1B8
330
17F
100
AcDbEntity
  8
0
  6
Continuous
 62
     0
370
     0
100
AcDbLine
 10
167.332656
 20
500.705658
 30
0.0
 11
167.332656
 21
442.173256
 31
0.0
  0
LINE
  5
1B9
330
17F
100
AcDbEntity
  8
0
  6
Continuous
 62
     0
370
     0
100
AcDbLine
 10
171.332656
 20
442.173256
 30
0.0
 11
171.332656
 21
500.705658
 31
0.0
  0
LINE
  5
1BA
330
17F
100
AcDbEntity
  8
0
  6
Continuous
 62
     0
370
     0
100
AcDbLine
 10
171.332656
 20
440.705658
 30
0.0
 11
171.332656
 21
442.173256
 31
0.0
  0
LWPOLYLINE
  5
1BB
330
17F
100
AcDbEntity
  8
0
  6
Continuous
 62
     0
370
    30
100
AcDbPolyline
 90
        8
 70
     0
 43
0.0
 10
171.832657
 20
441.205658
 10
171.832657
 20
441.236725
 10
171.832657
 20
441.328339
 10
171.832657
 20
441.478027
 10
171.832657
 20
441.682953
 10
171.832657
 20
441.940186
 10
171.832657
 20
442.246552
 10
171.832657
 20
442.648804
  0
LINE
  5
1BC
330
17F
100
AcDbEntity
  8
0
  6
Continuous
 62
     0
370
    30
100
AcDbLine
 10
171.832655
 20
442.648796
 30
0.0
 11
171.832656
 21
500.205658
 31
0.0
  0
ARC
  5
1BD
330
17F
100
AcDbEntity
  8
0
  6
Continuous
 62
     0
370
    30
100
AcDbCircle
 10
167.332658
 20
441.205654
 30
0.0
 40
0.50000267583868
100
AcDbArc
 50
180.002598
 51
269.999696
  0
ARC
  5
1BE
330
17F
100
AcDbEntity
  8
0
  6
Continuous
 62
     0
370
    30
100
AcDbCircle
 10
167.332657
 20
500.205549
 30
0.0
 40
0.5000016416147595
100
AcDbArc
 50
90.000186
 51
179.993324
  0
ARC
  5
1BF
330
17F
100
AcDbEntity
  8
0
  6
Continuous
 62
     0
370
    30
100
AcDbCircle
 10
171.332653
 20
441.205654
 30
0.0
 40
0.5000028125968461
100
AcDbArc
 50
270.00032
 51
359.997386
  0
ARC
  5
1C0
330
17F
100
AcDbEntity
  8
0
  6
Continuous
 62
     0
370
    30
100
AcDbCircle
 10
171.332654
 20
500.205549
 30
0.0
 40
0.500001873491175
100
AcDbArc
 50
0.006703
 51
89.999788
  0
LINE
  5
1C1
330
17F
100
AcDbEntity
  8
0
  6
Continuous
 62
     0
370
    30
100
AcDbLine
 10
171.332656
 20
500.705658
 30
0.0
 11
167.332656
 21
500.705658
 31
0.0
  0
LINE
  5
1C2
330
17F
100
AcDbEntity
  8
0
  6
Continuous
 62
     0
370
    30
100
AcDbLine
 10
171.332656
 20
440.705658
 30
0.0
 11
167.332656
 21
440.705658
 31
0.0
  0
LINE
  5
1C3
330
17F
100
AcDbEntity
  8
0
  6
Continuous
 62
     0
370
    30
100
AcDbLine
 10
163.832658
 20
492.758462
 30
0.0
 11
163.832658
 21
488.130707
 31
0.0
  0
LINE
  5
1C4
330
17F
100
AcDbEntity
  8
0
  6
Continuous
 62
     0
370
    30
100
AcDbLine
 10
163.832658
 20
488.130707
 30
0.0
 11
163.832658
 21
448.558462
 31
0.0
  0
LINE
  5
1C5
330
17F
100
AcDbEntity
  8
0
  6
Continuous
 62
     0
370
    30
100
AcDbLine
 10
163.832658
 20
448.558462
 30
0.0
 11
166.832656
 21
448.558462
 31
0.0
  0
LINE
  5
1C6
330
17F
100
AcDbEntity
  8
0
  6
Continuous
 62
     0
370
    30
100
AcDbLine
 10
163.832658
 20
492.758462
 30
0.0
 11
166.832656
 21
492.758462
 31
0.0
  0
LINE
  5
1C7
330
17F
100
AcDbEntity
  8
0
  6
Continuous
 62
     0
370
    30
100
AcDbLine
 10
145.093915
 20
448.336367
 30
0.0
 11
149.710001
 21
448.457244
 31
0.0
  0
ARC
  5
1C8
330
17F
100
AcDbEntity
  8
0
  6
Continuous
 62
     0
370
    30
100
AcDbCircle
 10
149.703451
 20
448.707131
 30
0.0
 40
0.2499732245171281
100
AcDbArc
 50
271.501563
 51
349.512949
  0
ARC
  5
1C9
330
17F
100
AcDbEntity
  8
0
  6
Continuous
 62
     0
370
    30
100
AcDbCircle
 10
145.075282
 20
448.585965
 30
0.0
 40
0.2499999999986738
100
AcDbArc
 50
188.0
 51
271.5
  0
LINE
  5
1CA
330
17F
100
AcDbEntity
  8
0
  6
Continuous
 62
     0
370
    30
100
AcDbLine
 10
144.827715
 20
448.551172
 30
0.0
 11
149.951024
 21
448.741951
 31
0.0
  0
LWPOLYLINE
  5
1CB
330
17F
100
AcDbEntity
  8
0
  6
Continuous
 62
     0
370
    30
100
AcDbPolyline
 90
        3
 70
     0
 43
0.0
 10
145.081833
 20
448.33606
 10
145.082581
 20
448.33606
 10
145.093918
 20
448.336365
  0
LINE
  5
1CC
330
17F
100
AcDbEntity
  8
0
  6
Continuous
 62
     0
370
    30
100
AcDbLine
 10
0.53266
 20
480.705658
 30
0.0
 11
-18.46734
 21
480.705658
 31
0.0
  0
LWPOLYLINE
  5
1CD
330
17F
100
AcDbEntity
  8
0
  6
Continuous
 62
     0
370
     0
100
AcDbPolyline
 90
       27
 70
     0
 43
0.0
 10
-19.96734
 20
479.205658
 10
-19.929985
 20
479.205658
 10
-19.818216
 20
479.205658
 10
-19.632473
 20
479.205658
 10
-19.37326
 20
479.205658
 10
-19.041607
 20
479.205658
 10
-18.638819
 20
479.205658
 10
-18.166224
 20
479.205658
 10
-17.625532
 20
479.205658
 10
-17.018848
 20
479.205658
 10
-16.348301
 20
479.205658
 10
-15.616242
 20
479.205658
 10
-14.825481
 20
479.205658
 10
-13.978883
 20
479.205658
 10
-13.079407
 20
479.205658
 10
-12.130416
 20
479.205658
 10
-11.135382
 20
479.205658
 10
-10.097809
 20
479.205658
 10
-9.021544
 20
479.205658
 10
-7.910621
 20
479.205658
 10
-6.769076
 20
479.205658
 10
-5.600974
 20
479.205658
 10
-4.410407
 20
479.205658
 10
-3.201474
 20
479.205658
 10
-1.978628
 20
479.205658
 10
-0.74708
 20
479.205658
 10
0.532659
 20
479.205658
  0
LINE
  5
1CE
330
17F
100
AcDbEntity
  8
0
  6
Continuous
 62
     0
370
     0
100
AcDbLine
 10
0.532659
 20
479.205658
 30
0.0
 11
0.53266
 21
480.705658
 31
0.0
  0
LWPOLYLINE
  5
1CF
330
17F
100
AcDbEntity
  8
0
  6
Continuous
 62
     0
370
     0
100
AcDbPolyline
 90
       14
 70
     0
 43
0.0
 10
-8.582811
 20
473.061981
 10
-7.921945
 20
472.993744
 10
-7.247137
 20
472.982117
 10
-6.562582
 20
473.008453
 10
-5.870517
 20
473.064667
 10
-5.172693
 20
473.145203
 10
-4.470179
 20
473.246399
 10
-3.763948
 20
473.36557
 10
-3.055055
 20
473.500671
 10
-2.34453
 20
473.649933
 10
-1.633229
 20
473.811951
 10
-0.921987
 20
473.985504
 10
-0.211595
 20
474.169495
 10
0.532659
 20
474.372833
  0
LINE
  5
1D0
330
17F
100
AcDbEntity
  8
0
  6
Continuous
 62
     0
370
     0
100
AcDbLine
 10
0.532659
 20
474.372842
 30
0.0
 11
0.532659
 21
479.205658
 31
0.0
  0
LWPOLYLINE
  5
1D1
330
17F
100
AcDbEntity
  8
0
  6
Continuous
 62
     0
370
     0
100
AcDbPolyline
 90
       19
 70
     0
 43
0.0
 10
-19.96734
 20
472.70578
 10
-19.928497
 20
472.704315
 10
-19.812212
 20
472.700928
 10
-19.618855
 20
472.697052
 10
-19.349072
 20
472.694
 10
-19.004131
 20
472.692871
 10
-18.585388
 20
472.694702
 10
-18.09428
 20
472.7005
 10
-17.532352
 20
472.711121
 10
-16.901218
 20
472.727386
 10
-16.203249
 20
472.74942
 10
-15.441375
 20
472.776703
 10
-14.618543
 20
472.808746
 10
-13.737699
 20
472.845123
 10
-12.801854
 20
472.885254
 10
-11.815162
 20
472.928253
 10
-10.78275
 20
472.972748
 10
-9.709715
 20
473.017456
 10
-8.582811
 20
473.061981
  0
LWPOLYLINE
  5
1D2
330
17F
100
AcDbEntity
  8
0
  6
Continuous
 62
     0
370
     0
100
AcDbPolyline
 90
       17
 70
     0
 43
0.0
 10
-3.632838
 20
462.393921
 10
-4.04955
 20
462.659485
 10
-4.464583
 20
462.995026
 10
-4.874671
 20
463.397797
 10
-5.276546
 20
463.865082
 10
-5.667089
 20
464.39386
 10
-6.043792
 20
464.980347
 10
-6.404309
 20
465.620331
 10
-6.746293
 20
466.309723
 10
-7.067463
 20
467.04422
 10
-7.365826
 20
467.819
 10
-7.639465
 20
468.628937
 10
-7.886466
 20
469.468994
 10
-8.105006
 20
470.333832
 10
-8.293694
 20
471.216797
 10
-8.451265
 20
472.11084
 10
-8.582811
 20
473.061981
  0
LWPOLYLINE
  5
1D3
330
17F
100
AcDbEntity
  8
0
  6
Continuous
 62
     0
370
     0
100
AcDbPolyline
 90
       20
 70
     0
 43
0.0
 10
0.532659
 20
474.372833
 10
0.219989
 20
473.679291
 10
-0.085596
 20
472.975128
 10
-0.383443
 20
472.262512
 10
-0.673003
 20
471.543549
 10
-0.953771
 20
470.820465
 10
-1.225165
 20
470.095978
 10
-1.486597
 20
469.373047
 10
-1.737486
 20
468.654968
 10
-1.977241
 20
467.945343
 10
-2.205249
 20
467.248291
 10
-2.4209
 20
466.568176
 10
-2.623616
 20
465.90976
 10
-2.812827
 20
465.278107
 10
-2.987914
 20
464.678925
 10
-3.148184
 20
464.118896
 10
-3.292958
 20
463.604706
 10
-3.421896
 20
463.142456
 10
-3.534561
 20
462.739105
 10
-3.632838
 20
462.393921
  0
LWPOLYLINE
  5
1D4
330
17F
100
AcDbEntity
  8
0
  6
Continuous
 62
     0
370
    30
100
AcDbPolyline
 90
       17
 70
     0
 43
0.0
 10
-3.860265
 20
462.339172
 10
-4.695829
 20
462.238464
 10
-5.503715
 20
462.134277
 10
-6.278334
 20
462.029877
 10
-7.015826
 20
461.927765
 10
-7.712721
 20
461.8302
 10
-8.365033
 20
461.738953
 10
-8.968719
 20
461.655487
 10
-9.520174
 20
461.580536
 10
-10.015985
 20
461.514496
 10
-10.453034
 20
461.457581
 10
-10.828512
 20
461.409973
 10
-11.139836
 20
461.371704
 10
-11.385206
 20
461.342438
 10
-11.563016
 20
461.321747
 10
-11.672055
 20
461.309296
 10
-11.711715
 20
461.30481
  0
LINE
  5
1D5
330
17F
100
AcDbEntity
  8
0
  6
Continuous
 62
     0
370
     0
100
AcDbLine
 10
-3.632838
 20
462.393906
 30
0.0
 11
-3.860265
 21
462.339167
 31
0.0
  0
LINE
  5
1D6
330
17F
100
AcDbEntity
  8
0
  6
Continuous
 62
     0
370
    30
100
AcDbLine
 10
0.53266
 20
480.705658
 30
0.0
 11
135.836607
 21
480.705658
 31
0.0
  0
LINE
  5
1D7
330
17F
100
AcDbEntity
  8
0
  6
Continuous
 62
     0
370
     0
100
AcDbLine
 10
132.607752
 20
462.393906
 30
0.0
 11
4.716233
 21
462.393906
 31
0.0
  0
LWPOLYLINE
  5
1D8
330
17F
100
AcDbEntity
  8
0
  6
Continuous
 62
     0
370
    30
100
AcDbPolyline
 90
       17
 70
     0
 43
0.0
 10
4.716233
 20
462.393921
 10
5.591218
 20
462.292816
 10
6.436793
 20
462.176239
 10
7.245914
 20
462.047485
 10
8.012709
 20
461.909851
 10
8.734683
 20
461.766479
 10
9.408372
 20
461.620758
 10
10.029866
 20
461.476135
 10
10.596107
 20
461.335938
 10
11.104198
 20
461.203369
 10
11.551233
 20
461.081421
 10
11.934362
 20
460.972931
 10
12.251445
 20
460.880493
 10
12.500842
 20
460.806244
 10
12.681172
 20
460.751556
 10
12.791121
 20
460.717651
 10
12.829401
 20
460.705658
  0
LINE
  5
1D9
330
17F
100
AcDbEntity
  8
0
  6
Continuous
 62
     0
370
    30
100
AcDbLine
 10
-3.860265
 20
462.339156
 30
0.0
 11
-3.355508
 21
462.393906
 31
0.0
  0
LINE
  5
1DA
330
17F
100
AcDbEntity
  8
0
  6
Continuous
 62
     0
370
     0
100
AcDbLine
 10
-3.355508
 20
462.393906
 30
0.0
 11
-3.632838
 21
462.393906
 31
0.0
  0
LWPOLYLINE
  5
1DB
330
17F
100
AcDbEntity
  8
0
  6
Continuous
 62
     0
370
    30
100
AcDbPolyline
 90
        7
 70
     0
 43
0.0
 10
-3.355508
 20
462.393921
 10
-2.080985
 20
462.508301
 10
-0.769711
 20
462.586243
 10
0.559021
 20
462.61676
 10
1.889317
 20
462.596771
 10
3.205626
 20
462.52713
 10
4.716233
 20
462.393921
  0
LINE
  5
1DC
330
17F
100
AcDbEntity
  8
0
  6
Continuous
 62
     0
370
     0
100
AcDbLine
 10
134.719961
 20
474.372842
 30
0.0
 11
0.532659
 21
474.372842
 31
0.0
  0
LINE
  5
1DD
330
17F
100
AcDbEntity
  8
0
  6
Continuous
 62
     0
370
     0
100
AcDbLine
 10
135.572117
 20
479.205658
 30
0.0
 11
0.532659
 21
479.205658
 31
0.0
  0
LINE
  5
1DE
330
17F
100
AcDbEntity
  8
0
  6
Continuous
 62
     0
370
    30
100
AcDbLine
 10
132.310069
 20
460.705658
 30
0.0
 11
12.829348
 21
460.705658
 31
0.0
  0
LWPOLYLINE
  5
1DF
330
17F
100
AcDbEntity
  8
0
  6
Continuous
 62
     0
370
    30
100
AcDbPolyline
 90
       18
 70
     0
 43
0.0
 10
-19.96734
 20
472.705658
 10
-19.934883
 20
471.824615
 10
-19.837818
 20
470.948029
 10
-19.676739
 20
470.081055
 10
-19.452475
 20
469.228363
 10
-19.166059
 20
468.394409
 10
-18.819216
 20
467.58371
 10
-18.413839
 20
466.800629
 10
-17.952049
 20
466.049438
 10
-17.436274
 20
465.334259
 10
-16.869318
 20
464.658905
 10
-16.254416
 20
464.026917
 10
-15.59483
 20
463.441711
 10
-14.893981
 20
462.906586
 10
-14.155699
 20
462.424438
 10
-13.384007
 20
461.997803
 10
-12.583095
 20
461.628937
 10
-11.711715
 20
461.30481
  0
LINE
  5
1E0
330
17F
100
AcDbEntity
  8
0
  6
Continuous
 62
     0
370
    30
100
AcDbLine
 10
-19.96734
 20
479.205658
 30
0.0
 11
-19.96734
 21
472.70572
 31
0.0
  0
ARC
  5
1E1
330
17F
100
AcDbEntity
  8
0
  6
Continuous
 62
     0
370
    30
100
AcDbCircle
 10
-18.467314
 20
479.205632
 30
0.0
 40
1.500025465213841
100
AcDbArc
 50
90.004792
 51
179.999027
  0
LINE
  5
1E2
330
17F
100
AcDbEntity
  8
0
  6
Continuous
 62
     0
370
    30
100
AcDbLine
 10
-0.313545
 20
460.528723
 30
0.0
 11
9.725669
 21
459.650406
 31
0.0
  0
LINE
  5
1E3
330
17F
100
AcDbEntity
  8
0
  6
Continuous
 62
     0
370
    30
100
AcDbLine
 10
-8.703933
 20
461.262787
 30
0.0
 11
-0.313545
 21
460.528723
 31
0.0
  0
LINE
  5
1E4
330
17F
100
AcDbEntity
  8
0
  6
Continuous
 62
     0
370
    30
100
AcDbLine
 10
-8.665928
 20
461.697189
 30
0.0
 11
-8.703933
 21
461.262787
 31
0.0
  0
LINE
  5
1E5
330
17F
100
AcDbEntity
  8
0
  6
Continuous
 62
     0
370
    30
100
AcDbLine
 10
9.888356
 20
461.509929
 30
0.0
 11
9.725669
 21
459.650406
 31
0.0
  0
ENDBLK
  5
1E7
330
17F
100
AcDbEntity
  8
0
100
AcDbBlockEnd
  0
ENDSEC
  0
SECTION
  2
ENTITIES
  0
INSERT
  5
D4
330
1F
100
AcDbEntity
  8
0
  6
Continuous
 62
     7
420
 16250871
370
     0
100
AcDbBlockReference
  2
a
 10
188.883301
 20
145.379242
 30
0.0
  0
INSERT
  5
125
330
1F
100
AcDbEntity
  8
0
  6
Continuous
 62
     7
420
 16250871
370
     0
100
AcDbBlockReference
  2
b
 10
188.883301
 20
145.379242
 30
0.0
  0
INSERT
  5
17E
330
1F
100
AcDbEntity
  8
0
  6
Continuous
 62
     7
420
 16250871
370
     0
100
AcDbBlockReference
  2
c
 10
194.256226
 20
145.379272
 30
0.0
  0
INSERT
  5
1E8
330
1F
100
AcDbEntity
  8
0
  6
Continuous
 62
     7
420
 16250871
370
     0
100
AcDbBlockReference
  2
d
 10
206.534805
 20
0.000031
 30
0.0
  0
ENDSEC
  0
SECTION
  2
OBJECTS
  0
DICTIONARY
  5
C
330
0
100
AcDbDictionary
281
     1
  3
ACAD_DETAILVIEWSTYLE
350
220
  3
ACAD_GROUP
350
D
  3
ACAD_LAYOUT
350
1A
  3
ACAD_MATERIAL
350
43
  3
ACAD_MLEADERSTYLE
350
6B
  3
ACAD_MLINESTYLE
350
17
  3
ACAD_PLOTSETTINGS
350
19
  3
ACAD_PLOTSTYLENAME
350
E
  3
ACAD_SCALELIST
350
47
  3
ACAD_SECTIONVIEWSTYLE
350
221
  3
ACAD_TABLESTYLE
350
69
  3
ACAD_VISUALSTYLE
350
2A
  3
ACDB_RECOMPOSE_DATA
350
21D
  3
AcDbVariableDictionary
350
1E9
  0
SUN
  5
6D
330
29
100
AcDbSun
 90
        1
290
     0
 63
     7
421
 16777215
 40
1.0
291
     1
 91
  2455826
 92
 54000000
292
     0
 70
     2
 71
   256
280
     1
  0
DICTIONARY
  5
220
102
{ACAD_REACTORS
330
C
102
}
330
C
100
AcDbDictionary
281
     1
  0
DICTIONARY
  5
D
102
{ACAD_REACTORS
330
C
102
}
330
C
100
AcDbDictionary
281
     1
  0
DICTIONARY
  5
1A
102
{ACAD_REACTORS
330
C
102
}
330
C
100
AcDbDictionary
281
     1
  3
Layout1
350
1E
  3
Layout2
350
26
  3
Model
350
22
  0
DICTIONARY
  5
43
102
{ACAD_REACTORS
330
C
102
}
330
C
100
AcDbDictionary
281
     1
  3
ByBlock
350
45
  3
ByLayer
350
44
  3
Global
350
46
  0
DICTIONARY
  5
6B
102
{ACAD_REACTORS
330
C
102
}
330
C
100
AcDbDictionary
281
     1
  3
Standard
350
6C
  0
DICTIONARY
  5
17
102
{ACAD_REACTORS
330
C
102
}
330
C
100
AcDbDictionary
281
     1
  3
Standard
350
18
  0
DICTIONARY
  5
19
102
{ACAD_REACTORS
330
C
102
}
330
C
100
AcDbDictionary
281
     1
  0
ACDBDICTIONARYWDFLT
  5
E
102
{ACAD_REACTORS
330
C
102
}
330
C
100
AcDbDictionary
281
     1
  3
Normal
350
F
100
AcDbDictionaryWithDefault
340
F
  0
DICTIONARY
  5
47
102
{ACAD_REACTORS
330
C
102
}
330
C
100
AcDbDictionary
281
     1
  3
A0
350
48
  3
A1
350
49
  3
A2
350
4A
  3
A3
350
4B
  3
A4
350
4C
  3
A5
350
4D
  3
A6
350
4E
  3
A7
350
4F
  3
A8
350
50
  3
A9
350
51
  3
B0
350
52
  3
B1
350
53
  3
B2
350
54
  3
B3
350
55
  3
B4
350
56
  3
B5
350
57
  3
B6
350
58
  3
B7
350
59
  3
B8
350
5A
  3
B9
350
5B
  3
C0
350
5C
  3
C1
350
5D
  3
C2
350
5E
  3
C3
350
5F
  3
C4
350
60
  3
C5
350
61
  3
C6
350
62
  3
C7
350
63
  3
C8
350
64
  3
C9
350
65
  3
D0
350
66
  3
D1
350
67
  3
D2
350
68
  0
DICTIONARY
  5
221
102
{ACAD_REACTORS
330
C
102
}
330
C
100
AcDbDictionary
281
     1
  0
DICTIONARY
  5
69
102
{ACAD_REACTORS
330
C
102
}
330
C
100
AcDbDictionary
281
     1
  3
Standard
350
6A
  0
DICTIONARY
  5
2A
102
{ACAD_REACTORS
330
C
102
}
330
C
100
AcDbDictionary
281
     1
  3
2dWireframe
350
2F
  3
Basic
350
32
  3
Brighten
350
36
  3
ColorChange
350
3A
  3
Conceptual
350
34
  3
Dim
350
35
  3
EdgeColorOff
350
3D
  3
Facepattern
350
39
  3
Flat
350
2B
  3
FlatWithEdges
350
2C
  3
Gouraud
350
2D
  3
GouraudWithEdges
350
2E
  3
Hidden
350
31
  3
JitterOff
350
3B
  3
Linepattern
350
38
  3
OverhangOff
350
3C
  3
Realistic
350
33
  3
Shaded
350
42
  3
Shaded with edges
350
41
  3
Shades of Gray
350
3E
  3
Sketchy
350
3F
  3
Thicken
350
37
  3
Wireframe
350
30
  3
X-Ray
350
40
  0
XRECORD
  5
21D
102
{ACAD_REACTORS
330
C
102
}
330
C
100
AcDbXrecord
280
     1
 90
        1
330
6A
  0
DICTIONARY
  5
1E9
102
{ACAD_REACTORS
330
C
102
}
330
C
100
AcDbDictionary
281
     1
  3
CANNOSCALE
350
1EA
  3
CMLEADERSTYLE
350
21F
  3
CTABLESTYLE
350
21E
  0
LAYOUT
  5
1E
102
{ACAD_REACTORS
330
1A
102
}
330
1A
100
AcDbPlotSettings
  1

  2
none_device
  4

  6

 40
0.0
 41
0.0
 42
0.0
 43
0.0
 44
0.0
 45
0.0
 46
0.0
 47
0.0
 48
0.0
 49
0.0
140
0.0
141
0.0
142
1.0
143
1.0
 70
   688
 72
     1
 73
     0
 74
     5
  7

 75
    16
 76
     0
 77
     2
 78
   300
147
1.0
148
0.0
149
0.0
100
AcDbLayout
  1
Layout1
 70
     1
 71
     1
 10
0.0
 20
0.0
 11
420.0
 21
297.0
 12
0.0
 22
0.0
 32
0.0
 14
1.000000E+20
 24
1.000000E+20
 34
1.000000E+20
 15
-1.000000E+20
 25
-1.000000E+20
 35
-1.000000E+20
146
0.0
 13
0.0
 23
0.0
 33
0.0
 16
1.0
 26
0.0
 36
0.0
 17
0.0
 27
1.0
 37
0.0
 76
     0
330
1B
  0
LAYOUT
  5
26
102
{ACAD_REACTORS
330
1A
102
}
330
1A
100
AcDbPlotSettings
  1

  2
none_device
  4

  6

 40
0.0
 41
0.0
 42
0.0
 43
0.0
 44
0.0
 45
0.0
 46
0.0
 47
0.0
 48
0.0
 49
0.0
140
0.0
141
0.0
142
1.0
143
1.0
 70
   688
 72
     1
 73
     0
 74
     5
  7

 75
    16
 76
     0
 77
     2
 78
   300
147
1.0
148
0.0
149
0.0
100
AcDbLayout
  1
Layout2
 70
     1
 71
     2
 10
0.0
 20
0.0
 11
0.0
 21
0.0
 12
0.0
 22
0.0
 32
0.0
 14
0.0
 24
0.0
 34
0.0
 15
0.0
 25
0.0
 35
0.0
146
0.0
 13
0.0
 23
0.0
 33
0.0
 16
1.0
 26
0.0
 36
0.0
 17
0.0
 27
1.0
 37
0.0
 76
     0
330
23
  0
LAYOUT
  5
22
102
{ACAD_REACTORS
330
1A
102
}
330
1A
100
AcDbPlotSettings
  1

  2
none_device
  4
Letter_(8.50_x_11.00_Inches)
  6

 40
6.35
 41
6.35
 42
6.350005
 43
6.350005
 44
215.9
 45
279.4
 46
0.0
 47
0.0
 48
0.0
 49
0.0
140
0.0
141
0.0
142
1.0
143
1.0
 70
  1712
 72
     1
 73
     0
 74
     0
  7

 75
     0
 76
     0
 77
     2
 78
   300
147
1.0
148
0.0
149
0.0
100
AcDbLayout
  1
Model
 70
     1
 71
     0
 10
0.0
 20
0.0
 11
420.0
 21
297.0
 12
0.0
 22
0.0
 32
0.0
 14
1.000000E+20
 24
1.000000E+20
 34
1.000000E+20
 15
-1.000000E+20
 25
-1.000000E+20
 35
-1.000000E+20
146
0.0
 13
0.0
 23
0.0
 33
0.0
 16
1.0
 26
0.0
 36
0.0
 17
0.0
 27
1.0
 37
0.0
 76
     0
330
1F
331
29
  0
MATERIAL
  5
45
102
{ACAD_REACTORS
330
43
102
}
330
43
100
AcDbMaterial
  1
ByBlock
 72
     1
 94
      127
  0
MATERIAL
  5
44
102
{ACAD_REACTORS
330
43
102
}
330
43
100
AcDbMaterial
  1
ByLayer
 72
     1
 94
      127
  0
MATERIAL
  5
46
102
{ACAD_REACTORS
330
43
102
}
330
43
100
AcDbMaterial
  1
Global
 72
     1
 94
      127
  0
MLEADERSTYLE
  5
6C
102
{ACAD_REACTORS
330
6B
102
}
330
6B
100
AcDbMLeaderStyle
179
     2
170
     2
171
     1
172
     0
 90
        2
 40
0.0
 41
0.0
173
     1
 91
-1056964608
340
14
 92
       -2
290
     1
 42
2.0
291
     1
 43
8.0
  3
Standard
341
0
 44
4.0
300

342
11
174
     1
178
     6
175
     1
176
     0
 93
-1056964608
 45
4.0
292
     0
297
     0
 46
4.0
343
0
 94
-1056964608
 47
1.0
 49
1.0
140
1.0
293
     1
141
0.0
294
     1
177
     0
142
1.0
295
     0
296
     0
143
3.75
271
     0
272
     9
273
     9
  0
MLINESTYLE
  5
18
102
{ACAD_REACTORS
330
17
102
}
330
17
100
AcDbMlineStyle
  2
Standard
 70
     0
  3

 62
   256
 51
90.0
 52
90.0
 71
     2
 49
0.5
 62
   256
  6
BYLAYER
 49
-0.5
 62
   256
  6
BYLAYER
  0
ACDBPLACEHOLDER
  5
F
102
{ACAD_REACTORS
330
E
102
}
330
E
  0
SCALE
  5
48
102
{ACAD_REACTORS
330
47
102
}
330
47
100
AcDbScale
 70
     0
300
1:1
140
1.0
141
1.0
290
     1
  0
SCALE
  5
49
102
{ACAD_REACTORS
330
47
102
}
330
47
100
AcDbScale
 70
     0
300
1:2
140
1.0
141
2.0
290
     0
  0
SCALE
  5
4A
102
{ACAD_REACTORS
330
47
102
}
330
47
100
AcDbScale
 70
     0
300
1:4
140
1.0
141
4.0
290
     0
  0
SCALE
  5
4B
102
{ACAD_REACTORS
330
47
102
}
330
47
100
AcDbScale
 70
     0
300
1:5
140
1.0
141
5.0
290
     0
  0
SCALE
  5
4C
102
{ACAD_REACTORS
330
47
102
}
330
47
100
AcDbScale
 70
     0
300
1:8
140
1.0
141
8.0
290
     0
  0
SCALE
  5
4D
102
{ACAD_REACTORS
330
47
102
}
330
47
100
AcDbScale
 70
     0
300
1:10
140
1.0
141
10.0
290
     0
  0
SCALE
  5
4E
102
{ACAD_REACTORS
330
47
102
}
330
47
100
AcDbScale
 70
     0
300
1:16
140
1.0
141
16.0
290
     0
  0
SCALE
  5
4F
102
{ACAD_REACTORS
330
47
102
}
330
47
100
AcDbScale
 70
     0
300
1:20
140
1.0
141
20.0
290
     0
  0
SCALE
  5
50
102
{ACAD_REACTORS
330
47
102
}
330
47
100
AcDbScale
 70
     0
300
1:30
140
1.0
141
30.0
290
     0
  0
SCALE
  5
51
102
{ACAD_REACTORS
330
47
102
}
330
47
100
AcDbScale
 70
     0
300
1:40
140
1.0
141
40.0
290
     0
  0
SCALE
  5
52
102
{ACAD_REACTORS
330
47
102
}
330
47
100
AcDbScale
 70
     0
300
1:50
140
1.0
141
50.0
290
     0
  0
SCALE
  5
53
102
{ACAD_REACTORS
330
47
102
}
330
47
100
AcDbScale
 70
     0
300
1:100
140
1.0
141
100.0
290
     0
  0
SCALE
  5
54
102
{ACAD_REACTORS
330
47
102
}
330
47
100
AcDbScale
 70
     0
300
2:1
140
2.0
141
1.0
290
     0
  0
SCALE
  5
55
102
{ACAD_REACTORS
330
47
102
}
330
47
100
AcDbScale
 70
     0
300
4:1
140
4.0
141
1.0
290
     0
  0
SCALE
  5
56
102
{ACAD_REACTORS
330
47
102
}
330
47
100
AcDbScale
 70
     0
300
8:1
140
8.0
141
1.0
290
     0
  0
SCALE
  5
57
102
{ACAD_REACTORS
330
47
102
}
330
47
100
AcDbScale
 70
     0
300
10:1
140
10.0
141
1.0
290
     0
  0
SCALE
  5
58
102
{ACAD_REACTORS
330
47
102
}
330
47
100
AcDbScale
 70
     0
300
100:1
140
100.0
141
1.0
290
     0
  0
SCALE
  5
59
102
{ACAD_REACTORS
330
47
102
}
330
47
100
AcDbScale
 70
     0
300
1/128" = 1'-0"
140
0.007812
141
12.0
290
     0
  0
SCALE
  5
5A
102
{ACAD_REACTORS
330
47
102
}
330
47
100
AcDbScale
 70
     0
300
1/64" = 1'-0"
140
0.015625
141
12.0
290
     0
  0
SCALE
  5
5B
102
{ACAD_REACTORS
330
47
102
}
330
47
100
AcDbScale
 70
     0
300
1/32" = 1'-0"
140
0.03125
141
12.0
290
     0
  0
SCALE
  5
5C
102
{ACAD_REACTORS
330
47
102
}
330
47
100
AcDbScale
 70
     0
300
1/16" = 1'-0"
140
0.0625
141
12.0
290
     0
  0
SCALE
  5
5D
102
{ACAD_REACTORS
330
47
102
}
330
47
100
AcDbScale
 70
     0
300
3/32" = 1'-0"
140
0.09375
141
12.0
290
     0
  0
SCALE
  5
5E
102
{ACAD_REACTORS
330
47
102
}
330
47
100
AcDbScale
 70
     0
300
1/8" = 1'-0"
140
0.125
141
12.0
290
     0
  0
SCALE
  5
5F
102
{ACAD_REACTORS
330
47
102
}
330
47
100
AcDbScale
 70
     0
300
3/16" = 1'-0"
140
0.1875
141
12.0
290
     0
  0
SCALE
  5
60
102
{ACAD_REACTORS
330
47
102
}
330
47
100
AcDbScale
 70
     0
300
1/4" = 1'-0"
140
0.25
141
12.0
290
     0
  0
SCALE
  5
61
102
{ACAD_REACTORS
330
47
102
}
330
47
100
AcDbScale
 70
     0
300
3/8" = 1'-0"
140
0.375
141
12.0
290
     0
  0
SCALE
  5
62
102
{ACAD_REACTORS
330
47
102
}
330
47
100
AcDbScale
 70
     0
300
1/2" = 1'-0"
140
0.5
141
12.0
290
     0
  0
SCALE
  5
63
102
{ACAD_REACTORS
330
47
102
}
330
47
100
AcDbScale
 70
     0
300
3/4" = 1'-0"
140
0.75
141
12.0
290
     0
  0
SCALE
  5
64
102
{ACAD_REACTORS
330
47
102
}
330
47
100
AcDbScale
 70
     0
300
1" = 1'-0"
140
1.0
141
12.0
290
     0
  0
SCALE
  5
65
102
{ACAD_REACTORS
330
47
102
}
330
47
100
AcDbScale
 70
     0
300
1-1/2" = 1'-0"
140
1.5
141
12.0
290
     0
  0
SCALE
  5
66
102
{ACAD_REACTORS
330
47
102
}
330
47
100
AcDbScale
 70
     0
300
3" = 1'-0"
140
3.0
141
12.0
290
     0
  0
SCALE
  5
67
102
{ACAD_REACTORS
330
47
102
}
330
47
100
AcDbScale
 70
     0
300
6" = 1'-0"
140
6.0
141
12.0
290
     0
  0
SCALE
  5
68
102
{ACAD_REACTORS
330
47
102
}
330
47
100
AcDbScale
 70
     0
300
1'-0" = 1'-0"
140
12.0
141
12.0
290
     0
  0
TABLESTYLE
  5
6A
102
{ACAD_REACTORS
330
69
102
}
102
{ACAD_XDICTIONARY
360
21B
102
}
330
69
100
AcDbTableStyle
  3
Standard
 70
     0
 71
     0
 40
0.06
 41
0.06
280
     0
281
     0
  7
Standard
140
4.5
170
     2
 62
     0
 63
   257
283
     0
 90
        4
 91
        0
  1

274
    -2
284
     1
 64
     0
275
    -2
285
     1
 65
     0
276
    -2
286
     1
 66
     0
277
    -2
287
     1
 67
     0
278
    -2
288
     1
 68
     0
279
    -2
289
     1
 69
     0
  7
Standard
140
6.0
170
     5
 62
     0
 63
   257
283
     0
 90
        4
 91
        0
  1

274
    -2
284
     1
 64
     0
275
    -2
285
     1
 65
     0
276
    -2
286
     1
 66
     0
277
    -2
287
     1
 67
     0
278
    -2
288
     1
 68
     0
279
    -2
289
     1
 69
     0
  7
Standard
140
4.5
170
     5
 62
     0
 63
   257
283
     0
 90
        4
 91
        0
  1

274
    -2
284
     1
 64
     0
275
    -2
285
     1
 65
     0
276
    -2
286
     1
 66
     0
277
    -2
287
     1
 67
     0
278
    -2
288
     1
 68
     0
279
    -2
289
     1
 69
     0
  0
VISUALSTYLE
  5
2F
102
{ACAD_REACTORS
330
2A
102
}
102
{ACAD_XDICTIONARY
360
1F3
102
}
330
2A
100
AcDbVisualStyle
  2
2dWireframe
 70
     4
177
     2
291
     0
 71
     0
176
     1
 72
     2
176
     1
 73
     0
176
     1
 90
        0
176
     1
 40
0.6
176
     1
 41
30.0
176
     1
 62
     5
 63
     7
421
 16777215
176
     1
 74
     1
176
     1
 91
        4
176
     1
 64
     7
176
     1
 65
   257
176
     1
 75
     1
176
     1
175
     1
176
     1
 42
1.0
176
     1
 92
        0
176
     1
 66
   257
176
     1
 43
1.0
176
     1
 76
     1
176
     1
 77
     6
176
     1
 78
     2
176
     1
 67
     7
176
     1
 79
     5
176
     1
170
     0
176
     1
171
     0
176
     1
290
     0
176
     1
 93
        1
176
     1
 44
0.0
176
     1
173
     0
176
     1
  0
VISUALSTYLE
  5
32
102
{ACAD_REACTORS
330
2A
102
}
102
{ACAD_XDICTIONARY
360
1F9
102
}
330
2A
100
AcDbVisualStyle
  2
Basic
 70
     7
177
     2
291
     1
 71
     1
176
     1
 72
     0
176
     1
 73
     1
176
     1
 90
        0
176
     1
 40
0.6
176
     1
 41
30.0
176
     1
 62
     5
 63
     7
421
 16777215
176
     1
 74
     0
176
     1
 91
        4
176
     1
 64
     7
176
     1
 65
   257
176
     1
 75
     1
176
     1
175
     1
176
     1
 42
1.0
176
     1
 92
        8
176
     1
 66
     7
176
     1
 43
1.0
176
     1
 76
     1
176
     1
 77
     6
176
     1
 78
     2
176
     1
 67
     7
176
     1
 79
     5
176
     1
170
     0
176
     1
171
     0
176
     1
290
     0
176
     1
 93
        1
176
     1
 44
0.0
176
     1
173
     0
176
     1
  0
VISUALSTYLE
  5
36
102
{ACAD_REACTORS
330
2A
102
}
102
{ACAD_XDICTIONARY
360
201
102
}
330
2A
100
AcDbVisualStyle
  2
Brighten
 70
    12
177
     2
291
     1
 71
     2
176
     1
 72
     2
176
     1
 73
     0
176
     1
 90
        0
176
     1
 40
0.6
176
     1
 41
30.0
176
     1
 62
     5
 63
     7
421
 16777215
176
     1
 74
     1
176
     1
 91
        4
176
     1
 64
     7
176
     1
 65
   257
176
     1
 75
     1
176
     1
175
     1
176
     1
 42
1.0
176
     1
 92
        8
176
     1
 66
     7
176
     1
 43
1.0
176
     1
 76
     1
176
     1
 77
     6
176
     1
 78
     2
176
     1
 67
     7
176
     1
 79
     5
176
     1
170
     0
176
     1
171
     0
176
     1
290
     0
176
     1
 93
        1
176
     1
 44
50.0
176
     1
173
     0
176
     1
  0
VISUALSTYLE
  5
3A
102
{ACAD_REACTORS
330
2A
102
}
102
{ACAD_XDICTIONARY
360
209
102
}
330
2A
100
AcDbVisualStyle
  2
ColorChange
 70
    16
177
     2
291
     1
 71
     2
176
     1
 72
     2
176
     1
 73
     3
176
     1
 90
        0
176
     1
 40
0.6
176
     1
 41
30.0
176
     1
 62
     5
 63
     8
421
  8421504
176
     1
 74
     1
176
     1
 91
        4
176
     1
 64
     7
176
     1
 65
   257
176
     1
 75
     1
176
     1
175
     1
176
     1
 42
1.0
176
     1
 92
        8
176
     1
 66
     8
424
  8421504
176
     1
 43
1.0
176
     1
 76
     1
176
     1
 77
     6
176
     1
 78
     2
176
     1
 67
     7
176
     1
 79
     5
176
     1
170
     0
176
     1
171
     0
176
     1
290
     0
176
     1
 93
        1
176
     1
 44
0.0
176
     1
173
     0
176
     1
  0
VISUALSTYLE
  5
34
102
{ACAD_REACTORS
330
2A
102
}
102
{ACAD_XDICTIONARY
360
1FD
102
}
330
2A
100
AcDbVisualStyle
  2
Conceptual
 70
     9
177
     2
291
     0
 71
     3
176
     1
 72
     2
176
     1
 73
     0
176
     1
 90
        0
176
     1
 40
0.6
176
     1
 41
30.0
176
     1
 62
     5
 63
     7
421
 16777215
176
     1
 74
     2
176
     1
 91
        2
176
     1
 64
     7
176
     1
 65
   257
176
     1
 75
     1
176
     1
175
     1
176
     1
 42
179.0
176
     1
 92
        8
176
     1
 66
     7
176
     1
 43
1.0
176
     1
 76
     1
176
     1
 77
     6
176
     1
 78
     2
176
     1
 67
     7
176
     1
 79
     3
176
     1
170
     0
176
     1
171
     0
176
     1
290
     0
176
     1
 93
        1
176
     1
 44
0.0
176
     1
173
     0
176
     1
  0
VISUALSTYLE
  5
35
102
{ACAD_REACTORS
330
2A
102
}
102
{ACAD_XDICTIONARY
360
1FF
102
}
330
2A
100
AcDbVisualStyle
  2
Dim
 70
    11
177
     2
291
     1
 71
     2
176
     1
 72
     2
176
     1
 73
     0
176
     1
 90
        0
176
     1
 40
0.6
176
     1
 41
30.0
176
     1
 62
     5
 63
     7
421
 16777215
176
     1
 74
     1
176
     1
 91
        4
176
     1
 64
     7
176
     1
 65
   257
176
     1
 75
     1
176
     1
175
     1
176
     1
 42
1.0
176
     1
 92
        8
176
     1
 66
     7
176
     1
 43
1.0
176
     1
 76
     1
176
     1
 77
     6
176
     1
 78
     2
176
     1
 67
     7
176
     1
 79
     5
176
     1
170
     0
176
     1
171
     0
176
     1
290
     0
176
     1
 93
        1
176
     1
 44
-50.0
176
     1
173
     0
176
     1
  0
VISUALSTYLE
  5
3D
102
{ACAD_REACTORS
330
2A
102
}
102
{ACAD_XDICTIONARY
360
20F
102
}
330
2A
100
AcDbVisualStyle
  2
EdgeColorOff
 70
    22
177
     2
291
     1
 71
     2
176
     0
 72
     2
176
     0
 73
     0
176
     0
 90
        0
176
     0
 40
0.6
176
     0
 41
30.0
176
     0
 62
     5
 63
     7
421
 16777215
176
     0
 74
     1
176
     0
 91
        4
176
     0
 64
     7
176
     0
 65
   257
176
     0
 75
     1
176
     0
175
     1
176
     0
 42
1.0
176
     0
 92
        8
176
     2
 66
     7
176
     0
 43
1.0
176
     0
 76
     1
176
     0
 77
     6
176
     0
 78
     2
176
     0
 67
     7
176
     0
 79
     5
176
     0
170
     0
176
     0
171
     0
176
     0
290
     0
176
     0
 93
        1
176
     0
 44
0.0
176
     0
173
     0
176
     0
  0
VISUALSTYLE
  5
39
102
{ACAD_REACTORS
330
2A
102
}
102
{ACAD_XDICTIONARY
360
207
102
}
330
2A
100
AcDbVisualStyle
  2
Facepattern
 70
    15
177
     2
291
     1
 71
     2
176
     1
 72
     2
176
     1
 73
     0
176
     1
 90
        0
176
     1
 40
0.6
176
     1
 41
30.0
176
     1
 62
     5
 63
     7
421
 16777215
176
     1
 74
     1
176
     1
 91
        4
176
     1
 64
     7
176
     1
 65
   257
176
     1
 75
     1
176
     1
175
     1
176
     1
 42
1.0
176
     1
 92
        8
176
     1
 66
     7
176
     1
 43
1.0
176
     1
 76
     1
176
     1
 77
     6
176
     1
 78
     2
176
     1
 67
     7
176
     1
 79
     5
176
     1
170
     0
176
     1
171
     0
176
     1
290
     0
176
     1
 93
        1
176
     1
 44
0.0
176
     1
173
     0
176
     1
  0
VISUALSTYLE
  5
2B
102
{ACAD_REACTORS
330
2A
102
}
102
{ACAD_XDICTIONARY
360
1EB
102
}
330
2A
100
AcDbVisualStyle
  2
Flat
 70
     0
177
     2
291
     1
 71
     2
176
     1
 72
     1
176
     1
 73
     1
176
     1
 90
        2
176
     1
 40
0.6
176
     1
 41
30.0
176
     1
 62
     5
 63
     7
421
 16777215
176
     1
 74
     0
176
     1
 91
        0
176
     1
 64
     7
176
     1
 65
   257
176
     1
 75
     1
176
     1
175
     1
176
     1
 42
1.0
176
     1
 92
        8
176
     1
 66
     7
176
     1
 43
1.0
176
     1
 76
     1
176
     1
 77
     6
176
     1
 78
     2
176
     1
 67
     7
176
     1
 79
     5
176
     1
170
     0
176
     1
171
     0
176
     1
290
     0
176
     1
 93
       13
176
     1
 44
0.0
176
     1
173
     0
176
     1
  0
VISUALSTYLE
  5
2C
102
{ACAD_REACTORS
330
2A
102
}
102
{ACAD_XDICTIONARY
360
1ED
102
}
330
2A
100
AcDbVisualStyle
  2
FlatWithEdges
 70
     1
177
     2
291
     1
 71
     2
176
     1
 72
     1
176
     1
 73
     1
176
     1
 90
        2
176
     1
 40
0.6
176
     1
 41
30.0
176
     1
 62
     5
 63
     7
421
 16777215
176
     1
 74
     1
176
     1
 91
        0
176
     1
 64
     7
176
     1
 65
   257
176
     1
 75
     1
176
     1
175
     1
176
     1
 42
1.0
176
     1
 92
        0
176
     1
 66
   257
176
     1
 43
1.0
176
     1
 76
     1
176
     1
 77
     6
176
     1
 78
     2
176
     1
 67
     7
176
     1
 79
     5
176
     1
170
     0
176
     1
171
     0
176
     1
290
     0
176
     1
 93
       13
176
     1
 44
0.0
176
     1
173
     0
176
     1
  0
VISUALSTYLE
  5
2D
102
{ACAD_REACTORS
330
2A
102
}
102
{ACAD_XDICTIONARY
360
1EF
102
}
330
2A
100
AcDbVisualStyle
  2
Gouraud
 70
     2
177
     2
291
     1
 71
     2
176
     1
 72
     2
176
     1
 73
     1
176
     1
 90
        2
176
     1
 40
0.6
176
     1
 41
30.0
176
     1
 62
     5
 63
     7
421
 16777215
176
     1
 74
     0
176
     1
 91
        0
176
     1
 64
     7
176
     1
 65
   257
176
     1
 75
     1
176
     1
175
     1
176
     1
 42
1.0
176
     1
 92
        0
176
     1
 66
     7
176
     1
 43
1.0
176
     1
 76
     1
176
     1
 77
     6
176
     1
 78
     2
176
     1
 67
     7
176
     1
 79
     5
176
     1
170
     0
176
     1
171
     0
176
     1
290
     0
176
     1
 93
       13
176
     1
 44
0.0
176
     1
173
     0
176
     1
  0
VISUALSTYLE
  5
2E
102
{ACAD_REACTORS
330
2A
102
}
102
{ACAD_XDICTIONARY
360
1F1
102
}
330
2A
100
AcDbVisualStyle
  2
GouraudWithEdges
 70
     3
177
     2
291
     1
 71
     2
176
     1
 72
     2
176
     1
 73
     1
176
     1
 90
        2
176
     1
 40
0.6
176
     1
 41
30.0
176
     1
 62
     5
 63
     7
421
 16777215
176
     1
 74
     1
176
     1
 91
        0
176
     1
 64
     7
176
     1
 65
   257
176
     1
 75
     1
176
     1
175
     1
176
     1
 42
1.0
176
     1
 92
        0
176
     1
 66
   257
176
     1
 43
1.0
176
     1
 76
     1
176
     1
 77
     6
176
     1
 78
     2
176
     1
 67
     7
176
     1
 79
     5
176
     1
170
     0
176
     1
171
     0
176
     1
290
     0
176
     1
 93
       13
176
     1
 44
0.0
176
     1
173
     0
176
     1
  0
VISUALSTYLE
  5
31
102
{ACAD_REACTORS
330
2A
102
}
102
{ACAD_XDICTIONARY
360
1F7
102
}
330
2A
100
AcDbVisualStyle
  2
Hidden
 70
     6
177
     2
291
     0
 71
     1
176
     1
 72
     2
176
     1
 73
     2
176
     1
 90
        0
176
     1
 40
0.6
176
     1
 41
30.0
176
     1
 62
     5
 63
     7
421
 16777215
176
     1
 74
     2
176
     1
 91
        2
176
     1
 64
     7
176
     1
 65
   257
176
     1
 75
     2
176
     1
175
     1
176
     1
 42
40.0
176
     1
 92
        0
176
     1
 66
   257
176
     1
 43
1.0
176
     1
 76
     1
176
     1
 77
     6
176
     1
 78
     2
176
     1
 67
     7
176
     1
 79
     3
176
     1
170
     0
176
     1
171
     0
176
     1
290
     0
176
     1
 93
        1
176
     1
 44
0.0
176
     1
173
     0
176
     1
  0
VISUALSTYLE
  5
3B
102
{ACAD_REACTORS
330
2A
102
}
102
{ACAD_XDICTIONARY
360
20B
102
}
330
2A
100
AcDbVisualStyle
  2
JitterOff
 70
    20
177
     2
291
     1
 71
     2
176
     0
 72
     2
176
     0
 73
     0
176
     0
 90
        0
176
     0
 40
0.6
176
     0
 41
30.0
176
     0
 62
     5
 63
     7
421
 16777215
176
     0
 74
     1
176
     0
 91
        4
176
     0
 64
     7
176
     0
 65
   257
176
     0
 75
     1
176
     0
175
     1
176
     0
 42
1.0
176
     0
 92
       10
176
     2
 66
     7
176
     0
 43
1.0
176
     0
 76
     1
176
     0
 77
     6
176
     0
 78
     2
176
     0
 67
     7
176
     0
 79
     5
176
     0
170
     0
176
     0
171
     0
176
     0
290
     0
176
     0
 93
        1
176
     0
 44
0.0
176
     0
173
     0
176
     0
  0
VISUALSTYLE
  5
38
102
{ACAD_REACTORS
330
2A
102
}
102
{ACAD_XDICTIONARY
360
205
102
}
330
2A
100
AcDbVisualStyle
  2
Linepattern
 70
    14
177
     2
291
     1
 71
     2
176
     1
 72
     2
176
     1
 73
     0
176
     1
 90
        0
176
     1
 40
0.6
176
     1
 41
30.0
176
     1
 62
     5
 63
     7
421
 16777215
176
     1
 74
     1
176
     1
 91
        4
176
     1
 64
     7
176
     1
 65
   257
176
     1
 75
     7
176
     1
175
     7
176
     1
 42
1.0
176
     1
 92
        8
176
     1
 66
     7
176
     1
 43
1.0
176
     1
 76
     1
176
     1
 77
     6
176
     1
 78
     2
176
     1
 67
     7
176
     1
 79
     5
176
     1
170
     0
176
     1
171
     0
176
     1
290
     0
176
     1
 93
        1
176
     1
 44
0.0
176
     1
173
     0
176
     1
  0
VISUALSTYLE
  5
3C
102
{ACAD_REACTORS
330
2A
102
}
102
{ACAD_XDICTIONARY
360
20D
102
}
330
2A
100
AcDbVisualStyle
  2
OverhangOff
 70
    21
177
     2
291
     1
 71
     2
176
     0
 72
     2
176
     0
 73
     0
176
     0
 90
        0
176
     0
 40
0.6
176
     0
 41
30.0
176
     0
 62
     5
 63
     7
421
 16777215
176
     0
 74
     1
176
     0
 91
        4
176
     0
 64
     7
176
     0
 65
   257
176
     0
 75
     1
176
     0
175
     1
176
     0
 42
1.0
176
     0
 92
        9
176
     2
 66
     7
176
     0
 43
1.0
176
     0
 76
     1
176
     0
 77
     6
176
     0
 78
     2
176
     0
 67
     7
176
     0
 79
     5
176
     0
170
     0
176
     0
171
     0
176
     0
290
     0
176
     0
 93
        1
176
     0
 44
0.0
176
     0
173
     0
176
     0
  0
VISUALSTYLE
  5
33
102
{ACAD_REACTORS
330
2A
102
}
102
{ACAD_XDICTIONARY
360
1FB
102
}
330
2A
100
AcDbVisualStyle
  2
Realistic
 70
     8
177
     2
291
     0
 71
     2
176
     1
 72
     3
176
     1
 73
     0
176
     1
 90
        2
176
     1
 40
0.6
176
     1
 41
30.0
176
     1
 62
     5
 63
     7
421
 16777215
176
     1
 74
     0
176
     1
 91
        0
176
     1
 64
     7
176
     1
 65
   257
176
     1
 75
     1
176
     1
175
     1
176
     1
 42
1.0
176
     1
 92
        8
176
     1
 66
   257
176
     1
 43
1.0
176
     1
 76
     1
176
     1
 77
     6
176
     1
 78
     2
176
     1
 67
     7
176
     1
 79
     3
176
     1
170
     0
176
     1
171
     0
176
     1
290
     0
176
     1
 93
       13
176
     1
 44
0.0
176
     1
173
     0
176
     1
  0
VISUALSTYLE
  5
42
102
{ACAD_REACTORS
330
2A
102
}
102
{ACAD_XDICTIONARY
360
219
102
}
330
2A
100
AcDbVisualStyle
  2
Shaded
 70
    27
177
     2
291
     0
 71
     2
176
     1
 72
     2
176
     1
 73
     1
176
     1
 90
        2
176
     1
 40
0.6
176
     1
 41
30.0
176
     1
 62
     5
 63
     7
421
 16777215
176
     1
 74
     0
176
     1
 91
        4
176
     1
 64
     7
176
     1
 65
   257
176
     1
 75
     1
176
     1
175
     1
176
     1
 42
1.0
176
     1
 92
        8
176
     1
 66
   257
176
     1
 43
1.0
176
     1
 76
     1
176
     1
 77
     6
176
     1
 78
     2
176
     1
 67
     8
425
  7895160
176
     1
 79
     3
176
     1
170
     0
176
     1
171
     0
176
     1
290
     0
176
     1
 93
        5
176
     1
 44
0.0
176
     1
173
     0
176
     1
  0
VISUALSTYLE
  5
41
102
{ACAD_REACTORS
330
2A
102
}
102
{ACAD_XDICTIONARY
360
217
102
}
330
2A
100
AcDbVisualStyle
  2
Shaded with edges
 70
    26
177
     2
291
     0
 71
     2
176
     1
 72
     2
176
     1
 73
     1
176
     1
 90
        2
176
     1
 40
0.6
176
     1
 41
30.0
176
     1
 62
     5
 63
     7
421
 16777215
176
     1
 74
     1
176
     1
 91
       10
176
     1
 64
     7
176
     1
 65
   257
176
     1
 75
     2
176
     1
175
     1
176
     1
 42
1.0
176
     1
 92
        8
176
     1
 66
   257
176
     1
 43
1.0
176
     1
 76
     1
176
     1
 77
     6
176
     1
 78
     2
176
     1
 67
     7
176
     1
 79
     3
176
     1
170
     0
176
     1
171
     0
176
     1
290
     0
176
     1
 93
        5
176
     1
 44
0.0
176
     1
173
     0
176
     1
  0
VISUALSTYLE
  5
3E
102
{ACAD_REACTORS
330
2A
102
}
102
{ACAD_XDICTIONARY
360
211
102
}
330
2A
100
AcDbVisualStyle
  2
Shades of Gray
 70
    23
177
     2
291
     0
 71
     2
176
     1
 72
     2
176
     1
 73
     3
176
     1
 90
        0
176
     1
 40
0.6
176
     1
 41
30.0
176
     1
 62
     5
 63
     7
421
 16777215
176
     1
 74
     2
176
     1
 91
        2
176
     1
 64
     7
176
     1
 65
     7
176
     1
 75
     1
176
     1
175
     1
176
     1
 42
40.0
176
     1
 92
        8
176
     1
 66
     7
176
     1
 43
1.0
176
     1
 76
     1
176
     1
 77
     6
176
     1
 78
     2
176
     1
 67
     7
176
     1
 79
     3
176
     1
170
     0
176
     1
171
     0
176
     1
290
     0
176
     1
 93
        1
176
     1
 44
0.0
176
     1
173
     0
176
     1
  0
VISUALSTYLE
  5
3F
102
{ACAD_REACTORS
330
2A
102
}
102
{ACAD_XDICTIONARY
360
213
102
}
330
2A
100
AcDbVisualStyle
  2
Sketchy
 70
    24
177
     2
291
     0
 71
     1
176
     1
 72
     2
176
     1
 73
     2
176
     1
 90
        0
176
     1
 40
0.6
176
     1
 41
30.0
176
     1
 62
     5
 63
     7
421
 16777215
176
     1
 74
     2
176
     1
 91
        2
176
     1
 64
     7
176
     1
 65
     7
176
     1
 75
     1
176
     1
175
     1
176
     1
 42
40.0
176
     1
 92
       11
176
     1
 66
     7
176
     1
 43
1.0
176
     1
 76
     1
176
     1
 77
     6
176
     1
 78
     2
176
     1
 67
     7
176
     1
 79
     6
176
     1
170
     0
176
     1
171
     0
176
     1
290
     0
176
     1
 93
        1
176
     1
 44
0.0
176
     1
173
     0
176
     1
  0
VISUALSTYLE
  5
37
102
{ACAD_REACTORS
330
2A
102
}
102
{ACAD_XDICTIONARY
360
203
102
}
330
2A
100
AcDbVisualStyle
  2
Thicken
 70
    13
177
     2
291
     1
 71
     2
176
     1
 72
     2
176
     1
 73
     0
176
     1
 90
        0
176
     1
 40
0.6
176
     1
 41
30.0
176
     1
 62
     5
 63
     7
421
 16777215
176
     1
 74
     1
176
     1
 91
        4
176
     1
 64
     7
176
     1
 65
   257
176
     1
 75
     1
176
     1
175
     1
176
     1
 42
1.0
176
     1
 92
       12
176
     1
 66
     7
176
     1
 43
1.0
176
     1
 76
     1
176
     1
 77
     6
176
     1
 78
     2
176
     1
 67
     7
176
     1
 79
     5
176
     1
170
     0
176
     1
171
     0
176
     1
290
     0
176
     1
 93
        1
176
     1
 44
0.0
176
     1
173
     0
176
     1
  0
VISUALSTYLE
  5
30
102
{ACAD_REACTORS
330
2A
102
}
102
{ACAD_XDICTIONARY
360
1F5
102
}
330
2A
100
AcDbVisualStyle
  2
Wireframe
 70
     5
177
     2
291
     0
 71
     0
176
     1
 72
     2
176
     1
 73
     0
176
     1
 90
        0
176
     1
 40
0.6
176
     1
 41
30.0
176
     1
 62
     5
 63
     7
421
 16777215
176
     1
 74
     1
176
     1
 91
        4
176
     1
 64
     7
176
     1
 65
   257
176
     1
 75
     1
176
     1
175
     1
176
     1
 42
1.0
176
     1
 92
        0
176
     1
 66
   257
176
     1
 43
1.0
176
     1
 76
     1
176
     1
 77
     6
176
     1
 78
     2
176
     1
 67
     7
176
     1
 79
     3
176
     1
170
     0
176
     1
171
     0
176
     1
290
     0
176
     1
 93
        1
176
     1
 44
0.0
176
     1
173
     0
176
     1
  0
VISUALSTYLE
  5
40
102
{ACAD_REACTORS
330
2A
102
}
102
{ACAD_XDICTIONARY
360
215
102
}
330
2A
100
AcDbVisualStyle
  2
X-Ray
 70
    25
177
     2
291
     0
 71
     2
176
     1
 72
     2
176
     1
 73
     1
176
     1
 90
        1
176
     1
 40
0.5
176
     1
 41
30.0
176
     1
 62
     5
 63
     7
421
 16777215
176
     1
 74
     1
176
     1
 91
        0
176
     1
 64
     7
176
     1
 65
   257
176
     1
 75
     1
176
     1
175
     1
176
     1
 42
1.0
176
     1
 92
        8
176
     1
 66
     7
176
     1
 43
1.0
176
     1
 76
     1
176
     1
 77
     6
176
     1
 78
     2
176
     1
 67
     7
176
     1
 79
     3
176
     1
170
     0
176
     1
171
     0
176
     1
290
     0
176
     1
 93
       13
176
     1
 44
0.0
176
     1
173
     0
176
     1
  0
DICTIONARYVAR
  5
1EA
102
{ACAD_REACTORS
330
1E9
102
}
330
1E9
100
DictionaryVariables
280
     0
  1
1:1
  0
DICTIONARYVAR
  5
21F
102
{ACAD_REACTORS
330
1E9
102
}
330
1E9
100
DictionaryVariables
280
     0
  1
Standard
  0
DICTIONARYVAR
  5
21E
102
{ACAD_REACTORS
330
1E9
102
}
330
1E9
100
DictionaryVariables
280
     0
  1
Standard
  0
DICTIONARY
  5
21B
330
6A
100
AcDbDictionary
280
     1
281
     1
  3
ACAD_ROUNDTRIP_2008_TABLESTYLE_CELLSTYLEMAP
360
21C
  0
DICTIONARY
  5
1F3
330
2F
100
AcDbDictionary
280
     1
281
     1
  3
ACAD_XREC_ROUNDTRIP
360
1F4
  0
DICTIONARY
  5
1F9
330
32
100
AcDbDictionary
280
     1
281
     1
  3
ACAD_XREC_ROUNDTRIP
360
1FA
  0
DICTIONARY
  5
201
330
36
100
AcDbDictionary
280
     1
281
     1
  3
ACAD_XREC_ROUNDTRIP
360
202
  0
DICTIONARY
  5
209
330
3A
100
AcDbDictionary
280
     1
281
     1
  3
ACAD_XREC_ROUNDTRIP
360
20A
  0
DICTIONARY
  5
1FD
330
34
100
AcDbDictionary
280
     1
281
     1
  3
ACAD_XREC_ROUNDTRIP
360
1FE
  0
DICTIONARY
  5
1FF
330
35
100
AcDbDictionary
280
     1
281
     1
  3
ACAD_XREC_ROUNDTRIP
360
200
  0
DICTIONARY
  5
20F
330
3D
100
AcDbDictionary
280
     1
281
     1
  3
ACAD_XREC_ROUNDTRIP
360
210
  0
DICTIONARY
  5
207
330
39
100
AcDbDictionary
280
     1
281
     1
  3
ACAD_XREC_ROUNDTRIP
360
208
  0
DICTIONARY
  5
1EB
330
2B
100
AcDbDictionary
280
     1
281
     1
  3
ACAD_XREC_ROUNDTRIP
360
1EC
  0
DICTIONARY
  5
1ED
330
2C
100
AcDbDictionary
280
     1
281
     1
  3
ACAD_XREC_ROUNDTRIP
360
1EE
  0
DICTIONARY
  5
1EF
330
2D
100
AcDbDictionary
280
     1
281
     1
  3
ACAD_XREC_ROUNDTRIP
360
1F0
  0
DICTIONARY
  5
1F1
330
2E
100
AcDbDictionary
280
     1
281
     1
  3
ACAD_XREC_ROUNDTRIP
360
1F2
  0
DICTIONARY
  5
1F7
330
31
100
AcDbDictionary
280
     1
281
     1
  3
ACAD_XREC_ROUNDTRIP
360
1F8
  0
DICTIONARY
  5
20B
330
3B
100
AcDbDictionary
280
     1
281
     1
  3
ACAD_XREC_ROUNDTRIP
360
20C
  0
DICTIONARY
  5
205
330
38
100
AcDbDictionary
280
     1
281
     1
  3
ACAD_XREC_ROUNDTRIP
360
206
  0
DICTIONARY
  5
20D
330
3C
100
AcDbDictionary
280
     1
281
     1
  3
ACAD_XREC_ROUNDTRIP
360
20E
  0
DICTIONARY
  5
1FB
330
33
100
AcDbDictionary
280
     1
281
     1
  3
ACAD_XREC_ROUNDTRIP
360
1FC
  0
DICTIONARY
  5
219
330
42
100
AcDbDictionary
280
     1
281
     1
  3
ACAD_XREC_ROUNDTRIP
360
21A
  0
DICTIONARY
  5
217
330
41
100
AcDbDictionary
280
     1
281
     1
  3
ACAD_XREC_ROUNDTRIP
360
218
  0
DICTIONARY
  5
211
330
3E
100
AcDbDictionary
280
     1
281
     1
  3
ACAD_XREC_ROUNDTRIP
360
212
  0
DICTIONARY
  5
213
330
3F
100
AcDbDictionary
280
     1
281
     1
  3
ACAD_XREC_ROUNDTRIP
360
214
  0
DICTIONARY
  5
203
330
37
100
AcDbDictionary
280
     1
281
     1
  3
ACAD_XREC_ROUNDTRIP
360
204
  0
DICTIONARY
  5
1F5
330
30
100
AcDbDictionary
280
     1
281
     1
  3
ACAD_XREC_ROUNDTRIP
360
1F6
  0
DICTIONARY
  5
215
330
40
100
AcDbDictionary
280
     1
281
     1
  3
ACAD_XREC_ROUNDTRIP
360
216
  0
CELLSTYLEMAP
  5
21C
102
{ACAD_REACTORS
330
21B
102
}
330
21B
100
AcDbCellStyleMap
 90
        3
300
CELLSTYLE
  1
TABLEFORMAT_BEGIN
 90
        5
170
     1
 91
        0
 92
    32768
 62
   257
 93
        1
300
CONTENTFORMAT
  1
CONTENTFORMAT_BEGIN
 90
        0
 91
        0
 92
        4
 93
        0
300

 40
0.0
140
1.0
 94
        5
 62
     0
340
11
144
6.0
309
CONTENTFORMAT_END
171
     1
301
MARGIN
  1
CELLMARGIN_BEGIN
 40
1.5
 40
1.5
 40
1.5
 40
1.5
 40
1.5
 40
1.5
309
CELLMARGIN_END
 94
        6
 95
        1
302
GRIDFORMAT
  1
GRIDFORMAT_BEGIN
 90
        0
 91
        1
 62
     0
 92
       -2
340
14
 93
        0
 40
0.045
309
GRIDFORMAT_END
 95
        2
302
GRIDFORMAT
  1
GRIDFORMAT_BEGIN
 90
        0
 91
        1
 62
     0
 92
       -2
340
14
 93
        0
 40
0.045
309
GRIDFORMAT_END
 95
        4
302
GRIDFORMAT
  1
GRIDFORMAT_BEGIN
 90
        0
 91
        1
 62
     0
 92
       -2
340
14
 93
        0
 40
0.045
309
GRIDFORMAT_END
 95
        8
302
GRIDFORMAT
  1
GRIDFORMAT_BEGIN
 90
        0
 91
        1
 62
     0
 92
       -2
340
14
 93
        0
 40
0.045
309
GRIDFORMAT_END
 95
       16
302
GRIDFORMAT
  1
GRIDFORMAT_BEGIN
 90
        0
 91
        1
 62
     0
 92
       -2
340
14
 93
        0
 40
0.045
309
GRIDFORMAT_END
 95
       32
302
GRIDFORMAT
  1
GRIDFORMAT_BEGIN
 90
        0
 91
        1
 62
     0
 92
       -2
340
14
 93
        0
 40
0.045
309
GRIDFORMAT_END
309
TABLEFORMAT_END
  1
CELLSTYLE_BEGIN
 90
        1
 91
        1
300
_TITLE
309
CELLSTYLE_END
300
CELLSTYLE
  1
TABLEFORMAT_BEGIN
 90
        5
170
     1
 91
        0
 92
        0
 62
   257
 93
        1
300
CONTENTFORMAT
  1
CONTENTFORMAT_BEGIN
 90
        0
 91
        0
 92
        4
 93
        0
300

 40
0.0
140
1.0
 94
        5
 62
     0
340
11
144
4.5
309
CONTENTFORMAT_END
171
     1
301
MARGIN
  1
CELLMARGIN_BEGIN
 40
1.5
 40
1.5
 40
1.5
 40
1.5
 40
1.5
 40
1.5
309
CELLMARGIN_END
 94
        6
 95
        1
302
GRIDFORMAT
  1
GRIDFORMAT_BEGIN
 90
        0
 91
        1
 62
     0
 92
       -2
340
14
 93
        0
 40
0.045
309
GRIDFORMAT_END
 95
        2
302
GRIDFORMAT
  1
GRIDFORMAT_BEGIN
 90
        0
 91
        1
 62
     0
 92
       -2
340
14
 93
        0
 40
0.045
309
GRIDFORMAT_END
 95
        4
302
GRIDFORMAT
  1
GRIDFORMAT_BEGIN
 90
        0
 91
        1
 62
     0
 92
       -2
340
14
 93
        0
 40
0.045
309
GRIDFORMAT_END
 95
        8
302
GRIDFORMAT
  1
GRIDFORMAT_BEGIN
 90
        0
 91
        1
 62
     0
 92
       -2
340
14
 93
        0
 40
0.045
309
GRIDFORMAT_END
 95
       16
302
GRIDFORMAT
  1
GRIDFORMAT_BEGIN
 90
        0
 91
        1
 62
     0
 92
       -2
340
14
 93
        0
 40
0.045
309
GRIDFORMAT_END
 95
       32
302
GRIDFORMAT
  1
GRIDFORMAT_BEGIN
 90
        0
 91
        1
 62
     0
 92
       -2
340
14
 93
        0
 40
0.045
309
GRIDFORMAT_END
309
TABLEFORMAT_END
  1
CELLSTYLE_BEGIN
 90
        2
 91
        1
300
_HEADER
309
CELLSTYLE_END
300
CELLSTYLE
  1
TABLEFORMAT_BEGIN
 90
        5
170
     1
 91
        0
 92
        0
 62
   257
 93
        1
300
CONTENTFORMAT
  1
CONTENTFORMAT_BEGIN
 90
        0
 91
        0
 92
        4
 93
        0
300

 40
0.0
140
1.0
 94
        2
 62
     0
340
11
144
4.5
309
CONTENTFORMAT_END
171
     1
301
MARGIN
  1
CELLMARGIN_BEGIN
 40
1.5
 40
1.5
 40
1.5
 40
1.5
 40
1.5
 40
1.5
309
CELLMARGIN_END
 94
        6
 95
        1
302
GRIDFORMAT
  1
GRIDFORMAT_BEGIN
 90
        0
 91
        1
 62
     0
 92
       -2
340
14
 93
        0
 40
0.045
309
GRIDFORMAT_END
 95
        2
302
GRIDFORMAT
  1
GRIDFORMAT_BEGIN
 90
        0
 91
        1
 62
     0
 92
       -2
340
14
 93
        0
 40
0.045
309
GRIDFORMAT_END
 95
        4
302
GRIDFORMAT
  1
GRIDFORMAT_BEGIN
 90
        0
 91
        1
 62
     0
 92
       -2
340
14
 93
        0
 40
0.045
309
GRIDFORMAT_END
 95
        8
302
GRIDFORMAT
  1
GRIDFORMAT_BEGIN
 90
        0
 91
        1
 62
     0
 92
       -2
340
14
 93
        0
 40
0.045
309
GRIDFORMAT_END
 95
       16
302
GRIDFORMAT
  1
GRIDFORMAT_BEGIN
 90
        0
 91
        1
 62
     0
 92
       -2
340
14
 93
        0
 40
0.045
309
GRIDFORMAT_END
 95
       32
302
GRIDFORMAT
  1
GRIDFORMAT_BEGIN
 90
        0
 91
        1
 62
     0
 92
       -2
340
14
 93
        0
 40
0.045
309
GRIDFORMAT_END
309
TABLEFORMAT_END
  1
CELLSTYLE_BEGIN
 90
        3
 91
        2
300
_DATA
309
CELLSTYLE_END
  0
XRECORD
  5
1F4
102
{ACAD_REACTORS
330
1F3
102
}
330
1F3
100
AcDbXrecord
280
     1
102
RTVSPost2010Prop28
280
     1
102
RTVSPost2010PropOp28
 70
     1
102
RTVSPost2010Prop29
280
     1
102
RTVSPost2010PropOp29
 70
     1
102
RTVSPost2010Prop30
280
     0
102
RTVSPost2010PropOp30
 70
     1
102
RTVSPost2010Prop31
280
     0
102
RTVSPost2010PropOp31
 70
     1
102
RTVSPost2010Prop32
280
     0
102
RTVSPost2010PropOp32
 70
     1
102
RTVSPost2010Prop33
280
     0
102
RTVSPost2010PropOp33
 70
     1
102
RTVSPost2010Prop34
280
     0
102
RTVSPost2010PropOp34
 70
     1
102
RTVSPost2010Prop35
280
     0
102
RTVSPost2010PropOp35
 70
     1
102
RTVSPost2010Prop36
280
     0
102
RTVSPost2010PropOp36
 70
     1
102
RTVSPost2010Prop37
 90
       50
102
RTVSPost2010PropOp37
 70
     1
102
RTVSPost2010Prop38
140
0.0
102
RTVSPost2010PropOp38
 70
     1
102
RTVSPost2010Prop39
140
1.0
102
RTVSPost2010PropOp39
 70
     1
102
RTVSPost2010Prop40
 90
        0
102
RTVSPost2010PropOp40
 70
     1
102
RTVSPost2010Prop41ColorIndex
 90
       18
102
RTVSPost2010Prop41ColorRGB
 90
        0
102
RTVSPost2010PropOp41
 70
     1
102
RTVSPost2010Prop42
 90
       50
102
RTVSPost2010PropOp42
 70
     1
102
RTVSPost2010Prop43
 90
        3
102
RTVSPost2010PropOp43
 70
     1
102
RTVSPost2010Prop44ColorIndex
 90
        5
102
RTVSPost2010Prop44ColorRGB
 90
      255
102
RTVSPost2010PropOp44
 70
     1
102
RTVSPost2010Prop45
280
     0
102
RTVSPost2010PropOp45
 70
     1
102
RTVSPost2010Prop46
 90
       50
102
RTVSPost2010PropOp46
 70
     1
102
RTVSPost2010Prop47
 90
       50
102
RTVSPost2010PropOp47
 70
     1
102
RTVSPost2010Prop48
 90
       50
102
RTVSPost2010PropOp48
 70
     1
102
RTVSPost2010Prop49
280
     0
102
RTVSPost2010PropOp49
 70
     1
102
RTVSPost2010Prop50
 90
       50
102
RTVSPost2010PropOp50
 70
     1
102
RTVSPost2010Prop51ColorIndex
 90
      256
102
RTVSPost2010Prop51ColorRGB
 90
-16777216
102
RTVSPost2010PropOp51
 70
     0
102
RTVSPost2010Prop52
140
1.0
102
RTVSPost2010PropOp52
 70
     0
102
RTVSPost2010Prop53
 90
        2
102
RTVSPost2010PropOp53
 70
     1
102
RTVSPost2010Prop54
  1
strokes_ogs.tif
102
RTVSPost2010PropOp54
 70
     1
102
RTVSPost2010Prop55
280
     0
102
RTVSPost2010PropOp55
 70
     1
102
RTVSPost2010Prop56
140
1.0
102
RTVSPost2010PropOp56
 70
     1
102
RTVSPost2010Prop57
140
1.0
102
RTVSPost2010PropOp57
 70
     1
  0
XRECORD
  5
1FA
102
{ACAD_REACTORS
330
1F9
102
}
330
1F9
100
AcDbXrecord
280
     1
102
RTVSPost2010Prop28
280
     0
102
RTVSPost2010PropOp28
 70
     1
102
RTVSPost2010Prop29
280
     1
102
RTVSPost2010PropOp29
 70
     1
102
RTVSPost2010Prop30
280
     1
102
RTVSPost2010PropOp30
 70
     1
102
RTVSPost2010Prop31
280
     0
102
RTVSPost2010PropOp31
 70
     1
102
RTVSPost2010Prop32
280
     0
102
RTVSPost2010PropOp32
 70
     1
102
RTVSPost2010Prop33
280
     0
102
RTVSPost2010PropOp33
 70
     1
102
RTVSPost2010Prop34
280
     0
102
RTVSPost2010PropOp34
 70
     1
102
RTVSPost2010Prop35
280
     0
102
RTVSPost2010PropOp35
 70
     1
102
RTVSPost2010Prop36
280
     0
102
RTVSPost2010PropOp36
 70
     1
102
RTVSPost2010Prop37
 90
       50
102
RTVSPost2010PropOp37
 70
     1
102
RTVSPost2010Prop38
140
0.0
102
RTVSPost2010PropOp38
 70
     1
102
RTVSPost2010Prop39
140
1.0
102
RTVSPost2010PropOp39
 70
     1
102
RTVSPost2010Prop40
 90
        0
102
RTVSPost2010PropOp40
 70
     1
102
RTVSPost2010Prop41ColorIndex
 90
       18
102
RTVSPost2010Prop41ColorRGB
 90
        0
102
RTVSPost2010PropOp41
 70
     1
102
RTVSPost2010Prop42
 90
       50
102
RTVSPost2010PropOp42
 70
     1
102
RTVSPost2010Prop43
 90
        3
102
RTVSPost2010PropOp43
 70
     1
102
RTVSPost2010Prop44ColorIndex
 90
        5
102
RTVSPost2010Prop44ColorRGB
 90
      255
102
RTVSPost2010PropOp44
 70
     1
102
RTVSPost2010Prop45
280
     0
102
RTVSPost2010PropOp45
 70
     1
102
RTVSPost2010Prop46
 90
       50
102
RTVSPost2010PropOp46
 70
     1
102
RTVSPost2010Prop47
 90
       50
102
RTVSPost2010PropOp47
 70
     1
102
RTVSPost2010Prop48
 90
       50
102
RTVSPost2010PropOp48
 70
     1
102
RTVSPost2010Prop49
280
     0
102
RTVSPost2010PropOp49
 70
     1
102
RTVSPost2010Prop50
 90
       50
102
RTVSPost2010PropOp50
 70
     1
102
RTVSPost2010Prop51ColorIndex
 90
      256
102
RTVSPost2010Prop51ColorRGB
 90
-16777216
102
RTVSPost2010PropOp51
 70
     0
102
RTVSPost2010Prop52
140
1.0
102
RTVSPost2010PropOp52
 70
     0
102
RTVSPost2010Prop53
 90
        2
102
RTVSPost2010PropOp53
 70
     1
102
RTVSPost2010Prop54
  1
strokes_ogs.tif
102
RTVSPost2010PropOp54
 70
     1
102
RTVSPost2010Prop55
280
     0
102
RTVSPost2010PropOp55
 70
     1
102
RTVSPost2010Prop56
140
1.0
102
RTVSPost2010PropOp56
 70
     1
102
RTVSPost2010Prop57
140
1.0
102
RTVSPost2010PropOp57
 70
     1
  0
XRECORD
  5
202
102
{ACAD_REACTORS
330
201
102
}
330
201
100
AcDbXrecord
280
     1
102
RTVSPost2010Prop28
280
     0
102
RTVSPost2010PropOp28
 70
     1
102
RTVSPost2010Prop29
280
     1
102
RTVSPost2010PropOp29
 70
     1
102
RTVSPost2010Prop30
280
     1
102
RTVSPost2010PropOp30
 70
     1
102
RTVSPost2010Prop31
280
     0
102
RTVSPost2010PropOp31
 70
     1
102
RTVSPost2010Prop32
280
     0
102
RTVSPost2010PropOp32
 70
     1
102
RTVSPost2010Prop33
280
     0
102
RTVSPost2010PropOp33
 70
     1
102
RTVSPost2010Prop34
280
     0
102
RTVSPost2010PropOp34
 70
     1
102
RTVSPost2010Prop35
280
     0
102
RTVSPost2010PropOp35
 70
     1
102
RTVSPost2010Prop36
280
     0
102
RTVSPost2010PropOp36
 70
     1
102
RTVSPost2010Prop37
 90
       50
102
RTVSPost2010PropOp37
 70
     1
102
RTVSPost2010Prop38
140
0.0
102
RTVSPost2010PropOp38
 70
     1
102
RTVSPost2010Prop39
140
1.0
102
RTVSPost2010PropOp39
 70
     1
102
RTVSPost2010Prop40
 90
        0
102
RTVSPost2010PropOp40
 70
     1
102
RTVSPost2010Prop41ColorIndex
 90
       18
102
RTVSPost2010Prop41ColorRGB
 90
        0
102
RTVSPost2010PropOp41
 70
     1
102
RTVSPost2010Prop42
 90
       50
102
RTVSPost2010PropOp42
 70
     1
102
RTVSPost2010Prop43
 90
        3
102
RTVSPost2010PropOp43
 70
     1
102
RTVSPost2010Prop44ColorIndex
 90
        5
102
RTVSPost2010Prop44ColorRGB
 90
      255
102
RTVSPost2010PropOp44
 70
     1
102
RTVSPost2010Prop45
280
     0
102
RTVSPost2010PropOp45
 70
     1
102
RTVSPost2010Prop46
 90
       50
102
RTVSPost2010PropOp46
 70
     1
102
RTVSPost2010Prop47
 90
       50
102
RTVSPost2010PropOp47
 70
     1
102
RTVSPost2010Prop48
 90
       50
102
RTVSPost2010PropOp48
 70
     1
102
RTVSPost2010Prop49
280
     0
102
RTVSPost2010PropOp49
 70
     1
102
RTVSPost2010Prop50
 90
       50
102
RTVSPost2010PropOp50
 70
     1
102
RTVSPost2010Prop51ColorIndex
 90
      256
102
RTVSPost2010Prop51ColorRGB
 90
-16777216
102
RTVSPost2010PropOp51
 70
     0
102
RTVSPost2010Prop52
140
1.0
102
RTVSPost2010PropOp52
 70
     0
102
RTVSPost2010Prop53
 90
        2
102
RTVSPost2010PropOp53
 70
     1
102
RTVSPost2010Prop54
  1
strokes_ogs.tif
102
RTVSPost2010PropOp54
 70
     1
102
RTVSPost2010Prop55
280
     0
102
RTVSPost2010PropOp55
 70
     1
102
RTVSPost2010Prop56
140
1.0
102
RTVSPost2010PropOp56
 70
     1
102
RTVSPost2010Prop57
140
1.0
102
RTVSPost2010PropOp57
 70
     1
  0
XRECORD
  5
20A
102
{ACAD_REACTORS
330
209
102
}
330
209
100
AcDbXrecord
280
     1
102
RTVSPost2010Prop28
280
     0
102
RTVSPost2010PropOp28
 70
     1
102
RTVSPost2010Prop29
280
     1
102
RTVSPost2010PropOp29
 70
     1
102
RTVSPost2010Prop30
280
     1
102
RTVSPost2010PropOp30
 70
     1
102
RTVSPost2010Prop31
280
     0
102
RTVSPost2010PropOp31
 70
     1
102
RTVSPost2010Prop32
280
     0
102
RTVSPost2010PropOp32
 70
     1
102
RTVSPost2010Prop33
280
     0
102
RTVSPost2010PropOp33
 70
     1
102
RTVSPost2010Prop34
280
     0
102
RTVSPost2010PropOp34
 70
     1
102
RTVSPost2010Prop35
280
     0
102
RTVSPost2010PropOp35
 70
     1
102
RTVSPost2010Prop36
280
     0
102
RTVSPost2010PropOp36
 70
     1
102
RTVSPost2010Prop37
 90
       50
102
RTVSPost2010PropOp37
 70
     1
102
RTVSPost2010Prop38
140
0.0
102
RTVSPost2010PropOp38
 70
     1
102
RTVSPost2010Prop39
140
1.0
102
RTVSPost2010PropOp39
 70
     1
102
RTVSPost2010Prop40
 90
        0
102
RTVSPost2010PropOp40
 70
     1
102
RTVSPost2010Prop41ColorIndex
 90
       18
102
RTVSPost2010Prop41ColorRGB
 90
        0
102
RTVSPost2010PropOp41
 70
     1
102
RTVSPost2010Prop42
 90
       50
102
RTVSPost2010PropOp42
 70
     1
102
RTVSPost2010Prop43
 90
        3
102
RTVSPost2010PropOp43
 70
     1
102
RTVSPost2010Prop44ColorIndex
 90
        5
102
RTVSPost2010Prop44ColorRGB
 90
      255
102
RTVSPost2010PropOp44
 70
     1
102
RTVSPost2010Prop45
280
     0
102
RTVSPost2010PropOp45
 70
     1
102
RTVSPost2010Prop46
 90
       50
102
RTVSPost2010PropOp46
 70
     1
102
RTVSPost2010Prop47
 90
       50
102
RTVSPost2010PropOp47
 70
     1
102
RTVSPost2010Prop48
 90
       50
102
RTVSPost2010PropOp48
 70
     1
102
RTVSPost2010Prop49
280
     0
102
RTVSPost2010PropOp49
 70
     1
102
RTVSPost2010Prop50
 90
       50
102
RTVSPost2010PropOp50
 70
     1
102
RTVSPost2010Prop51ColorIndex
 90
      256
102
RTVSPost2010Prop51ColorRGB
 90
-16777216
102
RTVSPost2010PropOp51
 70
     0
102
RTVSPost2010Prop52
140
1.0
102
RTVSPost2010PropOp52
 70
     0
102
RTVSPost2010Prop53
 90
        2
102
RTVSPost2010PropOp53
 70
     1
102
RTVSPost2010Prop54
  1
strokes_ogs.tif
102
RTVSPost2010PropOp54
 70
     1
102
RTVSPost2010Prop55
280
     0
102
RTVSPost2010PropOp55
 70
     1
102
RTVSPost2010Prop56
140
1.0
102
RTVSPost2010PropOp56
 70
     1
102
RTVSPost2010Prop57
140
1.0
102
RTVSPost2010PropOp57
 70
     1
  0
XRECORD
  5
1FE
102
{ACAD_REACTORS
330
1FD
102
}
330
1FD
100
AcDbXrecord
280
     1
102
RTVSPost2010Prop28
280
     0
102
RTVSPost2010PropOp28
 70
     1
102
RTVSPost2010Prop29
280
     1
102
RTVSPost2010PropOp29
 70
     1
102
RTVSPost2010Prop30
280
     1
102
RTVSPost2010PropOp30
 70
     1
102
RTVSPost2010Prop31
280
     0
102
RTVSPost2010PropOp31
 70
     1
102
RTVSPost2010Prop32
280
     0
102
RTVSPost2010PropOp32
 70
     1
102
RTVSPost2010Prop33
280
     0
102
RTVSPost2010PropOp33
 70
     1
102
RTVSPost2010Prop34
280
     0
102
RTVSPost2010PropOp34
 70
     1
102
RTVSPost2010Prop35
280
     0
102
RTVSPost2010PropOp35
 70
     1
102
RTVSPost2010Prop36
280
     0
102
RTVSPost2010PropOp36
 70
     1
102
RTVSPost2010Prop37
 90
       50
102
RTVSPost2010PropOp37
 70
     1
102
RTVSPost2010Prop38
140
0.0
102
RTVSPost2010PropOp38
 70
     1
102
RTVSPost2010Prop39
140
1.0
102
RTVSPost2010PropOp39
 70
     1
102
RTVSPost2010Prop40
 90
        0
102
RTVSPost2010PropOp40
 70
     1
102
RTVSPost2010Prop41ColorIndex
 90
       18
102
RTVSPost2010Prop41ColorRGB
 90
        0
102
RTVSPost2010PropOp41
 70
     1
102
RTVSPost2010Prop42
 90
       50
102
RTVSPost2010PropOp42
 70
     1
102
RTVSPost2010Prop43
 90
        3
102
RTVSPost2010PropOp43
 70
     1
102
RTVSPost2010Prop44ColorIndex
 90
        5
102
RTVSPost2010Prop44ColorRGB
 90
      255
102
RTVSPost2010PropOp44
 70
     1
102
RTVSPost2010Prop45
280
     0
102
RTVSPost2010PropOp45
 70
     1
102
RTVSPost2010Prop46
 90
       50
102
RTVSPost2010PropOp46
 70
     1
102
RTVSPost2010Prop47
 90
       50
102
RTVSPost2010PropOp47
 70
     1
102
RTVSPost2010Prop48
 90
       50
102
RTVSPost2010PropOp48
 70
     1
102
RTVSPost2010Prop49
280
     0
102
RTVSPost2010PropOp49
 70
     1
102
RTVSPost2010Prop50
 90
       50
102
RTVSPost2010PropOp50
 70
     1
102
RTVSPost2010Prop51ColorIndex
 90
      256
102
RTVSPost2010Prop51ColorRGB
 90
-16777216
102
RTVSPost2010PropOp51
 70
     0
102
RTVSPost2010Prop52
140
1.0
102
RTVSPost2010PropOp52
 70
     0
102
RTVSPost2010Prop53
 90
        2
102
RTVSPost2010PropOp53
 70
     1
102
RTVSPost2010Prop54
  1
strokes_ogs.tif
102
RTVSPost2010PropOp54
 70
     1
102
RTVSPost2010Prop55
280
     0
102
RTVSPost2010PropOp55
 70
     1
102
RTVSPost2010Prop56
140
1.0
102
RTVSPost2010PropOp56
 70
     1
102
RTVSPost2010Prop57
140
1.0
102
RTVSPost2010PropOp57
 70
     1
  0
XRECORD
  5
200
102
{ACAD_REACTORS
330
1FF
102
}
330
1FF
100
AcDbXrecord
280
     1
102
RTVSPost2010Prop28
280
     0
102
RTVSPost2010PropOp28
 70
     1
102
RTVSPost2010Prop29
280
     1
102
RTVSPost2010PropOp29
 70
     1
102
RTVSPost2010Prop30
280
     1
102
RTVSPost2010PropOp30
 70
     1
102
RTVSPost2010Prop31
280
     0
102
RTVSPost2010PropOp31
 70
     1
102
RTVSPost2010Prop32
280
     0
102
RTVSPost2010PropOp32
 70
     1
102
RTVSPost2010Prop33
280
     0
102
RTVSPost2010PropOp33
 70
     1
102
RTVSPost2010Prop34
280
     0
102
RTVSPost2010PropOp34
 70
     1
102
RTVSPost2010Prop35
280
     0
102
RTVSPost2010PropOp35
 70
     1
102
RTVSPost2010Prop36
280
     0
102
RTVSPost2010PropOp36
 70
     1
102
RTVSPost2010Prop37
 90
       50
102
RTVSPost2010PropOp37
 70
     1
102
RTVSPost2010Prop38
140
0.0
102
RTVSPost2010PropOp38
 70
     1
102
RTVSPost2010Prop39
140
1.0
102
RTVSPost2010PropOp39
 70
     1
102
RTVSPost2010Prop40
 90
        0
102
RTVSPost2010PropOp40
 70
     1
102
RTVSPost2010Prop41ColorIndex
 90
       18
102
RTVSPost2010Prop41ColorRGB
 90
        0
102
RTVSPost2010PropOp41
 70
     1
102
RTVSPost2010Prop42
 90
       50
102
RTVSPost2010PropOp42
 70
     1
102
RTVSPost2010Prop43
 90
        3
102
RTVSPost2010PropOp43
 70
     1
102
RTVSPost2010Prop44ColorIndex
 90
        5
102
RTVSPost2010Prop44ColorRGB
 90
      255
102
RTVSPost2010PropOp44
 70
     1
102
RTVSPost2010Prop45
280
     0
102
RTVSPost2010PropOp45
 70
     1
102
RTVSPost2010Prop46
 90
       50
102
RTVSPost2010PropOp46
 70
     1
102
RTVSPost2010Prop47
 90
       50
102
RTVSPost2010PropOp47
 70
     1
102
RTVSPost2010Prop48
 90
       50
102
RTVSPost2010PropOp48
 70
     1
102
RTVSPost2010Prop49
280
     0
102
RTVSPost2010PropOp49
 70
     1
102
RTVSPost2010Prop50
 90
       50
102
RTVSPost2010PropOp50
 70
     1
102
RTVSPost2010Prop51ColorIndex
 90
      256
102
RTVSPost2010Prop51ColorRGB
 90
-16777216
102
RTVSPost2010PropOp51
 70
     0
102
RTVSPost2010Prop52
140
1.0
102
RTVSPost2010PropOp52
 70
     0
102
RTVSPost2010Prop53
 90
        2
102
RTVSPost2010PropOp53
 70
     1
102
RTVSPost2010Prop54
  1
strokes_ogs.tif
102
RTVSPost2010PropOp54
 70
     1
102
RTVSPost2010Prop55
280
     0
102
RTVSPost2010PropOp55
 70
     1
102
RTVSPost2010Prop56
140
1.0
102
RTVSPost2010PropOp56
 70
     1
102
RTVSPost2010Prop57
140
1.0
102
RTVSPost2010PropOp57
 70
     1
  0
XRECORD
  5
210
102
{ACAD_REACTORS
330
20F
102
}
330
20F
100
AcDbXrecord
280
     1
102
RTVSPost2010Prop28
280
     0
102
RTVSPost2010PropOp28
 70
     0
102
RTVSPost2010Prop29
280
     1
102
RTVSPost2010PropOp29
 70
     0
102
RTVSPost2010Prop30
280
     1
102
RTVSPost2010PropOp30
 70
     0
102
RTVSPost2010Prop31
280
     0
102
RTVSPost2010PropOp31
 70
     0
102
RTVSPost2010Prop32
280
     0
102
RTVSPost2010PropOp32
 70
     0
102
RTVSPost2010Prop33
280
     0
102
RTVSPost2010PropOp33
 70
     0
102
RTVSPost2010Prop34
280
     0
102
RTVSPost2010PropOp34
 70
     0
102
RTVSPost2010Prop35
280
     0
102
RTVSPost2010PropOp35
 70
     0
102
RTVSPost2010Prop36
280
     0
102
RTVSPost2010PropOp36
 70
     0
102
RTVSPost2010Prop37
 90
       50
102
RTVSPost2010PropOp37
 70
     0
102
RTVSPost2010Prop38
140
0.0
102
RTVSPost2010PropOp38
 70
     0
102
RTVSPost2010Prop39
140
1.0
102
RTVSPost2010PropOp39
 70
     0
102
RTVSPost2010Prop40
 90
        0
102
RTVSPost2010PropOp40
 70
     0
102
RTVSPost2010Prop41ColorIndex
 90
       18
102
RTVSPost2010Prop41ColorRGB
 90
        0
102
RTVSPost2010PropOp41
 70
     0
102
RTVSPost2010Prop42
 90
       50
102
RTVSPost2010PropOp42
 70
     0
102
RTVSPost2010Prop43
 90
        3
102
RTVSPost2010PropOp43
 70
     0
102
RTVSPost2010Prop44ColorIndex
 90
        5
102
RTVSPost2010Prop44ColorRGB
 90
      255
102
RTVSPost2010PropOp44
 70
     0
102
RTVSPost2010Prop45
280
     0
102
RTVSPost2010PropOp45
 70
     0
102
RTVSPost2010Prop46
 90
       50
102
RTVSPost2010PropOp46
 70
     0
102
RTVSPost2010Prop47
 90
       50
102
RTVSPost2010PropOp47
 70
     0
102
RTVSPost2010Prop48
 90
       50
102
RTVSPost2010PropOp48
 70
     0
102
RTVSPost2010Prop49
280
     0
102
RTVSPost2010PropOp49
 70
     0
102
RTVSPost2010Prop50
 90
       50
102
RTVSPost2010PropOp50
 70
     0
102
RTVSPost2010Prop51ColorIndex
 90
      256
102
RTVSPost2010Prop51ColorRGB
 90
-16777216
102
RTVSPost2010PropOp51
 70
     0
102
RTVSPost2010Prop52
140
1.0
102
RTVSPost2010PropOp52
 70
     0
102
RTVSPost2010Prop53
 90
        2
102
RTVSPost2010PropOp53
 70
     0
102
RTVSPost2010Prop54
  1
strokes_ogs.tif
102
RTVSPost2010PropOp54
 70
     0
102
RTVSPost2010Prop55
280
     0
102
RTVSPost2010PropOp55
 70
     0
102
RTVSPost2010Prop56
140
1.0
102
RTVSPost2010PropOp56
 70
     0
102
RTVSPost2010Prop57
140
1.0
102
RTVSPost2010PropOp57
 70
     0
  0
XRECORD
  5
208
102
{ACAD_REACTORS
330
207
102
}
330
207
100
AcDbXrecord
280
     1
102
RTVSPost2010Prop28
280
     0
102
RTVSPost2010PropOp28
 70
     1
102
RTVSPost2010Prop29
280
     1
102
RTVSPost2010PropOp29
 70
     1
102
RTVSPost2010Prop30
280
     1
102
RTVSPost2010PropOp30
 70
     1
102
RTVSPost2010Prop31
280
     0
102
RTVSPost2010PropOp31
 70
     1
102
RTVSPost2010Prop32
280
     0
102
RTVSPost2010PropOp32
 70
     1
102
RTVSPost2010Prop33
280
     0
102
RTVSPost2010PropOp33
 70
     1
102
RTVSPost2010Prop34
280
     0
102
RTVSPost2010PropOp34
 70
     1
102
RTVSPost2010Prop35
280
     0
102
RTVSPost2010PropOp35
 70
     1
102
RTVSPost2010Prop36
280
     0
102
RTVSPost2010PropOp36
 70
     1
102
RTVSPost2010Prop37
 90
       50
102
RTVSPost2010PropOp37
 70
     1
102
RTVSPost2010Prop38
140
0.0
102
RTVSPost2010PropOp38
 70
     1
102
RTVSPost2010Prop39
140
1.0
102
RTVSPost2010PropOp39
 70
     1
102
RTVSPost2010Prop40
 90
        0
102
RTVSPost2010PropOp40
 70
     1
102
RTVSPost2010Prop41ColorIndex
 90
       18
102
RTVSPost2010Prop41ColorRGB
 90
        0
102
RTVSPost2010PropOp41
 70
     1
102
RTVSPost2010Prop42
 90
       50
102
RTVSPost2010PropOp42
 70
     1
102
RTVSPost2010Prop43
 90
        3
102
RTVSPost2010PropOp43
 70
     1
102
RTVSPost2010Prop44ColorIndex
 90
        5
102
RTVSPost2010Prop44ColorRGB
 90
      255
102
RTVSPost2010PropOp44
 70
     1
102
RTVSPost2010Prop45
280
     0
102
RTVSPost2010PropOp45
 70
     1
102
RTVSPost2010Prop46
 90
       50
102
RTVSPost2010PropOp46
 70
     1
102
RTVSPost2010Prop47
 90
       50
102
RTVSPost2010PropOp47
 70
     1
102
RTVSPost2010Prop48
 90
       50
102
RTVSPost2010PropOp48
 70
     1
102
RTVSPost2010Prop49
280
     0
102
RTVSPost2010PropOp49
 70
     1
102
RTVSPost2010Prop50
 90
       50
102
RTVSPost2010PropOp50
 70
     1
102
RTVSPost2010Prop51ColorIndex
 90
      256
102
RTVSPost2010Prop51ColorRGB
 90
-16777216
102
RTVSPost2010PropOp51
 70
     0
102
RTVSPost2010Prop52
140
1.0
102
RTVSPost2010PropOp52
 70
     0
102
RTVSPost2010Prop53
 90
        2
102
RTVSPost2010PropOp53
 70
     1
102
RTVSPost2010Prop54
  1
strokes_ogs.tif
102
RTVSPost2010PropOp54
 70
     1
102
RTVSPost2010Prop55
280
     0
102
RTVSPost2010PropOp55
 70
     1
102
RTVSPost2010Prop56
140
1.0
102
RTVSPost2010PropOp56
 70
     1
102
RTVSPost2010Prop57
140
1.0
102
RTVSPost2010PropOp57
 70
     1
  0
XRECORD
  5
1EC
102
{ACAD_REACTORS
330
1EB
102
}
330
1EB
100
AcDbXrecord
280
     1
102
RTVSPost2010Prop28
280
     0
102
RTVSPost2010PropOp28
 70
     1
102
RTVSPost2010Prop29
280
     1
102
RTVSPost2010PropOp29
 70
     1
102
RTVSPost2010Prop30
280
     1
102
RTVSPost2010PropOp30
 70
     1
102
RTVSPost2010Prop31
280
     0
102
RTVSPost2010PropOp31
 70
     1
102
RTVSPost2010Prop32
280
     0
102
RTVSPost2010PropOp32
 70
     1
102
RTVSPost2010Prop33
280
     0
102
RTVSPost2010PropOp33
 70
     1
102
RTVSPost2010Prop34
280
     0
102
RTVSPost2010PropOp34
 70
     1
102
RTVSPost2010Prop35
280
     0
102
RTVSPost2010PropOp35
 70
     1
102
RTVSPost2010Prop36
280
     0
102
RTVSPost2010PropOp36
 70
     1
102
RTVSPost2010Prop37
 90
       50
102
RTVSPost2010PropOp37
 70
     1
102
RTVSPost2010Prop38
140
0.0
102
RTVSPost2010PropOp38
 70
     1
102
RTVSPost2010Prop39
140
1.0
102
RTVSPost2010PropOp39
 70
     1
102
RTVSPost2010Prop40
 90
        0
102
RTVSPost2010PropOp40
 70
     1
102
RTVSPost2010Prop41ColorIndex
 90
       18
102
RTVSPost2010Prop41ColorRGB
 90
        0
102
RTVSPost2010PropOp41
 70
     1
102
RTVSPost2010Prop42
 90
       50
102
RTVSPost2010PropOp42
 70
     1
102
RTVSPost2010Prop43
 90
        3
102
RTVSPost2010PropOp43
 70
     1
102
RTVSPost2010Prop44ColorIndex
 90
        5
102
RTVSPost2010Prop44ColorRGB
 90
      255
102
RTVSPost2010PropOp44
 70
     1
102
RTVSPost2010Prop45
280
     0
102
RTVSPost2010PropOp45
 70
     1
102
RTVSPost2010Prop46
 90
       50
102
RTVSPost2010PropOp46
 70
     1
102
RTVSPost2010Prop47
 90
       50
102
RTVSPost2010PropOp47
 70
     1
102
RTVSPost2010Prop48
 90
       50
102
RTVSPost2010PropOp48
 70
     1
102
RTVSPost2010Prop49
280
     0
102
RTVSPost2010PropOp49
 70
     1
102
RTVSPost2010Prop50
 90
       50
102
RTVSPost2010PropOp50
 70
     1
102
RTVSPost2010Prop51ColorIndex
 90
      256
102
RTVSPost2010Prop51ColorRGB
 90
-16777216
102
RTVSPost2010PropOp51
 70
     0
102
RTVSPost2010Prop52
140
1.0
102
RTVSPost2010PropOp52
 70
     0
102
RTVSPost2010Prop53
 90
        2
102
RTVSPost2010PropOp53
 70
     1
102
RTVSPost2010Prop54
  1
strokes_ogs.tif
102
RTVSPost2010PropOp54
 70
     1
102
RTVSPost2010Prop55
280
     0
102
RTVSPost2010PropOp55
 70
     1
102
RTVSPost2010Prop56
140
1.0
102
RTVSPost2010PropOp56
 70
     1
102
RTVSPost2010Prop57
140
1.0
102
RTVSPost2010PropOp57
 70
     1
  0
XRECORD
  5
1EE
102
{ACAD_REACTORS
330
1ED
102
}
330
1ED
100
AcDbXrecord
280
     1
102
RTVSPost2010Prop28
280
     0
102
RTVSPost2010PropOp28
 70
     1
102
RTVSPost2010Prop29
280
     1
102
RTVSPost2010PropOp29
 70
     1
102
RTVSPost2010Prop30
280
     1
102
RTVSPost2010PropOp30
 70
     1
102
RTVSPost2010Prop31
280
     0
102
RTVSPost2010PropOp31
 70
     1
102
RTVSPost2010Prop32
280
     0
102
RTVSPost2010PropOp32
 70
     1
102
RTVSPost2010Prop33
280
     0
102
RTVSPost2010PropOp33
 70
     1
102
RTVSPost2010Prop34
280
     0
102
RTVSPost2010PropOp34
 70
     1
102
RTVSPost2010Prop35
280
     0
102
RTVSPost2010PropOp35
 70
     1
102
RTVSPost2010Prop36
280
     0
102
RTVSPost2010PropOp36
 70
     1
102
RTVSPost2010Prop37
 90
       50
102
RTVSPost2010PropOp37
 70
     1
102
RTVSPost2010Prop38
140
0.0
102
RTVSPost2010PropOp38
 70
     1
102
RTVSPost2010Prop39
140
1.0
102
RTVSPost2010PropOp39
 70
     1
102
RTVSPost2010Prop40
 90
        0
102
RTVSPost2010PropOp40
 70
     1
102
RTVSPost2010Prop41ColorIndex
 90
       18
102
RTVSPost2010Prop41ColorRGB
 90
        0
102
RTVSPost2010PropOp41
 70
     1
102
RTVSPost2010Prop42
 90
       50
102
RTVSPost2010PropOp42
 70
     1
102
RTVSPost2010Prop43
 90
        3
102
RTVSPost2010PropOp43
 70
     1
102
RTVSPost2010Prop44ColorIndex
 90
        5
102
RTVSPost2010Prop44ColorRGB
 90
      255
102
RTVSPost2010PropOp44
 70
     1
102
RTVSPost2010Prop45
280
     0
102
RTVSPost2010PropOp45
 70
     1
102
RTVSPost2010Prop46
 90
       50
102
RTVSPost2010PropOp46
 70
     1
102
RTVSPost2010Prop47
 90
       50
102
RTVSPost2010PropOp47
 70
     1
102
RTVSPost2010Prop48
 90
       50
102
RTVSPost2010PropOp48
 70
     1
102
RTVSPost2010Prop49
280
     0
102
RTVSPost2010PropOp49
 70
     1
102
RTVSPost2010Prop50
 90
       50
102
RTVSPost2010PropOp50
 70
     1
102
RTVSPost2010Prop51ColorIndex
 90
      256
102
RTVSPost2010Prop51ColorRGB
 90
-16777216
102
RTVSPost2010PropOp51
 70
     0
102
RTVSPost2010Prop52
140
1.0
102
RTVSPost2010PropOp52
 70
     0
102
RTVSPost2010Prop53
 90
        2
102
RTVSPost2010PropOp53
 70
     1
102
RTVSPost2010Prop54
  1
strokes_ogs.tif
102
RTVSPost2010PropOp54
 70
     1
102
RTVSPost2010Prop55
280
     0
102
RTVSPost2010PropOp55
 70
     1
102
RTVSPost2010Prop56
140
1.0
102
RTVSPost2010PropOp56
 70
     1
102
RTVSPost2010Prop57
140
1.0
102
RTVSPost2010PropOp57
 70
     1
  0
XRECORD
  5
1F0
102
{ACAD_REACTORS
330
1EF
102
}
330
1EF
100
AcDbXrecord
280
     1
102
RTVSPost2010Prop28
280
     0
102
RTVSPost2010PropOp28
 70
     1
102
RTVSPost2010Prop29
280
     1
102
RTVSPost2010PropOp29
 70
     1
102
RTVSPost2010Prop30
280
     1
102
RTVSPost2010PropOp30
 70
     1
102
RTVSPost2010Prop31
280
     0
102
RTVSPost2010PropOp31
 70
     1
102
RTVSPost2010Prop32
280
     0
102
RTVSPost2010PropOp32
 70
     1
102
RTVSPost2010Prop33
280
     0
102
RTVSPost2010PropOp33
 70
     1
102
RTVSPost2010Prop34
280
     0
102
RTVSPost2010PropOp34
 70
     1
102
RTVSPost2010Prop35
280
     0
102
RTVSPost2010PropOp35
 70
     1
102
RTVSPost2010Prop36
280
     0
102
RTVSPost2010PropOp36
 70
     1
102
RTVSPost2010Prop37
 90
       50
102
RTVSPost2010PropOp37
 70
     1
102
RTVSPost2010Prop38
140
0.0
102
RTVSPost2010PropOp38
 70
     1
102
RTVSPost2010Prop39
140
1.0
102
RTVSPost2010PropOp39
 70
     1
102
RTVSPost2010Prop40
 90
        0
102
RTVSPost2010PropOp40
 70
     1
102
RTVSPost2010Prop41ColorIndex
 90
       18
102
RTVSPost2010Prop41ColorRGB
 90
        0
102
RTVSPost2010PropOp41
 70
     1
102
RTVSPost2010Prop42
 90
       50
102
RTVSPost2010PropOp42
 70
     1
102
RTVSPost2010Prop43
 90
        3
102
RTVSPost2010PropOp43
 70
     1
102
RTVSPost2010Prop44ColorIndex
 90
        5
102
RTVSPost2010Prop44ColorRGB
 90
      255
102
RTVSPost2010PropOp44
 70
     1
102
RTVSPost2010Prop45
280
     0
102
RTVSPost2010PropOp45
 70
     1
102
RTVSPost2010Prop46
 90
       50
102
RTVSPost2010PropOp46
 70
     1
102
RTVSPost2010Prop47
 90
       50
102
RTVSPost2010PropOp47
 70
     1
102
RTVSPost2010Prop48
 90
       50
102
RTVSPost2010PropOp48
 70
     1
102
RTVSPost2010Prop49
280
     0
102
RTVSPost2010PropOp49
 70
     1
102
RTVSPost2010Prop50
 90
       50
102
RTVSPost2010PropOp50
 70
     1
102
RTVSPost2010Prop51ColorIndex
 90
      256
102
RTVSPost2010Prop51ColorRGB
 90
-16777216
102
RTVSPost2010PropOp51
 70
     0
102
RTVSPost2010Prop52
140
1.0
102
RTVSPost2010PropOp52
 70
     0
102
RTVSPost2010Prop53
 90
        2
102
RTVSPost2010PropOp53
 70
     1
102
RTVSPost2010Prop54
  1
strokes_ogs.tif
102
RTVSPost2010PropOp54
 70
     1
102
RTVSPost2010Prop55
280
     0
102
RTVSPost2010PropOp55
 70
     1
102
RTVSPost2010Prop56
140
1.0
102
RTVSPost2010PropOp56
 70
     1
102
RTVSPost2010Prop57
140
1.0
102
RTVSPost2010PropOp57
 70
     1
  0
XRECORD
  5
1F2
102
{ACAD_REACTORS
330
1F1
102
}
330
1F1
100
AcDbXrecord
280
     1
102
RTVSPost2010Prop28
280
     0
102
RTVSPost2010PropOp28
 70
     1
102
RTVSPost2010Prop29
280
     1
102
RTVSPost2010PropOp29
 70
     1
102
RTVSPost2010Prop30
280
     1
102
RTVSPost2010PropOp30
 70
     1
102
RTVSPost2010Prop31
280
     0
102
RTVSPost2010PropOp31
 70
     1
102
RTVSPost2010Prop32
280
     0
102
RTVSPost2010PropOp32
 70
     1
102
RTVSPost2010Prop33
280
     0
102
RTVSPost2010PropOp33
 70
     1
102
RTVSPost2010Prop34
280
     0
102
RTVSPost2010PropOp34
 70
     1
102
RTVSPost2010Prop35
280
     0
102
RTVSPost2010PropOp35
 70
     1
102
RTVSPost2010Prop36
280
     0
102
RTVSPost2010PropOp36
 70
     1
102
RTVSPost2010Prop37
 90
       50
102
RTVSPost2010PropOp37
 70
     1
102
RTVSPost2010Prop38
140
0.0
102
RTVSPost2010PropOp38
 70
     1
102
RTVSPost2010Prop39
140
1.0
102
RTVSPost2010PropOp39
 70
     1
102
RTVSPost2010Prop40
 90
        0
102
RTVSPost2010PropOp40
 70
     1
102
RTVSPost2010Prop41ColorIndex
 90
       18
102
RTVSPost2010Prop41ColorRGB
 90
        0
102
RTVSPost2010PropOp41
 70
     1
102
RTVSPost2010Prop42
 90
       50
102
RTVSPost2010PropOp42
 70
     1
102
RTVSPost2010Prop43
 90
        3
102
RTVSPost2010PropOp43
 70
     1
102
RTVSPost2010Prop44ColorIndex
 90
        5
102
RTVSPost2010Prop44ColorRGB
 90
      255
102
RTVSPost2010PropOp44
 70
     1
102
RTVSPost2010Prop45
280
     0
102
RTVSPost2010PropOp45
 70
     1
102
RTVSPost2010Prop46
 90
       50
102
RTVSPost2010PropOp46
 70
     1
102
RTVSPost2010Prop47
 90
       50
102
RTVSPost2010PropOp47
 70
     1
102
RTVSPost2010Prop48
 90
       50
102
RTVSPost2010PropOp48
 70
     1
102
RTVSPost2010Prop49
280
     0
102
RTVSPost2010PropOp49
 70
     1
102
RTVSPost2010Prop50
 90
       50
102
RTVSPost2010PropOp50
 70
     1
102
RTVSPost2010Prop51ColorIndex
 90
      256
102
RTVSPost2010Prop51ColorRGB
 90
-16777216
102
RTVSPost2010PropOp51
 70
     0
102
RTVSPost2010Prop52
140
1.0
102
RTVSPost2010PropOp52
 70
     0
102
RTVSPost2010Prop53
 90
        2
102
RTVSPost2010PropOp53
 70
     1
102
RTVSPost2010Prop54
  1
strokes_ogs.tif
102
RTVSPost2010PropOp54
 70
     1
102
RTVSPost2010Prop55
280
     0
102
RTVSPost2010PropOp55
 70
     1
102
RTVSPost2010Prop56
140
1.0
102
RTVSPost2010PropOp56
 70
     1
102
RTVSPost2010Prop57
140
1.0
102
RTVSPost2010PropOp57
 70
     1
  0
XRECORD
  5
1F8
102
{ACAD_REACTORS
330
1F7
102
}
330
1F7
100
AcDbXrecord
280
     1
102
RTVSPost2010Prop28
280
     0
102
RTVSPost2010PropOp28
 70
     1
102
RTVSPost2010Prop29
280
     1
102
RTVSPost2010PropOp29
 70
     1
102
RTVSPost2010Prop30
280
     1
102
RTVSPost2010PropOp30
 70
     1
102
RTVSPost2010Prop31
280
     0
102
RTVSPost2010PropOp31
 70
     1
102
RTVSPost2010Prop32
280
     0
102
RTVSPost2010PropOp32
 70
     1
102
RTVSPost2010Prop33
280
     0
102
RTVSPost2010PropOp33
 70
     1
102
RTVSPost2010Prop34
280
     0
102
RTVSPost2010PropOp34
 70
     1
102
RTVSPost2010Prop35
280
     0
102
RTVSPost2010PropOp35
 70
     1
102
RTVSPost2010Prop36
280
     0
102
RTVSPost2010PropOp36
 70
     1
102
RTVSPost2010Prop37
 90
       50
102
RTVSPost2010PropOp37
 70
     1
102
RTVSPost2010Prop38
140
0.0
102
RTVSPost2010PropOp38
 70
     1
102
RTVSPost2010Prop39
140
1.0
102
RTVSPost2010PropOp39
 70
     1
102
RTVSPost2010Prop40
 90
        0
102
RTVSPost2010PropOp40
 70
     1
102
RTVSPost2010Prop41ColorIndex
 90
       18
102
RTVSPost2010Prop41ColorRGB
 90
        0
102
RTVSPost2010PropOp41
 70
     1
102
RTVSPost2010Prop42
 90
       50
102
RTVSPost2010PropOp42
 70
     1
102
RTVSPost2010Prop43
 90
        3
102
RTVSPost2010PropOp43
 70
     1
102
RTVSPost2010Prop44ColorIndex
 90
        5
102
RTVSPost2010Prop44ColorRGB
 90
      255
102
RTVSPost2010PropOp44
 70
     1
102
RTVSPost2010Prop45
280
     0
102
RTVSPost2010PropOp45
 70
     1
102
RTVSPost2010Prop46
 90
       50
102
RTVSPost2010PropOp46
 70
     1
102
RTVSPost2010Prop47
 90
       50
102
RTVSPost2010PropOp47
 70
     1
102
RTVSPost2010Prop48
 90
       50
102
RTVSPost2010PropOp48
 70
     1
102
RTVSPost2010Prop49
280
     0
102
RTVSPost2010PropOp49
 70
     1
102
RTVSPost2010Prop50
 90
       50
102
RTVSPost2010PropOp50
 70
     1
102
RTVSPost2010Prop51ColorIndex
 90
      256
102
RTVSPost2010Prop51ColorRGB
 90
-16777216
102
RTVSPost2010PropOp51
 70
     0
102
RTVSPost2010Prop52
140
1.0
102
RTVSPost2010PropOp52
 70
     0
102
RTVSPost2010Prop53
 90
        2
102
RTVSPost2010PropOp53
 70
     1
102
RTVSPost2010Prop54
  1
strokes_ogs.tif
102
RTVSPost2010PropOp54
 70
     1
102
RTVSPost2010Prop55
280
     0
102
RTVSPost2010PropOp55
 70
     1
102
RTVSPost2010Prop56
140
1.0
102
RTVSPost2010PropOp56
 70
     1
102
RTVSPost2010Prop57
140
1.0
102
RTVSPost2010PropOp57
 70
     1
  0
XRECORD
  5
20C
102
{ACAD_REACTORS
330
20B
102
}
330
20B
100
AcDbXrecord
280
     1
102
RTVSPost2010Prop28
280
     0
102
RTVSPost2010PropOp28
 70
     0
102
RTVSPost2010Prop29
280
     1
102
RTVSPost2010PropOp29
 70
     0
102
RTVSPost2010Prop30
280
     1
102
RTVSPost2010PropOp30
 70
     0
102
RTVSPost2010Prop31
280
     0
102
RTVSPost2010PropOp31
 70
     0
102
RTVSPost2010Prop32
280
     0
102
RTVSPost2010PropOp32
 70
     0
102
RTVSPost2010Prop33
280
     0
102
RTVSPost2010PropOp33
 70
     0
102
RTVSPost2010Prop34
280
     0
102
RTVSPost2010PropOp34
 70
     0
102
RTVSPost2010Prop35
280
     0
102
RTVSPost2010PropOp35
 70
     0
102
RTVSPost2010Prop36
280
     0
102
RTVSPost2010PropOp36
 70
     0
102
RTVSPost2010Prop37
 90
       50
102
RTVSPost2010PropOp37
 70
     0
102
RTVSPost2010Prop38
140
0.0
102
RTVSPost2010PropOp38
 70
     0
102
RTVSPost2010Prop39
140
1.0
102
RTVSPost2010PropOp39
 70
     0
102
RTVSPost2010Prop40
 90
        0
102
RTVSPost2010PropOp40
 70
     0
102
RTVSPost2010Prop41ColorIndex
 90
       18
102
RTVSPost2010Prop41ColorRGB
 90
        0
102
RTVSPost2010PropOp41
 70
     0
102
RTVSPost2010Prop42
 90
       50
102
RTVSPost2010PropOp42
 70
     0
102
RTVSPost2010Prop43
 90
        3
102
RTVSPost2010PropOp43
 70
     0
102
RTVSPost2010Prop44ColorIndex
 90
        5
102
RTVSPost2010Prop44ColorRGB
 90
      255
102
RTVSPost2010PropOp44
 70
     0
102
RTVSPost2010Prop45
280
     0
102
RTVSPost2010PropOp45
 70
     0
102
RTVSPost2010Prop46
 90
       50
102
RTVSPost2010PropOp46
 70
     0
102
RTVSPost2010Prop47
 90
       50
102
RTVSPost2010PropOp47
 70
     0
102
RTVSPost2010Prop48
 90
       50
102
RTVSPost2010PropOp48
 70
     0
102
RTVSPost2010Prop49
280
     0
102
RTVSPost2010PropOp49
 70
     0
102
RTVSPost2010Prop50
 90
       50
102
RTVSPost2010PropOp50
 70
     0
102
RTVSPost2010Prop51ColorIndex
 90
      256
102
RTVSPost2010Prop51ColorRGB
 90
-16777216
102
RTVSPost2010PropOp51
 70
     0
102
RTVSPost2010Prop52
140
1.0
102
RTVSPost2010PropOp52
 70
     0
102
RTVSPost2010Prop53
 90
        2
102
RTVSPost2010PropOp53
 70
     0
102
RTVSPost2010Prop54
  1
strokes_ogs.tif
102
RTVSPost2010PropOp54
 70
     0
102
RTVSPost2010Prop55
280
     0
102
RTVSPost2010PropOp55
 70
     0
102
RTVSPost2010Prop56
140
1.0
102
RTVSPost2010PropOp56
 70
     0
102
RTVSPost2010Prop57
140
1.0
102
RTVSPost2010PropOp57
 70
     0
  0
XRECORD
  5
206
102
{ACAD_REACTORS
330
205
102
}
330
205
100
AcDbXrecord
280
     1
102
RTVSPost2010Prop28
280
     0
102
RTVSPost2010PropOp28
 70
     1
102
RTVSPost2010Prop29
280
     1
102
RTVSPost2010PropOp29
 70
     1
102
RTVSPost2010Prop30
280
     1
102
RTVSPost2010PropOp30
 70
     1
102
RTVSPost2010Prop31
280
     0
102
RTVSPost2010PropOp31
 70
     1
102
RTVSPost2010Prop32
280
     0
102
RTVSPost2010PropOp32
 70
     1
102
RTVSPost2010Prop33
280
     0
102
RTVSPost2010PropOp33
 70
     1
102
RTVSPost2010Prop34
280
     0
102
RTVSPost2010PropOp34
 70
     1
102
RTVSPost2010Prop35
280
     0
102
RTVSPost2010PropOp35
 70
     1
102
RTVSPost2010Prop36
280
     0
102
RTVSPost2010PropOp36
 70
     1
102
RTVSPost2010Prop37
 90
       50
102
RTVSPost2010PropOp37
 70
     1
102
RTVSPost2010Prop38
140
0.0
102
RTVSPost2010PropOp38
 70
     1
102
RTVSPost2010Prop39
140
1.0
102
RTVSPost2010PropOp39
 70
     1
102
RTVSPost2010Prop40
 90
        0
102
RTVSPost2010PropOp40
 70
     1
102
RTVSPost2010Prop41ColorIndex
 90
       18
102
RTVSPost2010Prop41ColorRGB
 90
        0
102
RTVSPost2010PropOp41
 70
     1
102
RTVSPost2010Prop42
 90
       50
102
RTVSPost2010PropOp42
 70
     1
102
RTVSPost2010Prop43
 90
        3
102
RTVSPost2010PropOp43
 70
     1
102
RTVSPost2010Prop44ColorIndex
 90
        5
102
RTVSPost2010Prop44ColorRGB
 90
      255
102
RTVSPost2010PropOp44
 70
     1
102
RTVSPost2010Prop45
280
     0
102
RTVSPost2010PropOp45
 70
     1
102
RTVSPost2010Prop46
 90
       50
102
RTVSPost2010PropOp46
 70
     1
102
RTVSPost2010Prop47
 90
       50
102
RTVSPost2010PropOp47
 70
     1
102
RTVSPost2010Prop48
 90
       50
102
RTVSPost2010PropOp48
 70
     1
102
RTVSPost2010Prop49
280
     0
102
RTVSPost2010PropOp49
 70
     1
102
RTVSPost2010Prop50
 90
       50
102
RTVSPost2010PropOp50
 70
     1
102
RTVSPost2010Prop51ColorIndex
 90
      256
102
RTVSPost2010Prop51ColorRGB
 90
-16777216
102
RTVSPost2010PropOp51
 70
     0
102
RTVSPost2010Prop52
140
1.0
102
RTVSPost2010PropOp52
 70
     0
102
RTVSPost2010Prop53
 90
        2
102
RTVSPost2010PropOp53
 70
     1
102
RTVSPost2010Prop54
  1
strokes_ogs.tif
102
RTVSPost2010PropOp54
 70
     1
102
RTVSPost2010Prop55
280
     0
102
RTVSPost2010PropOp55
 70
     1
102
RTVSPost2010Prop56
140
1.0
102
RTVSPost2010PropOp56
 70
     1
102
RTVSPost2010Prop57
140
1.0
102
RTVSPost2010PropOp57
 70
     1
  0
XRECORD
  5
20E
102
{ACAD_REACTORS
330
20D
102
}
330
20D
100
AcDbXrecord
280
     1
102
RTVSPost2010Prop28
280
     0
102
RTVSPost2010PropOp28
 70
     0
102
RTVSPost2010Prop29
280
     1
102
RTVSPost2010PropOp29
 70
     0
102
RTVSPost2010Prop30
280
     1
102
RTVSPost2010PropOp30
 70
     0
102
RTVSPost2010Prop31
280
     0
102
RTVSPost2010PropOp31
 70
     0
102
RTVSPost2010Prop32
280
     0
102
RTVSPost2010PropOp32
 70
     0
102
RTVSPost2010Prop33
280
     0
102
RTVSPost2010PropOp33
 70
     0
102
RTVSPost2010Prop34
280
     0
102
RTVSPost2010PropOp34
 70
     0
102
RTVSPost2010Prop35
280
     0
102
RTVSPost2010PropOp35
 70
     0
102
RTVSPost2010Prop36
280
     0
102
RTVSPost2010PropOp36
 70
     0
102
RTVSPost2010Prop37
 90
       50
102
RTVSPost2010PropOp37
 70
     0
102
RTVSPost2010Prop38
140
0.0
102
RTVSPost2010PropOp38
 70
     0
102
RTVSPost2010Prop39
140
1.0
102
RTVSPost2010PropOp39
 70
     0
102
RTVSPost2010Prop40
 90
        0
102
RTVSPost2010PropOp40
 70
     0
102
RTVSPost2010Prop41ColorIndex
 90
       18
102
RTVSPost2010Prop41ColorRGB
 90
        0
102
RTVSPost2010PropOp41
 70
     0
102
RTVSPost2010Prop42
 90
       50
102
RTVSPost2010PropOp42
 70
     0
102
RTVSPost2010Prop43
 90
        3
102
RTVSPost2010PropOp43
 70
     0
102
RTVSPost2010Prop44ColorIndex
 90
        5
102
RTVSPost2010Prop44ColorRGB
 90
      255
102
RTVSPost2010PropOp44
 70
     0
102
RTVSPost2010Prop45
280
     0
102
RTVSPost2010PropOp45
 70
     0
102
RTVSPost2010Prop46
 90
       50
102
RTVSPost2010PropOp46
 70
     0
102
RTVSPost2010Prop47
 90
       50
102
RTVSPost2010PropOp47
 70
     0
102
RTVSPost2010Prop48
 90
       50
102
RTVSPost2010PropOp48
 70
     0
102
RTVSPost2010Prop49
280
     0
102
RTVSPost2010PropOp49
 70
     0
102
RTVSPost2010Prop50
 90
       50
102
RTVSPost2010PropOp50
 70
     0
102
RTVSPost2010Prop51ColorIndex
 90
      256
102
RTVSPost2010Prop51ColorRGB
 90
-16777216
102
RTVSPost2010PropOp51
 70
     0
102
RTVSPost2010Prop52
140
1.0
102
RTVSPost2010PropOp52
 70
     0
102
RTVSPost2010Prop53
 90
        2
102
RTVSPost2010PropOp53
 70
     0
102
RTVSPost2010Prop54
  1
strokes_ogs.tif
102
RTVSPost2010PropOp54
 70
     0
102
RTVSPost2010Prop55
280
     0
102
RTVSPost2010PropOp55
 70
     0
102
RTVSPost2010Prop56
140
1.0
102
RTVSPost2010PropOp56
 70
     0
102
RTVSPost2010Prop57
140
1.0
102
RTVSPost2010PropOp57
 70
     0
  0
XRECORD
  5
1FC
102
{ACAD_REACTORS
330
1FB
102
}
330
1FB
100
AcDbXrecord
280
     1
102
RTVSPost2010Prop28
280
     0
102
RTVSPost2010PropOp28
 70
     1
102
RTVSPost2010Prop29
280
     1
102
RTVSPost2010PropOp29
 70
     1
102
RTVSPost2010Prop30
280
     1
102
RTVSPost2010PropOp30
 70
     1
102
RTVSPost2010Prop31
280
     0
102
RTVSPost2010PropOp31
 70
     1
102
RTVSPost2010Prop32
280
     0
102
RTVSPost2010PropOp32
 70
     1
102
RTVSPost2010Prop33
280
     0
102
RTVSPost2010PropOp33
 70
     1
102
RTVSPost2010Prop34
280
     0
102
RTVSPost2010PropOp34
 70
     1
102
RTVSPost2010Prop35
280
     0
102
RTVSPost2010PropOp35
 70
     1
102
RTVSPost2010Prop36
280
     0
102
RTVSPost2010PropOp36
 70
     1
102
RTVSPost2010Prop37
 90
       50
102
RTVSPost2010PropOp37
 70
     1
102
RTVSPost2010Prop38
140
0.0
102
RTVSPost2010PropOp38
 70
     1
102
RTVSPost2010Prop39
140
1.0
102
RTVSPost2010PropOp39
 70
     1
102
RTVSPost2010Prop40
 90
        0
102
RTVSPost2010PropOp40
 70
     1
102
RTVSPost2010Prop41ColorIndex
 90
       18
102
RTVSPost2010Prop41ColorRGB
 90
        0
102
RTVSPost2010PropOp41
 70
     1
102
RTVSPost2010Prop42
 90
       50
102
RTVSPost2010PropOp42
 70
     1
102
RTVSPost2010Prop43
 90
        3
102
RTVSPost2010PropOp43
 70
     1
102
RTVSPost2010Prop44ColorIndex
 90
        5
102
RTVSPost2010Prop44ColorRGB
 90
      255
102
RTVSPost2010PropOp44
 70
     1
102
RTVSPost2010Prop45
280
     0
102
RTVSPost2010PropOp45
 70
     1
102
RTVSPost2010Prop46
 90
       50
102
RTVSPost2010PropOp46
 70
     1
102
RTVSPost2010Prop47
 90
       50
102
RTVSPost2010PropOp47
 70
     1
102
RTVSPost2010Prop48
 90
       50
102
RTVSPost2010PropOp48
 70
     1
102
RTVSPost2010Prop49
280
     0
102
RTVSPost2010PropOp49
 70
     1
102
RTVSPost2010Prop50
 90
       50
102
RTVSPost2010PropOp50
 70
     1
102
RTVSPost2010Prop51ColorIndex
 90
      256
102
RTVSPost2010Prop51ColorRGB
 90
-16777216
102
RTVSPost2010PropOp51
 70
     0
102
RTVSPost2010Prop52
140
1.0
102
RTVSPost2010PropOp52
 70
     0
102
RTVSPost2010Prop53
 90
        2
102
RTVSPost2010PropOp53
 70
     1
102
RTVSPost2010Prop54
  1
strokes_ogs.tif
102
RTVSPost2010PropOp54
 70
     1
102
RTVSPost2010Prop55
280
     0
102
RTVSPost2010PropOp55
 70
     1
102
RTVSPost2010Prop56
140
1.0
102
RTVSPost2010PropOp56
 70
     1
102
RTVSPost2010Prop57
140
1.0
102
RTVSPost2010PropOp57
 70
     1
  0
XRECORD
  5
21A
102
{ACAD_REACTORS
330
219
102
}
330
219
100
AcDbXrecord
280
     1
102
RTVSPost2010Prop28
280
     0
102
RTVSPost2010PropOp28
 70
     1
102
RTVSPost2010Prop29
280
     1
102
RTVSPost2010PropOp29
 70
     1
102
RTVSPost2010Prop30
280
     1
102
RTVSPost2010PropOp30
 70
     1
102
RTVSPost2010Prop31
280
     0
102
RTVSPost2010PropOp31
 70
     1
102
RTVSPost2010Prop32
280
     0
102
RTVSPost2010PropOp32
 70
     1
102
RTVSPost2010Prop33
280
     0
102
RTVSPost2010PropOp33
 70
     1
102
RTVSPost2010Prop34
280
     0
102
RTVSPost2010PropOp34
 70
     1
102
RTVSPost2010Prop35
280
     0
102
RTVSPost2010PropOp35
 70
     1
102
RTVSPost2010Prop36
280
     0
102
RTVSPost2010PropOp36
 70
     1
102
RTVSPost2010Prop37
 90
       50
102
RTVSPost2010PropOp37
 70
     1
102
RTVSPost2010Prop38
140
0.0
102
RTVSPost2010PropOp38
 70
     1
102
RTVSPost2010Prop39
140
1.0
102
RTVSPost2010PropOp39
 70
     1
102
RTVSPost2010Prop40
 90
        0
102
RTVSPost2010PropOp40
 70
     1
102
RTVSPost2010Prop41ColorIndex
 90
       18
102
RTVSPost2010Prop41ColorRGB
 90
        0
102
RTVSPost2010PropOp41
 70
     1
102
RTVSPost2010Prop42
 90
       50
102
RTVSPost2010PropOp42
 70
     1
102
RTVSPost2010Prop43
 90
        3
102
RTVSPost2010PropOp43
 70
     1
102
RTVSPost2010Prop44ColorIndex
 90
        5
102
RTVSPost2010Prop44ColorRGB
 90
      255
102
RTVSPost2010PropOp44
 70
     1
102
RTVSPost2010Prop45
280
     0
102
RTVSPost2010PropOp45
 70
     1
102
RTVSPost2010Prop46
 90
       50
102
RTVSPost2010PropOp46
 70
     1
102
RTVSPost2010Prop47
 90
       50
102
RTVSPost2010PropOp47
 70
     1
102
RTVSPost2010Prop48
 90
       50
102
RTVSPost2010PropOp48
 70
     1
102
RTVSPost2010Prop49
280
     0
102
RTVSPost2010PropOp49
 70
     1
102
RTVSPost2010Prop50
 90
       50
102
RTVSPost2010PropOp50
 70
     1
102
RTVSPost2010Prop51ColorIndex
 90
      256
102
RTVSPost2010Prop51ColorRGB
 90
-16777216
102
RTVSPost2010PropOp51
 70
     0
102
RTVSPost2010Prop52
140
1.0
102
RTVSPost2010PropOp52
 70
     0
102
RTVSPost2010Prop53
 90
        2
102
RTVSPost2010PropOp53
 70
     1
102
RTVSPost2010Prop54
  1
strokes_ogs.tif
102
RTVSPost2010PropOp54
 70
     1
102
RTVSPost2010Prop55
280
     0
102
RTVSPost2010PropOp55
 70
     1
102
RTVSPost2010Prop56
140
1.0
102
RTVSPost2010PropOp56
 70
     1
102
RTVSPost2010Prop57
140
1.0
102
RTVSPost2010PropOp57
 70
     1
  0
XRECORD
  5
218
102
{ACAD_REACTORS
330
217
102
}
330
217
100
AcDbXrecord
280
     1
102
RTVSPost2010Prop28
280
     0
102
RTVSPost2010PropOp28
 70
     1
102
RTVSPost2010Prop29
280
     1
102
RTVSPost2010PropOp29
 70
     1
102
RTVSPost2010Prop30
280
     1
102
RTVSPost2010PropOp30
 70
     1
102
RTVSPost2010Prop31
280
     0
102
RTVSPost2010PropOp31
 70
     1
102
RTVSPost2010Prop32
280
     0
102
RTVSPost2010PropOp32
 70
     1
102
RTVSPost2010Prop33
280
     0
102
RTVSPost2010PropOp33
 70
     1
102
RTVSPost2010Prop34
280
     0
102
RTVSPost2010PropOp34
 70
     1
102
RTVSPost2010Prop35
280
     0
102
RTVSPost2010PropOp35
 70
     1
102
RTVSPost2010Prop36
280
     0
102
RTVSPost2010PropOp36
 70
     1
102
RTVSPost2010Prop37
 90
       50
102
RTVSPost2010PropOp37
 70
     1
102
RTVSPost2010Prop38
140
0.0
102
RTVSPost2010PropOp38
 70
     1
102
RTVSPost2010Prop39
140
1.0
102
RTVSPost2010PropOp39
 70
     1
102
RTVSPost2010Prop40
 90
        0
102
RTVSPost2010PropOp40
 70
     1
102
RTVSPost2010Prop41ColorIndex
 90
       18
102
RTVSPost2010Prop41ColorRGB
 90
        0
102
RTVSPost2010PropOp41
 70
     1
102
RTVSPost2010Prop42
 90
       50
102
RTVSPost2010PropOp42
 70
     1
102
RTVSPost2010Prop43
 90
        3
102
RTVSPost2010PropOp43
 70
     1
102
RTVSPost2010Prop44ColorIndex
 90
        5
102
RTVSPost2010Prop44ColorRGB
 90
      255
102
RTVSPost2010PropOp44
 70
     1
102
RTVSPost2010Prop45
280
     0
102
RTVSPost2010PropOp45
 70
     1
102
RTVSPost2010Prop46
 90
       50
102
RTVSPost2010PropOp46
 70
     1
102
RTVSPost2010Prop47
 90
       50
102
RTVSPost2010PropOp47
 70
     1
102
RTVSPost2010Prop48
 90
       50
102
RTVSPost2010PropOp48
 70
     1
102
RTVSPost2010Prop49
280
     0
102
RTVSPost2010PropOp49
 70
     1
102
RTVSPost2010Prop50
 90
       50
102
RTVSPost2010PropOp50
 70
     1
102
RTVSPost2010Prop51ColorIndex
 90
      256
102
RTVSPost2010Prop51ColorRGB
 90
-16777216
102
RTVSPost2010PropOp51
 70
     0
102
RTVSPost2010Prop52
140
1.0
102
RTVSPost2010PropOp52
 70
     0
102
RTVSPost2010Prop53
 90
        2
102
RTVSPost2010PropOp53
 70
     1
102
RTVSPost2010Prop54
  1
strokes_ogs.tif
102
RTVSPost2010PropOp54
 70
     1
102
RTVSPost2010Prop55
280
     0
102
RTVSPost2010PropOp55
 70
     1
102
RTVSPost2010Prop56
140
1.0
102
RTVSPost2010PropOp56
 70
     1
102
RTVSPost2010Prop57
140
1.0
102
RTVSPost2010PropOp57
 70
     1
  0
XRECORD
  5
212
102
{ACAD_REACTORS
330
211
102
}
330
211
100
AcDbXrecord
280
     1
102
RTVSPost2010Prop28
280
     0
102
RTVSPost2010PropOp28
 70
     1
102
RTVSPost2010Prop29
280
     1
102
RTVSPost2010PropOp29
 70
     1
102
RTVSPost2010Prop30
280
     1
102
RTVSPost2010PropOp30
 70
     1
102
RTVSPost2010Prop31
280
     0
102
RTVSPost2010PropOp31
 70
     1
102
RTVSPost2010Prop32
280
     0
102
RTVSPost2010PropOp32
 70
     1
102
RTVSPost2010Prop33
280
     0
102
RTVSPost2010PropOp33
 70
     1
102
RTVSPost2010Prop34
280
     0
102
RTVSPost2010PropOp34
 70
     1
102
RTVSPost2010Prop35
280
     0
102
RTVSPost2010PropOp35
 70
     1
102
RTVSPost2010Prop36
280
     0
102
RTVSPost2010PropOp36
 70
     1
102
RTVSPost2010Prop37
 90
       50
102
RTVSPost2010PropOp37
 70
     1
102
RTVSPost2010Prop38
140
0.0
102
RTVSPost2010PropOp38
 70
     1
102
RTVSPost2010Prop39
140
1.0
102
RTVSPost2010PropOp39
 70
     1
102
RTVSPost2010Prop40
 90
        0
102
RTVSPost2010PropOp40
 70
     1
102
RTVSPost2010Prop41ColorIndex
 90
       18
102
RTVSPost2010Prop41ColorRGB
 90
        0
102
RTVSPost2010PropOp41
 70
     1
102
RTVSPost2010Prop42
 90
       50
102
RTVSPost2010PropOp42
 70
     1
102
RTVSPost2010Prop43
 90
        3
102
RTVSPost2010PropOp43
 70
     1
102
RTVSPost2010Prop44ColorIndex
 90
        5
102
RTVSPost2010Prop44ColorRGB
 90
      255
102
RTVSPost2010PropOp44
 70
     1
102
RTVSPost2010Prop45
280
     0
102
RTVSPost2010PropOp45
 70
     1
102
RTVSPost2010Prop46
 90
       50
102
RTVSPost2010PropOp46
 70
     1
102
RTVSPost2010Prop47
 90
       50
102
RTVSPost2010PropOp47
 70
     1
102
RTVSPost2010Prop48
 90
       50
102
RTVSPost2010PropOp48
 70
     1
102
RTVSPost2010Prop49
280
     0
102
RTVSPost2010PropOp49
 70
     1
102
RTVSPost2010Prop50
 90
       50
102
RTVSPost2010PropOp50
 70
     1
102
RTVSPost2010Prop51ColorIndex
 90
      256
102
RTVSPost2010Prop51ColorRGB
 90
-16777216
102
RTVSPost2010PropOp51
 70
     0
102
RTVSPost2010Prop52
140
1.0
102
RTVSPost2010PropOp52
 70
     0
102
RTVSPost2010Prop53
 90
        2
102
RTVSPost2010PropOp53
 70
     1
102
RTVSPost2010Prop54
  1
strokes_ogs.tif
102
RTVSPost2010PropOp54
 70
     1
102
RTVSPost2010Prop55
280
     0
102
RTVSPost2010PropOp55
 70
     1
102
RTVSPost2010Prop56
140
1.0
102
RTVSPost2010PropOp56
 70
     1
102
RTVSPost2010Prop57
140
1.0
102
RTVSPost2010PropOp57
 70
     1
  0
XRECORD
  5
214
102
{ACAD_REACTORS
330
213
102
}
330
213
100
AcDbXrecord
280
     1
102
RTVSPost2010Prop28
280
     0
102
RTVSPost2010PropOp28
 70
     1
102
RTVSPost2010Prop29
280
     1
102
RTVSPost2010PropOp29
 70
     1
102
RTVSPost2010Prop30
280
     1
102
RTVSPost2010PropOp30
 70
     1
102
RTVSPost2010Prop31
280
     0
102
RTVSPost2010PropOp31
 70
     1
102
RTVSPost2010Prop32
280
     0
102
RTVSPost2010PropOp32
 70
     1
102
RTVSPost2010Prop33
280
     0
102
RTVSPost2010PropOp33
 70
     1
102
RTVSPost2010Prop34
280
     0
102
RTVSPost2010PropOp34
 70
     1
102
RTVSPost2010Prop35
280
     0
102
RTVSPost2010PropOp35
 70
     1
102
RTVSPost2010Prop36
280
     0
102
RTVSPost2010PropOp36
 70
     1
102
RTVSPost2010Prop37
 90
       50
102
RTVSPost2010PropOp37
 70
     1
102
RTVSPost2010Prop38
140
0.0
102
RTVSPost2010PropOp38
 70
     1
102
RTVSPost2010Prop39
140
1.0
102
RTVSPost2010PropOp39
 70
     1
102
RTVSPost2010Prop40
 90
        0
102
RTVSPost2010PropOp40
 70
     1
102
RTVSPost2010Prop41ColorIndex
 90
       18
102
RTVSPost2010Prop41ColorRGB
 90
        0
102
RTVSPost2010PropOp41
 70
     1
102
RTVSPost2010Prop42
 90
       50
102
RTVSPost2010PropOp42
 70
     1
102
RTVSPost2010Prop43
 90
        3
102
RTVSPost2010PropOp43
 70
     1
102
RTVSPost2010Prop44ColorIndex
 90
        5
102
RTVSPost2010Prop44ColorRGB
 90
      255
102
RTVSPost2010PropOp44
 70
     1
102
RTVSPost2010Prop45
280
     0
102
RTVSPost2010PropOp45
 70
     1
102
RTVSPost2010Prop46
 90
       50
102
RTVSPost2010PropOp46
 70
     1
102
RTVSPost2010Prop47
 90
       50
102
RTVSPost2010PropOp47
 70
     1
102
RTVSPost2010Prop48
 90
       50
102
RTVSPost2010PropOp48
 70
     1
102
RTVSPost2010Prop49
280
     0
102
RTVSPost2010PropOp49
 70
     1
102
RTVSPost2010Prop50
 90
       50
102
RTVSPost2010PropOp50
 70
     1
102
RTVSPost2010Prop51ColorIndex
 90
      256
102
RTVSPost2010Prop51ColorRGB
 90
-16777216
102
RTVSPost2010PropOp51
 70
     0
102
RTVSPost2010Prop52
140
1.0
102
RTVSPost2010PropOp52
 70
     0
102
RTVSPost2010Prop53
 90
        2
102
RTVSPost2010PropOp53
 70
     1
102
RTVSPost2010Prop54
  1
strokes_ogs.tif
102
RTVSPost2010PropOp54
 70
     1
102
RTVSPost2010Prop55
280
     0
102
RTVSPost2010PropOp55
 70
     1
102
RTVSPost2010Prop56
140
1.0
102
RTVSPost2010PropOp56
 70
     1
102
RTVSPost2010Prop57
140
1.0
102
RTVSPost2010PropOp57
 70
     1
  0
XRECORD
  5
204
102
{ACAD_REACTORS
330
203
102
}
330
203
100
AcDbXrecord
280
     1
102
RTVSPost2010Prop28
280
     0
102
RTVSPost2010PropOp28
 70
     1
102
RTVSPost2010Prop29
280
     1
102
RTVSPost2010PropOp29
 70
     1
102
RTVSPost2010Prop30
280
     1
102
RTVSPost2010PropOp30
 70
     1
102
RTVSPost2010Prop31
280
     0
102
RTVSPost2010PropOp31
 70
     1
102
RTVSPost2010Prop32
280
     0
102
RTVSPost2010PropOp32
 70
     1
102
RTVSPost2010Prop33
280
     0
102
RTVSPost2010PropOp33
 70
     1
102
RTVSPost2010Prop34
280
     0
102
RTVSPost2010PropOp34
 70
     1
102
RTVSPost2010Prop35
280
     0
102
RTVSPost2010PropOp35
 70
     1
102
RTVSPost2010Prop36
280
     0
102
RTVSPost2010PropOp36
 70
     1
102
RTVSPost2010Prop37
 90
       50
102
RTVSPost2010PropOp37
 70
     1
102
RTVSPost2010Prop38
140
0.0
102
RTVSPost2010PropOp38
 70
     1
102
RTVSPost2010Prop39
140
1.0
102
RTVSPost2010PropOp39
 70
     1
102
RTVSPost2010Prop40
 90
        0
102
RTVSPost2010PropOp40
 70
     1
102
RTVSPost2010Prop41ColorIndex
 90
       18
102
RTVSPost2010Prop41ColorRGB
 90
        0
102
RTVSPost2010PropOp41
 70
     1
102
RTVSPost2010Prop42
 90
       50
102
RTVSPost2010PropOp42
 70
     1
102
RTVSPost2010Prop43
 90
        3
102
RTVSPost2010PropOp43
 70
     1
102
RTVSPost2010Prop44ColorIndex
 90
        5
102
RTVSPost2010Prop44ColorRGB
 90
      255
102
RTVSPost2010PropOp44
 70
     1
102
RTVSPost2010Prop45
280
     0
102
RTVSPost2010PropOp45
 70
     1
102
RTVSPost2010Prop46
 90
       50
102
RTVSPost2010PropOp46
 70
     1
102
RTVSPost2010Prop47
 90
       50
102
RTVSPost2010PropOp47
 70
     1
102
RTVSPost2010Prop48
 90
       50
102
RTVSPost2010PropOp48
 70
     1
102
RTVSPost2010Prop49
280
     0
102
RTVSPost2010PropOp49
 70
     1
102
RTVSPost2010Prop50
 90
       50
102
RTVSPost2010PropOp50
 70
     1
102
RTVSPost2010Prop51ColorIndex
 90
      256
102
RTVSPost2010Prop51ColorRGB
 90
-16777216
102
RTVSPost2010PropOp51
 70
     0
102
RTVSPost2010Prop52
140
1.0
102
RTVSPost2010PropOp52
 70
     0
102
RTVSPost2010Prop53
 90
        2
102
RTVSPost2010PropOp53
 70
     1
102
RTVSPost2010Prop54
  1
strokes_ogs.tif
102
RTVSPost2010PropOp54
 70
     1
102
RTVSPost2010Prop55
280
     0
102
RTVSPost2010PropOp55
 70
     1
102
RTVSPost2010Prop56
140
1.0
102
RTVSPost2010PropOp56
 70
     1
102
RTVSPost2010Prop57
140
1.0
102
RTVSPost2010PropOp57
 70
     1
  0
XRECORD
  5
1F6
102
{ACAD_REACTORS
330
1F5
102
}
330
1F5
100
AcDbXrecord
280
     1
102
RTVSPost2010Prop28
280
     0
102
RTVSPost2010PropOp28
 70
     1
102
RTVSPost2010Prop29
280
     1
102
RTVSPost2010PropOp29
 70
     1
102
RTVSPost2010Prop30
280
     1
102
RTVSPost2010PropOp30
 70
     1
102
RTVSPost2010Prop31
280
     0
102
RTVSPost2010PropOp31
 70
     1
102
RTVSPost2010Prop32
280
     0
102
RTVSPost2010PropOp32
 70
     1
102
RTVSPost2010Prop33
280
     0
102
RTVSPost2010PropOp33
 70
     1
102
RTVSPost2010Prop34
280
     0
102
RTVSPost2010PropOp34
 70
     1
102
RTVSPost2010Prop35
280
     0
102
RTVSPost2010PropOp35
 70
     1
102
RTVSPost2010Prop36
280
     0
102
RTVSPost2010PropOp36
 70
     1
102
RTVSPost2010Prop37
 90
       50
102
RTVSPost2010PropOp37
 70
     1
102
RTVSPost2010Prop38
140
0.0
102
RTVSPost2010PropOp38
 70
     1
102
RTVSPost2010Prop39
140
1.0
102
RTVSPost2010PropOp39
 70
     1
102
RTVSPost2010Prop40
 90
        0
102
RTVSPost2010PropOp40
 70
     1
102
RTVSPost2010Prop41ColorIndex
 90
       18
102
RTVSPost2010Prop41ColorRGB
 90
        0
102
RTVSPost2010PropOp41
 70
     1
102
RTVSPost2010Prop42
 90
       50
102
RTVSPost2010PropOp42
 70
     1
102
RTVSPost2010Prop43
 90
        3
102
RTVSPost2010PropOp43
 70
     1
102
RTVSPost2010Prop44ColorIndex
 90
        5
102
RTVSPost2010Prop44ColorRGB
 90
      255
102
RTVSPost2010PropOp44
 70
     1
102
RTVSPost2010Prop45
280
     0
102
RTVSPost2010PropOp45
 70
     1
102
RTVSPost2010Prop46
 90
       50
102
RTVSPost2010PropOp46
 70
     1
102
RTVSPost2010Prop47
 90
       50
102
RTVSPost2010PropOp47
 70
     1
102
RTVSPost2010Prop48
 90
       50
102
RTVSPost2010PropOp48
 70
     1
102
RTVSPost2010Prop49
280
     0
102
RTVSPost2010PropOp49
 70
     1
102
RTVSPost2010Prop50
 90
       50
102
RTVSPost2010PropOp50
 70
     1
102
RTVSPost2010Prop51ColorIndex
 90
      256
102
RTVSPost2010Prop51ColorRGB
 90
-16777216
102
RTVSPost2010PropOp51
 70
     0
102
RTVSPost2010Prop52
140
1.0
102
RTVSPost2010PropOp52
 70
     0
102
RTVSPost2010Prop53
 90
        2
102
RTVSPost2010PropOp53
 70
     1
102
RTVSPost2010Prop54
  1
strokes_ogs.tif
102
RTVSPost2010PropOp54
 70
     1
102
RTVSPost2010Prop55
280
     0
102
RTVSPost2010PropOp55
 70
     1
102
RTVSPost2010Prop56
140
1.0
102
RTVSPost2010PropOp56
 70
     1
102
RTVSPost2010Prop57
140
1.0
102
RTVSPost2010PropOp57
 70
     1
  0
XRECORD
  5
216
102
{ACAD_REACTORS
330
215
102
}
330
215
100
AcDbXrecord
280
     1
102
RTVSPost2010Prop28
280
     0
102
RTVSPost2010PropOp28
 70
     1
102
RTVSPost2010Prop29
280
     1
102
RTVSPost2010PropOp29
 70
     1
102
RTVSPost2010Prop30
280
     1
102
RTVSPost2010PropOp30
 70
     1
102
RTVSPost2010Prop31
280
     0
102
RTVSPost2010PropOp31
 70
     1
102
RTVSPost2010Prop32
280
     0
102
RTVSPost2010PropOp32
 70
     1
102
RTVSPost2010Prop33
280
     0
102
RTVSPost2010PropOp33
 70
     1
102
RTVSPost2010Prop34
280
     0
102
RTVSPost2010PropOp34
 70
     1
102
RTVSPost2010Prop35
280
     0
102
RTVSPost2010PropOp35
 70
     1
102
RTVSPost2010Prop36
280
     0
102
RTVSPost2010PropOp36
 70
     1
102
RTVSPost2010Prop37
 90
       50
102
RTVSPost2010PropOp37
 70
     1
102
RTVSPost2010Prop38
140
0.0
102
RTVSPost2010PropOp38
 70
     1
102
RTVSPost2010Prop39
140
1.0
102
RTVSPost2010PropOp39
 70
     1
102
RTVSPost2010Prop40
 90
        0
102
RTVSPost2010PropOp40
 70
     1
102
RTVSPost2010Prop41ColorIndex
 90
       18
102
RTVSPost2010Prop41ColorRGB
 90
        0
102
RTVSPost2010PropOp41
 70
     1
102
RTVSPost2010Prop42
 90
       50
102
RTVSPost2010PropOp42
 70
     1
102
RTVSPost2010Prop43
 90
        3
102
RTVSPost2010PropOp43
 70
     1
102
RTVSPost2010Prop44ColorIndex
 90
        5
102
RTVSPost2010Prop44ColorRGB
 90
      255
102
RTVSPost2010PropOp44
 70
     1
102
RTVSPost2010Prop45
280
     0
102
RTVSPost2010PropOp45
 70
     1
102
RTVSPost2010Prop46
 90
       50
102
RTVSPost2010PropOp46
 70
     1
102
RTVSPost2010Prop47
 90
       50
102
RTVSPost2010PropOp47
 70
     1
102
RTVSPost2010Prop48
 90
       50
102
RTVSPost2010PropOp48
 70
     1
102
RTVSPost2010Prop49
280
     0
102
RTVSPost2010PropOp49
 70
     1
102
RTVSPost2010Prop50
 90
       50
102
RTVSPost2010PropOp50
 70
     1
102
RTVSPost2010Prop51ColorIndex
 90
      256
102
RTVSPost2010Prop51ColorRGB
 90
-16777216
102
RTVSPost2010PropOp51
 70
     0
102
RTVSPost2010Prop52
140
1.0
102
RTVSPost2010PropOp52
 70
     0
102
RTVSPost2010Prop53
 90
        2
102
RTVSPost2010PropOp53
 70
     1
102
RTVSPost2010Prop54
  1
strokes_ogs.tif
102
RTVSPost2010PropOp54
 70
     1
102
RTVSPost2010Prop55
280
     0
102
RTVSPost2010PropOp55
 70
     1
102
RTVSPost2010Prop56
140
1.0
102
RTVSPost2010PropOp56
 70
     1
102
RTVSPost2010Prop57
140
1.0
102
RTVSPost2010PropOp57
 70
     1
  0
ENDSEC
  0
EOF
