  0
SECTION
  2
HEADER
  9
$ACADVER
  1
AC1024
  9
$ACADMAINTVER
 70
     6
  9
$DWGCODEPAGE
  3
ANSI_1252
  9
$INSBASE
 10
0.0
 20
0.0
 30
0.0
  9
$EXTMIN
 10
1.000000E+20
 20
1.000000E+20
 30
1.000000E+20
  9
$EXTMAX
 10
-1.000000E+20
 20
-1.000000E+20
 30
-1.000000E+20
  9
$LIMMIN
 10
0.0
 20
0.0
  9
$LIMMAX
 10
420.0
 20
297.0
  9
$ORTHOMODE
 70
     0
  9
$REGENMODE
 70
     1
  9
$FILLMODE
 70
     1
  9
$QTEXTMODE
 70
     0
  9
$MIRRTEXT
 70
     1
  9
$LTSCALE
 40
1.0
  9
$ATTMODE
 70
     1
  9
$TEXTSIZE
 40
2.5
  9
$TRACEWID
 40
1.0
  9
$TEXTSTYLE
  7
Standard
  9
$CLAYER
  8
0
  9
$CELTYPE
  6
ByLayer
  9
$CECOLOR
 62
   256
  9
$CELTSCALE
 40
1.0
  9
$DISPSILH
 70
     0
  9
$DIMSCALE
 40
1.0
  9
$DIMASZ
 40
2.5
  9
$DIMEXO
 40
0.625
  9
$DIMDLI
 40
3.75
  9
$DIMRND
 40
0.0
  9
$DIMDLE
 40
0.0
  9
$DIMEXE
 40
1.25
  9
$DIMTP
 40
0.0
  9
$DIMTM
 40
0.0
  9
$DIMTXT
 40
2.5
  9
$DIMCEN
 40
2.5
  9
$DIMTSZ
 40
0.0
  9
$DIMTOL
 70
     0
  9
$DIMLIM
 70
     0
  9
$DIMTIH
 70
     0
  9
$DIMTOH
 70
     0
  9
$DIMSE1
 70
     0
  9
$DIMSE2
 70
     0
  9
$DIMTAD
 70
     1
  9
$DIMZIN
 70
     8
  9
$DIMBLK
  1

  9
$DIMASO
 70
     1
  9
$DIMSHO
 70
     1
  9
$DIMPOST
  1

  9
$DIMAPOST
  1

  9
$DIMALT
 70
     0
  9
$DIMALTD
 70
     3
  9
$DIMALTF
 40
0.03937
  9
$DIMLFAC
 40
1.0
  9
$DIMTOFL
 70
     1
  9
$DIMTVP
 40
0.0
  9
$DIMTIX
 70
     0
  9
$DIMSOXD
 70
     0
  9
$DIMSAH
 70
     0
  9
$DIMBLK1
  1

  9
$DIMBLK2
  1

  9
$DIMSTYLE
  2
ISO-25
  9
$DIMCLRD
 70
     0
  9
$DIMCLRE
 70
     0
  9
$DIMCLRT
 70
     0
  9
$DIMTFAC
 40
1.0
  9
$DIMGAP
 40
0.625
  9
$DIMJUST
 70
     0
  9
$DIMSD1
 70
     0
  9
$DIMSD2
 70
     0
  9
$DIMTOLJ
 70
     0
  9
$DIMTZIN
 70
     8
  9
$DIMALTZ
 70
     0
  9
$DIMALTTZ
 70
     0
  9
$DIMUPT
 70
     0
  9
$DIMDEC
 70
     2
  9
$DIMTDEC
 70
     2
  9
$DIMALTU
 70
     2
  9
$DIMALTTD
 70
     3
  9
$DIMTXSTY
  7
Standard
  9
$DIMAUNIT
 70
     0
  9
$DIMADEC
 70
     0
  9
$DIMALTRND
 40
0.0
  9
$DIMAZIN
 70
     0
  9
$DIMDSEP
 70
    44
  9
$DIMATFIT
 70
     3
  9
$DIMFRAC
 70
     0
  9
$DIMLDRBLK
  1

  9
$DIMLUNIT
 70
     2
  9
$DIMLWD
 70
    -2
  9
$DIMLWE
 70
    -2
  9
$DIMTMOVE
 70
     0
  9
$DIMFXL
 40
1.0
  9
$DIMFXLON
 70
     0
  9
$DIMJOGANG
 40
0.785398
  9
$DIMTFILL
 70
     0
  9
$DIMTFILLCLR
 70
     0
  9
$DIMARCSYM
 70
     0
  9
$DIMLTYPE
  6

  9
$DIMLTEX1
  6

  9
$DIMLTEX2
  6

  9
$DIMTXTDIRECTION
 70
     0
  9
$LUNITS
 70
     2
  9
$LUPREC
 70
     4
  9
$SKETCHINC
 40
1.0
  9
$FILLETRAD
 40
10.0
  9
$AUNITS
 70
     0
  9
$AUPREC
 70
     0
  9
$MENU
  1
.
  9
$ELEVATION
 40
0.0
  9
$PELEVATION
 40
0.0
  9
$THICKNESS
 40
0.0
  9
$LIMCHECK
 70
     0
  9
$CHAMFERA
 40
0.0
  9
$CHAMFERB
 40
0.0
  9
$CHAMFERC
 40
0.0
  9
$CHAMFERD
 40
0.0
  9
$SKPOLY
 70
     0
  9
$TDCREATE
 40
2458621.628341435
  9
$TDUCREATE
 40
2458621.545008102
  9
$TDUPDATE
 40
2458621.628342049
  9
$TDUUPDATE
 40
2458621.545008715
  9
$TDINDWG
 40
0.0000000116
  9
$TDUSRTIMER
 40
0.0000000116
  9
$USRTIMER
 70
     1
  9
$ANGBASE
 50
0.0
  9
$ANGDIR
 70
     0
  9
$PDMODE
 70
     0
  9
$PDSIZE
 40
0.0
  9
$PLINEWID
 40
0.0
  9
$SPLFRAME
 70
     0
  9
$SPLINETYPE
 70
     6
  9
$SPLINESEGS
 70
     8
  9
$HANDSEED
  5
222
  9
$SURFTAB1
 70
     6
  9
$SURFTAB2
 70
     6
  9
$SURFTYPE
 70
     6
  9
$SURFU
 70
     6
  9
$SURFV
 70
     6
  9
$UCSBASE
  2

  9
$UCSNAME
  2

  9
$UCSORG
 10
0.0
 20
0.0
 30
0.0
  9
$UCSXDIR
 10
1.0
 20
0.0
 30
0.0
  9
$UCSYDIR
 10
0.0
 20
1.0
 30
0.0
  9
$UCSORTHOREF
  2

  9
$UCSORTHOVIEW
 70
     0
  9
$UCSORGTOP
 10
0.0
 20
0.0
 30
0.0
  9
$UCSORGBOTTOM
 10
0.0
 20
0.0
 30
0.0
  9
$UCSORGLEFT
 10
0.0
 20
0.0
 30
0.0
  9
$UCSORGRIGHT
 10
0.0
 20
0.0
 30
0.0
  9
$UCSORGFRONT
 10
0.0
 20
0.0
 30
0.0
  9
$UCSORGBACK
 10
0.0
 20
0.0
 30
0.0
  9
$PUCSBASE
  2

  9
$PUCSNAME
  2

  9
$PUCSORG
 10
0.0
 20
0.0
 30
0.0
  9
$PUCSXDIR
 10
1.0
 20
0.0
 30
0.0
  9
$PUCSYDIR
 10
0.0
 20
1.0
 30
0.0
  9
$PUCSORTHOREF
  2

  9
$PUCSORTHOVIEW
 70
     0
  9
$PUCSORGTOP
 10
0.0
 20
0.0
 30
0.0
  9
$PUCSORGBOTTOM
 10
0.0
 20
0.0
 30
0.0
  9
$PUCSORGLEFT
 10
0.0
 20
0.0
 30
0.0
  9
$PUCSORGRIGHT
 10
0.0
 20
0.0
 30
0.0
  9
$PUCSORGFRONT
 10
0.0
 20
0.0
 30
0.0
  9
$PUCSORGBACK
 10
0.0
 20
0.0
 30
0.0
  9
$USERI1
 70
     0
  9
$USERI2
 70
     0
  9
$USERI3
 70
     0
  9
$USERI4
 70
     0
  9
$USERI5
 70
     0
  9
$USERR1
 40
0.0
  9
$USERR2
 40
0.0
  9
$USERR3
 40
0.0
  9
$USERR4
 40
0.0
  9
$USERR5
 40
0.0
  9
$WORLDVIEW
 70
     1
  9
$SHADEDGE
 70
     3
  9
$SHADEDIF
 70
    70
  9
$TILEMODE
 70
     1
  9
$MAXACTVP
 70
    64
  9
$PINSBASE
 10
0.0
 20
0.0
 30
0.0
  9
$PLIMCHECK
 70
     0
  9
$PEXTMIN
 10
1.000000E+20
 20
1.000000E+20
 30
1.000000E+20
  9
$PEXTMAX
 10
-1.000000E+20
 20
-1.000000E+20
 30
-1.000000E+20
  9
$PLIMMIN
 10
0.0
 20
0.0
  9
$PLIMMAX
 10
420.0
 20
297.0
  9
$UNITMODE
 70
     0
  9
$VISRETAIN
 70
     1
  9
$PLINEGEN
 70
     0
  9
$PSLTSCALE
 70
     1
  9
$TREEDEPTH
 70
  3020
  9
$CMLSTYLE
  2
Standard
  9
$CMLJUST
 70
     0
  9
$CMLSCALE
 40
20.0
  9
$PROXYGRAPHICS
 70
     1
  9
$MEASUREMENT
 70
     1
  9
$CELWEIGHT
370
    -1
  9
$ENDCAPS
280
     0
  9
$JOINSTYLE
280
     0
  9
$LWDISPLAY
290
     0
  9
$INSUNITS
 70
     4
  9
$HYPERLINKBASE
  1

  9
$STYLESHEET
  1

  9
$XEDIT
290
     1
  9
$CEPSNTYPE
380
     0
  9
$PSTYLEMODE
290
     1
  9
$FINGERPRINTGUID
  2
{75CCCEBA-195F-4F62-937C-D8E46D0022C0}
  9
$VERSIONGUID
  2
{FAEB1C32-E019-11D5-929B-00C0DF256EC4}
  9
$EXTNAMES
290
     1
  9
$PSVPSCALE
 40
0.0
  9
$OLESTARTUP
290
     0
  9
$SORTENTS
280
   127
  9
$INDEXCTL
280
     0
  9
$HIDETEXT
280
     1
  9
$XCLIPFRAME
280
     2
  9
$HALOGAP
280
     0
  9
$OBSCOLOR
 70
   257
  9
$OBSLTYPE
280
     0
  9
$INTERSECTIONDISPLAY
280
     0
  9
$INTERSECTIONCOLOR
 70
   257
  9
$DIMASSOC
280
     2
  9
$PROJECTNAME
  1

  9
$CAMERADISPLAY
290
     0
  9
$LENSLENGTH
 40
50.0
  9
$CAMERAHEIGHT
 40
0.0
  9
$STEPSPERSEC
 40
2.0
  9
$STEPSIZE
 40
6.0
  9
$3DDWFPREC
 40
2.0
  9
$PSOLWIDTH
 40
5.0
  9
$PSOLHEIGHT
 40
80.0
  9
$LOFTANG1
 40
1.570796
  9
$LOFTANG2
 40
1.570796
  9
$LOFTMAG1
 40
0.0
  9
$LOFTMAG2
 40
0.0
  9
$LOFTPARAM
 70
     7
  9
$LOFTNORMALS
280
     1
  9
$LATITUDE
 40
37.795
  9
$LONGITUDE
 40
-122.394
  9
$NORTHDIRECTION
 40
0.0
  9
$TIMEZONE
 70
 -8000
  9
$LIGHTGLYPHDISPLAY
280
     1
  9
$TILEMODELIGHTSYNCH
280
     1
  9
$CMATERIAL
347
44
  9
$SOLIDHIST
280
     0
  9
$SHOWHIST
280
     1
  9
$DWFFRAME
280
     2
  9
$DGNFRAME
280
     2
  9
$REALWORLDSCALE
290
     1
  9
$INTERFERECOLOR
 62
   256
  9
$CSHADOW
280
     0
  9
$SHADOWPLANELOCATION
 40
0.0
  0
ENDSEC
  0
SECTION
  2
CLASSES
  0
CLASS
  1
ACDBDICTIONARYWDFLT
  2
AcDbDictionaryWithDefault
  3
ObjectDBX Classes
 90
        0
 91
        4
280
     0
281
     0
  0
CLASS
  1
VISUALSTYLE
  2
AcDbVisualStyle
  3
ObjectDBX Classes
 90
     4095
 91
        4
280
     0
281
     0
  0
CLASS
  1
MATERIAL
  2
AcDbMaterial
  3
ObjectDBX Classes
 90
     1153
 91
        4
280
     0
281
     0
  0
CLASS
  1
SCALE
  2
AcDbScale
  3
ObjectDBX Classes
 90
     1153
 91
        4
280
     0
281
     0
  0
CLASS
  1
TABLESTYLE
  2
AcDbTableStyle
  3
ObjectDBX Classes
 90
     4095
 91
        4
280
     0
281
     0
  0
CLASS
  1
MLEADERSTYLE
  2
AcDbMLeaderStyle
  3
ACDB_MLEADERSTYLE_CLASS
 90
     4095
 91
        4
280
     0
281
     0
  0
CLASS
  1
SUN
  2
AcDbSun
  3
SCENEOE
 90
     1153
 91
        4
280
     0
281
     0
  0
CLASS
  1
DICTIONARYVAR
  2
AcDbDictionaryVar
  3
ObjectDBX Classes
 90
        0
 91
        4
280
     0
281
     0
  0
CLASS
  1
CELLSTYLEMAP
  2
AcDbCellStyleMap
  3
ObjectDBX Classes
 90
     1152
 91
        4
280
     0
281
     0
  0
ENDSEC
  0
SECTION
  2
TABLES
  0
TABLE
  2
VPORT
  5
8
330
0
100
AcDbSymbolTable
 70
     1
  0
VPORT
  5
29
330
8
100
AcDbSymbolTableRecord
100
AcDbViewportTableRecord
  2
*Active
 70
     0
 10
0.0
 20
0.0
 11
1.0
 21
1.0
 12
344.186916
 22
148.5
 13
0.0
 23
0.0
 14
10.0
 24
10.0
 15
10.0
 25
10.0
 16
0.0
 26
0.0
 36
1.0
 17
0.0
 27
0.0
 37
0.0
 40
297.0
 41
1.972973
 42
50.0
 43
0.0
 44
0.0
 50
0.0
 51
0.0
 71
     0
 72
   100
 73
     1
 74
     3
 75
     0
 76
     0
 77
     0
 78
     0
281
     0
 65
     1
110
0.0
120
0.0
130
0.0
111
1.0
121
0.0
131
0.0
112
0.0
122
1.0
132
0.0
 79
     0
146
0.0
348
2F
 60
     3
 61
     5
292
     1
282
     1
141
0.0
142
0.0
 63
   250
361
6D
  0
ENDTAB
  0
TABLE
  2
LTYPE
  5
5
330
0
100
AcDbSymbolTable
 70
     1
  0
LTYPE
  5
14
330
5
100
AcDbSymbolTableRecord
100
AcDbLinetypeTableRecord
  2
ByBlock
 70
     0
  3

 72
    65
 73
     0
 40
0.0
  0
LTYPE
  5
15
330
5
100
AcDbSymbolTableRecord
100
AcDbLinetypeTableRecord
  2
ByLayer
 70
     0
  3

 72
    65
 73
     0
 40
0.0
  0
LTYPE
  5
16
330
5
100
AcDbSymbolTableRecord
100
AcDbLinetypeTableRecord
  2
Continuous
 70
     0
  3
Solid line
 72
    65
 73
     0
 40
0.0
  0
ENDTAB
  0
TABLE
  2
LAYER
  5
2
330
0
100
AcDbSymbolTable
 70
     1
  0
LAYER
  5
10
330
2
100
AcDbSymbolTableRecord
100
AcDbLayerTableRecord
  2
0
 70
     0
 62
   106
  6
Continuous
370
     0
390
F
347
46
  0
ENDTAB
  0
TABLE
  2
STYLE
  5
3
330
0
100
AcDbSymbolTable
 70
     4
  0
STYLE
  5
11
330
3
100
AcDbSymbolTableRecord
100
AcDbTextStyleTableRecord
  2
Standard
 70
     0
 40
0.0
 41
1.0
 50
0.0
 71
     0
 42
2.5
  3
txt
  4

  0
STYLE
  5
6E
330
3
100
AcDbSymbolTableRecord
100
AcDbTextStyleTableRecord
  2
Default
 70
     0
 40
0.0
 41
1.0
 50
0.0
 71
     0
 42
2.5
  3

  4

1001
ACAD
1000
txt
1071
        0
  0
STYLE
  5
6F
330
3
100
AcDbSymbolTableRecord
100
AcDbTextStyleTableRecord
  2
ISO
 70
     0
 40
0.0
 41
1.0
 50
0.0
 71
     0
 42
2.5
  3

  4

1001
ACAD
1000
txt
1071
        0
  0
STYLE
  5
70
330
3
100
AcDbSymbolTableRecord
100
AcDbTextStyleTableRecord
  2
zucchetti
 70
     0
 40
0.0
 41
1.0
 50
0.0
 71
     0
 42
2.5
  3

  4

1001
ACAD
1000
Arial
1071
        0
  0
ENDTAB
  0
TABLE
  2
VIEW
  5
6
330
0
100
AcDbSymbolTable
 70
     0
  0
ENDTAB
  0
TABLE
  2
UCS
  5
7
330
0
100
AcDbSymbolTable
 70
     0
  0
ENDTAB
  0
TABLE
  2
APPID
  5
9
330
0
100
AcDbSymbolTable
 70
     1
  0
APPID
  5
12
330
9
100
AcDbSymbolTableRecord
100
AcDbRegAppTableRecord
  2
ACAD
 70
     0
  0
ENDTAB
  0
TABLE
  2
DIMSTYLE
  5
A
330
0
100
AcDbSymbolTable
 70
     4
100
AcDbDimStyleTable
  0
DIMSTYLE
105
27
330
A
100
AcDbSymbolTableRecord
100
AcDbDimStyleTableRecord
  2
ISO-25
 70
     0
 41
2.5
 42
0.625
 43
3.75
 44
1.25
 73
     0
 74
     0
 77
     1
 78
     8
140
2.5
141
2.5
143
0.03937
147
0.625
171
     3
172
     1
178
     0
271
     2
272
     2
274
     3
278
    44
283
     0
284
     8
340
11
  0
DIMSTYLE
105
71
330
A
100
AcDbSymbolTableRecord
100
AcDbDimStyleTableRecord
  2
Default
 70
     0
  3
<>
 41
4.375
 42
1.05
 44
2.1
 49
10.01
 73
     0
 74
     0
 77
     1
 78
     8
140
3.5
146
0.4
147
1.75
172
     1
271
     2
178
     3
271
     2
272
     3
284
     8
340
6E
341
72
342
72
  0
DIMSTYLE
105
79
330
A
100
AcDbSymbolTableRecord
100
AcDbDimStyleTableRecord
  2
ISO
 70
     0
  3
<>
 41
4.375
 42
1.05
 44
2.1
 49
10.01
 73
     0
 74
     0
 77
     1
 78
     8
140
3.5
146
0.4
147
1.75
172
     1
271
     2
178
     3
271
     2
272
     3
284
     8
340
6F
341
72
342
72
  0
DIMSTYLE
105
7A
330
A
100
AcDbSymbolTableRecord
100
AcDbDimStyleTableRecord
  2
zucchetti
 70
     0
  3
<>
 41
3.0
 42
0.9
 44
1.8
 49
8.58
 73
     0
 74
     0
 77
     1
 78
     8
140
3.0
146
0.6
147
1.5
172
     1
176
     3
177
     3
271
     2
178
     3
271
     2
272
     2
284
     8
340
70
  0
ENDTAB
  0
TABLE
  2
BLOCK_RECORD
  5
1
330
0
100
AcDbSymbolTable
 70
     6
  0
BLOCK_RECORD
  5
1F
330
1
100
AcDbSymbolTableRecord
100
AcDbBlockTableRecord
  2
*Model_Space
340
22
 70
     0
280
     1
281
     0
  0
BLOCK_RECORD
  5
1B
330
1
100
AcDbSymbolTableRecord
100
AcDbBlockTableRecord
  2
*Paper_Space
340
1E
 70
     0
280
     1
281
     0
  0
BLOCK_RECORD
  5
23
330
1
100
AcDbSymbolTableRecord
100
AcDbBlockTableRecord
  2
*Paper_Space0
340
26
 70
     0
280
     1
281
     0
  0
BLOCK_RECORD
  5
72
330
1
100
AcDbSymbolTableRecord
100
AcDbBlockTableRecord
  2
_CLOSED
340
0
 70
     0
280
     1
281
     0
  0
BLOCK_RECORD
  5
7B
330
1
100
AcDbSymbolTableRecord
100
AcDbBlockTableRecord
  2
a
340
0
102
{BLKREFS
331
D4
102
}
 70
     0
280
     1
281
     0
  0
BLOCK_RECORD
  5
D5
330
1
100
AcDbSymbolTableRecord
100
AcDbBlockTableRecord
  2
b
340
0
102
{BLKREFS
331
125
102
}
 70
     0
280
     1
281
     0
  0
BLOCK_RECORD
  5
126
330
1
100
AcDbSymbolTableRecord
100
AcDbBlockTableRecord
  2
c
340
0
102
{BLKREFS
331
17E
102
}
 70
     0
280
     1
281
     0
  0
BLOCK_RECORD
  5
17F
330
1
100
AcDbSymbolTableRecord
100
AcDbBlockTableRecord
  2
d
340
0
102
{BLKREFS
331
1E8
102
}
 70
     0
280
     1
281
     0
  0
ENDTAB
  0
ENDSEC
  0
SECTION
  2
BLOCKS
  0
BLOCK
  5
20
330
1F
100
AcDbEntity
  8
0
100
AcDbBlockBegin
  2
*Model_Space
 70
     0
 10
0.0
 20
0.0
 30
0.0
  3
*Model_Space
  1

  0
ENDBLK
  5
21
330
1F
100
AcDbEntity
  8
0
100
AcDbBlockEnd
  0
BLOCK
  5
1C
330
1B
100
AcDbEntity
 67
     1
  8
0
100
AcDbBlockBegin
  2
*Paper_Space
 70
     0
 10
0.0
 20
0.0
 30
0.0
  3
*Paper_Space
  1

  0
ENDBLK
  5
1D
330
1B
100
AcDbEntity
 67
     1
  8
0
100
AcDbBlockEnd
  0
BLOCK
  5
24
330
23
100
AcDbEntity
  8
0
100
AcDbBlockBegin
  2
*Paper_Space0
 70
     0
 10
0.0
 20
0.0
 30
0.0
  3
*Paper_Space0
  1

  0
ENDBLK
  5
25
330
23
100
AcDbEntity
  8
0
100
AcDbBlockEnd
  0
BLOCK
  5
73
330
72
100
AcDbEntity
  8
0
100
AcDbBlockBegin
  2
_CLOSED
 70
     0
 10
0.0
 20
0.0
 30
0.0
  3
_CLOSED
  1

  0
LINE
  5
75
330
72
100
AcDbEntity
  8
0
  6
ByBlock
 62
     0
370
    -2
100
AcDbLine
 10
-1.0
 20
0.166667
 30
0.0
 11
0.0
 21
0.0
 31
0.0
  0
LINE
  5
76
330
72
100
AcDbEntity
  8
0
  6
ByBlock
 62
     0
370
    -2
100
AcDbLine
 10
0.0
 20
0.0
 30
0.0
 11
-1.0
 21
-0.166667
 31
0.0
  0
LINE
  5
77
330
72
100
AcDbEntity
  8
0
  6
ByBlock
 62
     0
370
    -2
100
AcDbLine
 10
-1.0
 20
0.166667
 30
0.0
 11
-1.0
 21
-0.166667
 31
0.0
  0
LINE
  5
78
330
72
100
AcDbEntity
  8
0
  6
ByBlock
 62
     0
370
    -2
100
AcDbLine
 10
0.0
 20
0.0
 30
0.0
 11
-1.0
 21
0.0
 31
0.0
  0
ENDBLK
  5
74
330
72
100
AcDbEntity
  8
0
100
AcDbBlockEnd
  0
BLOCK
  5
D2
330
7B
100
AcDbEntity
  8
0
100
AcDbBlockBegin
  2
a
 70
     0
 10
163.614731
 20
120.370705
 30
0.0
  3
a
  1

  0
LINE
  5
7C
330
7B
100
AcDbEntity
  8
0
  6
Continuous
 62
     0
370
    30
100
AcDbLine
 10
252.278649
 20
507.131263
 30
0.0
 11
214.278649
 21
507.131263
 31
0.0
  0
ARC
  5
7D
330
7B
100
AcDbEntity
  8
0
  6
Continuous
 62
     0
370
    30
100
AcDbCircle
 10
214.278649
 20
505.631263
 30
0.0
 40
1.500000000000586
100
AcDbArc
 50
90.0
 51
180.0
  0
LINE
  5
7E
330
7B
100
AcDbEntity
  8
0
  6
Continuous
 62
     0
370
     0
100
AcDbLine
 10
212.778649
 20
505.631263
 30
0.0
 11
253.778649
 21
505.631263
 31
0.0
  0
ARC
  5
7F
330
7B
100
AcDbEntity
  8
0
  6
Continuous
 62
     0
370
    30
100
AcDbCircle
 10
252.278649
 20
505.631263
 30
0.0
 40
1.500000000000033
100
AcDbArc
 50
0.0
 51
90.0
  0
LWPOLYLINE
  5
80
330
7B
100
AcDbEntity
  8
0
  6
Continuous
 62
     0
370
     0
100
AcDbPolyline
 90
       14
 70
     0
 43
0.0
 10
251.640518
 20
499.487579
 10
251.954651
 20
499.418457
 10
252.246674
 20
499.407867
 10
252.513687
 20
499.434601
 10
252.755203
 20
499.490936
 10
252.971115
 20
499.571869
 10
253.161285
 20
499.673553
 10
253.325745
 20
499.793213
 10
253.464539
 20
499.928833
 10
253.577759
 20
500.078674
 10
253.665573
 20
500.241302
 10
253.728195
 20
500.415436
 10
253.765808
 20
500.600037
 10
253.778656
 20
500.798462
  0
LINE
  5
81
330
7B
100
AcDbEntity
  8
0
  6
Continuous
 62
     0
370
    30
100
AcDbLine
 10
253.778649
 20
500.798448
 30
0.0
 11
253.778649
 21
505.631263
 31
0.0
  0
LINE
  5
82
330
7B
100
AcDbEntity
  8
0
  6
Continuous
 62
     0
370
    30
100
AcDbLine
 10
212.778649
 20
505.631263
 30
0.0
 11
212.778649
 21
500.798448
 31
0.0
  0
LWPOLYLINE
  5
83
330
7B
100
AcDbEntity
  8
0
  6
Continuous
 62
     0
370
     0
100
AcDbPolyline
 90
       14
 70
     0
 43
0.0
 10
212.778656
 20
500.798462
 10
212.790955
 20
500.604187
 10
212.828018
 20
500.419373
 10
212.890091
 20
500.244965
 10
212.977356
 20
500.082092
 10
213.090027
 20
499.931976
 10
213.228256
 20
499.79599
 10
213.392151
 20
499.675964
 10
213.581772
 20
499.573883
 10
213.797119
 20
499.492462
 10
214.038086
 20
499.435516
 10
214.304535
 20
499.408112
 10
214.596039
 20
499.417694
 10
214.916779
 20
499.487579
  0
LWPOLYLINE
  5
84
330
7B
100
AcDbEntity
  8
0
  6
Continuous
 62
     0
370
     0
100
AcDbPolyline
 90
       35
 70
     0
 43
0.0
 10
214.916779
 20
499.487579
 10
215.549515
 20
499.441071
 10
216.257843
 20
499.393768
 10
217.038452
 20
499.346924
 10
217.888
 20
499.30188
 10
218.803085
 20
499.260162
 10
219.779877
 20
499.222778
 10
220.81424
 20
499.190613
 10
221.901825
 20
499.164215
 10
223.037933
 20
499.143982
 10
224.217789
 20
499.130096
 10
225.436295
 20
499.121948
 10
226.688217
 20
499.118591
 10
227.968231
 20
499.118988
 10
229.270859
 20
499.121887
 10
230.59053
 20
499.125977
 10
231.921646
 20
499.1297
 10
233.25853
 20
499.131378
 10
234.595505
 20
499.129822
 10
235.92688
 20
499.126129
 10
237.246979
 20
499.12204
 10
238.550186
 20
499.11911
 10
239.830963
 20
499.118622
 10
241.083817
 20
499.121857
 10
242.303406
 20
499.129883
 10
243.484497
 20
499.143585
 10
244.621994
 20
499.163605
 10
245.711105
 20
499.189819
 10
246.747131
 20
499.221832
 10
247.725723
 20
499.259033
 10
248.642715
 20
499.300629
 10
249.494293
 20
499.345581
 10
250.277023
 20
499.392395
 10
250.987579
 20
499.439667
 10
251.640518
 20
499.487579
  0
ARC
  5
85
330
7B
100
AcDbEntity
  8
0
  6
Continuous
 62
     0
370
    30
100
AcDbCircle
 10
241.265731
 20
500.831403
 30
0.0
 40
12.53527318015748
100
AcDbArc
 50
286.615096
 51
299.045742
  0
ARC
  5
86
330
7B
100
AcDbEntity
  8
0
  6
Continuous
 62
     0
370
    30
100
AcDbCircle
 10
241.279899
 20
500.798155
 30
0.0
 40
12.49875017742382
100
AcDbArc
 50
309.737566
 51
0.001341
  0
LWPOLYLINE
  5
87
330
7B
100
AcDbEntity
  8
0
  6
Continuous
 62
     0
370
     0
100
AcDbPolyline
 90
       17
 70
     0
 43
0.0
 10
244.850082
 20
488.819519
 10
245.611435
 20
489.085541
 10
246.348465
 20
489.421753
 10
247.055374
 20
489.825378
 10
247.726395
 20
490.293671
 10
248.356079
 20
490.823669
 10
248.940536
 20
491.411469
 10
249.476242
 20
492.052917
 10
249.959717
 20
492.743896
 10
250.387589
 20
493.480042
 10
250.757324
 20
494.2565
 10
251.066544
 20
495.068176
 10
251.312912
 20
495.909973
 10
251.494324
 20
496.77652
 10
251.610001
 20
497.661102
 10
251.6595
 20
498.556641
 10
251.640518
 20
499.487579
  0
LWPOLYLINE
  5
88
330
7B
100
AcDbEntity
  8
0
  6
Continuous
 62
     0
370
     0
100
AcDbPolyline
 90
       17
 70
     0
 43
0.0
 10
221.707214
 20
488.819519
 10
220.944
 20
489.085938
 10
220.206604
 20
489.422089
 10
219.500748
 20
489.825531
 10
218.831055
 20
490.293549
 10
218.201859
 20
490.82312
 10
217.61731
 20
491.410645
 10
217.081451
 20
492.052246
 10
216.597809
 20
492.74353
 10
216.169647
 20
493.47998
 10
215.799774
 20
494.256592
 10
215.490753
 20
495.068237
 10
215.244553
 20
495.909393
 10
215.062897
 20
496.774445
 10
214.94693
 20
497.657776
 10
214.897537
 20
498.553619
 10
214.916779
 20
499.487579
  0
LINE
  5
89
330
7B
100
AcDbEntity
  8
0
  6
Continuous
 62
     0
370
    30
100
AcDbLine
 10
244.797976
 20
488.804117
 30
0.0
 11
244.664824
 21
488.764773
 31
0.0
  0
LWPOLYLINE
  5
8A
330
7B
100
AcDbEntity
  8
0
  6
Continuous
 62
     0
370
    30
100
AcDbPolyline
 90
       16
 70
     0
 43
0.0
 10
244.664825
 20
488.764771
 10
244.275101
 20
488.657104
 10
243.818222
 20
488.545624
 10
243.295303
 20
488.434326
 10
242.709381
 20
488.326141
 10
242.064011
 20
488.223816
 10
241.362518
 20
488.129272
 10
240.608627
 20
488.044067
 10
239.806915
 20
487.968811
 10
238.96228
 20
487.9039
 10
238.080185
 20
487.849548
 10
237.16629
 20
487.805878
 10
236.226379
 20
487.772583
 10
235.266434
 20
487.749176
 10
234.293091
 20
487.735229
 10
233.278656
 20
487.730408
  0
LWPOLYLINE
  5
8B
330
7B
100
AcDbEntity
  8
0
  6
Continuous
 62
     0
370
    30
100
AcDbPolyline
 90
       16
 70
     0
 43
0.0
 10
233.278656
 20
487.730408
 10
232.2995
 20
487.734894
 10
231.325821
 20
487.748505
 10
230.36525
 20
487.771576
 10
229.42453
 20
487.804474
 10
228.509583
 20
487.847748
 10
227.626251
 20
487.901733
 10
226.780167
 20
487.966278
 10
225.976822
 20
488.041168
 10
225.221115
 20
488.126007
 10
224.51767
 20
488.220215
 10
223.870209
 20
488.322327
 10
223.282074
 20
488.430328
 10
222.756821
 20
488.541595
 10
222.297562
 20
488.653107
 10
221.892487
 20
488.764771
  0
LINE
  5
8C
330
7B
100
AcDbEntity
  8
0
  6
Continuous
 62
     0
370
    30
100
AcDbLine
 10
221.892484
 20
488.764771
 30
0.0
 11
221.759314
 21
488.804119
 31
0.0
  0
ARC
  5
8D
330
7B
100
AcDbEntity
  8
0
  6
Continuous
 62
     0
370
    30
100
AcDbCircle
 10
225.277399
 20
500.798155
 30
0.0
 40
12.49875019863004
100
AcDbArc
 50
179.998659
 51
230.262398
  0
ARC
  5
8E
330
7B
100
AcDbEntity
  8
0
  6
Continuous
 62
     0
370
    30
100
AcDbCircle
 10
225.291567
 20
500.831402
 30
0.0
 40
12.53527209642988
100
AcDbArc
 50
240.954239
 51
253.384905
  0
ARC
  5
8F
330
7B
100
AcDbEntity
  8
0
  6
Continuous
 62
     0
370
    30
100
AcDbCircle
 10
233.282106
 20
527.645571
 30
0.0
 40
40.51471428265182
100
AcDbArc
 50
253.672743
 51
256.797259
  0
ARC
  5
90
330
7B
100
AcDbEntity
  8
0
  6
Continuous
 62
     0
370
    30
100
AcDbCircle
 10
233.275252
 20
527.645328
 30
0.0
 40
40.51446455414701
100
AcDbArc
 50
283.202736
 51
286.327286
  0
ARC
  5
91
330
7B
100
AcDbEntity
  8
0
  6
Continuous
 62
     0
370
    30
100
AcDbCircle
 10
225.291604
 20
500.81339
 30
0.0
 40
12.51954642317341
100
AcDbArc
 50
230.256981
 51
240.914069
  0
LINE
  5
92
330
7B
100
AcDbEntity
  8
0
  6
Continuous
 62
     0
370
    30
100
AcDbLine
 10
221.705605
 20
488.819994
 30
0.0
 11
221.759286
 21
488.804023
 31
0.0
  0
LINE
  5
93
330
7B
100
AcDbEntity
  8
0
  6
Continuous
 62
     0
370
    30
100
AcDbLine
 10
244.851693
 20
488.819994
 30
0.0
 11
244.798005
 21
488.804021
 31
0.0
  0
ARC
  5
94
330
7B
100
AcDbEntity
  8
0
  6
Continuous
 62
     0
370
    30
100
AcDbCircle
 10
241.265694
 20
500.813391
 30
0.0
 40
12.51954704183582
100
AcDbArc
 50
299.085913
 51
309.742983
  0
ARC
  5
95
330
7B
100
AcDbEntity
  8
0
  6
Continuous
 62
     0
370
    30
100
AcDbCircle
 10
233.278648
 20
497.131264
 30
0.0
 40
30.0
100
AcDbArc
 50
301.277771
 51
121.277771
  0
ARC
  5
96
330
7B
100
AcDbEntity
  8
0
  6
Continuous
 62
     0
370
    30
100
AcDbCircle
 10
233.278648
 20
497.131264
 30
0.0
 40
30.0
100
AcDbArc
 50
121.277771
 51
301.277771
  0
ARC
  5
97
330
7B
100
AcDbEntity
  8
0
  6
Continuous
 62
     0
370
     0
100
AcDbCircle
 10
233.278598
 20
497.131233
 30
0.0
 40
29.5000000000584
100
AcDbArc
 50
121.277657
 51
301.277885
  0
ARC
  5
98
330
7B
100
AcDbEntity
  8
0
  6
Continuous
 62
     0
370
     0
100
AcDbCircle
 10
233.278699
 20
497.131294
 30
0.0
 40
29.50000000007801
100
AcDbArc
 50
301.277657
 51
121.277885
  0
ELLIPSE
  5
99
330
7B
100
AcDbEntity
  8
0
  6
Continuous
 62
     0
370
    30
100
AcDbEllipse
 10
233.278648
 20
486.882201
 30
0.0
 11
-9.25
 21
2.305565932182961E-9
 31
0.0
210
0.0
220
0.0
230
-1.0
 40
0.087156
 41
4.841129351542866
 42
7.982722005132658
  0
ELLIPSE
  5
9A
330
7B
100
AcDbEntity
  8
0
  6
Continuous
 62
     0
370
    30
100
AcDbEllipse
 10
233.278648
 20
486.882201
 30
0.0
 11
-9.25
 21
2.305565932182961E-9
 31
0.0
210
0.0
220
0.0
230
-1.0
 40
0.087156
 41
1.699536697953071
 42
4.841129351542866
  0
LINE
  5
9B
330
7B
100
AcDbEntity
  8
0
  6
Continuous
 62
     0
370
    30
100
AcDbLine
 10
242.528648
 20
488.295856
 30
0.0
 11
242.528648
 21
486.882201
 31
0.0
  0
LINE
  5
9C
330
7B
100
AcDbEntity
  8
0
  6
Continuous
 62
     0
370
    30
100
AcDbLine
 10
224.028648
 20
488.295844
 30
0.0
 11
224.028648
 21
486.882201
 31
0.0
  0
ARC
  5
9D
330
7B
100
AcDbEntity
  8
0
  6
Continuous
 62
     0
370
    30
100
AcDbCircle
 10
313.228649
 20
497.087238
 30
0.0
 40
22.00000080727039
100
AcDbArc
 50
90.000002
 51
179.833364
  0
LWPOLYLINE
  5
9E
330
7B
100
AcDbEntity
  8
0
  6
Continuous
 62
     0
370
     0
100
AcDbPolyline
 90
        5
 70
     0
 43
0.0
 10
291.228729
 20
497.151215
 10
291.266663
 20
497.184509
 10
291.374054
 20
497.212708
 10
291.5354
 20
497.231445
 10
291.728729
 20
497.238068
  0
ARC
  5
9F
330
7B
100
AcDbEntity
  8
0
  6
Continuous
 62
     0
370
     0
100
AcDbCircle
 10
313.229003
 20
497.173706
 30
0.0
 40
21.50035635372499
100
AcDbArc
 50
90.000946
 51
179.828509
  0
LINE
  5
A0
330
7B
100
AcDbEntity
  8
0
  6
Continuous
 62
     0
370
     0
100
AcDbLine
 10
313.228648
 20
518.674063
 30
0.0
 11
313.228648
 21
519.087239
 31
0.0
  0
LINE
  5
A1
330
7B
100
AcDbEntity
  8
0
  6
Continuous
 62
     0
370
    30
100
AcDbLine
 10
291.228741
 20
497.151177
 30
0.0
 11
291.233231
 21
496.789622
 31
0.0
  0
LWPOLYLINE
  5
A2
330
7B
100
AcDbEntity
  8
0
  6
Continuous
 62
     0
370
     0
100
AcDbPolyline
 90
        5
 70
     0
 43
0.0
 10
291.233246
 20
496.789612
 10
291.270844
 20
496.823456
 10
291.378052
 20
496.85379
 10
291.538727
 20
496.876068
 10
291.733124
 20
496.886993
  0
LINE
  5
A3
330
7B
100
AcDbEntity
  8
0
  6
Continuous
 62
     0
370
     0
100
AcDbLine
 10
291.733117
 20
496.886987
 30
0.0
 11
291.728744
 21
497.238059
 31
0.0
  0
LINE
  5
A4
330
7B
100
AcDbEntity
  8
0
  6
Continuous
 62
     0
370
     0
100
AcDbLine
 10
291.733117
 20
496.886987
 30
0.0
 11
292.828534
 21
446.50472
 31
0.0
  0
LWPOLYLINE
  5
A5
330
7B
100
AcDbEntity
  8
0
  6
Continuous
 62
     0
370
     0
100
AcDbPolyline
 90
       53
 70
     0
 43
0.0
 10
292.828522
 20
446.50473
 10
292.882446
 20
445.413177
 10
292.999573
 20
444.303467
 10
293.183167
 20
443.18045
 10
293.436066
 20
442.0495
 10
293.760498
 20
440.916504
 10
294.158112
 20
439.78772
 10
294.62973
 20
438.6698
 10
295.175415
 20
437.56958
 10
295.794342
 20
436.494049
 10
296.484863
 20
435.450104
 10
297.244354
 20
434.444611
 10
298.069366
 20
433.484009
 10
298.955597
 20
432.574402
 10
299.89798
 20
431.721313
 10
300.890839
 20
430.929596
 10
301.927917
 20
430.203339
 10
303.002472
 20
429.545837
 10
304.107635
 20
428.959473
 10
305.236267
 20
428.44574
 10
306.381287
 20
428.005341
 10
307.535736
 20
427.638031
 10
308.692902
 20
427.342865
 10
309.846466
 20
427.118073
 10
310.990509
 20
426.961365
 10
312.119598
 20
426.869812
 10
313.228912
 20
426.840118
 10
314.338165
 20
426.869843
 10
315.467224
 20
426.961426
 10
316.611206
 20
427.118164
 10
317.76474
 20
427.342957
 10
318.921875
 20
427.638153
 10
320.076294
 20
428.005463
 10
321.221283
 20
428.445892
 10
322.349884
 20
428.959595
 10
323.455017
 20
429.54599
 10
324.529572
 20
430.203491
 10
325.56662
 20
430.929779
 10
326.559479
 20
431.721497
 10
327.501862
 20
432.574585
 10
328.388062
 20
433.484222
 10
329.213074
 20
434.444824
 10
329.972565
 20
435.450348
 10
330.663055
 20
436.494293
 10
331.281982
 20
437.569855
 10
331.827667
 20
438.670105
 10
332.299255
 20
439.788055
 10
332.696838
 20
440.91687
 10
333.021301
 20
442.049896
 10
333.27417
 20
443.180878
 10
333.457733
 20
444.303925
 10
333.574829
 20
445.413666
 10
333.628754
 20
446.506897
  0
LINE
  5
A6
330
7B
100
AcDbEntity
  8
0
  6
Continuous
 62
     0
370
     0
100
AcDbLine
 10
333.628762
 20
446.506904
 30
0.0
 11
334.719043
 21
496.908931
 31
0.0
  0
ARC
  5
A7
330
7B
100
AcDbEntity
  8
0
  6
Continuous
 62
     0
370
     0
100
AcDbCircle
 10
315.470877
 20
497.325375
 30
0.0
 40
19.25267085178123
100
AcDbArc
 50
358.760571
 51
3.855982
  0
ARC
  5
A8
330
7B
100
AcDbEntity
  8
0
  6
Continuous
 62
     0
370
     0
100
AcDbCircle
 10
313.228648
 20
497.174063
 30
0.0
 40
21.49999998924799
100
AcDbArc
 50
3.85647
 51
90.0
  0
LWPOLYLINE
  5
A9
330
7B
100
AcDbEntity
  8
0
  6
Continuous
 62
     0
370
     0
100
AcDbPolyline
 90
        4
 70
     0
 43
0.0
 10
335.224121
 20
496.667755
 10
335.223022
 20
496.734131
 10
335.2211
 20
496.777222
 10
335.218933
 20
496.811615
  0
ARC
  5
AA
330
7B
100
AcDbEntity
  8
0
  6
Continuous
 62
     0
370
    30
100
AcDbCircle
 10
315.464319
 20
497.238438
 30
0.0
 40
19.75922129424625
100
AcDbArc
 50
358.762261
 51
3.855035
  0
LINE
  5
AB
330
7B
100
AcDbEntity
  8
0
  6
Continuous
 62
     0
370
    30
100
AcDbLine
 10
335.228027
 20
497.252524
 30
0.0
 11
335.228648
 21
497.087239
 31
0.0
  0
ARC
  5
AC
330
7B
100
AcDbEntity
  8
0
  6
Continuous
 62
     0
370
    30
100
AcDbCircle
 10
313.20804
 20
497.086515
 30
0.0
 40
22.02061852708918
100
AcDbArc
 50
0.75279
 51
2.103501
  0
ARC
  5
AD
330
7B
100
AcDbEntity
  8
0
  6
Continuous
 62
     0
370
    30
100
AcDbCircle
 10
315.831602
 20
497.087239
 30
0.0
 40
19.39704584861024
100
AcDbArc
 50
358.760785
 51
359.999998
  0
ARC
  5
AE
330
7B
100
AcDbEntity
  8
0
  6
Continuous
 62
     0
370
    30
100
AcDbCircle
 10
313.22806
 20
497.086609
 30
0.0
 40
22.00062981089886
100
AcDbArc
 50
3.858004
 51
89.998467
  0
LWPOLYLINE
  5
AF
330
7B
100
AcDbEntity
  8
0
  6
Continuous
 62
     0
370
     0
100
AcDbPolyline
 90
        5
 70
     0
 43
0.0
 10
334.679962
 20
498.620087
 10
334.868042
 20
498.625977
 10
335.028381
 20
498.618195
 10
335.137299
 20
498.59787
 10
335.178833
 20
498.566895
  0
LWPOLYLINE
  5
B0
330
7B
100
AcDbEntity
  8
0
  6
Continuous
 62
     0
370
     0
100
AcDbPolyline
 90
        5
 70
     0
 43
0.0
 10
335.218933
 20
496.811615
 10
335.181305
 20
496.845459
 10
335.074097
 20
496.875763
 10
334.913452
 20
496.89801
 10
334.719055
 20
496.908936
  0
ELLIPSE
  5
B1
330
7B
100
AcDbEntity
  8
0
  6
Continuous
 62
     0
370
     0
100
AcDbEllipse
 10
333.628762
 20
446.420079
 30
0.0
 11
-0.4998830584178284
 21
0.01081332080537492
 31
0.0
210
0.0
220
0.0
230
-1.0
 40
0.173609
 41
1.567040891222411
 42
3.137837218018213
  0
LINE
  5
B2
330
7B
100
AcDbEntity
  8
0
  6
Continuous
 62
     0
370
     0
100
AcDbLine
 10
334.128648
 20
446.409592
 30
0.0
 11
335.21893
 21
496.81162
 31
0.0
  0
LWPOLYLINE
  5
B3
330
7B
100
AcDbEntity
  8
0
  6
Continuous
 62
     0
370
     0
100
AcDbPolyline
 90
        5
 70
     0
 43
0.0
 10
292.828522
 20
446.50473
 10
292.638275
 20
446.494171
 10
292.476654
 20
446.472137
 10
292.368011
 20
446.441956
 10
292.328644
 20
446.407349
  0
LWPOLYLINE
  5
B4
330
7B
100
AcDbEntity
  8
0
  6
Continuous
 62
     0
370
     0
100
AcDbPolyline
 90
       52
 70
     0
 43
0.0
 10
292.328644
 20
446.407349
 10
292.394409
 20
445.159729
 10
292.536957
 20
443.917053
 10
292.755798
 20
442.684784
 10
293.050232
 20
441.46817
 10
293.419098
 20
440.27179
 10
293.860931
 20
439.099792
 10
294.374268
 20
437.95636
 10
294.957214
 20
436.845612
 10
295.607422
 20
435.771667
 10
296.322693
 20
434.738586
 10
297.100372
 20
433.750275
 10
297.937469
 20
432.810211
 10
298.830963
 20
431.921936
 10
299.777618
 20
431.088776
 10
300.773865
 20
430.31366
 10
301.81601
 20
429.599548
 10
302.90033
 20
428.949127
 10
304.022705
 20
428.364655
 10
305.179016
 20
427.848358
 10
306.365051
 20
427.402191
 10
307.576416
 20
427.027771
 10
308.808563
 20
426.726349
 10
310.057068
 20
426.499237
 10
311.317261
 20
426.347198
 10
312.584503
 20
426.270691
 10
313.854126
 20
426.270111
 10
315.121429
 20
426.34552
 10
316.381775
 20
426.49646
 10
317.630463
 20
426.722473
 10
318.862915
 20
427.022797
 10
320.074585
 20
427.396179
 10
321.261047
 20
427.841278
 10
322.417816
 20
428.356598
 10
323.54071
 20
428.940063
 10
324.62561
 20
429.589539
 10
325.668396
 20
430.302734
 10
326.665344
 20
431.076965
 10
327.612762
 20
431.909302
 10
328.50708
 20
432.796783
 10
329.345001
 20
433.736115
 10
330.123596
 20
434.723755
 10
330.839783
 20
435.756195
 10
331.490997
 20
436.829559
 10
332.074921
 20
437.939819
 10
332.589294
 20
439.082794
 10
333.032196
 20
440.254395
 10
333.40213
 20
441.45047
 10
333.697662
 20
442.666779
 10
333.917603
 20
443.898895
 10
334.06131
 20
445.141449
 10
334.128662
 20
446.409607
  0
LINE
  5
B5
330
7B
100
AcDbEntity
  8
0
  6
Continuous
 62
     0
370
     0
100
AcDbLine
 10
291.233231
 20
496.789622
 30
0.0
 11
292.328648
 21
446.407355
 31
0.0
  0
LINE
  5
B6
330
7B
100
AcDbEntity
  8
0
  6
Continuous
 62
     0
370
    30
100
AcDbLine
 10
291.228648
 20
495.419748
 30
0.0
 11
291.228648
 21
497.087239
 31
0.0
  0
ARC
  5
B7
330
7B
100
AcDbEntity
  8
0
  6
Continuous
 62
     0
370
    30
100
AcDbCircle
 10
306.703209
 20
495.421923
 30
0.0
 40
15.47456086457042
100
AcDbArc
 50
180.008054
 51
181.394521
  0
LINE
  5
B8
330
7B
100
AcDbEntity
  8
0
  6
Continuous
 62
     0
370
     0
100
AcDbLine
 10
291.233231
 20
495.045325
 30
0.0
 11
291.233231
 21
496.789622
 31
0.0
  0
LWPOLYLINE
  5
B9
330
7B
100
AcDbEntity
  8
0
  6
Continuous
 62
     0
370
     0
100
AcDbPolyline
 90
       14
 70
     0
 43
0.0
 10
291.233246
 20
495.045319
 10
291.263153
 20
493.8797
 10
291.293732
 20
492.677887
 10
291.325439
 20
491.414215
 10
291.358368
 20
490.0802
 10
291.392548
 20
488.672455
 10
291.427948
 20
487.190033
 10
291.464539
 20
485.633453
 10
291.502167
 20
484.005005
 10
291.540771
 20
482.310211
 10
291.580139
 20
480.556488
 10
291.620117
 20
478.752869
 10
291.660583
 20
476.91037
 10
291.702667
 20
474.979187
  0
LINE
  5
BA
330
7B
100
AcDbEntity
  8
0
  6
Continuous
 62
     0
370
     0
100
AcDbLine
 10
291.702659
 20
474.979173
 30
0.0
 11
292.328648
 21
446.173034
 31
0.0
  0
LINE
  5
BB
330
7B
100
AcDbEntity
  8
0
  6
Continuous
 62
     0
370
     0
100
AcDbLine
 10
292.328648
 20
446.173034
 30
0.0
 11
292.328648
 21
446.407355
 31
0.0
  0
LWPOLYLINE
  5
BC
330
7B
100
AcDbEntity
  8
0
  6
Continuous
 62
     0
370
     0
100
AcDbPolyline
 90
       52
 70
     0
 43
0.0
 10
292.328644
 20
446.173035
 10
292.394562
 20
444.924652
 10
292.537445
 20
443.680969
 10
292.756439
 20
442.448029
 10
293.050751
 20
441.23175
 10
293.419312
 20
440.037018
 10
293.860626
 20
438.867004
 10
294.373322
 20
437.725159
 10
294.955902
 20
436.615509
 10
295.606323
 20
435.542145
 10
296.32196
 20
434.509338
 10
297.100128
 20
433.52124
 10
297.93811
 20
432.58197
 10
298.832397
 20
431.695038
 10
299.779266
 20
430.863739
 10
300.775055
 20
430.0914
 10
301.816071
 20
429.38089
 10
302.898804
 20
428.734253
 10
304.019745
 20
428.153534
 10
305.175446
 20
427.640717
 10
306.361633
 20
427.197571
 10
307.573547
 20
426.825684
 10
308.806427
 20
426.526642
 10
310.055542
 20
426.301727
 10
311.316284
 20
426.151306
 10
312.584015
 20
426.075684
 10
313.854095
 20
426.075104
 10
315.121887
 20
426.149597
 10
316.382751
 20
426.29892
 10
317.632111
 20
426.522736
 10
318.865265
 20
426.820648
 10
320.077515
 20
427.191467
 10
321.26413
 20
427.633545
 10
322.420319
 20
428.145325
 10
323.54184
 20
428.725037
 10
324.625153
 20
429.370697
 10
325.666809
 20
430.080261
 10
326.6633
 20
430.851685
 10
327.610962
 20
431.682129
 10
328.506073
 20
432.568237
 10
329.34491
 20
433.506744
 10
330.124023
 20
434.49411
 10
330.840607
 20
435.526306
 10
331.492035
 20
436.59906
 10
332.075684
 20
437.708191
 10
332.589417
 20
438.849579
 10
333.03183
 20
440.019196
 10
333.401489
 20
441.213562
 10
333.69693
 20
442.429565
 10
333.917084
 20
443.662292
 10
334.061096
 20
444.905823
 10
334.128662
 20
446.175262
  0
LINE
  5
BD
330
7B
100
AcDbEntity
  8
0
  6
Continuous
 62
     0
370
     0
100
AcDbLine
 10
334.128648
 20
446.175271
 30
0.0
 11
334.128648
 21
446.409592
 31
0.0
  0
LINE
  5
BE
330
7B
100
AcDbEntity
  8
0
  6
Continuous
 62
     0
370
     0
100
AcDbLine
 10
334.128648
 20
446.175271
 30
0.0
 11
334.751353
 21
474.976447
 31
0.0
  0
LWPOLYLINE
  5
BF
330
7B
100
AcDbEntity
  8
0
  6
Continuous
 62
     0
370
     0
100
AcDbPolyline
 90
       14
 70
     0
 43
0.0
 10
334.751343
 20
474.97644
 10
334.792542
 20
476.875549
 10
334.833466
 20
478.748779
 10
334.873962
 20
480.582031
 10
334.913788
 20
482.3638
 10
334.952789
 20
484.084564
 10
334.990814
 20
485.736694
 10
335.027771
 20
487.314423
 10
335.063477
 20
488.815155
 10
335.0979
 20
490.238251
 10
335.131042
 20
491.584656
 10
335.162872
 20
492.857971
 10
335.193604
 20
494.067291
 10
335.224121
 20
495.259277
  0
LINE
  5
C0
330
7B
100
AcDbEntity
  8
0
  6
Continuous
 62
     0
370
     0
100
AcDbLine
 10
335.224112
 20
495.259269
 30
0.0
 11
335.224112
 21
496.667745
 31
0.0
  0
ARC
  5
C1
330
7B
100
AcDbEntity
  8
0
  6
Continuous
 62
     0
370
    30
100
AcDbCircle
 10
319.752388
 20
495.633978
 30
0.0
 40
15.47626089702745
100
AcDbArc
 50
358.612629
 51
359.991044
  0
LINE
  5
C2
330
7B
100
AcDbEntity
  8
0
  6
Continuous
 62
     0
370
    30
100
AcDbLine
 10
335.228648
 20
495.631558
 30
0.0
 11
335.228648
 21
496.891463
 31
0.0
  0
LINE
  5
C3
330
7B
100
AcDbEntity
  8
0
  6
Continuous
 62
     0
370
     0
100
AcDbLine
 10
335.224112
 20
495.259269
 30
0.0
 11
335.223476
 21
495.230143
 31
0.0
  0
LINE
  5
C4
330
7B
100
AcDbEntity
  8
0
  6
Continuous
 62
     0
370
     0
100
AcDbLine
 10
291.233231
 20
495.045325
 30
0.0
 11
291.233867
 21
495.016353
 31
0.0
  0
LWPOLYLINE
  5
C5
330
7B
100
AcDbEntity
  8
0
  6
Continuous
 62
     0
370
    30
100
AcDbPolyline
 90
       14
 70
     0
 43
0.0
 10
291.702667
 20
474.978241
 10
291.66272
 20
476.811401
 10
291.622833
 20
478.629089
 10
291.58313
 20
480.420868
 10
291.543793
 20
482.174713
 10
291.505066
 20
483.877991
 10
291.467194
 20
485.51825
 10
291.430389
 20
487.08606
 10
291.394775
 20
488.577972
 10
291.360382
 20
489.994781
 10
291.327271
 20
491.337341
 10
291.29541
 20
492.608704
 10
291.264648
 20
493.817505
 10
291.233856
 20
495.016357
  0
LWPOLYLINE
  5
C6
330
7B
100
AcDbEntity
  8
0
  6
Continuous
 62
     0
370
    30
100
AcDbPolyline
 90
       52
 70
     0
 43
0.0
 10
292.328644
 20
446.172089
 10
292.394379
 20
444.922089
 10
292.536987
 20
443.677734
 10
292.756042
 20
442.444275
 10
293.05072
 20
441.22641
 10
293.419708
 20
440.028534
 10
293.861664
 20
438.854889
 10
294.375244
 20
437.709808
 10
294.958557
 20
436.597473
 10
295.609222
 20
435.522003
 10
296.324921
 20
434.487488
 10
297.103149
 20
433.497986
 10
297.940857
 20
432.557037
 10
298.834839
 20
431.668091
 10
299.78183
 20
430.834564
 10
300.778503
 20
430.059753
 10
301.821045
 20
429.346344
 10
302.905487
 20
428.696808
 10
304.027771
 20
428.113556
 10
305.183929
 20
427.598938
 10
306.369598
 20
427.154633
 10
307.580353
 20
426.782074
 10
308.811768
 20
426.482635
 10
310.059326
 20
426.257263
 10
311.318481
 20
426.106445
 10
312.584564
 20
426.030579
 10
313.852997
 20
426.029999
 10
315.119141
 20
426.104675
 10
316.378448
 20
426.254272
 10
317.626221
 20
426.478516
 10
318.857941
 20
426.776886
 10
320.069061
 20
427.148285
 10
321.255127
 20
427.591461
 10
322.411743
 20
428.105103
 10
323.534607
 20
428.687286
 10
324.61969
 20
429.335754
 10
325.662933
 20
430.048126
 10
326.660278
 20
430.822113
 10
327.608063
 20
431.654785
 10
328.50293
 20
432.542877
 10
329.341583
 20
433.483002
 10
330.120697
 20
434.471802
 10
330.837372
 20
435.505615
 10
331.489136
 20
436.580414
 10
332.073486
 20
437.69223
 10
332.588043
 20
438.836945
 10
333.031128
 20
440.010345
 10
333.401306
 20
441.207947
 10
333.697205
 20
442.425385
 10
333.91745
 20
443.658295
 10
334.061218
 20
444.902222
 10
334.128632
 20
446.174316
  0
LWPOLYLINE
  5
C7
330
7B
100
AcDbEntity
  8
0
  6
Continuous
 62
     0
370
    30
100
AcDbPolyline
 90
       14
 70
     0
 43
0.0
 10
334.751343
 20
474.975494
 10
334.791718
 20
476.837769
 10
334.832031
 20
478.682953
 10
334.872162
 20
480.500549
 10
334.911865
 20
482.278381
 10
334.950989
 20
484.003845
 10
334.989197
 20
485.664673
 10
335.026306
 20
487.251251
 10
335.062195
 20
488.759491
 10
335.096771
 20
490.189453
 10
335.130066
 20
491.542358
 10
335.162048
 20
492.821533
 10
335.192902
 20
494.036285
 10
335.22348
 20
495.230133
  0
LINE
  5
C8
330
7B
100
AcDbEntity
  8
0
  6
Continuous
 62
     0
370
    30
100
AcDbLine
 10
335.210104
 20
497.990317
 30
0.0
 11
335.21382
 21
497.894777
 31
0.0
  0
LINE
  5
C9
330
7B
100
AcDbEntity
  8
0
  6
Continuous
 62
     0
370
    30
100
AcDbLine
 10
335.226758
 20
497.375828
 30
0.0
 11
335.228027
 21
497.252524
 31
0.0
  0
ARC
  5
CA
330
7B
100
AcDbEntity
  8
0
  6
Continuous
 62
     0
370
    30
100
AcDbCircle
 10
313.278648
 20
497.131264
 30
0.0
 40
22.5
100
AcDbArc
 50
107.99563
 51
192.395687
  0
ARC
  5
CB
330
7B
100
AcDbEntity
  8
0
  6
Continuous
 62
     0
370
    30
100
AcDbCircle
 10
313.278648
 20
497.131264
 30
0.0
 40
22.5
100
AcDbArc
 50
346.276234
 51
107.99563
  0
ARC
  5
CC
330
7B
100
AcDbEntity
  8
0
  6
Continuous
 62
     0
370
     0
100
AcDbCircle
 10
313.278648
 20
497.131264
 30
0.0
 40
29.50000000000001
100
AcDbArc
 50
107.99563
 51
222.867503
  0
ARC
  5
CD
330
7B
100
AcDbEntity
  8
0
  6
Continuous
 62
     0
370
     0
100
AcDbCircle
 10
313.278648
 20
497.131264
 30
0.0
 40
29.50000000000001
100
AcDbArc
 50
316.830973
 51
107.99563
  0
ARC
  5
CE
330
7B
100
AcDbEntity
  8
0
  6
Continuous
 62
     0
370
    30
100
AcDbCircle
 10
313.278648
 20
497.131264
 30
0.0
 40
30.0
100
AcDbArc
 50
107.99563
 51
223.931397
  0
ARC
  5
CF
330
7B
100
AcDbEntity
  8
0
  6
Continuous
 62
     0
370
    30
100
AcDbCircle
 10
313.278648
 20
497.131264
 30
0.0
 40
30.0
100
AcDbArc
 50
315.778293
 51
107.99563
  0
ARC
  5
D0
330
7B
100
AcDbEntity
  8
0
  6
Continuous
 62
     0
370
    30
100
AcDbCircle
 10
313.278648
 20
497.084067
 30
0.0
 40
22.1
100
AcDbArc
 50
352.687768
 51
52.241557
  0
ARC
  5
D1
330
7B
100
AcDbEntity
  8
0
  6
Continuous
 62
     0
370
    30
100
AcDbCircle
 10
313.278648
 20
497.084067
 30
0.0
 40
22.1
100
AcDbArc
 50
52.241557
 51
183.854854
  0
ENDBLK
  5
D3
330
7B
100
AcDbEntity
  8
0
100
AcDbBlockEnd
  0
BLOCK
  5
123
330
D5
100
AcDbEntity
  8
0
100
AcDbBlockBegin
  2
b
 70
     0
 10
163.614731
 20
104.711433
 30
0.0
  3
b
  1

  0
ARC
  5
D6
330
D5
100
AcDbEntity
  8
0
  6
Continuous
 62
     0
370
     0
100
AcDbCircle
 10
233.278641
 20
124.699734
 30
0.0
 40
19.0
100
AcDbArc
 50
180.0
 51
0.0
  0
LINE
  5
D7
330
D5
100
AcDbEntity
  8
0
  6
Continuous
 62
     0
370
     0
100
AcDbLine
 10
214.278641
 20
124.699734
 30
0.0
 11
212.778641
 21
124.699735
 31
0.0
  0
ARC
  5
D8
330
D5
100
AcDbEntity
  8
0
  6
Continuous
 62
     0
370
    30
100
AcDbCircle
 10
233.278641
 20
124.699735
 30
0.0
 40
20.50000000000001
100
AcDbArc
 50
180.0
 51
360.0
  0
LINE
  5
D9
330
D5
100
AcDbEntity
  8
0
  6
Continuous
 62
     0
370
     0
100
AcDbLine
 10
253.778641
 20
124.699735
 30
0.0
 11
252.278641
 21
124.699734
 31
0.0
  0
LINE
  5
DA
330
D5
100
AcDbEntity
  8
0
  6
Continuous
 62
     0
370
     0
100
AcDbLine
 10
252.278641
 20
124.699734
 30
0.0
 11
252.278641
 21
335.999734
 31
0.0
  0
LINE
  5
DB
330
D5
100
AcDbEntity
  8
0
  6
Continuous
 62
     0
370
     0
100
AcDbLine
 10
214.278641
 20
335.999734
 30
0.0
 11
214.278641
 21
124.699734
 31
0.0
  0
LINE
  5
DC
330
D5
100
AcDbEntity
  8
0
  6
Continuous
 62
     0
370
    30
100
AcDbLine
 10
212.778641
 20
335.999735
 30
0.0
 11
212.778641
 21
124.699735
 31
0.0
  0
LINE
  5
DD
330
D5
100
AcDbEntity
  8
0
  6
Continuous
 62
     0
370
    30
100
AcDbLine
 10
253.778641
 20
335.999735
 30
0.0
 11
253.778641
 21
124.699735
 31
0.0
  0
LINE
  5
DE
330
D5
100
AcDbEntity
  8
0
  6
Continuous
 62
     0
370
     0
100
AcDbLine
 10
217.703014
 20
340.499735
 30
0.0
 11
203.278641
 21
340.499735
 31
0.0
  0
LINE
  5
DF
330
D5
100
AcDbEntity
  8
0
  6
Continuous
 62
     0
370
     0
100
AcDbLine
 10
263.278641
 20
340.499735
 30
0.0
 11
217.703014
 21
340.499735
 31
0.0
  0
LINE
  5
E0
330
D5
100
AcDbEntity
  8
0
  6
Continuous
 62
     0
370
     0
100
AcDbLine
 10
217.703014
 20
336.499735
 30
0.0
 11
263.278641
 21
336.499735
 31
0.0
  0
LINE
  5
E1
330
D5
100
AcDbEntity
  8
0
  6
Continuous
 62
     0
370
     0
100
AcDbLine
 10
203.278641
 20
336.499735
 30
0.0
 11
217.703014
 21
336.499735
 31
0.0
  0
LINE
  5
E2
330
D5
100
AcDbEntity
  8
0
  6
Continuous
 62
     0
370
    30
100
AcDbLine
 10
217.962608
 20
335.999734
 30
0.0
 11
203.778519
 21
335.999735
 31
0.0
  0
LINE
  5
E3
330
D5
100
AcDbEntity
  8
0
  6
Continuous
 62
     0
370
    30
100
AcDbLine
 10
262.778709
 20
335.999735
 30
0.0
 11
217.962608
 21
335.999734
 31
0.0
  0
LINE
  5
E4
330
D5
100
AcDbEntity
  8
0
  6
Continuous
 62
     0
370
    30
100
AcDbLine
 10
217.962608
 20
340.999734
 30
0.0
 11
203.778519
 21
340.999735
 31
0.0
  0
LINE
  5
E5
330
D5
100
AcDbEntity
  8
0
  6
Continuous
 62
     0
370
    30
100
AcDbLine
 10
262.778709
 20
340.999735
 30
0.0
 11
217.962608
 21
340.999734
 31
0.0
  0
ARC
  5
E6
330
D5
100
AcDbEntity
  8
0
  6
Continuous
 62
     0
370
    30
100
AcDbCircle
 10
262.778622
 20
340.499732
 30
0.0
 40
0.5000024316717815
100
AcDbArc
 50
0.000279
 51
89.993293
  0
ARC
  5
E7
330
D5
100
AcDbEntity
  8
0
  6
Continuous
 62
     0
370
    30
100
AcDbCircle
 10
203.778613
 20
340.499732
 30
0.0
 40
0.5000028043597893
100
AcDbArc
 50
90.007658
 51
179.999679
  0
ARC
  5
E8
330
D5
100
AcDbEntity
  8
0
  6
Continuous
 62
     0
370
    30
100
AcDbCircle
 10
262.778622
 20
336.499737
 30
0.0
 40
0.5000024316721297
100
AcDbArc
 50
270.006707
 51
359.999721
  0
ARC
  5
E9
330
D5
100
AcDbEntity
  8
0
  6
Continuous
 62
     0
370
    30
100
AcDbCircle
 10
203.778613
 20
336.499738
 30
0.0
 40
0.5000028043580907
100
AcDbArc
 50
180.000321
 51
269.992342
  0
LINE
  5
EA
330
D5
100
AcDbEntity
  8
0
  6
Continuous
 62
     0
370
    30
100
AcDbLine
 10
203.278641
 20
340.499735
 30
0.0
 11
203.278641
 21
336.499735
 31
0.0
  0
LINE
  5
EB
330
D5
100
AcDbEntity
  8
0
  6
Continuous
 62
     0
370
    30
100
AcDbLine
 10
263.278641
 20
340.499735
 30
0.0
 11
263.278641
 21
336.499735
 31
0.0
  0
LWPOLYLINE
  5
EC
330
D5
100
AcDbEntity
  8
0
  6
Continuous
 62
     0
370
     0
100
AcDbPolyline
 90
       27
 70
     0
 43
0.0
 10
313.228638
 20
307.531403
 10
311.894104
 20
307.524353
 10
310.563171
 20
307.503418
 10
309.241882
 20
307.468628
 10
307.936096
 20
307.420074
 10
306.650787
 20
307.357971
 10
305.390503
 20
307.282623
 10
304.15979
 20
307.194305
 10
302.963135
 20
307.093353
 10
301.804871
 20
306.980225
 10
300.689362
 20
306.855316
 10
299.620728
 20
306.719147
 10
298.60257
 20
306.572266
 10
297.63858
 20
306.415192
 10
296.732178
 20
306.248566
 10
295.886322
 20
306.072998
 10
295.103912
 20
305.88913
 10
294.387756
 20
305.697693
 10
293.740112
 20
305.499298
 10
293.163055
 20
305.294769
 10
292.6586
 20
305.084808
 10
292.228363
 20
304.870178
 10
291.873566
 20
304.65155
 10
291.595428
 20
304.429688
 10
291.394867
 20
304.205414
 10
291.272491
 20
303.979584
 10
291.228729
 20
303.751404
  0
ARC
  5
ED
330
D5
100
AcDbEntity
  8
0
  6
Continuous
 62
     0
370
     0
100
AcDbCircle
 10
291.724916
 20
303.755428
 30
0.0
 40
0.4961985911619579
100
AcDbArc
 50
180.466358
 51
270.441075
  0
LWPOLYLINE
  5
EE
330
D5
100
AcDbEntity
  8
0
  6
Continuous
 62
     0
370
     0
100
AcDbPolyline
 90
       27
 70
     0
 43
0.0
 10
291.728729
 20
303.259247
 10
291.770905
 20
303.485504
 10
291.889893
 20
303.711212
 10
292.085205
 20
303.935455
 10
292.356232
 20
304.157288
 10
292.70224
 20
304.375854
 10
293.121887
 20
304.590454
 10
293.613831
 20
304.800323
 10
294.176727
 20
305.004791
 10
294.808685
 20
305.203094
 10
295.507446
 20
305.394531
 10
296.270752
 20
305.5784
 10
297.096191
 20
305.753967
 10
297.980865
 20
305.920624
 10
298.921631
 20
306.077759
 10
299.915314
 20
306.224731
 10
300.958618
 20
306.360962
 10
302.047546
 20
306.485962
 10
303.178101
 20
306.599243
 10
304.346252
 20
306.700348
 10
305.547791
 20
306.788818
 10
306.778412
 20
306.864349
 10
308.033752
 20
306.926666
 10
309.309387
 20
306.975464
 10
310.600006
 20
307.010529
 10
311.89978
 20
307.031738
 10
313.228638
 20
307.039001
  0
LINE
  5
EF
330
D5
100
AcDbEntity
  8
0
  6
Continuous
 62
     0
370
     0
100
AcDbLine
 10
313.228641
 20
307.038989
 30
0.0
 11
313.228641
 21
307.531393
 31
0.0
  0
ARC
  5
F0
330
D5
100
AcDbEntity
  8
0
  6
Continuous
 62
     0
370
     0
100
AcDbCircle
 10
291.72719
 20
303.691291
 30
0.0
 40
0.4939861130185447
100
AcDbArc
 50
180.526117
 51
270.686516
  0
LINE
  5
F1
330
D5
100
AcDbEntity
  8
0
  6
Continuous
 62
     0
370
     0
100
AcDbLine
 10
291.733109
 20
303.19734
 30
0.0
 11
291.728736
 21
303.259244
 31
0.0
  0
LINE
  5
F2
330
D5
100
AcDbEntity
  8
0
  6
Continuous
 62
     0
370
     0
100
AcDbLine
 10
291.733109
 20
303.19734
 30
0.0
 11
292.828526
 21
294.313589
 31
0.0
  0
LWPOLYLINE
  5
F3
330
D5
100
AcDbEntity
  8
0
  6
Continuous
 62
     0
370
     0
100
AcDbPolyline
 90
       52
 70
     0
 43
0.0
 10
292.828522
 20
294.313599
 10
292.884094
 20
294.117371
 10
293.005371
 20
293.917847
 10
293.195862
 20
293.715942
 10
293.458496
 20
293.512604
 10
293.795624
 20
293.309021
 10
294.208832
 20
293.106293
 10
294.699005
 20
292.905701
 10
295.266083
 20
292.708527
 10
295.909027
 20
292.516083
 10
296.625946
 20
292.32962
 10
297.41391
 20
292.150452
 10
298.269043
 20
291.979767
 10
299.186615
 20
291.818634
 10
300.161133
 20
291.668121
 10
301.186371
 20
291.529053
 10
302.255554
 20
291.402161
 10
303.361511
 20
291.287994
 10
304.496857
 20
291.187012
 10
305.653992
 20
291.099365
 10
306.8255
 20
291.025177
 10
308.004089
 20
290.964294
 10
309.18277
 20
290.916534
 10
310.355072
 20
290.8815
 10
311.514893
 20
290.858704
 10
312.656799
 20
290.847595
 10
313.781952
 20
290.847504
 10
314.923462
 20
290.858429
 10
316.083008
 20
290.881042
 10
317.255066
 20
290.915863
 10
318.433685
 20
290.963409
 10
319.612305
 20
291.024048
 10
320.783966
 20
291.098022
 10
321.941376
 20
291.185455
 10
323.077118
 20
291.286224
 10
324.183594
 20
291.400146
 10
325.253448
 20
291.526825
 10
326.279449
 20
291.66571
 10
327.254852
 20
291.81604
 10
328.173462
 20
291.97699
 10
329.029663
 20
292.147552
 10
329.818787
 20
292.326599
 10
330.536896
 20
292.512939
 10
331.181122
 20
292.705292
 10
331.749451
 20
292.902405
 10
332.240906
 20
293.102966
 10
332.655426
 20
293.305664
 10
332.993805
 20
293.509247
 10
333.257629
 20
293.712585
 10
333.44928
 20
293.914551
 10
333.571686
 20
294.114136
 10
333.628754
 20
294.313965
  0
LINE
  5
F4
330
D5
100
AcDbEntity
  8
0
  6
Continuous
 62
     0
370
     0
100
AcDbLine
 10
333.628754
 20
294.313974
 30
0.0
 11
334.719036
 21
303.20121
 31
0.0
  0
ARC
  5
F5
330
D5
100
AcDbEntity
  8
0
  6
Continuous
 62
     0
370
     0
100
AcDbCircle
 10
334.10115
 20
303.274575
 30
0.0
 40
0.6222255210019398
100
AcDbArc
 50
353.228667
 51
21.530961
  0
LWPOLYLINE
  5
F6
330
D5
100
AcDbEntity
  8
0
  6
Continuous
 62
     0
370
     0
100
AcDbPolyline
 90
       26
 70
     0
 43
0.0
 10
334.679962
 20
303.50293
 10
334.554382
 20
303.729645
 10
334.351807
 20
303.95462
 10
334.072998
 20
304.177032
 10
333.718903
 20
304.396118
 10
333.290833
 20
304.611023
 10
332.790344
 20
304.821014
 10
332.219208
 20
305.02536
 10
331.579529
 20
305.223267
 10
330.873596
 20
305.414032
 10
330.103943
 20
305.596985
 10
329.273376
 20
305.771454
 10
328.384857
 20
305.936798
 10
327.44165
 20
306.092468
 10
326.447113
 20
306.237854
 10
325.404846
 20
306.372437
 10
324.318634
 20
306.495728
 10
323.192352
 20
306.60733
 10
322.030121
 20
306.706787
 10
320.836121
 20
306.793732
 10
319.614624
 20
306.867889
 10
318.370117
 20
306.928986
 10
317.106995
 20
306.976807
 10
315.829895
 20
307.011139
 10
314.543427
 20
307.031891
 10
313.228638
 20
307.039001
  0
ARC
  5
F7
330
D5
100
AcDbEntity
  8
0
  6
Continuous
 62
     0
370
     0
100
AcDbCircle
 10
334.607938
 20
303.765497
 30
0.0
 40
0.6154175602761255
100
AcDbArc
 50
353.118892
 51
21.929915
  0
LWPOLYLINE
  5
F8
330
D5
100
AcDbEntity
  8
0
  6
Continuous
 62
     0
370
     0
100
AcDbPolyline
 90
        8
 70
     0
 43
0.0
 10
335.178833
 20
303.995331
 10
335.187958
 20
304.293243
 10
335.196777
 20
304.58902
 10
335.20517
 20
304.881805
 10
335.212982
 20
305.170288
 10
335.220001
 20
305.451843
 10
335.225647
 20
305.720917
 10
335.228638
 20
305.982452
  0
LINE
  5
F9
330
D5
100
AcDbEntity
  8
0
  6
Continuous
 62
     0
370
    30
100
AcDbLine
 10
291.228641
 20
316.574565
 30
0.0
 11
291.228641
 21
304.465565
 31
0.0
  0
LINE
  5
FA
330
D5
100
AcDbEntity
  8
0
  6
Continuous
 62
     0
370
    30
100
AcDbLine
 10
291.228641
 20
304.465565
 30
0.0
 11
291.228734
 21
303.751389
 31
0.0
  0
LWPOLYLINE
  5
FB
330
D5
100
AcDbEntity
  8
0
  6
Continuous
 62
     0
370
     0
100
AcDbPolyline
 90
       26
 70
     0
 43
0.0
 10
313.228638
 20
307.531403
 10
314.559174
 20
307.52475
 10
315.886871
 20
307.503937
 10
317.205444
 20
307.469208
 10
318.508667
 20
307.420807
 10
319.790558
 20
307.359009
 10
321.0466
 20
307.284058
 10
322.272949
 20
307.196259
 10
323.465607
 20
307.095947
 10
324.620148
 20
306.983551
 10
325.732208
 20
306.859558
 10
326.798035
 20
306.724365
 10
327.814423
 20
306.5784
 10
328.777771
 20
306.422211
 10
329.684448
 20
306.25647
 10
330.530823
 20
306.081848
 10
331.313873
 20
305.899017
 10
332.03125
 20
305.708588
 10
332.680695
 20
305.511292
 10
333.260101
 20
305.3078
 10
333.767639
 20
305.098846
 10
334.201508
 20
304.885193
 10
334.560486
 20
304.667572
 10
334.843384
 20
304.446716
 10
335.049286
 20
304.223389
 10
335.178833
 20
303.995331
  0
LINE
  5
FC
330
D5
100
AcDbEntity
  8
0
  6
Continuous
 62
     0
370
    30
100
AcDbLine
 10
335.228641
 20
305.982446
 30
0.0
 11
335.228641
 21
316.574538
 31
0.0
  0
LWPOLYLINE
  5
FD
330
D5
100
AcDbEntity
  8
0
  6
Continuous
 62
     0
370
    30
100
AcDbPolyline
 90
       52
 70
     0
 43
0.0
 10
335.228638
 20
329.39975
 10
335.189392
 20
328.921936
 10
335.071808
 20
328.445374
 10
334.876038
 20
327.971832
 10
334.602478
 20
327.502899
 10
334.251678
 20
327.040039
 10
333.82428
 20
326.584717
 10
333.321289
 20
326.138519
 10
332.743774
 20
325.702972
 10
332.092957
 20
325.279663
 10
331.370361
 20
324.870087
 10
330.577454
 20
324.475861
 10
329.716644
 20
324.098541
 10
328.790771
 20
323.739838
 10
327.802795
 20
323.401459
 10
326.755707
 20
323.0849
 10
325.652527
 20
322.791412
 10
324.496796
 20
322.52243
 10
323.292328
 20
322.279327
 10
322.043945
 20
322.063385
 10
320.757324
 20
321.875854
 10
319.437958
 20
321.717926
 10
318.09079
 20
321.590454
 10
316.720612
 20
321.494049
 10
315.333618
 20
321.42923
 10
313.936523
 20
321.396515
 10
312.536011
 20
321.396332
 10
311.138855
 20
321.428711
 10
309.751709
 20
321.493164
 10
308.381317
 20
321.589233
 10
307.033844
 20
321.7164
 10
305.714172
 20
321.873993
 10
304.427155
 20
322.061188
 10
303.178314
 20
322.276825
 10
301.973358
 20
322.519653
 10
300.817078
 20
322.788361
 10
299.713318
 20
323.081573
 10
298.665558
 20
323.397888
 10
297.676941
 20
323.736023
 10
296.750397
 20
324.094513
 10
295.888824
 20
324.471649
 10
295.095184
 20
324.865723
 10
294.371796
 20
325.275116
 10
293.720215
 20
325.698273
 10
293.141876
 20
326.133698
 10
292.638092
 20
326.579803
 10
292.209869
 20
327.035034
 10
291.858215
 20
327.497803
 10
291.583801
 20
327.966675
 10
291.387207
 20
328.440186
 10
291.268738
 20
328.916718
 10
291.228638
 20
329.39975
  0
ARC
  5
FE
330
D5
100
AcDbEntity
  8
0
  6
Continuous
 62
     0
370
     0
100
AcDbCircle
 10
334.676168
 20
304.005684
 30
0.0
 40
0.5027639357607478
100
AcDbArc
 50
270.431878
 51
358.820896
  0
ARC
  5
FF
330
D5
100
AcDbEntity
  8
0
  6
Continuous
 62
     0
370
     0
100
AcDbCircle
 10
334.724955
 20
303.695153
 30
0.0
 40
0.4939787056436624
100
AcDbArc
 50
269.31339
 51
359.606964
  0
ELLIPSE
  5
100
330
D5
100
AcDbEntity
  8
0
  6
Continuous
 62
     0
370
     0
100
AcDbEllipse
 10
333.628754
 20
294.806378
 30
0.0
 11
-0.4962793802000886
 21
0.06088330467556756
 31
0.0
210
0.0
220
0.0
230
1.0
 40
0.984584
 41
1.691002305343417
 42
3.141592684020155
  0
ARC
  5
101
330
D5
100
AcDbEntity
  8
0
  6
Continuous
 62
     0
370
     0
100
AcDbCircle
 10
292.823172
 20
294.808519
 30
0.0
 40
0.4949591662993135
100
AcDbArc
 50
187.395326
 51
270.61976
  0
LINE
  5
102
330
D5
100
AcDbEntity
  8
0
  6
Continuous
 62
     0
370
    30
100
AcDbLine
 10
293.494378
 20
329.399736
 30
0.0
 11
291.228641
 21
329.399736
 31
0.0
  0
LINE
  5
103
330
D5
100
AcDbEntity
  8
0
  6
Continuous
 62
     0
370
    30
100
AcDbLine
 10
335.228641
 20
329.399736
 30
0.0
 11
333.062892
 21
329.399736
 31
0.0
  0
LINE
  5
104
330
D5
100
AcDbEntity
  8
0
  6
Continuous
 62
     0
370
    30
100
AcDbLine
 10
292.332284
 20
294.744804
 30
0.0
 11
291.236867
 21
303.628555
 31
0.0
  0
LWPOLYLINE
  5
105
330
D5
100
AcDbEntity
  8
0
  6
Continuous
 62
     0
370
    30
100
AcDbPolyline
 90
       56
 70
     0
 43
0.0
 10
292.332275
 20
294.745239
 10
292.426361
 20
294.408783
 10
292.603424
 20
294.113007
 10
292.84375
 20
293.852661
 10
293.138123
 20
293.618591
 10
293.485992
 20
293.401245
 10
293.887421
 20
293.195892
 10
294.343445
 20
292.999542
 10
294.854279
 20
292.811066
 10
295.419708
 20
292.629608
 10
296.03891
 20
292.455139
 10
296.710632
 20
292.287811
 10
297.433197
 20
292.127869
 10
298.204681
 20
291.975616
 10
299.022888
 20
291.831451
 10
299.885437
 20
291.695709
 10
300.789825
 20
291.568756
 10
301.733276
 20
291.450989
 10
302.712982
 20
291.342712
 10
303.72583
 20
291.244293
 10
304.768707
 20
291.156006
 10
305.838318
 20
291.078125
 10
306.931305
 20
291.010864
 10
308.044159
 20
290.954437
 10
309.173523
 20
290.909058
 10
310.315735
 20
290.874817
 10
311.467194
 20
290.851837
 10
312.624207
 20
290.84021
 10
313.783142
 20
290.839966
 10
314.940338
 20
290.851105
 10
316.092102
 20
290.873596
 10
317.234802
 20
290.907318
 10
318.364746
 20
290.95224
 10
319.478424
 20
291.008209
 10
320.572388
 20
291.074982
 10
321.643066
 20
291.152435
 10
322.687134
 20
291.240295
 10
323.701324
 20
291.338287
 10
324.682495
 20
291.446136
 10
325.627563
 20
291.563507
 10
326.533691
 20
291.690063
 10
327.398102
 20
291.825439
 10
328.218292
 20
291.969238
 10
328.991821
 20
292.121124
 10
329.716522
 20
292.280762
 10
330.390472
 20
292.447784
 10
331.011963
 20
292.621948
 10
331.579712
 20
292.80307
 10
332.092957
 20
292.991333
 10
332.5513
 20
293.187256
 10
332.955109
 20
293.392151
 10
333.305145
 20
293.608887
 10
333.60202
 20
293.842285
 10
333.844696
 20
294.101074
 10
334.02475
 20
294.395081
 10
334.12381
 20
294.736298
  0
LINE
  5
106
330
D5
100
AcDbEntity
  8
0
  6
Continuous
 62
     0
370
    30
100
AcDbLine
 10
335.215315
 20
303.63273
 30
0.0
 11
334.125033
 21
294.745495
 31
0.0
  0
ARC
  5
107
330
D5
100
AcDbEntity
  8
0
  6
Continuous
 62
     0
370
    30
100
AcDbCircle
 10
334.124432
 20
303.767326
 30
0.0
 40
1.099108440161927
100
AcDbArc
 50
352.988793
 51
359.821875
  0
LINE
  5
108
330
D5
100
AcDbEntity
  8
0
  6
Continuous
 62
     0
370
    30
100
AcDbLine
 10
335.228641
 20
329.399736
 30
0.0
 11
335.228641
 21
316.574538
 31
0.0
  0
LINE
  5
109
330
D5
100
AcDbEntity
  8
0
  6
Continuous
 62
     0
370
    30
100
AcDbLine
 10
291.228641
 20
329.399736
 30
0.0
 11
291.228641
 21
316.574565
 31
0.0
  0
LINE
  5
10A
330
D5
100
AcDbEntity
  8
0
  6
Continuous
 62
     0
370
    30
100
AcDbLine
 10
335.223535
 20
303.76391
 30
0.0
 11
335.228641
 21
305.982402
 31
0.0
  0
ARC
  5
10B
330
D5
100
AcDbEntity
  8
0
  6
Continuous
 62
     0
370
    30
100
AcDbCircle
 10
292.318961
 20
303.762665
 30
0.0
 40
1.09032546488001
100
AcDbArc
 50
181.017239
 51
187.041455
  0
ARC
  5
10C
330
D5
100
AcDbEntity
  8
0
  6
Continuous
 62
     0
370
    30
100
AcDbCircle
 10
313.382818
 20
334.369641
 30
0.0
 40
20.4999999999954
100
AcDbArc
 50
183.831629
 51
194.030265
  0
LINE
  5
10D
330
D5
100
AcDbEntity
  8
0
  6
Continuous
 62
     0
370
     0
100
AcDbLine
 10
333.589004
 20
332.499735
 30
0.0
 11
333.490292
 21
332.499735
 31
0.0
  0
ARC
  5
10E
330
D5
100
AcDbEntity
  8
0
  6
Continuous
 62
     0
370
     0
100
AcDbCircle
 10
312.972209
 20
334.385793
 30
0.0
 40
20.60458527009084
100
AcDbArc
 50
354.74803
 51
356.142834
  0
ARC
  5
10F
330
D5
100
AcDbEntity
  8
0
  6
Continuous
 62
     0
370
    30
100
AcDbCircle
 10
313.123288
 20
334.363913
 30
0.0
 40
20.55044243818247
100
AcDbArc
 50
354.795412
 51
356.193795
  0
ARC
  5
110
330
D5
100
AcDbEntity
  8
0
  6
Continuous
 62
     0
370
    30
100
AcDbCircle
 10
313.171802
 20
334.370171
 30
0.0
 40
20.5026987524871
100
AcDbArc
 50
345.970094
 51
354.765698
  0
LINE
  5
111
330
D5
100
AcDbEntity
  8
0
  6
Continuous
 62
     0
370
    30
100
AcDbLine
 10
283.778641
 20
335.999734
 30
0.0
 11
304.164779
 21
335.999733
 31
0.0
  0
LINE
  5
112
330
D5
100
AcDbEntity
  8
0
  6
Continuous
 62
     0
370
    30
100
AcDbLine
 10
304.164779
 20
335.999733
 30
0.0
 11
342.778641
 21
335.999734
 31
0.0
  0
LINE
  5
113
330
D5
100
AcDbEntity
  8
0
  6
Continuous
 62
     0
370
     0
100
AcDbLine
 10
283.278641
 20
336.499734
 30
0.0
 11
304.010307
 21
336.499734
 31
0.0
  0
LINE
  5
114
330
D5
100
AcDbEntity
  8
0
  6
Continuous
 62
     0
370
     0
100
AcDbLine
 10
304.010307
 20
336.499734
 30
0.0
 11
343.278641
 21
336.499734
 31
0.0
  0
LINE
  5
115
330
D5
100
AcDbEntity
  8
0
  6
Continuous
 62
     0
370
     0
100
AcDbLine
 10
343.278641
 20
340.499734
 30
0.0
 11
304.010307
 21
340.499734
 31
0.0
  0
LINE
  5
116
330
D5
100
AcDbEntity
  8
0
  6
Continuous
 62
     0
370
     0
100
AcDbLine
 10
304.010307
 20
340.499734
 30
0.0
 11
283.278641
 21
340.499734
 31
0.0
  0
LINE
  5
117
330
D5
100
AcDbEntity
  8
0
  6
Continuous
 62
     0
370
    30
100
AcDbLine
 10
342.778641
 20
340.999734
 30
0.0
 11
304.164779
 21
340.999733
 31
0.0
  0
LINE
  5
118
330
D5
100
AcDbEntity
  8
0
  6
Continuous
 62
     0
370
    30
100
AcDbLine
 10
304.164779
 20
340.999733
 30
0.0
 11
283.778641
 21
340.999734
 31
0.0
  0
ARC
  5
119
330
D5
100
AcDbEntity
  8
0
  6
Continuous
 62
     0
370
    30
100
AcDbCircle
 10
283.778882
 20
336.499734
 30
0.0
 40
0.5000004855682948
100
AcDbArc
 50
180.000056
 51
269.989361
  0
ARC
  5
11A
330
D5
100
AcDbEntity
  8
0
  6
Continuous
 62
     0
370
    30
100
AcDbCircle
 10
342.778456
 20
336.499735
 30
0.0
 40
0.500000959567934
100
AcDbArc
 50
270.010264
 51
359.99989
  0
ARC
  5
11B
330
D5
100
AcDbEntity
  8
0
  6
Continuous
 62
     0
370
    30
100
AcDbCircle
 10
283.778882
 20
340.499733
 30
0.0
 40
0.500000771369932
100
AcDbArc
 50
90.010672
 51
179.999912
  0
ARC
  5
11C
330
D5
100
AcDbEntity
  8
0
  6
Continuous
 62
     0
370
    30
100
AcDbCircle
 10
342.778455
 20
340.499733
 30
0.0
 40
0.5000012369485677
100
AcDbArc
 50
0.000142
 51
89.989705
  0
LINE
  5
11D
330
D5
100
AcDbEntity
  8
0
  6
Continuous
 62
     0
370
    30
100
AcDbLine
 10
343.278641
 20
340.499734
 30
0.0
 11
343.278641
 21
336.499734
 31
0.0
  0
LINE
  5
11E
330
D5
100
AcDbEntity
  8
0
  6
Continuous
 62
     0
370
    30
100
AcDbLine
 10
283.278641
 20
340.499734
 30
0.0
 11
283.278641
 21
336.499734
 31
0.0
  0
LINE
  5
11F
330
D5
100
AcDbEntity
  8
0
  6
Continuous
 62
     0
370
    30
100
AcDbLine
 10
326.811217
 20
332.999736
 30
0.0
 11
335.378641
 21
332.999736
 31
0.0
  0
LINE
  5
120
330
D5
100
AcDbEntity
  8
0
  6
Continuous
 62
     0
370
    30
100
AcDbLine
 10
291.178641
 20
332.999736
 30
0.0
 11
326.811217
 21
332.999736
 31
0.0
  0
LINE
  5
121
330
D5
100
AcDbEntity
  8
0
  6
Continuous
 62
     0
370
    30
100
AcDbLine
 10
335.378641
 20
332.999736
 30
0.0
 11
335.378641
 21
335.999734
 31
0.0
  0
LINE
  5
122
330
D5
100
AcDbEntity
  8
0
  6
Continuous
 62
     0
370
    30
100
AcDbLine
 10
291.178641
 20
332.999736
 30
0.0
 11
291.178641
 21
335.999734
 31
0.0
  0
ENDBLK
  5
124
330
D5
100
AcDbEntity
  8
0
100
AcDbBlockEnd
  0
BLOCK
  5
17C
330
126
100
AcDbEntity
  8
0
100
AcDbBlockBegin
  2
c
 70
     0
 10
163.614731
 20
120.370705
 30
0.0
  3
c
  1

  0
LWPOLYLINE
  5
127
330
126
100
AcDbEntity
  8
0
  6
Continuous
 62
     0
370
    30
100
AcDbPolyline
 90
       26
 70
     0
 43
0.0
 10
635.221375
 20
507.131256
 10
635.18396
 20
507.131256
 10
635.07196
 20
507.131256
 10
634.885803
 20
507.131256
 10
634.626099
 20
507.131256
 10
634.294006
 20
507.131256
 10
633.890808
 20
507.131256
 10
633.41803
 20
507.131256
 10
632.877563
 20
507.131256
 10
632.271667
 20
507.131256
 10
631.602478
 20
507.131256
 10
630.872803
 20
507.131256
 10
630.08551
 20
507.131256
 10
629.243591
 20
507.131256
 10
628.350403
 20
507.131256
 10
627.409546
 20
507.131256
 10
626.424622
 20
507.131256
 10
625.399475
 20
507.131256
 10
624.338318
 20
507.131256
 10
623.2453
 20
507.131256
 10
622.124634
 20
507.131256
 10
620.980713
 20
507.131256
 10
619.817688
 20
507.131256
 10
618.640076
 20
507.131256
 10
617.453369
 20
507.131256
 10
616.221375
 20
507.131256
  0
LINE
  5
128
330
126
100
AcDbEntity
  8
0
  6
Continuous
 62
     0
370
     0
100
AcDbLine
 10
616.221399
 20
507.131263
 30
0.0
 11
616.221399
 21
505.631263
 31
0.0
  0
LINE
  5
129
330
126
100
AcDbEntity
  8
0
  6
Continuous
 62
     0
370
     0
100
AcDbLine
 10
616.221399
 20
505.631263
 30
0.0
 11
636.721398
 21
505.631263
 31
0.0
  0
LINE
  5
12A
330
126
100
AcDbEntity
  8
0
  6
Continuous
 62
     0
370
     0
100
AcDbLine
 10
616.221399
 20
505.631263
 30
0.0
 11
616.221399
 21
500.798448
 31
0.0
  0
LWPOLYLINE
  5
12B
330
126
100
AcDbEntity
  8
0
  6
Continuous
 62
     0
370
     0
100
AcDbPolyline
 90
       14
 70
     0
 43
0.0
 10
616.221375
 20
500.798462
 10
616.931458
 20
500.604187
 10
617.643188
 20
500.419403
 10
618.355835
 20
500.245026
 10
619.068542
 20
500.082153
 10
619.780518
 20
499.932037
 10
620.490906
 20
499.796082
 10
621.198608
 20
499.676025
 10
621.902649
 20
499.573944
 10
622.602051
 20
499.492523
 10
623.295471
 20
499.435577
 10
623.98175
 20
499.408112
 10
624.659119
 20
499.417664
 10
625.336853
 20
499.487579
  0
LWPOLYLINE
  5
12C
330
126
100
AcDbEntity
  8
0
  6
Continuous
 62
     0
370
     0
100
AcDbPolyline
 90
       19
 70
     0
 43
0.0
 10
625.336853
 20
499.487579
 10
626.44928
 20
499.443665
 10
627.52356
 20
499.399017
 10
628.554871
 20
499.354614
 10
629.539246
 20
499.311615
 10
630.473206
 20
499.271301
 10
631.353333
 20
499.23468
 10
632.176208
 20
499.202423
 10
632.938538
 20
499.175171
 10
633.637634
 20
499.153259
 10
634.27063
 20
499.137024
 10
634.835083
 20
499.126282
 10
635.328918
 20
499.120331
 10
635.750122
 20
499.118378
 10
636.097168
 20
499.119446
 10
636.368713
 20
499.122528
 10
636.56366
 20
499.126434
 10
636.681396
 20
499.129883
 10
636.721375
 20
499.131378
  0
LWPOLYLINE
  5
12D
330
126
100
AcDbEntity
  8
0
  6
Continuous
 62
     0
370
     0
100
AcDbPolyline
 90
       17
 70
     0
 43
0.0
 10
620.386902
 20
488.819519
 10
620.804504
 20
489.085419
 10
621.219604
 20
489.420776
 10
621.629028
 20
489.823212
 10
622.03009
 20
490.290039
 10
622.420227
 20
490.818207
 10
622.796875
 20
491.404144
 10
623.15741
 20
492.044006
 10
623.499451
 20
492.733459
 10
623.820801
 20
493.467957
 10
624.119202
 20
494.242554
 10
624.392761
 20
495.052185
 10
624.639648
 20
495.891296
 10
624.858093
 20
496.754364
 10
625.046814
 20
497.635773
 10
625.204468
 20
498.529785
 10
625.336853
 20
499.487579
  0
LWPOLYLINE
  5
12E
330
126
100
AcDbEntity
  8
0
  6
Continuous
 62
     0
370
    30
100
AcDbPolyline
 90
       17
 70
     0
 43
0.0
 10
628.465759
 20
487.730408
 10
628.430908
 20
487.734344
 10
628.326538
 20
487.746246
 10
628.15332
 20
487.766388
 10
627.912415
 20
487.795074
 10
627.605408
 20
487.832703
 10
627.234131
 20
487.8797
 10
626.801025
 20
487.935974
 10
626.309021
 20
488.001434
 10
625.761108
 20
488.075836
 10
625.160767
 20
488.158752
 10
624.511536
 20
488.249542
 10
623.817383
 20
488.346741
 10
623.082153
 20
488.448639
 10
622.309937
 20
488.552948
 10
621.504944
 20
488.657257
 10
620.614319
 20
488.764771
  0
LINE
  5
12F
330
126
100
AcDbEntity
  8
0
  6
Continuous
 62
     0
370
     0
100
AcDbLine
 10
620.614345
 20
488.764771
 30
0.0
 11
620.386896
 21
488.819512
 31
0.0
  0
LWPOLYLINE
  5
130
330
126
100
AcDbEntity
  8
0
  6
Continuous
 62
     0
370
     0
100
AcDbPolyline
 90
       20
 70
     0
 43
0.0
 10
620.386902
 20
488.819519
 10
620.292053
 20
489.152405
 10
620.179993
 20
489.553528
 10
620.051575
 20
490.013977
 10
619.907349
 20
490.526489
 10
619.747559
 20
491.085114
 10
619.572998
 20
491.683075
 10
619.384216
 20
492.313751
 10
619.181946
 20
492.971344
 10
618.966736
 20
493.650818
 10
618.739136
 20
494.347382
 10
618.499756
 20
495.056641
 10
618.249207
 20
495.774506
 10
617.988159
 20
496.497314
 10
617.717102
 20
497.221802
 10
617.436584
 20
497.944977
 10
617.147339
 20
498.664124
 10
616.849792
 20
499.376984
 10
616.544434
 20
500.081482
 10
616.221375
 20
500.798462
  0
LINE
  5
131
330
126
100
AcDbEntity
  8
0
  6
Continuous
 62
     0
370
    30
100
AcDbLine
 10
404.921399
 20
507.131263
 30
0.0
 11
616.221399
 21
507.131263
 31
0.0
  0
LINE
  5
132
330
126
100
AcDbEntity
  8
0
  6
Continuous
 62
     0
370
     0
100
AcDbLine
 10
404.921399
 20
505.631263
 30
0.0
 11
616.221399
 21
505.631263
 31
0.0
  0
LINE
  5
133
330
126
100
AcDbEntity
  8
0
  6
Continuous
 62
     0
370
     0
100
AcDbLine
 10
404.921399
 20
500.798448
 30
0.0
 11
616.221399
 21
500.798448
 31
0.0
  0
LINE
  5
134
330
126
100
AcDbEntity
  8
0
  6
Continuous
 62
     0
370
     0
100
AcDbLine
 10
404.921398
 20
488.819512
 30
0.0
 11
612.037823
 21
488.819512
 31
0.0
  0
LWPOLYLINE
  5
135
330
126
100
AcDbEntity
  8
0
  6
Continuous
 62
     0
370
    30
100
AcDbPolyline
 90
        7
 70
     0
 43
0.0
 10
612.037842
 20
488.819519
 10
613.316589
 20
488.935486
 10
614.632446
 20
489.01358
 10
615.966309
 20
489.042633
 10
617.30127
 20
489.020508
 10
618.62085
 20
488.949402
 10
620.109558
 20
488.819519
  0
LINE
  5
136
330
126
100
AcDbEntity
  8
0
  6
Continuous
 62
     0
370
     0
100
AcDbLine
 10
620.109568
 20
488.819512
 30
0.0
 11
620.386896
 21
488.819512
 31
0.0
  0
LWPOLYLINE
  5
137
330
126
100
AcDbEntity
  8
0
  6
Continuous
 62
     0
370
    30
100
AcDbPolyline
 90
       17
 70
     0
 43
0.0
 10
603.924683
 20
487.131256
 10
603.960999
 20
487.142639
 10
604.069031
 20
487.175964
 10
604.247437
 20
487.230103
 10
604.494995
 20
487.303833
 10
604.810181
 20
487.395782
 10
605.191528
 20
487.503876
 10
605.63678
 20
487.625519
 10
606.14325
 20
487.757812
 10
606.708069
 20
487.897858
 10
607.328125
 20
488.042389
 10
608.000427
 20
488.18811
 10
608.72113
 20
488.331604
 10
609.486694
 20
488.469452
 10
610.294373
 20
488.598419
 10
611.138855
 20
488.715302
 10
612.037842
 20
488.819519
  0
LINE
  5
138
330
126
100
AcDbEntity
  8
0
  6
Continuous
 62
     0
370
    30
100
AcDbLine
 10
620.109568
 20
488.819512
 30
0.0
 11
620.614345
 21
488.764759
 31
0.0
  0
LWPOLYLINE
  5
139
330
126
100
AcDbEntity
  8
0
  6
Continuous
 62
     0
370
     0
100
AcDbPolyline
 90
       18
 70
     0
 43
0.0
 10
419.921417
 20
487.472992
 10
420.334839
 20
487.467987
 10
420.734894
 20
487.453369
 10
421.106567
 20
487.430298
 10
421.436768
 20
487.400604
 10
421.715424
 20
487.366364
 10
421.933655
 20
487.329926
 10
422.083801
 20
487.293518
 10
422.161102
 20
487.258942
 10
422.162079
 20
487.227997
 10
422.086456
 20
487.201752
 10
421.937408
 20
487.180725
 10
421.719849
 20
487.164825
 10
421.441284
 20
487.153473
 10
421.110718
 20
487.145935
 10
420.738953
 20
487.141357
 10
420.338959
 20
487.138947
 10
419.921356
 20
487.138214
  0
LWPOLYLINE
  5
13A
330
126
100
AcDbEntity
  8
0
  6
Continuous
 62
     0
370
     0
100
AcDbPolyline
 90
       19
 70
     0
 43
0.0
 10
419.921356
 20
487.138214
 10
419.532684
 20
487.138855
 10
419.154785
 20
487.14093
 10
418.800171
 20
487.144867
 10
418.480164
 20
487.151245
 10
418.203796
 20
487.160797
 10
417.978516
 20
487.174255
 10
417.811676
 20
487.192291
 10
417.707947
 20
487.214905
 10
417.671478
 20
487.241943
 10
417.70517
 20
487.27298
 10
417.806061
 20
487.306641
 10
417.969757
 20
487.341278
 10
418.191498
 20
487.375214
 10
418.4646
 20
487.406616
 10
418.78186
 20
487.433655
 10
419.134277
 20
487.454651
 10
419.510925
 20
487.468048
 10
419.921417
 20
487.472992
  0
LINE
  5
13B
330
126
100
AcDbEntity
  8
0
  6
Continuous
 62
     0
370
    30
100
AcDbLine
 10
404.921398
 20
487.131263
 30
0.0
 11
603.924655
 21
487.131263
 31
0.0
  0
LWPOLYLINE
  5
13C
330
126
100
AcDbEntity
  8
0
  6
Continuous
 62
     0
370
    30
100
AcDbPolyline
 90
       18
 70
     0
 43
0.0
 10
636.721375
 20
499.131256
 10
636.688965
 20
498.250214
 10
636.591858
 20
497.373627
 10
636.430786
 20
496.506653
 10
636.206543
 20
495.653961
 10
635.920105
 20
494.820038
 10
635.573303
 20
494.009308
 10
635.167908
 20
493.226227
 10
634.706116
 20
492.475037
 10
634.190308
 20
491.759857
 10
633.623352
 20
491.084534
 10
633.008484
 20
490.452515
 10
632.348877
 20
489.86731
 10
631.64801
 20
489.332214
 10
630.909729
 20
488.850037
 10
630.138062
 20
488.423401
 10
629.337158
 20
488.054565
 10
628.465759
 20
487.730408
  0
LINE
  5
13D
330
126
100
AcDbEntity
  8
0
  6
Continuous
 62
     0
370
    30
100
AcDbLine
 10
636.721398
 20
505.631264
 30
0.0
 11
636.721398
 21
499.13138
 31
0.0
  0
ARC
  5
13E
330
126
100
AcDbEntity
  8
0
  6
Continuous
 62
     0
370
    30
100
AcDbCircle
 10
635.221372
 20
505.631238
 30
0.0
 40
1.500025465227081
100
AcDbArc
 50
0.000973
 51
89.995208
  0
LINE
  5
13F
330
126
100
AcDbEntity
  8
0
  6
Continuous
 62
     0
370
     0
100
AcDbLine
 10
400.421398
 20
522.771073
 30
0.0
 11
400.421398
 21
467.131264
 31
0.0
  0
LINE
  5
140
330
126
100
AcDbEntity
  8
0
  6
Continuous
 62
     0
370
     0
100
AcDbLine
 10
400.421398
 20
527.131264
 30
0.0
 11
400.421398
 21
522.771073
 31
0.0
  0
LINE
  5
141
330
126
100
AcDbEntity
  8
0
  6
Continuous
 62
     0
370
     0
100
AcDbLine
 10
404.421398
 20
522.771073
 30
0.0
 11
404.421398
 21
527.131264
 31
0.0
  0
LINE
  5
142
330
126
100
AcDbEntity
  8
0
  6
Continuous
 62
     0
370
     0
100
AcDbLine
 10
404.421398
 20
467.131264
 30
0.0
 11
404.421398
 21
522.771073
 31
0.0
  0
LINE
  5
143
330
126
100
AcDbEntity
  8
0
  6
Continuous
 62
     0
370
    30
100
AcDbLine
 10
404.921399
 20
522.343743
 30
0.0
 11
404.921398
 21
467.63157
 31
0.0
  0
LWPOLYLINE
  5
144
330
126
100
AcDbEntity
  8
0
  6
Continuous
 62
     0
370
    30
100
AcDbPolyline
 90
       12
 70
     0
 43
0.0
 10
404.921387
 20
526.63092
 10
404.921387
 20
526.595032
 10
404.921387
 20
526.487366
 10
404.921387
 20
526.308228
 10
404.921387
 20
526.058105
 10
404.921387
 20
525.737793
 10
404.921387
 20
525.347717
 10
404.921387
 20
524.888123
 10
404.921387
 20
524.360229
 10
404.921387
 20
523.765869
 10
404.921387
 20
523.107056
 10
404.921387
 20
522.34375
  0
LINE
  5
145
330
126
100
AcDbEntity
  8
0
  6
Continuous
 62
     0
370
    30
100
AcDbLine
 10
399.921399
 20
522.343743
 30
0.0
 11
399.921398
 21
467.63157
 31
0.0
  0
LWPOLYLINE
  5
146
330
126
100
AcDbEntity
  8
0
  6
Continuous
 62
     0
370
    30
100
AcDbPolyline
 90
       12
 70
     0
 43
0.0
 10
399.921387
 20
526.63092
 10
399.921387
 20
526.595032
 10
399.921387
 20
526.487366
 10
399.921387
 20
526.308228
 10
399.921387
 20
526.058105
 10
399.921387
 20
525.737793
 10
399.921387
 20
525.347717
 10
399.921387
 20
524.888123
 10
399.921387
 20
524.360229
 10
399.921387
 20
523.765869
 10
399.921387
 20
523.107056
 10
399.921387
 20
522.34375
  0
ARC
  5
147
330
126
100
AcDbEntity
  8
0
  6
Continuous
 62
     0
370
    30
100
AcDbCircle
 10
400.4214
 20
526.631157
 30
0.0
 40
0.5000016873794768
100
AcDbArc
 50
90.000193
 51
179.99284
  0
ARC
  5
148
330
126
100
AcDbEntity
  8
0
  6
Continuous
 62
     0
370
    30
100
AcDbCircle
 10
400.4214
 20
467.631324
 30
0.0
 40
0.5000020604804858
100
AcDbArc
 50
180.007966
 51
269.999764
  0
ARC
  5
149
330
126
100
AcDbEntity
  8
0
  6
Continuous
 62
     0
370
    30
100
AcDbCircle
 10
404.421396
 20
526.631157
 30
0.0
 40
0.5000016873844225
100
AcDbArc
 50
0.00716
 51
89.999807
  0
ARC
  5
14A
330
126
100
AcDbEntity
  8
0
  6
Continuous
 62
     0
370
    30
100
AcDbCircle
 10
404.421396
 20
467.631324
 30
0.0
 40
0.5000020604781745
100
AcDbArc
 50
270.000236
 51
359.992034
  0
LINE
  5
14B
330
126
100
AcDbEntity
  8
0
  6
Continuous
 62
     0
370
    30
100
AcDbLine
 10
400.421398
 20
467.131264
 30
0.0
 11
404.421398
 21
467.131264
 31
0.0
  0
LINE
  5
14C
330
126
100
AcDbEntity
  8
0
  6
Continuous
 62
     0
370
    30
100
AcDbLine
 10
400.421398
 20
527.131264
 30
0.0
 11
404.421398
 21
527.131264
 31
0.0
  0
LINE
  5
14D
330
126
100
AcDbEntity
  8
0
  6
Continuous
 62
     0
370
    30
100
AcDbLine
 10
607.104632
 20
486.082682
 30
0.0
 11
625.457976
 21
487.688392
 31
0.0
  0
LINE
  5
14E
330
126
100
AcDbEntity
  8
0
  6
Continuous
 62
     0
370
    30
100
AcDbLine
 10
607.028374
 20
486.076011
 30
0.0
 11
607.104632
 21
486.082682
 31
0.0
  0
LINE
  5
14F
330
126
100
AcDbEntity
  8
0
  6
Continuous
 62
     0
370
    30
100
AcDbLine
 10
606.865689
 20
487.935515
 30
0.0
 11
607.028374
 21
486.076011
 31
0.0
  0
LINE
  5
150
330
126
100
AcDbEntity
  8
0
  6
Continuous
 62
     0
370
    30
100
AcDbLine
 10
625.419972
 20
488.122778
 30
0.0
 11
625.457976
 21
487.688392
 31
0.0
  0
LINE
  5
151
330
126
100
AcDbEntity
  8
0
  6
Continuous
 62
     0
370
     0
100
AcDbLine
 10
433.389736
 20
519.087239
 30
0.0
 11
435.449985
 21
507.131263
 31
0.0
  0
LINE
  5
152
330
126
100
AcDbEntity
  8
0
  6
Continuous
 62
     0
370
    30
100
AcDbLine
 10
435.917447
 20
507.131263
 30
0.0
 11
433.882139
 21
518.674063
 31
0.0
  0
ARC
  5
153
330
126
100
AcDbEntity
  8
0
  6
Continuous
 62
     0
370
    30
100
AcDbCircle
 10
433.389736
 20
518.587239
 30
0.0
 40
0.4999999999986503
100
AcDbArc
 50
10.0
 51
90.0
  0
LINE
  5
154
330
126
100
AcDbEntity
  8
0
  6
Continuous
 62
     0
370
    30
100
AcDbLine
 10
439.443987
 20
487.131263
 30
0.0
 11
446.607543
 21
446.50472
 31
0.0
  0
LINE
  5
155
330
126
100
AcDbEntity
  8
0
  6
Continuous
 62
     0
370
    30
100
AcDbLine
 10
446.607543
 20
446.50472
 30
0.0
 11
450.074943
 21
426.840115
 31
0.0
  0
LINE
  5
156
330
126
100
AcDbEntity
  8
0
  6
Continuous
 62
     0
370
    30
100
AcDbLine
 10
411.521393
 20
487.131263
 30
0.0
 11
411.521393
 21
475.087238
 31
0.0
  0
LINE
  5
157
330
126
100
AcDbEntity
  8
0
  6
Continuous
 62
     0
370
    30
100
AcDbLine
 10
411.521393
 20
475.087238
 30
0.0
 11
421.804803
 21
475.087239
 31
0.0
  0
LWPOLYLINE
  5
158
330
126
100
AcDbEntity
  8
0
  6
Continuous
 62
     0
370
    30
100
AcDbPolyline
 90
       15
 70
     0
 43
0.0
 10
422.400513
 20
475.145294
 10
422.711823
 20
475.169891
 10
423.070648
 20
475.193115
 10
423.467529
 20
475.212158
 10
423.891113
 20
475.224915
 10
424.328247
 20
475.229706
 10
424.766144
 20
475.225922
 10
425.191803
 20
475.213898
 10
425.591125
 20
475.19519
 10
425.951843
 20
475.171997
 10
426.263824
 20
475.147125
 10
426.517181
 20
475.123627
 10
426.704071
 20
475.104401
 10
426.818573
 20
475.091797
 10
426.85907
 20
475.08725
  0
LINE
  5
159
330
126
100
AcDbEntity
  8
0
  6
Continuous
 62
     0
370
    30
100
AcDbLine
 10
426.859077
 20
475.087239
 30
0.0
 11
429.322369
 21
475.087239
 31
0.0
  0
LWPOLYLINE
  5
15A
330
126
100
AcDbEntity
  8
0
  6
Continuous
 62
     0
370
     0
100
AcDbPolyline
 90
       21
 70
     0
 43
0.0
 10
429.322357
 20
475.08725
 10
429.300629
 20
475.120941
 10
429.242493
 20
475.221649
 10
429.157898
 20
475.388733
 10
429.056824
 20
475.621552
 10
428.949097
 20
475.919373
 10
428.844025
 20
476.281372
 10
428.751556
 20
476.706787
 10
428.670013
 20
477.194458
 10
428.587036
 20
477.742554
 10
428.5
 20
478.349426
 10
428.408081
 20
479.013153
 10
428.30954
 20
479.731506
 10
428.202881
 20
480.501953
 10
428.086517
 20
481.322052
 10
427.958771
 20
482.189423
 10
427.818054
 20
483.100952
 10
427.662811
 20
484.05304
 10
427.491547
 20
485.042297
 10
427.302734
 20
486.065643
 10
427.09259
 20
487.131256
  0
LWPOLYLINE
  5
15B
330
126
100
AcDbEntity
  8
0
  6
Continuous
 62
     0
370
    30
100
AcDbPolyline
 90
       21
 70
     0
 43
0.0
 10
419.528778
 20
519.087219
 10
419.516205
 20
519.052673
 10
419.478638
 20
518.949646
 10
419.416443
 20
518.77887
 10
419.329926
 20
518.541138
 10
419.219421
 20
518.237488
 10
419.085419
 20
517.869202
 10
418.928406
 20
517.437744
 10
418.749115
 20
516.945251
 10
418.548431
 20
516.39386
 10
418.327179
 20
515.786011
 10
418.086273
 20
515.124084
 10
417.82666
 20
514.410767
 10
417.549255
 20
513.648682
 10
417.254944
 20
512.840088
 10
416.944702
 20
511.987671
 10
416.619659
 20
511.094635
 10
416.280975
 20
510.164093
 10
415.929779
 20
509.199188
 10
415.567139
 20
508.20285
 10
415.177124
 20
507.131256
  0
LWPOLYLINE
  5
15C
330
126
100
AcDbEntity
  8
0
  6
Continuous
 62
     0
370
     0
100
AcDbPolyline
 90
        5
 70
     0
 43
0.0
 10
446.607544
 20
446.50473
 10
446.571198
 20
446.494171
 10
446.466187
 20
446.472137
 10
446.30835
 20
446.441956
 10
446.117004
 20
446.407349
  0
LINE
  5
15D
330
126
100
AcDbEntity
  8
0
  6
Continuous
 62
     0
370
     0
100
AcDbLine
 10
446.116998
 20
446.407355
 30
0.0
 11
449.669363
 21
426.260887
 31
0.0
  0
LINE
  5
15E
330
126
100
AcDbEntity
  8
0
  6
Continuous
 62
     0
370
     0
100
AcDbLine
 10
438.936274
 20
487.131263
 30
0.0
 11
446.116998
 21
446.407355
 31
0.0
  0
ARC
  5
15F
330
126
100
AcDbEntity
  8
0
  6
Continuous
 62
     0
370
    30
100
AcDbCircle
 10
429.323143
 20
466.088754
 30
0.0
 40
8.99825215693863
100
AcDbArc
 50
40.890711
 51
86.898915
  0
LWPOLYLINE
  5
160
330
126
100
AcDbEntity
  8
0
  6
Continuous
 62
     0
370
     0
100
AcDbPolyline
 90
       17
 70
     0
 43
0.0
 10
438.185638
 20
467.650085
 10
438.188751
 20
467.668549
 10
438.197845
 20
467.724487
 10
438.211304
 20
467.827637
 10
438.228149
 20
467.982513
 10
438.247101
 20
468.193787
 10
438.266876
 20
468.468048
 10
438.286011
 20
468.809326
 10
438.302979
 20
469.222443
 10
438.316681
 20
469.708252
 10
438.328125
 20
470.257507
 10
438.337189
 20
470.865814
 10
438.343323
 20
471.531281
 10
438.345856
 20
472.251984
 10
438.344086
 20
473.025909
 10
438.337402
 20
473.850861
 10
438.324646
 20
474.752716
  0
LWPOLYLINE
  5
161
330
126
100
AcDbEntity
  8
0
  6
Continuous
 62
     0
370
     0
100
AcDbPolyline
 90
       13
 70
     0
 43
0.0
 10
438.324646
 20
474.752716
 10
438.098755
 20
475.897369
 10
437.799286
 20
477.0289
 10
437.429596
 20
478.140594
 10
436.993774
 20
479.226929
 10
436.498779
 20
480.286987
 10
435.952301
 20
481.321136
 10
435.362274
 20
482.330231
 10
434.737122
 20
483.3172
 10
434.08548
 20
484.285461
 10
433.414581
 20
485.23822
 10
432.728668
 20
486.178253
 10
432.014038
 20
487.131256
  0
LWPOLYLINE
  5
162
330
126
100
AcDbEntity
  8
0
  6
Continuous
 62
     0
370
     0
100
AcDbPolyline
 90
       11
 70
     0
 43
0.0
 10
435.202881
 20
487.131256
 10
435.914856
 20
486.05603
 10
436.568848
 20
484.945526
 10
437.162872
 20
483.8013
 10
437.696838
 20
482.625458
 10
438.171509
 20
481.42041
 10
438.588715
 20
480.189056
 10
438.951752
 20
478.93457
 10
439.265778
 20
477.660706
 10
439.537903
 20
476.371796
 10
439.793945
 20
474.979187
  0
LINE
  5
163
330
126
100
AcDbEntity
  8
0
  6
Continuous
 62
     0
370
     0
100
AcDbLine
 10
439.793934
 20
474.979173
 30
0.0
 11
444.788098
 21
446.173034
 31
0.0
  0
LINE
  5
164
330
126
100
AcDbEntity
  8
0
  6
Continuous
 62
     0
370
     0
100
AcDbLine
 10
444.788098
 20
446.173034
 30
0.0
 11
446.116998
 21
446.407355
 31
0.0
  0
LWPOLYLINE
  5
165
330
126
100
AcDbEntity
  8
0
  6
Continuous
 62
     0
370
     0
100
AcDbPolyline
 90
       24
 70
     0
 43
0.0
 10
445.088959
 20
428.499481
 10
445.088379
 20
428.534027
 10
445.086273
 20
428.638794
 10
445.082031
 20
428.814819
 10
445.075195
 20
429.063141
 10
445.065216
 20
429.384796
 10
445.0513
 20
429.780334
 10
445.032593
 20
430.249969
 10
445.008087
 20
430.793488
 10
444.976807
 20
431.410492
 10
444.937805
 20
432.099304
 10
444.889954
 20
432.857269
 10
444.832275
 20
433.681793
 10
444.763702
 20
434.569824
 10
444.683319
 20
435.517487
 10
444.590179
 20
436.52066
 10
444.48349
 20
437.574799
 10
444.36264
 20
438.674622
 10
444.227112
 20
439.814697
 10
444.076599
 20
440.988922
 10
443.91098
 20
442.191162
 10
443.730377
 20
443.415039
 10
443.535126
 20
444.653809
 10
443.317963
 20
445.946411
  0
LINE
  5
166
330
126
100
AcDbEntity
  8
0
  6
Continuous
 62
     0
370
     0
100
AcDbLine
 10
443.317971
 20
445.946417
 30
0.0
 11
438.324641
 21
474.752703
 31
0.0
  0
LWPOLYLINE
  5
167
330
126
100
AcDbEntity
  8
0
  6
Continuous
 62
     0
370
     0
100
AcDbPolyline
 90
       27
 70
     0
 43
0.0
 10
444.788086
 20
446.173035
 10
445.001587
 20
444.950043
 10
445.21582
 20
443.731476
 10
445.429504
 20
442.522949
 10
445.641327
 20
441.330048
 10
445.85022
 20
440.157593
 10
446.05542
 20
439.008545
 10
446.256378
 20
437.886047
 10
446.452637
 20
436.793915
 10
446.643829
 20
435.735992
 10
446.829376
 20
434.716187
 10
447.008789
 20
433.738495
 10
447.181549
 20
432.806824
 10
447.347137
 20
431.924591
 10
447.505096
 20
431.09491
 10
447.654877
 20
430.320892
 10
447.796051
 20
429.605499
 10
447.928009
 20
428.950775
 10
448.05014
 20
428.358643
 10
448.161652
 20
427.830963
 10
448.261627
 20
427.369568
 10
448.349121
 20
426.975922
 10
448.423126
 20
426.65152
 10
448.482666
 20
426.397827
 10
448.526703
 20
426.215485
 10
448.554199
 20
426.104828
 10
448.564087
 20
426.06601
  0
LWPOLYLINE
  5
168
330
126
100
AcDbEntity
  8
0
  6
Continuous
 62
     0
370
     0
100
AcDbPolyline
 90
        8
 70
     0
 43
0.0
 10
443.317963
 20
445.946411
 10
443.387268
 20
445.952057
 10
443.51297
 20
445.967926
 10
443.690002
 20
445.993347
 10
443.911011
 20
446.027283
 10
444.167297
 20
446.06839
 10
444.448944
 20
446.115082
 10
444.788086
 20
446.173035
  0
LWPOLYLINE
  5
169
330
126
100
AcDbEntity
  8
0
  6
Continuous
 62
     0
370
     0
100
AcDbPolyline
 90
        8
 70
     0
 43
0.0
 10
438.324646
 20
474.752716
 10
438.394806
 20
474.758514
 10
438.520935
 20
474.774445
 10
438.697906
 20
474.799896
 10
438.918457
 20
474.83374
 10
439.174011
 20
474.874725
 10
439.454681
 20
474.921234
 10
439.793945
 20
474.979187
  0
ARC
  5
16A
330
126
100
AcDbEntity
  8
0
  6
Continuous
 62
     0
370
    30
100
AcDbCircle
 10
448.043436
 20
429.020566
 30
0.0
 40
3.00009212326135
100
AcDbArc
 50
190.00176
 51
279.998241
  0
LINE
  5
16B
330
126
100
AcDbEntity
  8
0
  6
Continuous
 62
     0
370
    30
100
AcDbLine
 10
449.669363
 20
426.260887
 30
0.0
 11
448.564099
 21
426.065999
 31
0.0
  0
LINE
  5
16C
330
126
100
AcDbEntity
  8
0
  6
Continuous
 62
     0
370
    30
100
AcDbLine
 10
438.185639
 20
467.650072
 30
0.0
 11
445.088903
 21
428.499713
 31
0.0
  0
ARC
  5
16D
330
126
100
AcDbEntity
  8
0
  6
Continuous
 62
     0
370
    30
100
AcDbCircle
 10
429.32184
 20
466.195351
 30
0.0
 40
8.891885376414855
100
AcDbArc
 50
86.853372
 51
89.996594
  0
ARC
  5
16E
330
126
100
AcDbEntity
  8
0
  6
Continuous
 62
     0
370
    30
100
AcDbCircle
 10
429.312458
 20
466.08218
 30
0.0
 40
9.010632990667233
100
AcDbArc
 50
10.020015
 51
40.877836
  0
ARC
  5
16F
330
126
100
AcDbEntity
  8
0
  6
Continuous
 62
     0
370
    30
100
AcDbCircle
 10
449.582536
 20
426.753293
 30
0.0
 40
0.5000026251424894
100
AcDbArc
 50
280.000301
 51
9.99568
  0
LINE
  5
170
330
126
100
AcDbEntity
  8
0
  6
Continuous
 62
     0
370
    30
100
AcDbLine
 10
419.528793
 20
519.087239
 30
0.0
 11
433.389736
 21
519.087239
 31
0.0
  0
ARC
  5
171
330
126
100
AcDbEntity
  8
0
  6
Continuous
 62
     0
370
    30
100
AcDbCircle
 10
406.55182
 20
497.184714
 30
0.0
 40
20.49645508329419
100
AcDbArc
 50
273.831363
 51
284.031785
  0
ARC
  5
172
330
126
100
AcDbEntity
  8
0
  6
Continuous
 62
     0
370
    30
100
AcDbCircle
 10
406.551374
 20
496.979597
 30
0.0
 40
20.50030006072927
100
AcDbArc
 50
56.937142
 51
86.168108
  0
LINE
  5
173
330
126
100
AcDbEntity
  8
0
  6
Continuous
 62
     0
370
    30
100
AcDbLine
 10
407.921394
 20
474.984067
 30
0.0
 11
407.921394
 21
479.611822
 31
0.0
  0
LINE
  5
174
330
126
100
AcDbEntity
  8
0
  6
Continuous
 62
     0
370
    30
100
AcDbLine
 10
407.921394
 20
507.131263
 30
0.0
 11
407.921394
 21
519.184067
 31
0.0
  0
LINE
  5
175
330
126
100
AcDbEntity
  8
0
  6
Continuous
 62
     0
370
    30
100
AcDbLine
 10
407.921394
 20
479.611822
 30
0.0
 11
407.921394
 21
487.131263
 31
0.0
  0
LINE
  5
176
330
126
100
AcDbEntity
  8
0
  6
Continuous
 62
     0
370
    30
100
AcDbLine
 10
407.921394
 20
474.984067
 30
0.0
 11
404.921395
 21
474.984067
 31
0.0
  0
LINE
  5
177
330
126
100
AcDbEntity
  8
0
  6
Continuous
 62
     0
370
    30
100
AcDbLine
 10
407.921394
 20
519.184067
 30
0.0
 11
404.921395
 21
519.184067
 31
0.0
  0
LINE
  5
178
330
126
100
AcDbEntity
  8
0
  6
Continuous
 62
     0
370
    30
100
AcDbLine
 10
422.04405
 20
474.88285
 30
0.0
 11
426.672225
 21
474.761657
 31
0.0
  0
ARC
  5
179
330
126
100
AcDbEntity
  8
0
  6
Continuous
 62
     0
370
    30
100
AcDbCircle
 10
426.678769
 20
475.011571
 30
0.0
 40
0.2499999999947816
100
AcDbArc
 50
268.5
 51
352.0
  0
ARC
  5
17A
330
126
100
AcDbEntity
  8
0
  6
Continuous
 62
     0
370
    30
100
AcDbCircle
 10
422.050601
 20
475.132737
 30
0.0
 40
0.2499732245156972
100
AcDbArc
 50
190.487051
 51
268.498437
  0
LINE
  5
17B
330
126
100
AcDbEntity
  8
0
  6
Continuous
 62
     0
370
    30
100
AcDbLine
 10
421.803028
 20
475.167557
 30
0.0
 11
426.926336
 21
474.976778
 31
0.0
  0
ENDBLK
  5
17D
330
126
100
AcDbEntity
  8
0
100
AcDbBlockEnd
  0
BLOCK
  5
1E6
330
17F
100
AcDbEntity
  8
0
100
AcDbBlockBegin
  2
d
 70
     0
 10
175.78981
 20
0.0
 30
0.0
  3
d
  1

  0
LINE
  5
180
330
17F
100
AcDbEntity
  8
0
  6
Continuous
 62
     0
370
    30
100
AcDbLine
 10
-76.11236
 20
507.131256
 30
0.0
 11
-95.112359
 21
507.131256
 31
0.0
  0
LWPOLYLINE
  5
181
330
17F
100
AcDbEntity
  8
0
  6
Continuous
 62
     0
370
     0
100
AcDbPolyline
 90
       27
 70
     0
 43
0.0
 10
-96.612358
 20
505.631256
 10
-96.575005
 20
505.631256
 10
-96.463234
 20
505.631256
 10
-96.277496
 20
505.631256
 10
-96.01828
 20
505.631256
 10
-95.686623
 20
505.631256
 10
-95.283836
 20
505.631256
 10
-94.811241
 20
505.631256
 10
-94.270554
 20
505.631256
 10
-93.663872
 20
505.631256
 10
-92.993324
 20
505.631256
 10
-92.261261
 20
505.631256
 10
-91.470497
 20
505.631256
 10
-90.623901
 20
505.631256
 10
-89.724426
 20
505.631256
 10
-88.775436
 20
505.631256
 10
-87.780403
 20
505.631256
 10
-86.742828
 20
505.631256
 10
-85.666565
 20
505.631256
 10
-84.555641
 20
505.631256
 10
-83.414093
 20
505.631256
 10
-82.245995
 20
505.631256
 10
-81.055428
 20
505.631256
 10
-79.846497
 20
505.631256
 10
-78.62365
 20
505.631256
 10
-77.392097
 20
505.631256
 10
-76.112358
 20
505.631256
  0
LINE
  5
182
330
17F
100
AcDbEntity
  8
0
  6
Continuous
 62
     0
370
     0
100
AcDbLine
 10
-76.11236
 20
505.631256
 30
0.0
 11
-76.11236
 21
507.131256
 31
0.0
  0
LWPOLYLINE
  5
183
330
17F
100
AcDbEntity
  8
0
  6
Continuous
 62
     0
370
     0
100
AcDbPolyline
 90
       14
 70
     0
 43
0.0
 10
-85.227829
 20
499.487579
 10
-84.565514
 20
499.418457
 10
-83.888367
 20
499.407867
 10
-83.202271
 20
499.43457
 10
-82.509018
 20
499.490906
 10
-81.809769
 20
499.571838
 10
-81.105804
 20
499.673462
 10
-80.39814
 20
499.793121
 10
-79.687813
 20
499.928741
 10
-78.975861
 20
500.078552
 10
-78.263153
 20
500.241119
 10
-77.550522
 20
500.415253
 10
-76.83876
 20
500.599823
 10
-76.112358
 20
500.798431
  0
LINE
  5
184
330
17F
100
AcDbEntity
  8
0
  6
Continuous
 62
     0
370
     0
100
AcDbLine
 10
-76.11236
 20
500.79844
 30
0.0
 11
-76.11236
 21
505.631256
 31
0.0
  0
LWPOLYLINE
  5
185
330
17F
100
AcDbEntity
  8
0
  6
Continuous
 62
     0
370
     0
100
AcDbPolyline
 90
       19
 70
     0
 43
0.0
 10
-96.612358
 20
499.131378
 10
-96.57338
 20
499.129913
 10
-96.456718
 20
499.126526
 10
-96.262787
 20
499.12262
 10
-95.992226
 20
499.119537
 10
-95.64621
 20
499.118439
 10
-95.225975
 20
499.120361
 10
-94.733086
 20
499.126251
 10
-94.169563
 20
499.136932
 10
-93.537476
 20
499.153107
 10
-92.839279
 20
499.174957
 10
-92.077728
 20
499.202118
 10
-91.255646
 20
499.234314
 10
-90.376297
 20
499.270874
 10
-89.443024
 20
499.311127
 10
-88.459282
 20
499.354065
 10
-87.428574
 20
499.398438
 10
-86.354851
 20
499.443085
 10
-85.227829
 20
499.487579
  0
LWPOLYLINE
  5
186
330
17F
100
AcDbEntity
  8
0
  6
Continuous
 62
     0
370
     0
100
AcDbPolyline
 90
       20
 70
     0
 43
0.0
 10
-76.112358
 20
500.798431
 10
-76.425034
 20
500.104889
 10
-76.730614
 20
499.400726
 10
-77.028465
 20
498.68811
 10
-77.318024
 20
497.969147
 10
-77.598793
 20
497.246063
 10
-77.870186
 20
496.521576
 10
-78.131615
 20
495.798645
 10
-78.382507
 20
495.080566
 10
-78.622261
 20
494.370941
 10
-78.850266
 20
493.673889
 10
-79.065918
 20
492.993774
 10
-79.268639
 20
492.335358
 10
-79.457848
 20
491.703705
 10
-79.632935
 20
491.104523
 10
-79.793205
 20
490.544495
 10
-79.937981
 20
490.030304
 10
-80.066917
 20
489.568054
 10
-80.179581
 20
489.164703
 10
-80.277855
 20
488.819519
  0
LWPOLYLINE
  5
187
330
17F
100
AcDbEntity
  8
0
  6
Continuous
 62
     0
370
     0
100
AcDbPolyline
 90
       17
 70
     0
 43
0.0
 10
-80.277855
 20
488.819519
 10
-80.694572
 20
489.085083
 10
-81.109604
 20
489.420624
 10
-81.519691
 20
489.823395
 10
-81.921562
 20
490.29068
 10
-82.312111
 20
490.819458
 10
-82.688812
 20
491.405945
 10
-83.049332
 20
492.045929
 10
-83.391312
 20
492.735321
 10
-83.712486
 20
493.469818
 10
-84.010849
 20
494.244598
 10
-84.284485
 20
495.054535
 10
-84.531487
 20
495.894592
 10
-84.750023
 20
496.75943
 10
-84.938713
 20
497.642395
 10
-85.096283
 20
498.536438
 10
-85.227829
 20
499.487579
  0
LINE
  5
188
330
17F
100
AcDbEntity
  8
0
  6
Continuous
 62
     0
370
     0
100
AcDbLine
 10
-80.277857
 20
488.819505
 30
0.0
 11
-80.505283
 21
488.764766
 31
0.0
  0
LWPOLYLINE
  5
189
330
17F
100
AcDbEntity
  8
0
  6
Continuous
 62
     0
370
    30
100
AcDbPolyline
 90
       17
 70
     0
 43
0.0
 10
-80.50528
 20
488.764771
 10
-81.340904
 20
488.664185
 10
-82.147911
 20
488.559967
 10
-82.922455
 20
488.455597
 10
-83.660286
 20
488.353455
 10
-84.357338
 20
488.255859
 10
-85.009674
 20
488.164612
 10
-85.613411
 20
488.081146
 10
-86.164948
 20
488.006165
 10
-86.660835
 20
487.940094
 10
-87.097946
 20
487.883179
 10
-87.473465
 20
487.835571
 10
-87.784843
 20
487.797302
 10
-88.030235
 20
487.768036
 10
-88.208015
 20
487.747345
 10
-88.317024
 20
487.734894
 10
-88.356735
 20
487.730408
  0
LINE
  5
18A
330
17F
100
AcDbEntity
  8
0
  6
Continuous
 62
     0
370
    30
100
AcDbLine
 10
-76.11236
 20
507.131256
 30
0.0
 11
104.191588
 21
507.131256
 31
0.0
  0
LINE
  5
18B
330
17F
100
AcDbEntity
  8
0
  6
Continuous
 62
     0
370
     0
100
AcDbLine
 10
100.962732
 20
488.819505
 30
0.0
 11
-71.928784
 21
488.819505
 31
0.0
  0
LWPOLYLINE
  5
18C
330
17F
100
AcDbEntity
  8
0
  6
Continuous
 62
     0
370
    30
100
AcDbPolyline
 90
       17
 70
     0
 43
0.0
 10
-71.928787
 20
488.819519
 10
-71.053299
 20
488.718292
 10
-70.207909
 20
488.601746
 10
-69.399162
 20
488.473083
 10
-68.632324
 20
488.335449
 10
-67.910309
 20
488.192078
 10
-67.236656
 20
488.046356
 10
-66.61515
 20
487.901733
 10
-66.048889
 20
487.761536
 10
-65.540802
 20
487.628967
 10
-65.093781
 20
487.507019
 10
-64.710663
 20
487.398529
 10
-64.393578
 20
487.306091
 10
-64.144173
 20
487.231842
 10
-63.963844
 20
487.177155
 10
-63.853897
 20
487.14325
 10
-63.815617
 20
487.131256
  0
LINE
  5
18D
330
17F
100
AcDbEntity
  8
0
  6
Continuous
 62
     0
370
    30
100
AcDbLine
 10
-80.505283
 20
488.764754
 30
0.0
 11
-80.00053
 21
488.819505
 31
0.0
  0
LINE
  5
18E
330
17F
100
AcDbEntity
  8
0
  6
Continuous
 62
     0
370
     0
100
AcDbLine
 10
-80.00053
 20
488.819505
 30
0.0
 11
-80.277857
 21
488.819505
 31
0.0
  0
LWPOLYLINE
  5
18F
330
17F
100
AcDbEntity
  8
0
  6
Continuous
 62
     0
370
    30
100
AcDbPolyline
 90
        7
 70
     0
 43
0.0
 10
-80.000526
 20
488.819519
 10
-78.720528
 20
488.934113
 10
-77.404991
 20
489.012238
 10
-76.071358
 20
489.042511
 10
-74.736206
 20
489.021698
 10
-73.416237
 20
488.950867
 10
-71.928787
 20
488.819519
  0
LINE
  5
190
330
17F
100
AcDbEntity
  8
0
  6
Continuous
 62
     0
370
     0
100
AcDbLine
 10
103.074942
 20
500.79844
 30
0.0
 11
-76.11236
 21
500.79844
 31
0.0
  0
LINE
  5
191
330
17F
100
AcDbEntity
  8
0
  6
Continuous
 62
     0
370
     0
100
AcDbLine
 10
103.927097
 20
505.631256
 30
0.0
 11
-76.11236
 21
505.631256
 31
0.0
  0
LINE
  5
192
330
17F
100
AcDbEntity
  8
0
  6
Continuous
 62
     0
370
    30
100
AcDbLine
 10
100.665049
 20
487.131256
 30
0.0
 11
-63.815617
 21
487.131256
 31
0.0
  0
LWPOLYLINE
  5
193
330
17F
100
AcDbEntity
  8
0
  6
Continuous
 62
     0
370
    30
100
AcDbPolyline
 90
       18
 70
     0
 43
0.0
 10
-96.612358
 20
499.131256
 10
-96.579903
 20
498.250214
 10
-96.482834
 20
497.373627
 10
-96.321754
 20
496.506653
 10
-96.097496
 20
495.653961
 10
-95.811081
 20
494.820007
 10
-95.464233
 20
494.009308
 10
-95.058861
 20
493.226227
 10
-94.597069
 20
492.475037
 10
-94.081291
 20
491.759857
 10
-93.514336
 20
491.084503
 10
-92.899437
 20
490.452515
 10
-92.239853
 20
489.86731
 10
-91.539001
 20
489.332184
 10
-90.80072
 20
488.850037
 10
-90.029022
 20
488.423401
 10
-89.228111
 20
488.054535
 10
-88.356735
 20
487.730408
  0
LINE
  5
194
330
17F
100
AcDbEntity
  8
0
  6
Continuous
 62
     0
370
    30
100
AcDbLine
 10
-96.612359
 20
505.631256
 30
0.0
 11
-96.612359
 21
499.131373
 31
0.0
  0
ARC
  5
195
330
17F
100
AcDbEntity
  8
0
  6
Continuous
 62
     0
370
    30
100
AcDbCircle
 10
-95.112334
 20
505.63123
 30
0.0
 40
1.500025465219054
100
AcDbArc
 50
90.004792
 51
179.999027
  0
LINE
  5
196
330
17F
100
AcDbEntity
  8
0
  6
Continuous
 62
     0
370
    30
100
AcDbLine
 10
-85.348937
 20
487.688384
 30
0.0
 11
-85.27268
 21
487.681712
 31
0.0
  0
LINE
  5
197
330
17F
100
AcDbEntity
  8
0
  6
Continuous
 62
     0
370
    30
100
AcDbLine
 10
-85.27268
 20
487.681712
 30
0.0
 11
-66.919336
 21
486.076003
 31
0.0
  0
LINE
  5
198
330
17F
100
AcDbEntity
  8
0
  6
Continuous
 62
     0
370
    30
100
AcDbLine
 10
-66.756648
 20
487.935525
 30
0.0
 11
-66.919336
 21
486.076003
 31
0.0
  0
LINE
  5
199
330
17F
100
AcDbEntity
  8
0
  6
Continuous
 62
     0
370
    30
100
AcDbLine
 10
-85.310932
 20
488.122789
 30
0.0
 11
-85.348937
 21
487.688384
 31
0.0
  0
ARC
  5
19A
330
17F
100
AcDbEntity
  8
0
  6
Continuous
 62
     0
370
    30
100
AcDbCircle
 10
106.719296
 20
518.587231
 30
0.0
 40
0.4999999999984978
100
AcDbArc
 50
90.0
 51
170.0
  0
LINE
  5
19B
330
17F
100
AcDbEntity
  8
0
  6
Continuous
 62
     0
370
    30
100
AcDbLine
 10
90.034089
 20
426.840107
 30
0.0
 11
93.501874
 21
446.506896
 31
0.0
  0
LINE
  5
19C
330
17F
100
AcDbEntity
  8
0
  6
Continuous
 62
     0
370
    30
100
AcDbLine
 10
93.501874
 20
446.506896
 30
0.0
 11
102.389111
 21
496.908924
 31
0.0
  0
LINE
  5
19D
330
17F
100
AcDbEntity
  8
0
  6
Continuous
 62
     0
370
    30
100
AcDbLine
 10
102.389111
 20
496.908924
 30
0.0
 11
102.690835
 21
498.620086
 31
0.0
  0
LINE
  5
19E
330
17F
100
AcDbEntity
  8
0
  6
Continuous
 62
     0
370
    30
100
AcDbLine
 10
102.690836
 20
498.620087
 30
0.0
 11
106.226892
 21
518.674055
 31
0.0
  0
LWPOLYLINE
  5
19F
330
17F
100
AcDbEntity
  8
0
  6
Continuous
 62
     0
370
     0
100
AcDbPolyline
 90
        9
 70
     0
 43
0.0
 10
105.096382
 20
496.667725
 10
104.869324
 20
496.697327
 10
104.611511
 20
496.720306
 10
104.340607
 20
496.739532
 10
104.062531
 20
496.756378
 10
103.779984
 20
496.771484
 10
103.4944
 20
496.785309
 10
103.206604
 20
496.798126
 10
102.879669
 20
496.811615
  0
LINE
  5
1A0
330
17F
100
AcDbEntity
  8
0
  6
Continuous
 62
     0
370
     0
100
AcDbLine
 10
102.879666
 20
496.811612
 30
0.0
 11
103.18324
 21
498.566888
 31
0.0
  0
LWPOLYLINE
  5
1A1
330
17F
100
AcDbEntity
  8
0
  6
Continuous
 62
     0
370
     0
100
AcDbPolyline
 90
       11
 70
     0
 43
0.0
 10
103.183243
 20
498.566895
 10
103.394493
 20
498.467041
 10
103.604759
 20
498.361969
 10
103.813812
 20
498.250732
 10
104.021324
 20
498.132202
 10
104.226822
 20
498.004791
 10
104.429588
 20
497.866241
 10
104.628464
 20
497.713379
 10
104.821388
 20
497.540955
 10
105.004234
 20
497.340179
 10
105.170349
 20
497.087219
  0
LINE
  5
1A2
330
17F
100
AcDbEntity
  8
0
  6
Continuous
 62
     0
370
     0
100
AcDbLine
 10
105.170347
 20
497.087231
 30
0.0
 11
105.096379
 21
496.667738
 31
0.0
  0
LINE
  5
1A3
330
17F
100
AcDbEntity
  8
0
  6
Continuous
 62
     0
370
    30
100
AcDbLine
 10
128.587639
 20
475.087231
 30
0.0
 11
118.304229
 21
475.087231
 31
0.0
  0
LINE
  5
1A4
330
17F
100
AcDbEntity
  8
0
  6
Continuous
 62
     0
370
    30
100
AcDbLine
 10
113.249954
 20
475.087231
 30
0.0
 11
110.786663
 21
475.087231
 31
0.0
  0
LWPOLYLINE
  5
1A5
330
17F
100
AcDbEntity
  8
0
  6
Continuous
 62
     0
370
     0
100
AcDbPolyline
 90
       27
 70
     0
 43
0.0
 10
106.719299
 20
519.087219
 10
106.713181
 20
519.049744
 10
106.69397
 20
518.937683
 10
106.66188
 20
518.751831
 10
106.617142
 20
518.49292
 10
106.559975
 20
518.161743
 10
106.490623
 20
517.759644
 10
106.409348
 20
517.288208
 10
106.316406
 20
516.749146
 10
106.212173
 20
516.144531
 10
106.097076
 20
515.476685
 10
105.971504
 20
514.747864
 10
105.835808
 20
513.960205
 10
105.690392
 20
513.116272
 10
105.535843
 20
512.219482
 10
105.372757
 20
511.273071
 10
105.201714
 20
510.280487
 10
105.023315
 20
509.245178
 10
104.838135
 20
508.170502
 10
104.646767
 20
507.059967
 10
104.44986
 20
505.917297
 10
104.248077
 20
504.746338
 10
104.042076
 20
503.550873
 10
103.832497
 20
502.334625
 10
103.61998
 20
501.101379
 10
103.405258
 20
499.855316
 10
103.183243
 20
498.566895
  0
LINE
  5
1A6
330
17F
100
AcDbEntity
  8
0
  6
Continuous
 62
     0
370
     0
100
AcDbLine
 10
105.170347
 20
497.087231
 30
0.0
 11
115.762439
 21
497.087231
 31
0.0
  0
LWPOLYLINE
  5
1A7
330
17F
100
AcDbEntity
  8
0
  6
Continuous
 62
     0
370
     0
100
AcDbPolyline
 90
       30
 70
     0
 43
0.0
 10
115.762436
 20
497.087219
 10
115.368698
 20
495.946869
 10
114.995468
 20
494.802368
 10
114.643593
 20
493.657471
 10
114.313423
 20
492.515747
 10
114.00518
 20
491.38089
 10
113.718765
 20
490.256592
 10
113.453934
 20
489.146667
 10
113.210258
 20
488.055023
 10
112.986931
 20
486.98587
 10
112.783089
 20
485.94339
 10
112.597778
 20
484.931641
 10
112.429604
 20
483.953766
 10
112.277054
 20
483.012787
 10
112.138634
 20
482.112122
 10
112.012878
 20
481.255219
 10
111.898209
 20
480.445068
 10
111.792953
 20
479.68396
 10
111.695625
 20
478.974365
 10
111.604691
 20
478.318634
 10
111.518532
 20
477.718994
 10
111.436317
 20
477.177307
 10
111.355331
 20
476.69516
 10
111.263222
 20
476.274384
 10
111.158859
 20
475.916046
 10
111.051964
 20
475.620911
 10
110.95163
 20
475.389801
 10
110.867493
 20
475.223389
 10
110.809265
 20
475.122345
 10
110.786659
 20
475.087219
  0
LWPOLYLINE
  5
1A8
330
17F
100
AcDbEntity
  8
0
  6
Continuous
 62
     0
370
    30
100
AcDbPolyline
 90
       15
 70
     0
 43
0.0
 10
113.249954
 20
475.087219
 10
113.288872
 20
475.091583
 10
113.401787
 20
475.104065
 10
113.587219
 20
475.123169
 10
113.839287
 20
475.146606
 10
114.150108
 20
475.171478
 10
114.509933
 20
475.194733
 10
114.908554
 20
475.213562
 10
115.333801
 20
475.225739
 10
115.771576
 20
475.229706
 10
116.208862
 20
475.225098
 10
116.632858
 20
475.212494
 10
117.030418
 20
475.193542
 10
117.390152
 20
475.17041
 10
117.708511
 20
475.145294
  0
LINE
  5
1A9
330
17F
100
AcDbEntity
  8
0
  6
Continuous
 62
     0
370
    30
100
AcDbLine
 10
128.587639
 20
475.087231
 30
0.0
 11
128.587639
 21
497.087231
 31
0.0
  0
LINE
  5
1AA
330
17F
100
AcDbEntity
  8
0
  6
Continuous
 62
     0
370
    30
100
AcDbLine
 10
128.587638
 20
497.087231
 30
0.0
 11
120.580239
 21
519.087231
 31
0.0
  0
LWPOLYLINE
  5
1AB
330
17F
100
AcDbEntity
  8
0
  6
Continuous
 62
     0
370
     0
100
AcDbPolyline
 90
        5
 70
     0
 43
0.0
 10
102.690834
 20
498.620087
 10
102.72934
 20
498.625977
 10
102.834831
 20
498.618195
 10
102.99173
 20
498.59787
 10
103.183243
 20
498.566895
  0
LWPOLYLINE
  5
1AC
330
17F
100
AcDbEntity
  8
0
  6
Continuous
 62
     0
370
     0
100
AcDbPolyline
 90
        5
 70
     0
 43
0.0
 10
102.879669
 20
496.811615
 10
102.69239
 20
496.845459
 10
102.533585
 20
496.875763
 10
102.427147
 20
496.89801
 10
102.389114
 20
496.908936
  0
ELLIPSE
  5
1AD
330
17F
100
AcDbEntity
  8
0
  6
Continuous
 62
     0
370
     0
100
AcDbEllipse
 10
93.994277
 20
446.420072
 30
0.0
 11
-0.4924038759103435
 21
0.08682409221220258
 31
0.0
210
0.0
220
0.0
230
1.0
 40
0.021298
 41
-0.0000000427315312
 42
1.570796284063995
  0
LINE
  5
1AE
330
17F
100
AcDbEntity
  8
0
  6
Continuous
 62
     0
370
     0
100
AcDbLine
 10
93.992428
 20
446.409585
 30
0.0
 11
102.879666
 21
496.811612
 31
0.0
  0
LINE
  5
1AF
330
17F
100
AcDbEntity
  8
0
  6
Continuous
 62
     0
370
     0
100
AcDbLine
 10
90.439669
 20
426.260879
 30
0.0
 11
93.992428
 21
446.409585
 31
0.0
  0
ARC
  5
1B0
330
17F
100
AcDbEntity
  8
0
  6
Continuous
 62
     0
370
    30
100
AcDbCircle
 10
110.785885
 20
466.088754
 30
0.0
 40
8.998244356906566
100
AcDbArc
 50
93.100544
 51
139.084989
  0
LINE
  5
1B1
330
17F
100
AcDbEntity
  8
0
  6
Continuous
 62
     0
370
     0
100
AcDbLine
 10
101.78434
 20
474.749808
 30
0.0
 11
96.791427
 21
445.948486
 31
0.0
  0
LWPOLYLINE
  5
1B2
330
17F
100
AcDbEntity
  8
0
  6
Continuous
 62
     0
370
     0
100
AcDbPolyline
 90
       24
 70
     0
 43
0.0
 10
96.791428
 20
445.948486
 10
96.581886
 20
444.70282
 10
96.386086
 20
443.463593
 10
96.20491
 20
442.239044
 10
96.038704
 20
441.035828
 10
95.887604
 20
439.860382
 10
95.751465
 20
438.718842
 10
95.630043
 20
437.61734
 10
95.522827
 20
436.56134
 10
95.429176
 20
435.556061
 10
95.348305
 20
434.60614
 10
95.279297
 20
433.715698
 10
95.221191
 20
432.888611
 10
95.172989
 20
432.12796
 10
95.133629
 20
431.436401
 10
95.102089
 20
430.816528
 10
95.077332
 20
430.270111
 10
95.058388
 20
429.797546
 10
95.044304
 20
429.399078
 10
95.03418
 20
429.074524
 10
95.027267
 20
428.823364
 10
95.022987
 20
428.644592
 10
95.020775
 20
428.537018
 10
95.020088
 20
428.499481
  0
LWPOLYLINE
  5
1B3
330
17F
100
AcDbEntity
  8
0
  6
Continuous
 62
     0
370
     0
100
AcDbPolyline
 90
       17
 70
     0
 43
0.0
 10
101.923393
 20
467.650055
 10
101.920143
 20
467.668091
 10
101.91114
 20
467.725708
 10
101.897606
 20
467.828796
 10
101.880768
 20
467.983246
 10
101.861847
 20
468.195007
 10
101.842102
 20
468.469452
 10
101.822914
 20
468.810852
 10
101.805946
 20
469.22403
 10
101.792313
 20
469.710266
 10
101.780884
 20
470.25943
 10
101.771812
 20
470.867584
 10
101.765694
 20
471.532837
 10
101.763184
 20
472.253235
 10
101.764931
 20
473.026703
 10
101.771614
 20
473.851044
 10
101.78434
 20
474.749817
  0
LWPOLYLINE
  5
1B4
330
17F
100
AcDbEntity
  8
0
  6
Continuous
 62
     0
370
     0
100
AcDbPolyline
 90
       27
 70
     0
 43
0.0
 10
91.54493
 20
426.065979
 10
91.554115
 20
426.102112
 10
91.580956
 20
426.210144
 10
91.62439
 20
426.389832
 10
91.683357
 20
426.6409
 10
91.756836
 20
426.962708
 10
91.843826
 20
427.353821
 10
91.943352
 20
427.812775
 10
92.054436
 20
428.338013
 10
92.176186
 20
428.927826
 10
92.307793
 20
429.580261
 10
92.448624
 20
430.293457
 10
92.598114
 20
431.065369
 10
92.75576
 20
431.893036
 10
92.921089
 20
432.773407
 10
93.09359
 20
433.703308
 10
93.272781
 20
434.679352
 10
93.458122
 20
435.697662
 10
93.649117
 20
436.754272
 10
93.84523
 20
437.845215
 10
94.046021
 20
438.966644
 10
94.251091
 20
440.114777
 10
94.459869
 20
441.286407
 10
94.671631
 20
442.478607
 10
94.885269
 20
443.686676
 10
95.099518
 20
444.904968
 10
95.321327
 20
446.175262
  0
LINE
  5
1B5
330
17F
100
AcDbEntity
  8
0
  6
Continuous
 62
     0
370
     0
100
AcDbLine
 10
95.321328
 20
446.175264
 30
0.0
 11
93.992428
 21
446.409585
 31
0.0
  0
LINE
  5
1B6
330
17F
100
AcDbEntity
  8
0
  6
Continuous
 62
     0
370
     0
100
AcDbLine
 10
95.321328
 20
446.175264
 30
0.0
 11
100.315071
 21
474.976439
 31
0.0
  0
LWPOLYLINE
  5
1B7
330
17F
100
AcDbEntity
  8
0
  6
Continuous
 62
     0
370
     0
100
AcDbPolyline
 90
       19
 70
     0
 43
0.0
 10
100.315071
 20
474.97644
 10
100.56897
 20
476.349335
 10
100.861214
 20
477.710999
 10
101.201691
 20
479.055664
 10
101.597725
 20
480.378387
 10
102.05439
 20
481.674835
 10
102.574707
 20
482.941284
 10
103.160172
 20
484.174469
 10
103.811028
 20
485.371643
 10
104.526688
 20
486.530579
 10
105.303696
 20
487.64975
 10
106.135155
 20
488.728699
 10
107.016083
 20
489.76712
 10
107.941772
 20
490.765228
 10
108.907661
 20
491.723877
 10
109.909058
 20
492.644592
 10
110.940582
 20
493.530548
 10
111.994667
 20
494.388397
 10
113.084244
 20
495.259247
  0
LINE
  5
1B8
330
17F
100
AcDbEntity
  8
0
  6
Continuous
 62
     0
370
     0
100
AcDbLine
 10
113.084244
 20
495.259262
 30
0.0
 11
105.096379
 21
496.667738
 31
0.0
  0
ARC
  5
1B9
330
17F
100
AcDbEntity
  8
0
  6
Continuous
 62
     0
370
     0
100
AcDbCircle
 10
925.250708
 20
-145.728469
 30
0.0
 40
1033.67464939333
100
AcDbArc
 50
141.546865
 51
141.708084
  0
ARC
  5
1BA
330
17F
100
AcDbEntity
  8
0
  6
Continuous
 62
     0
370
     0
100
AcDbCircle
 10
118.997374
 20
490.782128
 30
0.0
 40
6.45024512775447
100
AcDbArc
 50
141.392735
 51
145.139144
  0
LWPOLYLINE
  5
1BB
330
17F
100
AcDbEntity
  8
0
  6
Continuous
 62
     0
370
     0
100
AcDbPolyline
 90
       21
 70
     0
 43
0.0
 10
113.704674
 20
494.468994
 10
113.026688
 20
493.525055
 10
112.329536
 20
492.596863
 10
111.622925
 20
491.677582
 10
110.911812
 20
490.763184
 10
110.198692
 20
489.851196
 10
109.485916
 20
488.939331
 10
108.775902
 20
488.025208
 10
108.071144
 20
487.106262
 10
107.37429
 20
486.180054
 10
106.688881
 20
485.243805
 10
106.018799
 20
484.294556
 10
105.368607
 20
483.329468
 10
104.745743
 20
482.345276
 10
104.158386
 20
481.338806
 10
103.614578
 20
480.307343
 10
103.121849
 20
479.250183
 10
102.687607
 20
478.167114
 10
102.318527
 20
477.059082
 10
102.01857
 20
475.931458
 10
101.78434
 20
474.749817
  0
ARC
  5
1BC
330
17F
100
AcDbEntity
  8
0
  6
Continuous
 62
     0
370
     0
100
AcDbCircle
 10
117.827851
 20
491.248655
 30
0.0
 40
6.211825244512976
100
AcDbArc
 50
135.124148
 51
139.786275
  0
LINE
  5
1BD
330
17F
100
AcDbEntity
  8
0
  6
Continuous
 62
     0
370
     0
100
AcDbLine
 10
113.42592
 20
495.631551
 30
0.0
 11
105.170347
 21
497.087231
 31
0.0
  0
ARC
  5
1BE
330
17F
100
AcDbEntity
  8
0
  6
Continuous
 62
     0
370
     0
100
AcDbCircle
 10
138.99323
 20
457.196355
 30
0.0
 40
46.16223181565738
100
AcDbArc
 50
120.214747
 51
123.632076
  0
LINE
  5
1BF
330
17F
100
AcDbEntity
  8
0
  6
Continuous
 62
     0
370
     0
100
AcDbLine
 10
113.42592
 20
495.631551
 30
0.0
 11
113.956852
 21
494.806996
 31
0.0
  0
LINE
  5
1C0
330
17F
100
AcDbEntity
  8
0
  6
Continuous
 62
     0
370
     0
100
AcDbLine
 10
113.084244
 20
495.259262
 30
0.0
 11
113.704628
 21
494.469064
 31
0.0
  0
LWPOLYLINE
  5
1C1
330
17F
100
AcDbEntity
  8
0
  6
Continuous
 62
     0
370
     0
100
AcDbPolyline
 90
        8
 70
     0
 43
0.0
 10
100.315071
 20
474.97644
 10
100.609314
 20
474.926086
 10
100.89286
 20
474.878876
 10
101.152962
 20
474.836884
 10
101.379547
 20
474.801819
 10
101.563789
 20
474.774963
 10
101.698189
 20
474.757477
 10
101.78434
 20
474.749817
  0
LWPOLYLINE
  5
1C2
330
17F
100
AcDbEntity
  8
0
  6
Continuous
 62
     0
370
     0
100
AcDbPolyline
 90
        8
 70
     0
 43
0.0
 10
96.791428
 20
445.948486
 10
96.72213
 20
445.954163
 10
96.596436
 20
445.970032
 10
96.419395
 20
445.995483
 10
96.19841
 20
446.029449
 10
95.942116
 20
446.070587
 10
95.660484
 20
446.11731
 10
95.321327
 20
446.175262
  0
ARC
  5
1C3
330
17F
100
AcDbEntity
  8
0
  6
Continuous
 62
     0
370
    30
100
AcDbCircle
 10
92.065595
 20
429.020558
 30
0.0
 40
3.000092123233678
100
AcDbArc
 50
260.001759
 51
349.99824
  0
ARC
  5
1C4
330
17F
100
AcDbEntity
  8
0
  6
Continuous
 62
     0
370
    30
100
AcDbCircle
 10
110.795412
 20
466.082723
 30
0.0
 40
9.009393161376721
100
AcDbArc
 50
139.095682
 51
169.982147
  0
ARC
  5
1C5
330
17F
100
AcDbEntity
  8
0
  6
Continuous
 62
     0
370
    30
100
AcDbCircle
 10
110.787192
 20
466.195354
 30
0.0
 40
8.891874092466033
100
AcDbArc
 50
90.003404
 51
93.146101
  0
LINE
  5
1C6
330
17F
100
AcDbEntity
  8
0
  6
Continuous
 62
     0
370
    30
100
AcDbLine
 10
90.439669
 20
426.260879
 30
0.0
 11
91.544932
 21
426.065991
 31
0.0
  0
LINE
  5
1C7
330
17F
100
AcDbEntity
  8
0
  6
Continuous
 62
     0
370
    30
100
AcDbLine
 10
101.923393
 20
467.650065
 30
0.0
 11
95.020128
 21
428.499706
 31
0.0
  0
ARC
  5
1C8
330
17F
100
AcDbEntity
  8
0
  6
Continuous
 62
     0
370
    30
100
AcDbCircle
 10
90.526496
 20
426.753285
 30
0.0
 40
0.5000026251390538
100
AcDbArc
 50
170.00432
 51
259.999699
  0
LINE
  5
1C9
330
17F
100
AcDbEntity
  8
0
  6
Continuous
 62
     0
370
    30
100
AcDbLine
 10
120.580239
 20
519.087231
 30
0.0
 11
106.719296
 21
519.087231
 31
0.0
  0
LINE
  5
1CA
330
17F
100
AcDbEntity
  8
0
  6
Continuous
 62
     0
370
     0
100
AcDbLine
 10
132.187636
 20
495.08406
 30
0.0
 11
131.687636
 21
495.08406
 31
0.0
  0
LINE
  5
1CB
330
17F
100
AcDbEntity
  8
0
  6
Continuous
 62
     0
370
     0
100
AcDbLine
 10
131.687636
 20
495.08406
 30
0.0
 11
131.687636
 21
499.08406
 31
0.0
  0
LINE
  5
1CC
330
17F
100
AcDbEntity
  8
0
  6
Continuous
 62
     0
370
     0
100
AcDbLine
 10
131.687636
 20
499.08406
 30
0.0
 11
132.187636
 21
499.08406
 31
0.0
  0
ARC
  5
1CD
330
17F
100
AcDbEntity
  8
0
  6
Continuous
 62
     0
370
    30
100
AcDbCircle
 10
133.557212
 20
497.184706
 30
0.0
 40
20.49645508329384
100
AcDbArc
 50
255.968215
 51
266.168637
  0
ARC
  5
1CE
330
17F
100
AcDbEntity
  8
0
  6
Continuous
 62
     0
370
    30
100
AcDbCircle
 10
133.557658
 20
496.97959
 30
0.0
 40
20.50030006073291
100
AcDbArc
 50
93.831892
 51
123.062858
  0
LINE
  5
1CF
330
17F
100
AcDbEntity
  8
0
  6
Continuous
 62
     0
370
    30
100
AcDbLine
 10
135.187636
 20
469.074394
 30
0.0
 11
135.187636
 21
467.631256
 31
0.0
  0
LWPOLYLINE
  5
1D0
330
17F
100
AcDbEntity
  8
0
  6
Continuous
 62
     0
370
    30
100
AcDbPolyline
 90
       58
 70
     0
 43
0.0
 10
135.187637
 20
526.631226
 10
135.187637
 20
526.595154
 10
135.187637
 20
526.485535
 10
135.187637
 20
526.300415
 10
135.187637
 20
526.038574
 10
135.187637
 20
525.699402
 10
135.187637
 20
525.282593
 10
135.187637
 20
524.788818
 10
135.187637
 20
524.219177
 10
135.187637
 20
523.5755
 10
135.187637
 20
522.860046
 10
135.187637
 20
522.075928
 10
135.187637
 20
521.226562
 10
135.187637
 20
520.315979
 10
135.187637
 20
519.348694
 10
135.187637
 20
518.329407
 10
135.187637
 20
517.263245
 10
135.187637
 20
516.155518
 10
135.187637
 20
515.011658
 10
135.187637
 20
513.837158
 10
135.187637
 20
512.637573
 10
135.187637
 20
511.418182
 10
135.187637
 20
510.184326
 10
135.187637
 20
508.941101
 10
135.187637
 20
507.693329
 10
135.187637
 20
506.445557
 10
135.187637
 20
505.18573
 10
135.187637
 20
503.887573
 10
135.187637
 20
502.553101
 10
135.187637
 20
501.185425
 10
135.187637
 20
499.788147
 10
135.187637
 20
498.365234
 10
135.187637
 20
496.921143
 10
135.187637
 20
495.460632
 10
135.187637
 20
493.988953
 10
135.187637
 20
492.511566
 10
135.187637
 20
491.03418
 10
135.187637
 20
489.562775
 10
135.187637
 20
488.103394
 10
135.187637
 20
486.662079
 10
135.187637
 20
485.244873
 10
135.187637
 20
483.857666
 10
135.187637
 20
482.506226
 10
135.187637
 20
481.195892
 10
135.187637
 20
479.931732
 10
135.187637
 20
478.718414
 10
135.187637
 20
477.560028
 10
135.187637
 20
476.460266
 10
135.187637
 20
475.42218
 10
135.187637
 20
474.448242
 10
135.187637
 20
473.540405
 10
135.187637
 20
472.700012
 10
135.187637
 20
471.927826
 10
135.187637
 20
471.22406
 10
135.187637
 20
470.58847
 10
135.187637
 20
470.020264
 10
135.187637
 20
469.51828
 10
135.187637
 20
469.074402
  0
LINE
  5
1D1
330
17F
100
AcDbEntity
  8
0
  6
Continuous
 62
     0
370
     0
100
AcDbLine
 10
135.687636
 20
468.598854
 30
0.0
 11
135.687636
 21
467.131256
 31
0.0
  0
LINE
  5
1D2
330
17F
100
AcDbEntity
  8
0
  6
Continuous
 62
     0
370
     0
100
AcDbLine
 10
135.687636
 20
527.131256
 30
0.0
 11
135.687636
 21
468.598854
 31
0.0
  0
LINE
  5
1D3
330
17F
100
AcDbEntity
  8
0
  6
Continuous
 62
     0
370
     0
100
AcDbLine
 10
139.687636
 20
468.598854
 30
0.0
 11
139.687636
 21
527.131256
 31
0.0
  0
LINE
  5
1D4
330
17F
100
AcDbEntity
  8
0
  6
Continuous
 62
     0
370
     0
100
AcDbLine
 10
139.687636
 20
467.131256
 30
0.0
 11
139.687636
 21
468.598854
 31
0.0
  0
LINE
  5
1D5
330
17F
100
AcDbEntity
  8
0
  6
Continuous
 62
     0
370
    30
100
AcDbLine
 10
140.187636
 20
469.074394
 30
0.0
 11
140.187636
 21
526.631256
 31
0.0
  0
LWPOLYLINE
  5
1D6
330
17F
100
AcDbEntity
  8
0
  6
Continuous
 62
     0
370
    30
100
AcDbPolyline
 90
        8
 70
     0
 43
0.0
 10
140.187637
 20
467.631256
 10
140.187637
 20
467.662323
 10
140.187637
 20
467.753937
 10
140.187637
 20
467.903625
 10
140.187637
 20
468.108551
 10
140.187637
 20
468.365784
 10
140.187637
 20
468.67215
 10
140.187637
 20
469.074402
  0
ARC
  5
1D7
330
17F
100
AcDbEntity
  8
0
  6
Continuous
 62
     0
370
    30
100
AcDbCircle
 10
135.687639
 20
467.631252
 30
0.0
 40
0.5000026738980112
100
AcDbArc
 50
180.004352
 51
269.999694
  0
ARC
  5
1D8
330
17F
100
AcDbEntity
  8
0
  6
Continuous
 62
     0
370
    30
100
AcDbCircle
 10
135.687638
 20
526.631147
 30
0.0
 40
0.500001676142773
100
AcDbArc
 50
90.000192
 51
179.993308
  0
ARC
  5
1D9
330
17F
100
AcDbEntity
  8
0
  6
Continuous
 62
     0
370
    30
100
AcDbCircle
 10
139.687633
 20
467.631252
 30
0.0
 40
0.5000028133809751
100
AcDbArc
 50
270.000322
 51
359.995632
  0
ARC
  5
1DA
330
17F
100
AcDbEntity
  8
0
  6
Continuous
 62
     0
370
    30
100
AcDbCircle
 10
139.687634
 20
526.631147
 30
0.0
 40
0.5000018697955408
100
AcDbArc
 50
0.006714
 51
89.999786
  0
LINE
  5
1DB
330
17F
100
AcDbEntity
  8
0
  6
Continuous
 62
     0
370
    30
100
AcDbLine
 10
139.687636
 20
527.131256
 30
0.0
 11
135.687636
 21
527.131256
 31
0.0
  0
LINE
  5
1DC
330
17F
100
AcDbEntity
  8
0
  6
Continuous
 62
     0
370
    30
100
AcDbLine
 10
139.687636
 20
467.131256
 30
0.0
 11
135.687636
 21
467.131256
 31
0.0
  0
LINE
  5
1DD
330
17F
100
AcDbEntity
  8
0
  6
Continuous
 62
     0
370
    30
100
AcDbLine
 10
132.187638
 20
514.556306
 30
0.0
 11
132.187638
 21
474.98406
 31
0.0
  0
LINE
  5
1DE
330
17F
100
AcDbEntity
  8
0
  6
Continuous
 62
     0
370
    30
100
AcDbLine
 10
132.187638
 20
519.18406
 30
0.0
 11
132.187638
 21
514.556306
 31
0.0
  0
LINE
  5
1DF
330
17F
100
AcDbEntity
  8
0
  6
Continuous
 62
     0
370
    30
100
AcDbLine
 10
132.187638
 20
474.98406
 30
0.0
 11
135.187636
 21
474.98406
 31
0.0
  0
LINE
  5
1E0
330
17F
100
AcDbEntity
  8
0
  6
Continuous
 62
     0
370
    30
100
AcDbLine
 10
132.187638
 20
519.18406
 30
0.0
 11
135.187636
 21
519.18406
 31
0.0
  0
LINE
  5
1E1
330
17F
100
AcDbEntity
  8
0
  6
Continuous
 62
     0
370
    30
100
AcDbLine
 10
113.436807
 20
474.761649
 30
0.0
 11
118.064981
 21
474.882842
 31
0.0
  0
ARC
  5
1E2
330
17F
100
AcDbEntity
  8
0
  6
Continuous
 62
     0
370
    30
100
AcDbCircle
 10
113.430263
 20
475.011563
 30
0.0
 40
0.2499999999959995
100
AcDbArc
 50
188.0
 51
271.5
  0
ARC
  5
1E3
330
17F
100
AcDbEntity
  8
0
  6
Continuous
 62
     0
370
    30
100
AcDbCircle
 10
118.058431
 20
475.132729
 30
0.0
 40
0.2499732245188424
100
AcDbArc
 50
271.501563
 51
349.512949
  0
LINE
  5
1E4
330
17F
100
AcDbEntity
  8
0
  6
Continuous
 62
     0
370
    30
100
AcDbLine
 10
113.182696
 20
474.97677
 30
0.0
 11
118.306004
 21
475.16755
 31
0.0
  0
LINE
  5
1E5
330
17F
100
AcDbEntity
  8
0
  6
Continuous
 62
     0
370
    30
100
AcDbLine
 10
113.448394
 20
474.761952
 30
0.0
 11
113.439586
 21
474.761722
 31
0.0
  0
ENDBLK
  5
1E7
330
17F
100
AcDbEntity
  8
0
100
AcDbBlockEnd
  0
ENDSEC
  0
SECTION
  2
ENTITIES
  0
INSERT
  5
D4
330
1F
100
AcDbEntity
  8
0
  6
Continuous
 62
     7
420
 16250871
370
     0
100
AcDbBlockReference
  2
a
 10
163.614731
 20
120.370705
 30
0.0
  0
INSERT
  5
125
330
1F
100
AcDbEntity
  8
0
  6
Continuous
 62
     7
420
 16250871
370
     0
100
AcDbBlockReference
  2
b
 10
163.614731
 20
104.711433
 30
0.0
  0
INSERT
  5
17E
330
1F
100
AcDbEntity
  8
0
  6
Continuous
 62
     7
420
 16250871
370
     0
100
AcDbBlockReference
  2
c
 10
163.614731
 20
120.370705
 30
0.0
  0
INSERT
  5
1E8
330
1F
100
AcDbEntity
  8
0
  6
Continuous
 62
     7
420
 16250871
370
     0
100
AcDbBlockReference
  2
d
 10
175.78981
 20
0.0
 30
0.0
  0
ENDSEC
  0
SECTION
  2
OBJECTS
  0
DICTIONARY
  5
C
330
0
100
AcDbDictionary
281
     1
  3
ACAD_DETAILVIEWSTYLE
350
220
  3
ACAD_GROUP
350
D
  3
ACAD_LAYOUT
350
1A
  3
ACAD_MATERIAL
350
43
  3
ACAD_MLEADERSTYLE
350
6B
  3
ACAD_MLINESTYLE
350
17
  3
ACAD_PLOTSETTINGS
350
19
  3
ACAD_PLOTSTYLENAME
350
E
  3
ACAD_SCALELIST
350
47
  3
ACAD_SECTIONVIEWSTYLE
350
221
  3
ACAD_TABLESTYLE
350
69
  3
ACAD_VISUALSTYLE
350
2A
  3
ACDB_RECOMPOSE_DATA
350
21D
  3
AcDbVariableDictionary
350
1E9
  0
SUN
  5
6D
330
29
100
AcDbSun
 90
        1
290
     0
 63
     7
421
 16777215
 40
1.0
291
     1
 91
  2455826
 92
 54000000
292
     0
 70
     2
 71
   256
280
     1
  0
DICTIONARY
  5
220
102
{ACAD_REACTORS
330
C
102
}
330
C
100
AcDbDictionary
281
     1
  0
DICTIONARY
  5
D
102
{ACAD_REACTORS
330
C
102
}
330
C
100
AcDbDictionary
281
     1
  0
DICTIONARY
  5
1A
102
{ACAD_REACTORS
330
C
102
}
330
C
100
AcDbDictionary
281
     1
  3
Layout1
350
1E
  3
Layout2
350
26
  3
Model
350
22
  0
DICTIONARY
  5
43
102
{ACAD_REACTORS
330
C
102
}
330
C
100
AcDbDictionary
281
     1
  3
ByBlock
350
45
  3
ByLayer
350
44
  3
Global
350
46
  0
DICTIONARY
  5
6B
102
{ACAD_REACTORS
330
C
102
}
330
C
100
AcDbDictionary
281
     1
  3
Standard
350
6C
  0
DICTIONARY
  5
17
102
{ACAD_REACTORS
330
C
102
}
330
C
100
AcDbDictionary
281
     1
  3
Standard
350
18
  0
DICTIONARY
  5
19
102
{ACAD_REACTORS
330
C
102
}
330
C
100
AcDbDictionary
281
     1
  0
ACDBDICTIONARYWDFLT
  5
E
102
{ACAD_REACTORS
330
C
102
}
330
C
100
AcDbDictionary
281
     1
  3
Normal
350
F
100
AcDbDictionaryWithDefault
340
F
  0
DICTIONARY
  5
47
102
{ACAD_REACTORS
330
C
102
}
330
C
100
AcDbDictionary
281
     1
  3
A0
350
48
  3
A1
350
49
  3
A2
350
4A
  3
A3
350
4B
  3
A4
350
4C
  3
A5
350
4D
  3
A6
350
4E
  3
A7
350
4F
  3
A8
350
50
  3
A9
350
51
  3
B0
350
52
  3
B1
350
53
  3
B2
350
54
  3
B3
350
55
  3
B4
350
56
  3
B5
350
57
  3
B6
350
58
  3
B7
350
59
  3
B8
350
5A
  3
B9
350
5B
  3
C0
350
5C
  3
C1
350
5D
  3
C2
350
5E
  3
C3
350
5F
  3
C4
350
60
  3
C5
350
61
  3
C6
350
62
  3
C7
350
63
  3
C8
350
64
  3
C9
350
65
  3
D0
350
66
  3
D1
350
67
  3
D2
350
68
  0
DICTIONARY
  5
221
102
{ACAD_REACTORS
330
C
102
}
330
C
100
AcDbDictionary
281
     1
  0
DICTIONARY
  5
69
102
{ACAD_REACTORS
330
C
102
}
330
C
100
AcDbDictionary
281
     1
  3
Standard
350
6A
  0
DICTIONARY
  5
2A
102
{ACAD_REACTORS
330
C
102
}
330
C
100
AcDbDictionary
281
     1
  3
2dWireframe
350
2F
  3
Basic
350
32
  3
Brighten
350
36
  3
ColorChange
350
3A
  3
Conceptual
350
34
  3
Dim
350
35
  3
EdgeColorOff
350
3D
  3
Facepattern
350
39
  3
Flat
350
2B
  3
FlatWithEdges
350
2C
  3
Gouraud
350
2D
  3
GouraudWithEdges
350
2E
  3
Hidden
350
31
  3
JitterOff
350
3B
  3
Linepattern
350
38
  3
OverhangOff
350
3C
  3
Realistic
350
33
  3
Shaded
350
42
  3
Shaded with edges
350
41
  3
Shades of Gray
350
3E
  3
Sketchy
350
3F
  3
Thicken
350
37
  3
Wireframe
350
30
  3
X-Ray
350
40
  0
XRECORD
  5
21D
102
{ACAD_REACTORS
330
C
102
}
330
C
100
AcDbXrecord
280
     1
 90
        1
330
6A
  0
DICTIONARY
  5
1E9
102
{ACAD_REACTORS
330
C
102
}
330
C
100
AcDbDictionary
281
     1
  3
CANNOSCALE
350
1EA
  3
CMLEADERSTYLE
350
21F
  3
CTABLESTYLE
350
21E
  0
LAYOUT
  5
1E
102
{ACAD_REACTORS
330
1A
102
}
330
1A
100
AcDbPlotSettings
  1

  2
none_device
  4

  6

 40
0.0
 41
0.0
 42
0.0
 43
0.0
 44
0.0
 45
0.0
 46
0.0
 47
0.0
 48
0.0
 49
0.0
140
0.0
141
0.0
142
1.0
143
1.0
 70
   688
 72
     1
 73
     0
 74
     5
  7

 75
    16
 76
     0
 77
     2
 78
   300
147
1.0
148
0.0
149
0.0
100
AcDbLayout
  1
Layout1
 70
     1
 71
     1
 10
0.0
 20
0.0
 11
420.0
 21
297.0
 12
0.0
 22
0.0
 32
0.0
 14
1.000000E+20
 24
1.000000E+20
 34
1.000000E+20
 15
-1.000000E+20
 25
-1.000000E+20
 35
-1.000000E+20
146
0.0
 13
0.0
 23
0.0
 33
0.0
 16
1.0
 26
0.0
 36
0.0
 17
0.0
 27
1.0
 37
0.0
 76
     0
330
1B
  0
LAYOUT
  5
26
102
{ACAD_REACTORS
330
1A
102
}
330
1A
100
AcDbPlotSettings
  1

  2
none_device
  4

  6

 40
0.0
 41
0.0
 42
0.0
 43
0.0
 44
0.0
 45
0.0
 46
0.0
 47
0.0
 48
0.0
 49
0.0
140
0.0
141
0.0
142
1.0
143
1.0
 70
   688
 72
     1
 73
     0
 74
     5
  7

 75
    16
 76
     0
 77
     2
 78
   300
147
1.0
148
0.0
149
0.0
100
AcDbLayout
  1
Layout2
 70
     1
 71
     2
 10
0.0
 20
0.0
 11
0.0
 21
0.0
 12
0.0
 22
0.0
 32
0.0
 14
0.0
 24
0.0
 34
0.0
 15
0.0
 25
0.0
 35
0.0
146
0.0
 13
0.0
 23
0.0
 33
0.0
 16
1.0
 26
0.0
 36
0.0
 17
0.0
 27
1.0
 37
0.0
 76
     0
330
23
  0
LAYOUT
  5
22
102
{ACAD_REACTORS
330
1A
102
}
330
1A
100
AcDbPlotSettings
  1

  2
none_device
  4
Letter_(8.50_x_11.00_Inches)
  6

 40
6.35
 41
6.35
 42
6.350005
 43
6.350005
 44
215.9
 45
279.4
 46
0.0
 47
0.0
 48
0.0
 49
0.0
140
0.0
141
0.0
142
1.0
143
1.0
 70
  1712
 72
     1
 73
     0
 74
     0
  7

 75
     0
 76
     0
 77
     2
 78
   300
147
1.0
148
0.0
149
0.0
100
AcDbLayout
  1
Model
 70
     1
 71
     0
 10
0.0
 20
0.0
 11
420.0
 21
297.0
 12
0.0
 22
0.0
 32
0.0
 14
1.000000E+20
 24
1.000000E+20
 34
1.000000E+20
 15
-1.000000E+20
 25
-1.000000E+20
 35
-1.000000E+20
146
0.0
 13
0.0
 23
0.0
 33
0.0
 16
1.0
 26
0.0
 36
0.0
 17
0.0
 27
1.0
 37
0.0
 76
     0
330
1F
331
29
  0
MATERIAL
  5
45
102
{ACAD_REACTORS
330
43
102
}
330
43
100
AcDbMaterial
  1
ByBlock
 72
     1
 94
      127
  0
MATERIAL
  5
44
102
{ACAD_REACTORS
330
43
102
}
330
43
100
AcDbMaterial
  1
ByLayer
 72
     1
 94
      127
  0
MATERIAL
  5
46
102
{ACAD_REACTORS
330
43
102
}
330
43
100
AcDbMaterial
  1
Global
 72
     1
 94
      127
  0
MLEADERSTYLE
  5
6C
102
{ACAD_REACTORS
330
6B
102
}
330
6B
100
AcDbMLeaderStyle
179
     2
170
     2
171
     1
172
     0
 90
        2
 40
0.0
 41
0.0
173
     1
 91
-1056964608
340
14
 92
       -2
290
     1
 42
2.0
291
     1
 43
8.0
  3
Standard
341
0
 44
4.0
300

342
11
174
     1
178
     6
175
     1
176
     0
 93
-1056964608
 45
4.0
292
     0
297
     0
 46
4.0
343
0
 94
-1056964608
 47
1.0
 49
1.0
140
1.0
293
     1
141
0.0
294
     1
177
     0
142
1.0
295
     0
296
     0
143
3.75
271
     0
272
     9
273
     9
  0
MLINESTYLE
  5
18
102
{ACAD_REACTORS
330
17
102
}
330
17
100
AcDbMlineStyle
  2
Standard
 70
     0
  3

 62
   256
 51
90.0
 52
90.0
 71
     2
 49
0.5
 62
   256
  6
BYLAYER
 49
-0.5
 62
   256
  6
BYLAYER
  0
ACDBPLACEHOLDER
  5
F
102
{ACAD_REACTORS
330
E
102
}
330
E
  0
SCALE
  5
48
102
{ACAD_REACTORS
330
47
102
}
330
47
100
AcDbScale
 70
     0
300
1:1
140
1.0
141
1.0
290
     1
  0
SCALE
  5
49
102
{ACAD_REACTORS
330
47
102
}
330
47
100
AcDbScale
 70
     0
300
1:2
140
1.0
141
2.0
290
     0
  0
SCALE
  5
4A
102
{ACAD_REACTORS
330
47
102
}
330
47
100
AcDbScale
 70
     0
300
1:4
140
1.0
141
4.0
290
     0
  0
SCALE
  5
4B
102
{ACAD_REACTORS
330
47
102
}
330
47
100
AcDbScale
 70
     0
300
1:5
140
1.0
141
5.0
290
     0
  0
SCALE
  5
4C
102
{ACAD_REACTORS
330
47
102
}
330
47
100
AcDbScale
 70
     0
300
1:8
140
1.0
141
8.0
290
     0
  0
SCALE
  5
4D
102
{ACAD_REACTORS
330
47
102
}
330
47
100
AcDbScale
 70
     0
300
1:10
140
1.0
141
10.0
290
     0
  0
SCALE
  5
4E
102
{ACAD_REACTORS
330
47
102
}
330
47
100
AcDbScale
 70
     0
300
1:16
140
1.0
141
16.0
290
     0
  0
SCALE
  5
4F
102
{ACAD_REACTORS
330
47
102
}
330
47
100
AcDbScale
 70
     0
300
1:20
140
1.0
141
20.0
290
     0
  0
SCALE
  5
50
102
{ACAD_REACTORS
330
47
102
}
330
47
100
AcDbScale
 70
     0
300
1:30
140
1.0
141
30.0
290
     0
  0
SCALE
  5
51
102
{ACAD_REACTORS
330
47
102
}
330
47
100
AcDbScale
 70
     0
300
1:40
140
1.0
141
40.0
290
     0
  0
SCALE
  5
52
102
{ACAD_REACTORS
330
47
102
}
330
47
100
AcDbScale
 70
     0
300
1:50
140
1.0
141
50.0
290
     0
  0
SCALE
  5
53
102
{ACAD_REACTORS
330
47
102
}
330
47
100
AcDbScale
 70
     0
300
1:100
140
1.0
141
100.0
290
     0
  0
SCALE
  5
54
102
{ACAD_REACTORS
330
47
102
}
330
47
100
AcDbScale
 70
     0
300
2:1
140
2.0
141
1.0
290
     0
  0
SCALE
  5
55
102
{ACAD_REACTORS
330
47
102
}
330
47
100
AcDbScale
 70
     0
300
4:1
140
4.0
141
1.0
290
     0
  0
SCALE
  5
56
102
{ACAD_REACTORS
330
47
102
}
330
47
100
AcDbScale
 70
     0
300
8:1
140
8.0
141
1.0
290
     0
  0
SCALE
  5
57
102
{ACAD_REACTORS
330
47
102
}
330
47
100
AcDbScale
 70
     0
300
10:1
140
10.0
141
1.0
290
     0
  0
SCALE
  5
58
102
{ACAD_REACTORS
330
47
102
}
330
47
100
AcDbScale
 70
     0
300
100:1
140
100.0
141
1.0
290
     0
  0
SCALE
  5
59
102
{ACAD_REACTORS
330
47
102
}
330
47
100
AcDbScale
 70
     0
300
1/128" = 1'-0"
140
0.007812
141
12.0
290
     0
  0
SCALE
  5
5A
102
{ACAD_REACTORS
330
47
102
}
330
47
100
AcDbScale
 70
     0
300
1/64" = 1'-0"
140
0.015625
141
12.0
290
     0
  0
SCALE
  5
5B
102
{ACAD_REACTORS
330
47
102
}
330
47
100
AcDbScale
 70
     0
300
1/32" = 1'-0"
140
0.03125
141
12.0
290
     0
  0
SCALE
  5
5C
102
{ACAD_REACTORS
330
47
102
}
330
47
100
AcDbScale
 70
     0
300
1/16" = 1'-0"
140
0.0625
141
12.0
290
     0
  0
SCALE
  5
5D
102
{ACAD_REACTORS
330
47
102
}
330
47
100
AcDbScale
 70
     0
300
3/32" = 1'-0"
140
0.09375
141
12.0
290
     0
  0
SCALE
  5
5E
102
{ACAD_REACTORS
330
47
102
}
330
47
100
AcDbScale
 70
     0
300
1/8" = 1'-0"
140
0.125
141
12.0
290
     0
  0
SCALE
  5
5F
102
{ACAD_REACTORS
330
47
102
}
330
47
100
AcDbScale
 70
     0
300
3/16" = 1'-0"
140
0.1875
141
12.0
290
     0
  0
SCALE
  5
60
102
{ACAD_REACTORS
330
47
102
}
330
47
100
AcDbScale
 70
     0
300
1/4" = 1'-0"
140
0.25
141
12.0
290
     0
  0
SCALE
  5
61
102
{ACAD_REACTORS
330
47
102
}
330
47
100
AcDbScale
 70
     0
300
3/8" = 1'-0"
140
0.375
141
12.0
290
     0
  0
SCALE
  5
62
102
{ACAD_REACTORS
330
47
102
}
330
47
100
AcDbScale
 70
     0
300
1/2" = 1'-0"
140
0.5
141
12.0
290
     0
  0
SCALE
  5
63
102
{ACAD_REACTORS
330
47
102
}
330
47
100
AcDbScale
 70
     0
300
3/4" = 1'-0"
140
0.75
141
12.0
290
     0
  0
SCALE
  5
64
102
{ACAD_REACTORS
330
47
102
}
330
47
100
AcDbScale
 70
     0
300
1" = 1'-0"
140
1.0
141
12.0
290
     0
  0
SCALE
  5
65
102
{ACAD_REACTORS
330
47
102
}
330
47
100
AcDbScale
 70
     0
300
1-1/2" = 1'-0"
140
1.5
141
12.0
290
     0
  0
SCALE
  5
66
102
{ACAD_REACTORS
330
47
102
}
330
47
100
AcDbScale
 70
     0
300
3" = 1'-0"
140
3.0
141
12.0
290
     0
  0
SCALE
  5
67
102
{ACAD_REACTORS
330
47
102
}
330
47
100
AcDbScale
 70
     0
300
6" = 1'-0"
140
6.0
141
12.0
290
     0
  0
SCALE
  5
68
102
{ACAD_REACTORS
330
47
102
}
330
47
100
AcDbScale
 70
     0
300
1'-0" = 1'-0"
140
12.0
141
12.0
290
     0
  0
TABLESTYLE
  5
6A
102
{ACAD_REACTORS
330
69
102
}
102
{ACAD_XDICTIONARY
360
21B
102
}
330
69
100
AcDbTableStyle
  3
Standard
 70
     0
 71
     0
 40
0.06
 41
0.06
280
     0
281
     0
  7
Standard
140
4.5
170
     2
 62
     0
 63
   257
283
     0
 90
        4
 91
        0
  1

274
    -2
284
     1
 64
     0
275
    -2
285
     1
 65
     0
276
    -2
286
     1
 66
     0
277
    -2
287
     1
 67
     0
278
    -2
288
     1
 68
     0
279
    -2
289
     1
 69
     0
  7
Standard
140
6.0
170
     5
 62
     0
 63
   257
283
     0
 90
        4
 91
        0
  1

274
    -2
284
     1
 64
     0
275
    -2
285
     1
 65
     0
276
    -2
286
     1
 66
     0
277
    -2
287
     1
 67
     0
278
    -2
288
     1
 68
     0
279
    -2
289
     1
 69
     0
  7
Standard
140
4.5
170
     5
 62
     0
 63
   257
283
     0
 90
        4
 91
        0
  1

274
    -2
284
     1
 64
     0
275
    -2
285
     1
 65
     0
276
    -2
286
     1
 66
     0
277
    -2
287
     1
 67
     0
278
    -2
288
     1
 68
     0
279
    -2
289
     1
 69
     0
  0
VISUALSTYLE
  5
2F
102
{ACAD_REACTORS
330
2A
102
}
102
{ACAD_XDICTIONARY
360
1F3
102
}
330
2A
100
AcDbVisualStyle
  2
2dWireframe
 70
     4
177
     2
291
     0
 71
     0
176
     1
 72
     2
176
     1
 73
     0
176
     1
 90
        0
176
     1
 40
0.6
176
     1
 41
30.0
176
     1
 62
     5
 63
     7
421
 16777215
176
     1
 74
     1
176
     1
 91
        4
176
     1
 64
     7
176
     1
 65
   257
176
     1
 75
     1
176
     1
175
     1
176
     1
 42
1.0
176
     1
 92
        0
176
     1
 66
   257
176
     1
 43
1.0
176
     1
 76
     1
176
     1
 77
     6
176
     1
 78
     2
176
     1
 67
     7
176
     1
 79
     5
176
     1
170
     0
176
     1
171
     0
176
     1
290
     0
176
     1
 93
        1
176
     1
 44
0.0
176
     1
173
     0
176
     1
  0
VISUALSTYLE
  5
32
102
{ACAD_REACTORS
330
2A
102
}
102
{ACAD_XDICTIONARY
360
1F9
102
}
330
2A
100
AcDbVisualStyle
  2
Basic
 70
     7
177
     2
291
     1
 71
     1
176
     1
 72
     0
176
     1
 73
     1
176
     1
 90
        0
176
     1
 40
0.6
176
     1
 41
30.0
176
     1
 62
     5
 63
     7
421
 16777215
176
     1
 74
     0
176
     1
 91
        4
176
     1
 64
     7
176
     1
 65
   257
176
     1
 75
     1
176
     1
175
     1
176
     1
 42
1.0
176
     1
 92
        8
176
     1
 66
     7
176
     1
 43
1.0
176
     1
 76
     1
176
     1
 77
     6
176
     1
 78
     2
176
     1
 67
     7
176
     1
 79
     5
176
     1
170
     0
176
     1
171
     0
176
     1
290
     0
176
     1
 93
        1
176
     1
 44
0.0
176
     1
173
     0
176
     1
  0
VISUALSTYLE
  5
36
102
{ACAD_REACTORS
330
2A
102
}
102
{ACAD_XDICTIONARY
360
201
102
}
330
2A
100
AcDbVisualStyle
  2
Brighten
 70
    12
177
     2
291
     1
 71
     2
176
     1
 72
     2
176
     1
 73
     0
176
     1
 90
        0
176
     1
 40
0.6
176
     1
 41
30.0
176
     1
 62
     5
 63
     7
421
 16777215
176
     1
 74
     1
176
     1
 91
        4
176
     1
 64
     7
176
     1
 65
   257
176
     1
 75
     1
176
     1
175
     1
176
     1
 42
1.0
176
     1
 92
        8
176
     1
 66
     7
176
     1
 43
1.0
176
     1
 76
     1
176
     1
 77
     6
176
     1
 78
     2
176
     1
 67
     7
176
     1
 79
     5
176
     1
170
     0
176
     1
171
     0
176
     1
290
     0
176
     1
 93
        1
176
     1
 44
50.0
176
     1
173
     0
176
     1
  0
VISUALSTYLE
  5
3A
102
{ACAD_REACTORS
330
2A
102
}
102
{ACAD_XDICTIONARY
360
209
102
}
330
2A
100
AcDbVisualStyle
  2
ColorChange
 70
    16
177
     2
291
     1
 71
     2
176
     1
 72
     2
176
     1
 73
     3
176
     1
 90
        0
176
     1
 40
0.6
176
     1
 41
30.0
176
     1
 62
     5
 63
     8
421
  8421504
176
     1
 74
     1
176
     1
 91
        4
176
     1
 64
     7
176
     1
 65
   257
176
     1
 75
     1
176
     1
175
     1
176
     1
 42
1.0
176
     1
 92
        8
176
     1
 66
     8
424
  8421504
176
     1
 43
1.0
176
     1
 76
     1
176
     1
 77
     6
176
     1
 78
     2
176
     1
 67
     7
176
     1
 79
     5
176
     1
170
     0
176
     1
171
     0
176
     1
290
     0
176
     1
 93
        1
176
     1
 44
0.0
176
     1
173
     0
176
     1
  0
VISUALSTYLE
  5
34
102
{ACAD_REACTORS
330
2A
102
}
102
{ACAD_XDICTIONARY
360
1FD
102
}
330
2A
100
AcDbVisualStyle
  2
Conceptual
 70
     9
177
     2
291
     0
 71
     3
176
     1
 72
     2
176
     1
 73
     0
176
     1
 90
        0
176
     1
 40
0.6
176
     1
 41
30.0
176
     1
 62
     5
 63
     7
421
 16777215
176
     1
 74
     2
176
     1
 91
        2
176
     1
 64
     7
176
     1
 65
   257
176
     1
 75
     1
176
     1
175
     1
176
     1
 42
179.0
176
     1
 92
        8
176
     1
 66
     7
176
     1
 43
1.0
176
     1
 76
     1
176
     1
 77
     6
176
     1
 78
     2
176
     1
 67
     7
176
     1
 79
     3
176
     1
170
     0
176
     1
171
     0
176
     1
290
     0
176
     1
 93
        1
176
     1
 44
0.0
176
     1
173
     0
176
     1
  0
VISUALSTYLE
  5
35
102
{ACAD_REACTORS
330
2A
102
}
102
{ACAD_XDICTIONARY
360
1FF
102
}
330
2A
100
AcDbVisualStyle
  2
Dim
 70
    11
177
     2
291
     1
 71
     2
176
     1
 72
     2
176
     1
 73
     0
176
     1
 90
        0
176
     1
 40
0.6
176
     1
 41
30.0
176
     1
 62
     5
 63
     7
421
 16777215
176
     1
 74
     1
176
     1
 91
        4
176
     1
 64
     7
176
     1
 65
   257
176
     1
 75
     1
176
     1
175
     1
176
     1
 42
1.0
176
     1
 92
        8
176
     1
 66
     7
176
     1
 43
1.0
176
     1
 76
     1
176
     1
 77
     6
176
     1
 78
     2
176
     1
 67
     7
176
     1
 79
     5
176
     1
170
     0
176
     1
171
     0
176
     1
290
     0
176
     1
 93
        1
176
     1
 44
-50.0
176
     1
173
     0
176
     1
  0
VISUALSTYLE
  5
3D
102
{ACAD_REACTORS
330
2A
102
}
102
{ACAD_XDICTIONARY
360
20F
102
}
330
2A
100
AcDbVisualStyle
  2
EdgeColorOff
 70
    22
177
     2
291
     1
 71
     2
176
     0
 72
     2
176
     0
 73
     0
176
     0
 90
        0
176
     0
 40
0.6
176
     0
 41
30.0
176
     0
 62
     5
 63
     7
421
 16777215
176
     0
 74
     1
176
     0
 91
        4
176
     0
 64
     7
176
     0
 65
   257
176
     0
 75
     1
176
     0
175
     1
176
     0
 42
1.0
176
     0
 92
        8
176
     2
 66
     7
176
     0
 43
1.0
176
     0
 76
     1
176
     0
 77
     6
176
     0
 78
     2
176
     0
 67
     7
176
     0
 79
     5
176
     0
170
     0
176
     0
171
     0
176
     0
290
     0
176
     0
 93
        1
176
     0
 44
0.0
176
     0
173
     0
176
     0
  0
VISUALSTYLE
  5
39
102
{ACAD_REACTORS
330
2A
102
}
102
{ACAD_XDICTIONARY
360
207
102
}
330
2A
100
AcDbVisualStyle
  2
Facepattern
 70
    15
177
     2
291
     1
 71
     2
176
     1
 72
     2
176
     1
 73
     0
176
     1
 90
        0
176
     1
 40
0.6
176
     1
 41
30.0
176
     1
 62
     5
 63
     7
421
 16777215
176
     1
 74
     1
176
     1
 91
        4
176
     1
 64
     7
176
     1
 65
   257
176
     1
 75
     1
176
     1
175
     1
176
     1
 42
1.0
176
     1
 92
        8
176
     1
 66
     7
176
     1
 43
1.0
176
     1
 76
     1
176
     1
 77
     6
176
     1
 78
     2
176
     1
 67
     7
176
     1
 79
     5
176
     1
170
     0
176
     1
171
     0
176
     1
290
     0
176
     1
 93
        1
176
     1
 44
0.0
176
     1
173
     0
176
     1
  0
VISUALSTYLE
  5
2B
102
{ACAD_REACTORS
330
2A
102
}
102
{ACAD_XDICTIONARY
360
1EB
102
}
330
2A
100
AcDbVisualStyle
  2
Flat
 70
     0
177
     2
291
     1
 71
     2
176
     1
 72
     1
176
     1
 73
     1
176
     1
 90
        2
176
     1
 40
0.6
176
     1
 41
30.0
176
     1
 62
     5
 63
     7
421
 16777215
176
     1
 74
     0
176
     1
 91
        0
176
     1
 64
     7
176
     1
 65
   257
176
     1
 75
     1
176
     1
175
     1
176
     1
 42
1.0
176
     1
 92
        8
176
     1
 66
     7
176
     1
 43
1.0
176
     1
 76
     1
176
     1
 77
     6
176
     1
 78
     2
176
     1
 67
     7
176
     1
 79
     5
176
     1
170
     0
176
     1
171
     0
176
     1
290
     0
176
     1
 93
       13
176
     1
 44
0.0
176
     1
173
     0
176
     1
  0
VISUALSTYLE
  5
2C
102
{ACAD_REACTORS
330
2A
102
}
102
{ACAD_XDICTIONARY
360
1ED
102
}
330
2A
100
AcDbVisualStyle
  2
FlatWithEdges
 70
     1
177
     2
291
     1
 71
     2
176
     1
 72
     1
176
     1
 73
     1
176
     1
 90
        2
176
     1
 40
0.6
176
     1
 41
30.0
176
     1
 62
     5
 63
     7
421
 16777215
176
     1
 74
     1
176
     1
 91
        0
176
     1
 64
     7
176
     1
 65
   257
176
     1
 75
     1
176
     1
175
     1
176
     1
 42
1.0
176
     1
 92
        0
176
     1
 66
   257
176
     1
 43
1.0
176
     1
 76
     1
176
     1
 77
     6
176
     1
 78
     2
176
     1
 67
     7
176
     1
 79
     5
176
     1
170
     0
176
     1
171
     0
176
     1
290
     0
176
     1
 93
       13
176
     1
 44
0.0
176
     1
173
     0
176
     1
  0
VISUALSTYLE
  5
2D
102
{ACAD_REACTORS
330
2A
102
}
102
{ACAD_XDICTIONARY
360
1EF
102
}
330
2A
100
AcDbVisualStyle
  2
Gouraud
 70
     2
177
     2
291
     1
 71
     2
176
     1
 72
     2
176
     1
 73
     1
176
     1
 90
        2
176
     1
 40
0.6
176
     1
 41
30.0
176
     1
 62
     5
 63
     7
421
 16777215
176
     1
 74
     0
176
     1
 91
        0
176
     1
 64
     7
176
     1
 65
   257
176
     1
 75
     1
176
     1
175
     1
176
     1
 42
1.0
176
     1
 92
        0
176
     1
 66
     7
176
     1
 43
1.0
176
     1
 76
     1
176
     1
 77
     6
176
     1
 78
     2
176
     1
 67
     7
176
     1
 79
     5
176
     1
170
     0
176
     1
171
     0
176
     1
290
     0
176
     1
 93
       13
176
     1
 44
0.0
176
     1
173
     0
176
     1
  0
VISUALSTYLE
  5
2E
102
{ACAD_REACTORS
330
2A
102
}
102
{ACAD_XDICTIONARY
360
1F1
102
}
330
2A
100
AcDbVisualStyle
  2
GouraudWithEdges
 70
     3
177
     2
291
     1
 71
     2
176
     1
 72
     2
176
     1
 73
     1
176
     1
 90
        2
176
     1
 40
0.6
176
     1
 41
30.0
176
     1
 62
     5
 63
     7
421
 16777215
176
     1
 74
     1
176
     1
 91
        0
176
     1
 64
     7
176
     1
 65
   257
176
     1
 75
     1
176
     1
175
     1
176
     1
 42
1.0
176
     1
 92
        0
176
     1
 66
   257
176
     1
 43
1.0
176
     1
 76
     1
176
     1
 77
     6
176
     1
 78
     2
176
     1
 67
     7
176
     1
 79
     5
176
     1
170
     0
176
     1
171
     0
176
     1
290
     0
176
     1
 93
       13
176
     1
 44
0.0
176
     1
173
     0
176
     1
  0
VISUALSTYLE
  5
31
102
{ACAD_REACTORS
330
2A
102
}
102
{ACAD_XDICTIONARY
360
1F7
102
}
330
2A
100
AcDbVisualStyle
  2
Hidden
 70
     6
177
     2
291
     0
 71
     1
176
     1
 72
     2
176
     1
 73
     2
176
     1
 90
        0
176
     1
 40
0.6
176
     1
 41
30.0
176
     1
 62
     5
 63
     7
421
 16777215
176
     1
 74
     2
176
     1
 91
        2
176
     1
 64
     7
176
     1
 65
   257
176
     1
 75
     2
176
     1
175
     1
176
     1
 42
40.0
176
     1
 92
        0
176
     1
 66
   257
176
     1
 43
1.0
176
     1
 76
     1
176
     1
 77
     6
176
     1
 78
     2
176
     1
 67
     7
176
     1
 79
     3
176
     1
170
     0
176
     1
171
     0
176
     1
290
     0
176
     1
 93
        1
176
     1
 44
0.0
176
     1
173
     0
176
     1
  0
VISUALSTYLE
  5
3B
102
{ACAD_REACTORS
330
2A
102
}
102
{ACAD_XDICTIONARY
360
20B
102
}
330
2A
100
AcDbVisualStyle
  2
JitterOff
 70
    20
177
     2
291
     1
 71
     2
176
     0
 72
     2
176
     0
 73
     0
176
     0
 90
        0
176
     0
 40
0.6
176
     0
 41
30.0
176
     0
 62
     5
 63
     7
421
 16777215
176
     0
 74
     1
176
     0
 91
        4
176
     0
 64
     7
176
     0
 65
   257
176
     0
 75
     1
176
     0
175
     1
176
     0
 42
1.0
176
     0
 92
       10
176
     2
 66
     7
176
     0
 43
1.0
176
     0
 76
     1
176
     0
 77
     6
176
     0
 78
     2
176
     0
 67
     7
176
     0
 79
     5
176
     0
170
     0
176
     0
171
     0
176
     0
290
     0
176
     0
 93
        1
176
     0
 44
0.0
176
     0
173
     0
176
     0
  0
VISUALSTYLE
  5
38
102
{ACAD_REACTORS
330
2A
102
}
102
{ACAD_XDICTIONARY
360
205
102
}
330
2A
100
AcDbVisualStyle
  2
Linepattern
 70
    14
177
     2
291
     1
 71
     2
176
     1
 72
     2
176
     1
 73
     0
176
     1
 90
        0
176
     1
 40
0.6
176
     1
 41
30.0
176
     1
 62
     5
 63
     7
421
 16777215
176
     1
 74
     1
176
     1
 91
        4
176
     1
 64
     7
176
     1
 65
   257
176
     1
 75
     7
176
     1
175
     7
176
     1
 42
1.0
176
     1
 92
        8
176
     1
 66
     7
176
     1
 43
1.0
176
     1
 76
     1
176
     1
 77
     6
176
     1
 78
     2
176
     1
 67
     7
176
     1
 79
     5
176
     1
170
     0
176
     1
171
     0
176
     1
290
     0
176
     1
 93
        1
176
     1
 44
0.0
176
     1
173
     0
176
     1
  0
VISUALSTYLE
  5
3C
102
{ACAD_REACTORS
330
2A
102
}
102
{ACAD_XDICTIONARY
360
20D
102
}
330
2A
100
AcDbVisualStyle
  2
OverhangOff
 70
    21
177
     2
291
     1
 71
     2
176
     0
 72
     2
176
     0
 73
     0
176
     0
 90
        0
176
     0
 40
0.6
176
     0
 41
30.0
176
     0
 62
     5
 63
     7
421
 16777215
176
     0
 74
     1
176
     0
 91
        4
176
     0
 64
     7
176
     0
 65
   257
176
     0
 75
     1
176
     0
175
     1
176
     0
 42
1.0
176
     0
 92
        9
176
     2
 66
     7
176
     0
 43
1.0
176
     0
 76
     1
176
     0
 77
     6
176
     0
 78
     2
176
     0
 67
     7
176
     0
 79
     5
176
     0
170
     0
176
     0
171
     0
176
     0
290
     0
176
     0
 93
        1
176
     0
 44
0.0
176
     0
173
     0
176
     0
  0
VISUALSTYLE
  5
33
102
{ACAD_REACTORS
330
2A
102
}
102
{ACAD_XDICTIONARY
360
1FB
102
}
330
2A
100
AcDbVisualStyle
  2
Realistic
 70
     8
177
     2
291
     0
 71
     2
176
     1
 72
     3
176
     1
 73
     0
176
     1
 90
        2
176
     1
 40
0.6
176
     1
 41
30.0
176
     1
 62
     5
 63
     7
421
 16777215
176
     1
 74
     0
176
     1
 91
        0
176
     1
 64
     7
176
     1
 65
   257
176
     1
 75
     1
176
     1
175
     1
176
     1
 42
1.0
176
     1
 92
        8
176
     1
 66
   257
176
     1
 43
1.0
176
     1
 76
     1
176
     1
 77
     6
176
     1
 78
     2
176
     1
 67
     7
176
     1
 79
     3
176
     1
170
     0
176
     1
171
     0
176
     1
290
     0
176
     1
 93
       13
176
     1
 44
0.0
176
     1
173
     0
176
     1
  0
VISUALSTYLE
  5
42
102
{ACAD_REACTORS
330
2A
102
}
102
{ACAD_XDICTIONARY
360
219
102
}
330
2A
100
AcDbVisualStyle
  2
Shaded
 70
    27
177
     2
291
     0
 71
     2
176
     1
 72
     2
176
     1
 73
     1
176
     1
 90
        2
176
     1
 40
0.6
176
     1
 41
30.0
176
     1
 62
     5
 63
     7
421
 16777215
176
     1
 74
     0
176
     1
 91
        4
176
     1
 64
     7
176
     1
 65
   257
176
     1
 75
     1
176
     1
175
     1
176
     1
 42
1.0
176
     1
 92
        8
176
     1
 66
   257
176
     1
 43
1.0
176
     1
 76
     1
176
     1
 77
     6
176
     1
 78
     2
176
     1
 67
     8
425
  7895160
176
     1
 79
     3
176
     1
170
     0
176
     1
171
     0
176
     1
290
     0
176
     1
 93
        5
176
     1
 44
0.0
176
     1
173
     0
176
     1
  0
VISUALSTYLE
  5
41
102
{ACAD_REACTORS
330
2A
102
}
102
{ACAD_XDICTIONARY
360
217
102
}
330
2A
100
AcDbVisualStyle
  2
Shaded with edges
 70
    26
177
     2
291
     0
 71
     2
176
     1
 72
     2
176
     1
 73
     1
176
     1
 90
        2
176
     1
 40
0.6
176
     1
 41
30.0
176
     1
 62
     5
 63
     7
421
 16777215
176
     1
 74
     1
176
     1
 91
       10
176
     1
 64
     7
176
     1
 65
   257
176
     1
 75
     2
176
     1
175
     1
176
     1
 42
1.0
176
     1
 92
        8
176
     1
 66
   257
176
     1
 43
1.0
176
     1
 76
     1
176
     1
 77
     6
176
     1
 78
     2
176
     1
 67
     7
176
     1
 79
     3
176
     1
170
     0
176
     1
171
     0
176
     1
290
     0
176
     1
 93
        5
176
     1
 44
0.0
176
     1
173
     0
176
     1
  0
VISUALSTYLE
  5
3E
102
{ACAD_REACTORS
330
2A
102
}
102
{ACAD_XDICTIONARY
360
211
102
}
330
2A
100
AcDbVisualStyle
  2
Shades of Gray
 70
    23
177
     2
291
     0
 71
     2
176
     1
 72
     2
176
     1
 73
     3
176
     1
 90
        0
176
     1
 40
0.6
176
     1
 41
30.0
176
     1
 62
     5
 63
     7
421
 16777215
176
     1
 74
     2
176
     1
 91
        2
176
     1
 64
     7
176
     1
 65
     7
176
     1
 75
     1
176
     1
175
     1
176
     1
 42
40.0
176
     1
 92
        8
176
     1
 66
     7
176
     1
 43
1.0
176
     1
 76
     1
176
     1
 77
     6
176
     1
 78
     2
176
     1
 67
     7
176
     1
 79
     3
176
     1
170
     0
176
     1
171
     0
176
     1
290
     0
176
     1
 93
        1
176
     1
 44
0.0
176
     1
173
     0
176
     1
  0
VISUALSTYLE
  5
3F
102
{ACAD_REACTORS
330
2A
102
}
102
{ACAD_XDICTIONARY
360
213
102
}
330
2A
100
AcDbVisualStyle
  2
Sketchy
 70
    24
177
     2
291
     0
 71
     1
176
     1
 72
     2
176
     1
 73
     2
176
     1
 90
        0
176
     1
 40
0.6
176
     1
 41
30.0
176
     1
 62
     5
 63
     7
421
 16777215
176
     1
 74
     2
176
     1
 91
        2
176
     1
 64
     7
176
     1
 65
     7
176
     1
 75
     1
176
     1
175
     1
176
     1
 42
40.0
176
     1
 92
       11
176
     1
 66
     7
176
     1
 43
1.0
176
     1
 76
     1
176
     1
 77
     6
176
     1
 78
     2
176
     1
 67
     7
176
     1
 79
     6
176
     1
170
     0
176
     1
171
     0
176
     1
290
     0
176
     1
 93
        1
176
     1
 44
0.0
176
     1
173
     0
176
     1
  0
VISUALSTYLE
  5
37
102
{ACAD_REACTORS
330
2A
102
}
102
{ACAD_XDICTIONARY
360
203
102
}
330
2A
100
AcDbVisualStyle
  2
Thicken
 70
    13
177
     2
291
     1
 71
     2
176
     1
 72
     2
176
     1
 73
     0
176
     1
 90
        0
176
     1
 40
0.6
176
     1
 41
30.0
176
     1
 62
     5
 63
     7
421
 16777215
176
     1
 74
     1
176
     1
 91
        4
176
     1
 64
     7
176
     1
 65
   257
176
     1
 75
     1
176
     1
175
     1
176
     1
 42
1.0
176
     1
 92
       12
176
     1
 66
     7
176
     1
 43
1.0
176
     1
 76
     1
176
     1
 77
     6
176
     1
 78
     2
176
     1
 67
     7
176
     1
 79
     5
176
     1
170
     0
176
     1
171
     0
176
     1
290
     0
176
     1
 93
        1
176
     1
 44
0.0
176
     1
173
     0
176
     1
  0
VISUALSTYLE
  5
30
102
{ACAD_REACTORS
330
2A
102
}
102
{ACAD_XDICTIONARY
360
1F5
102
}
330
2A
100
AcDbVisualStyle
  2
Wireframe
 70
     5
177
     2
291
     0
 71
     0
176
     1
 72
     2
176
     1
 73
     0
176
     1
 90
        0
176
     1
 40
0.6
176
     1
 41
30.0
176
     1
 62
     5
 63
     7
421
 16777215
176
     1
 74
     1
176
     1
 91
        4
176
     1
 64
     7
176
     1
 65
   257
176
     1
 75
     1
176
     1
175
     1
176
     1
 42
1.0
176
     1
 92
        0
176
     1
 66
   257
176
     1
 43
1.0
176
     1
 76
     1
176
     1
 77
     6
176
     1
 78
     2
176
     1
 67
     7
176
     1
 79
     3
176
     1
170
     0
176
     1
171
     0
176
     1
290
     0
176
     1
 93
        1
176
     1
 44
0.0
176
     1
173
     0
176
     1
  0
VISUALSTYLE
  5
40
102
{ACAD_REACTORS
330
2A
102
}
102
{ACAD_XDICTIONARY
360
215
102
}
330
2A
100
AcDbVisualStyle
  2
X-Ray
 70
    25
177
     2
291
     0
 71
     2
176
     1
 72
     2
176
     1
 73
     1
176
     1
 90
        1
176
     1
 40
0.5
176
     1
 41
30.0
176
     1
 62
     5
 63
     7
421
 16777215
176
     1
 74
     1
176
     1
 91
        0
176
     1
 64
     7
176
     1
 65
   257
176
     1
 75
     1
176
     1
175
     1
176
     1
 42
1.0
176
     1
 92
        8
176
     1
 66
     7
176
     1
 43
1.0
176
     1
 76
     1
176
     1
 77
     6
176
     1
 78
     2
176
     1
 67
     7
176
     1
 79
     3
176
     1
170
     0
176
     1
171
     0
176
     1
290
     0
176
     1
 93
       13
176
     1
 44
0.0
176
     1
173
     0
176
     1
  0
DICTIONARYVAR
  5
1EA
102
{ACAD_REACTORS
330
1E9
102
}
330
1E9
100
DictionaryVariables
280
     0
  1
1:1
  0
DICTIONARYVAR
  5
21F
102
{ACAD_REACTORS
330
1E9
102
}
330
1E9
100
DictionaryVariables
280
     0
  1
Standard
  0
DICTIONARYVAR
  5
21E
102
{ACAD_REACTORS
330
1E9
102
}
330
1E9
100
DictionaryVariables
280
     0
  1
Standard
  0
DICTIONARY
  5
21B
330
6A
100
AcDbDictionary
280
     1
281
     1
  3
ACAD_ROUNDTRIP_2008_TABLESTYLE_CELLSTYLEMAP
360
21C
  0
DICTIONARY
  5
1F3
330
2F
100
AcDbDictionary
280
     1
281
     1
  3
ACAD_XREC_ROUNDTRIP
360
1F4
  0
DICTIONARY
  5
1F9
330
32
100
AcDbDictionary
280
     1
281
     1
  3
ACAD_XREC_ROUNDTRIP
360
1FA
  0
DICTIONARY
  5
201
330
36
100
AcDbDictionary
280
     1
281
     1
  3
ACAD_XREC_ROUNDTRIP
360
202
  0
DICTIONARY
  5
209
330
3A
100
AcDbDictionary
280
     1
281
     1
  3
ACAD_XREC_ROUNDTRIP
360
20A
  0
DICTIONARY
  5
1FD
330
34
100
AcDbDictionary
280
     1
281
     1
  3
ACAD_XREC_ROUNDTRIP
360
1FE
  0
DICTIONARY
  5
1FF
330
35
100
AcDbDictionary
280
     1
281
     1
  3
ACAD_XREC_ROUNDTRIP
360
200
  0
DICTIONARY
  5
20F
330
3D
100
AcDbDictionary
280
     1
281
     1
  3
ACAD_XREC_ROUNDTRIP
360
210
  0
DICTIONARY
  5
207
330
39
100
AcDbDictionary
280
     1
281
     1
  3
ACAD_XREC_ROUNDTRIP
360
208
  0
DICTIONARY
  5
1EB
330
2B
100
AcDbDictionary
280
     1
281
     1
  3
ACAD_XREC_ROUNDTRIP
360
1EC
  0
DICTIONARY
  5
1ED
330
2C
100
AcDbDictionary
280
     1
281
     1
  3
ACAD_XREC_ROUNDTRIP
360
1EE
  0
DICTIONARY
  5
1EF
330
2D
100
AcDbDictionary
280
     1
281
     1
  3
ACAD_XREC_ROUNDTRIP
360
1F0
  0
DICTIONARY
  5
1F1
330
2E
100
AcDbDictionary
280
     1
281
     1
  3
ACAD_XREC_ROUNDTRIP
360
1F2
  0
DICTIONARY
  5
1F7
330
31
100
AcDbDictionary
280
     1
281
     1
  3
ACAD_XREC_ROUNDTRIP
360
1F8
  0
DICTIONARY
  5
20B
330
3B
100
AcDbDictionary
280
     1
281
     1
  3
ACAD_XREC_ROUNDTRIP
360
20C
  0
DICTIONARY
  5
205
330
38
100
AcDbDictionary
280
     1
281
     1
  3
ACAD_XREC_ROUNDTRIP
360
206
  0
DICTIONARY
  5
20D
330
3C
100
AcDbDictionary
280
     1
281
     1
  3
ACAD_XREC_ROUNDTRIP
360
20E
  0
DICTIONARY
  5
1FB
330
33
100
AcDbDictionary
280
     1
281
     1
  3
ACAD_XREC_ROUNDTRIP
360
1FC
  0
DICTIONARY
  5
219
330
42
100
AcDbDictionary
280
     1
281
     1
  3
ACAD_XREC_ROUNDTRIP
360
21A
  0
DICTIONARY
  5
217
330
41
100
AcDbDictionary
280
     1
281
     1
  3
ACAD_XREC_ROUNDTRIP
360
218
  0
DICTIONARY
  5
211
330
3E
100
AcDbDictionary
280
     1
281
     1
  3
ACAD_XREC_ROUNDTRIP
360
212
  0
DICTIONARY
  5
213
330
3F
100
AcDbDictionary
280
     1
281
     1
  3
ACAD_XREC_ROUNDTRIP
360
214
  0
DICTIONARY
  5
203
330
37
100
AcDbDictionary
280
     1
281
     1
  3
ACAD_XREC_ROUNDTRIP
360
204
  0
DICTIONARY
  5
1F5
330
30
100
AcDbDictionary
280
     1
281
     1
  3
ACAD_XREC_ROUNDTRIP
360
1F6
  0
DICTIONARY
  5
215
330
40
100
AcDbDictionary
280
     1
281
     1
  3
ACAD_XREC_ROUNDTRIP
360
216
  0
CELLSTYLEMAP
  5
21C
102
{ACAD_REACTORS
330
21B
102
}
330
21B
100
AcDbCellStyleMap
 90
        3
300
CELLSTYLE
  1
TABLEFORMAT_BEGIN
 90
        5
170
     1
 91
        0
 92
    32768
 62
   257
 93
        1
300
CONTENTFORMAT
  1
CONTENTFORMAT_BEGIN
 90
        0
 91
        0
 92
        4
 93
        0
300

 40
0.0
140
1.0
 94
        5
 62
     0
340
11
144
6.0
309
CONTENTFORMAT_END
171
     1
301
MARGIN
  1
CELLMARGIN_BEGIN
 40
1.5
 40
1.5
 40
1.5
 40
1.5
 40
1.5
 40
1.5
309
CELLMARGIN_END
 94
        6
 95
        1
302
GRIDFORMAT
  1
GRIDFORMAT_BEGIN
 90
        0
 91
        1
 62
     0
 92
       -2
340
14
 93
        0
 40
0.045
309
GRIDFORMAT_END
 95
        2
302
GRIDFORMAT
  1
GRIDFORMAT_BEGIN
 90
        0
 91
        1
 62
     0
 92
       -2
340
14
 93
        0
 40
0.045
309
GRIDFORMAT_END
 95
        4
302
GRIDFORMAT
  1
GRIDFORMAT_BEGIN
 90
        0
 91
        1
 62
     0
 92
       -2
340
14
 93
        0
 40
0.045
309
GRIDFORMAT_END
 95
        8
302
GRIDFORMAT
  1
GRIDFORMAT_BEGIN
 90
        0
 91
        1
 62
     0
 92
       -2
340
14
 93
        0
 40
0.045
309
GRIDFORMAT_END
 95
       16
302
GRIDFORMAT
  1
GRIDFORMAT_BEGIN
 90
        0
 91
        1
 62
     0
 92
       -2
340
14
 93
        0
 40
0.045
309
GRIDFORMAT_END
 95
       32
302
GRIDFORMAT
  1
GRIDFORMAT_BEGIN
 90
        0
 91
        1
 62
     0
 92
       -2
340
14
 93
        0
 40
0.045
309
GRIDFORMAT_END
309
TABLEFORMAT_END
  1
CELLSTYLE_BEGIN
 90
        1
 91
        1
300
_TITLE
309
CELLSTYLE_END
300
CELLSTYLE
  1
TABLEFORMAT_BEGIN
 90
        5
170
     1
 91
        0
 92
        0
 62
   257
 93
        1
300
CONTENTFORMAT
  1
CONTENTFORMAT_BEGIN
 90
        0
 91
        0
 92
        4
 93
        0
300

 40
0.0
140
1.0
 94
        5
 62
     0
340
11
144
4.5
309
CONTENTFORMAT_END
171
     1
301
MARGIN
  1
CELLMARGIN_BEGIN
 40
1.5
 40
1.5
 40
1.5
 40
1.5
 40
1.5
 40
1.5
309
CELLMARGIN_END
 94
        6
 95
        1
302
GRIDFORMAT
  1
GRIDFORMAT_BEGIN
 90
        0
 91
        1
 62
     0
 92
       -2
340
14
 93
        0
 40
0.045
309
GRIDFORMAT_END
 95
        2
302
GRIDFORMAT
  1
GRIDFORMAT_BEGIN
 90
        0
 91
        1
 62
     0
 92
       -2
340
14
 93
        0
 40
0.045
309
GRIDFORMAT_END
 95
        4
302
GRIDFORMAT
  1
GRIDFORMAT_BEGIN
 90
        0
 91
        1
 62
     0
 92
       -2
340
14
 93
        0
 40
0.045
309
GRIDFORMAT_END
 95
        8
302
GRIDFORMAT
  1
GRIDFORMAT_BEGIN
 90
        0
 91
        1
 62
     0
 92
       -2
340
14
 93
        0
 40
0.045
309
GRIDFORMAT_END
 95
       16
302
GRIDFORMAT
  1
GRIDFORMAT_BEGIN
 90
        0
 91
        1
 62
     0
 92
       -2
340
14
 93
        0
 40
0.045
309
GRIDFORMAT_END
 95
       32
302
GRIDFORMAT
  1
GRIDFORMAT_BEGIN
 90
        0
 91
        1
 62
     0
 92
       -2
340
14
 93
        0
 40
0.045
309
GRIDFORMAT_END
309
TABLEFORMAT_END
  1
CELLSTYLE_BEGIN
 90
        2
 91
        1
300
_HEADER
309
CELLSTYLE_END
300
CELLSTYLE
  1
TABLEFORMAT_BEGIN
 90
        5
170
     1
 91
        0
 92
        0
 62
   257
 93
        1
300
CONTENTFORMAT
  1
CONTENTFORMAT_BEGIN
 90
        0
 91
        0
 92
        4
 93
        0
300

 40
0.0
140
1.0
 94
        2
 62
     0
340
11
144
4.5
309
CONTENTFORMAT_END
171
     1
301
MARGIN
  1
CELLMARGIN_BEGIN
 40
1.5
 40
1.5
 40
1.5
 40
1.5
 40
1.5
 40
1.5
309
CELLMARGIN_END
 94
        6
 95
        1
302
GRIDFORMAT
  1
GRIDFORMAT_BEGIN
 90
        0
 91
        1
 62
     0
 92
       -2
340
14
 93
        0
 40
0.045
309
GRIDFORMAT_END
 95
        2
302
GRIDFORMAT
  1
GRIDFORMAT_BEGIN
 90
        0
 91
        1
 62
     0
 92
       -2
340
14
 93
        0
 40
0.045
309
GRIDFORMAT_END
 95
        4
302
GRIDFORMAT
  1
GRIDFORMAT_BEGIN
 90
        0
 91
        1
 62
     0
 92
       -2
340
14
 93
        0
 40
0.045
309
GRIDFORMAT_END
 95
        8
302
GRIDFORMAT
  1
GRIDFORMAT_BEGIN
 90
        0
 91
        1
 62
     0
 92
       -2
340
14
 93
        0
 40
0.045
309
GRIDFORMAT_END
 95
       16
302
GRIDFORMAT
  1
GRIDFORMAT_BEGIN
 90
        0
 91
        1
 62
     0
 92
       -2
340
14
 93
        0
 40
0.045
309
GRIDFORMAT_END
 95
       32
302
GRIDFORMAT
  1
GRIDFORMAT_BEGIN
 90
        0
 91
        1
 62
     0
 92
       -2
340
14
 93
        0
 40
0.045
309
GRIDFORMAT_END
309
TABLEFORMAT_END
  1
CELLSTYLE_BEGIN
 90
        3
 91
        2
300
_DATA
309
CELLSTYLE_END
  0
XRECORD
  5
1F4
102
{ACAD_REACTORS
330
1F3
102
}
330
1F3
100
AcDbXrecord
280
     1
102
RTVSPost2010Prop28
280
     1
102
RTVSPost2010PropOp28
 70
     1
102
RTVSPost2010Prop29
280
     1
102
RTVSPost2010PropOp29
 70
     1
102
RTVSPost2010Prop30
280
     0
102
RTVSPost2010PropOp30
 70
     1
102
RTVSPost2010Prop31
280
     0
102
RTVSPost2010PropOp31
 70
     1
102
RTVSPost2010Prop32
280
     0
102
RTVSPost2010PropOp32
 70
     1
102
RTVSPost2010Prop33
280
     0
102
RTVSPost2010PropOp33
 70
     1
102
RTVSPost2010Prop34
280
     0
102
RTVSPost2010PropOp34
 70
     1
102
RTVSPost2010Prop35
280
     0
102
RTVSPost2010PropOp35
 70
     1
102
RTVSPost2010Prop36
280
     0
102
RTVSPost2010PropOp36
 70
     1
102
RTVSPost2010Prop37
 90
       50
102
RTVSPost2010PropOp37
 70
     1
102
RTVSPost2010Prop38
140
0.0
102
RTVSPost2010PropOp38
 70
     1
102
RTVSPost2010Prop39
140
1.0
102
RTVSPost2010PropOp39
 70
     1
102
RTVSPost2010Prop40
 90
        0
102
RTVSPost2010PropOp40
 70
     1
102
RTVSPost2010Prop41ColorIndex
 90
       18
102
RTVSPost2010Prop41ColorRGB
 90
        0
102
RTVSPost2010PropOp41
 70
     1
102
RTVSPost2010Prop42
 90
       50
102
RTVSPost2010PropOp42
 70
     1
102
RTVSPost2010Prop43
 90
        3
102
RTVSPost2010PropOp43
 70
     1
102
RTVSPost2010Prop44ColorIndex
 90
        5
102
RTVSPost2010Prop44ColorRGB
 90
      255
102
RTVSPost2010PropOp44
 70
     1
102
RTVSPost2010Prop45
280
     0
102
RTVSPost2010PropOp45
 70
     1
102
RTVSPost2010Prop46
 90
       50
102
RTVSPost2010PropOp46
 70
     1
102
RTVSPost2010Prop47
 90
       50
102
RTVSPost2010PropOp47
 70
     1
102
RTVSPost2010Prop48
 90
       50
102
RTVSPost2010PropOp48
 70
     1
102
RTVSPost2010Prop49
280
     0
102
RTVSPost2010PropOp49
 70
     1
102
RTVSPost2010Prop50
 90
       50
102
RTVSPost2010PropOp50
 70
     1
102
RTVSPost2010Prop51ColorIndex
 90
      256
102
RTVSPost2010Prop51ColorRGB
 90
-16777216
102
RTVSPost2010PropOp51
 70
     0
102
RTVSPost2010Prop52
140
1.0
102
RTVSPost2010PropOp52
 70
     0
102
RTVSPost2010Prop53
 90
        2
102
RTVSPost2010PropOp53
 70
     1
102
RTVSPost2010Prop54
  1
strokes_ogs.tif
102
RTVSPost2010PropOp54
 70
     1
102
RTVSPost2010Prop55
280
     0
102
RTVSPost2010PropOp55
 70
     1
102
RTVSPost2010Prop56
140
1.0
102
RTVSPost2010PropOp56
 70
     1
102
RTVSPost2010Prop57
140
1.0
102
RTVSPost2010PropOp57
 70
     1
  0
XRECORD
  5
1FA
102
{ACAD_REACTORS
330
1F9
102
}
330
1F9
100
AcDbXrecord
280
     1
102
RTVSPost2010Prop28
280
     0
102
RTVSPost2010PropOp28
 70
     1
102
RTVSPost2010Prop29
280
     1
102
RTVSPost2010PropOp29
 70
     1
102
RTVSPost2010Prop30
280
     1
102
RTVSPost2010PropOp30
 70
     1
102
RTVSPost2010Prop31
280
     0
102
RTVSPost2010PropOp31
 70
     1
102
RTVSPost2010Prop32
280
     0
102
RTVSPost2010PropOp32
 70
     1
102
RTVSPost2010Prop33
280
     0
102
RTVSPost2010PropOp33
 70
     1
102
RTVSPost2010Prop34
280
     0
102
RTVSPost2010PropOp34
 70
     1
102
RTVSPost2010Prop35
280
     0
102
RTVSPost2010PropOp35
 70
     1
102
RTVSPost2010Prop36
280
     0
102
RTVSPost2010PropOp36
 70
     1
102
RTVSPost2010Prop37
 90
       50
102
RTVSPost2010PropOp37
 70
     1
102
RTVSPost2010Prop38
140
0.0
102
RTVSPost2010PropOp38
 70
     1
102
RTVSPost2010Prop39
140
1.0
102
RTVSPost2010PropOp39
 70
     1
102
RTVSPost2010Prop40
 90
        0
102
RTVSPost2010PropOp40
 70
     1
102
RTVSPost2010Prop41ColorIndex
 90
       18
102
RTVSPost2010Prop41ColorRGB
 90
        0
102
RTVSPost2010PropOp41
 70
     1
102
RTVSPost2010Prop42
 90
       50
102
RTVSPost2010PropOp42
 70
     1
102
RTVSPost2010Prop43
 90
        3
102
RTVSPost2010PropOp43
 70
     1
102
RTVSPost2010Prop44ColorIndex
 90
        5
102
RTVSPost2010Prop44ColorRGB
 90
      255
102
RTVSPost2010PropOp44
 70
     1
102
RTVSPost2010Prop45
280
     0
102
RTVSPost2010PropOp45
 70
     1
102
RTVSPost2010Prop46
 90
       50
102
RTVSPost2010PropOp46
 70
     1
102
RTVSPost2010Prop47
 90
       50
102
RTVSPost2010PropOp47
 70
     1
102
RTVSPost2010Prop48
 90
       50
102
RTVSPost2010PropOp48
 70
     1
102
RTVSPost2010Prop49
280
     0
102
RTVSPost2010PropOp49
 70
     1
102
RTVSPost2010Prop50
 90
       50
102
RTVSPost2010PropOp50
 70
     1
102
RTVSPost2010Prop51ColorIndex
 90
      256
102
RTVSPost2010Prop51ColorRGB
 90
-16777216
102
RTVSPost2010PropOp51
 70
     0
102
RTVSPost2010Prop52
140
1.0
102
RTVSPost2010PropOp52
 70
     0
102
RTVSPost2010Prop53
 90
        2
102
RTVSPost2010PropOp53
 70
     1
102
RTVSPost2010Prop54
  1
strokes_ogs.tif
102
RTVSPost2010PropOp54
 70
     1
102
RTVSPost2010Prop55
280
     0
102
RTVSPost2010PropOp55
 70
     1
102
RTVSPost2010Prop56
140
1.0
102
RTVSPost2010PropOp56
 70
     1
102
RTVSPost2010Prop57
140
1.0
102
RTVSPost2010PropOp57
 70
     1
  0
XRECORD
  5
202
102
{ACAD_REACTORS
330
201
102
}
330
201
100
AcDbXrecord
280
     1
102
RTVSPost2010Prop28
280
     0
102
RTVSPost2010PropOp28
 70
     1
102
RTVSPost2010Prop29
280
     1
102
RTVSPost2010PropOp29
 70
     1
102
RTVSPost2010Prop30
280
     1
102
RTVSPost2010PropOp30
 70
     1
102
RTVSPost2010Prop31
280
     0
102
RTVSPost2010PropOp31
 70
     1
102
RTVSPost2010Prop32
280
     0
102
RTVSPost2010PropOp32
 70
     1
102
RTVSPost2010Prop33
280
     0
102
RTVSPost2010PropOp33
 70
     1
102
RTVSPost2010Prop34
280
     0
102
RTVSPost2010PropOp34
 70
     1
102
RTVSPost2010Prop35
280
     0
102
RTVSPost2010PropOp35
 70
     1
102
RTVSPost2010Prop36
280
     0
102
RTVSPost2010PropOp36
 70
     1
102
RTVSPost2010Prop37
 90
       50
102
RTVSPost2010PropOp37
 70
     1
102
RTVSPost2010Prop38
140
0.0
102
RTVSPost2010PropOp38
 70
     1
102
RTVSPost2010Prop39
140
1.0
102
RTVSPost2010PropOp39
 70
     1
102
RTVSPost2010Prop40
 90
        0
102
RTVSPost2010PropOp40
 70
     1
102
RTVSPost2010Prop41ColorIndex
 90
       18
102
RTVSPost2010Prop41ColorRGB
 90
        0
102
RTVSPost2010PropOp41
 70
     1
102
RTVSPost2010Prop42
 90
       50
102
RTVSPost2010PropOp42
 70
     1
102
RTVSPost2010Prop43
 90
        3
102
RTVSPost2010PropOp43
 70
     1
102
RTVSPost2010Prop44ColorIndex
 90
        5
102
RTVSPost2010Prop44ColorRGB
 90
      255
102
RTVSPost2010PropOp44
 70
     1
102
RTVSPost2010Prop45
280
     0
102
RTVSPost2010PropOp45
 70
     1
102
RTVSPost2010Prop46
 90
       50
102
RTVSPost2010PropOp46
 70
     1
102
RTVSPost2010Prop47
 90
       50
102
RTVSPost2010PropOp47
 70
     1
102
RTVSPost2010Prop48
 90
       50
102
RTVSPost2010PropOp48
 70
     1
102
RTVSPost2010Prop49
280
     0
102
RTVSPost2010PropOp49
 70
     1
102
RTVSPost2010Prop50
 90
       50
102
RTVSPost2010PropOp50
 70
     1
102
RTVSPost2010Prop51ColorIndex
 90
      256
102
RTVSPost2010Prop51ColorRGB
 90
-16777216
102
RTVSPost2010PropOp51
 70
     0
102
RTVSPost2010Prop52
140
1.0
102
RTVSPost2010PropOp52
 70
     0
102
RTVSPost2010Prop53
 90
        2
102
RTVSPost2010PropOp53
 70
     1
102
RTVSPost2010Prop54
  1
strokes_ogs.tif
102
RTVSPost2010PropOp54
 70
     1
102
RTVSPost2010Prop55
280
     0
102
RTVSPost2010PropOp55
 70
     1
102
RTVSPost2010Prop56
140
1.0
102
RTVSPost2010PropOp56
 70
     1
102
RTVSPost2010Prop57
140
1.0
102
RTVSPost2010PropOp57
 70
     1
  0
XRECORD
  5
20A
102
{ACAD_REACTORS
330
209
102
}
330
209
100
AcDbXrecord
280
     1
102
RTVSPost2010Prop28
280
     0
102
RTVSPost2010PropOp28
 70
     1
102
RTVSPost2010Prop29
280
     1
102
RTVSPost2010PropOp29
 70
     1
102
RTVSPost2010Prop30
280
     1
102
RTVSPost2010PropOp30
 70
     1
102
RTVSPost2010Prop31
280
     0
102
RTVSPost2010PropOp31
 70
     1
102
RTVSPost2010Prop32
280
     0
102
RTVSPost2010PropOp32
 70
     1
102
RTVSPost2010Prop33
280
     0
102
RTVSPost2010PropOp33
 70
     1
102
RTVSPost2010Prop34
280
     0
102
RTVSPost2010PropOp34
 70
     1
102
RTVSPost2010Prop35
280
     0
102
RTVSPost2010PropOp35
 70
     1
102
RTVSPost2010Prop36
280
     0
102
RTVSPost2010PropOp36
 70
     1
102
RTVSPost2010Prop37
 90
       50
102
RTVSPost2010PropOp37
 70
     1
102
RTVSPost2010Prop38
140
0.0
102
RTVSPost2010PropOp38
 70
     1
102
RTVSPost2010Prop39
140
1.0
102
RTVSPost2010PropOp39
 70
     1
102
RTVSPost2010Prop40
 90
        0
102
RTVSPost2010PropOp40
 70
     1
102
RTVSPost2010Prop41ColorIndex
 90
       18
102
RTVSPost2010Prop41ColorRGB
 90
        0
102
RTVSPost2010PropOp41
 70
     1
102
RTVSPost2010Prop42
 90
       50
102
RTVSPost2010PropOp42
 70
     1
102
RTVSPost2010Prop43
 90
        3
102
RTVSPost2010PropOp43
 70
     1
102
RTVSPost2010Prop44ColorIndex
 90
        5
102
RTVSPost2010Prop44ColorRGB
 90
      255
102
RTVSPost2010PropOp44
 70
     1
102
RTVSPost2010Prop45
280
     0
102
RTVSPost2010PropOp45
 70
     1
102
RTVSPost2010Prop46
 90
       50
102
RTVSPost2010PropOp46
 70
     1
102
RTVSPost2010Prop47
 90
       50
102
RTVSPost2010PropOp47
 70
     1
102
RTVSPost2010Prop48
 90
       50
102
RTVSPost2010PropOp48
 70
     1
102
RTVSPost2010Prop49
280
     0
102
RTVSPost2010PropOp49
 70
     1
102
RTVSPost2010Prop50
 90
       50
102
RTVSPost2010PropOp50
 70
     1
102
RTVSPost2010Prop51ColorIndex
 90
      256
102
RTVSPost2010Prop51ColorRGB
 90
-16777216
102
RTVSPost2010PropOp51
 70
     0
102
RTVSPost2010Prop52
140
1.0
102
RTVSPost2010PropOp52
 70
     0
102
RTVSPost2010Prop53
 90
        2
102
RTVSPost2010PropOp53
 70
     1
102
RTVSPost2010Prop54
  1
strokes_ogs.tif
102
RTVSPost2010PropOp54
 70
     1
102
RTVSPost2010Prop55
280
     0
102
RTVSPost2010PropOp55
 70
     1
102
RTVSPost2010Prop56
140
1.0
102
RTVSPost2010PropOp56
 70
     1
102
RTVSPost2010Prop57
140
1.0
102
RTVSPost2010PropOp57
 70
     1
  0
XRECORD
  5
1FE
102
{ACAD_REACTORS
330
1FD
102
}
330
1FD
100
AcDbXrecord
280
     1
102
RTVSPost2010Prop28
280
     0
102
RTVSPost2010PropOp28
 70
     1
102
RTVSPost2010Prop29
280
     1
102
RTVSPost2010PropOp29
 70
     1
102
RTVSPost2010Prop30
280
     1
102
RTVSPost2010PropOp30
 70
     1
102
RTVSPost2010Prop31
280
     0
102
RTVSPost2010PropOp31
 70
     1
102
RTVSPost2010Prop32
280
     0
102
RTVSPost2010PropOp32
 70
     1
102
RTVSPost2010Prop33
280
     0
102
RTVSPost2010PropOp33
 70
     1
102
RTVSPost2010Prop34
280
     0
102
RTVSPost2010PropOp34
 70
     1
102
RTVSPost2010Prop35
280
     0
102
RTVSPost2010PropOp35
 70
     1
102
RTVSPost2010Prop36
280
     0
102
RTVSPost2010PropOp36
 70
     1
102
RTVSPost2010Prop37
 90
       50
102
RTVSPost2010PropOp37
 70
     1
102
RTVSPost2010Prop38
140
0.0
102
RTVSPost2010PropOp38
 70
     1
102
RTVSPost2010Prop39
140
1.0
102
RTVSPost2010PropOp39
 70
     1
102
RTVSPost2010Prop40
 90
        0
102
RTVSPost2010PropOp40
 70
     1
102
RTVSPost2010Prop41ColorIndex
 90
       18
102
RTVSPost2010Prop41ColorRGB
 90
        0
102
RTVSPost2010PropOp41
 70
     1
102
RTVSPost2010Prop42
 90
       50
102
RTVSPost2010PropOp42
 70
     1
102
RTVSPost2010Prop43
 90
        3
102
RTVSPost2010PropOp43
 70
     1
102
RTVSPost2010Prop44ColorIndex
 90
        5
102
RTVSPost2010Prop44ColorRGB
 90
      255
102
RTVSPost2010PropOp44
 70
     1
102
RTVSPost2010Prop45
280
     0
102
RTVSPost2010PropOp45
 70
     1
102
RTVSPost2010Prop46
 90
       50
102
RTVSPost2010PropOp46
 70
     1
102
RTVSPost2010Prop47
 90
       50
102
RTVSPost2010PropOp47
 70
     1
102
RTVSPost2010Prop48
 90
       50
102
RTVSPost2010PropOp48
 70
     1
102
RTVSPost2010Prop49
280
     0
102
RTVSPost2010PropOp49
 70
     1
102
RTVSPost2010Prop50
 90
       50
102
RTVSPost2010PropOp50
 70
     1
102
RTVSPost2010Prop51ColorIndex
 90
      256
102
RTVSPost2010Prop51ColorRGB
 90
-16777216
102
RTVSPost2010PropOp51
 70
     0
102
RTVSPost2010Prop52
140
1.0
102
RTVSPost2010PropOp52
 70
     0
102
RTVSPost2010Prop53
 90
        2
102
RTVSPost2010PropOp53
 70
     1
102
RTVSPost2010Prop54
  1
strokes_ogs.tif
102
RTVSPost2010PropOp54
 70
     1
102
RTVSPost2010Prop55
280
     0
102
RTVSPost2010PropOp55
 70
     1
102
RTVSPost2010Prop56
140
1.0
102
RTVSPost2010PropOp56
 70
     1
102
RTVSPost2010Prop57
140
1.0
102
RTVSPost2010PropOp57
 70
     1
  0
XRECORD
  5
200
102
{ACAD_REACTORS
330
1FF
102
}
330
1FF
100
AcDbXrecord
280
     1
102
RTVSPost2010Prop28
280
     0
102
RTVSPost2010PropOp28
 70
     1
102
RTVSPost2010Prop29
280
     1
102
RTVSPost2010PropOp29
 70
     1
102
RTVSPost2010Prop30
280
     1
102
RTVSPost2010PropOp30
 70
     1
102
RTVSPost2010Prop31
280
     0
102
RTVSPost2010PropOp31
 70
     1
102
RTVSPost2010Prop32
280
     0
102
RTVSPost2010PropOp32
 70
     1
102
RTVSPost2010Prop33
280
     0
102
RTVSPost2010PropOp33
 70
     1
102
RTVSPost2010Prop34
280
     0
102
RTVSPost2010PropOp34
 70
     1
102
RTVSPost2010Prop35
280
     0
102
RTVSPost2010PropOp35
 70
     1
102
RTVSPost2010Prop36
280
     0
102
RTVSPost2010PropOp36
 70
     1
102
RTVSPost2010Prop37
 90
       50
102
RTVSPost2010PropOp37
 70
     1
102
RTVSPost2010Prop38
140
0.0
102
RTVSPost2010PropOp38
 70
     1
102
RTVSPost2010Prop39
140
1.0
102
RTVSPost2010PropOp39
 70
     1
102
RTVSPost2010Prop40
 90
        0
102
RTVSPost2010PropOp40
 70
     1
102
RTVSPost2010Prop41ColorIndex
 90
       18
102
RTVSPost2010Prop41ColorRGB
 90
        0
102
RTVSPost2010PropOp41
 70
     1
102
RTVSPost2010Prop42
 90
       50
102
RTVSPost2010PropOp42
 70
     1
102
RTVSPost2010Prop43
 90
        3
102
RTVSPost2010PropOp43
 70
     1
102
RTVSPost2010Prop44ColorIndex
 90
        5
102
RTVSPost2010Prop44ColorRGB
 90
      255
102
RTVSPost2010PropOp44
 70
     1
102
RTVSPost2010Prop45
280
     0
102
RTVSPost2010PropOp45
 70
     1
102
RTVSPost2010Prop46
 90
       50
102
RTVSPost2010PropOp46
 70
     1
102
RTVSPost2010Prop47
 90
       50
102
RTVSPost2010PropOp47
 70
     1
102
RTVSPost2010Prop48
 90
       50
102
RTVSPost2010PropOp48
 70
     1
102
RTVSPost2010Prop49
280
     0
102
RTVSPost2010PropOp49
 70
     1
102
RTVSPost2010Prop50
 90
       50
102
RTVSPost2010PropOp50
 70
     1
102
RTVSPost2010Prop51ColorIndex
 90
      256
102
RTVSPost2010Prop51ColorRGB
 90
-16777216
102
RTVSPost2010PropOp51
 70
     0
102
RTVSPost2010Prop52
140
1.0
102
RTVSPost2010PropOp52
 70
     0
102
RTVSPost2010Prop53
 90
        2
102
RTVSPost2010PropOp53
 70
     1
102
RTVSPost2010Prop54
  1
strokes_ogs.tif
102
RTVSPost2010PropOp54
 70
     1
102
RTVSPost2010Prop55
280
     0
102
RTVSPost2010PropOp55
 70
     1
102
RTVSPost2010Prop56
140
1.0
102
RTVSPost2010PropOp56
 70
     1
102
RTVSPost2010Prop57
140
1.0
102
RTVSPost2010PropOp57
 70
     1
  0
XRECORD
  5
210
102
{ACAD_REACTORS
330
20F
102
}
330
20F
100
AcDbXrecord
280
     1
102
RTVSPost2010Prop28
280
     0
102
RTVSPost2010PropOp28
 70
     0
102
RTVSPost2010Prop29
280
     1
102
RTVSPost2010PropOp29
 70
     0
102
RTVSPost2010Prop30
280
     1
102
RTVSPost2010PropOp30
 70
     0
102
RTVSPost2010Prop31
280
     0
102
RTVSPost2010PropOp31
 70
     0
102
RTVSPost2010Prop32
280
     0
102
RTVSPost2010PropOp32
 70
     0
102
RTVSPost2010Prop33
280
     0
102
RTVSPost2010PropOp33
 70
     0
102
RTVSPost2010Prop34
280
     0
102
RTVSPost2010PropOp34
 70
     0
102
RTVSPost2010Prop35
280
     0
102
RTVSPost2010PropOp35
 70
     0
102
RTVSPost2010Prop36
280
     0
102
RTVSPost2010PropOp36
 70
     0
102
RTVSPost2010Prop37
 90
       50
102
RTVSPost2010PropOp37
 70
     0
102
RTVSPost2010Prop38
140
0.0
102
RTVSPost2010PropOp38
 70
     0
102
RTVSPost2010Prop39
140
1.0
102
RTVSPost2010PropOp39
 70
     0
102
RTVSPost2010Prop40
 90
        0
102
RTVSPost2010PropOp40
 70
     0
102
RTVSPost2010Prop41ColorIndex
 90
       18
102
RTVSPost2010Prop41ColorRGB
 90
        0
102
RTVSPost2010PropOp41
 70
     0
102
RTVSPost2010Prop42
 90
       50
102
RTVSPost2010PropOp42
 70
     0
102
RTVSPost2010Prop43
 90
        3
102
RTVSPost2010PropOp43
 70
     0
102
RTVSPost2010Prop44ColorIndex
 90
        5
102
RTVSPost2010Prop44ColorRGB
 90
      255
102
RTVSPost2010PropOp44
 70
     0
102
RTVSPost2010Prop45
280
     0
102
RTVSPost2010PropOp45
 70
     0
102
RTVSPost2010Prop46
 90
       50
102
RTVSPost2010PropOp46
 70
     0
102
RTVSPost2010Prop47
 90
       50
102
RTVSPost2010PropOp47
 70
     0
102
RTVSPost2010Prop48
 90
       50
102
RTVSPost2010PropOp48
 70
     0
102
RTVSPost2010Prop49
280
     0
102
RTVSPost2010PropOp49
 70
     0
102
RTVSPost2010Prop50
 90
       50
102
RTVSPost2010PropOp50
 70
     0
102
RTVSPost2010Prop51ColorIndex
 90
      256
102
RTVSPost2010Prop51ColorRGB
 90
-16777216
102
RTVSPost2010PropOp51
 70
     0
102
RTVSPost2010Prop52
140
1.0
102
RTVSPost2010PropOp52
 70
     0
102
RTVSPost2010Prop53
 90
        2
102
RTVSPost2010PropOp53
 70
     0
102
RTVSPost2010Prop54
  1
strokes_ogs.tif
102
RTVSPost2010PropOp54
 70
     0
102
RTVSPost2010Prop55
280
     0
102
RTVSPost2010PropOp55
 70
     0
102
RTVSPost2010Prop56
140
1.0
102
RTVSPost2010PropOp56
 70
     0
102
RTVSPost2010Prop57
140
1.0
102
RTVSPost2010PropOp57
 70
     0
  0
XRECORD
  5
208
102
{ACAD_REACTORS
330
207
102
}
330
207
100
AcDbXrecord
280
     1
102
RTVSPost2010Prop28
280
     0
102
RTVSPost2010PropOp28
 70
     1
102
RTVSPost2010Prop29
280
     1
102
RTVSPost2010PropOp29
 70
     1
102
RTVSPost2010Prop30
280
     1
102
RTVSPost2010PropOp30
 70
     1
102
RTVSPost2010Prop31
280
     0
102
RTVSPost2010PropOp31
 70
     1
102
RTVSPost2010Prop32
280
     0
102
RTVSPost2010PropOp32
 70
     1
102
RTVSPost2010Prop33
280
     0
102
RTVSPost2010PropOp33
 70
     1
102
RTVSPost2010Prop34
280
     0
102
RTVSPost2010PropOp34
 70
     1
102
RTVSPost2010Prop35
280
     0
102
RTVSPost2010PropOp35
 70
     1
102
RTVSPost2010Prop36
280
     0
102
RTVSPost2010PropOp36
 70
     1
102
RTVSPost2010Prop37
 90
       50
102
RTVSPost2010PropOp37
 70
     1
102
RTVSPost2010Prop38
140
0.0
102
RTVSPost2010PropOp38
 70
     1
102
RTVSPost2010Prop39
140
1.0
102
RTVSPost2010PropOp39
 70
     1
102
RTVSPost2010Prop40
 90
        0
102
RTVSPost2010PropOp40
 70
     1
102
RTVSPost2010Prop41ColorIndex
 90
       18
102
RTVSPost2010Prop41ColorRGB
 90
        0
102
RTVSPost2010PropOp41
 70
     1
102
RTVSPost2010Prop42
 90
       50
102
RTVSPost2010PropOp42
 70
     1
102
RTVSPost2010Prop43
 90
        3
102
RTVSPost2010PropOp43
 70
     1
102
RTVSPost2010Prop44ColorIndex
 90
        5
102
RTVSPost2010Prop44ColorRGB
 90
      255
102
RTVSPost2010PropOp44
 70
     1
102
RTVSPost2010Prop45
280
     0
102
RTVSPost2010PropOp45
 70
     1
102
RTVSPost2010Prop46
 90
       50
102
RTVSPost2010PropOp46
 70
     1
102
RTVSPost2010Prop47
 90
       50
102
RTVSPost2010PropOp47
 70
     1
102
RTVSPost2010Prop48
 90
       50
102
RTVSPost2010PropOp48
 70
     1
102
RTVSPost2010Prop49
280
     0
102
RTVSPost2010PropOp49
 70
     1
102
RTVSPost2010Prop50
 90
       50
102
RTVSPost2010PropOp50
 70
     1
102
RTVSPost2010Prop51ColorIndex
 90
      256
102
RTVSPost2010Prop51ColorRGB
 90
-16777216
102
RTVSPost2010PropOp51
 70
     0
102
RTVSPost2010Prop52
140
1.0
102
RTVSPost2010PropOp52
 70
     0
102
RTVSPost2010Prop53
 90
        2
102
RTVSPost2010PropOp53
 70
     1
102
RTVSPost2010Prop54
  1
strokes_ogs.tif
102
RTVSPost2010PropOp54
 70
     1
102
RTVSPost2010Prop55
280
     0
102
RTVSPost2010PropOp55
 70
     1
102
RTVSPost2010Prop56
140
1.0
102
RTVSPost2010PropOp56
 70
     1
102
RTVSPost2010Prop57
140
1.0
102
RTVSPost2010PropOp57
 70
     1
  0
XRECORD
  5
1EC
102
{ACAD_REACTORS
330
1EB
102
}
330
1EB
100
AcDbXrecord
280
     1
102
RTVSPost2010Prop28
280
     0
102
RTVSPost2010PropOp28
 70
     1
102
RTVSPost2010Prop29
280
     1
102
RTVSPost2010PropOp29
 70
     1
102
RTVSPost2010Prop30
280
     1
102
RTVSPost2010PropOp30
 70
     1
102
RTVSPost2010Prop31
280
     0
102
RTVSPost2010PropOp31
 70
     1
102
RTVSPost2010Prop32
280
     0
102
RTVSPost2010PropOp32
 70
     1
102
RTVSPost2010Prop33
280
     0
102
RTVSPost2010PropOp33
 70
     1
102
RTVSPost2010Prop34
280
     0
102
RTVSPost2010PropOp34
 70
     1
102
RTVSPost2010Prop35
280
     0
102
RTVSPost2010PropOp35
 70
     1
102
RTVSPost2010Prop36
280
     0
102
RTVSPost2010PropOp36
 70
     1
102
RTVSPost2010Prop37
 90
       50
102
RTVSPost2010PropOp37
 70
     1
102
RTVSPost2010Prop38
140
0.0
102
RTVSPost2010PropOp38
 70
     1
102
RTVSPost2010Prop39
140
1.0
102
RTVSPost2010PropOp39
 70
     1
102
RTVSPost2010Prop40
 90
        0
102
RTVSPost2010PropOp40
 70
     1
102
RTVSPost2010Prop41ColorIndex
 90
       18
102
RTVSPost2010Prop41ColorRGB
 90
        0
102
RTVSPost2010PropOp41
 70
     1
102
RTVSPost2010Prop42
 90
       50
102
RTVSPost2010PropOp42
 70
     1
102
RTVSPost2010Prop43
 90
        3
102
RTVSPost2010PropOp43
 70
     1
102
RTVSPost2010Prop44ColorIndex
 90
        5
102
RTVSPost2010Prop44ColorRGB
 90
      255
102
RTVSPost2010PropOp44
 70
     1
102
RTVSPost2010Prop45
280
     0
102
RTVSPost2010PropOp45
 70
     1
102
RTVSPost2010Prop46
 90
       50
102
RTVSPost2010PropOp46
 70
     1
102
RTVSPost2010Prop47
 90
       50
102
RTVSPost2010PropOp47
 70
     1
102
RTVSPost2010Prop48
 90
       50
102
RTVSPost2010PropOp48
 70
     1
102
RTVSPost2010Prop49
280
     0
102
RTVSPost2010PropOp49
 70
     1
102
RTVSPost2010Prop50
 90
       50
102
RTVSPost2010PropOp50
 70
     1
102
RTVSPost2010Prop51ColorIndex
 90
      256
102
RTVSPost2010Prop51ColorRGB
 90
-16777216
102
RTVSPost2010PropOp51
 70
     0
102
RTVSPost2010Prop52
140
1.0
102
RTVSPost2010PropOp52
 70
     0
102
RTVSPost2010Prop53
 90
        2
102
RTVSPost2010PropOp53
 70
     1
102
RTVSPost2010Prop54
  1
strokes_ogs.tif
102
RTVSPost2010PropOp54
 70
     1
102
RTVSPost2010Prop55
280
     0
102
RTVSPost2010PropOp55
 70
     1
102
RTVSPost2010Prop56
140
1.0
102
RTVSPost2010PropOp56
 70
     1
102
RTVSPost2010Prop57
140
1.0
102
RTVSPost2010PropOp57
 70
     1
  0
XRECORD
  5
1EE
102
{ACAD_REACTORS
330
1ED
102
}
330
1ED
100
AcDbXrecord
280
     1
102
RTVSPost2010Prop28
280
     0
102
RTVSPost2010PropOp28
 70
     1
102
RTVSPost2010Prop29
280
     1
102
RTVSPost2010PropOp29
 70
     1
102
RTVSPost2010Prop30
280
     1
102
RTVSPost2010PropOp30
 70
     1
102
RTVSPost2010Prop31
280
     0
102
RTVSPost2010PropOp31
 70
     1
102
RTVSPost2010Prop32
280
     0
102
RTVSPost2010PropOp32
 70
     1
102
RTVSPost2010Prop33
280
     0
102
RTVSPost2010PropOp33
 70
     1
102
RTVSPost2010Prop34
280
     0
102
RTVSPost2010PropOp34
 70
     1
102
RTVSPost2010Prop35
280
     0
102
RTVSPost2010PropOp35
 70
     1
102
RTVSPost2010Prop36
280
     0
102
RTVSPost2010PropOp36
 70
     1
102
RTVSPost2010Prop37
 90
       50
102
RTVSPost2010PropOp37
 70
     1
102
RTVSPost2010Prop38
140
0.0
102
RTVSPost2010PropOp38
 70
     1
102
RTVSPost2010Prop39
140
1.0
102
RTVSPost2010PropOp39
 70
     1
102
RTVSPost2010Prop40
 90
        0
102
RTVSPost2010PropOp40
 70
     1
102
RTVSPost2010Prop41ColorIndex
 90
       18
102
RTVSPost2010Prop41ColorRGB
 90
        0
102
RTVSPost2010PropOp41
 70
     1
102
RTVSPost2010Prop42
 90
       50
102
RTVSPost2010PropOp42
 70
     1
102
RTVSPost2010Prop43
 90
        3
102
RTVSPost2010PropOp43
 70
     1
102
RTVSPost2010Prop44ColorIndex
 90
        5
102
RTVSPost2010Prop44ColorRGB
 90
      255
102
RTVSPost2010PropOp44
 70
     1
102
RTVSPost2010Prop45
280
     0
102
RTVSPost2010PropOp45
 70
     1
102
RTVSPost2010Prop46
 90
       50
102
RTVSPost2010PropOp46
 70
     1
102
RTVSPost2010Prop47
 90
       50
102
RTVSPost2010PropOp47
 70
     1
102
RTVSPost2010Prop48
 90
       50
102
RTVSPost2010PropOp48
 70
     1
102
RTVSPost2010Prop49
280
     0
102
RTVSPost2010PropOp49
 70
     1
102
RTVSPost2010Prop50
 90
       50
102
RTVSPost2010PropOp50
 70
     1
102
RTVSPost2010Prop51ColorIndex
 90
      256
102
RTVSPost2010Prop51ColorRGB
 90
-16777216
102
RTVSPost2010PropOp51
 70
     0
102
RTVSPost2010Prop52
140
1.0
102
RTVSPost2010PropOp52
 70
     0
102
RTVSPost2010Prop53
 90
        2
102
RTVSPost2010PropOp53
 70
     1
102
RTVSPost2010Prop54
  1
strokes_ogs.tif
102
RTVSPost2010PropOp54
 70
     1
102
RTVSPost2010Prop55
280
     0
102
RTVSPost2010PropOp55
 70
     1
102
RTVSPost2010Prop56
140
1.0
102
RTVSPost2010PropOp56
 70
     1
102
RTVSPost2010Prop57
140
1.0
102
RTVSPost2010PropOp57
 70
     1
  0
XRECORD
  5
1F0
102
{ACAD_REACTORS
330
1EF
102
}
330
1EF
100
AcDbXrecord
280
     1
102
RTVSPost2010Prop28
280
     0
102
RTVSPost2010PropOp28
 70
     1
102
RTVSPost2010Prop29
280
     1
102
RTVSPost2010PropOp29
 70
     1
102
RTVSPost2010Prop30
280
     1
102
RTVSPost2010PropOp30
 70
     1
102
RTVSPost2010Prop31
280
     0
102
RTVSPost2010PropOp31
 70
     1
102
RTVSPost2010Prop32
280
     0
102
RTVSPost2010PropOp32
 70
     1
102
RTVSPost2010Prop33
280
     0
102
RTVSPost2010PropOp33
 70
     1
102
RTVSPost2010Prop34
280
     0
102
RTVSPost2010PropOp34
 70
     1
102
RTVSPost2010Prop35
280
     0
102
RTVSPost2010PropOp35
 70
     1
102
RTVSPost2010Prop36
280
     0
102
RTVSPost2010PropOp36
 70
     1
102
RTVSPost2010Prop37
 90
       50
102
RTVSPost2010PropOp37
 70
     1
102
RTVSPost2010Prop38
140
0.0
102
RTVSPost2010PropOp38
 70
     1
102
RTVSPost2010Prop39
140
1.0
102
RTVSPost2010PropOp39
 70
     1
102
RTVSPost2010Prop40
 90
        0
102
RTVSPost2010PropOp40
 70
     1
102
RTVSPost2010Prop41ColorIndex
 90
       18
102
RTVSPost2010Prop41ColorRGB
 90
        0
102
RTVSPost2010PropOp41
 70
     1
102
RTVSPost2010Prop42
 90
       50
102
RTVSPost2010PropOp42
 70
     1
102
RTVSPost2010Prop43
 90
        3
102
RTVSPost2010PropOp43
 70
     1
102
RTVSPost2010Prop44ColorIndex
 90
        5
102
RTVSPost2010Prop44ColorRGB
 90
      255
102
RTVSPost2010PropOp44
 70
     1
102
RTVSPost2010Prop45
280
     0
102
RTVSPost2010PropOp45
 70
     1
102
RTVSPost2010Prop46
 90
       50
102
RTVSPost2010PropOp46
 70
     1
102
RTVSPost2010Prop47
 90
       50
102
RTVSPost2010PropOp47
 70
     1
102
RTVSPost2010Prop48
 90
       50
102
RTVSPost2010PropOp48
 70
     1
102
RTVSPost2010Prop49
280
     0
102
RTVSPost2010PropOp49
 70
     1
102
RTVSPost2010Prop50
 90
       50
102
RTVSPost2010PropOp50
 70
     1
102
RTVSPost2010Prop51ColorIndex
 90
      256
102
RTVSPost2010Prop51ColorRGB
 90
-16777216
102
RTVSPost2010PropOp51
 70
     0
102
RTVSPost2010Prop52
140
1.0
102
RTVSPost2010PropOp52
 70
     0
102
RTVSPost2010Prop53
 90
        2
102
RTVSPost2010PropOp53
 70
     1
102
RTVSPost2010Prop54
  1
strokes_ogs.tif
102
RTVSPost2010PropOp54
 70
     1
102
RTVSPost2010Prop55
280
     0
102
RTVSPost2010PropOp55
 70
     1
102
RTVSPost2010Prop56
140
1.0
102
RTVSPost2010PropOp56
 70
     1
102
RTVSPost2010Prop57
140
1.0
102
RTVSPost2010PropOp57
 70
     1
  0
XRECORD
  5
1F2
102
{ACAD_REACTORS
330
1F1
102
}
330
1F1
100
AcDbXrecord
280
     1
102
RTVSPost2010Prop28
280
     0
102
RTVSPost2010PropOp28
 70
     1
102
RTVSPost2010Prop29
280
     1
102
RTVSPost2010PropOp29
 70
     1
102
RTVSPost2010Prop30
280
     1
102
RTVSPost2010PropOp30
 70
     1
102
RTVSPost2010Prop31
280
     0
102
RTVSPost2010PropOp31
 70
     1
102
RTVSPost2010Prop32
280
     0
102
RTVSPost2010PropOp32
 70
     1
102
RTVSPost2010Prop33
280
     0
102
RTVSPost2010PropOp33
 70
     1
102
RTVSPost2010Prop34
280
     0
102
RTVSPost2010PropOp34
 70
     1
102
RTVSPost2010Prop35
280
     0
102
RTVSPost2010PropOp35
 70
     1
102
RTVSPost2010Prop36
280
     0
102
RTVSPost2010PropOp36
 70
     1
102
RTVSPost2010Prop37
 90
       50
102
RTVSPost2010PropOp37
 70
     1
102
RTVSPost2010Prop38
140
0.0
102
RTVSPost2010PropOp38
 70
     1
102
RTVSPost2010Prop39
140
1.0
102
RTVSPost2010PropOp39
 70
     1
102
RTVSPost2010Prop40
 90
        0
102
RTVSPost2010PropOp40
 70
     1
102
RTVSPost2010Prop41ColorIndex
 90
       18
102
RTVSPost2010Prop41ColorRGB
 90
        0
102
RTVSPost2010PropOp41
 70
     1
102
RTVSPost2010Prop42
 90
       50
102
RTVSPost2010PropOp42
 70
     1
102
RTVSPost2010Prop43
 90
        3
102
RTVSPost2010PropOp43
 70
     1
102
RTVSPost2010Prop44ColorIndex
 90
        5
102
RTVSPost2010Prop44ColorRGB
 90
      255
102
RTVSPost2010PropOp44
 70
     1
102
RTVSPost2010Prop45
280
     0
102
RTVSPost2010PropOp45
 70
     1
102
RTVSPost2010Prop46
 90
       50
102
RTVSPost2010PropOp46
 70
     1
102
RTVSPost2010Prop47
 90
       50
102
RTVSPost2010PropOp47
 70
     1
102
RTVSPost2010Prop48
 90
       50
102
RTVSPost2010PropOp48
 70
     1
102
RTVSPost2010Prop49
280
     0
102
RTVSPost2010PropOp49
 70
     1
102
RTVSPost2010Prop50
 90
       50
102
RTVSPost2010PropOp50
 70
     1
102
RTVSPost2010Prop51ColorIndex
 90
      256
102
RTVSPost2010Prop51ColorRGB
 90
-16777216
102
RTVSPost2010PropOp51
 70
     0
102
RTVSPost2010Prop52
140
1.0
102
RTVSPost2010PropOp52
 70
     0
102
RTVSPost2010Prop53
 90
        2
102
RTVSPost2010PropOp53
 70
     1
102
RTVSPost2010Prop54
  1
strokes_ogs.tif
102
RTVSPost2010PropOp54
 70
     1
102
RTVSPost2010Prop55
280
     0
102
RTVSPost2010PropOp55
 70
     1
102
RTVSPost2010Prop56
140
1.0
102
RTVSPost2010PropOp56
 70
     1
102
RTVSPost2010Prop57
140
1.0
102
RTVSPost2010PropOp57
 70
     1
  0
XRECORD
  5
1F8
102
{ACAD_REACTORS
330
1F7
102
}
330
1F7
100
AcDbXrecord
280
     1
102
RTVSPost2010Prop28
280
     0
102
RTVSPost2010PropOp28
 70
     1
102
RTVSPost2010Prop29
280
     1
102
RTVSPost2010PropOp29
 70
     1
102
RTVSPost2010Prop30
280
     1
102
RTVSPost2010PropOp30
 70
     1
102
RTVSPost2010Prop31
280
     0
102
RTVSPost2010PropOp31
 70
     1
102
RTVSPost2010Prop32
280
     0
102
RTVSPost2010PropOp32
 70
     1
102
RTVSPost2010Prop33
280
     0
102
RTVSPost2010PropOp33
 70
     1
102
RTVSPost2010Prop34
280
     0
102
RTVSPost2010PropOp34
 70
     1
102
RTVSPost2010Prop35
280
     0
102
RTVSPost2010PropOp35
 70
     1
102
RTVSPost2010Prop36
280
     0
102
RTVSPost2010PropOp36
 70
     1
102
RTVSPost2010Prop37
 90
       50
102
RTVSPost2010PropOp37
 70
     1
102
RTVSPost2010Prop38
140
0.0
102
RTVSPost2010PropOp38
 70
     1
102
RTVSPost2010Prop39
140
1.0
102
RTVSPost2010PropOp39
 70
     1
102
RTVSPost2010Prop40
 90
        0
102
RTVSPost2010PropOp40
 70
     1
102
RTVSPost2010Prop41ColorIndex
 90
       18
102
RTVSPost2010Prop41ColorRGB
 90
        0
102
RTVSPost2010PropOp41
 70
     1
102
RTVSPost2010Prop42
 90
       50
102
RTVSPost2010PropOp42
 70
     1
102
RTVSPost2010Prop43
 90
        3
102
RTVSPost2010PropOp43
 70
     1
102
RTVSPost2010Prop44ColorIndex
 90
        5
102
RTVSPost2010Prop44ColorRGB
 90
      255
102
RTVSPost2010PropOp44
 70
     1
102
RTVSPost2010Prop45
280
     0
102
RTVSPost2010PropOp45
 70
     1
102
RTVSPost2010Prop46
 90
       50
102
RTVSPost2010PropOp46
 70
     1
102
RTVSPost2010Prop47
 90
       50
102
RTVSPost2010PropOp47
 70
     1
102
RTVSPost2010Prop48
 90
       50
102
RTVSPost2010PropOp48
 70
     1
102
RTVSPost2010Prop49
280
     0
102
RTVSPost2010PropOp49
 70
     1
102
RTVSPost2010Prop50
 90
       50
102
RTVSPost2010PropOp50
 70
     1
102
RTVSPost2010Prop51ColorIndex
 90
      256
102
RTVSPost2010Prop51ColorRGB
 90
-16777216
102
RTVSPost2010PropOp51
 70
     0
102
RTVSPost2010Prop52
140
1.0
102
RTVSPost2010PropOp52
 70
     0
102
RTVSPost2010Prop53
 90
        2
102
RTVSPost2010PropOp53
 70
     1
102
RTVSPost2010Prop54
  1
strokes_ogs.tif
102
RTVSPost2010PropOp54
 70
     1
102
RTVSPost2010Prop55
280
     0
102
RTVSPost2010PropOp55
 70
     1
102
RTVSPost2010Prop56
140
1.0
102
RTVSPost2010PropOp56
 70
     1
102
RTVSPost2010Prop57
140
1.0
102
RTVSPost2010PropOp57
 70
     1
  0
XRECORD
  5
20C
102
{ACAD_REACTORS
330
20B
102
}
330
20B
100
AcDbXrecord
280
     1
102
RTVSPost2010Prop28
280
     0
102
RTVSPost2010PropOp28
 70
     0
102
RTVSPost2010Prop29
280
     1
102
RTVSPost2010PropOp29
 70
     0
102
RTVSPost2010Prop30
280
     1
102
RTVSPost2010PropOp30
 70
     0
102
RTVSPost2010Prop31
280
     0
102
RTVSPost2010PropOp31
 70
     0
102
RTVSPost2010Prop32
280
     0
102
RTVSPost2010PropOp32
 70
     0
102
RTVSPost2010Prop33
280
     0
102
RTVSPost2010PropOp33
 70
     0
102
RTVSPost2010Prop34
280
     0
102
RTVSPost2010PropOp34
 70
     0
102
RTVSPost2010Prop35
280
     0
102
RTVSPost2010PropOp35
 70
     0
102
RTVSPost2010Prop36
280
     0
102
RTVSPost2010PropOp36
 70
     0
102
RTVSPost2010Prop37
 90
       50
102
RTVSPost2010PropOp37
 70
     0
102
RTVSPost2010Prop38
140
0.0
102
RTVSPost2010PropOp38
 70
     0
102
RTVSPost2010Prop39
140
1.0
102
RTVSPost2010PropOp39
 70
     0
102
RTVSPost2010Prop40
 90
        0
102
RTVSPost2010PropOp40
 70
     0
102
RTVSPost2010Prop41ColorIndex
 90
       18
102
RTVSPost2010Prop41ColorRGB
 90
        0
102
RTVSPost2010PropOp41
 70
     0
102
RTVSPost2010Prop42
 90
       50
102
RTVSPost2010PropOp42
 70
     0
102
RTVSPost2010Prop43
 90
        3
102
RTVSPost2010PropOp43
 70
     0
102
RTVSPost2010Prop44ColorIndex
 90
        5
102
RTVSPost2010Prop44ColorRGB
 90
      255
102
RTVSPost2010PropOp44
 70
     0
102
RTVSPost2010Prop45
280
     0
102
RTVSPost2010PropOp45
 70
     0
102
RTVSPost2010Prop46
 90
       50
102
RTVSPost2010PropOp46
 70
     0
102
RTVSPost2010Prop47
 90
       50
102
RTVSPost2010PropOp47
 70
     0
102
RTVSPost2010Prop48
 90
       50
102
RTVSPost2010PropOp48
 70
     0
102
RTVSPost2010Prop49
280
     0
102
RTVSPost2010PropOp49
 70
     0
102
RTVSPost2010Prop50
 90
       50
102
RTVSPost2010PropOp50
 70
     0
102
RTVSPost2010Prop51ColorIndex
 90
      256
102
RTVSPost2010Prop51ColorRGB
 90
-16777216
102
RTVSPost2010PropOp51
 70
     0
102
RTVSPost2010Prop52
140
1.0
102
RTVSPost2010PropOp52
 70
     0
102
RTVSPost2010Prop53
 90
        2
102
RTVSPost2010PropOp53
 70
     0
102
RTVSPost2010Prop54
  1
strokes_ogs.tif
102
RTVSPost2010PropOp54
 70
     0
102
RTVSPost2010Prop55
280
     0
102
RTVSPost2010PropOp55
 70
     0
102
RTVSPost2010Prop56
140
1.0
102
RTVSPost2010PropOp56
 70
     0
102
RTVSPost2010Prop57
140
1.0
102
RTVSPost2010PropOp57
 70
     0
  0
XRECORD
  5
206
102
{ACAD_REACTORS
330
205
102
}
330
205
100
AcDbXrecord
280
     1
102
RTVSPost2010Prop28
280
     0
102
RTVSPost2010PropOp28
 70
     1
102
RTVSPost2010Prop29
280
     1
102
RTVSPost2010PropOp29
 70
     1
102
RTVSPost2010Prop30
280
     1
102
RTVSPost2010PropOp30
 70
     1
102
RTVSPost2010Prop31
280
     0
102
RTVSPost2010PropOp31
 70
     1
102
RTVSPost2010Prop32
280
     0
102
RTVSPost2010PropOp32
 70
     1
102
RTVSPost2010Prop33
280
     0
102
RTVSPost2010PropOp33
 70
     1
102
RTVSPost2010Prop34
280
     0
102
RTVSPost2010PropOp34
 70
     1
102
RTVSPost2010Prop35
280
     0
102
RTVSPost2010PropOp35
 70
     1
102
RTVSPost2010Prop36
280
     0
102
RTVSPost2010PropOp36
 70
     1
102
RTVSPost2010Prop37
 90
       50
102
RTVSPost2010PropOp37
 70
     1
102
RTVSPost2010Prop38
140
0.0
102
RTVSPost2010PropOp38
 70
     1
102
RTVSPost2010Prop39
140
1.0
102
RTVSPost2010PropOp39
 70
     1
102
RTVSPost2010Prop40
 90
        0
102
RTVSPost2010PropOp40
 70
     1
102
RTVSPost2010Prop41ColorIndex
 90
       18
102
RTVSPost2010Prop41ColorRGB
 90
        0
102
RTVSPost2010PropOp41
 70
     1
102
RTVSPost2010Prop42
 90
       50
102
RTVSPost2010PropOp42
 70
     1
102
RTVSPost2010Prop43
 90
        3
102
RTVSPost2010PropOp43
 70
     1
102
RTVSPost2010Prop44ColorIndex
 90
        5
102
RTVSPost2010Prop44ColorRGB
 90
      255
102
RTVSPost2010PropOp44
 70
     1
102
RTVSPost2010Prop45
280
     0
102
RTVSPost2010PropOp45
 70
     1
102
RTVSPost2010Prop46
 90
       50
102
RTVSPost2010PropOp46
 70
     1
102
RTVSPost2010Prop47
 90
       50
102
RTVSPost2010PropOp47
 70
     1
102
RTVSPost2010Prop48
 90
       50
102
RTVSPost2010PropOp48
 70
     1
102
RTVSPost2010Prop49
280
     0
102
RTVSPost2010PropOp49
 70
     1
102
RTVSPost2010Prop50
 90
       50
102
RTVSPost2010PropOp50
 70
     1
102
RTVSPost2010Prop51ColorIndex
 90
      256
102
RTVSPost2010Prop51ColorRGB
 90
-16777216
102
RTVSPost2010PropOp51
 70
     0
102
RTVSPost2010Prop52
140
1.0
102
RTVSPost2010PropOp52
 70
     0
102
RTVSPost2010Prop53
 90
        2
102
RTVSPost2010PropOp53
 70
     1
102
RTVSPost2010Prop54
  1
strokes_ogs.tif
102
RTVSPost2010PropOp54
 70
     1
102
RTVSPost2010Prop55
280
     0
102
RTVSPost2010PropOp55
 70
     1
102
RTVSPost2010Prop56
140
1.0
102
RTVSPost2010PropOp56
 70
     1
102
RTVSPost2010Prop57
140
1.0
102
RTVSPost2010PropOp57
 70
     1
  0
XRECORD
  5
20E
102
{ACAD_REACTORS
330
20D
102
}
330
20D
100
AcDbXrecord
280
     1
102
RTVSPost2010Prop28
280
     0
102
RTVSPost2010PropOp28
 70
     0
102
RTVSPost2010Prop29
280
     1
102
RTVSPost2010PropOp29
 70
     0
102
RTVSPost2010Prop30
280
     1
102
RTVSPost2010PropOp30
 70
     0
102
RTVSPost2010Prop31
280
     0
102
RTVSPost2010PropOp31
 70
     0
102
RTVSPost2010Prop32
280
     0
102
RTVSPost2010PropOp32
 70
     0
102
RTVSPost2010Prop33
280
     0
102
RTVSPost2010PropOp33
 70
     0
102
RTVSPost2010Prop34
280
     0
102
RTVSPost2010PropOp34
 70
     0
102
RTVSPost2010Prop35
280
     0
102
RTVSPost2010PropOp35
 70
     0
102
RTVSPost2010Prop36
280
     0
102
RTVSPost2010PropOp36
 70
     0
102
RTVSPost2010Prop37
 90
       50
102
RTVSPost2010PropOp37
 70
     0
102
RTVSPost2010Prop38
140
0.0
102
RTVSPost2010PropOp38
 70
     0
102
RTVSPost2010Prop39
140
1.0
102
RTVSPost2010PropOp39
 70
     0
102
RTVSPost2010Prop40
 90
        0
102
RTVSPost2010PropOp40
 70
     0
102
RTVSPost2010Prop41ColorIndex
 90
       18
102
RTVSPost2010Prop41ColorRGB
 90
        0
102
RTVSPost2010PropOp41
 70
     0
102
RTVSPost2010Prop42
 90
       50
102
RTVSPost2010PropOp42
 70
     0
102
RTVSPost2010Prop43
 90
        3
102
RTVSPost2010PropOp43
 70
     0
102
RTVSPost2010Prop44ColorIndex
 90
        5
102
RTVSPost2010Prop44ColorRGB
 90
      255
102
RTVSPost2010PropOp44
 70
     0
102
RTVSPost2010Prop45
280
     0
102
RTVSPost2010PropOp45
 70
     0
102
RTVSPost2010Prop46
 90
       50
102
RTVSPost2010PropOp46
 70
     0
102
RTVSPost2010Prop47
 90
       50
102
RTVSPost2010PropOp47
 70
     0
102
RTVSPost2010Prop48
 90
       50
102
RTVSPost2010PropOp48
 70
     0
102
RTVSPost2010Prop49
280
     0
102
RTVSPost2010PropOp49
 70
     0
102
RTVSPost2010Prop50
 90
       50
102
RTVSPost2010PropOp50
 70
     0
102
RTVSPost2010Prop51ColorIndex
 90
      256
102
RTVSPost2010Prop51ColorRGB
 90
-16777216
102
RTVSPost2010PropOp51
 70
     0
102
RTVSPost2010Prop52
140
1.0
102
RTVSPost2010PropOp52
 70
     0
102
RTVSPost2010Prop53
 90
        2
102
RTVSPost2010PropOp53
 70
     0
102
RTVSPost2010Prop54
  1
strokes_ogs.tif
102
RTVSPost2010PropOp54
 70
     0
102
RTVSPost2010Prop55
280
     0
102
RTVSPost2010PropOp55
 70
     0
102
RTVSPost2010Prop56
140
1.0
102
RTVSPost2010PropOp56
 70
     0
102
RTVSPost2010Prop57
140
1.0
102
RTVSPost2010PropOp57
 70
     0
  0
XRECORD
  5
1FC
102
{ACAD_REACTORS
330
1FB
102
}
330
1FB
100
AcDbXrecord
280
     1
102
RTVSPost2010Prop28
280
     0
102
RTVSPost2010PropOp28
 70
     1
102
RTVSPost2010Prop29
280
     1
102
RTVSPost2010PropOp29
 70
     1
102
RTVSPost2010Prop30
280
     1
102
RTVSPost2010PropOp30
 70
     1
102
RTVSPost2010Prop31
280
     0
102
RTVSPost2010PropOp31
 70
     1
102
RTVSPost2010Prop32
280
     0
102
RTVSPost2010PropOp32
 70
     1
102
RTVSPost2010Prop33
280
     0
102
RTVSPost2010PropOp33
 70
     1
102
RTVSPost2010Prop34
280
     0
102
RTVSPost2010PropOp34
 70
     1
102
RTVSPost2010Prop35
280
     0
102
RTVSPost2010PropOp35
 70
     1
102
RTVSPost2010Prop36
280
     0
102
RTVSPost2010PropOp36
 70
     1
102
RTVSPost2010Prop37
 90
       50
102
RTVSPost2010PropOp37
 70
     1
102
RTVSPost2010Prop38
140
0.0
102
RTVSPost2010PropOp38
 70
     1
102
RTVSPost2010Prop39
140
1.0
102
RTVSPost2010PropOp39
 70
     1
102
RTVSPost2010Prop40
 90
        0
102
RTVSPost2010PropOp40
 70
     1
102
RTVSPost2010Prop41ColorIndex
 90
       18
102
RTVSPost2010Prop41ColorRGB
 90
        0
102
RTVSPost2010PropOp41
 70
     1
102
RTVSPost2010Prop42
 90
       50
102
RTVSPost2010PropOp42
 70
     1
102
RTVSPost2010Prop43
 90
        3
102
RTVSPost2010PropOp43
 70
     1
102
RTVSPost2010Prop44ColorIndex
 90
        5
102
RTVSPost2010Prop44ColorRGB
 90
      255
102
RTVSPost2010PropOp44
 70
     1
102
RTVSPost2010Prop45
280
     0
102
RTVSPost2010PropOp45
 70
     1
102
RTVSPost2010Prop46
 90
       50
102
RTVSPost2010PropOp46
 70
     1
102
RTVSPost2010Prop47
 90
       50
102
RTVSPost2010PropOp47
 70
     1
102
RTVSPost2010Prop48
 90
       50
102
RTVSPost2010PropOp48
 70
     1
102
RTVSPost2010Prop49
280
     0
102
RTVSPost2010PropOp49
 70
     1
102
RTVSPost2010Prop50
 90
       50
102
RTVSPost2010PropOp50
 70
     1
102
RTVSPost2010Prop51ColorIndex
 90
      256
102
RTVSPost2010Prop51ColorRGB
 90
-16777216
102
RTVSPost2010PropOp51
 70
     0
102
RTVSPost2010Prop52
140
1.0
102
RTVSPost2010PropOp52
 70
     0
102
RTVSPost2010Prop53
 90
        2
102
RTVSPost2010PropOp53
 70
     1
102
RTVSPost2010Prop54
  1
strokes_ogs.tif
102
RTVSPost2010PropOp54
 70
     1
102
RTVSPost2010Prop55
280
     0
102
RTVSPost2010PropOp55
 70
     1
102
RTVSPost2010Prop56
140
1.0
102
RTVSPost2010PropOp56
 70
     1
102
RTVSPost2010Prop57
140
1.0
102
RTVSPost2010PropOp57
 70
     1
  0
XRECORD
  5
21A
102
{ACAD_REACTORS
330
219
102
}
330
219
100
AcDbXrecord
280
     1
102
RTVSPost2010Prop28
280
     0
102
RTVSPost2010PropOp28
 70
     1
102
RTVSPost2010Prop29
280
     1
102
RTVSPost2010PropOp29
 70
     1
102
RTVSPost2010Prop30
280
     1
102
RTVSPost2010PropOp30
 70
     1
102
RTVSPost2010Prop31
280
     0
102
RTVSPost2010PropOp31
 70
     1
102
RTVSPost2010Prop32
280
     0
102
RTVSPost2010PropOp32
 70
     1
102
RTVSPost2010Prop33
280
     0
102
RTVSPost2010PropOp33
 70
     1
102
RTVSPost2010Prop34
280
     0
102
RTVSPost2010PropOp34
 70
     1
102
RTVSPost2010Prop35
280
     0
102
RTVSPost2010PropOp35
 70
     1
102
RTVSPost2010Prop36
280
     0
102
RTVSPost2010PropOp36
 70
     1
102
RTVSPost2010Prop37
 90
       50
102
RTVSPost2010PropOp37
 70
     1
102
RTVSPost2010Prop38
140
0.0
102
RTVSPost2010PropOp38
 70
     1
102
RTVSPost2010Prop39
140
1.0
102
RTVSPost2010PropOp39
 70
     1
102
RTVSPost2010Prop40
 90
        0
102
RTVSPost2010PropOp40
 70
     1
102
RTVSPost2010Prop41ColorIndex
 90
       18
102
RTVSPost2010Prop41ColorRGB
 90
        0
102
RTVSPost2010PropOp41
 70
     1
102
RTVSPost2010Prop42
 90
       50
102
RTVSPost2010PropOp42
 70
     1
102
RTVSPost2010Prop43
 90
        3
102
RTVSPost2010PropOp43
 70
     1
102
RTVSPost2010Prop44ColorIndex
 90
        5
102
RTVSPost2010Prop44ColorRGB
 90
      255
102
RTVSPost2010PropOp44
 70
     1
102
RTVSPost2010Prop45
280
     0
102
RTVSPost2010PropOp45
 70
     1
102
RTVSPost2010Prop46
 90
       50
102
RTVSPost2010PropOp46
 70
     1
102
RTVSPost2010Prop47
 90
       50
102
RTVSPost2010PropOp47
 70
     1
102
RTVSPost2010Prop48
 90
       50
102
RTVSPost2010PropOp48
 70
     1
102
RTVSPost2010Prop49
280
     0
102
RTVSPost2010PropOp49
 70
     1
102
RTVSPost2010Prop50
 90
       50
102
RTVSPost2010PropOp50
 70
     1
102
RTVSPost2010Prop51ColorIndex
 90
      256
102
RTVSPost2010Prop51ColorRGB
 90
-16777216
102
RTVSPost2010PropOp51
 70
     0
102
RTVSPost2010Prop52
140
1.0
102
RTVSPost2010PropOp52
 70
     0
102
RTVSPost2010Prop53
 90
        2
102
RTVSPost2010PropOp53
 70
     1
102
RTVSPost2010Prop54
  1
strokes_ogs.tif
102
RTVSPost2010PropOp54
 70
     1
102
RTVSPost2010Prop55
280
     0
102
RTVSPost2010PropOp55
 70
     1
102
RTVSPost2010Prop56
140
1.0
102
RTVSPost2010PropOp56
 70
     1
102
RTVSPost2010Prop57
140
1.0
102
RTVSPost2010PropOp57
 70
     1
  0
XRECORD
  5
218
102
{ACAD_REACTORS
330
217
102
}
330
217
100
AcDbXrecord
280
     1
102
RTVSPost2010Prop28
280
     0
102
RTVSPost2010PropOp28
 70
     1
102
RTVSPost2010Prop29
280
     1
102
RTVSPost2010PropOp29
 70
     1
102
RTVSPost2010Prop30
280
     1
102
RTVSPost2010PropOp30
 70
     1
102
RTVSPost2010Prop31
280
     0
102
RTVSPost2010PropOp31
 70
     1
102
RTVSPost2010Prop32
280
     0
102
RTVSPost2010PropOp32
 70
     1
102
RTVSPost2010Prop33
280
     0
102
RTVSPost2010PropOp33
 70
     1
102
RTVSPost2010Prop34
280
     0
102
RTVSPost2010PropOp34
 70
     1
102
RTVSPost2010Prop35
280
     0
102
RTVSPost2010PropOp35
 70
     1
102
RTVSPost2010Prop36
280
     0
102
RTVSPost2010PropOp36
 70
     1
102
RTVSPost2010Prop37
 90
       50
102
RTVSPost2010PropOp37
 70
     1
102
RTVSPost2010Prop38
140
0.0
102
RTVSPost2010PropOp38
 70
     1
102
RTVSPost2010Prop39
140
1.0
102
RTVSPost2010PropOp39
 70
     1
102
RTVSPost2010Prop40
 90
        0
102
RTVSPost2010PropOp40
 70
     1
102
RTVSPost2010Prop41ColorIndex
 90
       18
102
RTVSPost2010Prop41ColorRGB
 90
        0
102
RTVSPost2010PropOp41
 70
     1
102
RTVSPost2010Prop42
 90
       50
102
RTVSPost2010PropOp42
 70
     1
102
RTVSPost2010Prop43
 90
        3
102
RTVSPost2010PropOp43
 70
     1
102
RTVSPost2010Prop44ColorIndex
 90
        5
102
RTVSPost2010Prop44ColorRGB
 90
      255
102
RTVSPost2010PropOp44
 70
     1
102
RTVSPost2010Prop45
280
     0
102
RTVSPost2010PropOp45
 70
     1
102
RTVSPost2010Prop46
 90
       50
102
RTVSPost2010PropOp46
 70
     1
102
RTVSPost2010Prop47
 90
       50
102
RTVSPost2010PropOp47
 70
     1
102
RTVSPost2010Prop48
 90
       50
102
RTVSPost2010PropOp48
 70
     1
102
RTVSPost2010Prop49
280
     0
102
RTVSPost2010PropOp49
 70
     1
102
RTVSPost2010Prop50
 90
       50
102
RTVSPost2010PropOp50
 70
     1
102
RTVSPost2010Prop51ColorIndex
 90
      256
102
RTVSPost2010Prop51ColorRGB
 90
-16777216
102
RTVSPost2010PropOp51
 70
     0
102
RTVSPost2010Prop52
140
1.0
102
RTVSPost2010PropOp52
 70
     0
102
RTVSPost2010Prop53
 90
        2
102
RTVSPost2010PropOp53
 70
     1
102
RTVSPost2010Prop54
  1
strokes_ogs.tif
102
RTVSPost2010PropOp54
 70
     1
102
RTVSPost2010Prop55
280
     0
102
RTVSPost2010PropOp55
 70
     1
102
RTVSPost2010Prop56
140
1.0
102
RTVSPost2010PropOp56
 70
     1
102
RTVSPost2010Prop57
140
1.0
102
RTVSPost2010PropOp57
 70
     1
  0
XRECORD
  5
212
102
{ACAD_REACTORS
330
211
102
}
330
211
100
AcDbXrecord
280
     1
102
RTVSPost2010Prop28
280
     0
102
RTVSPost2010PropOp28
 70
     1
102
RTVSPost2010Prop29
280
     1
102
RTVSPost2010PropOp29
 70
     1
102
RTVSPost2010Prop30
280
     1
102
RTVSPost2010PropOp30
 70
     1
102
RTVSPost2010Prop31
280
     0
102
RTVSPost2010PropOp31
 70
     1
102
RTVSPost2010Prop32
280
     0
102
RTVSPost2010PropOp32
 70
     1
102
RTVSPost2010Prop33
280
     0
102
RTVSPost2010PropOp33
 70
     1
102
RTVSPost2010Prop34
280
     0
102
RTVSPost2010PropOp34
 70
     1
102
RTVSPost2010Prop35
280
     0
102
RTVSPost2010PropOp35
 70
     1
102
RTVSPost2010Prop36
280
     0
102
RTVSPost2010PropOp36
 70
     1
102
RTVSPost2010Prop37
 90
       50
102
RTVSPost2010PropOp37
 70
     1
102
RTVSPost2010Prop38
140
0.0
102
RTVSPost2010PropOp38
 70
     1
102
RTVSPost2010Prop39
140
1.0
102
RTVSPost2010PropOp39
 70
     1
102
RTVSPost2010Prop40
 90
        0
102
RTVSPost2010PropOp40
 70
     1
102
RTVSPost2010Prop41ColorIndex
 90
       18
102
RTVSPost2010Prop41ColorRGB
 90
        0
102
RTVSPost2010PropOp41
 70
     1
102
RTVSPost2010Prop42
 90
       50
102
RTVSPost2010PropOp42
 70
     1
102
RTVSPost2010Prop43
 90
        3
102
RTVSPost2010PropOp43
 70
     1
102
RTVSPost2010Prop44ColorIndex
 90
        5
102
RTVSPost2010Prop44ColorRGB
 90
      255
102
RTVSPost2010PropOp44
 70
     1
102
RTVSPost2010Prop45
280
     0
102
RTVSPost2010PropOp45
 70
     1
102
RTVSPost2010Prop46
 90
       50
102
RTVSPost2010PropOp46
 70
     1
102
RTVSPost2010Prop47
 90
       50
102
RTVSPost2010PropOp47
 70
     1
102
RTVSPost2010Prop48
 90
       50
102
RTVSPost2010PropOp48
 70
     1
102
RTVSPost2010Prop49
280
     0
102
RTVSPost2010PropOp49
 70
     1
102
RTVSPost2010Prop50
 90
       50
102
RTVSPost2010PropOp50
 70
     1
102
RTVSPost2010Prop51ColorIndex
 90
      256
102
RTVSPost2010Prop51ColorRGB
 90
-16777216
102
RTVSPost2010PropOp51
 70
     0
102
RTVSPost2010Prop52
140
1.0
102
RTVSPost2010PropOp52
 70
     0
102
RTVSPost2010Prop53
 90
        2
102
RTVSPost2010PropOp53
 70
     1
102
RTVSPost2010Prop54
  1
strokes_ogs.tif
102
RTVSPost2010PropOp54
 70
     1
102
RTVSPost2010Prop55
280
     0
102
RTVSPost2010PropOp55
 70
     1
102
RTVSPost2010Prop56
140
1.0
102
RTVSPost2010PropOp56
 70
     1
102
RTVSPost2010Prop57
140
1.0
102
RTVSPost2010PropOp57
 70
     1
  0
XRECORD
  5
214
102
{ACAD_REACTORS
330
213
102
}
330
213
100
AcDbXrecord
280
     1
102
RTVSPost2010Prop28
280
     0
102
RTVSPost2010PropOp28
 70
     1
102
RTVSPost2010Prop29
280
     1
102
RTVSPost2010PropOp29
 70
     1
102
RTVSPost2010Prop30
280
     1
102
RTVSPost2010PropOp30
 70
     1
102
RTVSPost2010Prop31
280
     0
102
RTVSPost2010PropOp31
 70
     1
102
RTVSPost2010Prop32
280
     0
102
RTVSPost2010PropOp32
 70
     1
102
RTVSPost2010Prop33
280
     0
102
RTVSPost2010PropOp33
 70
     1
102
RTVSPost2010Prop34
280
     0
102
RTVSPost2010PropOp34
 70
     1
102
RTVSPost2010Prop35
280
     0
102
RTVSPost2010PropOp35
 70
     1
102
RTVSPost2010Prop36
280
     0
102
RTVSPost2010PropOp36
 70
     1
102
RTVSPost2010Prop37
 90
       50
102
RTVSPost2010PropOp37
 70
     1
102
RTVSPost2010Prop38
140
0.0
102
RTVSPost2010PropOp38
 70
     1
102
RTVSPost2010Prop39
140
1.0
102
RTVSPost2010PropOp39
 70
     1
102
RTVSPost2010Prop40
 90
        0
102
RTVSPost2010PropOp40
 70
     1
102
RTVSPost2010Prop41ColorIndex
 90
       18
102
RTVSPost2010Prop41ColorRGB
 90
        0
102
RTVSPost2010PropOp41
 70
     1
102
RTVSPost2010Prop42
 90
       50
102
RTVSPost2010PropOp42
 70
     1
102
RTVSPost2010Prop43
 90
        3
102
RTVSPost2010PropOp43
 70
     1
102
RTVSPost2010Prop44ColorIndex
 90
        5
102
RTVSPost2010Prop44ColorRGB
 90
      255
102
RTVSPost2010PropOp44
 70
     1
102
RTVSPost2010Prop45
280
     0
102
RTVSPost2010PropOp45
 70
     1
102
RTVSPost2010Prop46
 90
       50
102
RTVSPost2010PropOp46
 70
     1
102
RTVSPost2010Prop47
 90
       50
102
RTVSPost2010PropOp47
 70
     1
102
RTVSPost2010Prop48
 90
       50
102
RTVSPost2010PropOp48
 70
     1
102
RTVSPost2010Prop49
280
     0
102
RTVSPost2010PropOp49
 70
     1
102
RTVSPost2010Prop50
 90
       50
102
RTVSPost2010PropOp50
 70
     1
102
RTVSPost2010Prop51ColorIndex
 90
      256
102
RTVSPost2010Prop51ColorRGB
 90
-16777216
102
RTVSPost2010PropOp51
 70
     0
102
RTVSPost2010Prop52
140
1.0
102
RTVSPost2010PropOp52
 70
     0
102
RTVSPost2010Prop53
 90
        2
102
RTVSPost2010PropOp53
 70
     1
102
RTVSPost2010Prop54
  1
strokes_ogs.tif
102
RTVSPost2010PropOp54
 70
     1
102
RTVSPost2010Prop55
280
     0
102
RTVSPost2010PropOp55
 70
     1
102
RTVSPost2010Prop56
140
1.0
102
RTVSPost2010PropOp56
 70
     1
102
RTVSPost2010Prop57
140
1.0
102
RTVSPost2010PropOp57
 70
     1
  0
XRECORD
  5
204
102
{ACAD_REACTORS
330
203
102
}
330
203
100
AcDbXrecord
280
     1
102
RTVSPost2010Prop28
280
     0
102
RTVSPost2010PropOp28
 70
     1
102
RTVSPost2010Prop29
280
     1
102
RTVSPost2010PropOp29
 70
     1
102
RTVSPost2010Prop30
280
     1
102
RTVSPost2010PropOp30
 70
     1
102
RTVSPost2010Prop31
280
     0
102
RTVSPost2010PropOp31
 70
     1
102
RTVSPost2010Prop32
280
     0
102
RTVSPost2010PropOp32
 70
     1
102
RTVSPost2010Prop33
280
     0
102
RTVSPost2010PropOp33
 70
     1
102
RTVSPost2010Prop34
280
     0
102
RTVSPost2010PropOp34
 70
     1
102
RTVSPost2010Prop35
280
     0
102
RTVSPost2010PropOp35
 70
     1
102
RTVSPost2010Prop36
280
     0
102
RTVSPost2010PropOp36
 70
     1
102
RTVSPost2010Prop37
 90
       50
102
RTVSPost2010PropOp37
 70
     1
102
RTVSPost2010Prop38
140
0.0
102
RTVSPost2010PropOp38
 70
     1
102
RTVSPost2010Prop39
140
1.0
102
RTVSPost2010PropOp39
 70
     1
102
RTVSPost2010Prop40
 90
        0
102
RTVSPost2010PropOp40
 70
     1
102
RTVSPost2010Prop41ColorIndex
 90
       18
102
RTVSPost2010Prop41ColorRGB
 90
        0
102
RTVSPost2010PropOp41
 70
     1
102
RTVSPost2010Prop42
 90
       50
102
RTVSPost2010PropOp42
 70
     1
102
RTVSPost2010Prop43
 90
        3
102
RTVSPost2010PropOp43
 70
     1
102
RTVSPost2010Prop44ColorIndex
 90
        5
102
RTVSPost2010Prop44ColorRGB
 90
      255
102
RTVSPost2010PropOp44
 70
     1
102
RTVSPost2010Prop45
280
     0
102
RTVSPost2010PropOp45
 70
     1
102
RTVSPost2010Prop46
 90
       50
102
RTVSPost2010PropOp46
 70
     1
102
RTVSPost2010Prop47
 90
       50
102
RTVSPost2010PropOp47
 70
     1
102
RTVSPost2010Prop48
 90
       50
102
RTVSPost2010PropOp48
 70
     1
102
RTVSPost2010Prop49
280
     0
102
RTVSPost2010PropOp49
 70
     1
102
RTVSPost2010Prop50
 90
       50
102
RTVSPost2010PropOp50
 70
     1
102
RTVSPost2010Prop51ColorIndex
 90
      256
102
RTVSPost2010Prop51ColorRGB
 90
-16777216
102
RTVSPost2010PropOp51
 70
     0
102
RTVSPost2010Prop52
140
1.0
102
RTVSPost2010PropOp52
 70
     0
102
RTVSPost2010Prop53
 90
        2
102
RTVSPost2010PropOp53
 70
     1
102
RTVSPost2010Prop54
  1
strokes_ogs.tif
102
RTVSPost2010PropOp54
 70
     1
102
RTVSPost2010Prop55
280
     0
102
RTVSPost2010PropOp55
 70
     1
102
RTVSPost2010Prop56
140
1.0
102
RTVSPost2010PropOp56
 70
     1
102
RTVSPost2010Prop57
140
1.0
102
RTVSPost2010PropOp57
 70
     1
  0
XRECORD
  5
1F6
102
{ACAD_REACTORS
330
1F5
102
}
330
1F5
100
AcDbXrecord
280
     1
102
RTVSPost2010Prop28
280
     0
102
RTVSPost2010PropOp28
 70
     1
102
RTVSPost2010Prop29
280
     1
102
RTVSPost2010PropOp29
 70
     1
102
RTVSPost2010Prop30
280
     1
102
RTVSPost2010PropOp30
 70
     1
102
RTVSPost2010Prop31
280
     0
102
RTVSPost2010PropOp31
 70
     1
102
RTVSPost2010Prop32
280
     0
102
RTVSPost2010PropOp32
 70
     1
102
RTVSPost2010Prop33
280
     0
102
RTVSPost2010PropOp33
 70
     1
102
RTVSPost2010Prop34
280
     0
102
RTVSPost2010PropOp34
 70
     1
102
RTVSPost2010Prop35
280
     0
102
RTVSPost2010PropOp35
 70
     1
102
RTVSPost2010Prop36
280
     0
102
RTVSPost2010PropOp36
 70
     1
102
RTVSPost2010Prop37
 90
       50
102
RTVSPost2010PropOp37
 70
     1
102
RTVSPost2010Prop38
140
0.0
102
RTVSPost2010PropOp38
 70
     1
102
RTVSPost2010Prop39
140
1.0
102
RTVSPost2010PropOp39
 70
     1
102
RTVSPost2010Prop40
 90
        0
102
RTVSPost2010PropOp40
 70
     1
102
RTVSPost2010Prop41ColorIndex
 90
       18
102
RTVSPost2010Prop41ColorRGB
 90
        0
102
RTVSPost2010PropOp41
 70
     1
102
RTVSPost2010Prop42
 90
       50
102
RTVSPost2010PropOp42
 70
     1
102
RTVSPost2010Prop43
 90
        3
102
RTVSPost2010PropOp43
 70
     1
102
RTVSPost2010Prop44ColorIndex
 90
        5
102
RTVSPost2010Prop44ColorRGB
 90
      255
102
RTVSPost2010PropOp44
 70
     1
102
RTVSPost2010Prop45
280
     0
102
RTVSPost2010PropOp45
 70
     1
102
RTVSPost2010Prop46
 90
       50
102
RTVSPost2010PropOp46
 70
     1
102
RTVSPost2010Prop47
 90
       50
102
RTVSPost2010PropOp47
 70
     1
102
RTVSPost2010Prop48
 90
       50
102
RTVSPost2010PropOp48
 70
     1
102
RTVSPost2010Prop49
280
     0
102
RTVSPost2010PropOp49
 70
     1
102
RTVSPost2010Prop50
 90
       50
102
RTVSPost2010PropOp50
 70
     1
102
RTVSPost2010Prop51ColorIndex
 90
      256
102
RTVSPost2010Prop51ColorRGB
 90
-16777216
102
RTVSPost2010PropOp51
 70
     0
102
RTVSPost2010Prop52
140
1.0
102
RTVSPost2010PropOp52
 70
     0
102
RTVSPost2010Prop53
 90
        2
102
RTVSPost2010PropOp53
 70
     1
102
RTVSPost2010Prop54
  1
strokes_ogs.tif
102
RTVSPost2010PropOp54
 70
     1
102
RTVSPost2010Prop55
280
     0
102
RTVSPost2010PropOp55
 70
     1
102
RTVSPost2010Prop56
140
1.0
102
RTVSPost2010PropOp56
 70
     1
102
RTVSPost2010Prop57
140
1.0
102
RTVSPost2010PropOp57
 70
     1
  0
XRECORD
  5
216
102
{ACAD_REACTORS
330
215
102
}
330
215
100
AcDbXrecord
280
     1
102
RTVSPost2010Prop28
280
     0
102
RTVSPost2010PropOp28
 70
     1
102
RTVSPost2010Prop29
280
     1
102
RTVSPost2010PropOp29
 70
     1
102
RTVSPost2010Prop30
280
     1
102
RTVSPost2010PropOp30
 70
     1
102
RTVSPost2010Prop31
280
     0
102
RTVSPost2010PropOp31
 70
     1
102
RTVSPost2010Prop32
280
     0
102
RTVSPost2010PropOp32
 70
     1
102
RTVSPost2010Prop33
280
     0
102
RTVSPost2010PropOp33
 70
     1
102
RTVSPost2010Prop34
280
     0
102
RTVSPost2010PropOp34
 70
     1
102
RTVSPost2010Prop35
280
     0
102
RTVSPost2010PropOp35
 70
     1
102
RTVSPost2010Prop36
280
     0
102
RTVSPost2010PropOp36
 70
     1
102
RTVSPost2010Prop37
 90
       50
102
RTVSPost2010PropOp37
 70
     1
102
RTVSPost2010Prop38
140
0.0
102
RTVSPost2010PropOp38
 70
     1
102
RTVSPost2010Prop39
140
1.0
102
RTVSPost2010PropOp39
 70
     1
102
RTVSPost2010Prop40
 90
        0
102
RTVSPost2010PropOp40
 70
     1
102
RTVSPost2010Prop41ColorIndex
 90
       18
102
RTVSPost2010Prop41ColorRGB
 90
        0
102
RTVSPost2010PropOp41
 70
     1
102
RTVSPost2010Prop42
 90
       50
102
RTVSPost2010PropOp42
 70
     1
102
RTVSPost2010Prop43
 90
        3
102
RTVSPost2010PropOp43
 70
     1
102
RTVSPost2010Prop44ColorIndex
 90
        5
102
RTVSPost2010Prop44ColorRGB
 90
      255
102
RTVSPost2010PropOp44
 70
     1
102
RTVSPost2010Prop45
280
     0
102
RTVSPost2010PropOp45
 70
     1
102
RTVSPost2010Prop46
 90
       50
102
RTVSPost2010PropOp46
 70
     1
102
RTVSPost2010Prop47
 90
       50
102
RTVSPost2010PropOp47
 70
     1
102
RTVSPost2010Prop48
 90
       50
102
RTVSPost2010PropOp48
 70
     1
102
RTVSPost2010Prop49
280
     0
102
RTVSPost2010PropOp49
 70
     1
102
RTVSPost2010Prop50
 90
       50
102
RTVSPost2010PropOp50
 70
     1
102
RTVSPost2010Prop51ColorIndex
 90
      256
102
RTVSPost2010Prop51ColorRGB
 90
-16777216
102
RTVSPost2010PropOp51
 70
     0
102
RTVSPost2010Prop52
140
1.0
102
RTVSPost2010PropOp52
 70
     0
102
RTVSPost2010Prop53
 90
        2
102
RTVSPost2010PropOp53
 70
     1
102
RTVSPost2010Prop54
  1
strokes_ogs.tif
102
RTVSPost2010PropOp54
 70
     1
102
RTVSPost2010Prop55
280
     0
102
RTVSPost2010PropOp55
 70
     1
102
RTVSPost2010Prop56
140
1.0
102
RTVSPost2010PropOp56
 70
     1
102
RTVSPost2010Prop57
140
1.0
102
RTVSPost2010PropOp57
 70
     1
  0
ENDSEC
  0
EOF
