  0
SECTION
  2
HEADER
  9
$ACADVER
  1
AC1015
  9
$ACADMAINTVER
 70
     6
  9
$DWGCODEPAGE
  3
ANSI_1252
  9
$INSBASE
 10
0.0
 20
0.0
 30
0.0
  9
$EXTMIN
 10
17.791048
 20
598.077026
 30
0.0
  9
$EXTMAX
 10
561.561401
 20
2689.697998
 30
0.0
  9
$LIMMIN
 10
17.791048
 20
598.077026
  9
$LIMMAX
 10
561.561401
 20
2689.697998
  9
$ORTHOMODE
 70
     0
  9
$REGENMODE
 70
     1
  9
$FILLMODE
 70
     1
  9
$QTEXTMODE
 70
     0
  9
$MIRRTEXT
 70
     1
  9
$LTSCALE
 40
1.0
  9
$ATTMODE
 70
     1
  9
$TEXTSIZE
 40
2.5
  9
$TRACEWID
 40
1.0
  9
$TEXTSTYLE
  7
Standard
  9
$CLAYER
  8
0
  9
$CELTYPE
  6
ByLayer
  9
$CECOLOR
 62
   256
  9
$CELTSCALE
 40
1.0
  9
$DISPSILH
 70
     0
  9
$DIMSCALE
 40
1.0
  9
$DIMASZ
 40
2.5
  9
$DIMEXO
 40
0.625
  9
$DIMDLI
 40
3.75
  9
$DIMRND
 40
0.0
  9
$DIMDLE
 40
0.0
  9
$DIMEXE
 40
1.25
  9
$DIMTP
 40
0.0
  9
$DIMTM
 40
0.0
  9
$DIMTXT
 40
2.5
  9
$DIMCEN
 40
2.5
  9
$DIMTSZ
 40
0.0
  9
$DIMTOL
 70
     0
  9
$DIMLIM
 70
     0
  9
$DIMTIH
 70
     0
  9
$DIMTOH
 70
     0
  9
$DIMSE1
 70
     0
  9
$DIMSE2
 70
     0
  9
$DIMTAD
 70
     1
  9
$DIMZIN
 70
     8
  9
$DIMBLK
  1

  9
$DIMASO
 70
     1
  9
$DIMSHO
 70
     1
  9
$DIMPOST
  1

  9
$DIMAPOST
  1

  9
$DIMALT
 70
     0
  9
$DIMALTD
 70
     3
  9
$DIMALTF
 40
0.03937
  9
$DIMLFAC
 40
1.0
  9
$DIMTOFL
 70
     1
  9
$DIMTVP
 40
0.0
  9
$DIMTIX
 70
     0
  9
$DIMSOXD
 70
     0
  9
$DIMSAH
 70
     0
  9
$DIMBLK1
  1

  9
$DIMBLK2
  1

  9
$DIMSTYLE
  2
ISO-25
  9
$DIMCLRD
 70
     0
  9
$DIMCLRE
 70
     0
  9
$DIMCLRT
 70
     0
  9
$DIMTFAC
 40
1.0
  9
$DIMGAP
 40
0.625
  9
$DIMJUST
 70
     0
  9
$DIMSD1
 70
     0
  9
$DIMSD2
 70
     0
  9
$DIMTOLJ
 70
     0
  9
$DIMTZIN
 70
     8
  9
$DIMALTZ
 70
     0
  9
$DIMALTTZ
 70
     0
  9
$DIMUPT
 70
     0
  9
$DIMDEC
 70
     2
  9
$DIMTDEC
 70
     2
  9
$DIMALTU
 70
     2
  9
$DIMALTTD
 70
     3
  9
$DIMTXSTY
  7
Standard
  9
$DIMAUNIT
 70
     0
  9
$DIMADEC
 70
     0
  9
$DIMALTRND
 40
0.0
  9
$DIMAZIN
 70
     0
  9
$DIMDSEP
 70
    44
  9
$DIMATFIT
 70
     3
  9
$DIMFRAC
 70
     0
  9
$DIMLDRBLK
  1

  9
$DIMLUNIT
 70
     2
  9
$DIMLWD
 70
    -2
  9
$DIMLWE
 70
    -2
  9
$DIMTMOVE
 70
     0
  9
$LUNITS
 70
     2
  9
$LUPREC
 70
     4
  9
$SKETCHINC
 40
1.0
  9
$FILLETRAD
 40
10.0
  9
$AUNITS
 70
     0
  9
$AUPREC
 70
     0
  9
$MENU
  1
.
  9
$ELEVATION
 40
0.0
  9
$PELEVATION
 40
0.0
  9
$THICKNESS
 40
0.0
  9
$LIMCHECK
 70
     0
  9
$CHAMFERA
 40
0.0
  9
$CHAMFERB
 40
0.0
  9
$CHAMFERC
 40
0.0
  9
$CHAMFERD
 40
0.0
  9
$SKPOLY
 70
     0
  9
$TDCREATE
 40
2459710.468322454
  9
$TDUCREATE
 40
2459710.384989121
  9
$TDUPDATE
 40
2459710.468323356
  9
$TDUUPDATE
 40
2459710.384990023
  9
$TDINDWG
 40
0.0000000116
  9
$TDUSRTIMER
 40
0.0000000116
  9
$USRTIMER
 70
     1
  9
$ANGBASE
 50
0.0
  9
$ANGDIR
 70
     0
  9
$PDMODE
 70
     0
  9
$PDSIZE
 40
0.0
  9
$PLINEWID
 40
0.0
  9
$SPLFRAME
 70
     0
  9
$SPLINETYPE
 70
     6
  9
$SPLINESEGS
 70
     8
  9
$HANDSEED
  5
319
  9
$SURFTAB1
 70
     6
  9
$SURFTAB2
 70
     6
  9
$SURFTYPE
 70
     6
  9
$SURFU
 70
     6
  9
$SURFV
 70
     6
  9
$UCSBASE
  2

  9
$UCSNAME
  2

  9
$UCSORG
 10
0.0
 20
0.0
 30
0.0
  9
$UCSXDIR
 10
1.0
 20
0.0
 30
0.0
  9
$UCSYDIR
 10
0.0
 20
1.0
 30
0.0
  9
$UCSORTHOREF
  2

  9
$UCSORTHOVIEW
 70
     0
  9
$UCSORGTOP
 10
0.0
 20
0.0
 30
0.0
  9
$UCSORGBOTTOM
 10
0.0
 20
0.0
 30
0.0
  9
$UCSORGLEFT
 10
0.0
 20
0.0
 30
0.0
  9
$UCSORGRIGHT
 10
0.0
 20
0.0
 30
0.0
  9
$UCSORGFRONT
 10
0.0
 20
0.0
 30
0.0
  9
$UCSORGBACK
 10
0.0
 20
0.0
 30
0.0
  9
$PUCSBASE
  2

  9
$PUCSNAME
  2

  9
$PUCSORG
 10
0.0
 20
0.0
 30
0.0
  9
$PUCSXDIR
 10
1.0
 20
0.0
 30
0.0
  9
$PUCSYDIR
 10
0.0
 20
1.0
 30
0.0
  9
$PUCSORTHOREF
  2

  9
$PUCSORTHOVIEW
 70
     0
  9
$PUCSORGTOP
 10
0.0
 20
0.0
 30
0.0
  9
$PUCSORGBOTTOM
 10
0.0
 20
0.0
 30
0.0
  9
$PUCSORGLEFT
 10
0.0
 20
0.0
 30
0.0
  9
$PUCSORGRIGHT
 10
0.0
 20
0.0
 30
0.0
  9
$PUCSORGFRONT
 10
0.0
 20
0.0
 30
0.0
  9
$PUCSORGBACK
 10
0.0
 20
0.0
 30
0.0
  9
$USERI1
 70
     0
  9
$USERI2
 70
     0
  9
$USERI3
 70
     0
  9
$USERI4
 70
     0
  9
$USERI5
 70
     0
  9
$USERR1
 40
0.0
  9
$USERR2
 40
0.0
  9
$USERR3
 40
0.0
  9
$USERR4
 40
0.0
  9
$USERR5
 40
0.0
  9
$WORLDVIEW
 70
     1
  9
$SHADEDGE
 70
     3
  9
$SHADEDIF
 70
    70
  9
$TILEMODE
 70
     1
  9
$MAXACTVP
 70
    64
  9
$PINSBASE
 10
0.0
 20
0.0
 30
0.0
  9
$PLIMCHECK
 70
     0
  9
$PEXTMIN
 10
1.000000E+20
 20
1.000000E+20
 30
1.000000E+20
  9
$PEXTMAX
 10
-1.000000E+20
 20
-1.000000E+20
 30
-1.000000E+20
  9
$PLIMMIN
 10
0.0
 20
0.0
  9
$PLIMMAX
 10
420.0
 20
297.0
  9
$UNITMODE
 70
     0
  9
$VISRETAIN
 70
     1
  9
$PLINEGEN
 70
     0
  9
$PSLTSCALE
 70
     1
  9
$TREEDEPTH
 70
  3020
  9
$CMLSTYLE
  2
Standard
  9
$CMLJUST
 70
     0
  9
$CMLSCALE
 40
20.0
  9
$PROXYGRAPHICS
 70
     1
  9
$MEASUREMENT
 70
     1
  9
$CELWEIGHT
370
    -1
  9
$ENDCAPS
280
     0
  9
$JOINSTYLE
280
     0
  9
$LWDISPLAY
290
     0
  9
$INSUNITS
 70
     4
  9
$HYPERLINKBASE
  1

  9
$STYLESHEET
  1

  9
$XEDIT
290
     1
  9
$CEPSNTYPE
380
     0
  9
$PSTYLEMODE
290
     1
  9
$FINGERPRINTGUID
  2
{6ee69a90-5d41-4867-9b92-6bfbeb4d686c}
  9
$VERSIONGUID
  2
{FAEB1C32-E019-11D5-929B-00C0DF256EC4}
  9
$EXTNAMES
290
     1
  9
$PSVPSCALE
 40
0.0
  9
$OLESTARTUP
290
     0
  0
ENDSEC
  0
SECTION
  2
CLASSES
  0
CLASS
  1
ACDBDICTIONARYWDFLT
  2
AcDbDictionaryWithDefault
  3
ObjectDBX Classes
 90
        0
280
     0
281
     0
  0
CLASS
  1
VISUALSTYLE
  2
AcDbVisualStyle
  3
ObjectDBX Classes
 90
     4095
280
     0
281
     0
  0
CLASS
  1
MATERIAL
  2
AcDbMaterial
  3
ObjectDBX Classes
 90
     1153
280
     0
281
     0
  0
CLASS
  1
SCALE
  2
AcDbScale
  3
ObjectDBX Classes
 90
     1153
280
     0
281
     0
  0
CLASS
  1
TABLESTYLE
  2
AcDbTableStyle
  3
ObjectDBX Classes
 90
     4095
280
     0
281
     0
  0
CLASS
  1
MLEADERSTYLE
  2
AcDbMLeaderStyle
  3
ACDB_MLEADERSTYLE_CLASS
 90
     4095
280
     0
281
     0
  0
CLASS
  1
SUN
  2
AcDbSun
  3
SCENEOE
 90
     1153
280
     0
281
     0
  0
CLASS
  1
DICTIONARYVAR
  2
AcDbDictionaryVar
  3
ObjectDBX Classes
 90
        0
280
     0
281
     0
  0
CLASS
  1
ACDBPLACEHOLDER
  2
AcDbPlaceHolder
  3
ObjectDBX Classes
 90
        0
280
     0
281
     0
  0
CLASS
  1
LAYOUT
  2
AcDbLayout
  3
ObjectDBX Classes
 90
        0
280
     0
281
     0
  0
ENDSEC
  0
SECTION
  2
TABLES
  0
TABLE
  2
VPORT
  5
8
102
{ACAD_XDICTIONARY
360
2DC
102
}
330
0
100
AcDbSymbolTable
 70
     1
  0
VPORT
  5
29
330
8
100
AcDbSymbolTableRecord
100
AcDbViewportTableRecord
  2
*Active
 70
     0
 10
0.0
 20
0.0
 11
1.0
 21
1.0
 12
344.186916
 22
148.5
 13
0.0
 23
0.0
 14
10.0
 24
10.0
 15
10.0
 25
10.0
 16
0.0
 26
0.0
 36
1.0
 17
0.0
 27
0.0
 37
0.0
 40
297.0
 41
1.972973
 42
50.0
 43
0.0
 44
0.0
 50
0.0
 51
0.0
 71
     0
 72
   100
 73
     1
 74
     3
 75
     0
 76
     0
 77
     0
 78
     0
281
     0
 65
     1
110
0.0
120
0.0
130
0.0
111
1.0
121
0.0
131
0.0
112
0.0
122
1.0
132
0.0
 79
     0
146
0.0
  0
ENDTAB
  0
TABLE
  2
LTYPE
  5
5
330
0
100
AcDbSymbolTable
 70
     1
  0
LTYPE
  5
14
330
5
100
AcDbSymbolTableRecord
100
AcDbLinetypeTableRecord
  2
ByBlock
 70
     0
  3

 72
    65
 73
     0
 40
0.0
  0
LTYPE
  5
15
330
5
100
AcDbSymbolTableRecord
100
AcDbLinetypeTableRecord
  2
ByLayer
 70
     0
  3

 72
    65
 73
     0
 40
0.0
  0
LTYPE
  5
16
330
5
100
AcDbSymbolTableRecord
100
AcDbLinetypeTableRecord
  2
Continuous
 70
     0
  3
Solid line
 72
    65
 73
     0
 40
0.0
  0
ENDTAB
  0
TABLE
  2
LAYER
  5
2
330
0
100
AcDbSymbolTable
 70
     1
  0
LAYER
  5
10
330
2
100
AcDbSymbolTableRecord
100
AcDbLayerTableRecord
  2
0
 70
     0
 62
   106
  6
Continuous
370
     0
390
F
  0
ENDTAB
  0
TABLE
  2
STYLE
  5
3
330
0
100
AcDbSymbolTable
 70
     4
  0
STYLE
  5
11
330
3
100
AcDbSymbolTableRecord
100
AcDbTextStyleTableRecord
  2
Standard
 70
     0
 40
0.0
 41
1.0
 50
0.0
 71
     0
 42
2.5
  3
txt
  4

  0
STYLE
  5
6E
330
3
100
AcDbSymbolTableRecord
100
AcDbTextStyleTableRecord
  2
Default
 70
     0
 40
0.0
 41
1.0
 50
0.0
 71
     0
 42
2.5
  3

  4

1001
ACAD
1000
txt
1071
        0
  0
STYLE
  5
6F
330
3
100
AcDbSymbolTableRecord
100
AcDbTextStyleTableRecord
  2
ISO
 70
     0
 40
0.0
 41
1.0
 50
0.0
 71
     0
 42
2.5
  3

  4

1001
ACAD
1000
txt
1071
        0
  0
STYLE
  5
70
330
3
100
AcDbSymbolTableRecord
100
AcDbTextStyleTableRecord
  2
zucchetti
 70
     0
 40
0.0
 41
1.0
 50
0.0
 71
     0
 42
2.5
  3

  4

1001
ACAD
1000
Arial
1071
        0
  0
ENDTAB
  0
TABLE
  2
VIEW
  5
6
330
0
100
AcDbSymbolTable
 70
     0
  0
ENDTAB
  0
TABLE
  2
UCS
  5
7
330
0
100
AcDbSymbolTable
 70
     0
  0
ENDTAB
  0
TABLE
  2
APPID
  5
9
330
0
100
AcDbSymbolTable
 70
     2
  0
APPID
  5
12
330
9
100
AcDbSymbolTableRecord
100
AcDbRegAppTableRecord
  2
ACAD
 70
     0
  0
APPID
  5
316
330
9
100
AcDbSymbolTableRecord
100
AcDbRegAppTableRecord
  2
ACAD_MLEADERVER
 70
     0
  0
ENDTAB
  0
TABLE
  2
DIMSTYLE
  5
A
330
0
100
AcDbSymbolTable
 70
     4
100
AcDbDimStyleTable
  0
DIMSTYLE
105
27
330
A
100
AcDbSymbolTableRecord
100
AcDbDimStyleTableRecord
  2
ISO-25
 70
     0
 41
2.5
 42
0.625
 43
3.75
 44
1.25
 73
     0
 74
     0
 77
     1
 78
     8
140
2.5
141
2.5
143
0.03937
147
0.625
171
     3
172
     1
178
     0
271
     2
272
     2
274
     3
278
    44
283
     0
284
     8
340
11
  0
DIMSTYLE
105
71
330
A
100
AcDbSymbolTableRecord
100
AcDbDimStyleTableRecord
  2
Default
 70
     0
  3
<>
 41
4.375
 42
1.05
 44
2.1
 73
     0
 74
     0
 77
     1
 78
     8
140
3.5
146
0.4
147
1.75
172
     1
271
     2
178
     3
271
     2
272
     3
284
     8
340
6E
341
72
342
72
  0
DIMSTYLE
105
79
330
A
100
AcDbSymbolTableRecord
100
AcDbDimStyleTableRecord
  2
ISO
 70
     0
  3
<>
 41
4.375
 42
1.05
 44
2.1
 73
     0
 74
     0
 77
     1
 78
     8
140
3.5
146
0.4
147
1.75
172
     1
271
     2
178
     3
271
     2
272
     3
284
     8
340
6F
341
72
342
72
  0
DIMSTYLE
105
7A
330
A
100
AcDbSymbolTableRecord
100
AcDbDimStyleTableRecord
  2
zucchetti
 70
     0
  3
<>
 41
3.0
 42
0.9
 44
1.8
 73
     0
 74
     0
 77
     1
 78
     8
140
3.0
146
0.6
147
1.5
172
     1
176
     3
177
     3
271
     2
178
     3
271
     2
272
     2
284
     8
340
70
  0
ENDTAB
  0
TABLE
  2
BLOCK_RECORD
  5
1
330
0
100
AcDbSymbolTable
 70
     6
  0
BLOCK_RECORD
  5
1F
330
1
100
AcDbSymbolTableRecord
100
AcDbBlockTableRecord
  2
*Model_Space
340
22
  0
BLOCK_RECORD
  5
1B
330
1
100
AcDbSymbolTableRecord
100
AcDbBlockTableRecord
  2
*Paper_Space
340
1E
  0
BLOCK_RECORD
  5
23
330
1
100
AcDbSymbolTableRecord
100
AcDbBlockTableRecord
  2
*Paper_Space0
340
26
  0
BLOCK_RECORD
  5
72
330
1
100
AcDbSymbolTableRecord
100
AcDbBlockTableRecord
  2
_Closed
340
0
  0
BLOCK_RECORD
  5
7B
330
1
100
AcDbSymbolTableRecord
100
AcDbBlockTableRecord
  2
a
340
0
102
{BLKREFS
331
EA
102
}
  0
BLOCK_RECORD
  5
EB
330
1
100
AcDbSymbolTableRecord
100
AcDbBlockTableRecord
  2
b
340
0
102
{BLKREFS
331
156
102
}
  0
BLOCK_RECORD
  5
157
330
1
100
AcDbSymbolTableRecord
100
AcDbBlockTableRecord
  2
c
340
0
102
{BLKREFS
331
1FA
102
}
  0
BLOCK_RECORD
  5
1FB
330
1
100
AcDbSymbolTableRecord
100
AcDbBlockTableRecord
  2
d
340
0
102
{BLKREFS
331
2D0
102
}
  0
ENDTAB
  0
ENDSEC
  0
SECTION
  2
BLOCKS
  0
BLOCK
  5
20
330
1F
100
AcDbEntity
  8
0
100
AcDbBlockBegin
  2
*Model_Space
 70
     0
 10
0.0
 20
0.0
 30
0.0
  3
*Model_Space
  1

  0
ENDBLK
  5
21
330
1F
100
AcDbEntity
  8
0
100
AcDbBlockEnd
  0
BLOCK
  5
1C
330
1B
100
AcDbEntity
 67
     1
  8
0
100
AcDbBlockBegin
  2
*Paper_Space
 70
     0
 10
0.0
 20
0.0
 30
0.0
  3
*Paper_Space
  1

  0
ENDBLK
  5
1D
330
1B
100
AcDbEntity
 67
     1
  8
0
100
AcDbBlockEnd
  0
BLOCK
  5
24
330
23
100
AcDbEntity
  8
0
100
AcDbBlockBegin
  2
*Paper_Space0
 70
     0
 10
0.0
 20
0.0
 30
0.0
  3
*Paper_Space0
  1

  0
ENDBLK
  5
25
330
23
100
AcDbEntity
  8
0
100
AcDbBlockEnd
  0
BLOCK
  5
73
330
72
100
AcDbEntity
  8
0
100
AcDbBlockBegin
  2
_Closed
 70
     0
 10
0.0
 20
0.0
 30
0.0
  3
_Closed
  1

  0
LINE
  5
75
330
72
100
AcDbEntity
  8
0
  6
ByBlock
 62
     0
370
    -2
100
AcDbLine
 10
-1.0
 20
0.166667
 30
0.0
 11
0.0
 21
0.0
 31
0.0
  0
LINE
  5
76
330
72
100
AcDbEntity
  8
0
  6
ByBlock
 62
     0
370
    -2
100
AcDbLine
 10
0.0
 20
0.0
 30
0.0
 11
-1.0
 21
-0.166667
 31
0.0
  0
LINE
  5
77
330
72
100
AcDbEntity
  8
0
  6
ByBlock
 62
     0
370
    -2
100
AcDbLine
 10
-1.0
 20
0.166667
 30
0.0
 11
-1.0
 21
-0.166667
 31
0.0
  0
LINE
  5
78
330
72
100
AcDbEntity
  8
0
  6
ByBlock
 62
     0
370
    -2
100
AcDbLine
 10
0.0
 20
0.0
 30
0.0
 11
-1.0
 21
0.0
 31
0.0
  0
ENDBLK
  5
74
330
72
100
AcDbEntity
  8
0
100
AcDbBlockEnd
  0
BLOCK
  5
E8
330
7B
100
AcDbEntity
  8
0
100
AcDbBlockBegin
  2
a
 70
     0
 10
37.664284
 20
139.864532
 30
0.0
  3
a
  1

  0
LINE
  5
7C
330
7B
100
AcDbEntity
  8
0
  6
Continuous
 62
     0
370
    30
100
AcDbLine
 10
85.210911
 20
1754.315478
 30
0.0
 11
96.716063
 21
1754.315478
 31
0.0
  0
LINE
  5
7D
330
7B
100
AcDbEntity
  8
0
  6
Continuous
 62
     0
370
    30
100
AcDbLine
 10
96.716063
 20
1754.315478
 30
0.0
 11
108.221214
 21
1754.315478
 31
0.0
  0
CIRCLE
  5
7E
330
7B
100
AcDbEntity
  8
0
  6
Continuous
 62
     0
370
    30
100
AcDbCircle
 10
96.716063
 20
1770.315478
 30
0.0
 40
11.99999999995187
  0
CIRCLE
  5
7F
330
7B
100
AcDbEntity
  8
0
  6
Continuous
 62
     0
370
    30
100
AcDbCircle
 10
96.716063
 20
1770.315478
 30
0.0
 40
10.7
  0
CIRCLE
  5
80
330
7B
100
AcDbEntity
  8
0
  6
Continuous
 62
     0
370
    30
100
AcDbCircle
 10
96.716063
 20
1770.315478
 30
0.0
 40
10.5
  0
LINE
  5
81
330
7B
100
AcDbEntity
  8
0
  6
Continuous
 62
     0
370
    30
100
AcDbLine
 10
91.466063
 20
1771.315478
 30
0.0
 11
91.466063
 21
1769.315478
 31
0.0
  0
LINE
  5
82
330
7B
100
AcDbEntity
  8
0
  6
Continuous
 62
     0
370
    30
100
AcDbLine
 10
91.466063
 20
1769.315478
 30
0.0
 11
101.966063
 21
1769.315478
 31
0.0
  0
LINE
  5
83
330
7B
100
AcDbEntity
  8
0
  6
Continuous
 62
     0
370
    30
100
AcDbLine
 10
101.966063
 20
1769.315478
 30
0.0
 11
101.966063
 21
1771.315478
 31
0.0
  0
LINE
  5
84
330
7B
100
AcDbEntity
  8
0
  6
Continuous
 62
     0
370
    30
100
AcDbLine
 10
101.966063
 20
1771.315478
 30
0.0
 11
91.466063
 21
1771.315478
 31
0.0
  0
CIRCLE
  5
85
330
7B
100
AcDbEntity
  8
0
  6
Continuous
 62
     0
370
    30
100
AcDbCircle
 10
96.716063
 20
1777.815478
 30
0.0
 40
0.5
  0
CIRCLE
  5
86
330
7B
100
AcDbEntity
  8
0
  6
Continuous
 62
     0
370
    30
100
AcDbCircle
 10
93.216063
 20
1773.815478
 30
0.0
 40
0.5
  0
CIRCLE
  5
87
330
7B
100
AcDbEntity
  8
0
  6
Continuous
 62
     0
370
    30
100
AcDbCircle
 10
100.216063
 20
1773.815478
 30
0.0
 40
0.5
  0
CIRCLE
  5
88
330
7B
100
AcDbEntity
  8
0
  6
Continuous
 62
     0
370
    30
100
AcDbCircle
 10
93.216063
 20
1766.815478
 30
0.0
 40
0.5
  0
CIRCLE
  5
89
330
7B
100
AcDbEntity
  8
0
  6
Continuous
 62
     0
370
    30
100
AcDbCircle
 10
100.216063
 20
1766.815478
 30
0.0
 40
0.5
  0
CIRCLE
  5
8A
330
7B
100
AcDbEntity
  8
0
  6
Continuous
 62
     0
370
    30
100
AcDbCircle
 10
92.307673
 20
1776.383105
 30
0.0
 40
0.5
  0
CIRCLE
  5
8B
330
7B
100
AcDbEntity
  8
0
  6
Continuous
 62
     0
370
    30
100
AcDbCircle
 10
89.583139
 20
1772.633105
 30
0.0
 40
0.5
  0
CIRCLE
  5
8C
330
7B
100
AcDbEntity
  8
0
  6
Continuous
 62
     0
370
    30
100
AcDbCircle
 10
89.583139
 20
1767.99785
 30
0.0
 40
0.5
  0
CIRCLE
  5
8D
330
7B
100
AcDbEntity
  8
0
  6
Continuous
 62
     0
370
    30
100
AcDbCircle
 10
92.307673
 20
1764.24785
 30
0.0
 40
0.5
  0
CIRCLE
  5
8E
330
7B
100
AcDbEntity
  8
0
  6
Continuous
 62
     0
370
    30
100
AcDbCircle
 10
96.716063
 20
1762.815478
 30
0.0
 40
0.5
  0
CIRCLE
  5
8F
330
7B
100
AcDbEntity
  8
0
  6
Continuous
 62
     0
370
    30
100
AcDbCircle
 10
101.124452
 20
1764.24785
 30
0.0
 40
0.5
  0
CIRCLE
  5
90
330
7B
100
AcDbEntity
  8
0
  6
Continuous
 62
     0
370
    30
100
AcDbCircle
 10
103.848986
 20
1767.99785
 30
0.0
 40
0.5
  0
CIRCLE
  5
91
330
7B
100
AcDbEntity
  8
0
  6
Continuous
 62
     0
370
    30
100
AcDbCircle
 10
103.848986
 20
1772.633105
 30
0.0
 40
0.5
  0
CIRCLE
  5
92
330
7B
100
AcDbEntity
  8
0
  6
Continuous
 62
     0
370
    30
100
AcDbCircle
 10
101.124452
 20
1776.383105
 30
0.0
 40
0.5
  0
LINE
  5
93
330
7B
100
AcDbEntity
  8
0
  6
Continuous
 62
     0
370
    30
100
AcDbLine
 10
108.216063
 20
1667.315478
 30
0.0
 11
96.716063
 21
1667.315478
 31
0.0
  0
LINE
  5
94
330
7B
100
AcDbEntity
  8
0
  6
Continuous
 62
     0
370
    30
100
AcDbLine
 10
96.716063
 20
1667.315478
 30
0.0
 11
85.216063
 21
1667.315478
 31
0.0
  0
LINE
  5
95
330
7B
100
AcDbEntity
  8
0
  6
Continuous
 62
     0
370
    30
100
AcDbLine
 10
108.216063
 20
1660.315478
 30
0.0
 11
96.716063
 21
1660.315478
 31
0.0
  0
LINE
  5
96
330
7B
100
AcDbEntity
  8
0
  6
Continuous
 62
     0
370
    30
100
AcDbLine
 10
96.716063
 20
1660.315478
 30
0.0
 11
85.216063
 21
1660.315478
 31
0.0
  0
LINE
  5
97
330
7B
100
AcDbEntity
  8
0
  6
Continuous
 62
     0
370
    30
100
AcDbLine
 10
108.221214
 20
1754.315478
 30
0.0
 11
108.221214
 21
1766.904781
 31
0.0
  0
LINE
  5
98
330
7B
100
AcDbEntity
  8
0
  6
Continuous
 62
     0
370
    30
100
AcDbLine
 10
85.210911
 20
1754.315478
 30
0.0
 11
85.210911
 21
1766.904781
 31
0.0
  0
LINE
  5
99
330
7B
100
AcDbEntity
  8
0
  6
Continuous
 62
     0
370
    30
100
AcDbLine
 10
86.238563
 20
1660.315478
 30
0.0
 11
86.238563
 21
1660.050161
 31
0.0
  0
LINE
  5
9A
330
7B
100
AcDbEntity
  8
0
  6
Continuous
 62
     0
370
    30
100
AcDbLine
 10
107.193563
 20
1660.315478
 30
0.0
 11
107.193563
 21
1660.050161
 31
0.0
  0
LINE
  5
9B
330
7B
100
AcDbEntity
  8
0
  6
Continuous
 62
     0
370
    30
100
AcDbLine
 10
85.216063
 20
1667.315478
 30
0.0
 11
85.216063
 21
1660.315478
 31
0.0
  0
LINE
  5
9C
330
7B
100
AcDbEntity
  8
0
  6
Continuous
 62
     0
370
    30
100
AcDbLine
 10
108.216063
 20
1667.315478
 30
0.0
 11
108.216063
 21
1660.315478
 31
0.0
  0
LINE
  5
9D
330
7B
100
AcDbEntity
  8
0
  6
Continuous
 62
     0
370
    30
100
AcDbLine
 10
106.716067
 20
1667.315478
 30
0.0
 11
106.716067
 21
1754.315478
 31
0.0
  0
LINE
  5
9E
330
7B
100
AcDbEntity
  8
0
  6
Continuous
 62
     0
370
    30
100
AcDbLine
 10
86.716058
 20
1667.315478
 30
0.0
 11
86.716058
 21
1754.315478
 31
0.0
  0
LINE
  5
9F
330
7B
100
AcDbEntity
  8
0
  6
Continuous
 62
     0
370
     0
100
AcDbLine
 10
106.031563
 20
1660.050161
 30
0.0
 11
106.031563
 21
1660.315478
 31
0.0
  0
LINE
  5
A0
330
7B
100
AcDbEntity
  8
0
  6
Continuous
 62
     0
370
     0
100
AcDbLine
 10
87.400563
 20
1660.050161
 30
0.0
 11
87.400563
 21
1660.315478
 31
0.0
  0
LINE
  5
A1
330
7B
100
AcDbEntity
  8
0
  6
Continuous
 62
     0
370
    30
100
AcDbLine
 10
89.716061
 20
1628.060844
 30
0.0
 11
89.71606
 21
993.798815
 31
0.0
  0
SPLINE
  5
A2
330
7B
100
AcDbEntity
  8
0
  6
Continuous
 62
     0
370
    30
100
AcDbSpline
210
0.0
220
0.0
230
1.0
 70
     8
 71
     3
 72
    67
 73
    63
 74
     0
 42
0.000000001
 43
0.0
 40
636.7579063524987
 40
636.7579063524987
 40
636.7579063524987
 40
636.7579063524987
 40
638.1995984384604
 40
643.999414774258
 40
652.3991543366859
 40
656.922911195879
 40
665.9379393250567
 40
676.4311941542778
 40
679.6750837597818
 40
687.3619092933448
 40
693.0326643540014
 40
695.5287288788255
 40
698.632525372316
 40
706.062540392049
 40
711.668343603061
 40
719.2431196869004
 40
726.9598924220635
 40
732.8398064468655
 40
740.7802505678857
 40
747.4535620124975
 40
756.1413910366338
 40
761.4597812196672
 40
770.0485753991597
 40
778.6890403203811
 40
785.8713329635432
 40
790.1763015427427
 40
807.382958158977
 40
815.9847032039185
 40
820.3140403141862
 40
824.644539950984
 40
828.9764212616219
 40
835.476955958518
 40
859.336902278373
 40
868.019351780861
 40
883.213908035642
 40
898.3684957388077
 40
904.8591032523215
 40
924.3260991997726
 40
945.4106976701026
 40
961.6314163035469
 40
968.1204776424511
 40
976.2322614789629
 40
984.3444193046229
 40
999.3734632697475
 40
1017.156062804429
 40
1052.718900005714
 40
1090.82035606222
 40
1108.601326964616
 40
1141.624769145712
 40
1161.947574398305
 40
1182.269288202477
 40
1194.969347343667
 40
1202.588952132359
 40
1215.288159689307
 40
1227.988310652696
 40
1248.310985774811
 40
1263.553621759173
 40
1283.875815507452
 40
1304.196958539841
 40
1314.357424514698
 40
1317.807112936625
 40
1318.267496793521
 40
1318.267496793521
 40
1318.267496793521
 40
1318.267496793521
 10
103.7160598379009
 20
993.7830411158706
 30
0.0
 10
103.7160598167597
 20
993.7830411045693
 30
0.0
 10
103.7160597105685
 20
993.8127964268738
 30
0.0
 10
103.7160594815726
 20
994.1955610154635
 30
0.0
 10
103.7160592112334
 20
995.3589126870105
 30
0.0
 10
103.7160589023991
 20
997.4210724153402
 30
0.0
 10
103.71605857542
 20
1000.45664436041
 30
0.0
 10
103.7160582875761
 20
1004.341966964514
 30
0.0
 10
103.7160580369965
 20
1008.653467550367
 30
0.0
 10
103.7160578568817
 20
1012.395302179507
 30
0.0
 10
103.7160577059112
 20
1016.42481516095
 30
0.0
 10
103.7160576095767
 20
1019.47904466381
 30
0.0
 10
103.7160575075437
 20
1023.154071226677
 30
0.0
 10
103.716057403246
 20
1027.998973658716
 30
0.0
 10
103.7160573036516
 20
1034.494101641781
 30
0.0
 10
103.7160572344748
 20
1041.292000901517
 30
0.0
 10
103.7160571968094
 20
1048.305325005252
 30
0.0
 10
103.7160571832667
 20
1055.481363942809
 30
0.0
 10
103.716057191362
 20
1062.314785794353
 30
0.0
 10
103.7160572217219
 20
1070.053942682981
 30
0.0
 10
103.7160572658091
 20
1076.876967331063
 30
0.0
 10
103.7160573284063
 20
1084.273955800079
 30
0.0
 10
103.7160574038741
 20
1091.593501007125
 30
0.0
 10
103.7160574998615
 20
1099.434076045964
 30
0.0
 10
103.7160575872968
 20
1105.842577709245
 30
0.0
 10
103.7160577183333
 20
1114.931771356823
 30
0.0
 10
103.7160578658221
 20
1124.39380702191
 30
0.0
 10
103.7160580131326
 20
1133.865073390882
 30
0.0
 10
103.7160580956744
 20
1139.304446152607
 30
0.0
 10
103.7160581564089
 20
1143.409076932684
 30
0.0
 10
103.7160582257925
 20
1148.211010299437
 30
0.0
 10
103.716058380701
 20
1159.226112970985
 30
0.0
 10
103.7160585449684
 20
1171.693869485066
 30
0.0
 10
103.7160587426235
 20
1186.958550593207
 30
0.0
 10
103.7160589044616
 20
1199.438224264033
 30
0.0
 10
103.7160590622384
 20
1211.182798173839
 30
0.0
 10
103.7160592400307
 20
1224.277321493674
 30
0.0
 10
103.7160594442995
 20
1239.254723546275
 30
0.0
 10
103.7160596843459
 20
1257.375615567214
 30
0.0
 10
103.716059858385
 20
1271.427972114283
 30
0.0
 10
103.7160599758926
 20
1281.348543222509
 30
0.0
 10
103.7160600601514
 20
1288.673315236697
 30
0.0
 10
103.7160601725005
 20
1298.773156747857
 30
0.0
 10
103.7160603128952
 20
1312.036230829388
 30
0.0
 10
103.71606053145
 20
1334.280554078931
 30
0.0
 10
103.7160607887523
 20
1364.201371205275
 30
0.0
 10
103.7160609972145
 20
1394.318147539937
 30
0.0
 10
103.7160611637897
 20
1423.711704051948
 30
0.0
 10
103.7160612710096
 20
1447.298327205812
 30
0.0
 10
103.7160613537768
 20
1471.783395960991
 30
0.0
 10
103.7160613975742
 20
1489.538011802279
 30
0.0
 10
103.7160614207031
 20
1503.075240369382
 30
0.0
 10
103.7160614342367
 20
1514.077329844776
 30
0.0
 10
103.7160614427311
 20
1525.082141571635
 30
0.0
 10
103.7160614480193
 20
1540.322476936952
 30
0.0
 10
103.7160614475949
 20
1556.411053982114
 30
0.0
 10
103.7160614454932
 20
1575.040153271287
 30
0.0
 10
103.7160614460224
 20
1593.668832226613
 30
0.0
 10
103.7160614470744
 20
1610.60341004937
 30
0.0
 10
103.7160614471346
 20
1621.913849463987
 30
0.0
 10
103.7160614468813
 20
1626.604024290048
 30
0.0
 10
103.7160614468226
 20
1627.907381721349
 30
0.0
 10
103.7160614468155
 20
1628.060843007554
 30
0.0
  0
SPLINE
  5
A3
330
7B
100
AcDbEntity
  8
0
  6
Continuous
 62
     0
370
    30
100
AcDbSpline
210
0.0
220
0.0
230
1.0
 70
     8
 71
     3
 72
     9
 73
     5
 74
     0
 42
0.000000001
 43
0.0
 40
0.2586921537057604
 40
0.2586921537057604
 40
0.2586921537057604
 40
0.2586921537057604
 40
0.6834054432068529
 40
0.8898440164086105
 40
0.8898440164086105
 40
0.8898440164086105
 40
0.8898440164086105
 10
89.71610451826442
 20
993.8649356266078
 30
0.0
 10
89.71610419124193
 20
993.8649356288324
 30
0.0
 10
89.71605891755405
 20
993.7860130374328
 30
0.0
 10
89.71605080628981
 20
993.7738219780648
 30
0.0
 10
89.71605033213416
 20
993.7738219778591
 30
0.0
  0
SPLINE
  5
A4
330
7B
100
AcDbEntity
  8
0
  6
Continuous
 62
     0
370
    30
100
AcDbSpline
210
0.0
220
0.0
230
1.0
 70
     8
 71
     3
 72
     8
 73
     4
 74
     0
 42
0.000000001
 43
0.0
 40
0.8898440164086105
 40
0.8898440164086105
 40
0.8898440164086105
 40
0.8898440164086105
 40
1.36709472544451
 40
1.36709472544451
 40
1.36709472544451
 40
1.36709472544451
 10
89.71605033213416
 20
993.7738219778589
 30
0.0
 10
89.7160492359673
 20
993.7738219773836
 30
0.0
 10
89.716059785022
 20
993.7951332734048
 30
0.0
 10
89.71605977802574
 20
993.7988150724696
 30
0.0
  0
LINE
  5
A5
330
7B
100
AcDbEntity
  8
0
  6
Continuous
 62
     0
370
    30
100
AcDbLine
 10
108.216063
 20
1660.050161
 30
0.0
 11
85.216063
 21
1660.050161
 31
0.0
  0
LINE
  5
A6
330
7B
100
AcDbEntity
  8
0
  6
Continuous
 62
     0
370
    30
100
AcDbLine
 10
108.216063
 20
1660.050161
 30
0.0
 11
107.967299
 21
1652.551289
 31
0.0
  0
LINE
  5
A7
330
7B
100
AcDbEntity
  8
0
  6
Continuous
 62
     0
370
    30
100
AcDbLine
 10
85.216063
 20
1660.050161
 30
0.0
 11
85.464826
 21
1652.551293
 31
0.0
  0
LINE
  5
A8
330
7B
100
AcDbEntity
  8
0
  6
Continuous
 62
     0
370
    30
100
AcDbLine
 10
89.716061
 20
1624.690161
 30
0.0
 11
89.496695
 21
1624.690161
 31
0.0
  0
LINE
  5
A9
330
7B
100
AcDbEntity
  8
0
  6
Continuous
 62
     0
370
    30
100
AcDbLine
 10
108.216063
 20
1624.690161
 30
0.0
 11
103.716061
 21
1624.690161
 31
0.0
  0
LINE
  5
AA
330
7B
100
AcDbEntity
  8
0
  6
Continuous
 62
     0
370
    30
100
AcDbLine
 10
89.496695
 20
1624.690161
 30
0.0
 11
85.216063
 21
1624.690161
 31
0.0
  0
LINE
  5
AB
330
7B
100
AcDbEntity
  8
0
  6
Continuous
 62
     0
370
     0
100
AcDbLine
 10
107.27007
 20
1596.173583
 30
0.0
 11
103.716061
 21
1596.173583
 31
0.0
  0
LINE
  5
AC
330
7B
100
AcDbEntity
  8
0
  6
Continuous
 62
     0
370
     0
100
AcDbLine
 10
89.716061
 20
1596.173583
 30
0.0
 11
86.162055
 21
1596.173583
 31
0.0
  0
LINE
  5
AD
330
7B
100
AcDbEntity
  8
0
  6
Continuous
 62
     0
370
    30
100
AcDbLine
 10
106.770345
 20
1595.690161
 30
0.0
 11
103.716061
 21
1595.690161
 31
0.0
  0
LINE
  5
AE
330
7B
100
AcDbEntity
  8
0
  6
Continuous
 62
     0
370
    30
100
AcDbLine
 10
89.716061
 20
1595.690161
 30
0.0
 11
86.66178
 21
1595.690161
 31
0.0
  0
ARC
  5
AF
330
7B
100
AcDbEntity
  8
0
  6
Continuous
 62
     0
370
    30
100
AcDbCircle
 10
86.66178
 20
1596.190161
 30
0.0
 40
0.4999999999999963
100
AcDbArc
 50
181.9
 51
270.0
  0
ARC
  5
B0
330
7B
100
AcDbEntity
  8
0
  6
Continuous
 62
     0
370
    30
100
AcDbCircle
 10
106.770345
 20
1596.190161
 30
0.0
 40
0.4999999999999963
100
AcDbArc
 50
270.0
 51
358.1
  0
LINE
  5
B1
330
7B
100
AcDbEntity
  8
0
  6
Continuous
 62
     0
370
    30
100
AcDbLine
 10
85.216063
 20
1624.690161
 30
0.0
 11
86.162055
 21
1596.173583
 31
0.0
  0
LINE
  5
B2
330
7B
100
AcDbEntity
  8
0
  6
Continuous
 62
     0
370
    30
100
AcDbLine
 10
108.216063
 20
1624.690161
 30
0.0
 11
107.27007
 21
1596.173583
 31
0.0
  0
ARC
  5
B3
330
7B
100
AcDbEntity
  8
0
  6
Continuous
 62
     0
370
    30
100
AcDbCircle
 10
176.716065
 20
1641.890157
 30
0.0
 40
22.5
100
AcDbArc
 50
26.239503
 51
260.363386
  0
ARC
  5
B4
330
7B
100
AcDbEntity
  8
0
  6
Continuous
 62
     0
370
    30
100
AcDbCircle
 10
176.716065
 20
1641.890157
 30
0.0
 40
22.5
100
AcDbArc
 50
279.349901
 51
26.239503
  0
ARC
  5
B5
330
7B
100
AcDbEntity
  8
0
  6
Continuous
 62
     0
370
     0
100
AcDbCircle
 10
176.716065
 20
1641.890157
 30
0.0
 40
29.5
100
AcDbArc
 50
26.239503
 51
263.088332
  0
ARC
  5
B6
330
7B
100
AcDbEntity
  8
0
  6
Continuous
 62
     0
370
     0
100
AcDbCircle
 10
176.716065
 20
1641.890157
 30
0.0
 40
29.5
100
AcDbArc
 50
276.716061
 51
26.239503
  0
ARC
  5
B7
330
7B
100
AcDbEntity
  8
0
  6
Continuous
 62
     0
370
    30
100
AcDbCircle
 10
176.716065
 20
1641.890157
 30
0.0
 40
30.0
100
AcDbArc
 50
26.239503
 51
263.204074
  0
ARC
  5
B8
330
7B
100
AcDbEntity
  8
0
  6
Continuous
 62
     0
370
    30
100
AcDbCircle
 10
176.716065
 20
1641.890157
 30
0.0
 40
30.0
100
AcDbArc
 50
276.603624
 51
26.239503
  0
LINE
  5
B9
330
7B
100
AcDbEntity
  8
0
  6
Continuous
 62
     0
370
     0
100
AcDbLine
 10
173.985546
 20
1572.454155
 30
0.0
 11
173.985546
 21
1567.023986
 31
0.0
  0
LINE
  5
BA
330
7B
100
AcDbEntity
  8
0
  6
Continuous
 62
     0
370
     0
100
AcDbLine
 10
174.751719
 20
1572.454155
 30
0.0
 11
174.751719
 21
1566.454155
 31
0.0
  0
LINE
  5
BB
330
7B
100
AcDbEntity
  8
0
  6
Continuous
 62
     0
370
     0
100
AcDbLine
 10
178.580408
 20
1572.454155
 30
0.0
 11
178.580408
 21
1566.454155
 31
0.0
  0
LINE
  5
BC
330
7B
100
AcDbEntity
  8
0
  6
Continuous
 62
     0
370
     0
100
AcDbLine
 10
179.346581
 20
1572.454155
 30
0.0
 11
179.346581
 21
1567.023986
 31
0.0
  0
ARC
  5
BD
330
7B
100
AcDbEntity
  8
0
  6
Continuous
 62
     0
370
    30
100
AcDbCircle
 10
174.751719
 20
1567.254155
 30
0.0
 40
0.800000011920926
100
AcDbArc
 50
196.721019
 51
269.999999
  0
LINE
  5
BE
330
7B
100
AcDbEntity
  8
0
  6
Continuous
 62
     0
370
    30
100
AcDbLine
 10
174.751719
 20
1566.454155
 30
0.0
 11
178.580408
 21
1566.454155
 31
0.0
  0
ARC
  5
BF
330
7B
100
AcDbEntity
  8
0
  6
Continuous
 62
     0
370
    30
100
AcDbCircle
 10
178.580408
 20
1567.254155
 30
0.0
 40
0.800000011920929
100
AcDbArc
 50
269.999999
 51
343.278979
  0
LINE
  5
C0
330
7B
100
AcDbEntity
  8
0
  6
Continuous
 62
     0
370
    30
100
AcDbLine
 10
173.166064
 20
1572.454155
 30
0.0
 11
173.166065
 21
1618.931403
 31
0.0
  0
ARC
  5
C1
330
7B
100
AcDbEntity
  8
0
  6
Continuous
 62
     0
370
    30
100
AcDbCircle
 10
171.666065
 20
1618.931403
 30
0.0
 40
1.499999999999998
100
AcDbArc
 50
359.999999
 51
77.715505
  0
LINE
  5
C2
330
7B
100
AcDbEntity
  8
0
  6
Continuous
 62
     0
370
    30
100
AcDbLine
 10
180.166064
 20
1572.454155
 30
0.0
 11
180.166065
 21
1618.931403
 31
0.0
  0
ARC
  5
C3
330
7B
100
AcDbEntity
  8
0
  6
Continuous
 62
     0
370
    30
100
AcDbCircle
 10
181.666065
 20
1618.931403
 30
0.0
 40
1.500000000000006
100
AcDbArc
 50
106.765041
 51
179.999999
  0
ARC
  5
C4
330
7B
100
AcDbEntity
  8
0
  6
Continuous
 62
     0
370
     0
100
AcDbCircle
 10
180.950757
 20
1618.679892
 30
0.0
 40
1.606024310792733
100
AcDbArc
 50
99.13845
 51
177.255712
  0
ARC
  5
C5
330
7B
100
AcDbEntity
  8
0
  6
Continuous
 62
     0
370
     0
100
AcDbCircle
 10
180.954208
 20
1618.712595
 30
0.0
 40
2.374210179234391
100
AcDbArc
 50
99.822535
 51
178.933457
  0
LINE
  5
C6
330
7B
100
AcDbEntity
  8
0
  6
Continuous
 62
     0
370
     0
100
AcDbLine
 10
179.346575
 20
1618.756786
 30
0.0
 11
180.166065
 21
1618.931403
 31
0.0
  0
LINE
  5
C7
330
7B
100
AcDbEntity
  8
0
  6
Continuous
 62
     0
370
     0
100
AcDbLine
 10
178.580408
 20
1572.454155
 30
0.0
 11
178.580409
 21
1618.756787
 31
0.0
  0
LINE
  5
C8
330
7B
100
AcDbEntity
  8
0
  6
Continuous
 62
     0
370
     0
100
AcDbLine
 10
180.695687
 20
1620.265532
 30
0.0
 11
180.549175
 21
1621.052001
 31
0.0
  0
LINE
  5
C9
330
7B
100
AcDbEntity
  8
0
  6
Continuous
 62
     0
370
     0
100
AcDbLine
 10
178.580409
 20
1618.756787
 30
0.0
 11
179.346575
 21
1618.756786
 31
0.0
  0
LINE
  5
CA
330
7B
100
AcDbEntity
  8
0
  6
Continuous
 62
     0
370
     0
100
AcDbLine
 10
179.346581
 20
1572.454155
 30
0.0
 11
179.346582
 21
1618.756786
 31
0.0
  0
ARC
  5
CB
330
7B
100
AcDbEntity
  8
0
  6
Continuous
 62
     0
370
     0
100
AcDbCircle
 10
172.381603
 20
1618.679984
 30
0.0
 40
1.605812707158341
100
AcDbArc
 50
2.741072
 51
80.868866
  0
ARC
  5
CC
330
7B
100
AcDbEntity
  8
0
  6
Continuous
 62
     0
370
     0
100
AcDbCircle
 10
172.378012
 20
1618.71259
 30
0.0
 40
2.374116146074222
100
AcDbArc
 50
1.066605
 51
80.182177
  0
LINE
  5
CD
330
7B
100
AcDbEntity
  8
0
  6
Continuous
 62
     0
370
     0
100
AcDbLine
 10
173.166065
 20
1618.931403
 30
0.0
 11
173.985578
 21
1618.756777
 31
0.0
  0
ARC
  5
CE
330
7B
100
AcDbEntity
  8
0
  6
Continuous
 62
     0
370
     0
100
AcDbCircle
 10
176.666065
 20
1641.893328
 30
0.0
 40
21.19999998807907
100
AcDbArc
 50
280.554206
 51
259.445513
  0
LINE
  5
CF
330
7B
100
AcDbEntity
  8
0
  6
Continuous
 62
     0
370
     0
100
AcDbLine
 10
174.751719
 20
1572.454155
 30
0.0
 11
174.75172
 21
1618.756784
 31
0.0
  0
LINE
  5
D0
330
7B
100
AcDbEntity
  8
0
  6
Continuous
 62
     0
370
     0
100
AcDbLine
 10
172.636437
 20
1620.265447
 30
0.0
 11
172.782837
 21
1621.051937
 31
0.0
  0
LINE
  5
D1
330
7B
100
AcDbEntity
  8
0
  6
Continuous
 62
     0
370
     0
100
AcDbLine
 10
174.751717
 20
1618.756784
 30
0.0
 11
173.985578
 21
1618.756777
 31
0.0
  0
LINE
  5
D2
330
7B
100
AcDbEntity
  8
0
  6
Continuous
 62
     0
370
     0
100
AcDbLine
 10
173.985546
 20
1572.454155
 30
0.0
 11
173.985547
 21
1618.756777
 31
0.0
  0
ARC
  5
D3
330
7B
100
AcDbEntity
  8
0
  6
Continuous
 62
     0
370
    30
100
AcDbCircle
 10
176.666065
 20
1641.893328
 30
0.0
 40
22.0
100
AcDbArc
 50
280.554153
 51
259.445873
  0
ARC
  5
D4
330
7B
100
AcDbEntity
  8
0
  6
Continuous
 62
     0
370
    30
100
AcDbCircle
 10
192.219804
 20
1572.552689
 30
0.0
 40
19.05399563464188
100
AcDbArc
 50
180.296294
 51
196.867522
  0
ARC
  5
D5
330
7B
100
AcDbEntity
  8
0
  6
Continuous
 62
     0
370
    30
100
AcDbCircle
 10
161.112323
 20
1572.552689
 30
0.0
 40
19.05399563466283
100
AcDbArc
 50
343.132476
 51
359.703704
  0
CIRCLE
  5
D6
330
7B
100
AcDbEntity
  8
0
  6
Continuous
 62
     0
370
     0
100
AcDbCircle
 10
96.716063
 20
1641.89016
 30
0.0
 40
14.5
  0
CIRCLE
  5
D7
330
7B
100
AcDbEntity
  8
0
  6
Continuous
 62
     0
370
    30
100
AcDbCircle
 10
96.716063
 20
1641.89016
 30
0.0
 40
15.5
  0
ARC
  5
D8
330
7B
100
AcDbEntity
  8
0
  6
Continuous
 62
     0
370
    30
100
AcDbCircle
 10
96.716063
 20
1641.89016
 30
0.0
 40
30.00000018737843
100
AcDbArc
 50
109.47123
 51
248.1885
  0
ARC
  5
D9
330
7B
100
AcDbEntity
  8
0
  6
Continuous
 62
     0
370
    30
100
AcDbCircle
 10
96.716063
 20
1641.89016
 30
0.0
 40
30.00000018737843
100
AcDbArc
 50
291.8115
 51
70.52877
  0
ARC
  5
DA
330
7B
100
AcDbEntity
  8
0
  6
Continuous
 62
     0
370
     0
100
AcDbCircle
 10
96.716063
 20
1641.89016
 30
0.0
 40
29.50000018737843
100
AcDbArc
 50
109.814938
 51
247.761275
  0
ARC
  5
DB
330
7B
100
AcDbEntity
  8
0
  6
Continuous
 62
     0
370
     0
100
AcDbCircle
 10
96.716063
 20
1641.89016
 30
0.0
 40
29.50000018737843
100
AcDbArc
 50
292.238725
 51
70.185062
  0
LINE
  5
DC
330
7B
100
AcDbEntity
  8
0
  6
Continuous
 62
     0
370
    30
100
AcDbLine
 10
85.516063
 20
1625.690161
 30
0.0
 11
89.716061
 21
1625.690161
 31
0.0
  0
LINE
  5
DD
330
7B
100
AcDbEntity
  8
0
  6
Continuous
 62
     0
370
    30
100
AcDbLine
 10
103.716061
 20
1625.690161
 30
0.0
 11
107.916063
 21
1625.690161
 31
0.0
  0
LINE
  5
DE
330
7B
100
AcDbEntity
  8
0
  6
Continuous
 62
     0
370
     0
100
AcDbLine
 10
85.316063
 20
1625.890161
 30
0.0
 11
89.716061
 21
1625.890161
 31
0.0
  0
LINE
  5
DF
330
7B
100
AcDbEntity
  8
0
  6
Continuous
 62
     0
370
     0
100
AcDbLine
 10
103.716061
 20
1625.890161
 30
0.0
 11
108.116063
 21
1625.890161
 31
0.0
  0
ARC
  5
E0
330
7B
100
AcDbEntity
  8
0
  6
Continuous
 62
     0
370
    30
100
AcDbCircle
 10
107.916063
 20
1625.890161
 30
0.0
 40
0.2000000029802322
100
AcDbArc
 50
270.0
 51
360.0
  0
ARC
  5
E1
330
7B
100
AcDbEntity
  8
0
  6
Continuous
 62
     0
370
    30
100
AcDbCircle
 10
85.516063
 20
1625.890161
 30
0.0
 40
0.2000000029802322
100
AcDbArc
 50
180.0
 51
270.0
  0
LINE
  5
E2
330
7B
100
AcDbEntity
  8
0
  6
Continuous
 62
     0
370
    30
100
AcDbLine
 10
108.116063
 20
1631.388256
 30
0.0
 11
108.116063
 21
1625.890161
 31
0.0
  0
LINE
  5
E3
330
7B
100
AcDbEntity
  8
0
  6
Continuous
 62
     0
370
    30
100
AcDbLine
 10
85.316063
 20
1631.388256
 30
0.0
 11
85.316063
 21
1625.890161
 31
0.0
  0
LINE
  5
E4
330
7B
100
AcDbEntity
  8
0
  6
Continuous
 62
     0
370
    30
100
AcDbLine
 10
105.816063
 20
1625.690161
 30
0.0
 11
105.816063
 21
1624.690161
 31
0.0
  0
LINE
  5
E5
330
7B
100
AcDbEntity
  8
0
  6
Continuous
 62
     0
370
    30
100
AcDbLine
 10
87.616063
 20
1625.690161
 30
0.0
 11
87.616063
 21
1624.690161
 31
0.0
  0
ARC
  5
E6
330
7B
100
AcDbEntity
  8
0
  6
Continuous
 62
     0
370
    30
100
AcDbCircle
 10
176.716065
 20
1641.890158
 30
0.0
 40
22.1
100
AcDbArc
 50
280.726309
 51
43.484915
  0
ARC
  5
E7
330
7B
100
AcDbEntity
  8
0
  6
Continuous
 62
     0
370
    30
100
AcDbCircle
 10
176.716065
 20
1641.890158
 30
0.0
 40
22.1
100
AcDbArc
 50
43.484915
 51
258.897807
  0
ENDBLK
  5
E9
330
7B
100
AcDbEntity
  8
0
100
AcDbBlockEnd
  0
BLOCK
  5
154
330
EB
100
AcDbEntity
  8
0
100
AcDbBlockBegin
  2
b
 70
     0
 10
37.664299
 20
644.670197
 30
0.0
  3
b
  1

  0
LINE
  5
EC
330
EB
100
AcDbEntity
  8
0
  6
Continuous
 62
     0
370
     0
100
AcDbLine
 10
96.716078
 20
738.154812
 30
0.0
 11
105.216078
 21
738.154812
 31
0.0
  0
LINE
  5
ED
330
EB
100
AcDbEntity
  8
0
  6
Continuous
 62
     0
370
    30
100
AcDbLine
 10
96.716078
 20
738.654812
 30
0.0
 11
104.716078
 21
738.654812
 31
0.0
  0
LINE
  5
EE
330
EB
100
AcDbEntity
  8
0
  6
Continuous
 62
     0
370
     0
100
AcDbLine
 10
96.716078
 20
738.154812
 30
0.0
 11
88.216078
 21
738.154812
 31
0.0
  0
LINE
  5
EF
330
EB
100
AcDbEntity
  8
0
  6
Continuous
 62
     0
370
    30
100
AcDbLine
 10
96.716078
 20
738.654812
 30
0.0
 11
88.716078
 21
738.654812
 31
0.0
  0
LINE
  5
F0
330
EB
100
AcDbEntity
  8
0
  6
Continuous
 62
     0
370
    30
100
AcDbLine
 10
105.216078
 20
735.154812
 30
0.0
 11
105.216078
 21
738.154812
 31
0.0
  0
ARC
  5
F1
330
EB
100
AcDbEntity
  8
0
  6
Continuous
 62
     0
370
    30
100
AcDbCircle
 10
104.716078
 20
738.154812
 30
0.0
 40
0.5
100
AcDbArc
 50
0.0
 51
90.0
  0
LINE
  5
F2
330
EB
100
AcDbEntity
  8
0
  6
Continuous
 62
     0
370
     0
100
AcDbLine
 10
96.716078
 20
738.154812
 30
0.0
 11
96.716078
 21
738.654812
 31
0.0
  0
LINE
  5
F3
330
EB
100
AcDbEntity
  8
0
  6
Continuous
 62
     0
370
    30
100
AcDbLine
 10
88.216078
 20
735.154812
 30
0.0
 11
88.216078
 21
738.154812
 31
0.0
  0
ARC
  5
F4
330
EB
100
AcDbEntity
  8
0
  6
Continuous
 62
     0
370
    30
100
AcDbCircle
 10
88.716078
 20
738.154812
 30
0.0
 40
0.5
100
AcDbArc
 50
90.0
 51
180.0
  0
LINE
  5
F5
330
EB
100
AcDbEntity
  8
0
  6
Continuous
 62
     0
370
    30
100
AcDbLine
 10
84.716078
 20
686.554812
 30
0.0
 11
96.716078
 21
686.554812
 31
0.0
  0
LINE
  5
F6
330
EB
100
AcDbEntity
  8
0
  6
Continuous
 62
     0
370
    30
100
AcDbLine
 10
96.716078
 20
686.554812
 30
0.0
 11
108.716078
 21
686.554812
 31
0.0
  0
LINE
  5
F7
330
EB
100
AcDbEntity
  8
0
  6
Continuous
 62
     0
370
    30
100
AcDbLine
 10
87.716078
 20
735.154812
 30
0.0
 11
96.716078
 21
735.154812
 31
0.0
  0
LINE
  5
F8
330
EB
100
AcDbEntity
  8
0
  6
Continuous
 62
     0
370
    30
100
AcDbLine
 10
96.716078
 20
735.154812
 30
0.0
 11
105.716078
 21
735.154812
 31
0.0
  0
LINE
  5
F9
330
EB
100
AcDbEntity
  8
0
  6
Continuous
 62
     0
370
     0
100
AcDbLine
 10
84.843667
 20
717.345863
 30
0.0
 11
96.716078
 21
717.345863
 31
0.0
  0
LINE
  5
FA
330
EB
100
AcDbEntity
  8
0
  6
Continuous
 62
     0
370
     0
100
AcDbLine
 10
84.716078
 20
715.753539
 30
0.0
 11
96.716078
 21
715.753539
 31
0.0
  0
LINE
  5
FB
330
EB
100
AcDbEntity
  8
0
  6
Continuous
 62
     0
370
     0
100
AcDbLine
 10
96.716078
 20
717.345863
 30
0.0
 11
108.588489
 21
717.345863
 31
0.0
  0
LINE
  5
FC
330
EB
100
AcDbEntity
  8
0
  6
Continuous
 62
     0
370
     0
100
AcDbLine
 10
96.716078
 20
715.753539
 30
0.0
 11
108.716078
 21
715.753539
 31
0.0
  0
LINE
  5
FD
330
EB
100
AcDbEntity
  8
0
  6
Continuous
 62
     0
370
     0
100
AcDbLine
 10
96.716078
 20
717.345862
 30
0.0
 11
96.716078
 21
715.753538
 31
0.0
  0
LINE
  5
FE
330
EB
100
AcDbEntity
  8
0
  6
Continuous
 62
     0
370
    30
100
AcDbLine
 10
108.588489
 20
717.345863
 30
0.0
 11
105.716078
 21
735.154812
 31
0.0
  0
LINE
  5
FF
330
EB
100
AcDbEntity
  8
0
  6
Continuous
 62
     0
370
    30
100
AcDbLine
 10
84.843667
 20
717.345863
 30
0.0
 11
87.716078
 21
735.154812
 31
0.0
  0
LINE
  5
100
330
EB
100
AcDbEntity
  8
0
  6
Continuous
 62
     0
370
    30
100
AcDbLine
 10
108.716078
 20
686.554812
 30
0.0
 11
108.716078
 21
715.753539
 31
0.0
  0
LINE
  5
101
330
EB
100
AcDbEntity
  8
0
  6
Continuous
 62
     0
370
    30
100
AcDbLine
 10
84.716078
 20
686.554812
 30
0.0
 11
84.716078
 21
715.753539
 31
0.0
  0
ARC
  5
102
330
EB
100
AcDbEntity
  8
0
  6
Continuous
 62
     0
370
    30
100
AcDbCircle
 10
94.716078
 20
715.753539
 30
0.0
 40
10.0
100
AcDbArc
 50
170.837653
 51
180.0
  0
ARC
  5
103
330
EB
100
AcDbEntity
  8
0
  6
Continuous
 62
     0
370
    30
100
AcDbCircle
 10
98.716078
 20
715.753539
 30
0.0
 40
10.0
100
AcDbArc
 50
0.0
 51
9.162347
  0
LINE
  5
104
330
EB
100
AcDbEntity
  8
0
  6
Continuous
 62
     0
370
    30
100
AcDbLine
 10
89.716076
 20
686.554833
 30
0.0
 11
89.716072
 21
616.701194
 31
0.0
  0
LINE
  5
105
330
EB
100
AcDbEntity
  8
0
  6
Continuous
 62
     0
370
    30
100
AcDbLine
 10
103.716076
 20
686.554833
 30
0.0
 11
103.716072
 21
616.701189
 31
0.0
  0
LINE
  5
106
330
EB
100
AcDbEntity
  8
0
  6
Continuous
 62
     0
370
    30
100
AcDbLine
 10
147.21608
 20
769.835336
 30
0.0
 11
203.176216
 21
769.835336
 31
0.0
  0
LINE
  5
107
330
EB
100
AcDbEntity
  8
0
  6
Continuous
 62
     0
370
    30
100
AcDbLine
 10
203.176216
 20
769.835336
 30
0.0
 11
206.21608
 21
769.835336
 31
0.0
  0
LINE
  5
108
330
EB
100
AcDbEntity
  8
0
  6
Continuous
 62
     0
370
     0
100
AcDbLine
 10
146.71608
 20
770.335336
 30
0.0
 11
203.624693
 21
770.335336
 31
0.0
  0
LINE
  5
109
330
EB
100
AcDbEntity
  8
0
  6
Continuous
 62
     0
370
     0
100
AcDbLine
 10
203.624693
 20
770.335336
 30
0.0
 11
206.71608
 21
770.335336
 31
0.0
  0
LINE
  5
10A
330
EB
100
AcDbEntity
  8
0
  6
Continuous
 62
     0
370
     0
100
AcDbLine
 10
146.71608
 20
774.335336
 30
0.0
 11
203.624693
 21
774.335336
 31
0.0
  0
LINE
  5
10B
330
EB
100
AcDbEntity
  8
0
  6
Continuous
 62
     0
370
     0
100
AcDbLine
 10
203.624693
 20
774.335336
 30
0.0
 11
206.71608
 21
774.335336
 31
0.0
  0
LINE
  5
10C
330
EB
100
AcDbEntity
  8
0
  6
Continuous
 62
     0
370
    30
100
AcDbLine
 10
147.21608
 20
774.835336
 30
0.0
 11
203.176216
 21
774.835336
 31
0.0
  0
LINE
  5
10D
330
EB
100
AcDbEntity
  8
0
  6
Continuous
 62
     0
370
    30
100
AcDbLine
 10
203.176216
 20
774.835336
 30
0.0
 11
206.21608
 21
774.835336
 31
0.0
  0
ARC
  5
10E
330
EB
100
AcDbEntity
  8
0
  6
Continuous
 62
     0
370
    30
100
AcDbCircle
 10
206.21608
 20
774.335336
 30
0.0
 40
0.5
100
AcDbArc
 50
0.0
 51
90.0
  0
ARC
  5
10F
330
EB
100
AcDbEntity
  8
0
  6
Continuous
 62
     0
370
    30
100
AcDbCircle
 10
147.21608
 20
774.335336
 30
0.0
 40
0.5000000000000036
100
AcDbArc
 50
90.0
 51
180.0
  0
ARC
  5
110
330
EB
100
AcDbEntity
  8
0
  6
Continuous
 62
     0
370
    30
100
AcDbCircle
 10
206.21608
 20
770.335336
 30
0.0
 40
0.5
100
AcDbArc
 50
270.0
 51
360.0
  0
ARC
  5
111
330
EB
100
AcDbEntity
  8
0
  6
Continuous
 62
     0
370
    30
100
AcDbCircle
 10
147.21608
 20
770.335336
 30
0.0
 40
0.5
100
AcDbArc
 50
180.0
 51
270.0
  0
LINE
  5
112
330
EB
100
AcDbEntity
  8
0
  6
Continuous
 62
     0
370
    30
100
AcDbLine
 10
206.71608
 20
774.335336
 30
0.0
 11
206.71608
 21
770.335336
 31
0.0
  0
LINE
  5
113
330
EB
100
AcDbEntity
  8
0
  6
Continuous
 62
     0
370
    30
100
AcDbLine
 10
146.71608
 20
774.335336
 30
0.0
 11
146.71608
 21
770.335336
 31
0.0
  0
LINE
  5
114
330
EB
100
AcDbEntity
  8
0
  6
Continuous
 62
     0
370
    30
100
AcDbLine
 10
197.86608
 20
702.540516
 30
0.0
 11
155.46608
 21
702.540516
 31
0.0
  0
LINE
  5
115
330
EB
100
AcDbEntity
  8
0
  6
Continuous
 62
     0
370
     0
100
AcDbLine
 10
198.66608
 20
703.340516
 30
0.0
 11
154.66608
 21
703.340516
 31
0.0
  0
ELLIPSE
  5
116
330
EB
100
AcDbEntity
  8
0
  6
Continuous
 62
     0
370
    30
100
AcDbEllipse
 10
176.66608
 20
731.030785
 30
0.0
 11
22.0
 21
-1.931884058929178E-7
 31
0.0
210
0.0
220
0.0
230
1.0
 40
0.36397
 41
3.141592677716193
 42
6.283185331305987
  0
SPLINE
  5
117
330
EB
100
AcDbEntity
  8
0
  6
Continuous
 62
     0
370
    30
100
AcDbSpline
210
0.0
220
0.0
230
1.0
 70
     8
 71
     3
 72
    17
 73
    13
 74
     0
 42
0.000000001
 43
0.0
 40
13.27191555656777
 40
13.27191555656777
 40
13.27191555656777
 40
13.27191555656777
 40
13.93436705867539
 40
18.99872121313802
 40
23.83259596650371
 40
27.74999508382983
 40
31.76225290533457
 40
35.66907232774657
 40
39.93902673924379
 40
43.87685082340847
 40
48.29542226986025
 40
51.41099485854803
 40
51.41099485854803
 40
51.41099485854803
 40
51.41099485854803
 10
160.5321098923092
 20
726.7594078768046
 30
0.0
 10
160.6573840120646
 20
726.697218860083
 30
0.0
 10
161.7648794034533
 20
726.1653705901815
 30
0.0
 10
164.1930815260296
 20
725.2812051187602
 30
0.0
 10
168.0945286952931
 20
724.4223360321201
 30
0.0
 10
172.1171277244693
 20
723.9254248678028
 30
0.0
 10
176.04748936042
 20
723.7392149899109
 30
0.0
 10
180.1216783001792
 20
723.8413990058563
 30
0.0
 10
184.0158451540821
 20
724.2385317345718
 30
0.0
 10
187.7231845580312
 20
724.9353163988088
 30
0.0
 10
190.6343021808312
 20
725.7952880480282
 30
0.0
 10
192.2107902405389
 20
726.4669194025247
 30
0.0
 10
192.800060651044
 20
726.7594056265599
 30
0.0
  0
LINE
  5
118
330
EB
100
AcDbEntity
  8
0
  6
Continuous
 62
     0
370
    30
100
AcDbLine
 10
155.570938
 20
731.030785
 30
0.0
 11
154.66608
 21
731.030785
 31
0.0
  0
LINE
  5
119
330
EB
100
AcDbEntity
  8
0
  6
Continuous
 62
     0
370
    30
100
AcDbLine
 10
198.66608
 20
731.030785
 30
0.0
 11
197.761223
 21
731.030785
 31
0.0
  0
SPLINE
  5
11A
330
EB
100
AcDbEntity
  8
0
  6
Continuous
 62
     0
370
    30
100
AcDbSpline
210
0.0
220
0.0
230
1.0
 70
     8
 71
     3
 72
    11
 73
     7
 74
     0
 42
0.000000001
 43
0.0
 40
0.0
 40
0.0
 40
0.0
 40
0.0
 40
2.93545859311661
 40
7.337050960277801
 40
10.88577784477735
 40
13.62845060249452
 40
13.62845060249452
 40
13.62845060249452
 40
13.62845060249452
 10
197.7612225809502
 20
731.030784522578
 30
0.0
 10
197.6719791297619
 20
730.6977233164159
 30
0.0
 10
197.3008874928496
 20
729.8690220930195
 30
0.0
 10
196.2074752656599
 20
728.6802181184903
 30
0.0
 10
194.5760952501506
 20
727.5924206223842
 30
0.0
 10
193.369443751471
 20
727.0037976861415
 30
0.0
 10
192.8000609702528
 20
726.7594055513308
 30
0.0
  0
SPLINE
  5
11B
330
EB
100
AcDbEntity
  8
0
  6
Continuous
 62
     0
370
    30
100
AcDbSpline
210
0.0
220
0.0
230
1.0
 70
     8
 71
     3
 72
    11
 73
     7
 74
     0
 42
0.000000001
 43
0.0
 40
0.0
 40
0.0
 40
0.0
 40
0.0
 40
2.742586701259878
 40
6.291400101000666
 40
10.69299246816186
 40
13.62845106127846
 40
13.62845106127846
 40
13.62845106127846
 40
13.62845106127846
 10
160.5321057728085
 20
726.7594069060747
 30
0.0
 10
159.962740890004
 20
727.0037913464121
 30
0.0
 10
158.7560771453442
 20
727.592411120965
 30
0.0
 10
157.124695467281
 20
728.6802090050315
 30
0.0
 10
156.0312728859887
 20
729.8690220251885
 30
0.0
 10
155.6601814112079
 20
730.6977233164159
 30
0.0
 10
155.570937921714
 20
731.030784522578
 30
0.0
  0
LINE
  5
11C
330
EB
100
AcDbEntity
  8
0
  6
Continuous
 62
     0
370
    30
100
AcDbLine
 10
156.792244
 20
731.030785
 30
0.0
 11
155.570938
 21
731.030785
 31
0.0
  0
LINE
  5
11D
330
EB
100
AcDbEntity
  8
0
  6
Continuous
 62
     0
370
    30
100
AcDbLine
 10
197.761223
 20
731.030785
 30
0.0
 11
196.639919
 21
731.030785
 31
0.0
  0
LINE
  5
11E
330
EB
100
AcDbEntity
  8
0
  6
Continuous
 62
     0
370
    30
100
AcDbLine
 10
198.66608
 20
731.030785
 30
0.0
 11
198.66608
 21
703.340516
 31
0.0
  0
LINE
  5
11F
330
EB
100
AcDbEntity
  8
0
  6
Continuous
 62
     0
370
    30
100
AcDbLine
 10
154.66608
 20
731.030785
 30
0.0
 11
154.66608
 21
703.340516
 31
0.0
  0
ARC
  5
120
330
EB
100
AcDbEntity
  8
0
  6
Continuous
 62
     0
370
    30
100
AcDbCircle
 10
197.86608
 20
703.340516
 30
0.0
 40
0.800000011920929
100
AcDbArc
 50
270.0
 51
0.0
  0
ARC
  5
121
330
EB
100
AcDbEntity
  8
0
  6
Continuous
 62
     0
370
    30
100
AcDbCircle
 10
155.46608
 20
703.340516
 30
0.0
 40
0.800000011920929
100
AcDbArc
 50
180.0
 51
270.0
  0
LINE
  5
122
330
EB
100
AcDbEntity
  8
0
  6
Continuous
 62
     0
370
     0
100
AcDbLine
 10
81.216078
 20
755.706044
 30
0.0
 11
112.216078
 21
755.706044
 31
0.0
  0
LINE
  5
123
330
EB
100
AcDbEntity
  8
0
  6
Continuous
 62
     0
370
     0
100
AcDbLine
 10
81.716078
 20
770.024171
 30
0.0
 11
111.716078
 21
770.024171
 31
0.0
  0
LINE
  5
124
330
EB
100
AcDbEntity
  8
0
  6
Continuous
 62
     0
370
    30
100
AcDbLine
 10
112.216078
 20
755.706044
 30
0.0
 11
111.716078
 21
770.024171
 31
0.0
  0
LINE
  5
125
330
EB
100
AcDbEntity
  8
0
  6
Continuous
 62
     0
370
    30
100
AcDbLine
 10
84.716078
 20
695.024171
 30
0.0
 11
82.216078
 21
695.024171
 31
0.0
  0
LINE
  5
126
330
EB
100
AcDbEntity
  8
0
  6
Continuous
 62
     0
370
    30
100
AcDbLine
 10
111.216078
 20
695.024171
 30
0.0
 11
108.716078
 21
695.024171
 31
0.0
  0
LINE
  5
127
330
EB
100
AcDbEntity
  8
0
  6
Continuous
 62
     0
370
     0
100
AcDbLine
 10
84.716078
 20
696.024171
 30
0.0
 11
81.216078
 21
696.024171
 31
0.0
  0
LINE
  5
128
330
EB
100
AcDbEntity
  8
0
  6
Continuous
 62
     0
370
     0
100
AcDbLine
 10
112.216078
 20
696.024171
 30
0.0
 11
108.716078
 21
696.024171
 31
0.0
  0
LINE
  5
129
330
EB
100
AcDbEntity
  8
0
  6
Continuous
 62
     0
370
    30
100
AcDbLine
 10
112.216078
 20
696.024171
 30
0.0
 11
112.216078
 21
755.706044
 31
0.0
  0
ARC
  5
12A
330
EB
100
AcDbEntity
  8
0
  6
Continuous
 62
     0
370
    30
100
AcDbCircle
 10
111.216078
 20
696.024171
 30
0.0
 40
1.0
100
AcDbArc
 50
270.0
 51
360.0
  0
LINE
  5
12B
330
EB
100
AcDbEntity
  8
0
  6
Continuous
 62
     0
370
    30
100
AcDbLine
 10
85.436941
 20
721.024171
 30
0.0
 11
81.216078
 21
721.024171
 31
0.0
  0
LINE
  5
12C
330
EB
100
AcDbEntity
  8
0
  6
Continuous
 62
     0
370
    30
100
AcDbLine
 10
81.216078
 20
700.024171
 30
0.0
 11
84.716078
 21
700.024171
 31
0.0
  0
LINE
  5
12D
330
EB
100
AcDbEntity
  8
0
  6
Continuous
 62
     0
370
    30
100
AcDbLine
 10
111.716078
 20
771.130784
 30
0.0
 11
111.716078
 21
770.024171
 31
0.0
  0
LINE
  5
12E
330
EB
100
AcDbEntity
  8
0
  6
Continuous
 62
     0
370
    30
100
AcDbLine
 10
81.716078
 20
771.130784
 30
0.0
 11
81.716078
 21
770.024171
 31
0.0
  0
ARC
  5
12F
330
EB
100
AcDbEntity
  8
0
  6
Continuous
 62
     0
370
    30
100
AcDbCircle
 10
82.216078
 20
696.024171
 30
0.0
 40
1.0
100
AcDbArc
 50
180.0
 51
270.0
  0
LINE
  5
130
330
EB
100
AcDbEntity
  8
0
  6
Continuous
 62
     0
370
    30
100
AcDbLine
 10
81.216078
 20
696.024171
 30
0.0
 11
81.216078
 21
700.024171
 31
0.0
  0
LINE
  5
131
330
EB
100
AcDbEntity
  8
0
  6
Continuous
 62
     0
370
    30
100
AcDbLine
 10
81.216078
 20
721.024171
 30
0.0
 11
81.216078
 21
755.706044
 31
0.0
  0
LINE
  5
132
330
EB
100
AcDbEntity
  8
0
  6
Continuous
 62
     0
370
    30
100
AcDbLine
 10
81.216078
 20
755.706044
 30
0.0
 11
81.716078
 21
770.024171
 31
0.0
  0
LINE
  5
133
330
EB
100
AcDbEntity
  8
0
  6
Continuous
 62
     0
370
    30
100
AcDbLine
 10
84.716078
 20
701.724172
 30
0.0
 11
81.716077
 21
701.724172
 31
0.0
  0
LINE
  5
134
330
EB
100
AcDbEntity
  8
0
  6
Continuous
 62
     0
370
     0
100
AcDbLine
 10
84.716078
 20
701.224172
 30
0.0
 11
81.216077
 21
701.224172
 31
0.0
  0
LINE
  5
135
330
EB
100
AcDbEntity
  8
0
  6
Continuous
 62
     0
370
    30
100
AcDbLine
 10
81.716077
 20
719.324172
 30
0.0
 11
85.162748
 21
719.324172
 31
0.0
  0
LINE
  5
136
330
EB
100
AcDbEntity
  8
0
  6
Continuous
 62
     0
370
     0
100
AcDbLine
 10
81.216077
 20
719.824172
 30
0.0
 11
85.243393
 21
719.824172
 31
0.0
  0
ARC
  5
137
330
EB
100
AcDbEntity
  8
0
  6
Continuous
 62
     0
370
    30
100
AcDbCircle
 10
81.716077
 20
719.824172
 30
0.0
 40
0.5
100
AcDbArc
 50
180.0
 51
270.0
  0
ARC
  5
138
330
EB
100
AcDbEntity
  8
0
  6
Continuous
 62
     0
370
    30
100
AcDbCircle
 10
81.716077
 20
701.224172
 30
0.0
 40
0.5
100
AcDbArc
 50
90.0
 51
180.0
  0
LINE
  5
139
330
EB
100
AcDbEntity
  8
0
  6
Continuous
 62
     0
370
    30
100
AcDbLine
 10
81.216077
 20
700.024172
 30
0.0
 11
81.216077
 21
701.224172
 31
0.0
  0
LINE
  5
13A
330
EB
100
AcDbEntity
  8
0
  6
Continuous
 62
     0
370
    30
100
AcDbLine
 10
81.216077
 20
719.824172
 30
0.0
 11
81.216077
 21
721.024172
 31
0.0
  0
LINE
  5
13B
330
EB
100
AcDbEntity
  8
0
  6
Continuous
 62
     0
370
    30
100
AcDbLine
 10
126.216078
 20
776.130784
 30
0.0
 11
67.216078
 21
776.130784
 31
0.0
  0
LINE
  5
13C
330
EB
100
AcDbEntity
  8
0
  6
Continuous
 62
     0
370
     0
100
AcDbLine
 10
126.716078
 20
775.630784
 30
0.0
 11
66.716078
 21
775.630784
 31
0.0
  0
LINE
  5
13D
330
EB
100
AcDbEntity
  8
0
  6
Continuous
 62
     0
370
     0
100
AcDbLine
 10
126.716078
 20
771.630784
 30
0.0
 11
66.716078
 21
771.630784
 31
0.0
  0
LINE
  5
13E
330
EB
100
AcDbEntity
  8
0
  6
Continuous
 62
     0
370
    30
100
AcDbLine
 10
126.216078
 20
771.130784
 30
0.0
 11
67.216078
 21
771.130784
 31
0.0
  0
ARC
  5
13F
330
EB
100
AcDbEntity
  8
0
  6
Continuous
 62
     0
370
    30
100
AcDbCircle
 10
126.216078
 20
771.630784
 30
0.0
 40
0.5
100
AcDbArc
 50
270.0
 51
0.0
  0
ARC
  5
140
330
EB
100
AcDbEntity
  8
0
  6
Continuous
 62
     0
370
    30
100
AcDbCircle
 10
67.216078
 20
771.630784
 30
0.0
 40
0.5
100
AcDbArc
 50
180.0
 51
270.0
  0
ARC
  5
141
330
EB
100
AcDbEntity
  8
0
  6
Continuous
 62
     0
370
    30
100
AcDbCircle
 10
126.216078
 20
775.630784
 30
0.0
 40
0.5
100
AcDbArc
 50
0.0
 51
90.0
  0
ARC
  5
142
330
EB
100
AcDbEntity
  8
0
  6
Continuous
 62
     0
370
    30
100
AcDbCircle
 10
67.216078
 20
775.630784
 30
0.0
 40
0.5
100
AcDbArc
 50
90.0
 51
180.0
  0
LINE
  5
143
330
EB
100
AcDbEntity
  8
0
  6
Continuous
 62
     0
370
    30
100
AcDbLine
 10
126.716078
 20
771.630784
 30
0.0
 11
126.716078
 21
775.630784
 31
0.0
  0
LINE
  5
144
330
EB
100
AcDbEntity
  8
0
  6
Continuous
 62
     0
370
    30
100
AcDbLine
 10
66.716078
 20
771.630784
 30
0.0
 11
66.716078
 21
775.630784
 31
0.0
  0
LINE
  5
145
330
EB
100
AcDbEntity
  8
0
  6
Continuous
 62
     0
370
     0
100
AcDbLine
 10
198.81608
 20
734.630784
 30
0.0
 11
192.750858
 21
734.630784
 31
0.0
  0
LINE
  5
146
330
EB
100
AcDbEntity
  8
0
  6
Continuous
 62
     0
370
     0
100
AcDbLine
 10
192.750858
 20
734.630784
 30
0.0
 11
154.61608
 21
734.630784
 31
0.0
  0
LINE
  5
147
330
EB
100
AcDbEntity
  8
0
  6
Continuous
 62
     0
370
    30
100
AcDbLine
 10
198.31608
 20
734.130784
 30
0.0
 11
192.388081
 21
734.130784
 31
0.0
  0
LINE
  5
148
330
EB
100
AcDbEntity
  8
0
  6
Continuous
 62
     0
370
    30
100
AcDbLine
 10
192.388081
 20
734.130784
 30
0.0
 11
155.11608
 21
734.130784
 31
0.0
  0
ARC
  5
149
330
EB
100
AcDbEntity
  8
0
  6
Continuous
 62
     0
370
    30
100
AcDbCircle
 10
155.11608
 20
734.630784
 30
0.0
 40
0.5
100
AcDbArc
 50
180.0
 51
270.0
  0
ARC
  5
14A
330
EB
100
AcDbEntity
  8
0
  6
Continuous
 62
     0
370
    30
100
AcDbCircle
 10
198.31608
 20
734.630784
 30
0.0
 40
0.5
100
AcDbArc
 50
270.0
 51
0.0
  0
LINE
  5
14B
330
EB
100
AcDbEntity
  8
0
  6
Continuous
 62
     0
370
    30
100
AcDbLine
 10
154.61608
 20
769.835336
 30
0.0
 11
154.61608
 21
734.630784
 31
0.0
  0
LINE
  5
14C
330
EB
100
AcDbEntity
  8
0
  6
Continuous
 62
     0
370
    30
100
AcDbLine
 10
198.81608
 20
769.835336
 30
0.0
 11
198.81608
 21
734.630784
 31
0.0
  0
LINE
  5
14D
330
EB
100
AcDbEntity
  8
0
  6
Continuous
 62
     0
370
    30
100
AcDbLine
 10
180.796403
 20
734.030784
 30
0.0
 11
180.93517
 21
734.030784
 31
0.0
  0
LINE
  5
14E
330
EB
100
AcDbEntity
  8
0
  6
Continuous
 62
     0
370
    30
100
AcDbLine
 10
176.959522
 20
734.030785
 30
0.0
 11
156.366082
 21
734.030785
 31
0.0
  0
LINE
  5
14F
330
EB
100
AcDbEntity
  8
0
  6
Continuous
 62
     0
370
    30
100
AcDbLine
 10
197.066082
 20
734.030785
 30
0.0
 11
180.93517
 21
734.030785
 31
0.0
  0
LINE
  5
150
330
EB
100
AcDbEntity
  8
0
  6
Continuous
 62
     0
370
    30
100
AcDbLine
 10
176.959522
 20
734.030785
 30
0.0
 11
180.796403
 21
734.030785
 31
0.0
  0
ARC
  5
151
330
EB
100
AcDbEntity
  8
0
  6
Continuous
 62
     0
370
    30
100
AcDbCircle
 10
176.536824
 20
735.416658
 30
0.0
 40
20.57598260991426
100
AcDbArc
 50
340.528735
 51
356.137983
  0
ARC
  5
152
330
EB
100
AcDbEntity
  8
0
  6
Continuous
 62
     0
370
    30
100
AcDbCircle
 10
176.894778
 20
735.416617
 30
0.0
 40
20.57542024352563
100
AcDbArc
 50
183.862011
 51
199.792534
  0
SPLINE
  5
153
330
EB
100
AcDbEntity
  8
0
  6
Continuous
 62
     0
370
    30
100
AcDbSpline
210
0.0
220
0.0
230
1.0
 70
     8
 71
     3
 72
    33
 73
    29
 74
     0
 42
0.000000001
 43
0.0
 40
0.0
 40
0.0
 40
0.0
 40
0.0
 40
1.345738588620288
 40
2.294289822353898
 40
3.118100377422708
 40
3.477630379333482
 40
4.229970484321485
 40
4.622159267603623
 40
5.0645648620262
 40
6.028825783573598
 40
6.954638540198953
 40
7.715656641721108
 40
8.92117929741163
 40
10.18415192417905
 40
12.3572683965625
 40
13.77457080567389
 40
15.1100932677212
 40
15.97933988801388
 40
16.35017672735326
 40
16.86770896097162
 40
17.33452288848171
 40
17.76142929143388
 40
18.91553134724805
 40
19.13856164226131
 40
19.60421002174285
 40
20.30606503919855
 40
21.48633989527047
 40
21.58259054858078
 40
21.58259054858078
 40
21.58259054858078
 40
21.58259054858078
 10
89.71607356562848
 20
616.697399106042
 30
0.0
 10
89.71633673147656
 20
616.251617750067
 30
0.0
 10
89.79650440394364
 20
615.4893165635467
 30
0.0
 10
90.08508968599524
 20
614.4927400381753
 30
0.0
 10
90.37232259411121
 20
613.8443330927082
 30
0.0
 10
90.68429263905153
 20
613.281808017363
 30
0.0
 10
90.9627035045078
 20
612.865830191856
 30
0.0
 10
91.29225821439785
 20
612.4538215084885
 30
0.0
 10
91.69410890714762
 20
612.0102448194602
 30
0.0
 10
92.2725473410677
 20
611.4905205754847
 30
0.0
 10
93.00430177171991
 20
610.9938894565823
 30
0.0
 10
93.86112764253025
 20
610.551051098351
 30
0.0
 10
94.87929853584424
 20
610.191442994005
 30
0.0
 10
96.41004914861806
 20
609.9297792780961
 30
0.0
 10
98.04244064305425
 20
610.0375807913097
 30
0.0
 10
99.61156864649502
 20
610.5453231686922
 30
0.0
 10
100.6717337911839
 20
611.1315076338294
 30
0.0
 10
101.3489860222844
 20
611.6595409407838
 30
0.0
 10
101.776033431383
 20
612.0588656416882
 30
0.0
 10
102.0848796659049
 20
612.3875790698551
 30
0.0
 10
102.380694632944
 20
612.7520033110017
 30
0.0
 10
102.773802987263
 20
613.3077010211892
 30
0.0
 10
103.0609647325383
 20
613.8363877789266
 30
0.0
 10
103.2952106513862
 20
614.4014952237544
 30
0.0
 10
103.4495204827955
 20
614.8370023271375
 30
0.0
 10
103.6434220893628
 20
615.5929904799234
 30
0.0
 10
103.7131149589486
 20
616.2485084982322
 30
0.0
 10
103.7160868367008
 20
616.672084495164
 30
0.0
 10
103.7160724456574
 20
616.7040223540051
 30
0.0
  0
ENDBLK
  5
155
330
EB
100
AcDbEntity
  8
0
100
AcDbBlockEnd
  0
BLOCK
  5
1F8
330
157
100
AcDbEntity
  8
0
100
AcDbBlockBegin
  2
c
 70
     0
 10
99.272438
 20
139.864532
 30
0.0
  3
c
  1

  0
LINE
  5
158
330
157
100
AcDbEntity
  8
0
  6
Continuous
 62
     0
370
    30
100
AcDbLine
 10
434.399431
 20
1739.315478
 30
0.0
 11
436.399431
 21
1742.315478
 31
0.0
  0
LINE
  5
159
330
157
100
AcDbEntity
  8
0
  6
Continuous
 62
     0
370
    30
100
AcDbLine
 10
436.399431
 20
1742.315478
 30
0.0
 11
436.399431
 21
1767.357438
 31
0.0
  0
LINE
  5
15A
330
157
100
AcDbEntity
  8
0
  6
Continuous
 62
     0
370
     0
100
AcDbLine
 10
433.39943
 20
1779.315478
 30
0.0
 11
433.39943
 21
1770.815478
 31
0.0
  0
LINE
  5
15B
330
157
100
AcDbEntity
  8
0
  6
Continuous
 62
     0
370
    30
100
AcDbLine
 10
432.89943
 20
1778.815478
 30
0.0
 11
432.89943
 21
1770.815478
 31
0.0
  0
LINE
  5
15C
330
157
100
AcDbEntity
  8
0
  6
Continuous
 62
     0
370
    30
100
AcDbLine
 10
432.899431
 20
1770.815478
 30
0.0
 11
432.899431
 21
1739.315478
 31
0.0
  0
LINE
  5
15D
330
157
100
AcDbEntity
  8
0
  6
Continuous
 62
     0
370
     0
100
AcDbLine
 10
433.399431
 20
1770.815478
 30
0.0
 11
433.399431
 21
1739.315478
 31
0.0
  0
LINE
  5
15E
330
157
100
AcDbEntity
  8
0
  6
Continuous
 62
     0
370
    30
100
AcDbLine
 10
436.39943
 20
1779.315478
 30
0.0
 11
433.39943
 21
1779.315478
 31
0.0
  0
ARC
  5
15F
330
157
100
AcDbEntity
  8
0
  6
Continuous
 62
     0
370
    30
100
AcDbCircle
 10
433.39943
 20
1778.815478
 30
0.0
 40
0.5
100
AcDbArc
 50
90.0
 51
180.0
  0
LINE
  5
160
330
157
100
AcDbEntity
  8
0
  6
Continuous
 62
     0
370
     0
100
AcDbLine
 10
436.399431
 20
1770.815478
 30
0.0
 11
433.399431
 21
1770.815478
 31
0.0
  0
LINE
  5
161
330
157
100
AcDbEntity
  8
0
  6
Continuous
 62
     0
370
    30
100
AcDbLine
 10
433.399431
 20
1739.315478
 30
0.0
 11
434.399431
 21
1739.315478
 31
0.0
  0
LINE
  5
162
330
157
100
AcDbEntity
  8
0
  6
Continuous
 62
     0
370
     0
100
AcDbLine
 10
432.899431
 20
1770.815478
 30
0.0
 11
433.399431
 21
1770.815478
 31
0.0
  0
LINE
  5
163
330
157
100
AcDbEntity
  8
0
  6
Continuous
 62
     0
370
    30
100
AcDbLine
 10
432.899431
 20
1739.315478
 30
0.0
 11
433.399431
 21
1739.315478
 31
0.0
  0
LINE
  5
164
330
157
100
AcDbEntity
  8
0
  6
Continuous
 62
     0
370
    30
100
AcDbLine
 10
467.921185
 20
1667.315478
 30
0.0
 11
467.921185
 21
1754.315478
 31
0.0
  0
LINE
  5
165
330
157
100
AcDbEntity
  8
0
  6
Continuous
 62
     0
370
    30
100
AcDbLine
 10
446.495377
 20
1754.315478
 30
0.0
 11
469.505681
 21
1754.315478
 31
0.0
  0
LINE
  5
166
330
157
100
AcDbEntity
  8
0
  6
Continuous
 62
     0
370
    30
100
AcDbLine
 10
484.99943
 20
1758.315478
 30
0.0
 11
484.99943
 21
1782.315478
 31
0.0
  0
LINE
  5
167
330
157
100
AcDbEntity
  8
0
  6
Continuous
 62
     0
370
    30
100
AcDbLine
 10
436.39943
 20
1767.357438
 30
0.0
 11
436.39943
 21
1779.315478
 31
0.0
  0
LINE
  5
168
330
157
100
AcDbEntity
  8
0
  6
Continuous
 62
     0
370
    30
100
AcDbLine
 10
469.505681
 20
1754.315478
 30
0.0
 11
469.505681
 21
1758.315478
 31
0.0
  0
LINE
  5
169
330
157
100
AcDbEntity
  8
0
  6
Continuous
 62
     0
370
    30
100
AcDbLine
 10
469.517282
 20
1667.315478
 30
0.0
 11
446.517282
 21
1667.315478
 31
0.0
  0
LINE
  5
16A
330
157
100
AcDbEntity
  8
0
  6
Continuous
 62
     0
370
    30
100
AcDbLine
 10
469.517282
 20
1660.315478
 30
0.0
 11
446.517282
 21
1660.315478
 31
0.0
  0
LINE
  5
16B
330
157
100
AcDbEntity
  8
0
  6
Continuous
 62
     0
370
    30
100
AcDbLine
 10
469.517282
 20
1667.315478
 30
0.0
 11
469.517282
 21
1660.315478
 31
0.0
  0
LINE
  5
16C
330
157
100
AcDbEntity
  8
0
  6
Continuous
 62
     0
370
    30
100
AcDbLine
 10
468.494782
 20
1660.315478
 30
0.0
 11
468.494782
 21
1660.050161
 31
0.0
  0
LINE
  5
16D
330
157
100
AcDbEntity
  8
0
  6
Continuous
 62
     0
370
     0
100
AcDbLine
 10
454.20838
 20
1765.523188
 30
0.0
 11
454.20838
 21
1782.187889
 31
0.0
  0
LINE
  5
16E
330
157
100
AcDbEntity
  8
0
  6
Continuous
 62
     0
370
     0
100
AcDbLine
 10
455.800704
 20
1766.257484
 30
0.0
 11
455.800704
 21
1782.315478
 31
0.0
  0
LINE
  5
16F
330
157
100
AcDbEntity
  8
0
  6
Continuous
 62
     0
370
    30
100
AcDbLine
 10
454.20838
 20
1782.187889
 30
0.0
 11
436.39943
 21
1779.315478
 31
0.0
  0
LINE
  5
170
330
157
100
AcDbEntity
  8
0
  6
Continuous
 62
     0
370
    30
100
AcDbLine
 10
484.99943
 20
1782.315478
 30
0.0
 11
455.800704
 21
1782.315478
 31
0.0
  0
SPLINE
  5
171
330
157
100
AcDbEntity
  8
0
  6
Continuous
 62
     0
370
    30
100
AcDbSpline
210
0.0
220
0.0
230
1.0
 70
     8
 71
     3
 72
    18
 73
    14
 74
     0
 42
0.000000001
 43
0.0
 40
16.41622716199696
 40
16.41622716199696
 40
16.41622716199696
 40
16.41622716199696
 40
16.86863241078802
 40
18.77327499397074
 40
20.45388564781332
 40
22.35887630619516
 40
24.23102309354149
 40
26.01954709906386
 40
28.23606445647989
 40
29.56327702092856
 40
30.40705612706835
 40
31.20620834391705
 40
31.96693378152118
 40
31.96693378152118
 40
31.96693378152118
 40
31.96693378152118
 10
446.4954756253823
 20
1759.687201769586
 30
0.0
 10
446.4954354082739
 20
1759.68715959377
 30
0.0
 10
446.5106583207697
 20
1759.701154677148
 30
0.0
 10
446.6757171965712
 20
1759.85331021004
 30
0.0
 10
447.1626446349425
 20
1760.298919900558
 30
0.0
 10
447.869971352682
 20
1760.938244251657
 30
0.0
 10
448.7840033769027
 20
1761.746111377274
 30
0.0
 10
449.909647722445
 20
1762.705808808601
 30
0.0
 10
451.0685073154658
 20
1763.635081394729
 30
0.0
 10
452.1227378970486
 20
1764.388679215098
 30
0.0
 10
452.8851595813809
 20
1764.871609208145
 30
0.0
 10
453.5366015188905
 20
1765.231946381743
 30
0.0
 10
453.983799724794
 20
1765.435280202512
 30
0.0
 10
454.2083730728321
 20
1765.523204523368
 30
0.0
  0
ARC
  5
172
330
157
100
AcDbEntity
  8
0
  6
Continuous
 62
     0
370
    30
100
AcDbCircle
 10
455.800704
 20
1772.315478
 30
0.0
 40
10.0
100
AcDbArc
 50
90.0
 51
99.162347
  0
SPLINE
  5
173
330
157
100
AcDbEntity
  8
0
  6
Continuous
 62
     0
370
    30
100
AcDbSpline
210
0.0
220
0.0
230
1.0
 70
     8
 71
     3
 72
    23
 73
    19
 74
     0
 42
0.000000001
 43
0.0
 40
0.9553401948527092
 40
0.9553401948527092
 40
0.9553401948527092
 40
0.9553401948527092
 40
1.397326887929738
 40
2.395928304511652
 40
3.023061100856006
 40
3.773453909343232
 40
4.587369697490498
 40
5.566239355724107
 40
6.498116677958614
 40
7.681754304579757
 40
9.001755409336393
 40
11.29685370731296
 40
12.86495997213502
 40
15.26879964918784
 40
17.44400700888651
 40
19.78486918086658
 40
21.98078497346992
 40
23.65944282701305
 40
23.65944282701305
 40
23.65944282701305
 40
23.65944282701305
 10
455.8007163579501
 20
1766.25748926224
 30
0.0
 10
455.9284403608357
 20
1766.326618979221
 30
0.0
 10
456.3515586924989
 20
1766.54144617165
 30
0.0
 10
456.9944173381298
 20
1766.787957320064
 30
0.0
 10
457.7777392976601
 20
1766.921156093391
 30
0.0
 10
458.512720362877
 20
1766.895885535135
 30
0.0
 10
459.3353727623331
 20
1766.681635425001
 30
0.0
 10
460.1540636779994
 20
1766.301820099055
 30
0.0
 10
461.0201864587294
 20
1765.775859771809
 30
0.0
 10
461.9239016200191
 20
1765.129618178517
 30
0.0
 10
463.1168585586323
 20
1764.182450156918
 30
0.0
 10
464.3203303860258
 20
1763.141979939412
 30
0.0
 10
465.6728127641355
 20
1761.924787964937
 30
0.0
 10
466.8835875490003
 20
1760.803538485611
 30
0.0
 10
468.0487678497158
 20
1759.7059241495
 30
0.0
 10
468.9233479929125
 20
1758.873204313592
 30
0.0
 10
469.4107517342851
 20
1758.40652694159
 30
0.0
 10
469.5056812109967
 20
1758.315477803648
 30
0.0
 10
469.5056811865782
 20
1758.315477803648
 30
0.0
  0
ARC
  5
174
330
157
100
AcDbEntity
  8
0
  6
Continuous
 62
     0
370
    30
100
AcDbCircle
 10
449.06535
 20
1778.770013
 30
0.0
 40
14.21017543621069
100
AcDbArc
 50
291.218519
 51
298.293032
  0
LINE
  5
175
330
157
100
AcDbEntity
  8
0
  6
Continuous
 62
     0
370
    30
100
AcDbLine
 10
446.495473
 20
1759.687084
 30
0.0
 11
436.39943
 21
1761.315478
 31
0.0
  0
LINE
  5
176
330
157
100
AcDbEntity
  8
0
  6
Continuous
 62
     0
370
    30
100
AcDbLine
 10
484.99943
 20
1758.315478
 30
0.0
 11
469.505681
 21
1758.315478
 31
0.0
  0
LINE
  5
177
330
157
100
AcDbEntity
  8
0
  6
Continuous
 62
     0
370
    30
100
AcDbLine
 10
446.495377
 20
1754.315478
 30
0.0
 11
446.495377
 21
1759.687202
 31
0.0
  0
LINE
  5
178
330
157
100
AcDbEntity
  8
0
  6
Continuous
 62
     0
370
    30
100
AcDbLine
 10
447.539782
 20
1660.315478
 30
0.0
 11
447.539782
 21
1660.050161
 31
0.0
  0
LINE
  5
179
330
157
100
AcDbEntity
  8
0
  6
Continuous
 62
     0
370
    30
100
AcDbLine
 10
446.517282
 20
1667.315478
 30
0.0
 11
446.517282
 21
1660.315478
 31
0.0
  0
LINE
  5
17A
330
157
100
AcDbEntity
  8
0
  6
Continuous
 62
     0
370
    30
100
AcDbLine
 10
447.921176
 20
1667.315478
 30
0.0
 11
447.921176
 21
1754.315478
 31
0.0
  0
LINE
  5
17B
330
157
100
AcDbEntity
  8
0
  6
Continuous
 62
     0
370
     0
100
AcDbLine
 10
467.332782
 20
1660.050161
 30
0.0
 11
467.332782
 21
1660.315478
 31
0.0
  0
SPLINE
  5
17C
330
157
100
AcDbEntity
  8
0
  6
Continuous
 62
     0
370
    30
100
AcDbSpline
210
0.0
220
0.0
230
1.0
 70
     8
 71
     3
 72
   102
 73
    98
 74
     0
 42
0.000000001
 43
0.0
 40
0.0
 40
0.0
 40
0.0
 40
0.0
 40
152.162413594559
 40
199.3851270577925
 40
234.8023273640934
 40
270.2201798590056
 40
287.9291240318478
 40
305.637604504056
 40
323.3452665057039
 40
361.3735658923849
 40
381.6979884978139
 40
417.2692719650445
 40
432.5075443190916
 40
442.6618631309921
 40
452.8123638497865
 40
462.9618576970854
 40
468.0372940856187
 40
488.354293205209
 40
503.6233069018778
 40
506.1721890408232
 40
508.7219204973107
 40
518.8919165509742
 40
528.9230947173052
 40
536.8951878029088
 40
541.7009942483204
 40
549.3338928789069
 40
555.6294903506054
 40
560.6918561936053
 40
564.0391304723172
 40
566.2659479794127
 40
572.3949283233557
 40
576.8648640864719
 40
584.1584677593981
 40
588.1006602414238
 40
596.0084528468414
 40
607.8970772829946
 40
615.2599343897327
 40
619.7951414694909
 40
622.0660543614555
 40
624.9095927336875
 40
631.7585944378678
 40
636.9137782529823
 40
643.793838865177
 40
650.0813563990256
 40
655.8673770951855
 40
662.2374741398614
 40
667.9374463528566
 40
674.0929874588921
 40
676.8509622056603
 40
679.0407664458645
 40
684.478865001692
 40
690.4700590829669
 40
696.5436134949165
 40
702.1790037532696
 40
708.5291260683368
 40
714.4468606132409
 40
720.4980771681998
 40
727.2924317727159
 40
739.2897761926089
 40
745.7100542392018
 40
756.8880166027333
 40
765.3742232362495
 40
772.4936749309945
 40
776.7788537689556
 40
785.36214449937
 40
793.1593171281618
 40
797.3079619998036
 40
803.5112071514421
 40
811.7497100731999
 40
832.2321342747304
 40
848.5607628714754
 40
856.7250170073078
 40
862.9639296079063
 40
869.2095560069887
 40
881.7197055673103
 40
916.2285279020242
 40
925.6613477722302
 40
938.2497734737632
 40
953.998743422998
 40
977.6243860118022
 40
998.0969912365824
 40
1028.793194006625
 40
1054.36741691261
 40
1082.500065777284
 40
1113.200888055985
 40
1136.23598919219
 40
1156.704868281857
 40
1169.487773570538
 40
1179.705636553113
 40
1189.914972922699
 40
1212.859185897516
 40
1233.225766000419
 40
1243.399050348857
 40
1263.728162253676
 40
1284.044562365047
 40
1291.738789545895
 40
1295.589735838494
 40
1295.589735838494
 40
1295.589735838494
 40
1295.589735838494
 10
440.0300765571088
 20
1595.690160778984
 30
0.0
 10
440.0300025495102
 20
1544.969356248138
 30
0.0
 10
440.0296619512889
 20
1478.507647211562
 30
0.0
 10
440.0297981940998
 20
1400.240204793017
 30
0.0
 10
440.0330007233317
 20
1360.887616000406
 30
0.0
 10
440.0279959861434
 20
1331.372950518449
 30
0.0
 10
440.0238670981399
 20
1307.76119198445
 30
0.0
 10
440.0246727740812
 20
1290.052829037508
 30
0.0
 10
440.0371144765811
 20
1265.57135247196
 30
0.0
 10
440.0620323787888
 20
1240.217891680878
 30
0.0
 10
440.0256509166097
 20
1208.909901770882
 30
0.0
 10
439.93460220743
 20
1185.198689118238
 30
0.0
 10
439.9607919859064
 20
1164.877366149099
 30
0.0
 10
440.0246207320584
 20
1153.029814842125
 30
0.0
 10
440.1207568059246
 20
1142.878818730436
 30
0.0
 10
440.2085612079683
 20
1134.420794246702
 30
0.0
 10
440.3120426335983
 20
1122.573948159305
 30
0.0
 10
440.366473899663
 20
1109.019903981855
 30
0.0
 10
440.1958712328526
 20
1096.308833787705
 30
0.0
 10
440.0178855106317
 20
1089.521936264553
 30
0.0
 10
439.8661167748764
 20
1084.434654796386
 30
0.0
 10
439.6044954274056
 20
1076.855534598033
 30
0.0
 10
439.4489390139344
 20
1067.464665280692
 30
0.0
 10
439.6356503319594
 20
1059.861589972736
 30
0.0
 10
440.118299130042
 20
1053.073930279304
 30
0.0
 10
440.9155346562923
 20
1046.874946707427
 30
0.0
 10
442.273203723668
 20
1040.685218874438
 30
0.0
 10
443.7534712244696
 20
1036.007267910468
 30
0.0
 10
445.0845786080742
 20
1032.719042714883
 30
0.0
 10
446.7506883689563
 20
1029.1904834281
 30
0.0
 10
448.9086725164195
 20
1025.490319062658
 30
0.0
 10
452.4355567590496
 20
1020.673795340843
 30
0.0
 10
455.9872804466566
 20
1016.811344242086
 30
0.0
 10
460.7643496907607
 20
1012.574558477061
 30
0.0
 10
467.2203699161156
 20
1007.966174371637
 30
0.0
 10
475.4347520035553
 20
1004.040693232273
 30
0.0
 10
483.0942297118672
 20
1001.918970098084
 30
0.0
 10
487.7641687713923
 20
1001.182409848723
 30
0.0
 10
490.9687778260507
 20
1000.8958814814
 30
0.0
 10
494.9553425336853
 20
1000.743789634575
 30
0.0
 10
499.9070751212558
 20
1001.016120871708
 30
0.0
 10
506.1254922065207
 20
1002.033464183914
 30
0.0
 10
512.0293271216843
 20
1003.637659523755
 30
0.0
 10
517.9163434135855
 20
1005.95444145969
 30
0.0
 10
523.3878429530089
 20
1008.773911560767
 30
0.0
 10
528.3729873518598
 20
1012.043202457144
 30
0.0
 10
533.0613007813713
 20
1015.920824222564
 30
0.0
 10
536.4311443510901
 20
1019.452401065763
 30
0.0
 10
538.7116183203482
 20
1022.369944447022
 30
0.0
 10
540.6827893701121
 20
1025.21740029038
 30
0.0
 10
542.9249666375517
 20
1029.175126671645
 30
0.0
 10
545.1373478201783
 20
1034.58648904065
 30
0.0
 10
546.6999497344023
 20
1040.285624743998
 30
0.0
 10
547.6981635418745
 20
1046.228222481349
 30
0.0
 10
548.1597084918544
 20
1052.18372189244
 30
0.0
 10
548.1654381231162
 20
1058.293553126286
 30
0.0
 10
547.7758431427961
 20
1064.538544229505
 30
0.0
 10
546.7850112510973
 20
1072.763503061614
 30
0.0
 10
545.1944704727264
 20
1081.022083844564
 30
0.0
 10
542.8429276162229
 20
1090.604045359314
 30
0.0
 10
540.4376555787017
 20
1098.961668262743
 30
0.0
 10
537.7185859396171
 20
1107.465784705338
 30
0.0
 10
535.6035244476029
 20
1113.749774054606
 30
0.0
 10
533.4373502703198
 20
1120.050455723802
 30
0.0
 10
531.1701405857807
 20
1126.555215715992
 30
0.0
 10
528.9324926897096
 20
1133.022091438977
 30
0.0
 10
526.9935617725247
 20
1138.752681874331
 30
0.0
 10
525.0545512961046
 20
1144.638369382982
 30
0.0
 10
521.5175412127876
 20
1155.729618766071
 30
0.0
 10
517.1749589522112
 20
1170.104988920539
 30
0.0
 10
512.9372558787883
 20
1184.485305883669
 30
0.0
 10
510.017540828173
 20
1194.30435999256
 30
0.0
 10
508.0313229108651
 20
1200.894489388535
 30
0.0
 10
505.5996068753167
 20
1208.863304027174
 30
0.0
 10
500.3607697219512
 20
1225.827593007732
 30
0.0
 10
494.787262722231
 20
1243.801258605879
 30
0.0
 10
489.5275390730986
 20
1261.89595104877
 30
0.0
 10
486.1454174401487
 20
1274.023483398762
 30
0.0
 10
481.7229984111432
 20
1290.770953117165
 30
0.0
 10
477.0035034104482
 20
1310.155131205725
 30
0.0
 10
471.6377357423084
 20
1334.503696497869
 30
0.0
 10
466.7722893043386
 20
1359.620813517803
 30
0.0
 10
462.1979253589281
 20
1387.383125743575
 30
0.0
 10
458.3662953453724
 20
1415.259677666473
 30
0.0
 10
455.4361239180197
 20
1442.394540823839
 30
0.0
 10
453.4267742598744
 20
1467.049330531594
 30
0.0
 10
452.3107132880361
 20
1485.77942532526
 30
0.0
 10
451.6962705351232
 20
1500.25660398177
 30
0.0
 10
451.3609520783197
 20
1511.321720645575
 30
0.0
 10
451.0764053024734
 20
1525.776263088089
 30
0.0
 10
450.969222650217
 20
1543.616436216593
 30
0.0
 10
451.0101322404343
 20
1561.444410261457
 30
0.0
 10
451.0417488743627
 20
1578.400713512175
 30
0.0
 10
451.0279219692963
 20
1595.340318057271
 30
0.0
 10
451.0041972292868
 20
1611.453552059849
 30
0.0
 10
451.00669491539
 20
1622.074073506572
 30
0.0
 10
451.0081729861068
 20
1625.922469225807
 30
0.0
 10
451.0095653430162
 20
1627.206117711261
 30
0.0
  0
SPLINE
  5
17D
330
157
100
AcDbEntity
  8
0
  6
Continuous
 62
     0
370
    30
100
AcDbSpline
210
0.0
220
0.0
230
1.0
 70
     8
 71
     3
 72
   108
 73
   104
 74
     0
 42
0.000000001
 43
0.0
 40
0.0
 40
0.0
 40
0.0
 40
0.0
 40
104.9395759755688
 40
152.163127405803
 40
199.3847318343082
 40
234.8032036246181
 40
270.2306252602664
 40
305.652168149949
 40
323.3484949396383
 40
341.0390442882193
 40
361.3550076460794
 40
381.7169777911596
 40
407.2194830783249
 40
412.3121919807223
 40
422.4761764830275
 40
442.6710262620961
 40
465.1906631899238
 40
482.8457169450854
 40
495.6992372178894
 40
502.2391001360807
 40
506.2068025552703
 40
508.8710769905275
 40
514.2370260168462
 40
523.6990779423342
 40
530.4695174182726
 40
535.8700906447161
 40
541.9137964532493
 40
547.2504617725864
 40
555.8527488991234
 40
563.0919577782955
 40
569.692479732028
 40
572.3532935279293
 40
575.7057410443158
 40
579.0885623550988
 40
583.873934312535
 40
590.1046158378681
 40
598.5263767300918
 40
606.3298979735712
 40
613.4656171623872
 40
622.0495916973426
 40
627.7722891595716
 40
636.3476648275418
 40
642.7772932759187
 40
649.2181810806226
 40
657.8320969502007
 40
665.0255507765128
 40
672.9337590275064
 40
684.4855241136862
 40
688.144898426817
 40
696.8412669804616
 40
703.2722325103006
 40
708.2180450834786
 40
711.0235891852678
 40
713.8159060981818
 40
717.2934178946527
 40
722.850988047212
 40
731.9335217403268
 40
741.1383246024475
 40
746.8684433365278
 40
754.8100298457123
 40
762.05911481924
 40
772.1659159915146
 40
777.1593222106816
 40
788.2989352119412
 40
794.3976949917297
 40
801.8653542518997
 40
809.2239312748809
 40
817.95460229636
 40
832.3838510358754
 40
843.2975025497229
 40
850.1068485558412
 40
866.1219999888734
 40
886.8872198899995
 40
896.1428497039312
 40
900.7702526019791
 40
907.705927381981
 40
914.631067504603
 40
924.7909135739437
 40
941.6803328973599
 40
948.4231016694425
 40
961.8908601644272
 40
973.6606583718141
 40
990.4604166648405
 40
1003.892152434082
 40
1027.39782631099
 40
1045.049584669381
 40
1080.363515908469
 40
1113.159854685104
 40
1130.818182430612
 40
1163.603206656953
 40
1183.773026034259
 40
1203.602322211211
 40
1216.004424688093
 40
1223.45049584446
 40
1235.870375179817
 40
1273.205556126192
 40
1283.178551677547
 40
1298.148289929506
 40
1313.126635663709
 40
1323.114766197667
 40
1333.103396028453
 40
1338.097485530368
 40
1343.091207584336
 40
1343.091207584336
 40
1343.091207584336
 40
1343.091207584336
 10
426.0300765571088
 20
1595.69016078362
 30
0.0
 10
426.0300127281901
 20
1560.710302125221
 30
0.0
 10
426.0307587011965
 20
1509.989259671264
 30
0.0
 10
426.0294550553214
 20
1443.527682357151
 30
0.0
 10
426.0297673435198
 20
1400.239806586541
 30
0.0
 10
426.0337144519253
 20
1360.883973685417
 30
0.0
 10
426.0262652141354
 20
1325.461496021941
 30
0.0
 10
426.0195804788396
 20
1295.946397736805
 30
0.0
 10
426.0345799011773
 20
1272.343594526933
 30
0.0
 10
426.0533897267098
 20
1253.775991409029
 30
0.0
 10
426.0614243072345
 20
1234.319827716044
 30
0.0
 10
426.0295213995204
 20
1212.259689835172
 30
0.0
 10
425.9578727975741
 20
1195.274095602819
 30
0.0
 10
425.9317508908399
 20
1181.687716847185
 30
0.0
 10
425.9266969006561
 20
1169.870542225217
 30
0.0
 10
425.9998272906856
 20
1152.244310627755
 30
0.0
 10
426.3071330880574
 20
1132.123331062117
 30
0.0
 10
426.4397930191622
 20
1114.447426921163
 30
0.0
 10
426.3362171046242
 20
1102.097944791925
 30
0.0
 10
426.1638453653484
 20
1094.312719036329
 30
0.0
 10
426.029913173118
 20
1089.924126957308
 30
0.0
 10
425.8870271753498
 20
1085.927361155913
 30
0.0
 10
425.661285794654
 20
1080.101009994115
 30
0.0
 10
425.4175688113595
 20
1072.905352604623
 30
0.0
 10
425.3532372069827
 20
1065.693905686596
 30
0.0
 10
425.478180723264
 20
1059.622946541517
 30
0.0
 10
425.7963593811548
 20
1054.036966774079
 30
0.0
 10
426.4827904931679
 20
1047.409816832268
 30
0.0
 10
427.690358424317
 20
1040.44615627437
 30
0.0
 10
429.7034913759968
 20
1033.231440359611
 30
0.0
 10
431.7246610460334
 20
1028.107887285837
 30
0.0
 10
433.5642796856711
 20
1024.325808272637
 30
0.0
 10
435.0768809629332
 20
1021.581847444804
 30
0.0
 10
437.1121210465015
 20
1018.323651931844
 30
0.0
 10
439.9095836029339
 20
1014.419656261481
 30
0.0
 10
444.1018236087667
 20
1009.470874143882
 30
0.0
 10
449.5056629692207
 20
1004.27351313593
 30
0.0
 10
455.675837638447
 20
999.5061844669951
 30
0.0
 10
462.3291739706136
 20
995.3406103067483
 30
0.0
 10
468.7620198587989
 20
992.1973686219726
 30
0.0
 10
475.9192971521147
 20
989.543153505236
 30
0.0
 10
482.6242787068007
 20
987.8177531207681
 30
0.0
 10
489.7168405996343
 20
986.8500789023046
 30
0.0
 10
496.8844026478857
 20
986.6276108346683
 30
0.0
 10
504.2893037970343
 20
987.251483530433
 30
0.0
 10
512.0503350972608
 20
988.8071723288882
 30
0.0
 10
520.5426567760753
 20
991.4617494644449
 30
0.0
 10
527.5494878499292
 20
994.7296169338625
 30
0.0
 10
534.3705856060418
 20
998.855605573897
 30
0.0
 10
539.4281046777971
 20
1002.571089035736
 30
0.0
 10
544.3221739896928
 20
1007.147373418215
 30
0.0
 10
547.4532762219085
 20
1010.695171656012
 30
0.0
 10
549.5911219513462
 20
1013.486266256653
 30
0.0
 10
551.3031495080805
 20
1015.98163141806
 30
0.0
 10
553.3382002539115
 20
1019.360701533309
 30
0.0
 10
556.0247641188116
 20
1024.777707773761
 30
0.0
 10
558.6692727940134
 20
1032.294151533737
 30
0.0
 10
560.3373786355639
 20
1040.138205068108
 30
0.0
 10
561.269148097203
 20
1047.710251287381
 30
0.0
 10
561.6282380720154
 20
1054.679778666443
 30
0.0
 10
561.4932926543886
 20
1063.115012371564
 30
0.0
 10
560.8713187053988
 20
1070.543717340641
 30
0.0
 10
559.7058414110179
 20
1079.213416576486
 30
0.0
 10
558.3510800228247
 20
1086.5031915731
 30
0.0
 10
556.4628534869244
 20
1094.520209340287
 30
0.0
 10
554.6335491852872
 20
1101.252164301586
 30
0.0
 10
552.3377754617308
 20
1108.762161937411
 30
0.0
 10
549.1062384408846
 20
1118.408916750894
 30
0.0
 10
545.2431120190146
 20
1129.089959965177
 30
0.0
 10
541.620438187065
 20
1139.176721396679
 30
0.0
 10
538.0041429257169
 20
1149.825868989422
 30
0.0
 10
533.6178456010434
 20
1163.678952593606
 30
0.0
 10
529.268197341998
 20
1178.39525092438
 30
0.0
 10
526.0238408468911
 20
1189.479585656594
 30
0.0
 10
524.0648522664584
 20
1196.136915722289
 30
0.0
 10
522.3115146104494
 20
1202.044988847764
 30
0.0
 10
519.9968242111847
 20
1209.71002632407
 30
0.0
 10
516.6758790145734
 20
1220.536979478456
 30
0.0
 10
513.3378425457968
 20
1231.295035086833
 30
0.0
 10
509.7033353016934
 20
1243.115541785733
 30
0.0
 10
506.611127340937
 20
1253.317403530463
 30
0.0
 10
502.6793029322679
 20
1266.767141829121
 30
0.0
 10
498.9500383856757
 20
1280.26231177764
 30
0.0
 10
494.4422458524816
 20
1297.598633025971
 30
0.0
 10
490.192800083627
 20
1315.293196662981
 30
0.0
 10
484.7534676529733
 20
1340.197568433437
 30
0.0
 10
479.3967200897813
 20
1368.283173519649
 30
0.0
 10
475.010623203874
 20
1396.538238287547
 30
0.0
 10
471.453267805901
 20
1424.05692110321
 30
0.0
 10
469.0228156465352
 20
1447.471959967149
 30
0.0
 10
467.1515704879341
 20
1471.66231945465
 30
0.0
 10
466.1619623728888
 20
1489.102273205503
 30
0.0
 10
465.6363216111451
 20
1502.317941790076
 30
0.0
 10
465.3232560656291
 20
1513.069486055614
 30
0.0
 10
464.9674486230278
 20
1532.133657262924
 30
0.0
 10
464.98715179039
 20
1552.043919796333
 30
0.0
 10
465.0342347046052
 20
1572.803086643831
 30
0.0
 10
465.0370728968566
 20
1586.110140111275
 30
0.0
 10
465.0206394373013
 20
1599.4221967214
 30
0.0
 10
465.0078521354669
 20
1611.073892413394
 30
0.0
 10
465.0043144224292
 20
1619.397510358896
 30
0.0
 10
465.0093793989489
 20
1626.056321795515
 30
0.0
 10
465.0129595254105
 20
1629.385592435253
 30
0.0
 10
465.0173090050051
 20
1631.050160770706
 30
0.0
  0
LINE
  5
17E
330
157
100
AcDbEntity
  8
0
  6
Continuous
 62
     0
370
    30
100
AcDbLine
 10
469.517282
 20
1660.050161
 30
0.0
 11
454.217468
 21
1660.050161
 31
0.0
  0
LINE
  5
17F
330
157
100
AcDbEntity
  8
0
  6
Continuous
 62
     0
370
    30
100
AcDbLine
 10
454.217468
 20
1660.050161
 30
0.0
 11
446.517282
 21
1660.050161
 31
0.0
  0
LINE
  5
180
330
157
100
AcDbEntity
  8
0
  6
Continuous
 62
     0
370
     0
100
AcDbLine
 10
468.57129
 20
1631.533583
 30
0.0
 11
454.530041
 21
1631.533583
 31
0.0
  0
LINE
  5
181
330
157
100
AcDbEntity
  8
0
  6
Continuous
 62
     0
370
     0
100
AcDbLine
 10
454.530041
 20
1631.533583
 30
0.0
 11
452.230077
 21
1631.533583
 31
0.0
  0
LINE
  5
182
330
157
100
AcDbEntity
  8
0
  6
Continuous
 62
     0
370
    30
100
AcDbLine
 10
468.071564
 20
1631.050161
 30
0.0
 11
454.69516
 21
1631.050161
 31
0.0
  0
LINE
  5
183
330
157
100
AcDbEntity
  8
0
  6
Continuous
 62
     0
370
    30
100
AcDbLine
 10
454.69516
 20
1631.050161
 30
0.0
 11
452.230077
 21
1631.050161
 31
0.0
  0
ARC
  5
184
330
157
100
AcDbEntity
  8
0
  6
Continuous
 62
     0
370
    30
100
AcDbCircle
 10
468.071564
 20
1631.550161
 30
0.0
 40
0.5000000000000037
100
AcDbArc
 50
270.0
 51
358.1
  0
LINE
  5
185
330
157
100
AcDbEntity
  8
0
  6
Continuous
 62
     0
370
    30
100
AcDbLine
 10
446.517282
 20
1660.050161
 30
0.0
 11
446.605523
 21
1657.39016
 31
0.0
  0
LINE
  5
186
330
157
100
AcDbEntity
  8
0
  6
Continuous
 62
     0
370
    30
100
AcDbLine
 10
469.517282
 20
1660.050161
 30
0.0
 11
468.57129
 21
1631.533583
 31
0.0
  0
LINE
  5
187
330
157
100
AcDbEntity
  8
0
  6
Continuous
 62
     0
370
    30
100
AcDbLine
 10
444.530077
 20
1624.690161
 30
0.0
 11
441.981654
 21
1624.690161
 31
0.0
  0
LINE
  5
188
330
157
100
AcDbEntity
  8
0
  6
Continuous
 62
     0
370
    30
100
AcDbLine
 10
441.981654
 20
1624.690161
 30
0.0
 11
421.530077
 21
1624.690161
 31
0.0
  0
LINE
  5
189
330
157
100
AcDbEntity
  8
0
  6
Continuous
 62
     0
370
     0
100
AcDbLine
 10
443.584084
 20
1596.173583
 30
0.0
 11
441.245296
 21
1596.173583
 31
0.0
  0
LINE
  5
18A
330
157
100
AcDbEntity
  8
0
  6
Continuous
 62
     0
370
     0
100
AcDbLine
 10
441.245296
 20
1596.173583
 30
0.0
 11
422.476069
 21
1596.173583
 31
0.0
  0
LINE
  5
18B
330
157
100
AcDbEntity
  8
0
  6
Continuous
 62
     0
370
    30
100
AcDbLine
 10
443.084359
 20
1595.690161
 30
0.0
 11
440.856311
 21
1595.690161
 31
0.0
  0
LINE
  5
18C
330
157
100
AcDbEntity
  8
0
  6
Continuous
 62
     0
370
    30
100
AcDbLine
 10
440.856311
 20
1595.690161
 30
0.0
 11
422.975794
 21
1595.690161
 31
0.0
  0
ARC
  5
18D
330
157
100
AcDbEntity
  8
0
  6
Continuous
 62
     0
370
    30
100
AcDbCircle
 10
422.975794
 20
1596.190161
 30
0.0
 40
0.4999999999999922
100
AcDbArc
 50
181.9
 51
270.0
  0
ARC
  5
18E
330
157
100
AcDbEntity
  8
0
  6
Continuous
 62
     0
370
    30
100
AcDbCircle
 10
443.084359
 20
1596.190161
 30
0.0
 40
0.5000000000000003
100
AcDbArc
 50
270.0
 51
358.1
  0
LINE
  5
18F
330
157
100
AcDbEntity
  8
0
  6
Continuous
 62
     0
370
    30
100
AcDbLine
 10
421.530077
 20
1624.690161
 30
0.0
 11
422.476069
 21
1596.173583
 31
0.0
  0
LINE
  5
190
330
157
100
AcDbEntity
  8
0
  6
Continuous
 62
     0
370
    30
100
AcDbLine
 10
444.530077
 20
1624.690161
 30
0.0
 11
443.584084
 21
1596.173583
 31
0.0
  0
LINE
  5
191
330
157
100
AcDbEntity
  8
0
  6
Continuous
 62
     0
370
    30
100
AcDbLine
 10
401.718909
 20
1656.896755
 30
0.0
 11
401.718909
 21
1671.390157
 31
0.0
  0
LINE
  5
192
330
157
100
AcDbEntity
  8
0
  6
Continuous
 62
     0
370
    30
100
AcDbLine
 10
401.718909
 20
1612.390157
 30
0.0
 11
401.718909
 21
1626.883566
 31
0.0
  0
LINE
  5
193
330
157
100
AcDbEntity
  8
0
  6
Continuous
 62
     0
370
     0
100
AcDbLine
 10
401.218909
 20
1656.89016
 30
0.0
 11
401.218909
 21
1671.890157
 31
0.0
  0
LINE
  5
194
330
157
100
AcDbEntity
  8
0
  6
Continuous
 62
     0
370
     0
100
AcDbLine
 10
401.218909
 20
1611.890157
 30
0.0
 11
401.218909
 21
1626.89016
 31
0.0
  0
ARC
  5
195
330
157
100
AcDbEntity
  8
0
  6
Continuous
 62
     0
370
    30
100
AcDbCircle
 10
401.218909
 20
1612.390157
 30
0.0
 40
0.5
100
AcDbArc
 50
270.0
 51
360.0
  0
ARC
  5
196
330
157
100
AcDbEntity
  8
0
  6
Continuous
 62
     0
370
    30
100
AcDbCircle
 10
401.218909
 20
1671.390157
 30
0.0
 40
0.5
100
AcDbArc
 50
360.0
 51
90.0
  0
LINE
  5
197
330
157
100
AcDbEntity
  8
0
  6
Continuous
 62
     0
370
    30
100
AcDbLine
 10
399.923461
 20
1611.890157
 30
0.0
 11
401.218909
 21
1611.890157
 31
0.0
  0
LINE
  5
198
330
157
100
AcDbEntity
  8
0
  6
Continuous
 62
     0
370
    30
100
AcDbLine
 10
399.923461
 20
1671.890157
 30
0.0
 11
401.218909
 21
1671.890157
 31
0.0
  0
SPLINE
  5
199
330
157
100
AcDbEntity
  8
0
  6
Continuous
 62
     0
370
    30
100
AcDbSpline
210
0.0
220
0.0
230
1.0
 70
     8
 71
     3
 72
    12
 73
     8
 74
     0
 42
0.000000001
 43
0.0
 40
0.0
 40
0.0
 40
0.0
 40
0.0
 40
0.3829670194624183
 40
0.9585985606097757
 40
1.66695366037809
 40
2.325860797127878
 40
2.642139596621585
 40
2.642139596621585
 40
2.642139596621585
 40
2.642139596621585
 10
449.7243225996347
 20
1619.893328184905
 30
0.0
 10
449.7243226052091
 20
1619.893328187575
 30
0.0
 10
449.749475566144
 20
1619.896125578717
 30
0.0
 10
449.901264079799
 20
1619.912657935091
 30
0.0
 10
450.2342548075123
 20
1619.945638736877
 30
0.0
 10
450.6416885896268
 20
1619.978319955206
 30
0.0
 10
450.9146384859478
 20
1619.995248914336
 30
0.0
 10
451.0063492041392
 20
1620.000373452273
 30
0.0
  0
ARC
  5
19A
330
157
100
AcDbEntity
  8
0
  6
Continuous
 62
     0
370
     0
100
AcDbCircle
 10
463.012215
 20
1572.455165
 30
0.0
 40
5.431683090415444
100
AcDbArc
 50
291.709205
 51
359.989351
  0
ARC
  5
19B
330
157
100
AcDbEntity
  8
0
  6
Continuous
 62
     0
370
    30
100
AcDbCircle
 10
463.012436
 20
1572.455161
 30
0.0
 40
6.001292899841811
100
AcDbArc
 50
289.545459
 51
359.990394
  0
SPLINE
  5
19C
330
157
100
AcDbEntity
  8
0
  6
Continuous
 62
     0
370
     0
100
AcDbSpline
210
0.0
220
0.0
230
1.0
 70
     8
 71
     3
 72
    11
 73
     7
 74
     0
 42
0.000000001
 43
0.0
 40
0.0
 40
0.0
 40
0.0
 40
0.0
 40
0.5602275525844695
 40
1.120455105168939
 40
1.661776312983914
 40
2.203097520798889
 40
2.203097520798889
 40
2.203097520798889
 40
2.203097520798889
 10
468.2141660294839
 20
1620.265446929853
 30
0.0
 10
468.2387022173665
 20
1620.231051891354
 30
0.0
 10
468.2905416040093
 20
1620.101539124659
 30
0.0
 10
468.3616100574888
 20
1619.750201778369
 30
0.0
 10
468.4169322505726
 20
1619.282982420825
 30
0.0
 10
468.4389241157693
 20
1618.932148692608
 30
0.0
 10
468.4440140287984
 20
1618.756777493595
 30
0.0
  0
LINE
  5
19D
330
157
100
AcDbEntity
  8
0
  6
Continuous
 62
     0
370
    30
100
AcDbLine
 10
469.013729
 20
1621.051937
 30
0.0
 11
469.013729
 21
1618.756784
 31
0.0
  0
ARC
  5
19E
330
157
100
AcDbEntity
  8
0
  6
Continuous
 62
     0
370
     0
100
AcDbCircle
 10
462.27831
 20
1494.701818
 30
0.0
 40
125.7038555655137
100
AcDbArc
 50
87.293432
 51
88.756613
  0
ARC
  5
19F
330
157
100
AcDbEntity
  8
0
  6
Continuous
 62
     0
370
     0
100
AcDbCircle
 10
462.02589
 20
1509.950545
 30
0.0
 40
108.9953600145428
100
AcDbArc
 50
86.624221
 51
88.433351
  0
LINE
  5
1A0
330
157
100
AcDbEntity
  8
0
  6
Continuous
 62
     0
370
    30
100
AcDbLine
 10
469.013729
 20
1627.331747
 30
0.0
 11
469.013729
 21
1621.052008
 31
0.0
  0
LINE
  5
1A1
330
157
100
AcDbEntity
  8
0
  6
Continuous
 62
     0
370
    30
100
AcDbLine
 10
469.013729
 20
1660.315478
 30
0.0
 11
469.013729
 21
1660.050161
 31
0.0
  0
LINE
  5
1A2
330
157
100
AcDbEntity
  8
0
  6
Continuous
 62
     0
370
    30
100
AcDbLine
 10
469.013729
 20
1572.454155
 30
0.0
 11
469.013729
 21
1618.756784
 31
0.0
  0
ELLIPSE
  5
1A3
330
157
100
AcDbEntity
  8
0
  6
Continuous
 62
     0
370
     0
100
AcDbEllipse
 10
468.213729
 20
1621.051937
 30
0.0
 11
-0.8000000119209052
 21
1.883902128597009E-7
 31
0.0
210
0.0
220
0.0
230
1.0
 40
0.983113
 41
1.571343233236264
 42
3.141592892448966
  0
LINE
  5
1A4
330
157
100
AcDbEntity
  8
0
  6
Continuous
 62
     0
370
     0
100
AcDbLine
 10
469.013729
 20
1618.756784
 30
0.0
 11
468.444014
 21
1618.756784
 31
0.0
  0
LINE
  5
1A5
330
157
100
AcDbEntity
  8
0
  6
Continuous
 62
     0
370
     0
100
AcDbLine
 10
468.443898
 20
1572.454155
 30
0.0
 11
468.443898
 21
1618.756777
 31
0.0
  0
LINE
  5
1A6
330
157
100
AcDbEntity
  8
0
  6
Continuous
 62
     0
370
     0
100
AcDbLine
 10
468.213729
 20
1627.676574
 30
0.0
 11
468.213729
 21
1620.265517
 31
0.0
  0
LINE
  5
1A7
330
157
100
AcDbEntity
  8
0
  6
Continuous
 62
     0
370
    30
100
AcDbLine
 10
449.724323
 20
1619.893328
 30
0.0
 11
444.370946
 21
1619.893328
 31
0.0
  0
LINE
  5
1A8
330
157
100
AcDbEntity
  8
0
  6
Continuous
 62
     0
370
    30
100
AcDbLine
 10
447.132008
 20
1660.050161
 30
0.0
 11
447.228575
 21
1660.315478
 31
0.0
  0
LINE
  5
1A9
330
157
100
AcDbEntity
  8
0
  6
Continuous
 62
     0
370
    30
100
AcDbLine
 10
446.163847
 20
1657.39016
 30
0.0
 11
446.568627
 21
1658.502286
 31
0.0
  0
SPLINE
  5
1AA
330
157
100
AcDbEntity
  8
0
  6
Continuous
 62
     0
370
    30
100
AcDbSpline
210
0.0
220
0.0
230
1.0
 70
     8
 71
     3
 72
    29
 73
    25
 74
     0
 42
0.000000001
 43
0.0
 40
7.772548853219481
 40
7.772548853219481
 40
7.772548853219481
 40
7.772548853219481
 40
8.6091138190783
 40
10.66263127428184
 40
12.07872010485981
 40
14.06872720782417
 40
17.04115085106038
 40
19.81943828947787
 40
21.60965926824844
 40
23.24081455853636
 40
25.02900395979537
 40
26.24897087222149
 40
28.02401701261899
 40
29.83359972852736
 40
31.21865443939173
 40
33.20705812948561
 40
34.07987100534173
 40
36.30636085175861
 40
38.5005442443281
 40
40.55543129233422
 40
42.34514277662964
 40
44.19364406073689
 40
45.9205403773237
 40
47.50758794886093
 40
47.50758794886093
 40
47.50758794886093
 40
47.50758794886093
 10
421.0302030512901
 20
1626.390288547224
 30
0.0
 10
421.0302066974118
 20
1626.390283851511
 30
0.0
 10
421.0636513809226
 20
1626.416112172744
 30
0.0
 10
421.2864103452245
 20
1626.588515849611
 30
0.0
 10
421.809455273184
 20
1626.986905361271
 30
0.0
 10
422.66952111654
 20
1627.628413042989
 30
0.0
 10
424.0831776991132
 20
1628.633642571929
 30
0.0
 10
425.7905763399951
 20
1629.723976765441
 30
0.0
 10
427.389963582143
 20
1630.595114405711
 30
0.0
 10
428.8574934206591
 20
1631.258659187014
 30
0.0
 10
430.2748588623933
 20
1631.731810592417
 30
0.0
 10
431.8214486425733
 20
1632.041949683712
 30
0.0
 10
433.4303182446199
 20
1632.127031680946
 30
0.0
 10
435.073514906182
 20
1631.906791760163
 30
0.0
 10
436.6972562314666
 20
1631.450634297003
 30
0.0
 10
437.9318497757969
 20
1630.940158712741
 30
0.0
 10
439.3091360132388
 20
1630.259472511285
 30
0.0
 10
440.6290260799919
 20
1629.500499340737
 30
0.0
 10
442.0422746852516
 20
1628.579346259292
 30
0.0
 10
443.1601914967142
 20
1627.793205525823
 30
0.0
 10
444.0142623930418
 20
1627.165105461648
 30
0.0
 10
444.6107706043391
 20
1626.713446986509
 30
0.0
 10
444.9568391266431
 20
1626.446951073614
 30
0.0
 10
445.0300753679379
 20
1626.390175256449
 30
0.0
 10
445.0300700661949
 20
1626.390168420448
 30
0.0
  0
LINE
  5
1AB
330
157
100
AcDbEntity
  8
0
  6
Continuous
 62
     0
370
     0
100
AcDbLine
 10
415.848205
 20
1626.39016
 30
0.0
 11
415.848205
 21
1657.39016
 31
0.0
  0
LINE
  5
1AC
330
157
100
AcDbEntity
  8
0
  6
Continuous
 62
     0
370
     0
100
AcDbLine
 10
401.530078
 20
1626.89016
 30
0.0
 11
401.530078
 21
1656.89016
 31
0.0
  0
SPLINE
  5
1AD
330
157
100
AcDbEntity
  8
0
  6
Continuous
 62
     0
370
    30
100
AcDbSpline
210
0.0
220
0.0
230
1.0
 70
     8
 71
     3
 72
    16
 73
    12
 74
     0
 42
0.000000001
 43
0.0
 40
6.446222825330465
 40
6.446222825330465
 40
6.446222825330465
 40
6.446222825330465
 40
6.518417655913819
 40
7.529906003652274
 40
8.55402268781105
 40
9.504485962385939
 40
10.44493284907138
 40
11.46219395594136
 40
12.48655923607383
 40
12.95626302434464
 40
13.03558541491028
 40
13.03558541491028
 40
13.03558541491028
 40
13.03558541491028
 10
408.8500436084295
 20
1626.634556533719
 30
0.0
 10
408.8500425969223
 20
1626.634550826107
 30
0.0
 10
408.8437354301945
 20
1626.635581173479
 30
0.0
 10
408.6463136977393
 20
1626.67093817613
 30
0.0
 10
407.9440323427189
 20
1626.772461586964
 30
0.0
 10
407.0085858308086
 20
1626.852866740546
 30
0.0
 10
406.0197269908791
 20
1626.872053767529
 30
0.0
 10
405.1597596708992
 20
1626.831254984437
 30
0.0
 10
404.7375446969795
 20
1626.790289385729
 30
0.0
 10
404.6551764851706
 20
1626.781736524619
 30
0.0
 10
404.6503418578609
 20
1626.7812354941
 30
0.0
 10
404.6501421185408
 20
1626.781214857523
 30
0.0
  0
LINE
  5
1AE
330
157
100
AcDbEntity
  8
0
  6
Continuous
 62
     0
370
    30
100
AcDbLine
 10
476.530078
 20
1656.39016
 30
0.0
 11
476.530078
 21
1627.39016
 31
0.0
  0
LINE
  5
1AF
330
157
100
AcDbEntity
  8
0
  6
Continuous
 62
     0
370
     0
100
AcDbLine
 10
475.530078
 20
1657.39016
 30
0.0
 11
475.530078
 21
1626.39016
 31
0.0
  0
LINE
  5
1B0
330
157
100
AcDbEntity
  8
0
  6
Continuous
 62
     0
370
    30
100
AcDbLine
 10
450.530078
 20
1654.797275
 30
0.0
 11
450.530078
 21
1628.983045
 31
0.0
  0
LINE
  5
1B1
330
157
100
AcDbEntity
  8
0
  6
Continuous
 62
     0
370
    30
100
AcDbLine
 10
471.530078
 20
1628.983045
 30
0.0
 11
471.530078
 21
1654.797275
 31
0.0
  0
SPLINE
  5
1B2
330
157
100
AcDbEntity
  8
0
  6
Continuous
 62
     0
370
    30
100
AcDbSpline
210
0.0
220
0.0
230
1.0
 70
     8
 71
     3
 72
    12
 73
     8
 74
     0
 42
0.000000001
 43
0.0
 40
48.17444681549908
 40
48.17444681549908
 40
48.17444681549908
 40
48.17444681549908
 40
48.73654662469729
 40
50.5267926695844
 40
52.36848899723802
 40
54.5798472111707
 40
55.81460708783178
 40
55.81460708783178
 40
55.81460708783178
 40
55.81460708783178
 10
473.5299565622114
 20
1626.495481852032
 30
0.0
 10
473.5299565736185
 20
1626.517220556022
 30
0.0
 10
473.5126302465005
 20
1626.622254080908
 30
0.0
 10
473.3531774217648
 20
1626.914249966625
 30
0.0
 10
472.881247979521
 20
1627.522854074221
 30
0.0
 10
472.2388106259245
 20
1628.243120157738
 30
0.0
 10
471.7248744913265
 20
1628.782521183277
 30
0.0
 10
471.5300782721314
 20
1628.983045466561
 30
0.0
  0
SPLINE
  5
1B3
330
157
100
AcDbEntity
  8
0
  6
Continuous
 62
     0
370
    30
100
AcDbSpline
210
0.0
220
0.0
230
1.0
 70
     8
 71
     3
 72
    13
 73
     9
 74
     0
 42
0.000000001
 43
0.0
 40
0.0
 40
0.0
 40
0.0
 40
0.0
 40
1.465481097438465
 40
4.313054094917447
 40
6.223471220552838
 40
7.638674440930251
 40
8.452469674433209
 40
9.475287388616534
 40
9.475287388616534
 40
9.475287388616534
 40
9.475287388616534
 10
450.5300782721314
 20
1628.983045473515
 30
0.0
 10
450.2987843142912
 20
1628.744950252895
 30
0.0
 10
449.6621458777302
 20
1628.074201734865
 30
0.0
 10
448.9643234896436
 20
1627.270391314361
 30
0.0
 10
448.5921653690958
 20
1626.729031874287
 30
0.0
 10
448.5149039912526
 20
1626.505953507436
 30
0.0
 10
448.5497445139757
 20
1626.408461354458
 30
0.0
 10
448.6142484543072
 20
1626.389604598882
 30
0.0
 10
448.6640071477868
 20
1626.390163149013
 30
0.0
  0
SPLINE
  5
1B4
330
157
100
AcDbEntity
  8
0
  6
Continuous
 62
     0
370
    30
100
AcDbSpline
210
0.0
220
0.0
230
1.0
 70
     8
 71
     3
 72
    12
 73
     8
 74
     0
 42
0.000000001
 43
0.0
 40
48.1269204945556
 40
48.1269204945556
 40
48.1269204945556
 40
48.1269204945556
 40
48.68847975546876
 40
50.32293047213209
 40
52.12082948123872
 40
54.52494618848779
 40
55.75826192611282
 40
55.75826192611282
 40
55.75826192611282
 40
55.75826192611282
 10
473.529958401416
 20
1657.284855790424
 30
0.0
 10
473.5299584057023
 20
1657.26311156336
 30
0.0
 10
473.5137639352756
 20
1657.164939769066
 30
0.0
 10
473.369807787607
 20
1656.893133789092
 30
0.0
 10
472.920627781238
 20
1656.302787129551
 30
0.0
 10
472.2679689905988
 20
1655.567809034721
 30
0.0
 10
471.7248745000074
 20
1654.997799318754
 30
0.0
 10
471.5300782806795
 20
1654.797275035599
 30
0.0
  0
LINE
  5
1B5
330
157
100
AcDbEntity
  8
0
  6
Continuous
 62
     0
370
    30
100
AcDbLine
 10
400.423464
 20
1656.89016
 30
0.0
 11
401.530078
 21
1656.89016
 31
0.0
  0
LINE
  5
1B6
330
157
100
AcDbEntity
  8
0
  6
Continuous
 62
     0
370
    30
100
AcDbLine
 10
400.423464
 20
1626.89016
 30
0.0
 11
401.530078
 21
1626.89016
 31
0.0
  0
ARC
  5
1B7
330
157
100
AcDbEntity
  8
0
  6
Continuous
 62
     0
370
    30
100
AcDbCircle
 10
475.530078
 20
1656.39016
 30
0.0
 40
1.0
100
AcDbArc
 50
360.0
 51
90.0
  0
ARC
  5
1B8
330
157
100
AcDbEntity
  8
0
  6
Continuous
 62
     0
370
    30
100
AcDbCircle
 10
475.530078
 20
1627.39016
 30
0.0
 40
1.0
100
AcDbArc
 50
270.0
 51
360.0
  0
LINE
  5
1B9
330
157
100
AcDbEntity
  8
0
  6
Continuous
 62
     0
370
    30
100
AcDbLine
 10
475.530078
 20
1657.39016
 30
0.0
 11
473.399741
 21
1657.39016
 31
0.0
  0
LINE
  5
1BA
330
157
100
AcDbEntity
  8
0
  6
Continuous
 62
     0
370
    30
100
AcDbLine
 10
446.605523
 20
1657.39016
 30
0.0
 11
415.848205
 21
1657.39016
 31
0.0
  0
LINE
  5
1BB
330
157
100
AcDbEntity
  8
0
  6
Continuous
 62
     0
370
    30
100
AcDbLine
 10
475.530078
 20
1626.39016
 30
0.0
 11
473.401076
 21
1626.39016
 31
0.0
  0
LINE
  5
1BC
330
157
100
AcDbEntity
  8
0
  6
Continuous
 62
     0
370
    30
100
AcDbLine
 10
448.656836
 20
1626.39016
 30
0.0
 11
445.03007
 21
1626.39016
 31
0.0
  0
LINE
  5
1BD
330
157
100
AcDbEntity
  8
0
  6
Continuous
 62
     0
370
    30
100
AcDbLine
 10
421.030204
 20
1626.39016
 30
0.0
 11
415.848205
 21
1626.39016
 31
0.0
  0
LINE
  5
1BE
330
157
100
AcDbEntity
  8
0
  6
Continuous
 62
     0
370
    30
100
AcDbLine
 10
415.848205
 20
1626.39016
 30
0.0
 11
408.850047
 21
1626.634541
 31
0.0
  0
LINE
  5
1BF
330
157
100
AcDbEntity
  8
0
  6
Continuous
 62
     0
370
    30
100
AcDbLine
 10
404.650147
 20
1626.781205
 30
0.0
 11
401.530078
 21
1626.89016
 31
0.0
  0
LINE
  5
1C0
330
157
100
AcDbEntity
  8
0
  6
Continuous
 62
     0
370
    30
100
AcDbLine
 10
415.848205
 20
1657.39016
 30
0.0
 11
401.530078
 21
1656.89016
 31
0.0
  0
LINE
  5
1C1
330
157
100
AcDbEntity
  8
0
  6
Continuous
 62
     0
370
    30
100
AcDbLine
 10
469.830076
 20
1654.04697
 30
0.0
 11
469.830076
 21
1628.724464
 31
0.0
  0
LINE
  5
1C2
330
157
100
AcDbEntity
  8
0
  6
Continuous
 62
     0
370
     0
100
AcDbLine
 10
470.330076
 20
1654.452197
 30
0.0
 11
470.330076
 21
1628.285608
 31
0.0
  0
SPLINE
  5
1C3
330
157
100
AcDbEntity
  8
0
  6
Continuous
 62
     0
370
     0
100
AcDbSpline
210
0.0
220
0.0
230
1.0
 70
     8
 71
     3
 72
    13
 73
     9
 74
     0
 42
0.000000001
 43
0.0
 40
37.02483885540132
 40
37.02483885540132
 40
37.02483885540132
 40
37.02483885540132
 40
37.76435634575805
 40
39.6075861395004
 40
41.45081593324275
 40
43.02582289369791
 40
44.60082985415306
 40
45.72175231318984
 40
45.72175231318984
 40
45.72175231318984
 40
45.72175231318984
 10
469.3716346163386
 20
1655.659686398902
 30
0.0
 10
469.5232556896549
 20
1655.735228512897
 30
0.0
 10
470.036402924894
 20
1655.993370901784
 30
0.0
 10
470.8130479682713
 20
1656.389257444915
 30
0.0
 10
471.5293989010373
 20
1656.733420409025
 30
0.0
 10
472.0004364927221
 20
1656.906891611122
 30
0.0
 10
472.221884947316
 20
1656.918756064574
 30
0.0
 10
472.2595099429889
 20
1656.843961392205
 30
0.0
 10
472.2579262030725
 20
1656.799069463889
 30
0.0
  0
SPLINE
  5
1C4
330
157
100
AcDbEntity
  8
0
  6
Continuous
 62
     0
370
     0
100
AcDbSpline
210
0.0
220
0.0
230
1.0
 70
     8
 71
     3
 72
    12
 73
     8
 74
     0
 42
0.000000001
 43
0.0
 40
43.90732342927021
 40
43.90732342927021
 40
43.90732342927021
 40
43.90732342927021
 40
44.60082985415306
 40
46.72166969037035
 40
48.49122553459789
 40
50.68295300984333
 40
53.78922322541207
 40
53.78922322541207
 40
53.78922322541207
 40
53.78922322541207
 10
472.6217724978181
 20
1657.390150441627
 30
0.0
 10
472.6575049675462
 20
1657.390193744393
 30
0.0
 10
472.7744321302694
 20
1657.368543947904
 30
0.0
 10
472.7735301464978
 20
1657.184060138005
 30
0.0
 10
472.44263532055
 20
1656.677445916148
 30
0.0
 10
471.7119074056997
 20
1655.822121302798
 30
0.0
 10
470.8847958505296
 20
1654.981432151928
 30
0.0
 10
470.3300774805704
 20
1654.452196638161
 30
0.0
  0
LINE
  5
1C5
330
157
100
AcDbEntity
  8
0
  6
Continuous
 62
     0
370
    30
100
AcDbLine
 10
452.230076
 20
1628.724461
 30
0.0
 11
452.230076
 21
1654.046967
 31
0.0
  0
LINE
  5
1C6
330
157
100
AcDbEntity
  8
0
  6
Continuous
 62
     0
370
     0
100
AcDbLine
 10
451.730076
 20
1628.285605
 30
0.0
 11
451.730076
 21
1654.452194
 31
0.0
  0
SPLINE
  5
1C7
330
157
100
AcDbEntity
  8
0
  6
Continuous
 62
     0
370
     0
100
AcDbSpline
210
0.0
220
0.0
230
1.0
 70
     8
 71
     3
 72
     9
 73
     5
 74
     0
 42
0.000000001
 43
0.0
 40
38.42309851038667
 40
38.42309851038667
 40
38.42309851038667
 40
38.42309851038667
 40
38.52161571096853
 40
39.90937440506875
 40
39.90937440506875
 40
39.90937440506875
 40
39.90937440506875
 10
451.0092576987406
 20
1626.907938189323
 30
0.0
 10
451.0036755040217
 20
1626.907723607834
 30
0.0
 10
450.9215571822297
 20
1626.906096690655
 30
0.0
 10
450.8712203972919
 20
1626.92898337336
 30
0.0
 10
450.8519808327515
 20
1626.971301641998
 30
0.0
  0
SPLINE
  5
1C8
330
157
100
AcDbEntity
  8
0
  6
Continuous
 62
     0
370
     0
100
AcDbSpline
210
0.0
220
0.0
230
1.0
 70
     8
 71
     3
 72
    13
 73
     9
 74
     0
 42
0.000000001
 43
0.0
 40
6.330701158645697
 40
6.330701158645697
 40
6.330701158645697
 40
6.330701158645697
 40
7.854829224215977
 40
9.87946684557897
 40
11.97931118242226
 40
14.22050956277021
 40
17.549804163245
 40
18.77809130817435
 40
18.77809130817435
 40
18.77809130817435
 40
18.77809130817435
 10
471.2086214969669
 20
1626.971520490146
 30
0.0
 10
471.1880399242165
 20
1626.924850333357
 30
0.0
 10
471.0624829520221
 20
1626.876047608036
 30
0.0
 10
470.574767539152
 20
1627.016180866278
 30
0.0
 10
469.6837545454165
 20
1627.409993634919
 30
0.0
 10
468.2413809933038
 20
1628.087232799585
 30
0.0
 10
466.6110862742937
 20
1628.789562021362
 30
0.0
 10
465.3608262987427
 20
1629.196826841969
 30
0.0
 10
465.0135765494206
 20
1629.298098609169
 30
0.0
  0
SPLINE
  5
1C9
330
157
100
AcDbEntity
  8
0
  6
Continuous
 62
     0
370
     0
100
AcDbSpline
210
0.0
220
0.0
230
1.0
 70
     8
 71
     3
 72
    11
 73
     7
 74
     0
 42
0.000000001
 43
0.0
 40
38.53394540625872
 40
38.53394540625872
 40
38.53394540625872
 40
38.53394540625872
 40
40.16550639510447
 40
41.80939707924041
 40
44.03167846987208
 40
46.25395986050376
 40
46.25395986050376
 40
46.25395986050376
 40
46.25395986050376
 10
450.4983750394892
 20
1626.39016063078
 30
0.0
 10
450.4072383019887
 20
1626.3901552609
 30
0.0
 10
450.3060623343028
 20
1626.450694666849
 30
0.0
 10
450.4028110933474
 20
1626.75989063847
 30
0.0
 10
450.8465290289866
 20
1627.353482402328
 30
0.0
 10
451.4045887732417
 20
1627.956116433701
 30
0.0
 10
451.7300778833969
 20
1628.285604637208
 30
0.0
  0
SPLINE
  5
1CA
330
157
100
AcDbEntity
  8
0
  6
Continuous
 62
     0
370
     0
100
AcDbSpline
210
0.0
220
0.0
230
1.0
 70
     8
 71
     3
 72
    11
 73
     7
 74
     0
 42
0.000000001
 43
0.0
 40
0.0
 40
0.0
 40
0.0
 40
0.0
 40
1.825281957153909
 40
3.650563914307818
 40
5.768412827020623
 40
7.72939583210702
 40
7.72939583210702
 40
7.72939583210702
 40
7.72939583210702
 10
470.3300724382792
 20
1628.285607964071
 30
0.0
 10
470.597414766824
 20
1628.014981017302
 30
0.0
 10
471.0691866165314
 20
1627.512053615907
 30
0.0
 10
471.5743208575004
 20
1626.886849289461
 30
0.0
 10
471.779745908434
 20
1626.479401542156
 30
0.0
 10
471.6703093070271
 20
1626.390322699184
 30
0.0
 10
471.5600647943235
 20
1626.390326259075
 30
0.0
  0
ELLIPSE
  5
1CB
330
157
100
AcDbEntity
  8
0
  6
Continuous
 62
     0
370
     0
100
AcDbEllipse
 10
470.330077
 20
1628.724464
 30
0.0
 11
0.4999999999999984
 21
-4.019809416065159E-8
 31
0.0
210
0.0
220
0.0
230
-1.0
 40
0.877713
 41
1.570796235574853
 42
3.141592562369752
  0
ELLIPSE
  5
1CC
330
157
100
AcDbEntity
  8
0
  6
Continuous
 62
     0
370
     0
100
AcDbEllipse
 10
470.330077
 20
1654.04697
 30
0.0
 11
0.4999999738184973
 21
-4.687549501909367E-7
 31
0.0
210
0.0
220
0.0
230
1.0
 40
0.810454
 41
1.570797060728758
 42
3.141592472447906
  0
ELLIPSE
  5
1CD
330
157
100
AcDbEntity
  8
0
  6
Continuous
 62
     0
370
     0
100
AcDbEllipse
 10
470.330077
 20
1654.04697
 30
0.0
 11
0.3391814109937079
 21
-0.3673635398842924
 31
0.0
210
0.0
220
0.0
230
1.0
 40
0.684333
 41
2.208637315536057
 42
3.141593078709478
  0
ELLIPSE
  5
1CE
330
157
100
AcDbEntity
  8
0
  6
Continuous
 62
     0
370
     0
100
AcDbEllipse
 10
451.730077
 20
1628.724461
 30
0.0
 11
-0.5000000512493696
 21
-1.093623209900745E-6
 31
0.0
210
0.0
220
0.0
230
1.0
 40
0.877713
 41
1.570794427674712
 42
3.141592451706139
  0
ELLIPSE
  5
1CF
330
157
100
AcDbEntity
  8
0
  6
Continuous
 62
     0
370
     0
100
AcDbEllipse
 10
470.330072
 20
1628.724465
 30
0.0
 11
-0.3498972000233664
 21
-0.3571721565517232
 31
0.0
210
0.0
220
0.0
230
1.0
 40
0.788443
 41
6.277695894936675
 42
7.176298963460711
  0
ELLIPSE
  5
1D0
330
157
100
AcDbEntity
  8
0
  6
Continuous
 62
     0
370
     0
100
AcDbEllipse
 10
451.730078
 20
1628.724461
 30
0.0
 11
-0.3498972404139961
 21
0.3571721169837737
 31
0.0
210
0.0
220
0.0
230
1.0
 40
0.788443
 41
2.248479142436121
 42
3.144339834354358
  0
ARC
  5
1D1
330
157
100
AcDbEntity
  8
0
  6
Continuous
 62
     0
370
    30
100
AcDbCircle
 10
470.330135
 20
1628.724489
 30
0.0
 40
0.5000582670735372
100
AcDbArc
 50
180.002324
 51
225.58639
  0
SPLINE
  5
1D2
330
157
100
AcDbEntity
  8
0
  6
Continuous
 62
     0
370
    30
100
AcDbSpline
210
0.0
220
0.0
230
1.0
 70
     8
 71
     3
 72
    11
 73
     7
 74
     0
 42
0.000000001
 43
0.0
 40
0.6977087783837185
 40
0.6977087783837185
 40
0.6977087783837185
 40
0.6977087783837185
 40
0.9079719912108102
 40
1.955711203283687
 40
3.087350805725177
 40
5.8500721572643
 40
5.8500721572643
 40
5.8500721572643
 40
5.8500721572643
 10
450.8332732067925
 20
1626.933444281257
 30
0.0
 10
450.8332723823423
 20
1626.933444565717
 30
0.0
 10
450.8374096087244
 20
1626.94546902496
 30
0.0
 10
450.9025412441979
 20
1627.068324972649
 30
0.0
 10
451.2211836841811
 20
1627.485516294247
 30
0.0
 10
451.6817870020002
 20
1627.977211425303
 30
0.0
 10
452.0799751274857
 20
1628.367289260096
 30
0.0
  0
SPLINE
  5
1D3
330
157
100
AcDbEntity
  8
0
  6
Continuous
 62
     0
370
    30
100
AcDbSpline
210
0.0
220
0.0
230
1.0
 70
     8
 71
     3
 72
    12
 73
     8
 74
     0
 42
0.000000001
 43
0.0
 40
0.6919748003272962
 40
0.6919748003272962
 40
0.6919748003272962
 40
0.6919748003272962
 40
0.9048288974567811
 40
1.315861219782573
 40
1.949805948498145
 40
3.08323085184924
 40
5.844858783723291
 40
5.844858783723291
 40
5.844858783723291
 40
5.844858783723291
 10
471.226938157361
 20
1626.933105366018
 30
0.0
 10
471.2269291039597
 20
1626.933102329267
 30
0.0
 10
471.224824773471
 20
1626.93929208476
 30
0.0
 10
471.2060347154135
 20
1626.978972897082
 30
0.0
 10
471.1307257984295
 20
1627.102478094101
 30
0.0
 10
470.8391764503702
 20
1627.485957091828
 30
0.0
 10
470.3781262194648
 20
1627.977446982255
 30
0.0
 10
469.9801752419339
 20
1628.367292412437
 30
0.0
  0
SPLINE
  5
1D4
330
157
100
AcDbEntity
  8
0
  6
Continuous
 62
     0
370
    30
100
AcDbSpline
210
0.0
220
0.0
230
1.0
 70
     8
 71
     3
 72
     9
 73
     5
 74
     0
 42
0.000000001
 43
0.0
 40
28.97575636263091
 40
28.97575636263091
 40
28.97575636263091
 40
28.97575636263091
 40
29.94670551935177
 40
30.55005683516257
 40
30.55005683516257
 40
30.55005683516257
 40
30.55005683516257
 10
451.0088735379669
 20
1626.486569103012
 30
0.0
 10
450.8984638524141
 20
1626.452095705219
 30
0.0
 10
450.7338083951404
 20
1626.408935798105
 30
0.0
 10
450.5680208331158
 20
1626.390164560308
 30
0.0
 10
450.4983750394891
 20
1626.390160630781
 30
0.0
  0
SPLINE
  5
1D5
330
157
100
AcDbEntity
  8
0
  6
Continuous
 62
     0
370
    30
100
AcDbSpline
210
0.0
220
0.0
230
1.0
 70
     8
 71
     3
 72
    14
 73
    10
 74
     0
 42
0.000000001
 43
0.0
 40
0.0
 40
0.0
 40
0.0
 40
0.0
 40
1.209257058389695
 40
1.972820579217564
 40
3.561419551867287
 40
5.582377119233108
 40
8.552614173290406
 40
10.74807530737062
 40
11.12202748726774
 40
11.12202748726774
 40
11.12202748726774
 40
11.12202748726774
 10
471.5600647943235
 20
1626.390326259075
 30
0.0
 10
471.4217246273344
 20
1626.3903307262
 30
0.0
 10
471.2248671989335
 20
1626.431253708522
 30
0.0
 10
470.8193222352128
 20
1626.558375627298
 30
0.0
 10
470.2170103408664
 20
1626.800029919158
 30
0.0
 10
469.0421344167271
 20
1627.321579159349
 30
0.0
 10
467.3957031029772
 20
1628.037652390481
 30
0.0
 10
465.8785321164889
 20
1628.570783728341
 30
0.0
 10
465.12369193039
 20
1628.785211230059
 30
0.0
 10
465.0128014365399
 20
1628.815608927145
 30
0.0
  0
ARC
  5
1D6
330
157
100
AcDbEntity
  8
0
  6
Continuous
 62
     0
370
    30
100
AcDbCircle
 10
451.730019
 20
1628.724486
 30
0.0
 40
0.5000581117317133
100
AcDbArc
 50
314.413389
 51
359.997316
  0
SPLINE
  5
1D7
330
157
100
AcDbEntity
  8
0
  6
Continuous
 62
     0
370
    30
100
AcDbSpline
210
0.0
220
0.0
230
1.0
 70
     8
 71
     3
 72
    12
 73
     8
 74
     0
 42
0.000000001
 43
0.0
 40
0.6244116823581157
 40
0.6244116823581157
 40
0.6244116823581157
 40
0.6244116823581157
 40
1.234841694951504
 40
1.871473933414524
 40
2.641986593760378
 40
4.397478376601265
 40
7.991811972841465
 40
7.991811972841465
 40
7.991811972841465
 40
7.991811972841465
 10
472.267544275657
 20
1656.862234355684
 30
0.0
 10
472.2674469928014
 20
1656.862272428139
 30
0.0
 10
472.2541172471561
 20
1656.828794358619
 30
0.0
 10
472.1855138521743
 20
1656.716686022951
 30
0.0
 10
472.0058221270347
 20
1656.46972639432
 30
0.0
 10
471.4391143395305
 20
1655.80964807233
 30
0.0
 10
470.6266699801817
 20
1655.001334157987
 30
0.0
 10
469.9908973757676
 20
1654.41433450899
 30
0.0
  0
SPLINE
  5
1D8
330
157
100
AcDbEntity
  8
0
  6
Continuous
 62
     0
370
    30
100
AcDbSpline
210
0.0
220
0.0
230
1.0
 70
     8
 71
     3
 72
     9
 73
     5
 74
     0
 42
0.000000001
 43
0.0
 40
0.0
 40
0.0
 40
0.0
 40
0.0
 40
0.5428007213881796
 40
0.6244116823581157
 40
0.6244116823581157
 40
0.6244116823581157
 40
0.6244116823581157
 10
472.2579261852143
 20
1656.79906895771
 30
0.0
 10
472.2593482787283
 20
1656.839375119064
 30
0.0
 10
472.2667777836583
 20
1656.859944041968
 30
0.0
 10
472.2675572818119
 20
1656.862229265616
 30
0.0
 10
472.267544275657
 20
1656.862234355684
 30
0.0
  0
SPLINE
  5
1D9
330
157
100
AcDbEntity
  8
0
  6
Continuous
 62
     0
370
    30
100
AcDbSpline
210
0.0
220
0.0
230
1.0
 70
     8
 71
     3
 72
    12
 73
     8
 74
     0
 42
0.000000001
 43
0.0
 40
26.57002849040274
 40
26.57002849040274
 40
26.57002849040274
 40
26.57002849040274
 40
28.75508821162433
 40
30.29323355716367
 40
31.44110865515453
 40
32.63277628094125
 40
33.74429251551956
 40
33.74429251551956
 40
33.74429251551956
 40
33.74429251551956
 10
469.383742924661
 20
1656.024687380954
 30
0.0
 10
469.8586360004214
 20
1656.249536432728
 30
0.0
 10
470.5970301542939
 20
1656.611255989817
 30
0.0
 10
471.3823146218588
 20
1656.985667758408
 30
0.0
 10
471.896619307843
 20
1657.209834286988
 30
0.0
 10
472.2727331453227
 20
1657.342649372224
 30
0.0
 10
472.4935012425787
 20
1657.389994641605
 30
0.0
 10
472.6217724978181
 20
1657.390150441627
 30
0.0
  0
ARC
  5
1DA
330
157
100
AcDbEntity
  8
0
  6
Continuous
 62
     0
370
    30
100
AcDbCircle
 10
470.330202
 20
1654.046915
 30
0.0
 40
0.5001255185630158
100
AcDbArc
 50
132.722102
 51
179.993644
  0
LINE
  5
1DB
330
157
100
AcDbEntity
  8
0
  6
Continuous
 62
     0
370
    30
100
AcDbLine
 10
473.399794
 20
1657.390163
 30
0.0
 11
472.622068
 21
1657.390163
 31
0.0
  0
LINE
  5
1DC
330
157
100
AcDbEntity
  8
0
  6
Continuous
 62
     0
370
    30
100
AcDbLine
 10
473.399769
 20
1626.390163
 30
0.0
 11
471.561085
 21
1626.390163
 31
0.0
  0
LINE
  5
1DD
330
157
100
AcDbEntity
  8
0
  6
Continuous
 62
     0
370
    30
100
AcDbLine
 10
450.498916
 20
1626.390163
 30
0.0
 11
448.660358
 21
1626.390163
 31
0.0
  0
LINE
  5
1DE
330
157
100
AcDbEntity
  8
0
  6
Continuous
 62
     0
370
    30
100
AcDbLine
 10
395.423464
 20
1671.39016
 30
0.0
 11
395.423464
 21
1612.39016
 31
0.0
  0
LINE
  5
1DF
330
157
100
AcDbEntity
  8
0
  6
Continuous
 62
     0
370
     0
100
AcDbLine
 10
395.923464
 20
1671.89016
 30
0.0
 11
395.923464
 21
1611.89016
 31
0.0
  0
LINE
  5
1E0
330
157
100
AcDbEntity
  8
0
  6
Continuous
 62
     0
370
     0
100
AcDbLine
 10
399.923464
 20
1671.89016
 30
0.0
 11
399.923464
 21
1611.89016
 31
0.0
  0
LINE
  5
1E1
330
157
100
AcDbEntity
  8
0
  6
Continuous
 62
     0
370
    30
100
AcDbLine
 10
400.423464
 20
1671.39016
 30
0.0
 11
400.423464
 21
1612.39016
 31
0.0
  0
ARC
  5
1E2
330
157
100
AcDbEntity
  8
0
  6
Continuous
 62
     0
370
    30
100
AcDbCircle
 10
395.923464
 20
1612.39016
 30
0.0
 40
0.4999999999999994
100
AcDbArc
 50
180.0
 51
270.0
  0
LINE
  5
1E3
330
157
100
AcDbEntity
  8
0
  6
Continuous
 62
     0
370
    30
100
AcDbLine
 10
399.923464
 20
1611.89016
 30
0.0
 11
395.923464
 21
1611.89016
 31
0.0
  0
ARC
  5
1E4
330
157
100
AcDbEntity
  8
0
  6
Continuous
 62
     0
370
    30
100
AcDbCircle
 10
399.923464
 20
1612.39016
 30
0.0
 40
0.5000000000000003
100
AcDbArc
 50
270.0
 51
360.0
  0
ARC
  5
1E5
330
157
100
AcDbEntity
  8
0
  6
Continuous
 62
     0
370
    30
100
AcDbCircle
 10
399.923464
 20
1671.39016
 30
0.0
 40
0.5
100
AcDbArc
 50
360.0
 51
90.0
  0
ARC
  5
1E6
330
157
100
AcDbEntity
  8
0
  6
Continuous
 62
     0
370
    30
100
AcDbCircle
 10
395.923464
 20
1671.39016
 30
0.0
 40
0.5
100
AcDbArc
 50
90.0
 51
180.0
  0
LINE
  5
1E7
330
157
100
AcDbEntity
  8
0
  6
Continuous
 62
     0
370
    30
100
AcDbLine
 10
399.923464
 20
1671.89016
 30
0.0
 11
395.923464
 21
1671.89016
 31
0.0
  0
LINE
  5
1E8
330
157
100
AcDbEntity
  8
0
  6
Continuous
 62
     0
370
    30
100
AcDbLine
 10
442.130077
 20
1625.690161
 30
0.0
 11
442.130077
 21
1624.690161
 31
0.0
  0
LINE
  5
1E9
330
157
100
AcDbEntity
  8
0
  6
Continuous
 62
     0
370
    30
100
AcDbLine
 10
421.830077
 20
1625.690161
 30
0.0
 11
444.230077
 21
1625.690161
 31
0.0
  0
LINE
  5
1EA
330
157
100
AcDbEntity
  8
0
  6
Continuous
 62
     0
370
     0
100
AcDbLine
 10
421.630077
 20
1625.890161
 30
0.0
 11
444.430077
 21
1625.890161
 31
0.0
  0
LINE
  5
1EB
330
157
100
AcDbEntity
  8
0
  6
Continuous
 62
     0
370
    30
100
AcDbLine
 10
444.430077
 20
1626.849892
 30
0.0
 11
444.430077
 21
1625.890161
 31
0.0
  0
ARC
  5
1EC
330
157
100
AcDbEntity
  8
0
  6
Continuous
 62
     0
370
    30
100
AcDbCircle
 10
444.230077
 20
1625.890161
 30
0.0
 40
0.2000000029802322
100
AcDbArc
 50
270.0
 51
360.0
  0
ARC
  5
1ED
330
157
100
AcDbEntity
  8
0
  6
Continuous
 62
     0
370
    30
100
AcDbCircle
 10
421.830077
 20
1625.890161
 30
0.0
 40
0.2000000029802322
100
AcDbArc
 50
180.0
 51
270.0
  0
LINE
  5
1EE
330
157
100
AcDbEntity
  8
0
  6
Continuous
 62
     0
370
    30
100
AcDbLine
 10
421.630077
 20
1626.84988
 30
0.0
 11
421.630077
 21
1625.890161
 31
0.0
  0
LINE
  5
1EF
330
157
100
AcDbEntity
  8
0
  6
Continuous
 62
     0
370
    30
100
AcDbLine
 10
423.930077
 20
1625.690161
 30
0.0
 11
423.930077
 21
1624.690161
 31
0.0
  0
LINE
  5
1F0
330
157
100
AcDbEntity
  8
0
  6
Continuous
 62
     0
370
     0
100
AcDbLine
 10
436.923461
 20
1663.990158
 30
0.0
 11
436.923461
 21
1657.39016
 31
0.0
  0
LINE
  5
1F1
330
157
100
AcDbEntity
  8
0
  6
Continuous
 62
     0
370
    30
100
AcDbLine
 10
437.423461
 20
1663.490158
 30
0.0
 11
437.423461
 21
1657.39016
 31
0.0
  0
ARC
  5
1F2
330
157
100
AcDbEntity
  8
0
  6
Continuous
 62
     0
370
    30
100
AcDbCircle
 10
436.923461
 20
1663.490158
 30
0.0
 40
0.5
100
AcDbArc
 50
360.0
 51
90.0
  0
LINE
  5
1F3
330
157
100
AcDbEntity
  8
0
  6
Continuous
 62
     0
370
    30
100
AcDbLine
 10
401.718909
 20
1663.990158
 30
0.0
 11
436.923461
 21
1663.990158
 31
0.0
  0
LINE
  5
1F4
330
157
100
AcDbEntity
  8
0
  6
Continuous
 62
     0
370
    30
100
AcDbLine
 10
401.718909
 20
1619.790158
 30
0.0
 11
421.692623
 21
1619.790158
 31
0.0
  0
LINE
  5
1F5
330
157
100
AcDbEntity
  8
0
  6
Continuous
 62
     0
370
    30
100
AcDbLine
 10
438.02346
 20
1662.199115
 30
0.0
 11
437.52346
 21
1662.238702
 31
0.0
  0
LINE
  5
1F6
330
157
100
AcDbEntity
  8
0
  6
Continuous
 62
     0
370
    30
100
AcDbLine
 10
437.52346
 20
1662.240158
 30
0.0
 11
437.52346
 21
1657.39016
 31
0.0
  0
ARC
  5
1F7
330
157
100
AcDbEntity
  8
0
  6
Continuous
 62
     0
370
    30
100
AcDbCircle
 10
436.149136
 20
1641.772659
 30
0.0
 40
20.51358768170014
100
AcDbArc
 50
59.577023
 51
86.158547
  0
ENDBLK
  5
1F9
330
157
100
AcDbEntity
  8
0
100
AcDbBlockEnd
  0
BLOCK
  5
2CE
330
1FB
100
AcDbEntity
  8
0
100
AcDbBlockBegin
  2
d
 70
     0
 10
-278.153343
 20
1962.940765
 30
0.0
  3
d
  1

  0
LINE
  5
1FC
330
1FB
100
AcDbEntity
  8
0
  6
Continuous
 62
     0
370
    30
100
AcDbLine
 10
60.340833
 20
2652.299315
 30
0.0
 11
61.755047
 21
2653.932308
 31
0.0
  0
LINE
  5
1FD
330
1FB
100
AcDbEntity
  8
0
  6
Continuous
 62
     0
370
    30
100
AcDbLine
 10
71.534586
 20
2658.762032
 30
0.0
 11
60.340833
 21
2652.299315
 31
0.0
  0
LINE
  5
1FE
330
1FB
100
AcDbEntity
  8
0
  6
Continuous
 62
     0
370
    30
100
AcDbLine
 10
71.534586
 20
2659.578528
 30
0.0
 11
61.755047
 21
2653.932308
 31
0.0
  0
LINE
  5
1FF
330
1FB
100
AcDbEntity
  8
0
  6
Continuous
 62
     0
370
    30
100
AcDbLine
 10
61.755047
 20
2653.932308
 30
0.0
 11
61.755047
 21
2674.378982
 31
0.0
  0
ELLIPSE
  5
200
330
1FB
100
AcDbEntity
  8
0
  6
Continuous
 62
     0
370
     0
100
AcDbEllipse
 10
65.644134
 20
2681.897315
 30
0.0
 11
-4.25000022149257
 21
-7.36121580428893
 31
0.0
210
0.0
220
0.0
230
-1.0
 40
0.57735
 41
2.356194438407623
 42
3.141592624820816
  0
ELLIPSE
  5
201
330
1FB
100
AcDbEntity
  8
0
  6
Continuous
 62
     0
370
     0
100
AcDbEllipse
 10
65.644134
 20
2681.897315
 30
0.0
 11
4.25000022149257
 21
7.36121580428893
 31
0.0
210
0.0
220
0.0
230
1.0
 40
0.57735
 41
0.7853982151821706
 42
2.356194541977069
  0
LINE
  5
202
330
1FB
100
AcDbEntity
  8
0
  6
Continuous
 62
     0
370
     0
100
AcDbLine
 10
59.633726
 20
2678.427205
 30
0.0
 11
59.633726
 21
2652.707563
 31
0.0
  0
ELLIPSE
  5
203
330
1FB
100
AcDbEntity
  8
0
  6
Continuous
 62
     0
370
     0
100
AcDbEllipse
 10
65.644134
 20
2688.429288
 30
0.0
 11
0.2500000129047831
 21
-0.4330126944416391
 31
0.0
210
0.0
220
0.0
230
1.0
 40
0.57735
 41
2.356194438242055
 42
3.141601761199516
  0
LINE
  5
204
330
1FB
100
AcDbEntity
  8
0
  6
Continuous
 62
     0
370
     0
100
AcDbLine
 10
61.437027
 20
2677.386068
 30
0.0
 11
59.633726
 21
2678.427205
 31
0.0
  0
LINE
  5
205
330
1FB
100
AcDbEntity
  8
0
  6
Continuous
 62
     0
370
    30
100
AcDbLine
 10
59.633726
 20
2652.707563
 30
0.0
 11
60.340833
 21
2652.299315
 31
0.0
  0
ELLIPSE
  5
206
330
1FB
100
AcDbEntity
  8
0
  6
Continuous
 62
     0
370
     0
100
AcDbEllipse
 10
59.98728
 20
2678.631329
 30
0.0
 11
-0.5
 21
1.433564933428499E-10
 31
0.0
210
0.0
220
0.0
230
1.0
 40
0.57735
 41
6.283173856912119
 42
7.068583470742563
  0
ELLIPSE
  5
207
330
1FB
100
AcDbEntity
  8
0
  6
Continuous
 62
     0
370
    30
100
AcDbEllipse
 10
59.98728
 20
2652.911687
 30
0.0
 11
-0.5
 21
1.433564933428499E-10
 31
0.0
210
0.0
220
0.0
230
1.0
 40
0.57735
 41
-0.0000000086397183
 42
0.7853981635613856
  0
SPLINE
  5
208
330
1FB
100
AcDbEntity
  8
0
  6
Continuous
 62
     0
370
    30
100
AcDbSpline
210
0.0
220
0.0
230
1.0
 70
     8
 71
     3
 72
    15
 73
    11
 74
     0
 42
0.000000001
 43
0.0
 40
0.0
 40
0.0
 40
0.0
 40
0.0
 40
0.8977259965501503
 40
2.569145832140689
 40
4.505068471485229
 40
6.487561537995395
 40
8.479073321436308
 40
10.45774446729402
 40
12.00873229308082
 40
13.05399752128064
 40
13.05399752128064
 40
13.05399752128064
 40
13.05399752128064
 10
65.39413404128777
 20
2688.862300504821
 30
0.0
 10
65.1782508581556
 20
2688.737660282556
 30
0.0
 10
64.56229510451624
 20
2688.343703523362
 30
0.0
 10
63.50900140841622
 20
2687.478704025827
 30
0.0
 10
62.29711352112633
 20
2686.145664772422
 30
0.0
 10
61.18969788697211
 20
2684.511574703492
 30
0.0
 10
60.31202082820164
 20
2682.725885531419
 30
0.0
 10
59.76318374981679
 20
2681.030261525725
 30
0.0
 10
59.52635941232154
 20
2679.662487342198
 30
0.0
 10
59.48727979421608
 20
2678.921530764992
 30
0.0
 10
59.48727979779483
 20
2678.631328736082
 30
0.0
  0
SPLINE
  5
209
330
1FB
100
AcDbEntity
  8
0
  6
Continuous
 62
     0
370
    30
100
AcDbSpline
210
0.0
220
0.0
230
1.0
 70
     8
 71
     3
 72
    12
 73
     8
 74
     0
 42
0.000000001
 43
0.0
 40
0.0
 40
0.0
 40
0.0
 40
0.0
 40
0.7145178583227472
 40
1.702513747980318
 40
3.688544034766167
 40
5.240141564287193
 40
6.638123312612873
 40
6.638123312612873
 40
6.638123312612873
 40
6.638123312612873
 10
69.89413414651335
 20
2689.258531260796
 30
0.0
 10
69.76153845536203
 20
2689.335085416214
 30
0.0
 10
69.43215787458962
 20
2689.494629676082
 30
0.0
 10
68.66110475082007
 20
2689.717024837595
 30
0.0
 10
67.62537775650821
 20
2689.721746663679
 30
0.0
 10
66.44447909253756
 20
2689.400070687865
 30
0.0
 10
65.7301078495351
 20
2689.056275018056
 30
0.0
 10
65.3941351050687
 20
2688.86230111899
 30
0.0
  0
LINE
  5
20A
330
1FB
100
AcDbEntity
  8
0
  6
Continuous
 62
     0
370
    30
100
AcDbLine
 10
71.383746
 20
2688.398503
 30
0.0
 11
69.894134
 21
2689.258531
 31
0.0
  0
LINE
  5
20B
330
1FB
100
AcDbEntity
  8
0
  6
Continuous
 62
     0
370
    30
100
AcDbLine
 10
59.48728
 20
2678.631329
 30
0.0
 11
59.48728
 21
2652.911687
 31
0.0
  0
ELLIPSE
  5
20C
330
1FB
100
AcDbEntity
  8
0
  6
Continuous
 62
     0
370
    30
100
AcDbEllipse
 10
82.98363
 20
2587.378959
 30
0.0
 11
-10.00000471619086
 21
2.867377133566098E-9
 31
0.0
210
0.0
220
0.0
230
1.0
 40
0.57735
 41
-0.0000000086396872
 42
2.356194490357893
  0
ELLIPSE
  5
20D
330
1FB
100
AcDbEntity
  8
0
  6
Continuous
 62
     0
370
    30
100
AcDbEllipse
 10
82.98363
 20
2587.378959
 30
0.0
 11
-10.00000471619086
 21
2.867377133566098E-9
 31
0.0
210
0.0
220
0.0
230
1.0
 40
0.57735
 41
2.356194490357893
 42
3.141592644950106
  0
ELLIPSE
  5
20E
330
1FB
100
AcDbEntity
  8
0
  6
Continuous
 62
     0
370
    30
100
AcDbEllipse
 10
83.039738
 20
2658.381765
 30
0.0
 11
-11.50515187035325
 21
3.298959383273406E-9
 31
0.0
210
0.0
220
0.0
230
1.0
 40
0.57735
 41
-0.0000000086396863
 42
2.271735113670232
  0
ELLIPSE
  5
20F
330
1FB
100
AcDbEntity
  8
0
  6
Continuous
 62
     0
370
    30
100
AcDbEllipse
 10
102.130844
 20
2660.423454
 30
0.0
 11
-6.000000312670596
 21
-10.39230466483723
 31
0.0
210
0.0
220
0.0
230
-1.0
 40
0.57735
 41
0.0
 42
6.283185307179586
  0
ELLIPSE
  5
210
330
1FB
100
AcDbEntity
  8
0
  6
Continuous
 62
     0
370
    30
100
AcDbEllipse
 10
67.765454
 20
2680.264322
 30
0.0
 11
-4.500000234504176
 21
-7.794228498630038
 31
0.0
210
0.0
220
0.0
230
-1.0
 40
0.57735
 41
0.1142981515722441
 42
2.356194438407662
  0
ELLIPSE
  5
211
330
1FB
100
AcDbEntity
  8
0
  6
Continuous
 62
     0
370
    30
100
AcDbEllipse
 10
67.765454
 20
2680.264322
 30
0.0
 11
-4.500000234504176
 21
-7.794228498630038
 31
0.0
210
0.0
220
0.0
230
-1.0
 40
0.57735
 41
2.356194438407662
 42
3.027294444479587
  0
ELLIPSE
  5
212
330
1FB
100
AcDbEntity
  8
0
  6
Continuous
 62
     0
370
    30
100
AcDbEllipse
 10
102.130844
 20
2660.423454
 30
0.0
 11
5.350000278819405
 21
9.266471659517027
 31
0.0
210
0.0
220
0.0
230
1.0
 40
0.57735
 41
0.0
 42
6.283185307179586
  0
ELLIPSE
  5
213
330
1FB
100
AcDbEntity
  8
0
  6
Continuous
 62
     0
370
    30
100
AcDbEllipse
 10
102.130844
 20
2660.423454
 30
0.0
 11
-5.25000027360783
 21
-9.093266581769047
 31
0.0
210
0.0
220
0.0
230
-1.0
 40
0.57735
 41
0.0
 42
6.283185307179586
  0
LINE
  5
214
330
1FB
100
AcDbEntity
  8
0
  6
Continuous
 62
     0
370
    30
100
AcDbLine
 10
98.418533
 20
2659.096647
 30
0.0
 11
98.418533
 21
2657.463654
 31
0.0
  0
LINE
  5
215
330
1FB
100
AcDbEntity
  8
0
  6
Continuous
 62
     0
370
    30
100
AcDbLine
 10
98.418533
 20
2657.463654
 30
0.0
 11
105.843155
 21
2661.750261
 31
0.0
  0
LINE
  5
216
330
1FB
100
AcDbEntity
  8
0
  6
Continuous
 62
     0
370
    30
100
AcDbLine
 10
105.843155
 20
2661.750261
 30
0.0
 11
105.843155
 21
2663.383254
 31
0.0
  0
LINE
  5
217
330
1FB
100
AcDbEntity
  8
0
  6
Continuous
 62
     0
370
    30
100
AcDbLine
 10
105.843155
 20
2663.383254
 30
0.0
 11
98.418533
 21
2659.096647
 31
0.0
  0
LINE
  5
218
330
1FB
100
AcDbEntity
  8
0
  6
Continuous
 62
     0
370
    30
100
AcDbLine
 10
98.418533
 20
2658.28015
 30
0.0
 11
105.136048
 21
2662.158509
 31
0.0
  0
LINE
  5
219
330
1FB
100
AcDbEntity
  8
0
  6
Continuous
 62
     0
370
    30
100
AcDbLine
 10
105.136048
 20
2662.158509
 30
0.0
 11
105.136048
 21
2662.975006
 31
0.0
  0
LINE
  5
21A
330
1FB
100
AcDbEntity
  8
0
  6
Continuous
 62
     0
370
    30
100
AcDbLine
 10
105.843155
 20
2661.750261
 30
0.0
 11
105.136048
 21
2662.158509
 31
0.0
  0
ELLIPSE
  5
21B
330
1FB
100
AcDbEntity
  8
0
  6
Continuous
 62
     0
370
    30
100
AcDbEllipse
 10
102.130844
 20
2666.547178
 30
0.0
 11
0.2500000130289443
 21
0.4330126943699547
 31
0.0
210
0.0
220
0.0
230
1.0
 40
0.57735
 41
0.0
 42
6.283185307179586
  0
ELLIPSE
  5
21C
330
1FB
100
AcDbEntity
  8
0
  6
Continuous
 62
     0
370
    30
100
AcDbEllipse
 10
99.65597
 20
2661.852323
 30
0.0
 11
0.2500000130289443
 21
0.4330126943699546
 31
0.0
210
0.0
220
0.0
230
1.0
 40
0.57735
 41
0.0
 42
6.283185307179586
  0
ELLIPSE
  5
21D
330
1FB
100
AcDbEntity
  8
0
  6
Continuous
 62
     0
370
    30
100
AcDbEllipse
 10
104.605718
 20
2664.710061
 30
0.0
 11
0.2500000130289443
 21
0.4330126943699546
 31
0.0
210
0.0
220
0.0
230
1.0
 40
0.57735
 41
0.0
 42
6.283185307179586
  0
ELLIPSE
  5
21E
330
1FB
100
AcDbEntity
  8
0
  6
Continuous
 62
     0
370
    30
100
AcDbEllipse
 10
99.65597
 20
2656.136847
 30
0.0
 11
0.2500000130289443
 21
0.4330126943699546
 31
0.0
210
0.0
220
0.0
230
1.0
 40
0.57735
 41
0.0
 42
6.283185307179586
  0
ELLIPSE
  5
21F
330
1FB
100
AcDbEntity
  8
0
  6
Continuous
 62
     0
370
    30
100
AcDbEllipse
 10
104.605718
 20
2658.994585
 30
0.0
 11
0.2500000130289443
 21
0.4330126943699546
 31
0.0
210
0.0
220
0.0
230
1.0
 40
0.57735
 41
0.0
 42
6.283185307179586
  0
ELLIPSE
  5
220
330
1FB
100
AcDbEntity
  8
0
  6
Continuous
 62
     0
370
    30
100
AcDbEllipse
 10
99.013642
 20
2663.577933
 30
0.0
 11
0.2500000130289443
 21
0.4330126943699546
 31
0.0
210
0.0
220
0.0
230
1.0
 40
0.57735
 41
0.0
 42
6.283185307179586
  0
ELLIPSE
  5
221
330
1FB
100
AcDbEntity
  8
0
  6
Continuous
 62
     0
370
    30
100
AcDbEllipse
 10
97.087105
 20
2659.403785
 30
0.0
 11
0.2500000130289443
 21
0.4330126943699546
 31
0.0
210
0.0
220
0.0
230
1.0
 40
0.57735
 41
0.0
 42
6.283185307179586
  0
ELLIPSE
  5
222
330
1FB
100
AcDbEntity
  8
0
  6
Continuous
 62
     0
370
    30
100
AcDbEllipse
 10
97.087105
 20
2655.619115
 30
0.0
 11
0.2500000130289443
 21
0.4330126943699546
 31
0.0
210
0.0
220
0.0
230
1.0
 40
0.57735
 41
0.0
 42
6.283185307179586
  0
ELLIPSE
  5
223
330
1FB
100
AcDbEntity
  8
0
  6
Continuous
 62
     0
370
    30
100
AcDbEllipse
 10
99.013642
 20
2653.669539
 30
0.0
 11
0.2500000130289443
 21
0.4330126943699546
 31
0.0
210
0.0
220
0.0
230
1.0
 40
0.57735
 41
0.0
 42
6.283185307179586
  0
ELLIPSE
  5
224
330
1FB
100
AcDbEntity
  8
0
  6
Continuous
 62
     0
370
    30
100
AcDbEllipse
 10
102.130844
 20
2654.29973
 30
0.0
 11
0.2500000130289443
 21
0.4330126943699547
 31
0.0
210
0.0
220
0.0
230
1.0
 40
0.57735
 41
0.0
 42
6.283185307179586
  0
ELLIPSE
  5
225
330
1FB
100
AcDbEntity
  8
0
  6
Continuous
 62
     0
370
    30
100
AcDbEllipse
 10
105.248046
 20
2657.268975
 30
0.0
 11
0.2500000130289444
 21
0.4330126943699546
 31
0.0
210
0.0
220
0.0
230
1.0
 40
0.57735
 41
0.0
 42
6.283185307179586
  0
ELLIPSE
  5
226
330
1FB
100
AcDbEntity
  8
0
  6
Continuous
 62
     0
370
    30
100
AcDbEllipse
 10
107.174583
 20
2661.443123
 30
0.0
 11
0.2500000130289443
 21
0.4330126943699546
 31
0.0
210
0.0
220
0.0
230
1.0
 40
0.57735
 41
0.0
 42
6.283185307179586
  0
ELLIPSE
  5
227
330
1FB
100
AcDbEntity
  8
0
  6
Continuous
 62
     0
370
    30
100
AcDbEllipse
 10
107.174583
 20
2665.227793
 30
0.0
 11
0.2500000130289443
 21
0.4330126943699546
 31
0.0
210
0.0
220
0.0
230
1.0
 40
0.57735
 41
0.0
 42
6.283185307179586
  0
ELLIPSE
  5
228
330
1FB
100
AcDbEntity
  8
0
  6
Continuous
 62
     0
370
    30
100
AcDbEllipse
 10
105.248046
 20
2667.177368
 30
0.0
 11
0.2500000130289443
 21
0.4330126943699546
 31
0.0
210
0.0
220
0.0
230
1.0
 40
0.57735
 41
0.0
 42
6.283185307179586
  0
ELLIPSE
  5
229
330
1FB
100
AcDbEntity
  8
0
  6
Continuous
 62
     0
370
    30
100
AcDbEllipse
 10
83.051584
 20
2587.339726
 30
0.0
 11
11.5
 21
-3.297482148445496E-9
 31
0.0
210
0.0
220
0.0
230
-1.0
 40
0.57735
 41
5.754868180044015
 42
7.068583470411487
  0
ELLIPSE
  5
22A
330
1FB
100
AcDbEntity
  8
0
  6
Continuous
 62
     0
370
    30
100
AcDbEllipse
 10
83.051584
 20
2587.339726
 30
0.0
 11
11.5
 21
-3.297482148445496E-9
 31
0.0
210
0.0
220
0.0
230
-1.0
 40
0.57735
 41
0.7853981632319007
 42
3.645971843135276
  0
ELLIPSE
  5
22B
330
1FB
100
AcDbEntity
  8
0
  6
Continuous
 62
     0
370
    30
100
AcDbEllipse
 10
83.051584
 20
2581.62425
 30
0.0
 11
11.5
 21
-3.297482148445496E-9
 31
0.0
210
0.0
220
0.0
230
-1.0
 40
0.57735
 41
0.0000000086396871
 42
0.7853981632319
  0
ELLIPSE
  5
22C
330
1FB
100
AcDbEntity
  8
0
  6
Continuous
 62
     0
370
    30
100
AcDbEllipse
 10
83.051584
 20
2581.62425
 30
0.0
 11
11.5
 21
-3.297482148445496E-9
 31
0.0
210
0.0
220
0.0
230
-1.0
 40
0.57735
 41
0.7853981632319
 42
3.141592662229479
  0
ELLIPSE
  5
22D
330
1FB
100
AcDbEntity
  8
0
  6
Continuous
 62
     0
370
     0
100
AcDbEllipse
 10
80.358283
 20
2672.993848
 30
0.0
 11
-5.936205912909241
 21
-10.28180953089025
 31
0.0
210
0.0
220
0.0
230
-1.0
 40
0.57735
 41
0.3698961728612912
 42
2.356194438407661
  0
ELLIPSE
  5
22E
330
1FB
100
AcDbEntity
  8
0
  6
Continuous
 62
     0
370
     0
100
AcDbEllipse
 10
81.484227
 20
2672.343785
 30
0.0
 11
-6.000000312670596
 21
-10.39230466483723
 31
0.0
210
0.0
220
0.0
230
-1.0
 40
0.57735
 41
0.4404305358885602
 42
2.35619443840766
  0
ELLIPSE
  5
22F
330
1FB
100
AcDbEntity
  8
0
  6
Continuous
 62
     0
370
     0
100
AcDbEllipse
 10
80.358283
 20
2672.993848
 30
0.0
 11
-5.936205912909241
 21
-10.28180953089025
 31
0.0
210
0.0
220
0.0
230
-1.0
 40
0.57735
 41
2.356194438407663
 42
3.027296221740293
  0
ELLIPSE
  5
230
330
1FB
100
AcDbEntity
  8
0
  6
Continuous
 62
     0
370
     0
100
AcDbEllipse
 10
81.484227
 20
2672.343785
 30
0.0
 11
-6.000000312670596
 21
-10.39230466483723
 31
0.0
210
0.0
220
0.0
230
-1.0
 40
0.57735
 41
2.356194438407662
 42
3.141592624820813
  0
SPLINE
  5
231
330
1FB
100
AcDbEntity
  8
0
  6
Continuous
 62
     0
370
    30
100
AcDbSpline
210
0.0
220
0.0
230
1.0
 70
     8
 71
     3
 72
    12
 73
     8
 74
     0
 42
0.000000001
 43
0.0
 40
26.04720996762797
 40
26.04720996762797
 40
26.04720996762797
 40
26.04720996762797
 40
28.23606445647989
 40
29.56327702092856
 40
30.40705612706835
 40
31.20620834391705
 40
31.96693378152118
 40
31.96693378152118
 40
31.96693378152118
 40
31.96693378152118
 10
71.53458287790129
 20
2665.193947950493
 30
0.0
 10
71.5344956971399
 20
2665.131238514221
 30
0.0
 10
71.61694136671045
 20
2665.054659451395
 30
0.0
 10
71.87922539895726
 20
2664.962171180749
 30
0.0
 10
72.129584909291
 20
2664.878512269212
 30
0.0
 10
72.37964922167625
 20
2664.785200896688
 30
0.0
 10
72.57415005455182
 20
2664.698381551262
 30
0.0
 10
72.67751737061101
 20
2664.646487227347
 30
0.0
  0
ELLIPSE
  5
232
330
1FB
100
AcDbEntity
  8
0
  6
Continuous
 62
     0
370
     0
100
AcDbEllipse
 10
81.484227
 20
2673.976778
 30
0.0
 11
-5.000000258095671
 21
8.660253888832781
 31
0.0
210
0.0
220
0.0
230
-1.0
 40
0.57735
 41
0.6254850921895859
 42
0.7853982153476784
  0
SPLINE
  5
233
330
1FB
100
AcDbEntity
  8
0
  6
Continuous
 62
     0
370
    30
100
AcDbSpline
210
0.0
220
0.0
230
1.0
 70
     8
 71
     3
 72
    19
 73
    15
 74
     0
 42
0.000000001
 43
0.0
 40
0.9553401948527092
 40
0.9553401948527092
 40
0.9553401948527092
 40
0.9553401948527092
 40
1.397326887929738
 40
2.395928304511652
 40
3.023061100856006
 40
3.773453909343232
 40
4.587369697490498
 40
5.566239355724107
 40
6.498116677958614
 40
7.681754304579757
 40
9.001755409336393
 40
11.29685370731296
 40
12.86495997213502
 40
13.333257002672
 40
13.333257002672
 40
13.333257002672
 40
13.333257002672
 10
73.49890443481985
 20
2664.420113338629
 30
0.0
 10
73.57163828159496
 20
2664.414264205198
 30
0.0
 10
73.81780848611751
 20
2664.386321618668
 30
0.0
 10
74.21752493700865
 20
2664.293481618452
 30
0.0
 10
74.74344688565816
 20
2664.066299412908
 30
0.0
 10
75.26836073767754
 20
2663.748615695466
 30
0.0
 10
75.89573773140148
 20
2663.264204600255
 30
0.0
 10
76.56353306106007
 20
2662.671180151814
 30
0.0
 10
77.31629593923014
 20
2661.969156893068
 30
0.0
 10
78.15491317212036
 20
2661.187798378144
 30
0.0
 10
79.34630234814824
 20
2660.128242516221
 30
0.0
 10
80.6803823523378
 20
2659.066302948533
 30
0.0
 10
81.84509056506647
 20
2658.288613396187
 30
0.0
 10
82.40458330628879
 20
2657.956012986293
 30
0.0
 10
82.53384373939244
 20
2657.881384439203
 30
0.0
  0
ARC
  5
234
330
1FB
100
AcDbEntity
  8
0
  6
Continuous
 62
     0
370
    30
100
AcDbCircle
 10
73.666994
 20
2666.632965
 30
0.0
 40
2.219279606958416
100
AcDbArc
 50
243.522151
 51
265.654835
  0
LINE
  5
235
330
1FB
100
AcDbEntity
  8
0
  6
Continuous
 62
     0
370
    30
100
AcDbLine
 10
62.781594
 20
2672.81726
 30
0.0
 11
71.582907
 21
2665.099845
 31
0.0
  0
LINE
  5
236
330
1FB
100
AcDbEntity
  8
0
  6
Continuous
 62
     0
370
    30
100
AcDbLine
 10
71.72287
 20
2688.304003
 30
0.0
 11
85.578735
 21
2683.599448
 31
0.0
  0
LINE
  5
237
330
1FB
100
AcDbEntity
  8
0
  6
Continuous
 62
     0
370
    30
100
AcDbLine
 10
108.130844
 20
2670.815759
 30
0.0
 11
87.484227
 21
2682.736089
 31
0.0
  0
LINE
  5
238
330
1FB
100
AcDbEntity
  8
0
  6
Continuous
 62
     0
370
    30
100
AcDbLine
 10
96.130844
 20
2650.031149
 30
0.0
 11
82.533804
 21
2657.881404
 31
0.0
  0
ARC
  5
239
330
1FB
100
AcDbEntity
  8
0
  6
Continuous
 62
     0
370
    30
100
AcDbCircle
 10
82.14727
 20
2673.491516
 30
0.0
 40
10.67451401394059
100
AcDbArc
 50
60.001862
 51
71.248493
  0
LINE
  5
23A
330
1FB
100
AcDbEntity
  8
0
  6
Continuous
 62
     0
370
    30
100
AcDbLine
 10
71.534586
 20
2658.381765
 30
0.0
 11
71.534586
 21
2665.142215
 31
0.0
  0
LINE
  5
23B
330
1FB
100
AcDbEntity
  8
0
  6
Continuous
 62
     0
370
    30
100
AcDbLine
 10
71.551584
 20
2587.339726
 30
0.0
 11
71.551584
 21
2581.62425
 31
0.0
  0
LINE
  5
23C
330
1FB
100
AcDbEntity
  8
0
  6
Continuous
 62
     0
370
    30
100
AcDbLine
 10
94.551584
 20
2587.339726
 30
0.0
 11
94.551584
 21
2581.62425
 31
0.0
  0
LINE
  5
23D
330
1FB
100
AcDbEntity
  8
0
  6
Continuous
 62
     0
370
    30
100
AcDbLine
 10
96.880844
 20
2651.330187
 30
0.0
 11
95.851281
 21
2651.924606
 31
0.0
  0
LINE
  5
23E
330
1FB
100
AcDbEntity
  8
0
  6
Continuous
 62
     0
370
    30
100
AcDbLine
 10
107.380844
 20
2669.516721
 30
0.0
 11
106.351281
 21
2670.111139
 31
0.0
  0
LINE
  5
23F
330
1FB
100
AcDbEntity
  8
0
  6
Continuous
 62
     0
370
    30
100
AcDbLine
 10
92.983635
 20
2587.378959
 30
0.0
 11
92.983635
 21
2651.848192
 31
0.0
  0
LINE
  5
240
330
1FB
100
AcDbEntity
  8
0
  6
Continuous
 62
     0
370
    30
100
AcDbLine
 10
72.983625
 20
2587.378959
 30
0.0
 11
72.983625
 21
2655.154634
 31
0.0
  0
SPLINE
  5
241
330
1FB
100
AcDbEntity
  8
0
  6
Continuous
 62
     0
370
    30
100
AcDbSpline
210
0.0
220
0.0
230
1.0
 70
     8
 71
     3
 72
   112
 73
   108
 74
     0
 42
0.000000001
 43
0.0
 40
5.299961090976535
 40
5.299961090976535
 40
5.299961090976535
 40
5.299961090976535
 40
152.162518126715
 40
199.3850691701828
 40
234.8024556907179
 40
270.2217090984905
 40
287.931387190843
 40
305.6397378903721
 40
323.3457389797406
 40
361.3708213982677
 40
381.700703219043
 40
417.2880329446247
 40
432.5210393499142
 40
442.6630128003522
 40
452.7933386231329
 40
462.9205890617533
 40
488.2956952491102
 40
498.4965162268311
 40
503.6130027033092
 40
506.1312392018998
 40
508.6521467966826
 40
511.1741483717543
 40
516.2142653719658
 40
524.9853111088712
 40
532.4085457225025
 40
538.4998005029796
 40
543.3003968091729
 40
548.6201450881641
 40
555.5873020230517
 40
560.7383612110689
 40
566.9964469217222
 40
572.7057697488046
 40
577.3025386752927
 40
584.8313117484162
 40
588.9118970690827
 40
597.1104094985066
 40
605.3274687052083
 40
609.4320554746648
 40
617.0357927685111
 40
621.7016284539161
 40
624.6142354118022
 40
626.361319983731
 40
629.2729873627304
 40
633.9314420869272
 40
639.1688463477881
 40
646.7105306955585
 40
654.764083645577
 40
658.7635342112019
 40
666.0995097537435
 40
670.5497740327454
 40
675.7732832299491
 40
677.5729489476588
 40
680.5558426385576
 40
682.928030141353
 40
684.6983883807849
 40
688.2195451885814
 40
690.5609780399318
 40
694.714508707309
 40
698.7234637225346
 40
705.3626882581232
 40
709.1576615184836
 40
713.3764522330055
 40
717.668209092509
 40
723.9153915559228
 40
731.0936332404319
 40
736.7630974953688
 40
742.4725159799384
 40
751.6607901626795
 40
760.9160479628996
 40
770.1561347029649
 40
779.7813991374233
 40
795.2261152793302
 40
801.0143681315811
 40
804.8679318661113
 40
812.5594817055455
 40
824.0649374946294
 40
848.9148030553935
 40
860.3717150706277
 40
866.1020581244832
 40
871.8352954191394
 40
880.4410428151838
 40
889.0534281249561
 40
906.295790262284
 40
919.9556264904141
 40
926.4182210144455
 40
937.1948066512163
 40
954.4497036663614
 40
971.7145581639575
 40
999.7755907066056
 40
1014.882574065817
 40
1045.091536635719
 40
1081.329089457638
 40
1099.146455387903
 40
1132.247522261517
 40
1152.620906056379
 40
1172.985151799138
 40
1183.160558989328
 40
1190.788225040463
 40
1206.034512116948
 40
1235.096429471331
 40
1245.99952595107
 40
1251.448973556261
 40
1273.235595568445
 40
1289.569010880118
 40
1295.013208457395
 40
1300.457575010803
 40
1300.599733077154
 40
1300.599733077154
 40
1300.599733077154
 40
1300.599733077154
 10
72.3829552604485
 20
2534.731485432319
 30
0.0
 10
72.38289412239283
 20
2494.760583369895
 30
0.0
 10
72.38265973484296
 20
2441.937237419281
 30
0.0
 10
72.38275735619732
 20
2379.474884058076
 30
0.0
 10
72.38510504611895
 20
2347.34190285675
 30
0.0
 10
72.38143598870056
 20
2323.243964322824
 30
0.0
 10
72.37840950433633
 20
2303.966494123481
 30
0.0
 10
72.37900015137666
 20
2289.508275497187
 30
0.0
 10
72.38812084857398
 20
2269.517386717801
 30
0.0
 10
72.40639050948289
 20
2248.805737716394
 30
0.0
 10
72.37969902564078
 20
2223.243975760275
 30
0.0
 10
72.31298480191754
 20
2203.916760509443
 30
0.0
 10
72.33216076965095
 20
2187.325366787802
 30
0.0
 10
72.37889817972336
 20
2177.647469841633
 30
0.0
 10
72.44932684465061
 20
2169.343060929752
 30
0.0
 10
72.56542887660589
 20
2156.860916964582
 30
0.0
 10
72.63825407775585
 20
2144.364280758647
 30
0.0
 10
72.52916225615752
 20
2133.313600189
 30
0.0
 10
72.43898550256154
 20
2128.491305861805
 30
0.0
 10
72.3740998133851
 20
2125.751423322645
 30
0.0
 10
72.31933252179351
 20
2123.717751099476
 30
0.0
 10
72.2419056704573
 20
2121.013275832119
 30
0.0
 10
72.11480838847558
 20
2116.644504731288
 30
0.0
 10
71.9888341548724
 20
2110.968145743264
 30
0.0
 10
72.00147518255267
 20
2104.957087361849
 30
0.0
 10
72.17409382310302
 20
2099.945388330648
 30
0.0
 10
72.4848215950392
 20
2095.438438877185
 30
0.0
 10
73.00348258185522
 20
2090.605252985417
 30
0.0
 10
73.82476816418398
 20
2085.55632410925
 30
0.0
 10
75.07270704472285
 20
2080.115617793624
 30
0.0
 10
76.61926155485241
 20
2074.963450969489
 30
0.0
 10
78.54159860603818
 20
2069.949240261714
 30
0.0
 10
80.95916002023523
 20
2064.590788137354
 30
0.0
 10
83.49074282742174
 20
2059.814481078663
 30
0.0
 10
86.91148693538219
 20
2054.165158573041
 30
0.0
 10
90.7736739411655
 20
2048.567484329508
 30
0.0
 10
94.9850265243715
 20
2043.404818263795
 30
0.0
 10
99.26133703627295
 20
2038.798481112221
 30
0.0
 10
102.894350664744
 20
2035.366782254221
 30
0.0
 10
106.3192738923869
 20
2032.598507585883
 30
0.0
 10
108.427248444782
 20
2031.07177552776
 30
0.0
 10
110.1342994611116
 20
2029.924403331979
 30
0.0
 10
112.2291754562859
 20
2028.625231805975
 30
0.0
 10
115.0820107852072
 20
2027.088317671771
 30
0.0
 10
118.881932237843
 20
2025.429489884105
 30
0.0
 10
123.2341105951216
 20
2024.096000428404
 30
0.0
 10
127.0208902652089
 20
2023.549132310824
 30
0.0
 10
130.4577104289831
 20
2023.513694412571
 30
0.0
 10
132.9892633733625
 20
2023.855435409632
 30
0.0
 10
135.3743127631427
 20
2024.599272434729
 30
0.0
 10
136.7896665663707
 20
2025.296384119978
 30
0.0
 10
137.9080807513349
 20
2026.02782267011
 30
0.0
 10
138.6543171657388
 20
2026.613785340656
 30
0.0
 10
139.3401906640809
 20
2027.272314653651
 30
0.0
 10
140.0385550667179
 20
2028.056830091781
 30
0.0
 10
140.7017959419202
 20
2028.961298268683
 30
0.0
 10
141.5155463245089
 20
2030.33902667553
 30
0.0
 10
142.2953168617795
 20
2032.011576227297
 30
0.0
 10
143.2328579960223
 20
2034.750737446843
 30
0.0
 10
143.9144128920525
 20
2037.848701291497
 30
0.0
 10
144.3668014116496
 20
2041.300019935914
 30
0.0
 10
144.5999424634696
 20
2044.360511622333
 30
0.0
 10
144.7051977053842
 20
2048.194140550985
 30
0.0
 10
144.5949415600726
 20
2052.987151574361
 30
0.0
 10
144.1953711712019
 20
2058.337837293681
 30
0.0
 10
143.5873633431233
 20
2063.655550018218
 30
0.0
 10
142.72475274743
 20
2069.635969263636
 30
0.0
 10
141.4579417727962
 20
2076.757887626272
 30
0.0
 10
139.7261019079768
 20
2085.005668736572
 30
0.0
 10
137.7581929036894
 20
2093.434807154199
 30
0.0
 10
135.1842866841115
 20
2103.755966211155
 30
0.0
 10
132.763669989051
 20
2113.061907226357
 30
0.0
 10
130.8295221499959
 20
2120.628283517773
 30
0.0
 10
129.5167837732821
 20
2125.855235538879
 30
0.0
 10
127.8192453501225
 20
2132.798426011952
 30
0.0
 10
124.7015386897214
 20
2146.041550958274
 30
0.0
 10
121.5016474560173
 20
2160.374821410323
 30
0.0
 10
118.6967372585011
 20
2172.968940363163
 30
0.0
 10
117.1512801037031
 20
2179.837719353977
 30
0.0
 10
115.7825846741001
 20
2185.854825861988
 30
0.0
 10
114.1985117966294
 20
2192.741088113931
 30
0.0
 10
111.8016864452218
 20
2203.085397263564
 30
0.0
 10
109.0463691769996
 20
2214.950246472821
 30
0.0
 10
106.4898697480164
 20
2226.161441380387
 30
0.0
 10
104.4257025332915
 20
2235.4229073363
 30
0.0
 10
102.1823651088545
 20
2245.749394405363
 30
0.0
 10
99.37972132680534
 20
2259.274277445097
 30
0.0
 10
95.74939605378756
 20
2277.895860897611
 30
0.0
 10
92.55454068177914
 20
2295.788740396037
 30
0.0
 10
89.04057834244759
 20
2317.395516444443
 30
0.0
 10
85.561856866796
 20
2341.263863554069
 30
0.0
 10
82.6181994302234
 20
2365.68040824391
 30
0.0
 10
80.12032168281303
 20
2390.705816911426
 30
0.0
 10
78.49509967855852
 20
2410.991712786953
 30
0.0
 10
77.27030290653317
 20
2431.785052056199
 30
0.0
 10
76.67490091771481
 20
2445.998856412892
 30
0.0
 10
76.37216053214206
 20
2456.580086867965
 30
0.0
 10
76.18434176965957
 20
2465.70207581384
 30
0.0
 10
76.02138907644667
 20
2479.95661460478
 30
0.0
 10
76.03308425850173
 20
2494.990341922248
 30
0.0
 10
76.05810091420153
 20
2507.334754580174
 30
0.0
 10
76.06784635337942
 20
2517.704393690219
 30
0.0
 10
76.05689094465606
 20
2529.566689638506
 30
0.0
 10
76.04442892330042
 20
2541.431807770522
 30
0.0
 10
76.04294406922486
 20
2548.843650023637
 30
0.0
 10
76.04492037871083
 20
2551.845862305259
 30
0.0
 10
76.04585082576456
 20
2553.366389161697
 30
0.0
 10
76.04587451460182
 20
2553.405081407906
 30
0.0
  0
SPLINE
  5
242
330
1FB
100
AcDbEntity
  8
0
  6
Continuous
 62
     0
370
    30
100
AcDbSpline
210
0.0
220
0.0
230
1.0
 70
     8
 71
     3
 72
   116
 73
   112
 74
     0
 42
0.000000001
 43
0.0
 40
5.299983465372167
 40
5.299983465372167
 40
5.299983465372167
 40
5.299983465372167
 40
104.9395733850618
 40
152.1630228731524
 40
199.3847897317779
 40
234.8030752078274
 40
270.2290955670387
 40
305.6500355201381
 40
323.3480255620763
 40
361.3576827855688
 40
371.529353597473
 40
381.7141246190376
 40
391.9105040785278
 40
407.2029801927301
 40
412.2939951546464
 40
422.4574767845281
 40
435.1120514831379
 40
442.6696613841976
 40
452.7052802999613
 40
462.7280648112935
 40
475.3042793574789
 40
488.0137819070193
 40
497.0377347586028
 40
503.5683815723509
 40
508.7427014837596
 40
511.3470878887934
 40
515.2690081167959
 40
523.140432038477
 40
525.7645210540333
 40
529.694077382467
 40
535.5621857495902
 40
541.3850698512921
 40
546.5152347676425
 40
554.759175139103
 40
561.6677599969335
 40
567.9378014075961
 40
570.4561237743462
 40
573.6217236138679
 40
581.307582702723
 40
587.149605697239
 40
595.0281830690301
 40
608.3251027345254
 40
617.7064413694484
 40
622.4096952338232
 40
631.1631464754587
 40
636.5675906783713
 40
639.2781100623172
 40
642.6763563477716
 40
646.0870866233078
 40
650.8842053627653
 40
656.3973349312788
 40
665.414003301223
 40
673.0753295285084
 40
680.0262933978004
 40
686.9564580004078
 40
694.5283819609682
 40
701.5965067958459
 40
705.903057511403
 40
707.5090040719894
 40
709.1098045943987
 40
710.7046159736224
 40
712.6435360556079
 40
716.1458642647224
 40
719.6330841403837
 40
725.2842028083832
 40
730.3896511047719
 40
737.4178362083466
 40
744.4846023628279
 40
752.4748824405308
 40
762.2592364916412
 40
771.0956734150448
 40
778.3070586135059
 40
785.0254816499516
 40
790.3311556261062
 40
798.2016199094376
 40
808.581039643139
 40
820.6387376513562
 40
831.8519367926591
 40
838.8719646567077
 40
845.9150254425579
 40
857.2316144913547
 40
871.4414940191892
 40
882.8410631970386
 40
894.2495242143051
 40
899.951393481336
 40
905.6488228428665
 40
914.0692361966013
 40
943.4693173452192
 40
962.3263194195545
 40
972.7944000407239
 40
989.5366961905157
 40
1006.273545087207
 40
1033.467420808596
 40
1052.359324296521
 40
1085.162903987709
 40
1120.488695174107
 40
1138.148999247312
 40
1153.283890452611
 40
1170.938079636977
 40
1191.114997031384
 40
1205.474747168795
 40
1216.149410298649
 40
1222.55683038878
 40
1237.516530562841
 40
1256.76987369431
 40
1265.33347335098
 40
1273.900600802298
 40
1282.470833078262
 40
1303.906713493002
 40
1321.061285798742
 40
1322.986051942144
 40
1322.986051942144
 40
1322.986051942144
 40
1322.986051942144
 10
58.38295768762502
 20
2534.731473096883
 30
0.0
 10
58.38295183345187
 20
2507.61301112401
 30
0.0
 10
58.38340601837836
 20
2467.641602836245
 30
0.0
 10
58.38253452184927
 20
2414.819125279538
 30
0.0
 10
58.38275026526503
 20
2379.474331500621
 30
0.0
 10
58.3854553022004
 20
2347.339288300062
 30
0.0
 10
58.38035689088201
 20
2318.4215156699
 30
0.0
 10
58.37572437155211
 20
2294.324695173261
 30
0.0
 10
58.38908936432472
 20
2269.5118975289
 30
0.0
 10
58.40703349290504
 20
2251.572335671861
 30
0.0
 10
58.39478821766431
 20
2235.698359383485
 30
0.0
 10
58.3799643479872
 20
2227.395053137696
 30
0.0
 10
58.35275737742518
 20
2217.704268169196
 30
0.0
 10
58.32895441873598
 20
2209.394840211053
 30
0.0
 10
58.31546408605027
 20
2201.085978823713
 30
0.0
 10
58.31274709050581
 20
2193.487184880725
 30
0.0
 10
58.33367194827838
 20
2185.200153661569
 30
0.0
 10
58.38519136080401
 20
2176.925831090627
 30
0.0
 10
58.4609622416508
 20
2169.356781412347
 30
0.0
 10
58.5591827824004
 20
2160.416312818139
 30
0.0
 10
58.63952745982829
 20
2150.769180289491
 30
0.0
 10
58.641664563532
 20
2141.452807985066
 30
0.0
 10
58.55873873297128
 20
2133.838368355599
 30
0.0
 10
58.44495558452559
 20
2128.29074766439
 30
0.0
 10
58.33330840132908
 20
2124.484480728402
 30
0.0
 10
58.23172068191514
 20
2121.367779360052
 30
0.0
 10
58.10567224092642
 20
2117.524571643868
 30
0.0
 10
57.9971747381137
 20
2113.648659441901
 30
0.0
 10
57.94112215520249
 20
2109.726291233782
 30
0.0
 10
57.92784571280595
 20
2106.321608006479
 30
0.0
 10
57.99637823926378
 20
2101.980772048927
 30
0.0
 10
58.21915579072811
 20
2097.216413223857
 30
0.0
 10
58.67737525114615
 20
2091.674240185889
 30
0.0
 10
59.47798854982034
 20
2085.679521639328
 30
0.0
 10
60.80389937709526
 20
2079.203200067138
 30
0.0
 10
62.12769245420293
 20
2074.399642474668
 30
0.0
 10
63.327182447214
 20
2070.736641306919
 30
0.0
 10
64.80890465199082
 20
2066.645632130604
 30
0.0
 10
66.9716462946692
 20
2061.577477371082
 30
0.0
 10
70.16749699230945
 20
2055.211739415511
 30
0.0
 10
74.68216060377506
 20
2047.403948399095
 30
0.0
 10
80.50912752227202
 20
2039.086098327895
 30
0.0
 10
86.27969300143377
 20
2032.315259892123
 30
0.0
 10
91.33377043064627
 20
2027.103393636712
 30
0.0
 10
95.68055709326791
 20
2023.179035566326
 30
0.0
 10
99.69730995876284
 20
2020.098342133072
 30
0.0
 10
102.4812170552857
 20
2018.182910934307
 30
0.0
 10
104.8022956927038
 20
2016.722502959995
 30
0.0
 10
107.6502823259191
 20
2015.109725607534
 30
0.0
 10
111.0334557374081
 20
2013.442882997415
 30
0.0
 10
115.80630346978
 20
2011.520454631552
 30
0.0
 10
121.2646988878104
 20
2010.004763185031
 30
0.0
 10
126.9924624777281
 20
2009.260843691685
 30
0.0
 10
132.1061695508422
 20
2009.315613985878
 30
0.0
 10
137.0476008259903
 20
2010.114844519343
 30
0.0
 10
141.7786927391519
 20
2011.769878400658
 30
0.0
 10
145.6006256276528
 20
2014.043436936942
 30
0.0
 10
147.955458111573
 20
2016.048444538763
 30
0.0
 10
149.2218795526901
 20
2017.339450881575
 30
0.0
 10
149.9958314303634
 20
2018.209370178995
 30
0.0
 10
150.7793205688932
 20
2019.179487732584
 30
0.0
 10
151.7871990615185
 20
2020.565319070889
 30
0.0
 10
152.9385884966944
 20
2022.423460866348
 30
0.0
 10
154.3473849320371
 20
2025.205541632016
 30
0.0
 10
155.6304828727068
 20
2028.527154115516
 30
0.0
 10
156.8420112300502
 20
2032.886792772728
 30
0.0
 10
157.7338217774407
 20
2037.804953130358
 30
0.0
 10
158.2954257990023
 20
2043.682852781889
 30
0.0
 10
158.4567570674214
 20
2050.505999470599
 30
0.0
 10
158.1323986434962
 20
2058.023792616615
 30
0.0
 10
157.4010579747617
 20
2065.47994237485
 30
0.0
 10
156.4840958656335
 20
2072.145085442582
 30
0.0
 10
155.5280887396775
 20
2077.834126467725
 30
0.0
 10
154.3939054039588
 20
2083.759496895658
 30
0.0
 10
152.8827085538666
 20
2090.818714761892
 30
0.0
 10
150.6983556758514
 20
2099.954046518472
 30
0.0
 10
148.0663089631861
 20
2110.13134752534
 30
0.0
 10
145.6430116653204
 20
2119.294520016273
 30
0.0
 10
143.6715081124856
 20
2126.923684247059
 30
0.0
 10
141.7711464388758
 20
2134.565119013419
 30
0.0
 10
139.4426289678031
 20
2144.349484941366
 30
0.0
 10
136.9252510019512
 20
2155.415757929904
 30
0.0
 10
134.4617278109439
 20
2166.498068793513
 30
0.0
 10
132.5714954648911
 20
2175.034114634876
 30
0.0
 10
131.0435307524774
 20
2181.868581266736
 30
0.0
 10
129.6996843866747
 20
2187.812632592473
 30
0.0
 10
126.7076915052295
 20
2200.871846474947
 30
0.0
 10
122.7251566652608
 20
2217.895863030623
 30
0.0
 10
118.7332418858512
 20
2235.497655548585
 30
0.0
 10
115.7472532032708
 20
2249.265896107685
 30
0.0
 10
113.0370026984044
 20
2262.364834818683
 30
0.0
 10
109.5278459009357
 20
2280.38322755163
 30
0.0
 10
106.2120970547574
 20
2298.94430862539
 30
0.0
 10
102.4678805580052
 20
2322.112883705785
 30
0.0
 10
98.86001359458282
 20
2347.483580832479
 30
0.0
 10
95.99038558795883
 20
2372.221951629818
 30
0.0
 10
94.13306712096664
 20
2391.68054038119
 30
0.0
 10
92.94955606133294
 20
2406.003193822334
 30
0.0
 10
91.90764657099464
 20
2420.944371619285
 30
0.0
 10
91.11515384734525
 20
2435.54904071094
 30
0.0
 10
90.61928122337622
 20
2448.100191922006
 30
0.0
 10
90.37221532806325
 20
2456.77519779246
 30
0.0
 10
90.18971359631018
 20
2465.57791527403
 30
0.0
 10
90.05641344704429
 20
2476.68842026562
 30
0.0
 10
90.02985192946312
 20
2488.332571825646
 30
0.0
 10
90.04056238176281
 20
2498.224155732154
 30
0.0
 10
90.05406363549457
 20
2505.210672053497
 30
0.0
 10
90.0688473050501
 20
2515.705037033742
 30
0.0
 10
90.05815155517644
 20
2528.549822843842
 30
0.0
 10
90.04609259784498
 20
2539.582563763186
 30
0.0
 10
90.04397346293335
 20
2544.775274715564
 30
0.0
 10
90.04380631181874
 20
2545.29909191677
 30
0.0
  0
ELLIPSE
  5
243
330
1FB
100
AcDbEntity
  8
0
  6
Continuous
 62
     0
370
    30
100
AcDbEllipse
 10
83.051584
 20
2581.407619
 30
0.0
 11
11.5
 21
-3.297918799161081E-9
 31
0.0
210
0.0
220
0.0
230
-1.0
 40
0.57735
 41
6.266870899583806
 42
8.97612692392739
  0
ELLIPSE
  5
244
330
1FB
100
AcDbEntity
  8
0
  6
Continuous
 62
     0
370
    30
100
AcDbEllipse
 10
83.051584
 20
2581.407619
 30
0.0
 11
11.5
 21
-3.297918799161081E-9
 31
0.0
210
0.0
220
0.0
230
-1.0
 40
0.57735
 41
2.692941616747804
 42
3.157907078464752
  0
ELLIPSE
  5
245
330
1FB
100
AcDbEntity
  8
0
  6
Continuous
 62
     0
370
     0
100
AcDbEllipse
 10
83.051584
 20
2558.123932
 30
0.0
 11
10.55400769150959
 21
-3.026632508453722E-9
 31
0.0
210
0.0
220
0.0
230
-1.0
 40
0.57735
 41
1.758091730957996
 42
2.692941616747803
  0
SPLINE
  5
246
330
1FB
100
AcDbEntity
  8
0
  6
Continuous
 62
     0
370
    30
100
AcDbSpline
210
0.0
220
0.0
230
1.0
 70
     8
 71
     3
 72
    12
 73
     8
 74
     0
 42
0.000000001
 43
0.0
 40
18.05543508158544
 40
18.05543508158544
 40
18.05543508158544
 40
18.05543508158544
 40
19.89930312313919
 40
22.12886213143737
 40
25.5906116162149
 40
26.87921053413654
 40
27.79987518838567
 40
27.79987518838567
 40
27.79987518838567
 40
27.79987518838567
 10
81.14795927522745
 20
2551.934741782407
 30
0.0
 10
80.54346040312727
 20
2552.000124744673
 30
0.0
 10
79.22932054147998
 20
2552.213164989019
 30
0.0
 10
76.96780842785961
 20
2552.877361085265
 30
0.0
 10
75.20990819501935
 20
2553.81088208915
 30
0.0
 10
74.11092225033588
 20
2554.741704618817
 30
0.0
 10
73.7476425026033
 20
2555.132322623665
 30
0.0
 10
73.60831976468808
 20
2555.29941712509
 30
0.0
  0
SPLINE
  5
247
330
1FB
100
AcDbEntity
  8
0
  6
Continuous
 62
     0
370
    30
100
AcDbSpline
210
0.0
220
0.0
230
1.0
 70
     8
 71
     3
 72
    11
 73
     7
 74
     0
 42
0.000000001
 43
0.0
 40
0.0
 40
0.0
 40
0.0
 40
0.0
 40
0.8775443466810653
 40
2.177643996916764
 40
3.517860856012152
 40
4.482675961493786
 40
4.482675961493786
 40
4.482675961493786
 40
4.482675961493786
 10
72.50048005895292
 20
2557.980999297225
 30
0.0
 10
72.50797113063027
 20
2557.796672380595
 30
0.0
 10
72.55947273545985
 20
2557.33974110768
 30
0.0
 10
72.77273549013353
 20
2556.615082203644
 30
0.0
 10
73.14475262843962
 20
2555.904632841311
 30
0.0
 10
73.46232172777411
 20
2555.474517694732
 30
0.0
 10
73.60831811742344
 20
2555.299419100729
 30
0.0
  0
LINE
  5
248
330
1FB
100
AcDbEntity
  8
0
  6
Continuous
 62
     0
370
    30
100
AcDbLine
 10
71.554748
 20
2581.251875
 30
0.0
 11
71.732591
 21
2576.875831
 31
0.0
  0
LINE
  5
249
330
1FB
100
AcDbEntity
  8
0
  6
Continuous
 62
     0
370
    30
100
AcDbLine
 10
94.548419
 20
2581.251875
 30
0.0
 11
94.266058
 21
2574.304031
 31
0.0
  0
ELLIPSE
  5
24A
330
1FB
100
AcDbEntity
  8
0
  6
Continuous
 62
     0
370
    30
100
AcDbEllipse
 10
65.382961
 20
2562.737286
 30
0.0
 11
11.5
 21
-3.297918799161081E-9
 31
0.0
210
0.0
220
0.0
230
-1.0
 40
0.57735
 41
1.208358625897746
 42
1.464084567680149
  0
ELLIPSE
  5
24B
330
1FB
100
AcDbEntity
  8
0
  6
Continuous
 62
     0
370
    30
100
AcDbEllipse
 10
65.382961
 20
2562.737286
 30
0.0
 11
11.5
 21
-3.297918799161081E-9
 31
0.0
210
0.0
220
0.0
230
-1.0
 40
0.57735
 41
1.464084567680149
 42
3.274412095840583
  0
ELLIPSE
  5
24C
330
1FB
100
AcDbEntity
  8
0
  6
Continuous
 62
     0
370
    30
100
AcDbEllipse
 10
65.382961
 20
2561.920789
 30
0.0
 11
-9.5
 21
2.724367703654806E-9
 31
0.0
210
0.0
220
0.0
230
1.0
 40
0.57735
 41
0.5709792358566226
 42
0.7340615283303054
  0
ELLIPSE
  5
24D
330
1FB
100
AcDbEntity
  8
0
  6
Continuous
 62
     0
370
    30
100
AcDbEllipse
 10
65.382961
 20
2562.737286
 30
0.0
 11
-10.5
 21
3.011143251407944E-9
 31
0.0
210
0.0
220
0.0
230
1.0
 40
0.57735
 41
0.5395380084443442
 42
1.677508085909643
  0
ELLIPSE
  5
24E
330
1FB
100
AcDbEntity
  8
0
  6
Continuous
 62
     0
370
    30
100
AcDbEllipse
 10
65.382961
 20
2562.737286
 30
0.0
 11
-10.5
 21
3.011143251407944E-9
 31
0.0
210
0.0
220
0.0
230
1.0
 40
0.57735
 41
1.677508085909643
 42
1.889929150049458
  0
ELLIPSE
  5
24F
330
1FB
100
AcDbEntity
  8
0
  6
Continuous
 62
     0
370
     0
100
AcDbEllipse
 10
65.382961
 20
2539.453599
 30
0.0
 11
10.55400769150958
 21
-3.026630750858370E-9
 31
0.0
210
0.0
220
0.0
230
-1.0
 40
0.57735
 41
0.0234593094632581
 42
1.46408456768015
  0
ELLIPSE
  5
250
330
1FB
100
AcDbEntity
  8
0
  6
Continuous
 62
     0
370
     0
100
AcDbEllipse
 10
65.382961
 20
2539.453599
 30
0.0
 11
10.55400769150958
 21
-3.026630750858370E-9
 31
0.0
210
0.0
220
0.0
230
-1.0
 40
0.57735
 41
1.46408456768015
 42
3.118133361405907
  0
SPLINE
  5
251
330
1FB
100
AcDbEntity
  8
0
  6
Continuous
 62
     0
370
    30
100
AcDbSpline
210
0.0
220
0.0
230
1.0
 70
     8
 71
     3
 72
    15
 73
    11
 74
     0
 42
0.000000001
 43
0.0
 40
0.0
 40
0.0
 40
0.0
 40
0.0
 40
1.237546581503426
 40
2.994390476394671
 40
4.652730068869262
 40
7.047669844514608
 40
9.304511461974535
 40
11.6944863588232
 40
13.74106584259973
 40
15.0374910131646
 40
15.0374910131646
 40
15.0374910131646
 40
15.0374910131646
 10
75.93406509410443
 20
2539.310665647648
 30
0.0
 10
75.92350440944733
 20
2539.050807354167
 30
0.0
 10
75.83401719459198
 20
2538.422778151688
 30
0.0
 10
75.46085617648293
 20
2537.479077758705
 30
0.0
 10
74.6883098851024
 20
2536.383388111218
 30
0.0
 10
73.49139295359669
 20
2535.32929615225
 30
0.0
 10
71.76798097119115
 20
2534.368187933544
 30
0.0
 10
69.83527351681323
 20
2533.692259302125
 30
0.0
 10
68.01577570181973
 20
2533.331540452494
 30
0.0
 10
66.91421452437726
 20
2533.222827412445
 30
0.0
 10
66.48470020478862
 20
2533.196264096
 30
0.0
  0
SPLINE
  5
252
330
1FB
100
AcDbEntity
  8
0
  6
Continuous
 62
     0
370
    30
100
AcDbSpline
210
0.0
220
0.0
230
1.0
 70
     8
 71
     3
 72
    15
 73
    11
 74
     0
 42
0.000000001
 43
0.0
 40
0.0
 40
0.0
 40
0.0
 40
0.0
 40
1.420504369822913
 40
3.209809798351458
 40
4.926121173933802
 40
8.311135023953
 40
10.74057207032242
 40
13.55922922944623
 40
15.94332885401969
 40
17.2449755880558
 40
17.2449755880558
 40
17.2449755880558
 40
17.2449755880558
 10
54.83185772459012
 20
2539.31066575896
 30
0.0
 10
54.84397711954944
 20
2539.012453326813
 30
0.0
 10
54.9501217539555
 20
2538.339415640854
 30
0.0
 10
55.37701721117253
 20
2537.347014942752
 30
0.0
 10
56.34259087606188
 20
2536.063769989318
 30
0.0
 10
57.92722759013975
 20
2534.871693317012
 30
0.0
 10
60.27508012971964
 20
2533.865929900618
 30
0.0
 10
62.66029944033721
 20
2533.307109002128
 30
0.0
 10
64.8231189234483
 20
2533.138418385801
 30
0.0
 10
66.0534578446102
 20
2533.16959391347
 30
0.0
 10
66.48470001669966
 20
2533.196264084362
 30
0.0
  0
LINE
  5
253
330
1FB
100
AcDbEntity
  8
0
  6
Continuous
 62
     0
370
    30
100
AcDbLine
 10
53.886126
 20
2562.581541
 30
0.0
 11
54.831858
 21
2539.310666
 31
0.0
  0
LINE
  5
254
330
1FB
100
AcDbEntity
  8
0
  6
Continuous
 62
     0
370
    30
100
AcDbLine
 10
76.045366
 20
2542.049353
 30
0.0
 11
75.934065
 21
2539.310666
 31
0.0
  0
ELLIPSE
  5
255
330
1FB
100
AcDbEntity
  8
0
  6
Continuous
 62
     0
370
    30
100
AcDbEllipse
 10
97.124164
 20
2623.774964
 30
0.0
 11
-11.2500005863033
 21
-19.48557124664749
 31
0.0
210
0.0
220
0.0
230
-1.0
 40
0.57735
 41
3.261300807512504
 42
3.330434827021614
  0
ELLIPSE
  5
256
330
1FB
100
AcDbEntity
  8
0
  6
Continuous
 62
     0
370
    30
100
AcDbEllipse
 10
96.275636
 20
2624.264862
 30
0.0
 11
-11.2500005863033
 21
-19.48557124664749
 31
0.0
210
0.0
220
0.0
230
-1.0
 40
0.57735
 41
3.299381409337284
 42
3.330434827021615
  0
ELLIPSE
  5
257
330
1FB
100
AcDbEntity
  8
0
  6
Continuous
 62
     0
370
    30
100
AcDbEllipse
 10
99.81117
 20
2622.22362
 30
0.0
 11
-11.2500005863033
 21
-19.48557124664749
 31
0.0
210
0.0
220
0.0
230
-1.0
 40
0.57735
 41
1.912656886728984
 42
3.330434827021616
  0
ELLIPSE
  5
258
330
1FB
100
AcDbEntity
  8
0
  6
Continuous
 62
     0
370
    30
100
AcDbEllipse
 10
98.962641
 20
2622.713518
 30
0.0
 11
-11.2500005863033
 21
-19.48557124664749
 31
0.0
210
0.0
220
0.0
230
-1.0
 40
0.57735
 41
3.179313932969728
 42
3.330434827021615
  0
ELLIPSE
  5
259
330
1FB
100
AcDbEntity
  8
0
  6
Continuous
 62
     0
370
     0
100
AcDbEllipse
 10
99.81117
 20
2622.22362
 30
0.0
 11
-14.75000076870877
 21
-25.54774896782671
 31
0.0
210
0.0
220
0.0
230
-1.0
 40
0.57735
 41
2.022741003052583
 42
3.469025048034982
  0
ELLIPSE
  5
25A
330
1FB
100
AcDbEntity
  8
0
  6
Continuous
 62
     0
370
     0
100
AcDbEllipse
 10
99.81117
 20
2622.22362
 30
0.0
 11
-14.75000076870877
 21
-25.54774896782671
 31
0.0
210
0.0
220
0.0
230
-1.0
 40
0.57735
 41
5.559170706720329
 42
5.83124052735239
  0
ELLIPSE
  5
25B
330
1FB
100
AcDbEntity
  8
0
  6
Continuous
 62
     0
370
     0
100
AcDbEllipse
 10
99.81117
 20
2622.22362
 30
0.0
 11
-14.75000076870877
 21
-25.54774896782671
 31
0.0
210
0.0
220
0.0
230
-1.0
 40
0.57735
 41
3.469025048034982
 42
3.865607161799782
  0
ELLIPSE
  5
25C
330
1FB
100
AcDbEntity
  8
0
  6
Continuous
 62
     0
370
     0
100
AcDbEllipse
 10
99.457616
 20
2622.427744
 30
0.0
 11
-15.00000078173774
 21
-25.98076166219665
 31
0.0
210
0.0
220
0.0
230
-1.0
 40
0.57735
 41
2.046060295715108
 42
3.469025048034983
  0
ELLIPSE
  5
25D
330
1FB
100
AcDbEntity
  8
0
  6
Continuous
 62
     0
370
     0
100
AcDbEllipse
 10
96.629189
 20
2624.060737
 30
0.0
 11
-15.00000078173774
 21
-25.98076166219665
 31
0.0
210
0.0
220
0.0
230
-1.0
 40
0.57735
 41
2.653203682606899
 42
3.141592624820814
  0
ELLIPSE
  5
25E
330
1FB
100
AcDbEntity
  8
0
  6
Continuous
 62
     0
370
     0
100
AcDbEllipse
 10
96.629189
 20
2624.060737
 30
0.0
 11
-15.00000078173774
 21
-25.98076166219665
 31
0.0
210
0.0
220
0.0
230
-1.0
 40
0.57735
 41
2.183484045222184
 42
2.437463153700522
  0
SPLINE
  5
25F
330
1FB
100
AcDbEntity
  8
0
  6
Continuous
 62
     0
370
    30
100
AcDbSpline
210
0.0
220
0.0
230
1.0
 70
     8
 71
     3
 72
     9
 73
     5
 74
     0
 42
0.000000001
 43
0.0
 40
21.1422330479195
 40
21.1422330479195
 40
21.1422330479195
 40
21.1422330479195
 40
24.08948442423465
 40
28.31485045752835
 40
28.31485045752835
 40
28.31485045752835
 40
28.31485045752835
 10
98.06550928425982
 20
2649.476098760325
 30
0.0
 10
97.3676756771331
 20
2649.137514295043
 30
0.0
 10
95.66490536374255
 20
2648.214176415308
 30
0.0
 10
93.96994857836782
 20
2647.057949177783
 30
0.0
 10
92.98363541634777
 20
2646.303619589922
 30
0.0
  0
SPLINE
  5
260
330
1FB
100
AcDbEntity
  8
0
  6
Continuous
 62
     0
370
    30
100
AcDbSpline
210
0.0
220
0.0
230
1.0
 70
     8
 71
     3
 72
    10
 73
     6
 74
     0
 42
0.000000001
 43
0.0
 40
0.0
 40
0.0
 40
0.0
 40
0.0
 40
5.143388332342943
 40
13.99155872458613
 40
14.07184745127378
 40
14.07184745127378
 40
14.07184745127378
 40
14.07184745127378
 10
111.6291893936493
 20
2650.041499315141
 30
0.0
 10
110.7447339391347
 20
2650.552139888508
 30
0.0
 10
108.1262456843351
 20
2651.585497739133
 30
0.0
 10
105.0620757320959
 20
2651.593789893338
 30
0.0
 10
103.0306519727059
 20
2651.191124064876
 30
0.0
 10
103.0123775047219
 20
2651.187470155916
 30
0.0
  0
SPLINE
  5
261
330
1FB
100
AcDbEntity
  8
0
  6
Continuous
 62
     0
370
    30
100
AcDbSpline
210
0.0
220
0.0
230
1.0
 70
     8
 71
     3
 72
     9
 73
     5
 74
     0
 42
0.000000001
 43
0.0
 40
61.9456648521162
 40
61.9456648521162
 40
61.9456648521162
 40
61.9456648521162
 40
67.84132996202099
 40
70.0910953780787
 40
70.0910953780787
 40
70.0910953780787
 40
70.0910953780787
 10
98.69136693979436
 20
2597.351257074631
 30
0.0
 10
97.29359197326329
 20
2596.621452099127
 30
0.0
 10
95.36682851588347
 20
2595.834676822928
 30
0.0
 10
93.49503700393689
 20
2595.382532678667
 30
0.0
 10
92.98363534497439
 20
2595.283404452045
 30
0.0
  0
SPLINE
  5
262
330
1FB
100
AcDbEntity
  8
0
  6
Continuous
 62
     0
370
    30
100
AcDbSpline
210
0.0
220
0.0
230
1.0
 70
     8
 71
     3
 72
     9
 73
     5
 74
     0
 42
0.000000001
 43
0.0
 40
0.0
 40
0.0
 40
0.0
 40
0.0
 40
6.699384953301883
 40
12.26503267617322
 40
12.26503267617322
 40
12.26503267617322
 40
12.26503267617322
 10
118.6028003297689
 20
2644.125794811439
 30
0.0
 10
119.3151547482067
 20
2642.868323613812
 30
0.0
 10
120.3196661304591
 20
2640.230699873599
 30
0.0
 10
120.7290275105269
 20
2637.116151648334
 30
0.0
 10
120.7922193919006
 20
2635.629087758491
 30
0.0
  0
ARC
  5
263
330
1FB
100
AcDbEntity
  8
0
  6
Continuous
 62
     0
370
    30
100
AcDbCircle
 10
108.74174
 20
2638.728787
 30
0.0
 40
11.24136146732055
100
AcDbArc
 50
28.692109
 51
59.438138
  0
LINE
  5
264
330
1FB
100
AcDbEntity
  8
0
  6
Continuous
 62
     0
370
    30
100
AcDbLine
 10
111.629189
 20
2650.041499
 30
0.0
 11
114.457617
 21
2648.408506
 31
0.0
  0
SPLINE
  5
265
330
1FB
100
AcDbEntity
  8
0
  6
Continuous
 62
     0
370
     0
100
AcDbSpline
210
0.0
220
0.0
230
1.0
 70
     8
 71
     3
 72
    13
 73
     9
 74
     0
 42
0.000000001
 43
0.0
 40
0.0
 40
0.0
 40
0.0
 40
0.0
 40
1.010011404796304
 40
2.020022809592608
 40
4.040045619185215
 40
6.103201885532513
 40
7.134780018706163
 40
8.166358151879813
 40
8.166358151879813
 40
8.166358151879813
 40
8.166358151879813
 10
145.0620927371756
 20
2537.174269407146
 30
0.0
 10
145.062092731808
 20
2536.887211557496
 30
0.0
 10
145.0135125073311
 20
2536.339380033676
 30
0.0
 10
144.7250730675246
 20
2535.397977425756
 30
0.0
 10
144.0231562842912
 20
2534.576067797125
 30
0.0
 10
142.9640954570399
 20
2534.357695439835
 30
0.0
 10
141.9857191980743
 20
2534.57523300536
 30
0.0
 10
141.4762906985402
 20
2534.810818545415
 30
0.0
 10
141.2223829705574
 20
2534.957412250798
 30
0.0
  0
SPLINE
  5
266
330
1FB
100
AcDbEntity
  8
0
  6
Continuous
 62
     0
370
     0
100
AcDbSpline
210
0.0
220
0.0
230
1.0
 70
     8
 71
     3
 72
    10
 73
     6
 74
     0
 42
0.000000001
 43
0.0
 40
0.0
 40
0.0
 40
0.0
 40
0.0
 40
2.330705223304931
 40
4.661410446609862
 40
4.711177891056507
 40
4.711177891056507
 40
4.711177891056507
 40
4.711177891056507
 10
146.0067903001489
 20
2537.254426144981
 30
0.0
 10
146.0067902882872
 20
2536.620063959917
 30
0.0
 10
145.7906585900473
 20
2535.476194942155
 30
0.0
 10
145.1676768119133
 20
2534.744465114984
 30
0.0
 10
144.7724464673258
 20
2534.512556099162
 30
0.0
 10
144.764148743151
 20
2534.507767992132
 30
0.0
  0
SPLINE
  5
267
330
1FB
100
AcDbEntity
  8
0
  6
Continuous
 62
     0
370
     0
100
AcDbSpline
210
0.0
220
0.0
230
1.0
 70
     8
 71
     3
 72
    13
 73
     9
 74
     0
 42
0.000000001
 43
0.0
 40
0.0
 40
0.0
 40
0.0
 40
0.0
 40
1.010010848483648
 40
2.020021696967297
 40
4.040043393934593
 40
6.103200772639546
 40
7.134779461992023
 40
8.1663581513445
 40
8.1663581513445
 40
8.1663581513445
 40
8.1663581513445
 10
137.3826733697567
 20
2541.607984557165
 30
0.0
 10
137.3826733643889
 20
2541.320926865625
 30
0.0
 10
137.4312535134648
 20
2540.717000088817
 30
0.0
 10
137.7196925963206
 20
2539.442537051154
 30
0.0
 10
138.4216089023944
 20
2537.810123847109
 30
0.0
 10
139.480669600631
 20
2536.368852872122
 30
0.0
 10
140.4590463322656
 20
2535.456658120776
 30
0.0
 10
140.9684751056799
 20
2535.104006035219
 30
0.0
 10
141.2223829705579
 20
2534.957412250799
 30
0.0
  0
SPLINE
  5
268
330
1FB
100
AcDbEntity
  8
0
  6
Continuous
 62
     0
370
     0
100
AcDbSpline
210
0.0
220
0.0
230
1.0
 70
     8
 71
     3
 72
    10
 73
     6
 74
     0
 42
0.000000001
 43
0.0
 40
0.0
 40
0.0
 40
0.0
 40
0.0
 40
2.330703939708763
 40
4.661407879417526
 40
4.711180355729162
 40
4.711180355729162
 40
4.711180355729162
 40
4.711180355729162
 10
148.7140817822428
 20
2538.81748165309
 30
0.0
 10
148.7140817703811
 20
2538.183119817431
 30
0.0
 10
148.4979503129753
 20
2537.039251359377
 30
0.0
 10
147.8749685262333
 20
2536.307520756866
 30
0.0
 10
147.4797375591723
 20
2536.075611374489
 30
0.0
 10
147.4714389925295
 20
2536.070822789413
 30
0.0
  0
ELLIPSE
  5
269
330
1FB
100
AcDbEntity
  8
0
  6
Continuous
 62
     0
370
     0
100
AcDbEllipse
 10
138.087194
 20
2541.826807
 30
0.0
 11
0.8000000119209288
 21
-1.495980082120934E-8
 31
0.0
210
0.0
220
0.0
230
-1.0
 40
0.57735
 41
2.648031336170148
 42
3.141592662229296
  0
ELLIPSE
  5
26A
330
1FB
100
AcDbEntity
  8
0
  6
Continuous
 62
     0
370
     0
100
AcDbEllipse
 10
141.76415
 20
2535.458134
 30
0.0
 11
-0.4000000270050641
 21
-0.6928203212012692
 31
0.0
210
0.0
220
0.0
230
-1.0
 40
0.57735
 41
6.283182134942574
 42
6.776746582783174
  0
SPLINE
  5
26B
330
1FB
100
AcDbEntity
  8
0
  6
Continuous
 62
     0
370
     0
100
AcDbSpline
210
0.0
220
0.0
230
1.0
 70
     8
 71
     3
 72
    11
 73
     7
 74
     0
 42
0.000000001
 43
0.0
 40
0.0
 40
0.0
 40
0.0
 40
0.0
 40
0.5586986698539782
 40
1.667172245386832
 40
2.56079157907237
 40
3.278028445948429
 40
3.278028445948429
 40
3.278028445948429
 40
3.278028445948429
 10
150.1062104673441
 20
2579.301201189478
 30
0.0
 10
149.9770047090863
 20
2579.198805230406
 30
0.0
 10
149.5982394580137
 20
2578.84645742275
 30
0.0
 10
149.0994858157949
 20
2578.134845017242
 30
0.0
 10
148.7763424844547
 20
2577.293442229682
 30
0.0
 10
148.714083061157
 20
2576.81783185987
 30
0.0
 10
148.7140829701998
 20
2576.62342187688
 30
0.0
  0
LINE
  5
26C
330
1FB
100
AcDbEntity
  8
0
  6
Continuous
 62
     0
370
     0
100
AcDbLine
 10
148.714082
 20
2538.817482
 30
0.0
 11
148.714082
 21
2576.623422
 31
0.0
  0
ELLIPSE
  5
26D
330
1FB
100
AcDbEntity
  8
0
  6
Continuous
 62
     0
370
     0
100
AcDbEllipse
 10
149.540525
 20
2579.6278
 30
0.0
 11
0.4968685296192225
 21
-0.6269941653217541
 31
0.0
210
0.0
220
0.0
230
1.0
 40
0.461849
 41
0.0000064978309231
 42
0.7088123142739642
  0
ELLIPSE
  5
26E
330
1FB
100
AcDbEntity
  8
0
  6
Continuous
 62
     0
370
     0
100
AcDbEllipse
 10
148.148398
 20
2576.950021
 30
0.0
 11
-0.8000000119200187
 21
1.204829347413107E-6
 31
0.0
210
0.0
220
0.0
230
1.0
 40
0.577349
 41
2.3561953597023
 42
3.141593503663214
  0
ARC
  5
26F
330
1FB
100
AcDbEntity
  8
0
  6
Continuous
 62
     0
370
     0
100
AcDbCircle
 10
144.271268
 20
2575.001006
 30
0.0
 40
0.7912041051182874
100
AcDbArc
 50
358.490781
 51
68.927887
  0
SPLINE
  5
270
330
1FB
100
AcDbEntity
  8
0
  6
Continuous
 62
     0
370
     0
100
AcDbSpline
210
0.0
220
0.0
230
1.0
 70
     8
 71
     3
 72
    11
 73
     7
 74
     0
 42
0.000000001
 43
0.0
 40
0.0
 40
0.0
 40
0.0
 40
0.0
 40
0.5587001970069858
 40
1.667176531311875
 40
2.56074764890754
 40
3.278089827894966
 40
3.278089827894966
 40
3.278089827894966
 40
3.278089827894966
 10
144.6145803905276
 20
2576.130554736074
 30
0.0
 10
144.7437880635608
 20
2576.177363345596
 30
0.0
 10
145.1225621993683
 20
2576.262411728112
 30
0.0
 10
145.621334258549
 20
2576.126768387506
 30
0.0
 10
145.9445158564088
 20
2575.658527425488
 30
0.0
 10
146.0067883979361
 20
2575.254799680768
 30
0.0
 10
146.0067887584785
 20
2575.060361703512
 30
0.0
  0
ARC
  5
271
330
1FB
100
AcDbEntity
  8
0
  6
Continuous
 62
     0
370
     0
100
AcDbCircle
 10
155.580857
 20
2604.085292
 30
0.0
 40
30.94754391395999
100
AcDbArc
 50
247.463332
 51
250.130027
  0
ELLIPSE
  5
272
330
1FB
100
AcDbEntity
  8
0
  6
Continuous
 62
     0
370
     0
100
AcDbEllipse
 10
147.360437
 20
2594.7328
 30
0.0
 11
10.6000005517322
 21
18.35973822792225
 31
0.0
210
0.0
220
0.0
230
1.0
 40
0.57735
 41
4.111196511232766
 42
10.02596562103032
  0
LINE
  5
273
330
1FB
100
AcDbEntity
  8
0
  6
Continuous
 62
     0
370
     0
100
AcDbLine
 10
146.00679
 20
2537.254426
 30
0.0
 11
146.006791
 21
2575.060363
 31
0.0
  0
ELLIPSE
  5
274
330
1FB
100
AcDbEntity
  8
0
  6
Continuous
 62
     0
370
     0
100
AcDbEllipse
 10
144.048895
 20
2576.457153
 30
0.0
 11
0.2725794104143713
 21
-0.7521306296725574
 31
0.0
210
0.0
220
0.0
230
1.0
 40
0.673256
 41
6.271090489599358
 42
7.179172225535989
  0
ELLIPSE
  5
275
330
1FB
100
AcDbEntity
  8
0
  6
Continuous
 62
     0
370
     0
100
AcDbEllipse
 10
145.441103
 20
2575.38696
 30
0.0
 11
0.8000000119024395
 21
5.439572647568368E-6
 31
0.0
210
0.0
220
0.0
230
-1.0
 40
0.577355
 41
0.7854020890865065
 42
2.064210322144723
  0
LINE
  5
276
330
1FB
100
AcDbEntity
  8
0
  6
Continuous
 62
     0
370
     0
100
AcDbLine
 10
145.062093
 20
2537.174269
 30
0.0
 11
145.062093
 21
2574.980201
 31
0.0
  0
ELLIPSE
  5
277
330
1FB
100
AcDbEntity
  8
0
  6
Continuous
 62
     0
370
     0
100
AcDbEllipse
 10
146.794752
 20
2595.059399
 30
0.0
 11
11.00000057873816
 21
19.05255854912301
 31
0.0
210
0.0
220
0.0
230
1.0
 40
0.57735
 41
-0.0000000295215639
 42
3.141592707170389
  0
LINE
  5
278
330
1FB
100
AcDbEntity
  8
0
  6
Continuous
 62
     0
370
     0
100
AcDbLine
 10
137.382673
 20
2541.607985
 30
0.0
 11
137.382674
 21
2575.310506
 31
0.0
  0
ELLIPSE
  5
279
330
1FB
100
AcDbEntity
  8
0
  6
Continuous
 62
     0
370
    30
100
AcDbEllipse
 10
127.214775
 20
2606.363904
 30
0.0
 11
-11.00000057873816
 21
-19.05255854912301
 31
0.0
210
0.0
220
0.0
230
-1.0
 40
0.57735
 41
-0.0000000287689801
 42
0.7853981323774423
  0
ELLIPSE
  5
27A
330
1FB
100
AcDbEntity
  8
0
  6
Continuous
 62
     0
370
    30
100
AcDbEllipse
 10
127.214775
 20
2606.363904
 30
0.0
 11
15.53811460412414
 21
16.34277848979115
 31
0.0
210
0.0
220
0.0
230
-1.0
 40
0.349506
 41
3.842930766919516
 42
6.199125268777181
  0
LINE
  5
27B
330
1FB
100
AcDbEntity
  8
0
  6
Continuous
 62
     0
370
    30
100
AcDbLine
 10
142.218448
 20
2623.104941
 30
0.0
 11
157.794752
 21
2614.111957
 31
0.0
  0
LINE
  5
27C
330
1FB
100
AcDbEntity
  8
0
  6
Continuous
 62
     0
370
    30
100
AcDbLine
 10
116.214775
 20
2587.311345
 30
0.0
 11
135.794751
 21
2576.00684
 31
0.0
  0
ARC
  5
27D
330
1FB
100
AcDbEntity
  8
0
  6
Continuous
 62
     0
370
    30
100
AcDbCircle
 10
144.491916
 20
2575.35553
 30
0.0
 40
0.3888451927935241
100
AcDbArc
 50
80.40363
 51
116.006156
  0
ARC
  5
27E
330
1FB
100
AcDbEntity
  8
0
  6
Continuous
 62
     0
370
    30
100
AcDbCircle
 10
151.930153
 20
2576.681195
 30
0.0
 40
2.9938486014803
100
AcDbArc
 50
129.213682
 51
174.84834
  0
SPLINE
  5
27F
330
1FB
100
AcDbEntity
  8
0
  6
Continuous
 62
     0
370
    30
100
AcDbSpline
210
0.0
220
0.0
230
1.0
 70
     8
 71
     3
 72
     9
 73
     5
 74
     0
 42
0.000000001
 43
0.0
 40
0.0
 40
0.0
 40
0.0
 40
0.0
 40
2.853458024164858
 40
4.676160704011431
 40
4.676160704011431
 40
4.676160704011431
 40
4.676160704011431
 10
148.9483963607852
 20
2539.144080294288
 30
0.0
 10
148.948396345152
 20
2538.338496555284
 30
0.0
 10
148.6649594312059
 20
2537.104250511816
 30
0.0
 10
147.8487649019628
 20
2536.288670560333
 30
0.0
 10
147.4718358053472
 20
2536.071051826634
 30
0.0
  0
SPLINE
  5
280
330
1FB
100
AcDbEntity
  8
0
  6
Continuous
 62
     0
370
    30
100
AcDbSpline
210
0.0
220
0.0
230
1.0
 70
     8
 71
     3
 72
    11
 73
     7
 74
     0
 42
0.000000001
 43
0.0
 40
0.0
 40
0.0
 40
0.0
 40
0.0
 40
1.949770041510148
 40
4.618794635024265
 40
7.323663756608221
 40
8.949113366711849
 40
8.949113366711849
 40
8.949113366711849
 40
8.949113366711849
 10
137.2871943473695
 20
2541.826807333005
 30
0.0
 10
137.2871943366285
 20
2541.273354514649
 30
0.0
 10
137.4793670835791
 20
2539.875620683583
 30
0.0
 10
138.4454411281746
 20
2537.601745667393
 30
0.0
 10
139.9162338179954
 20
2535.774565434513
 30
0.0
 10
140.9640569310177
 20
2534.996307104856
 30
0.0
 10
141.3641504030429
 20
2534.76531311284
 30
0.0
  0
SPLINE
  5
281
330
1FB
100
AcDbEntity
  8
0
  6
Continuous
 62
     0
370
    30
100
AcDbSpline
210
0.0
220
0.0
230
1.0
 70
     8
 71
     3
 72
     9
 73
     5
 74
     0
 42
0.000000001
 43
0.0
 40
0.0
 40
0.0
 40
0.0
 40
0.0
 40
2.209323722353585
 40
4.677779095708386
 40
4.677779095708386
 40
4.677779095708386
 40
4.677779095708386
 10
144.7645536864502
 20
2534.508001723881
 30
0.0
 10
144.3086878089579
 20
2534.244805773084
 30
0.0
 10
143.1664972804049
 20
2534.003821636413
 30
0.0
 10
141.9692288838082
 20
2534.415970922195
 30
0.0
 10
141.3641498552372
 20
2534.765313429113
 30
0.0
  0
LINE
  5
282
330
1FB
100
AcDbEntity
  8
0
  6
Continuous
 62
     0
370
    30
100
AcDbLine
 10
147.471441
 20
2536.070819
 30
0.0
 11
144.76415
 21
2534.507764
 31
0.0
  0
LINE
  5
283
330
1FB
100
AcDbEntity
  8
0
  6
Continuous
 62
     0
370
    30
100
AcDbLine
 10
148.948396
 20
2539.14408
 30
0.0
 11
148.948397
 21
2576.95002
 31
0.0
  0
SPLINE
  5
284
330
1FB
100
AcDbEntity
  8
0
  6
Continuous
 62
     0
370
    30
100
AcDbSpline
210
0.0
220
0.0
230
1.0
 70
     8
 71
     3
 72
    10
 73
     6
 74
     0
 42
0.000000001
 43
0.0
 40
0.0
 40
0.0
 40
0.0
 40
0.0
 40
2.502275002533357
 40
7.370419231138905
 40
13.19421148344057
 40
13.19421148344057
 40
13.19421148344057
 40
13.19421148344057
 10
144.3214020502494
 20
2575.705056145106
 30
0.0
 10
143.7282619387789
 20
2575.490216359207
 30
0.0
 10
141.9912142774708
 20
2574.980960967039
 30
0.0
 10
138.9980351423048
 20
2574.748101000006
 30
0.0
 10
136.8312787024716
 20
2575.408400579429
 30
0.0
 10
135.7947514096658
 20
2576.006839867945
 30
0.0
  0
SPLINE
  5
285
330
1FB
100
AcDbEntity
  8
0
  6
Continuous
 62
     0
370
    30
100
AcDbSpline
210
0.0
220
0.0
230
1.0
 70
     8
 71
     3
 72
    20
 73
    16
 74
     0
 42
0.000000001
 43
0.0
 40
0.0
 40
0.0
 40
0.0
 40
0.0
 40
4.570785568587319
 40
10.23591017924331
 40
18.6170211849336
 40
25.48504259371288
 40
33.92928287684365
 40
37.22715243612218
 40
39.70115714067729
 40
42.99998893960571
 40
44.65049529644407
 40
45.5144133729303
 40
46.30194888785412
 40
46.80488532304561
 40
47.28254090237293
 40
47.28254090237293
 40
47.28254090237293
 40
47.28254090237293
 10
157.7947519303261
 20
2614.111957333857
 30
0.0
 10
158.6092661735506
 20
2613.64169733373
 30
0.0
 10
160.24745823988
 20
2612.253964206723
 30
0.0
 10
162.2514510382221
 20
2608.587398977517
 30
0.0
 10
162.8919895059994
 20
2603.108735244918
 30
0.0
 10
161.6350826390214
 20
2595.984199472962
 30
0.0
 10
159.2005718777712
 20
2590.250001265802
 30
0.0
 10
156.6822122033491
 20
2586.226226929173
 30
0.0
 10
154.9028610145378
 20
2583.820601425243
 30
0.0
 10
153.3261441631118
 20
2582.013914558301
 30
0.0
 10
152.0310885353655
 20
2580.730789279435
 30
0.0
 10
151.2809072628031
 20
2580.044297895157
 30
0.0
 10
150.7864143184368
 20
2579.612219497889
 30
0.0
 10
150.3763551048417
 20
2579.276206009426
 30
0.0
 10
150.1500094832372
 20
2579.082186317285
 30
0.0
 10
150.037400543178
 20
2579.000800742512
 30
0.0
  0
LINE
  5
286
330
1FB
100
AcDbEntity
  8
0
  6
Continuous
 62
     0
370
    30
100
AcDbLine
 10
137.287194
 20
2541.826807
 30
0.0
 11
137.287195
 21
2575.341264
 31
0.0
  0
SPLINE
  5
287
330
1FB
100
AcDbEntity
  8
0
  6
Continuous
 62
     0
370
    30
100
AcDbSpline
210
0.0
220
0.0
230
1.0
 70
     8
 71
     3
 72
    18
 73
    14
 74
     0
 42
0.000000001
 43
0.0
 40
22.44308802988742
 40
22.44308802988742
 40
22.44308802988742
 40
22.44308802988742
 40
23.24081455853636
 40
25.02900395979537
 40
26.24897087222149
 40
28.02401701261899
 40
29.83359972852736
 40
31.21865443939173
 40
33.20705812948561
 40
34.07987100534173
 40
36.30636085175861
 40
38.5005442443281
 40
40.35294621091665
 40
40.35294621091665
 40
40.35294621091665
 40
40.35294621091665
 10
54.17781091919657
 20
2565.352487912176
 30
0.0
 10
54.2659489008194
 20
2565.301601082724
 30
0.0
 10
54.57634150242297
 20
2565.129640491176
 30
0.0
 10
55.15428541752556
 20
2564.830865800571
 30
0.0
 10
56.06411244279229
 20
2564.346596868369
 30
0.0
 10
57.15350275149933
 20
2563.731389239885
 30
0.0
 10
58.44197531144482
 20
2562.953799579611
 30
0.0
 10
59.86974376694218
 20
2562.079891796483
 30
0.0
 10
61.084418788211
 20
2561.356341745998
 30
0.0
 10
62.56746933652437
 20
2560.532253894245
 30
0.0
 10
64.1387377283778
 20
2559.742041375167
 30
0.0
 10
66.0358979640589
 20
2558.990936243652
 30
0.0
 10
67.26931680836884
 20
2558.654161206442
 30
0.0
 10
67.8320876730758
 20
2558.537968722714
 30
0.0
  0
ELLIPSE
  5
288
330
1FB
100
AcDbEntity
  8
0
  6
Continuous
 62
     0
370
     0
100
AcDbEllipse
 10
53.233543
 20
2583.795496
 30
0.0
 11
-7.750000403897774
 21
-13.4233935254683
 31
0.0
210
0.0
220
0.0
230
-1.0
 40
0.57735
 41
-0.0000000287689783
 42
3.141592624820815
  0
ELLIPSE
  5
289
330
1FB
100
AcDbEntity
  8
0
  6
Continuous
 62
     0
370
     0
100
AcDbEllipse
 10
43.109099
 20
2589.640848
 30
0.0
 11
-7.500000390868812
 21
-12.99038083109836
 31
0.0
210
0.0
220
0.0
230
-1.0
 40
0.57735
 41
0.0246951931430945
 42
3.141592624820813
  0
ELLIPSE
  5
28A
330
1FB
100
AcDbEntity
  8
0
  6
Continuous
 62
     0
370
     0
100
AcDbEllipse
 10
96.142107
 20
2559.022224
 30
0.0
 11
7.250000377839851
 21
12.55736813672841
 31
0.0
210
0.0
220
0.0
230
1.0
 40
0.57735
 41
0.0
 42
6.283185307179586
  0
ELLIPSE
  5
28B
330
1FB
100
AcDbEntity
  8
0
  6
Continuous
 62
     0
370
     0
100
AcDbEllipse
 10
95.435001
 20
2559.430472
 30
0.0
 11
7.750000403897774
 21
13.4233935254683
 31
0.0
210
0.0
220
0.0
230
1.0
 40
0.57735
 41
0.0000000287687616
 42
3.141592786023376
  0
ELLIPSE
  5
28C
330
1FB
100
AcDbEntity
  8
0
  6
Continuous
 62
     0
370
    30
100
AcDbEllipse
 10
77.757331
 20
2569.63668
 30
0.0
 11
7.750000403897774
 21
13.4233935254683
 31
0.0
210
0.0
220
0.0
230
1.0
 40
0.57735
 41
1.372197662625871
 42
3.141592682358771
  0
ELLIPSE
  5
28D
330
1FB
100
AcDbEntity
  8
0
  6
Continuous
 62
     0
370
    30
100
AcDbEllipse
 10
92.606573
 20
2561.063465
 30
0.0
 11
-7.750000403897774
 21
-13.4233935254683
 31
0.0
210
0.0
220
0.0
230
-1.0
 40
0.57735
 41
-0.0000000287689783
 42
1.769394990963921
  0
LINE
  5
28E
330
1FB
100
AcDbEntity
  8
0
  6
Continuous
 62
     0
370
    30
100
AcDbLine
 10
48.196996
 20
2604.023857
 30
0.0
 11
50.516487
 21
2602.684698
 31
0.0
  0
LINE
  5
28F
330
1FB
100
AcDbEntity
  8
0
  6
Continuous
 62
     0
370
    30
100
AcDbLine
 10
33.196995
 20
2578.043095
 30
0.0
 11
35.516487
 21
2576.703936
 31
0.0
  0
SPLINE
  5
290
330
1FB
100
AcDbEntity
  8
0
  6
Continuous
 62
     0
370
    30
100
AcDbSpline
210
0.0
220
0.0
230
1.0
 70
     8
 71
     3
 72
    13
 73
     9
 74
     0
 42
0.000000001
 43
0.0
 40
0.0
 40
0.0
 40
0.0
 40
0.0
 40
2.50518304834603
 40
5.618521055436171
 40
7.622139666518528
 40
9.37668317229439
 40
10.99681829991469
 40
12.10083811536232
 40
12.10083811536232
 40
12.10083811536232
 40
12.10083811536232
 10
106.6880488895063
 20
2565.350072649231
 30
0.0
 10
106.6880488899428
 20
2566.046644307595
 30
0.0
 10
106.5764870638983
 20
2567.557063320594
 30
0.0
 10
106.079978129769
 20
2569.385201942453
 30
0.0
 10
105.3466294672661
 20
2570.800683713618
 30
0.0
 10
104.6110950190082
 20
2571.751283003876
 30
0.0
 10
103.8843060657555
 20
2572.408265426901
 30
0.0
 10
103.3918358351239
 20
2572.734449397451
 30
0.0
 10
103.1850007432411
 20
2572.853865689553
 30
0.0
  0
SPLINE
  5
291
330
1FB
100
AcDbEntity
  8
0
  6
Continuous
 62
     0
370
    30
100
AcDbSpline
210
0.0
220
0.0
230
1.0
 70
     8
 71
     3
 72
    20
 73
    16
 74
     0
 42
0.000000001
 43
0.0
 40
0.0
 40
0.0
 40
0.0
 40
0.0
 40
1.310501561090446
 40
3.232297963799728
 40
5.397561824899614
 40
7.430146859279187
 40
9.987305598190593
 40
13.95391023792297
 40
17.7132521281918
 40
21.71920583983984
 40
25.50567784689477
 40
28.99129591911236
 40
33.240229778437
 40
34.84463565871884
 40
35.85313724443996
 40
35.85313724443996
 40
35.85313724443996
 40
35.85313724443996
 10
87.68500038136301
 20
2546.007078381167
 30
0.0
 10
87.93049239594734
 20
2545.86534350506
 30
0.0
 10
88.5619146225115
 20
2545.559772553675
 30
0.0
 10
89.70366074966694
 20
2545.239448808084
 30
0.0
 10
91.087070797754
 20
2545.151148264903
 30
0.0
 10
92.67691484639238
 20
2545.354870163329
 30
0.0
 10
94.74055287374813
 20
2546.009712792108
 30
0.0
 10
97.23752306772894
 20
2547.429784883592
 30
0.0
 10
99.96133957557686
 20
2549.793482454918
 30
0.0
 10
102.3715677837386
 20
2552.716613590915
 30
0.0
 10
104.3105480089009
 20
2555.969539691918
 30
0.0
 10
105.7837957501306
 20
2559.482379247263
 30
0.0
 10
106.4717354176212
 20
2562.335245191674
 30
0.0
 10
106.6671610253454
 20
2564.331814647333
 30
0.0
 10
106.6880488893304
 20
2565.069406288795
 30
0.0
 10
106.6880488895063
 20
2565.350072649238
 30
0.0
  0
LINE
  5
292
330
1FB
100
AcDbEntity
  8
0
  6
Continuous
 62
     0
370
    30
100
AcDbLine
 10
72.828335
 20
2590.380296
 30
0.0
 11
60.983543
 21
2597.21889
 31
0.0
  0
LINE
  5
293
330
1FB
100
AcDbEntity
  8
0
  6
Continuous
 62
     0
370
    30
100
AcDbLine
 10
103.185001
 20
2572.853866
 30
0.0
 11
94.412947
 21
2577.918414
 31
0.0
  0
LINE
  5
294
330
1FB
100
AcDbEntity
  8
0
  6
Continuous
 62
     0
370
    30
100
AcDbLine
 10
87.685
 20
2546.007078
 30
0.0
 11
84.856573
 21
2547.640072
 31
0.0
  0
LINE
  5
295
330
1FB
100
AcDbEntity
  8
0
  6
Continuous
 62
     0
370
    30
100
AcDbLine
 10
70.007331
 20
2556.213286
 30
0.0
 11
61.088116
 21
2561.362798
 31
0.0
  0
LINE
  5
296
330
1FB
100
AcDbEntity
  8
0
  6
Continuous
 62
     0
370
    30
100
AcDbLine
 10
54.177801
 20
2565.35247
 30
0.0
 11
45.483543
 21
2570.372103
 31
0.0
  0
LINE
  5
297
330
1FB
100
AcDbEntity
  8
0
  6
Continuous
 62
     0
370
    30
100
AcDbLine
 10
60.789812
 20
2597.325284
 30
0.0
 11
50.421617
 21
2602.73419
 31
0.0
  0
LINE
  5
298
330
1FB
100
AcDbEntity
  8
0
  6
Continuous
 62
     0
370
    30
100
AcDbLine
 10
45.294538
 20
2570.486682
 30
0.0
 11
35.42619
 21
2576.76135
 31
0.0
  0
SPLINE
  5
299
330
1FB
100
AcDbEntity
  8
0
  6
Continuous
 62
     0
370
    30
100
AcDbSpline
210
0.0
220
0.0
230
1.0
 70
     8
 71
     3
 72
    21
 73
    17
 74
     0
 42
0.000000001
 43
0.0
 40
0.0
 40
0.0
 40
0.0
 40
0.0
 40
1.175116973648085
 40
3.190918453909565
 40
5.178361448406649
 40
7.181026914171562
 40
9.317453649883644
 40
11.57615439424026
 40
12.49861306356619
 40
14.13182540247319
 40
17.07684151669249
 40
19.07435123164687
 40
20.09267838682038
 40
22.60873485583731
 40
24.2991852388562
 40
25.2225246950418
 40
25.2225246950418
 40
25.2225246950418
 40
25.2225246950418
 10
86.53794714328785
 20
2568.098359365806
 30
0.0
 10
86.87217832812644
 20
2568.295781541345
 30
0.0
 10
87.7821130513488
 20
2568.840052808895
 30
0.0
 10
89.2547118982178
 20
2569.749750881892
 30
0.0
 10
90.91205678860217
 20
2570.817493855885
 30
0.0
 10
92.48702295674389
 20
2571.884889274538
 30
0.0
 10
93.92566379586947
 20
2572.933088923502
 30
0.0
 10
94.87204003270142
 20
2573.710724325415
 30
0.0
 10
95.54019244830909
 20
2574.342935109156
 30
0.0
 10
96.12790600819744
 20
2575.00034417285
 30
0.0
 10
96.45274649556472
 20
2575.656658328717
 30
0.0
 10
96.39628726123044
 20
2576.171121169532
 30
0.0
 10
96.15038083057777
 20
2576.629427783894
 30
0.0
 10
95.70463195149341
 20
2577.057575749937
 30
0.0
 10
95.01173405871877
 20
2577.529069719388
 30
0.0
 10
94.57604962322256
 20
2577.798743072687
 30
0.0
 10
94.41212490363932
 20
2577.898182788502
 30
0.0
  0
ELLIPSE
  5
29A
330
1FB
100
AcDbEntity
  8
0
  6
Continuous
 62
     0
370
     0
100
AcDbEllipse
 10
91.758044
 20
2561.553366
 30
0.0
 11
7.75000040389778
 21
13.4233935254683
 31
0.0
210
0.0
220
0.0
230
1.0
 40
0.57735
 41
1.411268225403921
 42
3.141592682358772
  0
SPLINE
  5
29B
330
1FB
100
AcDbEntity
  8
0
  6
Continuous
 62
     0
370
     0
100
AcDbSpline
210
0.0
220
0.0
230
1.0
 70
     8
 71
     3
 72
    10
 73
     6
 74
     0
 42
0.000000001
 43
0.0
 40
32.03574826165978
 40
32.03574826165978
 40
32.03574826165978
 40
32.03574826165978
 40
33.21985971304309
 40
35.49210802940057
 40
36.64147905501603
 40
36.64147905501603
 40
36.64147905501603
 40
36.64147905501603
 10
94.36682477512821
 20
2576.783519095053
 30
0.0
 10
94.4947902962002
 20
2576.679310453455
 30
0.0
 10
94.81888535336603
 20
2576.383699256653
 30
0.0
 10
95.05862051495146
 20
2576.002564844587
 30
0.0
 10
95.09432260123904
 20
2575.704266896796
 30
0.0
 10
95.08987868259291
 20
2575.600998167256
 30
0.0
  0
SPLINE
  5
29C
330
1FB
100
AcDbEntity
  8
0
  6
Continuous
 62
     0
370
     0
100
AcDbSpline
210
0.0
220
0.0
230
1.0
 70
     8
 71
     3
 72
    17
 73
    13
 74
     0
 42
0.000000001
 43
0.0
 40
30.41661569282892
 40
30.41661569282892
 40
30.41661569282892
 40
30.41661569282892
 40
33.62489093556272
 40
35.69462364066038
 40
37.76435634575805
 40
40.99691816650495
 40
42.798874010329
 40
44.60082985415306
 40
46.72166969037035
 40
48.49122553459789
 40
50.68295300984333
 40
53.78922322541207
 40
53.78922322541207
 40
53.78922322541207
 40
53.78922322541207
 10
94.40810129292662
 20
2577.799177210169
 30
0.0
 10
94.89397016448136
 20
2577.465355773562
 30
0.0
 10
95.47375097016615
 20
2576.980322839775
 30
0.0
 10
95.78647654827523
 20
2576.315555548859
 30
0.0
 10
95.69759553667313
 20
2575.596940397041
 30
0.0
 10
95.10815993638039
 20
2574.770682681608
 30
0.0
 10
94.05543284589362
 20
2573.805323206648
 30
0.0
 10
92.91103883022606
 20
2572.897530792337
 30
0.0
 10
91.52348084729397
 20
2571.910283528491
 30
0.0
 10
89.86604627877773
 20
2570.809888987048
 30
0.0
 10
87.81825464697727
 20
2569.525863219867
 30
0.0
 10
86.24754126114499
 20
2568.607925420719
 30
0.0
 10
85.33755704727787
 20
2568.103352490853
 30
0.0
  0
ELLIPSE
  5
29D
330
1FB
100
AcDbEntity
  8
0
  6
Continuous
 62
     0
370
     0
100
AcDbEllipse
 10
78.959411
 20
2568.942661
 30
0.0
 11
-7.500000390868822
 21
-12.99038083109835
 31
0.0
210
0.0
220
0.0
230
-1.0
 40
0.57735
 41
6.02453226219454
 42
8.01350942651473
  0
ELLIPSE
  5
29E
330
1FB
100
AcDbEntity
  8
0
  6
Continuous
 62
     0
370
     0
100
AcDbEllipse
 10
78.605858
 20
2569.146785
 30
0.0
 11
-7.75000040389778
 21
-13.4233935254683
 31
0.0
210
0.0
220
0.0
230
-1.0
 40
0.57735
 41
-0.0000000287692075
 42
1.730324119335144
  0
ELLIPSE
  5
29F
330
1FB
100
AcDbEntity
  8
0
  6
Continuous
 62
     0
370
     0
100
AcDbEllipse
 10
85.544669
 20
2567.892063
 30
0.0
 11
0.4080326004959106
 21
-0.288979879492089
 31
0.0
210
0.0
220
0.0
230
1.0
 40
0.129702
 41
2.192312828978807
 42
3.141596334736876
  0
ELLIPSE
  5
2A0
330
1FB
100
AcDbEntity
  8
0
  6
Continuous
 62
     0
370
     0
100
AcDbEllipse
 10
85.54467
 20
2567.892063
 30
0.0
 11
0.2370470907552502
 21
-0.4402370688214169
 31
0.0
210
0.0
220
0.0
230
-1.0
 40
0.199792
 41
2.175419664994506
 42
3.141598768058961
  0
ELLIPSE
  5
2A1
330
1FB
100
AcDbEntity
  8
0
  6
Continuous
 62
     0
370
     0
100
AcDbEllipse
 10
73.523324
 20
2555.462632
 30
0.0
 11
-0.02649109595705036
 21
-0.4992977799725958
 31
0.0
210
0.0
220
0.0
230
1.0
 40
0.783406
 41
6.282722268828239
 42
7.07790962472543
  0
ELLIPSE
  5
2A2
330
1FB
100
AcDbEntity
  8
0
  6
Continuous
 62
     0
370
     0
100
AcDbEllipse
 10
73.523325
 20
2555.462632
 30
0.0
 11
0.2594311447628347
 21
-0.4274289193854875
 31
0.0
210
0.0
220
0.0
230
1.0
 40
0.957415
 41
6.276754185323633
 42
6.374886021050465
  0
ARC
  5
2A3
330
1FB
100
AcDbEntity
  8
0
  6
Continuous
 62
     0
370
    30
100
AcDbCircle
 10
73.523271
 20
2555.462845
 30
0.0
 40
0.5002096689069195
100
AcDbArc
 50
266.970332
 51
301.248398
  0
ARC
  5
2A4
330
1FB
100
AcDbEntity
  8
0
  6
Continuous
 62
     0
370
    30
100
AcDbCircle
 10
73.749767
 20
2560.810545
 30
0.0
 40
5.85267874726958
100
AcDbArc
 50
240.365921
 51
267.523093
  0
SPLINE
  5
2A5
330
1FB
100
AcDbEntity
  8
0
  6
Continuous
 62
     0
370
    30
100
AcDbSpline
210
0.0
220
0.0
230
1.0
 70
     8
 71
     3
 72
    15
 73
    11
 74
     0
 42
0.000000001
 43
0.0
 40
0.0
 40
0.0
 40
0.0
 40
0.0
 40
1.933187414631951
 40
4.099362720971921
 40
5.214490737251459
 40
8.566325308717724
 40
11.66045420712636
 40
13.79001872684161
 40
15.67213178606963
 40
16.90468952031723
 40
16.90468952031723
 40
16.90468952031723
 40
16.90468952031723
 10
95.08987878764742
 20
2575.601000608602
 30
0.0
 10
95.0852753778056
 20
2575.494019440216
 30
0.0
 10
95.01393270145672
 20
2575.210008799602
 30
0.0
 10
94.61177281525875
 20
2574.648871841738
 30
0.0
 10
93.76614513453069
 20
2573.798465150504
 30
0.0
 10
92.3054204694887
 20
2572.632445782303
 30
0.0
 10
90.08304963156922
 20
2571.137936437702
 30
0.0
 10
88.07523381788383
 20
2569.898746229075
 30
0.0
 10
86.56073950087875
 20
2569.018575861956
 30
0.0
 10
85.66186299376363
 20
2568.523041645837
 30
0.0
 10
85.30762244393202
 20
2568.332299662281
 30
0.0
  0
ARC
  5
2A6
330
1FB
100
AcDbEntity
  8
0
  6
Continuous
 62
     0
370
    30
100
AcDbCircle
 10
85.545165
 20
2567.891502
 30
0.0
 40
0.5007286553919567
100
AcDbArc
 50
118.319914
 51
144.673278
  0
SPLINE
  5
2A7
330
1FB
100
AcDbEntity
  8
0
  6
Continuous
 62
     0
370
    30
100
AcDbSpline
210
0.0
220
0.0
230
1.0
 70
     8
 71
     3
 72
    15
 73
    11
 74
     0
 42
0.000000001
 43
0.0
 40
0.0
 40
0.0
 40
0.0
 40
0.0
 40
1.878553917483948
 40
5.642074122362461
 40
9.83792418740459
 40
13.85326070935352
 40
17.89344292683517
 40
21.71479070641941
 40
24.65959687275668
 40
26.59307993548713
 40
26.59307993548713
 40
26.59307993548713
 40
26.59307993548713
 10
85.13663633376791
 20
2568.181042498597
 30
0.0
 10
84.77787462733409
 20
2567.674479131605
 30
0.0
 10
83.74740879913759
 20
2566.103048545825
 30
0.0
 10
82.24425116664429
 20
2563.170510810271
 30
0.0
 10
81.03188078759695
 20
2559.488500433494
 30
0.0
 10
80.53384333697647
 20
2555.868768247145
 30
0.0
 10
80.79422574692262
 20
2552.725617723346
 30
0.0
 10
81.69233889143015
 20
2550.366144314598
 30
0.0
 10
82.85451371160286
 20
2548.920688052573
 30
0.0
 10
83.66560010911405
 20
2548.327682116752
 30
0.0
 10
84.00804547103019
 20
2548.129971367648
 30
0.0
  0
LINE
  5
2A8
330
1FB
100
AcDbEntity
  8
0
  6
Continuous
 62
     0
370
    30
100
AcDbLine
 10
84.856572
 20
2547.640074
 30
0.0
 11
84.008044
 21
2548.129972
 31
0.0
  0
LINE
  5
2A9
330
1FB
100
AcDbEntity
  8
0
  6
Continuous
 62
     0
370
    30
100
AcDbLine
 10
70.855858
 20
2555.723391
 30
0.0
 11
70.007329
 21
2556.213289
 31
0.0
  0
ELLIPSE
  5
2AA
330
1FB
100
AcDbEntity
  8
0
  6
Continuous
 62
     0
370
    30
100
AcDbEllipse
 10
41.265945
 20
2590.704993
 30
0.0
 11
7.675000466390251
 21
13.29348983216734
 31
0.0
210
0.0
220
0.0
230
1.0
 40
0.57735
 41
3.210746133515713
 42
3.355548248342914
  0
ELLIPSE
  5
2AB
330
1FB
100
AcDbEntity
  8
0
  6
Continuous
 62
     0
370
    30
100
AcDbEllipse
 10
41.265945
 20
2590.704993
 30
0.0
 11
7.675000466390251
 21
13.29348983216734
 31
0.0
210
0.0
220
0.0
230
1.0
 40
0.57735
 41
6.069229769964383
 42
6.214031884791636
  0
ELLIPSE
  5
2AC
330
1FB
100
AcDbEntity
  8
0
  6
Continuous
 62
     0
370
    30
100
AcDbEllipse
 10
42.326605
 20
2590.092621
 30
0.0
 11
7.675000493678381
 21
13.29348987943177
 31
0.0
210
0.0
220
0.0
230
1.0
 40
0.57735
 41
6.08237492998719
 42
9.62558839549969
  0
ELLIPSE
  5
2AD
330
1FB
100
AcDbEntity
  8
0
  6
Continuous
 62
     0
370
    30
100
AcDbEllipse
 10
39.851731
 20
2591.52149
 30
0.0
 11
7.675000430006073
 21
13.2934897691481
 31
0.0
210
0.0
220
0.0
230
1.0
 40
0.57735
 41
3.303529036309167
 42
3.355548226525059
  0
ELLIPSE
  5
2AE
330
1FB
100
AcDbEntity
  8
0
  6
Continuous
 62
     0
370
    30
100
AcDbEllipse
 10
39.851731
 20
2591.52149
 30
0.0
 11
7.675000430006073
 21
13.2934897691481
 31
0.0
210
0.0
220
0.0
230
1.0
 40
0.57735
 41
6.069229791782228
 42
6.121248981998173
  0
ELLIPSE
  5
2AF
330
1FB
100
AcDbEntity
  8
0
  6
Continuous
 62
     0
370
     0
100
AcDbEllipse
 10
39.144624
 20
2591.929738
 30
0.0
 11
15.00000087542699
 21
25.98076182447112
 31
0.0
210
0.0
220
0.0
230
1.0
 40
0.57735
 41
0.0000000287689765
 42
3.141592682358771
  0
ELLIPSE
  5
2B0
330
1FB
100
AcDbEntity
  8
0
  6
Continuous
 62
     0
370
     0
100
AcDbEllipse
 10
41.973051
 20
2590.296745
 30
0.0
 11
15.00000087542699
 21
25.98076182447112
 31
0.0
210
0.0
220
0.0
230
1.0
 40
0.57735
 41
0.0000000287689783
 42
3.141592682358771
  0
ELLIPSE
  5
2B1
330
1FB
100
AcDbEntity
  8
0
  6
Continuous
 62
     0
370
     0
100
AcDbEllipse
 10
42.326605
 20
2590.092621
 30
0.0
 11
14.75000086239802
 21
25.54774913010118
 31
0.0
210
0.0
220
0.0
230
1.0
 40
0.57735
 41
5.265602053713443
 42
10.21017617595153
  0
ELLIPSE
  5
2B2
330
1FB
100
AcDbEntity
  8
0
  6
Continuous
 62
     0
370
     0
100
AcDbEllipse
 10
42.326605
 20
2590.092621
 30
0.0
 11
14.75000086239802
 21
25.54774913010118
 31
0.0
210
0.0
220
0.0
230
1.0
 40
0.57735
 41
3.926990868771948
 42
4.159175964593895
  0
SPLINE
  5
2B3
330
1FB
100
AcDbEntity
  8
0
  6
Continuous
 62
     0
370
    30
100
AcDbSpline
210
0.0
220
0.0
230
1.0
 70
     8
 71
     3
 72
    11
 73
     7
 74
     0
 42
0.000000001
 43
0.0
 40
0.0
 40
0.0
 40
0.0
 40
0.0
 40
5.143388364456113
 40
11.09327324332226
 40
18.34735454553142
 40
23.51364057980864
 40
23.51364057980864
 40
23.51364057980864
 40
23.51364057980864
 10
26.97305087693417
 20
2564.315982892539
 30
0.0
 10
27.85750633679618
 20
2563.805342316085
 30
0.0
 10
29.93349740760607
 20
2562.98634380809
 30
0.0
 10
33.81284527548974
 20
2562.69541098925
 30
0.0
 10
38.04721048935562
 20
2563.660732547658
 30
0.0
 10
40.99961805013447
 20
2565.070734235223
 30
0.0
 10
42.2230513081854
 20
2565.777083803469
 30
0.0
  0
SPLINE
  5
2B4
330
1FB
100
AcDbEntity
  8
0
  6
Continuous
 62
     0
370
    30
100
AcDbSpline
210
0.0
220
0.0
230
1.0
 70
     8
 71
     3
 72
     9
 73
     5
 74
     0
 42
0.000000001
 43
0.0
 40
63.21293896960737
 40
63.21293896960737
 40
63.21293896960737
 40
63.21293896960737
 40
65.29739685615033
 40
70.33577483548585
 40
70.33577483548585
 40
70.33577483548585
 40
70.33577483548585
 10
47.23226216030912
 20
2569.362480151689
 30
0.0
 10
46.75368106727159
 20
2568.951647052127
 30
0.0
 10
45.10363835586645
 20
2567.605035389263
 30
0.0
 10
43.41630892851163
 20
2566.466011458866
 30
0.0
 10
42.22305132179099
 20
2565.777083811324
 30
0.0
  0
SPLINE
  5
2B5
330
1FB
100
AcDbEntity
  8
0
  6
Continuous
 62
     0
370
    30
100
AcDbSpline
210
0.0
220
0.0
230
1.0
 70
     8
 71
     3
 72
    11
 73
     7
 74
     0
 42
0.000000001
 43
0.0
 40
0.0
 40
0.0
 40
0.0
 40
0.0
 40
5.143388364456252
 40
13.99155881202662
 40
25.47948002236548
 40
30.63632833819064
 40
30.63632833819064
 40
30.63632833819064
 40
30.63632833819064
 10
56.97305176471855
 20
2616.277507039775
 30
0.0
 10
57.85750722458056
 20
2615.766866463321
 30
0.0
 10
60.06160786383009
 20
2614.015816093317
 30
0.0
 10
62.84917841276024
 20
2609.218860028294
 30
0.0
 10
63.62203687502209
 20
2602.599464139944
 30
0.0
 10
63.01976047395746
 20
2597.743094520351
 30
0.0
 10
62.73155763027633
 20
2596.209674429592
 30
0.0
  0
SPLINE
  5
2B6
330
1FB
100
AcDbEntity
  8
0
  6
Continuous
 62
     0
370
    30
100
AcDbSpline
210
0.0
220
0.0
230
1.0
 70
     8
 71
     3
 72
    18
 73
    14
 74
     0
 42
0.000000001
 43
0.0
 40
0.0
 40
0.0
 40
0.0
 40
0.0
 40
5.143388364456281
 40
13.99155881202596
 40
24.08948457485567
 40
31.9991811896563
 40
37.21932753410514
 40
49.60529874057207
 40
62.03069882346018
 40
70.00230560425442
 40
80.35722435350526
 40
87.87480940108402
 40
93.84939445304938
 40
93.84939445304938
 40
93.84939445304938
 40
93.84939445304938
 10
54.14462463997302
 20
2617.910500315103
 30
0.0
 10
53.26016918011101
 20
2618.421140891557
 30
0.0
 10
50.64168090946987
 20
2619.45449874844
 30
0.0
 10
45.39615255618367
 20
2619.468694021805
 30
0.0
 10
38.99145526464451
 20
2616.880841431321
 30
0.0
 10
33.51551304225745
 20
2612.749120177963
 30
0.0
 10
27.88365629729378
 20
2606.961530122765
 30
0.0
 10
22.20290708445725
 20
2598.514841678137
 30
0.0
 10
18.50903370273511
 20
2588.320687949275
 30
0.0
 10
17.45044644868108
 20
2579.326218799029
 30
0.0
 10
18.45253731067294
 20
2572.794124238005
 30
0.0
 10
21.0247697377938
 20
2568.287378518482
 30
0.0
 10
23.11770214955823
 20
2566.541869606789
 30
0.0
 10
24.14462375196854
 20
2565.948976167995
 30
0.0
  0
LINE
  5
2B7
330
1FB
100
AcDbEntity
  8
0
  6
Continuous
 62
     0
370
    30
100
AcDbLine
 10
56.973052
 20
2616.277507
 30
0.0
 11
54.144625
 21
2617.9105
 31
0.0
  0
LINE
  5
2B8
330
1FB
100
AcDbEntity
  8
0
  6
Continuous
 62
     0
370
    30
100
AcDbLine
 10
26.973051
 20
2564.315983
 30
0.0
 11
24.144624
 21
2565.948976
 31
0.0
  0
ELLIPSE
  5
2B9
330
1FB
100
AcDbEntity
  8
0
  6
Continuous
 62
     0
370
     0
100
AcDbEllipse
 10
65.382961
 20
2563.717082
 30
0.0
 11
-11.40000000000001
 21
3.269246939829886E-9
 31
0.0
210
0.0
220
0.0
230
1.0
 40
0.57735
 41
-0.0000000086396881
 42
1.810132962509465
  0
SPLINE
  5
2BA
330
1FB
100
AcDbEntity
  8
0
  6
Continuous
 62
     0
370
    30
100
AcDbSpline
210
0.0
220
0.0
230
1.0
 70
     8
 71
     3
 72
    16
 73
    12
 74
     0
 42
0.000000001
 43
0.0
 40
0.0
 40
0.0
 40
0.0
 40
0.0
 40
1.155352349138139
 40
2.800957368473123
 40
4.745662614963139
 40
6.971991447032245
 40
10.58553066842527
 40
13.93189755957087
 40
16.92965541253649
 40
20.3490570639931
 40
20.67546453577047
 40
20.67546453577047
 40
20.67546453577047
 40
20.67546453577047
 10
53.98296141848539
 20
2563.717081919714
 30
0.0
 10
53.98296141509468
 20
2563.487105595452
 30
0.0
 10
54.03196358583864
 20
2562.929134521468
 30
0.0
 10
54.31462985954875
 20
2561.999001866415
 30
0.0
 10
54.9626862309309
 20
2560.911793101408
 30
0.0
 10
56.26451216906435
 20
2559.58276253287
 30
0.0
 10
58.44016502911131
 20
2558.292599562671
 30
0.0
 10
61.40287967188988
 20
2557.376159558688
 30
0.0
 10
64.61332742642867
 20
2556.977425560899
 30
0.0
 10
66.8807880353103
 20
2557.071433931458
 30
0.0
 10
68.09504593776708
 20
2557.240835367536
 30
0.0
 10
68.20046997052647
 20
2557.25647828495
 30
0.0
  0
LINE
  5
2BB
330
1FB
100
AcDbEntity
  8
0
  6
Continuous
 62
     0
370
    30
100
AcDbLine
 10
53.982961
 20
2565.464961
 30
0.0
 11
53.982961
 21
2563.717082
 31
0.0
  0
ELLIPSE
  5
2BC
330
1FB
100
AcDbEntity
  8
0
  6
Continuous
 62
     0
370
     0
100
AcDbEllipse
 10
124.704547
 20
2607.851421
 30
0.0
 11
11.05000057588016
 21
19.13916109115153
 31
0.0
210
0.0
220
0.0
230
1.0
 40
0.57735
 41
6.256742142674764
 42
9.552710050862085
  0
ELLIPSE
  5
2BD
330
1FB
100
AcDbEntity
  8
0
  6
Continuous
 62
     0
370
     0
100
AcDbEllipse
 10
125.0581
 20
2607.647297
 30
0.0
 11
10.8000005628512
 21
18.70614839678158
 31
0.0
210
0.0
220
0.0
230
1.0
 40
0.57735
 41
5.962939245642323
 42
6.256742142674764
  0
ELLIPSE
  5
2BE
330
1FB
100
AcDbEntity
  8
0
  6
Continuous
 62
     0
370
     0
100
AcDbEllipse
 10
125.0581
 20
2607.647297
 30
0.0
 11
10.8000005628512
 21
18.70614839678158
 31
0.0
210
0.0
220
0.0
230
1.0
 40
0.57735
 41
6.256742142674764
 42
9.424897000054912
  0
ELLIPSE
  5
2BF
330
1FB
100
AcDbEntity
  8
0
  6
Continuous
 62
     0
370
    30
100
AcDbEllipse
 10
97.834489
 20
2623.364857
 30
0.0
 11
-11.05000057588016
 21
-19.13916109115153
 31
0.0
210
0.0
220
0.0
230
-1.0
 40
0.57735
 41
3.128939569895506
 42
3.141592624820814
  0
ELLIPSE
  5
2C0
330
1FB
100
AcDbEntity
  8
0
  6
Continuous
 62
     0
370
    30
100
AcDbEllipse
 10
125.0581
 20
2607.647297
 30
0.0
 11
-10.0750005250672
 21
-17.45041158310874
 31
0.0
210
0.0
220
0.0
230
-1.0
 40
0.57735
 41
2.377949725939995
 42
2.571523758606176
  0
SPLINE
  5
2C1
330
1FB
100
AcDbEntity
  8
0
  6
Continuous
 62
     0
370
    30
100
AcDbSpline
210
0.0
220
0.0
230
1.0
 70
     8
 71
     3
 72
    10
 73
     6
 74
     0
 42
0.000000001
 43
0.0
 40
61.26181519752867
 40
61.26181519752867
 40
61.26181519752867
 40
61.26181519752867
 40
65.12640292756436
 40
67.05600660957073
 40
68.45460503600238
 40
68.45460503600238
 40
68.45460503600238
 40
68.45460503600238
 10
139.0095799526677
 20
2623.491074418073
 30
0.0
 10
138.6159093017412
 20
2624.24588972909
 30
0.0
 10
137.910804809243
 20
2625.259772289801
 30
0.0
 10
136.8378035563222
 20
2626.263255850571
 30
0.0
 10
136.2928092140201
 20
2626.655626919372
 30
0.0
 10
136.0558788199642
 20
2626.807284145455
 30
0.0
  0
SPLINE
  5
2C2
330
1FB
100
AcDbEntity
  8
0
  6
Continuous
 62
     0
370
    30
100
AcDbSpline
210
0.0
220
0.0
230
1.0
 70
     8
 71
     3
 72
     9
 73
     5
 74
     0
 42
0.000000001
 43
0.0
 40
0.0
 40
0.0
 40
0.0
 40
0.0
 40
1.486482239076202
 40
2.741351771647786
 40
2.741351771647786
 40
2.741351771647786
 40
2.741351771647786
 10
113.6545464840947
 20
2588.712260069466
 30
0.0
 10
113.9133215287566
 20
2588.562856233838
 30
0.0
 10
114.4067626757702
 20
2588.315052328843
 30
0.0
 10
114.9269983491997
 20
2588.119850367258
 30
0.0
 10
115.1702351873563
 20
2588.041663959651
 30
0.0
  0
ARC
  5
2C3
330
1FB
100
AcDbEntity
  8
0
  6
Continuous
 62
     0
370
    30
100
AcDbCircle
 10
131.902308
 20
2620.318394
 30
0.0
 40
7.704404217887047
100
AcDbArc
 50
57.376486
 51
59.99968
  0
LINE
  5
2C4
330
1FB
100
AcDbEntity
  8
0
  6
Continuous
 62
     0
370
    30
100
AcDbLine
 10
108.884489
 20
2642.504019
 30
0.0
 11
135.754547
 21
2626.990583
 31
0.0
  0
LINE
  5
2C5
330
1FB
100
AcDbEntity
  8
0
  6
Continuous
 62
     0
370
    30
100
AcDbLine
 10
92.983635
 20
2600.646617
 30
0.0
 11
113.654546
 21
2588.71226
 31
0.0
  0
LINE
  5
2C6
330
1FB
100
AcDbEntity
  8
0
  6
Continuous
 62
     0
370
    30
100
AcDbLine
 10
128.112157
 20
2625.583586
 30
0.0
 11
128.462607
 21
2625.345347
 31
0.0
  0
LINE
  5
2C7
330
1FB
100
AcDbEntity
  8
0
  6
Continuous
 62
     0
370
    30
100
AcDbLine
 10
128.078293
 20
2625.211294
 30
0.0
 11
128.112157
 21
2625.583586
 31
0.0
  0
ELLIPSE
  5
2C8
330
1FB
100
AcDbEntity
  8
0
  6
Continuous
 62
     0
370
    30
100
AcDbEllipse
 10
125.482364
 20
2607.40235
 30
0.0
 11
10.15518211271034
 21
17.58929015708757
 31
0.0
210
0.0
220
0.0
230
1.0
 40
0.57735
 41
0.5763645145081862
 42
0.7736279910519395
  0
LINE
  5
2C9
330
1FB
100
AcDbEntity
  8
0
  6
Continuous
 62
     0
370
    30
100
AcDbLine
 10
125.6514
 20
2624.082135
 30
0.0
 11
125.300949
 21
2624.320374
 31
0.0
  0
ELLIPSE
  5
2CA
330
1FB
100
AcDbEntity
  8
0
  6
Continuous
 62
     0
370
    30
100
AcDbEllipse
 10
125.128811
 20
2607.606474
 30
0.0
 11
10.1750005302789
 21
17.62361666085665
 31
0.0
210
0.0
220
0.0
230
1.0
 40
0.57735
 41
0.7734352569377405
 42
2.823821875885827
  0
ELLIPSE
  5
2CB
330
1FB
100
AcDbEntity
  8
0
  6
Continuous
 62
     0
370
    30
100
AcDbEllipse
 10
125.128811
 20
2607.606474
 30
0.0
 11
10.1750005302789
 21
17.62361666085665
 31
0.0
210
0.0
220
0.0
230
1.0
 40
0.57735
 41
6.235809555291046
 42
6.859742555801971
  0
ARC
  5
2CC
330
1FB
100
AcDbEntity
  8
0
  6
Continuous
 62
     0
370
    30
100
AcDbCircle
 10
124.112292
 20
2608.089435
 30
0.0
 40
20.48602631209996
100
AcDbArc
 50
47.743992
 51
55.301036
  0
LINE
  5
2CD
330
1FB
100
AcDbEntity
  8
0
  6
Continuous
 62
     0
370
    30
100
AcDbLine
 10
71.732591
 20
2576.875831
 30
0.0
 11
72.50048
 21
2557.980999
 31
0.0
  0
ENDBLK
  5
2CF
330
1FB
100
AcDbEntity
  8
0
100
AcDbBlockEnd
  0
ENDSEC
  0
SECTION
  2
ENTITIES
  0
INSERT
  5
EA
330
1F
100
AcDbEntity
  8
0
  6
Continuous
 62
     7
370
     0
100
AcDbBlockReference
  2
a
 10
37.664284
 20
139.864532
 30
0.0
  0
INSERT
  5
156
330
1F
100
AcDbEntity
  8
0
  6
Continuous
 62
     7
370
     0
100
AcDbBlockReference
  2
b
 10
37.664299
 20
644.670197
 30
0.0
  0
INSERT
  5
1FA
330
1F
100
AcDbEntity
  8
0
  6
Continuous
 62
     7
370
     0
100
AcDbBlockReference
  2
c
 10
99.272438
 20
139.864532
 30
0.0
  0
INSERT
  5
2D0
330
1F
100
AcDbEntity
  8
0
  6
Continuous
 62
     7
370
     0
100
AcDbBlockReference
  2
d
 10
-278.153343
 20
1962.940765
 30
0.0
  0
ENDSEC
  0
SECTION
  2
OBJECTS
  0
DICTIONARY
  5
C
330
0
100
AcDbDictionary
281
     1
  3
ACAD_GROUP
350
D
  3
ACAD_LAYOUT
350
1A
  3
ACAD_MATERIAL
350
43
  3
ACAD_MLEADERSTYLE
350
6B
  3
ACAD_MLINESTYLE
350
17
  3
ACAD_PLOTSETTINGS
350
19
  3
ACAD_PLOTSTYLENAME
350
E
  3
ACAD_SCALELIST
350
47
  3
ACAD_TABLESTYLE
350
69
  3
ACAD_VISUALSTYLE
350
2A
  3
AcDbVariableDictionary
350
2D1
  0
DICTIONARY
  5
2DC
330
8
100
AcDbDictionary
280
     1
281
     1
  3
ACAD_XREC_ROUNDTRIP
360
2DD
  0
DICTIONARY
  5
D
102
{ACAD_REACTORS
330
C
102
}
330
C
100
AcDbDictionary
281
     1
  0
DICTIONARY
  5
1A
102
{ACAD_REACTORS
330
C
102
}
330
C
100
AcDbDictionary
281
     1
  3
Layout1
350
1E
  3
Layout2
350
26
  3
Model
350
22
  0
DICTIONARY
  5
43
102
{ACAD_REACTORS
330
C
102
}
330
C
100
AcDbDictionary
281
     1
  3
ByBlock
350
45
  3
ByLayer
350
44
  3
Global
350
46
  0
DICTIONARY
  5
6B
102
{ACAD_REACTORS
330
C
102
}
330
C
100
AcDbDictionary
281
     1
  3
Standard
350
6C
  0
DICTIONARY
  5
17
102
{ACAD_REACTORS
330
C
102
}
330
C
100
AcDbDictionary
281
     1
  3
Standard
350
18
  0
DICTIONARY
  5
19
102
{ACAD_REACTORS
330
C
102
}
330
C
100
AcDbDictionary
281
     1
  0
ACDBDICTIONARYWDFLT
  5
E
102
{ACAD_REACTORS
330
C
102
}
330
C
100
AcDbDictionary
281
     1
  3
Normal
350
F
100
AcDbDictionaryWithDefault
340
F
  0
DICTIONARY
  5
47
102
{ACAD_REACTORS
330
C
102
}
330
C
100
AcDbDictionary
281
     1
  3
A0
350
48
  3
A1
350
49
  3
A2
350
4A
  3
A3
350
4B
  3
A4
350
4C
  3
A5
350
4D
  3
A6
350
4E
  3
A7
350
4F
  3
A8
350
50
  3
A9
350
51
  3
B0
350
52
  3
B1
350
53
  3
B2
350
54
  3
B3
350
55
  3
B4
350
56
  3
B5
350
57
  3
B6
350
58
  3
B7
350
59
  3
B8
350
5A
  3
B9
350
5B
  3
C0
350
5C
  3
C1
350
5D
  3
C2
350
5E
  3
C3
350
5F
  3
C4
350
60
  3
C5
350
61
  3
C6
350
62
  3
C7
350
63
  3
C8
350
64
  3
C9
350
65
  3
D0
350
66
  3
D1
350
67
  3
D2
350
68
  0
DICTIONARY
  5
69
102
{ACAD_REACTORS
330
C
102
}
330
C
100
AcDbDictionary
281
     1
  3
Standard
350
6A
  0
DICTIONARY
  5
2A
102
{ACAD_REACTORS
330
C
102
}
330
C
100
AcDbDictionary
281
     1
  3
2dWireframe
350
2F
  3
Basic
350
32
  3
Brighten
350
36
  3
ColorChange
350
3A
  3
Conceptual
350
34
  3
Dim
350
35
  3
EdgeColorOff
350
3D
  3
Facepattern
350
39
  3
Flat
350
2B
  3
FlatWithEdges
350
2C
  3
Gouraud
350
2D
  3
GouraudWithEdges
350
2E
  3
Hidden
350
31
  3
JitterOff
350
3B
  3
Linepattern
350
38
  3
OverhangOff
350
3C
  3
Realistic
350
33
  3
Shaded
350
42
  3
Shaded with edges
350
41
  3
Shades of Gray
350
3E
  3
Sketchy
350
3F
  3
Thicken
350
37
  3
Wireframe
350
30
  3
X-Ray
350
40
  0
DICTIONARY
  5
2D1
102
{ACAD_REACTORS
330
C
102
}
330
C
100
AcDbDictionary
281
     1
  3
CANNOSCALE
350
2DE
  3
CENTEREXE
350
2D8
  3
CENTERLTYPEFILE
350
2D9
  3
CMLEADERSTYLE
350
2D3
  3
CTABLESTYLE
350
2D2
  3
DIMASSOC
350
2DA
  3
HIDETEXT
350
2DB
  3
MSLTSCALE
350
2DF
  3
PSOLHEIGHT
350
2D5
  3
PSOLWIDTH
350
2D4
  0
XRECORD
  5
2DD
102
{ACAD_REACTORS
330
2DC
102
}
330
2DC
100
AcDbXrecord
280
     1
102
VTR_0.000_0.000_1.000_1.000_VISUALSTYLE
340
2F
102
VTR_0.000_0.000_1.000_1.000_GRIDDISPLAY
 70
     3
102
VTR_0.000_0.000_1.000_1.000_GRIDMAJOR
 70
     5
102
VTR_0.000_0.000_1.000_1.000_DEFAULTLIGHTING
280
     1
102
VTR_0.000_0.000_1.000_1.000_DEFAULTLIGHTINGTYPE
 70
     1
102
VTR_0.000_0.000_1.000_1.000_BRIGHTNESS
141
0.0
102
VTR_0.000_0.000_1.000_1.000_CONTRAST
142
0.0
  0
LAYOUT
  5
1E
102
{ACAD_REACTORS
330
1A
102
}
330
1A
100
AcDbPlotSettings
  1

  2
none_device
  4

  6

 40
0.0
 41
0.0
 42
0.0
 43
0.0
 44
0.0
 45
0.0
 46
0.0
 47
0.0
 48
0.0
 49
0.0
140
0.0
141
0.0
142
1.0
143
1.0
 70
   688
 72
     1
 73
     0
 74
     5
  7

 75
    16
147
1.0
148
0.0
149
0.0
100
AcDbLayout
  1
Layout1
 70
     1
 71
     1
 10
0.0
 20
0.0
 11
420.0
 21
297.0
 12
0.0
 22
0.0
 32
0.0
 14
1.000000E+20
 24
1.000000E+20
 34
1.000000E+20
 15
-1.000000E+20
 25
-1.000000E+20
 35
-1.000000E+20
146
0.0
 13
0.0
 23
0.0
 33
0.0
 16
1.0
 26
0.0
 36
0.0
 17
0.0
 27
1.0
 37
0.0
 76
     0
330
1B
  0
LAYOUT
  5
26
102
{ACAD_REACTORS
330
1A
102
}
330
1A
100
AcDbPlotSettings
  1

  2
none_device
  4

  6

 40
0.0
 41
0.0
 42
0.0
 43
0.0
 44
0.0
 45
0.0
 46
0.0
 47
0.0
 48
0.0
 49
0.0
140
0.0
141
0.0
142
1.0
143
1.0
 70
   688
 72
     1
 73
     0
 74
     5
  7

 75
    16
147
1.0
148
0.0
149
0.0
100
AcDbLayout
  1
Layout2
 70
     1
 71
     2
 10
0.0
 20
0.0
 11
0.0
 21
0.0
 12
0.0
 22
0.0
 32
0.0
 14
0.0
 24
0.0
 34
0.0
 15
0.0
 25
0.0
 35
0.0
146
0.0
 13
0.0
 23
0.0
 33
0.0
 16
1.0
 26
0.0
 36
0.0
 17
0.0
 27
1.0
 37
0.0
 76
     0
330
23
  0
LAYOUT
  5
22
102
{ACAD_REACTORS
330
1A
102
}
330
1A
100
AcDbPlotSettings
  1

  2
none_device
  4
Letter_(8.50_x_11.00_Inches)
  6

 40
6.35
 41
6.35
 42
6.350005
 43
6.350005
 44
215.9
 45
279.4
 46
0.0
 47
0.0
 48
0.0
 49
0.0
140
0.0
141
0.0
142
1.0
143
1.0
 70
  1712
 72
     1
 73
     0
 74
     0
  7

 75
     0
147
1.0
148
0.0
149
0.0
100
AcDbLayout
  1
Model
 70
     1
 71
     0
 10
17.791048
 20
598.077026
 11
561.561401
 21
2689.697998
 12
0.0
 22
0.0
 32
0.0
 14
17.791048
 24
598.077026
 34
0.0
 15
561.561401
 25
2689.697998
 35
0.0
146
0.0
 13
0.0
 23
0.0
 33
0.0
 16
1.0
 26
0.0
 36
0.0
 17
0.0
 27
1.0
 37
0.0
 76
     0
330
1F
331
29
  0
MATERIAL
  5
45
102
{ACAD_REACTORS
330
43
102
}
102
{ACAD_XDICTIONARY
360
312
102
}
330
43
100
AcDbMaterial
  1
ByBlock
  0
MATERIAL
  5
44
102
{ACAD_REACTORS
330
43
102
}
102
{ACAD_XDICTIONARY
360
310
102
}
330
43
100
AcDbMaterial
  1
ByLayer
  0
MATERIAL
  5
46
102
{ACAD_REACTORS
330
43
102
}
102
{ACAD_XDICTIONARY
360
314
102
}
330
43
100
AcDbMaterial
  1
Global
  0
MLEADERSTYLE
  5
6C
102
{ACAD_REACTORS
330
6B
102
}
102
{ACAD_XDICTIONARY
360
317
102
}
330
6B
100
AcDbMLeaderStyle
170
     2
171
     1
172
     0
 90
        2
 40
0.0
 41
0.0
173
     1
 91
-1056964608
340
14
 92
       -2
290
     1
 42
2.0
291
     1
 43
8.0
  3
Standard
341
0
 44
4.0
300

342
11
174
     1
178
     6
175
     1
176
     0
 93
-1056964608
 45
4.0
292
     0
297
     0
 46
4.0
343
0
 94
-1056964608
 47
1.0
 49
1.0
140
1.0
293
     1
141
0.0
294
     1
177
     0
142
1.0
295
     0
296
     0
143
3.75
1001
ACAD_MLEADERVER
1070
     2
  0
MLINESTYLE
  5
18
102
{ACAD_REACTORS
330
17
102
}
330
17
100
AcDbMlineStyle
  2
Standard
 70
     0
  3

 62
   256
 51
90.0
 52
90.0
 71
     2
 49
0.5
 62
   256
  6
BYLAYER
 49
-0.5
 62
   256
  6
BYLAYER
  0
ACDBPLACEHOLDER
  5
F
102
{ACAD_REACTORS
330
E
102
}
330
E
  0
SCALE
  5
48
102
{ACAD_REACTORS
330
47
102
}
330
47
100
AcDbScale
 70
     0
300
1:1
140
1.0
141
1.0
290
     1
  0
SCALE
  5
49
102
{ACAD_REACTORS
330
47
102
}
330
47
100
AcDbScale
 70
     0
300
1:2
140
1.0
141
2.0
290
     0
  0
SCALE
  5
4A
102
{ACAD_REACTORS
330
47
102
}
330
47
100
AcDbScale
 70
     0
300
1:4
140
1.0
141
4.0
290
     0
  0
SCALE
  5
4B
102
{ACAD_REACTORS
330
47
102
}
330
47
100
AcDbScale
 70
     0
300
1:5
140
1.0
141
5.0
290
     0
  0
SCALE
  5
4C
102
{ACAD_REACTORS
330
47
102
}
330
47
100
AcDbScale
 70
     0
300
1:8
140
1.0
141
8.0
290
     0
  0
SCALE
  5
4D
102
{ACAD_REACTORS
330
47
102
}
330
47
100
AcDbScale
 70
     0
300
1:10
140
1.0
141
10.0
290
     0
  0
SCALE
  5
4E
102
{ACAD_REACTORS
330
47
102
}
330
47
100
AcDbScale
 70
     0
300
1:16
140
1.0
141
16.0
290
     0
  0
SCALE
  5
4F
102
{ACAD_REACTORS
330
47
102
}
330
47
100
AcDbScale
 70
     0
300
1:20
140
1.0
141
20.0
290
     0
  0
SCALE
  5
50
102
{ACAD_REACTORS
330
47
102
}
330
47
100
AcDbScale
 70
     0
300
1:30
140
1.0
141
30.0
290
     0
  0
SCALE
  5
51
102
{ACAD_REACTORS
330
47
102
}
330
47
100
AcDbScale
 70
     0
300
1:40
140
1.0
141
40.0
290
     0
  0
SCALE
  5
52
102
{ACAD_REACTORS
330
47
102
}
330
47
100
AcDbScale
 70
     0
300
1:50
140
1.0
141
50.0
290
     0
  0
SCALE
  5
53
102
{ACAD_REACTORS
330
47
102
}
330
47
100
AcDbScale
 70
     0
300
1:100
140
1.0
141
100.0
290
     0
  0
SCALE
  5
54
102
{ACAD_REACTORS
330
47
102
}
330
47
100
AcDbScale
 70
     0
300
2:1
140
2.0
141
1.0
290
     0
  0
SCALE
  5
55
102
{ACAD_REACTORS
330
47
102
}
330
47
100
AcDbScale
 70
     0
300
4:1
140
4.0
141
1.0
290
     0
  0
SCALE
  5
56
102
{ACAD_REACTORS
330
47
102
}
330
47
100
AcDbScale
 70
     0
300
8:1
140
8.0
141
1.0
290
     0
  0
SCALE
  5
57
102
{ACAD_REACTORS
330
47
102
}
330
47
100
AcDbScale
 70
     0
300
10:1
140
10.0
141
1.0
290
     0
  0
SCALE
  5
58
102
{ACAD_REACTORS
330
47
102
}
330
47
100
AcDbScale
 70
     0
300
100:1
140
100.0
141
1.0
290
     0
  0
SCALE
  5
59
102
{ACAD_REACTORS
330
47
102
}
330
47
100
AcDbScale
 70
     0
300
1/128" = 1'-0"
140
0.007812
141
12.0
290
     0
  0
SCALE
  5
5A
102
{ACAD_REACTORS
330
47
102
}
330
47
100
AcDbScale
 70
     0
300
1/64" = 1'-0"
140
0.015625
141
12.0
290
     0
  0
SCALE
  5
5B
102
{ACAD_REACTORS
330
47
102
}
330
47
100
AcDbScale
 70
     0
300
1/32" = 1'-0"
140
0.03125
141
12.0
290
     0
  0
SCALE
  5
5C
102
{ACAD_REACTORS
330
47
102
}
330
47
100
AcDbScale
 70
     0
300
1/16" = 1'-0"
140
0.0625
141
12.0
290
     0
  0
SCALE
  5
5D
102
{ACAD_REACTORS
330
47
102
}
330
47
100
AcDbScale
 70
     0
300
3/32" = 1'-0"
140
0.09375
141
12.0
290
     0
  0
SCALE
  5
5E
102
{ACAD_REACTORS
330
47
102
}
330
47
100
AcDbScale
 70
     0
300
1/8" = 1'-0"
140
0.125
141
12.0
290
     0
  0
SCALE
  5
5F
102
{ACAD_REACTORS
330
47
102
}
330
47
100
AcDbScale
 70
     0
300
3/16" = 1'-0"
140
0.1875
141
12.0
290
     0
  0
SCALE
  5
60
102
{ACAD_REACTORS
330
47
102
}
330
47
100
AcDbScale
 70
     0
300
1/4" = 1'-0"
140
0.25
141
12.0
290
     0
  0
SCALE
  5
61
102
{ACAD_REACTORS
330
47
102
}
330
47
100
AcDbScale
 70
     0
300
3/8" = 1'-0"
140
0.375
141
12.0
290
     0
  0
SCALE
  5
62
102
{ACAD_REACTORS
330
47
102
}
330
47
100
AcDbScale
 70
     0
300
1/2" = 1'-0"
140
0.5
141
12.0
290
     0
  0
SCALE
  5
63
102
{ACAD_REACTORS
330
47
102
}
330
47
100
AcDbScale
 70
     0
300
3/4" = 1'-0"
140
0.75
141
12.0
290
     0
  0
SCALE
  5
64
102
{ACAD_REACTORS
330
47
102
}
330
47
100
AcDbScale
 70
     0
300
1" = 1'-0"
140
1.0
141
12.0
290
     0
  0
SCALE
  5
65
102
{ACAD_REACTORS
330
47
102
}
330
47
100
AcDbScale
 70
     0
300
1-1/2" = 1'-0"
140
1.5
141
12.0
290
     0
  0
SCALE
  5
66
102
{ACAD_REACTORS
330
47
102
}
330
47
100
AcDbScale
 70
     0
300
3" = 1'-0"
140
3.0
141
12.0
290
     0
  0
SCALE
  5
67
102
{ACAD_REACTORS
330
47
102
}
330
47
100
AcDbScale
 70
     0
300
6" = 1'-0"
140
6.0
141
12.0
290
     0
  0
SCALE
  5
68
102
{ACAD_REACTORS
330
47
102
}
330
47
100
AcDbScale
 70
     0
300
1'-0" = 1'-0"
140
12.0
141
12.0
290
     0
  0
TABLESTYLE
  5
6A
102
{ACAD_REACTORS
330
69
102
}
330
69
100
AcDbTableStyle
  3
Standard
 70
     0
 71
     0
 40
1.5
 41
1.5
280
     0
281
     0
  7
Standard
140
4.5
170
     2
 62
     0
 63
   257
283
     0
274
    -2
284
     1
 64
     0
275
    -2
285
     1
 65
     0
276
    -2
286
     1
 66
     0
277
    -2
287
     1
 67
     0
278
    -2
288
     1
 68
     0
279
    -2
289
     1
 69
     0
  7
Standard
140
6.0
170
     5
 62
     0
 63
   257
283
     0
274
    -2
284
     1
 64
     0
275
    -2
285
     1
 65
     0
276
    -2
286
     1
 66
     0
277
    -2
287
     1
 67
     0
278
    -2
288
     1
 68
     0
279
    -2
289
     1
 69
     0
  7
Standard
140
4.5
170
     5
 62
     0
 63
   257
283
     0
274
    -2
284
     1
 64
     0
275
    -2
285
     1
 65
     0
276
    -2
286
     1
 66
     0
277
    -2
287
     1
 67
     0
278
    -2
288
     1
 68
     0
279
    -2
289
     1
 69
     0
  0
VISUALSTYLE
  5
2F
102
{ACAD_REACTORS
330
2A
102
}
102
{ACAD_XDICTIONARY
360
2E8
102
}
330
2A
100
AcDbVisualStyle
  2
2dWireframe
 70
     4
 71
     0
 72
     2
 73
     0
 90
        0
 40
0.6
 41
30.0
 62
     5
 63
     7
 74
     1
 91
        4
 64
     7
 65
   257
 75
     1
175
     1
 42
1.0
 92
        0
 66
   257
 43
1.0
 76
     1
 77
     6
 78
     2
 67
     7
 79
     5
170
     0
171
     0
290
     0
174
     0
 93
        1
 44
0.0
173
     0
291
     0
 45
0.0
1001
ACAD
1000
AcDbSavedByObjectVersion
1070
     0
  0
VISUALSTYLE
  5
32
102
{ACAD_REACTORS
330
2A
102
}
102
{ACAD_XDICTIONARY
360
2EE
102
}
330
2A
100
AcDbVisualStyle
  2
Basic
 70
     7
 71
     1
 72
     0
 73
     1
 90
        0
 40
0.6
 41
30.0
 62
     5
 63
     7
 74
     0
 91
        4
 64
     7
 65
   257
 75
     1
175
     1
 42
1.0
 92
        8
 66
     7
 43
1.0
 76
     1
 77
     6
 78
     2
 67
     7
 79
     5
170
     0
171
     0
290
     0
174
     0
 93
        1
 44
0.0
173
     0
291
     1
 45
0.0
1001
ACAD
1000
AcDbSavedByObjectVersion
1070
     0
  0
VISUALSTYLE
  5
36
102
{ACAD_REACTORS
330
2A
102
}
102
{ACAD_XDICTIONARY
360
2F6
102
}
330
2A
100
AcDbVisualStyle
  2
Brighten
 70
    12
 71
     2
 72
     2
 73
     0
 90
        0
 40
0.6
 41
30.0
 62
     5
 63
     7
 74
     1
 91
        4
 64
     7
 65
   257
 75
     1
175
     1
 42
1.0
 92
        8
 66
     7
 43
1.0
 76
     1
 77
     6
 78
     2
 67
     7
 79
     5
170
     0
171
     0
290
     0
174
     0
 93
        1
 44
50.0
173
     0
291
     1
 45
0.0
1001
ACAD
1000
AcDbSavedByObjectVersion
1070
     0
  0
VISUALSTYLE
  5
3A
102
{ACAD_REACTORS
330
2A
102
}
102
{ACAD_XDICTIONARY
360
2FE
102
}
330
2A
100
AcDbVisualStyle
  2
ColorChange
 70
    16
 71
     2
 72
     2
 73
     3
 90
        0
 40
0.6
 41
30.0
 62
     5
 63
     8
 74
     1
 91
        4
 64
     7
 65
   257
 75
     1
175
     1
 42
1.0
 92
        8
 66
     8
 43
1.0
 76
     1
 77
     6
 78
     2
 67
     7
 79
     5
170
     0
171
     0
290
     0
174
     0
 93
        1
 44
0.0
173
     0
291
     1
 45
0.0
1001
ACAD
1000
AcDbSavedByObjectVersion
1070
     0
  0
VISUALSTYLE
  5
34
102
{ACAD_REACTORS
330
2A
102
}
102
{ACAD_XDICTIONARY
360
2F2
102
}
330
2A
100
AcDbVisualStyle
  2
Conceptual
 70
     9
 71
     3
 72
     2
 73
     0
 90
        0
 40
0.6
 41
30.0
 62
     5
 63
     7
 74
     2
 91
        2
 64
     7
 65
   257
 75
     1
175
     1
 42
179.0
 92
        8
 66
     7
 43
1.0
 76
     1
 77
     6
 78
     2
 67
     7
 79
     3
170
     0
171
     0
290
     0
174
     0
 93
        1
 44
0.0
173
     0
291
     0
 45
0.0
1001
ACAD
1000
AcDbSavedByObjectVersion
1070
     0
  0
VISUALSTYLE
  5
35
102
{ACAD_REACTORS
330
2A
102
}
102
{ACAD_XDICTIONARY
360
2F4
102
}
330
2A
100
AcDbVisualStyle
  2
Dim
 70
    11
 71
     2
 72
     2
 73
     0
 90
        0
 40
0.6
 41
30.0
 62
     5
 63
     7
 74
     1
 91
        4
 64
     7
 65
   257
 75
     1
175
     1
 42
1.0
 92
        8
 66
     7
 43
1.0
 76
     1
 77
     6
 78
     2
 67
     7
 79
     5
170
     0
171
     0
290
     0
174
     0
 93
        1
 44
-50.0
173
     0
291
     1
 45
0.0
1001
ACAD
1000
AcDbSavedByObjectVersion
1070
     0
  0
VISUALSTYLE
  5
3D
102
{ACAD_REACTORS
330
2A
102
}
102
{ACAD_XDICTIONARY
360
304
102
}
330
2A
100
AcDbVisualStyle
  2
EdgeColorOff
 70
    22
 71
     2
 72
     2
 73
     0
 90
        0
 40
0.6
 41
30.0
 62
     5
 63
     7
 74
     1
 91
        4
 64
     7
 65
   257
 75
     1
175
     1
 42
1.0
 92
        8
 66
     7
 43
1.0
 76
     1
 77
     6
 78
     2
 67
     7
 79
     5
170
     0
171
     0
290
     0
174
     0
 93
        1
 44
0.0
173
     0
291
     1
 45
0.0
1001
ACAD
1000
AcDbSavedByObjectVersion
1070
     0
  0
VISUALSTYLE
  5
39
102
{ACAD_REACTORS
330
2A
102
}
102
{ACAD_XDICTIONARY
360
2FC
102
}
330
2A
100
AcDbVisualStyle
  2
Facepattern
 70
    15
 71
     2
 72
     2
 73
     0
 90
        0
 40
0.6
 41
30.0
 62
     5
 63
     7
 74
     1
 91
        4
 64
     7
 65
   257
 75
     1
175
     1
 42
1.0
 92
        8
 66
     7
 43
1.0
 76
     1
 77
     6
 78
     2
 67
     7
 79
     5
170
     0
171
     0
290
     0
174
     0
 93
        1
 44
0.0
173
     0
291
     1
 45
0.0
1001
ACAD
1000
AcDbSavedByObjectVersion
1070
     0
  0
VISUALSTYLE
  5
2B
102
{ACAD_REACTORS
330
2A
102
}
102
{ACAD_XDICTIONARY
360
2E0
102
}
330
2A
100
AcDbVisualStyle
  2
Flat
 70
     0
 71
     2
 72
     1
 73
     1
 90
        2
 40
0.6
 41
30.0
 62
     5
 63
     7
 74
     0
 91
        0
 64
     7
 65
   257
 75
     1
175
     1
 42
1.0
 92
        8
 66
     7
 43
1.0
 76
     1
 77
     6
 78
     2
 67
     7
 79
     5
170
     0
171
     0
290
     0
174
     0
 93
       13
 44
0.0
173
     0
291
     1
 45
0.0
1001
ACAD
1000
AcDbSavedByObjectVersion
1070
     0
  0
VISUALSTYLE
  5
2C
102
{ACAD_REACTORS
330
2A
102
}
102
{ACAD_XDICTIONARY
360
2E2
102
}
330
2A
100
AcDbVisualStyle
  2
FlatWithEdges
 70
     1
 71
     2
 72
     1
 73
     1
 90
        2
 40
0.6
 41
30.0
 62
     5
 63
     7
 74
     1
 91
        0
 64
     7
 65
   257
 75
     1
175
     1
 42
1.0
 92
        0
 66
   257
 43
1.0
 76
     1
 77
     6
 78
     2
 67
     7
 79
     5
170
     0
171
     0
290
     0
174
     0
 93
       13
 44
0.0
173
     0
291
     1
 45
0.0
1001
ACAD
1000
AcDbSavedByObjectVersion
1070
     0
  0
VISUALSTYLE
  5
2D
102
{ACAD_REACTORS
330
2A
102
}
102
{ACAD_XDICTIONARY
360
2E4
102
}
330
2A
100
AcDbVisualStyle
  2
Gouraud
 70
     2
 71
     2
 72
     2
 73
     1
 90
        2
 40
0.6
 41
30.0
 62
     5
 63
     7
 74
     0
 91
        0
 64
     7
 65
   257
 75
     1
175
     1
 42
1.0
 92
        0
 66
     7
 43
1.0
 76
     1
 77
     6
 78
     2
 67
     7
 79
     5
170
     0
171
     0
290
     0
174
     0
 93
       13
 44
0.0
173
     0
291
     1
 45
0.0
1001
ACAD
1000
AcDbSavedByObjectVersion
1070
     0
  0
VISUALSTYLE
  5
2E
102
{ACAD_REACTORS
330
2A
102
}
102
{ACAD_XDICTIONARY
360
2E6
102
}
330
2A
100
AcDbVisualStyle
  2
GouraudWithEdges
 70
     3
 71
     2
 72
     2
 73
     1
 90
        2
 40
0.6
 41
30.0
 62
     5
 63
     7
 74
     1
 91
        0
 64
     7
 65
   257
 75
     1
175
     1
 42
1.0
 92
        0
 66
   257
 43
1.0
 76
     1
 77
     6
 78
     2
 67
     7
 79
     5
170
     0
171
     0
290
     0
174
     0
 93
       13
 44
0.0
173
     0
291
     1
 45
0.0
1001
ACAD
1000
AcDbSavedByObjectVersion
1070
     0
  0
VISUALSTYLE
  5
31
102
{ACAD_REACTORS
330
2A
102
}
102
{ACAD_XDICTIONARY
360
2EC
102
}
330
2A
100
AcDbVisualStyle
  2
Hidden
 70
     6
 71
     1
 72
     2
 73
     2
 90
        0
 40
0.6
 41
30.0
 62
     5
 63
     7
 74
     2
 91
        2
 64
     7
 65
   257
 75
     2
175
     1
 42
40.0
 92
        0
 66
   257
 43
1.0
 76
     1
 77
     6
 78
     2
 67
     7
 79
     3
170
     0
171
     0
290
     0
174
     0
 93
        1
 44
0.0
173
     0
291
     0
 45
0.0
1001
ACAD
1000
AcDbSavedByObjectVersion
1070
     0
  0
VISUALSTYLE
  5
3B
102
{ACAD_REACTORS
330
2A
102
}
102
{ACAD_XDICTIONARY
360
300
102
}
330
2A
100
AcDbVisualStyle
  2
JitterOff
 70
    20
 71
     2
 72
     2
 73
     0
 90
        0
 40
0.6
 41
30.0
 62
     5
 63
     7
 74
     1
 91
        4
 64
     7
 65
   257
 75
     1
175
     1
 42
1.0
 92
       10
 66
     7
 43
1.0
 76
     1
 77
     6
 78
     2
 67
     7
 79
     5
170
     0
171
     0
290
     0
174
     0
 93
        1
 44
0.0
173
     0
291
     1
 45
0.0
1001
ACAD
1000
AcDbSavedByObjectVersion
1070
     0
  0
VISUALSTYLE
  5
38
102
{ACAD_REACTORS
330
2A
102
}
102
{ACAD_XDICTIONARY
360
2FA
102
}
330
2A
100
AcDbVisualStyle
  2
Linepattern
 70
    14
 71
     2
 72
     2
 73
     0
 90
        0
 40
0.6
 41
30.0
 62
     5
 63
     7
 74
     1
 91
        4
 64
     7
 65
   257
 75
     7
175
     7
 42
1.0
 92
        8
 66
     7
 43
1.0
 76
     1
 77
     6
 78
     2
 67
     7
 79
     5
170
     0
171
     0
290
     0
174
     0
 93
        1
 44
0.0
173
     0
291
     1
 45
0.0
1001
ACAD
1000
AcDbSavedByObjectVersion
1070
     0
  0
VISUALSTYLE
  5
3C
102
{ACAD_REACTORS
330
2A
102
}
102
{ACAD_XDICTIONARY
360
302
102
}
330
2A
100
AcDbVisualStyle
  2
OverhangOff
 70
    21
 71
     2
 72
     2
 73
     0
 90
        0
 40
0.6
 41
30.0
 62
     5
 63
     7
 74
     1
 91
        4
 64
     7
 65
   257
 75
     1
175
     1
 42
1.0
 92
        9
 66
     7
 43
1.0
 76
     1
 77
     6
 78
     2
 67
     7
 79
     5
170
     0
171
     0
290
     0
174
     0
 93
        1
 44
0.0
173
     0
291
     1
 45
0.0
1001
ACAD
1000
AcDbSavedByObjectVersion
1070
     0
  0
VISUALSTYLE
  5
33
102
{ACAD_REACTORS
330
2A
102
}
102
{ACAD_XDICTIONARY
360
2F0
102
}
330
2A
100
AcDbVisualStyle
  2
Realistic
 70
     8
 71
     2
 72
     3
 73
     0
 90
        2
 40
0.6
 41
30.0
 62
     5
 63
     7
 74
     0
 91
        0
 64
     7
 65
   257
 75
     1
175
     1
 42
1.0
 92
        8
 66
   257
 43
1.0
 76
     1
 77
     6
 78
     2
 67
     7
 79
     3
170
     0
171
     0
290
     0
174
     0
 93
       13
 44
0.0
173
     0
291
     0
 45
0.0
1001
ACAD
1000
AcDbSavedByObjectVersion
1070
     0
  0
VISUALSTYLE
  5
42
102
{ACAD_REACTORS
330
2A
102
}
102
{ACAD_XDICTIONARY
360
30E
102
}
330
2A
100
AcDbVisualStyle
  2
Shaded
 70
    27
 71
     2
 72
     2
 73
     1
 90
        2
 40
0.6
 41
30.0
 62
     5
 63
     7
 74
     0
 91
        4
 64
     7
 65
   257
 75
     1
175
     1
 42
1.0
 92
        8
 66
   257
 43
1.0
 76
     1
 77
     6
 78
     2
 67
     8
 79
     3
170
     0
171
     0
290
     0
174
     0
 93
        5
 44
0.0
173
     0
291
     0
 45
0.0
1001
ACAD
1000
AcDbSavedByObjectVersion
1070
     0
  0
VISUALSTYLE
  5
41
102
{ACAD_REACTORS
330
2A
102
}
102
{ACAD_XDICTIONARY
360
30C
102
}
330
2A
100
AcDbVisualStyle
  2
Shaded with edges
 70
    26
 71
     2
 72
     2
 73
     1
 90
        2
 40
0.6
 41
30.0
 62
     5
 63
     7
 74
     1
 91
       10
 64
     7
 65
   257
 75
     2
175
     1
 42
1.0
 92
        8
 66
   257
 43
1.0
 76
     1
 77
     6
 78
     2
 67
     7
 79
     3
170
     0
171
     0
290
     0
174
     0
 93
        5
 44
0.0
173
     0
291
     0
 45
0.0
1001
ACAD
1000
AcDbSavedByObjectVersion
1070
     0
  0
VISUALSTYLE
  5
3E
102
{ACAD_REACTORS
330
2A
102
}
102
{ACAD_XDICTIONARY
360
306
102
}
330
2A
100
AcDbVisualStyle
  2
Shades of Gray
 70
    23
 71
     2
 72
     2
 73
     3
 90
        0
 40
0.6
 41
30.0
 62
     5
 63
     7
 74
     2
 91
        2
 64
     7
 65
     7
 75
     1
175
     1
 42
40.0
 92
        8
 66
     7
 43
1.0
 76
     1
 77
     6
 78
     2
 67
     7
 79
     3
170
     0
171
     0
290
     0
174
     0
 93
        1
 44
0.0
173
     0
291
     0
 45
0.0
1001
ACAD
1000
AcDbSavedByObjectVersion
1070
     0
  0
VISUALSTYLE
  5
3F
102
{ACAD_REACTORS
330
2A
102
}
102
{ACAD_XDICTIONARY
360
308
102
}
330
2A
100
AcDbVisualStyle
  2
Sketchy
 70
    24
 71
     1
 72
     2
 73
     2
 90
        0
 40
0.6
 41
30.0
 62
     5
 63
     7
 74
     2
 91
        2
 64
     7
 65
     7
 75
     1
175
     1
 42
40.0
 92
       11
 66
     7
 43
1.0
 76
     1
 77
     6
 78
     2
 67
     7
 79
     6
170
     0
171
     0
290
     0
174
     0
 93
        1
 44
0.0
173
     0
291
     0
 45
0.0
1001
ACAD
1000
AcDbSavedByObjectVersion
1070
     0
  0
VISUALSTYLE
  5
37
102
{ACAD_REACTORS
330
2A
102
}
102
{ACAD_XDICTIONARY
360
2F8
102
}
330
2A
100
AcDbVisualStyle
  2
Thicken
 70
    13
 71
     2
 72
     2
 73
     0
 90
        0
 40
0.6
 41
30.0
 62
     5
 63
     7
 74
     1
 91
        4
 64
     7
 65
   257
 75
     1
175
     1
 42
1.0
 92
       12
 66
     7
 43
1.0
 76
     1
 77
     6
 78
     2
 67
     7
 79
     5
170
     0
171
     0
290
     0
174
     0
 93
        1
 44
0.0
173
     0
291
     1
 45
0.0
1001
ACAD
1000
AcDbSavedByObjectVersion
1070
     0
  0
VISUALSTYLE
  5
30
102
{ACAD_REACTORS
330
2A
102
}
102
{ACAD_XDICTIONARY
360
2EA
102
}
330
2A
100
AcDbVisualStyle
  2
Wireframe
 70
     5
 71
     0
 72
     2
 73
     0
 90
        0
 40
0.6
 41
30.0
 62
     5
 63
     7
 74
     1
 91
        4
 64
     7
 65
   257
 75
     1
175
     1
 42
1.0
 92
        0
 66
   257
 43
1.0
 76
     1
 77
     6
 78
     2
 67
     7
 79
     3
170
     0
171
     0
290
     0
174
     0
 93
        1
 44
0.0
173
     0
291
     0
 45
0.0
1001
ACAD
1000
AcDbSavedByObjectVersion
1070
     0
  0
VISUALSTYLE
  5
40
102
{ACAD_REACTORS
330
2A
102
}
102
{ACAD_XDICTIONARY
360
30A
102
}
330
2A
100
AcDbVisualStyle
  2
X-Ray
 70
    25
 71
     2
 72
     2
 73
     1
 90
        1
 40
0.5
 41
30.0
 62
     5
 63
     7
 74
     1
 91
        0
 64
     7
 65
   257
 75
     1
175
     1
 42
1.0
 92
        8
 66
     7
 43
1.0
 76
     1
 77
     6
 78
     2
 67
     7
 79
     3
170
     0
171
     0
290
     0
174
     0
 93
       13
 44
0.0
173
     0
291
     0
 45
0.0
1001
ACAD
1000
AcDbSavedByObjectVersion
1070
     0
  0
DICTIONARYVAR
  5
2DE
102
{ACAD_REACTORS
330
2D1
102
}
330
2D1
100
DictionaryVariables
280
     0
  1
1:1
  0
DICTIONARYVAR
  5
2D8
102
{ACAD_REACTORS
330
2D1
102
}
330
2D1
100
DictionaryVariables
280
     0
  1
3.500000
  0
DICTIONARYVAR
  5
2D9
102
{ACAD_REACTORS
330
2D1
102
}
330
2D1
100
DictionaryVariables
280
     0
  1
acadiso.lin
  0
DICTIONARYVAR
  5
2D3
102
{ACAD_REACTORS
330
2D1
102
}
330
2D1
100
DictionaryVariables
280
     0
  1
Standard
  0
DICTIONARYVAR
  5
2D2
102
{ACAD_REACTORS
330
2D1
102
}
330
2D1
100
DictionaryVariables
280
     0
  1
Standard
  0
DICTIONARYVAR
  5
2DA
102
{ACAD_REACTORS
330
2D1
102
}
330
2D1
100
DictionaryVariables
280
     0
  1
2
  0
DICTIONARYVAR
  5
2DB
102
{ACAD_REACTORS
330
2D1
102
}
330
2D1
100
DictionaryVariables
280
     0
  1
1
  0
DICTIONARYVAR
  5
2DF
102
{ACAD_REACTORS
330
2D1
102
}
330
2D1
100
DictionaryVariables
280
     0
  1
1
  0
DICTIONARYVAR
  5
2D5
102
{ACAD_REACTORS
330
2D1
102
}
330
2D1
100
DictionaryVariables
280
     0
  1
80.000000
  0
DICTIONARYVAR
  5
2D4
102
{ACAD_REACTORS
330
2D1
102
}
330
2D1
100
DictionaryVariables
280
     0
  1
5.000000
  0
DICTIONARY
  5
312
330
45
100
AcDbDictionary
280
     1
281
     1
  3
ACAD_XREC_ROUNDTRIP
360
313
  0
DICTIONARY
  5
310
330
44
100
AcDbDictionary
280
     1
281
     1
  3
ACAD_XREC_ROUNDTRIP
360
311
  0
DICTIONARY
  5
314
330
46
100
AcDbDictionary
280
     1
281
     1
  3
ACAD_XREC_ROUNDTRIP
360
315
  0
DICTIONARY
  5
317
330
6C
100
AcDbDictionary
280
     1
281
     1
  3
ACAD_XREC_ROUNDTRIP
360
318
  0
DICTIONARY
  5
2E8
330
2F
100
AcDbDictionary
280
     1
281
     1
  3
ACAD_XREC_ROUNDTRIP
360
2E9
  0
DICTIONARY
  5
2EE
330
32
100
AcDbDictionary
280
     1
281
     1
  3
ACAD_XREC_ROUNDTRIP
360
2EF
  0
DICTIONARY
  5
2F6
330
36
100
AcDbDictionary
280
     1
281
     1
  3
ACAD_XREC_ROUNDTRIP
360
2F7
  0
DICTIONARY
  5
2FE
330
3A
100
AcDbDictionary
280
     1
281
     1
  3
ACAD_XREC_ROUNDTRIP
360
2FF
  0
DICTIONARY
  5
2F2
330
34
100
AcDbDictionary
280
     1
281
     1
  3
ACAD_XREC_ROUNDTRIP
360
2F3
  0
DICTIONARY
  5
2F4
330
35
100
AcDbDictionary
280
     1
281
     1
  3
ACAD_XREC_ROUNDTRIP
360
2F5
  0
DICTIONARY
  5
304
330
3D
100
AcDbDictionary
280
     1
281
     1
  3
ACAD_XREC_ROUNDTRIP
360
305
  0
DICTIONARY
  5
2FC
330
39
100
AcDbDictionary
280
     1
281
     1
  3
ACAD_XREC_ROUNDTRIP
360
2FD
  0
DICTIONARY
  5
2E0
330
2B
100
AcDbDictionary
280
     1
281
     1
  3
ACAD_XREC_ROUNDTRIP
360
2E1
  0
DICTIONARY
  5
2E2
330
2C
100
AcDbDictionary
280
     1
281
     1
  3
ACAD_XREC_ROUNDTRIP
360
2E3
  0
DICTIONARY
  5
2E4
330
2D
100
AcDbDictionary
280
     1
281
     1
  3
ACAD_XREC_ROUNDTRIP
360
2E5
  0
DICTIONARY
  5
2E6
330
2E
100
AcDbDictionary
280
     1
281
     1
  3
ACAD_XREC_ROUNDTRIP
360
2E7
  0
DICTIONARY
  5
2EC
330
31
100
AcDbDictionary
280
     1
281
     1
  3
ACAD_XREC_ROUNDTRIP
360
2ED
  0
DICTIONARY
  5
300
330
3B
100
AcDbDictionary
280
     1
281
     1
  3
ACAD_XREC_ROUNDTRIP
360
301
  0
DICTIONARY
  5
2FA
330
38
100
AcDbDictionary
280
     1
281
     1
  3
ACAD_XREC_ROUNDTRIP
360
2FB
  0
DICTIONARY
  5
302
330
3C
100
AcDbDictionary
280
     1
281
     1
  3
ACAD_XREC_ROUNDTRIP
360
303
  0
DICTIONARY
  5
2F0
330
33
100
AcDbDictionary
280
     1
281
     1
  3
ACAD_XREC_ROUNDTRIP
360
2F1
  0
DICTIONARY
  5
30E
330
42
100
AcDbDictionary
280
     1
281
     1
  3
ACAD_XREC_ROUNDTRIP
360
30F
  0
DICTIONARY
  5
30C
330
41
100
AcDbDictionary
280
     1
281
     1
  3
ACAD_XREC_ROUNDTRIP
360
30D
  0
DICTIONARY
  5
306
330
3E
100
AcDbDictionary
280
     1
281
     1
  3
ACAD_XREC_ROUNDTRIP
360
307
  0
DICTIONARY
  5
308
330
3F
100
AcDbDictionary
280
     1
281
     1
  3
ACAD_XREC_ROUNDTRIP
360
309
  0
DICTIONARY
  5
2F8
330
37
100
AcDbDictionary
280
     1
281
     1
  3
ACAD_XREC_ROUNDTRIP
360
2F9
  0
DICTIONARY
  5
2EA
330
30
100
AcDbDictionary
280
     1
281
     1
  3
ACAD_XREC_ROUNDTRIP
360
2EB
  0
DICTIONARY
  5
30A
330
40
100
AcDbDictionary
280
     1
281
     1
  3
ACAD_XREC_ROUNDTRIP
360
30B
  0
XRECORD
  5
313
102
{ACAD_REACTORS
330
312
102
}
330
312
100
AcDbXrecord
280
     1
102
MATERIAL
148
0.0
149
0.0
149
0.0
 93
        0
 94
      127
282
     0
 72
     1
 77
     1
171
     1
175
     1
179
     1
273
     0
  0
XRECORD
  5
311
102
{ACAD_REACTORS
330
310
102
}
330
310
100
AcDbXrecord
280
     1
102
MATERIAL
148
0.0
149
0.0
149
0.0
 93
        0
 94
      127
282
     0
 72
     1
 77
     1
171
     1
175
     1
179
     1
273
     0
  0
XRECORD
  5
315
102
{ACAD_REACTORS
330
314
102
}
330
314
100
AcDbXrecord
280
     1
102
MATERIAL
148
0.0
149
0.0
149
0.0
 93
        0
 94
      127
282
     0
 72
     1
 77
     1
171
     1
175
     1
179
     1
273
     0
  0
XRECORD
  5
318
102
{ACAD_REACTORS
330
317
102
}
330
317
100
AcDbXrecord
280
     1
102
ACAD_ROUNDTRIP_2010_MLEADER_STYLE
  0
XRECORD
  5
2E9
102
{ACAD_REACTORS
330
2E8
102
}
330
2E8
100
AcDbXrecord
280
     1
102
RTVSPropertyOp0
 70
     1
102
RTVSPropertyOp1
 70
     1
102
RTVSPropertyOp2
 70
     1
102
RTVSPropertyOp3
 70
     1
102
RTVSPropertyOp4
 70
     1
102
RTVSPropertyOp5
 70
     1
102
RTVSPropertyOp6
 70
     1
102
RTVSPropertyOp7
 70
     1
102
RTVSPropertyOp8
 70
     1
102
RTVSPropertyOp9
 70
     1
102
RTVSPropertyOp10
 70
     1
102
RTVSPropertyOp11
 70
     1
102
RTVSPropertyOp12
 70
     1
102
RTVSPropertyOp13
 70
     1
102
RTVSPropertyOp14
 70
     1
102
RTVSPropertyOp15
 70
     1
102
RTVSPropertyOp16
 70
     1
102
RTVSPropertyOp17
 70
     1
102
RTVSPropertyOp18
 70
     1
102
RTVSPropertyOp19
 70
     1
102
RTVSPropertyOp20
 70
     1
102
RTVSPropertyOp21
 70
     1
102
RTVSPropertyOp22
 70
     1
102
RTVSPropertyOp23
 70
     1
102
RTVSPropertyOp24
 70
     1
102
RTVSPropertyOp25
 70
     1
102
RTVSPropertyOp26
 70
     1
102
RTVSPropertyOp27
 70
     1
102
RTVSPropertyOp28
 70
     1
102
RTVSPropertyOp29
 70
     1
102
RTVSPropertyOp30
 70
     1
102
RTVSPropertyOp31
 70
     1
102
RTVSPropertyOp32
 70
     1
102
RTVSPropertyOp33
 70
     1
102
RTVSPropertyOp34
 70
     1
102
RTVSPropertyOp35
 70
     1
102
RTVSPropertyOp36
 70
     1
102
RTVSPropertyOp37
 70
     1
102
RTVSPropertyOp38
 70
     1
102
RTVSPropertyOp39
 70
     1
102
RTVSPropertyOp40
 70
     1
102
RTVSPropertyOp41
 70
     1
102
RTVSPropertyOp42
 70
     1
102
RTVSPropertyOp43
 70
     1
102
RTVSPropertyOp44
 70
     1
102
RTVSPropertyOp45
 70
     1
102
RTVSPropertyOp46
 70
     1
102
RTVSPropertyOp47
 70
     1
102
RTVSPropertyOp48
 70
     1
102
RTVSPropertyOp49
 70
     1
102
RTVSPropertyOp50
 70
     1
102
RTVSPropertyOp51
 70
     0
102
RTVSPropertyOp52
 70
     0
102
RTVSPropertyOp53
 70
     1
102
RTVSPropertyOp54
 70
     1
102
RTVSPropertyOp55
 70
     1
102
RTVSPropertyOp56
 70
     1
102
RTVSPropertyOp57
 70
     1
102
RTVSPost2010Prop28
280
     1
102
RTVSPost2010PropOp28
 70
     1
102
RTVSPost2010Prop29
280
     1
102
RTVSPost2010PropOp29
 70
     1
102
RTVSPost2010Prop30
280
     0
102
RTVSPost2010PropOp30
 70
     1
102
RTVSPost2010Prop31
280
     0
102
RTVSPost2010PropOp31
 70
     1
102
RTVSPost2010Prop32
280
     0
102
RTVSPost2010PropOp32
 70
     1
102
RTVSPost2010Prop33
280
     0
102
RTVSPost2010PropOp33
 70
     1
102
RTVSPost2010Prop34
280
     0
102
RTVSPost2010PropOp34
 70
     1
102
RTVSPost2010Prop35
280
     0
102
RTVSPost2010PropOp35
 70
     1
102
RTVSPost2010Prop36
280
     0
102
RTVSPost2010PropOp36
 70
     1
102
RTVSPost2010Prop37
 90
       50
102
RTVSPost2010PropOp37
 70
     1
102
RTVSPost2010Prop38
140
0.0
102
RTVSPost2010PropOp38
 70
     1
102
RTVSPost2010Prop39
140
1.0
102
RTVSPost2010PropOp39
 70
     1
102
RTVSPost2010Prop40
 90
        0
102
RTVSPost2010PropOp40
 70
     1
102
RTVSPost2010Prop41ColorIndex
 90
       18
102
RTVSPost2010Prop41ColorRGB
 90
        0
102
RTVSPost2010PropOp41
 70
     1
102
RTVSPost2010Prop42
 90
       50
102
RTVSPost2010PropOp42
 70
     1
102
RTVSPost2010Prop43
 90
        3
102
RTVSPost2010PropOp43
 70
     1
102
RTVSPost2010Prop44ColorIndex
 90
        5
102
RTVSPost2010Prop44ColorRGB
 90
      255
102
RTVSPost2010PropOp44
 70
     1
102
RTVSPost2010Prop45
280
     0
102
RTVSPost2010PropOp45
 70
     1
102
RTVSPost2010Prop46
 90
       50
102
RTVSPost2010PropOp46
 70
     1
102
RTVSPost2010Prop47
 90
       50
102
RTVSPost2010PropOp47
 70
     1
102
RTVSPost2010Prop48
 90
       50
102
RTVSPost2010PropOp48
 70
     1
102
RTVSPost2010Prop49
280
     0
102
RTVSPost2010PropOp49
 70
     1
102
RTVSPost2010Prop50
 90
       50
102
RTVSPost2010PropOp50
 70
     1
102
RTVSPost2010Prop51ColorIndex
 90
      256
102
RTVSPost2010Prop51ColorRGB
 90
-16777216
102
RTVSPost2010PropOp51
 70
     0
102
RTVSPost2010Prop52
140
1.0
102
RTVSPost2010PropOp52
 70
     0
102
RTVSPost2010Prop53
 90
        2
102
RTVSPost2010PropOp53
 70
     1
102
RTVSPost2010Prop54
  1
strokes_ogs.tif
102
RTVSPost2010PropOp54
 70
     1
102
RTVSPost2010Prop55
280
     0
102
RTVSPost2010PropOp55
 70
     1
102
RTVSPost2010Prop56
140
1.0
102
RTVSPost2010PropOp56
 70
     1
102
RTVSPost2010Prop57
140
1.0
102
RTVSPost2010PropOp57
 70
     1
  0
XRECORD
  5
2EF
102
{ACAD_REACTORS
330
2EE
102
}
330
2EE
100
AcDbXrecord
280
     1
102
RTVSPropertyOp0
 70
     1
102
RTVSPropertyOp1
 70
     1
102
RTVSPropertyOp2
 70
     1
102
RTVSPropertyOp3
 70
     1
102
RTVSPropertyOp4
 70
     1
102
RTVSPropertyOp5
 70
     1
102
RTVSPropertyOp6
 70
     1
102
RTVSPropertyOp7
 70
     1
102
RTVSPropertyOp8
 70
     1
102
RTVSPropertyOp9
 70
     1
102
RTVSPropertyOp10
 70
     1
102
RTVSPropertyOp11
 70
     1
102
RTVSPropertyOp12
 70
     1
102
RTVSPropertyOp13
 70
     1
102
RTVSPropertyOp14
 70
     1
102
RTVSPropertyOp15
 70
     1
102
RTVSPropertyOp16
 70
     1
102
RTVSPropertyOp17
 70
     1
102
RTVSPropertyOp18
 70
     1
102
RTVSPropertyOp19
 70
     1
102
RTVSPropertyOp20
 70
     1
102
RTVSPropertyOp21
 70
     1
102
RTVSPropertyOp22
 70
     1
102
RTVSPropertyOp23
 70
     1
102
RTVSPropertyOp24
 70
     1
102
RTVSPropertyOp25
 70
     1
102
RTVSPropertyOp26
 70
     1
102
RTVSPropertyOp27
 70
     1
102
RTVSPropertyOp28
 70
     1
102
RTVSPropertyOp29
 70
     1
102
RTVSPropertyOp30
 70
     1
102
RTVSPropertyOp31
 70
     1
102
RTVSPropertyOp32
 70
     1
102
RTVSPropertyOp33
 70
     1
102
RTVSPropertyOp34
 70
     1
102
RTVSPropertyOp35
 70
     1
102
RTVSPropertyOp36
 70
     1
102
RTVSPropertyOp37
 70
     1
102
RTVSPropertyOp38
 70
     1
102
RTVSPropertyOp39
 70
     1
102
RTVSPropertyOp40
 70
     1
102
RTVSPropertyOp41
 70
     1
102
RTVSPropertyOp42
 70
     1
102
RTVSPropertyOp43
 70
     1
102
RTVSPropertyOp44
 70
     1
102
RTVSPropertyOp45
 70
     1
102
RTVSPropertyOp46
 70
     1
102
RTVSPropertyOp47
 70
     1
102
RTVSPropertyOp48
 70
     1
102
RTVSPropertyOp49
 70
     1
102
RTVSPropertyOp50
 70
     1
102
RTVSPropertyOp51
 70
     0
102
RTVSPropertyOp52
 70
     0
102
RTVSPropertyOp53
 70
     1
102
RTVSPropertyOp54
 70
     1
102
RTVSPropertyOp55
 70
     1
102
RTVSPropertyOp56
 70
     1
102
RTVSPropertyOp57
 70
     1
102
RTVSPost2010Prop28
280
     0
102
RTVSPost2010PropOp28
 70
     1
102
RTVSPost2010Prop29
280
     1
102
RTVSPost2010PropOp29
 70
     1
102
RTVSPost2010Prop30
280
     1
102
RTVSPost2010PropOp30
 70
     1
102
RTVSPost2010Prop31
280
     0
102
RTVSPost2010PropOp31
 70
     1
102
RTVSPost2010Prop32
280
     0
102
RTVSPost2010PropOp32
 70
     1
102
RTVSPost2010Prop33
280
     0
102
RTVSPost2010PropOp33
 70
     1
102
RTVSPost2010Prop34
280
     0
102
RTVSPost2010PropOp34
 70
     1
102
RTVSPost2010Prop35
280
     0
102
RTVSPost2010PropOp35
 70
     1
102
RTVSPost2010Prop36
280
     0
102
RTVSPost2010PropOp36
 70
     1
102
RTVSPost2010Prop37
 90
       50
102
RTVSPost2010PropOp37
 70
     1
102
RTVSPost2010Prop38
140
0.0
102
RTVSPost2010PropOp38
 70
     1
102
RTVSPost2010Prop39
140
1.0
102
RTVSPost2010PropOp39
 70
     1
102
RTVSPost2010Prop40
 90
        0
102
RTVSPost2010PropOp40
 70
     1
102
RTVSPost2010Prop41ColorIndex
 90
       18
102
RTVSPost2010Prop41ColorRGB
 90
        0
102
RTVSPost2010PropOp41
 70
     1
102
RTVSPost2010Prop42
 90
       50
102
RTVSPost2010PropOp42
 70
     1
102
RTVSPost2010Prop43
 90
        3
102
RTVSPost2010PropOp43
 70
     1
102
RTVSPost2010Prop44ColorIndex
 90
        5
102
RTVSPost2010Prop44ColorRGB
 90
      255
102
RTVSPost2010PropOp44
 70
     1
102
RTVSPost2010Prop45
280
     0
102
RTVSPost2010PropOp45
 70
     1
102
RTVSPost2010Prop46
 90
       50
102
RTVSPost2010PropOp46
 70
     1
102
RTVSPost2010Prop47
 90
       50
102
RTVSPost2010PropOp47
 70
     1
102
RTVSPost2010Prop48
 90
       50
102
RTVSPost2010PropOp48
 70
     1
102
RTVSPost2010Prop49
280
     0
102
RTVSPost2010PropOp49
 70
     1
102
RTVSPost2010Prop50
 90
       50
102
RTVSPost2010PropOp50
 70
     1
102
RTVSPost2010Prop51ColorIndex
 90
      256
102
RTVSPost2010Prop51ColorRGB
 90
-16777216
102
RTVSPost2010PropOp51
 70
     0
102
RTVSPost2010Prop52
140
1.0
102
RTVSPost2010PropOp52
 70
     0
102
RTVSPost2010Prop53
 90
        2
102
RTVSPost2010PropOp53
 70
     1
102
RTVSPost2010Prop54
  1
strokes_ogs.tif
102
RTVSPost2010PropOp54
 70
     1
102
RTVSPost2010Prop55
280
     0
102
RTVSPost2010PropOp55
 70
     1
102
RTVSPost2010Prop56
140
1.0
102
RTVSPost2010PropOp56
 70
     1
102
RTVSPost2010Prop57
140
1.0
102
RTVSPost2010PropOp57
 70
     1
  0
XRECORD
  5
2F7
102
{ACAD_REACTORS
330
2F6
102
}
330
2F6
100
AcDbXrecord
280
     1
102
RTVSPropertyOp0
 70
     1
102
RTVSPropertyOp1
 70
     1
102
RTVSPropertyOp2
 70
     1
102
RTVSPropertyOp3
 70
     1
102
RTVSPropertyOp4
 70
     1
102
RTVSPropertyOp5
 70
     1
102
RTVSPropertyOp6
 70
     1
102
RTVSPropertyOp7
 70
     1
102
RTVSPropertyOp8
 70
     1
102
RTVSPropertyOp9
 70
     1
102
RTVSPropertyOp10
 70
     1
102
RTVSPropertyOp11
 70
     1
102
RTVSPropertyOp12
 70
     1
102
RTVSPropertyOp13
 70
     1
102
RTVSPropertyOp14
 70
     1
102
RTVSPropertyOp15
 70
     1
102
RTVSPropertyOp16
 70
     1
102
RTVSPropertyOp17
 70
     1
102
RTVSPropertyOp18
 70
     1
102
RTVSPropertyOp19
 70
     1
102
RTVSPropertyOp20
 70
     1
102
RTVSPropertyOp21
 70
     1
102
RTVSPropertyOp22
 70
     1
102
RTVSPropertyOp23
 70
     1
102
RTVSPropertyOp24
 70
     1
102
RTVSPropertyOp25
 70
     1
102
RTVSPropertyOp26
 70
     1
102
RTVSPropertyOp27
 70
     1
102
RTVSPropertyOp28
 70
     1
102
RTVSPropertyOp29
 70
     1
102
RTVSPropertyOp30
 70
     1
102
RTVSPropertyOp31
 70
     1
102
RTVSPropertyOp32
 70
     1
102
RTVSPropertyOp33
 70
     1
102
RTVSPropertyOp34
 70
     1
102
RTVSPropertyOp35
 70
     1
102
RTVSPropertyOp36
 70
     1
102
RTVSPropertyOp37
 70
     1
102
RTVSPropertyOp38
 70
     1
102
RTVSPropertyOp39
 70
     1
102
RTVSPropertyOp40
 70
     1
102
RTVSPropertyOp41
 70
     1
102
RTVSPropertyOp42
 70
     1
102
RTVSPropertyOp43
 70
     1
102
RTVSPropertyOp44
 70
     1
102
RTVSPropertyOp45
 70
     1
102
RTVSPropertyOp46
 70
     1
102
RTVSPropertyOp47
 70
     1
102
RTVSPropertyOp48
 70
     1
102
RTVSPropertyOp49
 70
     1
102
RTVSPropertyOp50
 70
     1
102
RTVSPropertyOp51
 70
     0
102
RTVSPropertyOp52
 70
     0
102
RTVSPropertyOp53
 70
     1
102
RTVSPropertyOp54
 70
     1
102
RTVSPropertyOp55
 70
     1
102
RTVSPropertyOp56
 70
     1
102
RTVSPropertyOp57
 70
     1
102
RTVSPost2010Prop28
280
     0
102
RTVSPost2010PropOp28
 70
     1
102
RTVSPost2010Prop29
280
     1
102
RTVSPost2010PropOp29
 70
     1
102
RTVSPost2010Prop30
280
     1
102
RTVSPost2010PropOp30
 70
     1
102
RTVSPost2010Prop31
280
     0
102
RTVSPost2010PropOp31
 70
     1
102
RTVSPost2010Prop32
280
     0
102
RTVSPost2010PropOp32
 70
     1
102
RTVSPost2010Prop33
280
     0
102
RTVSPost2010PropOp33
 70
     1
102
RTVSPost2010Prop34
280
     0
102
RTVSPost2010PropOp34
 70
     1
102
RTVSPost2010Prop35
280
     0
102
RTVSPost2010PropOp35
 70
     1
102
RTVSPost2010Prop36
280
     0
102
RTVSPost2010PropOp36
 70
     1
102
RTVSPost2010Prop37
 90
       50
102
RTVSPost2010PropOp37
 70
     1
102
RTVSPost2010Prop38
140
0.0
102
RTVSPost2010PropOp38
 70
     1
102
RTVSPost2010Prop39
140
1.0
102
RTVSPost2010PropOp39
 70
     1
102
RTVSPost2010Prop40
 90
        0
102
RTVSPost2010PropOp40
 70
     1
102
RTVSPost2010Prop41ColorIndex
 90
       18
102
RTVSPost2010Prop41ColorRGB
 90
        0
102
RTVSPost2010PropOp41
 70
     1
102
RTVSPost2010Prop42
 90
       50
102
RTVSPost2010PropOp42
 70
     1
102
RTVSPost2010Prop43
 90
        3
102
RTVSPost2010PropOp43
 70
     1
102
RTVSPost2010Prop44ColorIndex
 90
        5
102
RTVSPost2010Prop44ColorRGB
 90
      255
102
RTVSPost2010PropOp44
 70
     1
102
RTVSPost2010Prop45
280
     0
102
RTVSPost2010PropOp45
 70
     1
102
RTVSPost2010Prop46
 90
       50
102
RTVSPost2010PropOp46
 70
     1
102
RTVSPost2010Prop47
 90
       50
102
RTVSPost2010PropOp47
 70
     1
102
RTVSPost2010Prop48
 90
       50
102
RTVSPost2010PropOp48
 70
     1
102
RTVSPost2010Prop49
280
     0
102
RTVSPost2010PropOp49
 70
     1
102
RTVSPost2010Prop50
 90
       50
102
RTVSPost2010PropOp50
 70
     1
102
RTVSPost2010Prop51ColorIndex
 90
      256
102
RTVSPost2010Prop51ColorRGB
 90
-16777216
102
RTVSPost2010PropOp51
 70
     0
102
RTVSPost2010Prop52
140
1.0
102
RTVSPost2010PropOp52
 70
     0
102
RTVSPost2010Prop53
 90
        2
102
RTVSPost2010PropOp53
 70
     1
102
RTVSPost2010Prop54
  1
strokes_ogs.tif
102
RTVSPost2010PropOp54
 70
     1
102
RTVSPost2010Prop55
280
     0
102
RTVSPost2010PropOp55
 70
     1
102
RTVSPost2010Prop56
140
1.0
102
RTVSPost2010PropOp56
 70
     1
102
RTVSPost2010Prop57
140
1.0
102
RTVSPost2010PropOp57
 70
     1
  0
XRECORD
  5
2FF
102
{ACAD_REACTORS
330
2FE
102
}
330
2FE
100
AcDbXrecord
280
     1
102
RTVSPropertyOp0
 70
     1
102
RTVSPropertyOp1
 70
     1
102
RTVSPropertyOp2
 70
     1
102
RTVSPropertyOp3
 70
     1
102
RTVSPropertyOp4
 70
     1
102
RTVSPropertyOp5
 70
     1
102
RTVSPropertyOp6
 70
     1
102
RTVSPropertyOp7
 70
     1
102
RTVSPropertyOp8
 70
     1
102
RTVSPropertyOp9
 70
     1
102
RTVSPropertyOp10
 70
     1
102
RTVSPropertyOp11
 70
     1
102
RTVSPropertyOp12
 70
     1
102
RTVSPropertyOp13
 70
     1
102
RTVSPropertyOp14
 70
     1
102
RTVSPropertyOp15
 70
     1
102
RTVSPropertyOp16
 70
     1
102
RTVSPropertyOp17
 70
     1
102
RTVSPropertyOp18
 70
     1
102
RTVSPropertyOp19
 70
     1
102
RTVSPropertyOp20
 70
     1
102
RTVSPropertyOp21
 70
     1
102
RTVSPropertyOp22
 70
     1
102
RTVSPropertyOp23
 70
     1
102
RTVSPropertyOp24
 70
     1
102
RTVSPropertyOp25
 70
     1
102
RTVSPropertyOp26
 70
     1
102
RTVSPropertyOp27
 70
     1
102
RTVSPropertyOp28
 70
     1
102
RTVSPropertyOp29
 70
     1
102
RTVSPropertyOp30
 70
     1
102
RTVSPropertyOp31
 70
     1
102
RTVSPropertyOp32
 70
     1
102
RTVSPropertyOp33
 70
     1
102
RTVSPropertyOp34
 70
     1
102
RTVSPropertyOp35
 70
     1
102
RTVSPropertyOp36
 70
     1
102
RTVSPropertyOp37
 70
     1
102
RTVSPropertyOp38
 70
     1
102
RTVSPropertyOp39
 70
     1
102
RTVSPropertyOp40
 70
     1
102
RTVSPropertyOp41
 70
     1
102
RTVSPropertyOp42
 70
     1
102
RTVSPropertyOp43
 70
     1
102
RTVSPropertyOp44
 70
     1
102
RTVSPropertyOp45
 70
     1
102
RTVSPropertyOp46
 70
     1
102
RTVSPropertyOp47
 70
     1
102
RTVSPropertyOp48
 70
     1
102
RTVSPropertyOp49
 70
     1
102
RTVSPropertyOp50
 70
     1
102
RTVSPropertyOp51
 70
     0
102
RTVSPropertyOp52
 70
     0
102
RTVSPropertyOp53
 70
     1
102
RTVSPropertyOp54
 70
     1
102
RTVSPropertyOp55
 70
     1
102
RTVSPropertyOp56
 70
     1
102
RTVSPropertyOp57
 70
     1
102
RTVSPost2010Prop28
280
     0
102
RTVSPost2010PropOp28
 70
     1
102
RTVSPost2010Prop29
280
     1
102
RTVSPost2010PropOp29
 70
     1
102
RTVSPost2010Prop30
280
     1
102
RTVSPost2010PropOp30
 70
     1
102
RTVSPost2010Prop31
280
     0
102
RTVSPost2010PropOp31
 70
     1
102
RTVSPost2010Prop32
280
     0
102
RTVSPost2010PropOp32
 70
     1
102
RTVSPost2010Prop33
280
     0
102
RTVSPost2010PropOp33
 70
     1
102
RTVSPost2010Prop34
280
     0
102
RTVSPost2010PropOp34
 70
     1
102
RTVSPost2010Prop35
280
     0
102
RTVSPost2010PropOp35
 70
     1
102
RTVSPost2010Prop36
280
     0
102
RTVSPost2010PropOp36
 70
     1
102
RTVSPost2010Prop37
 90
       50
102
RTVSPost2010PropOp37
 70
     1
102
RTVSPost2010Prop38
140
0.0
102
RTVSPost2010PropOp38
 70
     1
102
RTVSPost2010Prop39
140
1.0
102
RTVSPost2010PropOp39
 70
     1
102
RTVSPost2010Prop40
 90
        0
102
RTVSPost2010PropOp40
 70
     1
102
RTVSPost2010Prop41ColorIndex
 90
       18
102
RTVSPost2010Prop41ColorRGB
 90
        0
102
RTVSPost2010PropOp41
 70
     1
102
RTVSPost2010Prop42
 90
       50
102
RTVSPost2010PropOp42
 70
     1
102
RTVSPost2010Prop43
 90
        3
102
RTVSPost2010PropOp43
 70
     1
102
RTVSPost2010Prop44ColorIndex
 90
        5
102
RTVSPost2010Prop44ColorRGB
 90
      255
102
RTVSPost2010PropOp44
 70
     1
102
RTVSPost2010Prop45
280
     0
102
RTVSPost2010PropOp45
 70
     1
102
RTVSPost2010Prop46
 90
       50
102
RTVSPost2010PropOp46
 70
     1
102
RTVSPost2010Prop47
 90
       50
102
RTVSPost2010PropOp47
 70
     1
102
RTVSPost2010Prop48
 90
       50
102
RTVSPost2010PropOp48
 70
     1
102
RTVSPost2010Prop49
280
     0
102
RTVSPost2010PropOp49
 70
     1
102
RTVSPost2010Prop50
 90
       50
102
RTVSPost2010PropOp50
 70
     1
102
RTVSPost2010Prop51ColorIndex
 90
      256
102
RTVSPost2010Prop51ColorRGB
 90
-16777216
102
RTVSPost2010PropOp51
 70
     0
102
RTVSPost2010Prop52
140
1.0
102
RTVSPost2010PropOp52
 70
     0
102
RTVSPost2010Prop53
 90
        2
102
RTVSPost2010PropOp53
 70
     1
102
RTVSPost2010Prop54
  1
strokes_ogs.tif
102
RTVSPost2010PropOp54
 70
     1
102
RTVSPost2010Prop55
280
     0
102
RTVSPost2010PropOp55
 70
     1
102
RTVSPost2010Prop56
140
1.0
102
RTVSPost2010PropOp56
 70
     1
102
RTVSPost2010Prop57
140
1.0
102
RTVSPost2010PropOp57
 70
     1
  0
XRECORD
  5
2F3
102
{ACAD_REACTORS
330
2F2
102
}
330
2F2
100
AcDbXrecord
280
     1
102
RTVSPropertyOp0
 70
     1
102
RTVSPropertyOp1
 70
     1
102
RTVSPropertyOp2
 70
     1
102
RTVSPropertyOp3
 70
     1
102
RTVSPropertyOp4
 70
     1
102
RTVSPropertyOp5
 70
     1
102
RTVSPropertyOp6
 70
     1
102
RTVSPropertyOp7
 70
     1
102
RTVSPropertyOp8
 70
     1
102
RTVSPropertyOp9
 70
     1
102
RTVSPropertyOp10
 70
     1
102
RTVSPropertyOp11
 70
     1
102
RTVSPropertyOp12
 70
     1
102
RTVSPropertyOp13
 70
     1
102
RTVSPropertyOp14
 70
     1
102
RTVSPropertyOp15
 70
     1
102
RTVSPropertyOp16
 70
     1
102
RTVSPropertyOp17
 70
     1
102
RTVSPropertyOp18
 70
     1
102
RTVSPropertyOp19
 70
     1
102
RTVSPropertyOp20
 70
     1
102
RTVSPropertyOp21
 70
     1
102
RTVSPropertyOp22
 70
     1
102
RTVSPropertyOp23
 70
     1
102
RTVSPropertyOp24
 70
     1
102
RTVSPropertyOp25
 70
     1
102
RTVSPropertyOp26
 70
     1
102
RTVSPropertyOp27
 70
     1
102
RTVSPropertyOp28
 70
     1
102
RTVSPropertyOp29
 70
     1
102
RTVSPropertyOp30
 70
     1
102
RTVSPropertyOp31
 70
     1
102
RTVSPropertyOp32
 70
     1
102
RTVSPropertyOp33
 70
     1
102
RTVSPropertyOp34
 70
     1
102
RTVSPropertyOp35
 70
     1
102
RTVSPropertyOp36
 70
     1
102
RTVSPropertyOp37
 70
     1
102
RTVSPropertyOp38
 70
     1
102
RTVSPropertyOp39
 70
     1
102
RTVSPropertyOp40
 70
     1
102
RTVSPropertyOp41
 70
     1
102
RTVSPropertyOp42
 70
     1
102
RTVSPropertyOp43
 70
     1
102
RTVSPropertyOp44
 70
     1
102
RTVSPropertyOp45
 70
     1
102
RTVSPropertyOp46
 70
     1
102
RTVSPropertyOp47
 70
     1
102
RTVSPropertyOp48
 70
     1
102
RTVSPropertyOp49
 70
     1
102
RTVSPropertyOp50
 70
     1
102
RTVSPropertyOp51
 70
     0
102
RTVSPropertyOp52
 70
     0
102
RTVSPropertyOp53
 70
     1
102
RTVSPropertyOp54
 70
     1
102
RTVSPropertyOp55
 70
     1
102
RTVSPropertyOp56
 70
     1
102
RTVSPropertyOp57
 70
     1
102
RTVSPost2010Prop28
280
     0
102
RTVSPost2010PropOp28
 70
     1
102
RTVSPost2010Prop29
280
     1
102
RTVSPost2010PropOp29
 70
     1
102
RTVSPost2010Prop30
280
     1
102
RTVSPost2010PropOp30
 70
     1
102
RTVSPost2010Prop31
280
     0
102
RTVSPost2010PropOp31
 70
     1
102
RTVSPost2010Prop32
280
     0
102
RTVSPost2010PropOp32
 70
     1
102
RTVSPost2010Prop33
280
     0
102
RTVSPost2010PropOp33
 70
     1
102
RTVSPost2010Prop34
280
     0
102
RTVSPost2010PropOp34
 70
     1
102
RTVSPost2010Prop35
280
     0
102
RTVSPost2010PropOp35
 70
     1
102
RTVSPost2010Prop36
280
     0
102
RTVSPost2010PropOp36
 70
     1
102
RTVSPost2010Prop37
 90
       50
102
RTVSPost2010PropOp37
 70
     1
102
RTVSPost2010Prop38
140
0.0
102
RTVSPost2010PropOp38
 70
     1
102
RTVSPost2010Prop39
140
1.0
102
RTVSPost2010PropOp39
 70
     1
102
RTVSPost2010Prop40
 90
        0
102
RTVSPost2010PropOp40
 70
     1
102
RTVSPost2010Prop41ColorIndex
 90
       18
102
RTVSPost2010Prop41ColorRGB
 90
        0
102
RTVSPost2010PropOp41
 70
     1
102
RTVSPost2010Prop42
 90
       50
102
RTVSPost2010PropOp42
 70
     1
102
RTVSPost2010Prop43
 90
        3
102
RTVSPost2010PropOp43
 70
     1
102
RTVSPost2010Prop44ColorIndex
 90
        5
102
RTVSPost2010Prop44ColorRGB
 90
      255
102
RTVSPost2010PropOp44
 70
     1
102
RTVSPost2010Prop45
280
     0
102
RTVSPost2010PropOp45
 70
     1
102
RTVSPost2010Prop46
 90
       50
102
RTVSPost2010PropOp46
 70
     1
102
RTVSPost2010Prop47
 90
       50
102
RTVSPost2010PropOp47
 70
     1
102
RTVSPost2010Prop48
 90
       50
102
RTVSPost2010PropOp48
 70
     1
102
RTVSPost2010Prop49
280
     0
102
RTVSPost2010PropOp49
 70
     1
102
RTVSPost2010Prop50
 90
       50
102
RTVSPost2010PropOp50
 70
     1
102
RTVSPost2010Prop51ColorIndex
 90
      256
102
RTVSPost2010Prop51ColorRGB
 90
-16777216
102
RTVSPost2010PropOp51
 70
     0
102
RTVSPost2010Prop52
140
1.0
102
RTVSPost2010PropOp52
 70
     0
102
RTVSPost2010Prop53
 90
        2
102
RTVSPost2010PropOp53
 70
     1
102
RTVSPost2010Prop54
  1
strokes_ogs.tif
102
RTVSPost2010PropOp54
 70
     1
102
RTVSPost2010Prop55
280
     0
102
RTVSPost2010PropOp55
 70
     1
102
RTVSPost2010Prop56
140
1.0
102
RTVSPost2010PropOp56
 70
     1
102
RTVSPost2010Prop57
140
1.0
102
RTVSPost2010PropOp57
 70
     1
  0
XRECORD
  5
2F5
102
{ACAD_REACTORS
330
2F4
102
}
330
2F4
100
AcDbXrecord
280
     1
102
RTVSPropertyOp0
 70
     1
102
RTVSPropertyOp1
 70
     1
102
RTVSPropertyOp2
 70
     1
102
RTVSPropertyOp3
 70
     1
102
RTVSPropertyOp4
 70
     1
102
RTVSPropertyOp5
 70
     1
102
RTVSPropertyOp6
 70
     1
102
RTVSPropertyOp7
 70
     1
102
RTVSPropertyOp8
 70
     1
102
RTVSPropertyOp9
 70
     1
102
RTVSPropertyOp10
 70
     1
102
RTVSPropertyOp11
 70
     1
102
RTVSPropertyOp12
 70
     1
102
RTVSPropertyOp13
 70
     1
102
RTVSPropertyOp14
 70
     1
102
RTVSPropertyOp15
 70
     1
102
RTVSPropertyOp16
 70
     1
102
RTVSPropertyOp17
 70
     1
102
RTVSPropertyOp18
 70
     1
102
RTVSPropertyOp19
 70
     1
102
RTVSPropertyOp20
 70
     1
102
RTVSPropertyOp21
 70
     1
102
RTVSPropertyOp22
 70
     1
102
RTVSPropertyOp23
 70
     1
102
RTVSPropertyOp24
 70
     1
102
RTVSPropertyOp25
 70
     1
102
RTVSPropertyOp26
 70
     1
102
RTVSPropertyOp27
 70
     1
102
RTVSPropertyOp28
 70
     1
102
RTVSPropertyOp29
 70
     1
102
RTVSPropertyOp30
 70
     1
102
RTVSPropertyOp31
 70
     1
102
RTVSPropertyOp32
 70
     1
102
RTVSPropertyOp33
 70
     1
102
RTVSPropertyOp34
 70
     1
102
RTVSPropertyOp35
 70
     1
102
RTVSPropertyOp36
 70
     1
102
RTVSPropertyOp37
 70
     1
102
RTVSPropertyOp38
 70
     1
102
RTVSPropertyOp39
 70
     1
102
RTVSPropertyOp40
 70
     1
102
RTVSPropertyOp41
 70
     1
102
RTVSPropertyOp42
 70
     1
102
RTVSPropertyOp43
 70
     1
102
RTVSPropertyOp44
 70
     1
102
RTVSPropertyOp45
 70
     1
102
RTVSPropertyOp46
 70
     1
102
RTVSPropertyOp47
 70
     1
102
RTVSPropertyOp48
 70
     1
102
RTVSPropertyOp49
 70
     1
102
RTVSPropertyOp50
 70
     1
102
RTVSPropertyOp51
 70
     0
102
RTVSPropertyOp52
 70
     0
102
RTVSPropertyOp53
 70
     1
102
RTVSPropertyOp54
 70
     1
102
RTVSPropertyOp55
 70
     1
102
RTVSPropertyOp56
 70
     1
102
RTVSPropertyOp57
 70
     1
102
RTVSPost2010Prop28
280
     0
102
RTVSPost2010PropOp28
 70
     1
102
RTVSPost2010Prop29
280
     1
102
RTVSPost2010PropOp29
 70
     1
102
RTVSPost2010Prop30
280
     1
102
RTVSPost2010PropOp30
 70
     1
102
RTVSPost2010Prop31
280
     0
102
RTVSPost2010PropOp31
 70
     1
102
RTVSPost2010Prop32
280
     0
102
RTVSPost2010PropOp32
 70
     1
102
RTVSPost2010Prop33
280
     0
102
RTVSPost2010PropOp33
 70
     1
102
RTVSPost2010Prop34
280
     0
102
RTVSPost2010PropOp34
 70
     1
102
RTVSPost2010Prop35
280
     0
102
RTVSPost2010PropOp35
 70
     1
102
RTVSPost2010Prop36
280
     0
102
RTVSPost2010PropOp36
 70
     1
102
RTVSPost2010Prop37
 90
       50
102
RTVSPost2010PropOp37
 70
     1
102
RTVSPost2010Prop38
140
0.0
102
RTVSPost2010PropOp38
 70
     1
102
RTVSPost2010Prop39
140
1.0
102
RTVSPost2010PropOp39
 70
     1
102
RTVSPost2010Prop40
 90
        0
102
RTVSPost2010PropOp40
 70
     1
102
RTVSPost2010Prop41ColorIndex
 90
       18
102
RTVSPost2010Prop41ColorRGB
 90
        0
102
RTVSPost2010PropOp41
 70
     1
102
RTVSPost2010Prop42
 90
       50
102
RTVSPost2010PropOp42
 70
     1
102
RTVSPost2010Prop43
 90
        3
102
RTVSPost2010PropOp43
 70
     1
102
RTVSPost2010Prop44ColorIndex
 90
        5
102
RTVSPost2010Prop44ColorRGB
 90
      255
102
RTVSPost2010PropOp44
 70
     1
102
RTVSPost2010Prop45
280
     0
102
RTVSPost2010PropOp45
 70
     1
102
RTVSPost2010Prop46
 90
       50
102
RTVSPost2010PropOp46
 70
     1
102
RTVSPost2010Prop47
 90
       50
102
RTVSPost2010PropOp47
 70
     1
102
RTVSPost2010Prop48
 90
       50
102
RTVSPost2010PropOp48
 70
     1
102
RTVSPost2010Prop49
280
     0
102
RTVSPost2010PropOp49
 70
     1
102
RTVSPost2010Prop50
 90
       50
102
RTVSPost2010PropOp50
 70
     1
102
RTVSPost2010Prop51ColorIndex
 90
      256
102
RTVSPost2010Prop51ColorRGB
 90
-16777216
102
RTVSPost2010PropOp51
 70
     0
102
RTVSPost2010Prop52
140
1.0
102
RTVSPost2010PropOp52
 70
     0
102
RTVSPost2010Prop53
 90
        2
102
RTVSPost2010PropOp53
 70
     1
102
RTVSPost2010Prop54
  1
strokes_ogs.tif
102
RTVSPost2010PropOp54
 70
     1
102
RTVSPost2010Prop55
280
     0
102
RTVSPost2010PropOp55
 70
     1
102
RTVSPost2010Prop56
140
1.0
102
RTVSPost2010PropOp56
 70
     1
102
RTVSPost2010Prop57
140
1.0
102
RTVSPost2010PropOp57
 70
     1
  0
XRECORD
  5
305
102
{ACAD_REACTORS
330
304
102
}
330
304
100
AcDbXrecord
280
     1
102
RTVSPropertyOp0
 70
     0
102
RTVSPropertyOp1
 70
     0
102
RTVSPropertyOp2
 70
     0
102
RTVSPropertyOp3
 70
     0
102
RTVSPropertyOp4
 70
     0
102
RTVSPropertyOp5
 70
     0
102
RTVSPropertyOp6
 70
     0
102
RTVSPropertyOp7
 70
     0
102
RTVSPropertyOp8
 70
     0
102
RTVSPropertyOp9
 70
     0
102
RTVSPropertyOp10
 70
     0
102
RTVSPropertyOp11
 70
     0
102
RTVSPropertyOp12
 70
     0
102
RTVSPropertyOp13
 70
     0
102
RTVSPropertyOp14
 70
     2
102
RTVSPropertyOp15
 70
     0
102
RTVSPropertyOp16
 70
     0
102
RTVSPropertyOp17
 70
     0
102
RTVSPropertyOp18
 70
     0
102
RTVSPropertyOp19
 70
     0
102
RTVSPropertyOp20
 70
     0
102
RTVSPropertyOp21
 70
     0
102
RTVSPropertyOp22
 70
     0
102
RTVSPropertyOp23
 70
     0
102
RTVSPropertyOp24
 70
     0
102
RTVSPropertyOp25
 70
     0
102
RTVSPropertyOp26
 70
     0
102
RTVSPropertyOp27
 70
     0
102
RTVSPropertyOp28
 70
     0
102
RTVSPropertyOp29
 70
     0
102
RTVSPropertyOp30
 70
     0
102
RTVSPropertyOp31
 70
     0
102
RTVSPropertyOp32
 70
     0
102
RTVSPropertyOp33
 70
     0
102
RTVSPropertyOp34
 70
     0
102
RTVSPropertyOp35
 70
     0
102
RTVSPropertyOp36
 70
     0
102
RTVSPropertyOp37
 70
     0
102
RTVSPropertyOp38
 70
     0
102
RTVSPropertyOp39
 70
     0
102
RTVSPropertyOp40
 70
     0
102
RTVSPropertyOp41
 70
     0
102
RTVSPropertyOp42
 70
     0
102
RTVSPropertyOp43
 70
     0
102
RTVSPropertyOp44
 70
     0
102
RTVSPropertyOp45
 70
     0
102
RTVSPropertyOp46
 70
     0
102
RTVSPropertyOp47
 70
     0
102
RTVSPropertyOp48
 70
     0
102
RTVSPropertyOp49
 70
     0
102
RTVSPropertyOp50
 70
     0
102
RTVSPropertyOp51
 70
     0
102
RTVSPropertyOp52
 70
     0
102
RTVSPropertyOp53
 70
     0
102
RTVSPropertyOp54
 70
     0
102
RTVSPropertyOp55
 70
     0
102
RTVSPropertyOp56
 70
     0
102
RTVSPropertyOp57
 70
     0
102
RTVSPost2010Prop28
280
     0
102
RTVSPost2010PropOp28
 70
     0
102
RTVSPost2010Prop29
280
     1
102
RTVSPost2010PropOp29
 70
     0
102
RTVSPost2010Prop30
280
     1
102
RTVSPost2010PropOp30
 70
     0
102
RTVSPost2010Prop31
280
     0
102
RTVSPost2010PropOp31
 70
     0
102
RTVSPost2010Prop32
280
     0
102
RTVSPost2010PropOp32
 70
     0
102
RTVSPost2010Prop33
280
     0
102
RTVSPost2010PropOp33
 70
     0
102
RTVSPost2010Prop34
280
     0
102
RTVSPost2010PropOp34
 70
     0
102
RTVSPost2010Prop35
280
     0
102
RTVSPost2010PropOp35
 70
     0
102
RTVSPost2010Prop36
280
     0
102
RTVSPost2010PropOp36
 70
     0
102
RTVSPost2010Prop37
 90
       50
102
RTVSPost2010PropOp37
 70
     0
102
RTVSPost2010Prop38
140
0.0
102
RTVSPost2010PropOp38
 70
     0
102
RTVSPost2010Prop39
140
1.0
102
RTVSPost2010PropOp39
 70
     0
102
RTVSPost2010Prop40
 90
        0
102
RTVSPost2010PropOp40
 70
     0
102
RTVSPost2010Prop41ColorIndex
 90
       18
102
RTVSPost2010Prop41ColorRGB
 90
        0
102
RTVSPost2010PropOp41
 70
     0
102
RTVSPost2010Prop42
 90
       50
102
RTVSPost2010PropOp42
 70
     0
102
RTVSPost2010Prop43
 90
        3
102
RTVSPost2010PropOp43
 70
     0
102
RTVSPost2010Prop44ColorIndex
 90
        5
102
RTVSPost2010Prop44ColorRGB
 90
      255
102
RTVSPost2010PropOp44
 70
     0
102
RTVSPost2010Prop45
280
     0
102
RTVSPost2010PropOp45
 70
     0
102
RTVSPost2010Prop46
 90
       50
102
RTVSPost2010PropOp46
 70
     0
102
RTVSPost2010Prop47
 90
       50
102
RTVSPost2010PropOp47
 70
     0
102
RTVSPost2010Prop48
 90
       50
102
RTVSPost2010PropOp48
 70
     0
102
RTVSPost2010Prop49
280
     0
102
RTVSPost2010PropOp49
 70
     0
102
RTVSPost2010Prop50
 90
       50
102
RTVSPost2010PropOp50
 70
     0
102
RTVSPost2010Prop51ColorIndex
 90
      256
102
RTVSPost2010Prop51ColorRGB
 90
-16777216
102
RTVSPost2010PropOp51
 70
     0
102
RTVSPost2010Prop52
140
1.0
102
RTVSPost2010PropOp52
 70
     0
102
RTVSPost2010Prop53
 90
        2
102
RTVSPost2010PropOp53
 70
     0
102
RTVSPost2010Prop54
  1
strokes_ogs.tif
102
RTVSPost2010PropOp54
 70
     0
102
RTVSPost2010Prop55
280
     0
102
RTVSPost2010PropOp55
 70
     0
102
RTVSPost2010Prop56
140
1.0
102
RTVSPost2010PropOp56
 70
     0
102
RTVSPost2010Prop57
140
1.0
102
RTVSPost2010PropOp57
 70
     0
  0
XRECORD
  5
2FD
102
{ACAD_REACTORS
330
2FC
102
}
330
2FC
100
AcDbXrecord
280
     1
102
RTVSPropertyOp0
 70
     1
102
RTVSPropertyOp1
 70
     1
102
RTVSPropertyOp2
 70
     1
102
RTVSPropertyOp3
 70
     1
102
RTVSPropertyOp4
 70
     1
102
RTVSPropertyOp5
 70
     1
102
RTVSPropertyOp6
 70
     1
102
RTVSPropertyOp7
 70
     1
102
RTVSPropertyOp8
 70
     1
102
RTVSPropertyOp9
 70
     1
102
RTVSPropertyOp10
 70
     1
102
RTVSPropertyOp11
 70
     1
102
RTVSPropertyOp12
 70
     1
102
RTVSPropertyOp13
 70
     1
102
RTVSPropertyOp14
 70
     1
102
RTVSPropertyOp15
 70
     1
102
RTVSPropertyOp16
 70
     1
102
RTVSPropertyOp17
 70
     1
102
RTVSPropertyOp18
 70
     1
102
RTVSPropertyOp19
 70
     1
102
RTVSPropertyOp20
 70
     1
102
RTVSPropertyOp21
 70
     1
102
RTVSPropertyOp22
 70
     1
102
RTVSPropertyOp23
 70
     1
102
RTVSPropertyOp24
 70
     1
102
RTVSPropertyOp25
 70
     1
102
RTVSPropertyOp26
 70
     1
102
RTVSPropertyOp27
 70
     1
102
RTVSPropertyOp28
 70
     1
102
RTVSPropertyOp29
 70
     1
102
RTVSPropertyOp30
 70
     1
102
RTVSPropertyOp31
 70
     1
102
RTVSPropertyOp32
 70
     1
102
RTVSPropertyOp33
 70
     1
102
RTVSPropertyOp34
 70
     1
102
RTVSPropertyOp35
 70
     1
102
RTVSPropertyOp36
 70
     1
102
RTVSPropertyOp37
 70
     1
102
RTVSPropertyOp38
 70
     1
102
RTVSPropertyOp39
 70
     1
102
RTVSPropertyOp40
 70
     1
102
RTVSPropertyOp41
 70
     1
102
RTVSPropertyOp42
 70
     1
102
RTVSPropertyOp43
 70
     1
102
RTVSPropertyOp44
 70
     1
102
RTVSPropertyOp45
 70
     1
102
RTVSPropertyOp46
 70
     1
102
RTVSPropertyOp47
 70
     1
102
RTVSPropertyOp48
 70
     1
102
RTVSPropertyOp49
 70
     1
102
RTVSPropertyOp50
 70
     1
102
RTVSPropertyOp51
 70
     0
102
RTVSPropertyOp52
 70
     0
102
RTVSPropertyOp53
 70
     1
102
RTVSPropertyOp54
 70
     1
102
RTVSPropertyOp55
 70
     1
102
RTVSPropertyOp56
 70
     1
102
RTVSPropertyOp57
 70
     1
102
RTVSPost2010Prop28
280
     0
102
RTVSPost2010PropOp28
 70
     1
102
RTVSPost2010Prop29
280
     1
102
RTVSPost2010PropOp29
 70
     1
102
RTVSPost2010Prop30
280
     1
102
RTVSPost2010PropOp30
 70
     1
102
RTVSPost2010Prop31
280
     0
102
RTVSPost2010PropOp31
 70
     1
102
RTVSPost2010Prop32
280
     0
102
RTVSPost2010PropOp32
 70
     1
102
RTVSPost2010Prop33
280
     0
102
RTVSPost2010PropOp33
 70
     1
102
RTVSPost2010Prop34
280
     0
102
RTVSPost2010PropOp34
 70
     1
102
RTVSPost2010Prop35
280
     0
102
RTVSPost2010PropOp35
 70
     1
102
RTVSPost2010Prop36
280
     0
102
RTVSPost2010PropOp36
 70
     1
102
RTVSPost2010Prop37
 90
       50
102
RTVSPost2010PropOp37
 70
     1
102
RTVSPost2010Prop38
140
0.0
102
RTVSPost2010PropOp38
 70
     1
102
RTVSPost2010Prop39
140
1.0
102
RTVSPost2010PropOp39
 70
     1
102
RTVSPost2010Prop40
 90
        0
102
RTVSPost2010PropOp40
 70
     1
102
RTVSPost2010Prop41ColorIndex
 90
       18
102
RTVSPost2010Prop41ColorRGB
 90
        0
102
RTVSPost2010PropOp41
 70
     1
102
RTVSPost2010Prop42
 90
       50
102
RTVSPost2010PropOp42
 70
     1
102
RTVSPost2010Prop43
 90
        3
102
RTVSPost2010PropOp43
 70
     1
102
RTVSPost2010Prop44ColorIndex
 90
        5
102
RTVSPost2010Prop44ColorRGB
 90
      255
102
RTVSPost2010PropOp44
 70
     1
102
RTVSPost2010Prop45
280
     0
102
RTVSPost2010PropOp45
 70
     1
102
RTVSPost2010Prop46
 90
       50
102
RTVSPost2010PropOp46
 70
     1
102
RTVSPost2010Prop47
 90
       50
102
RTVSPost2010PropOp47
 70
     1
102
RTVSPost2010Prop48
 90
       50
102
RTVSPost2010PropOp48
 70
     1
102
RTVSPost2010Prop49
280
     0
102
RTVSPost2010PropOp49
 70
     1
102
RTVSPost2010Prop50
 90
       50
102
RTVSPost2010PropOp50
 70
     1
102
RTVSPost2010Prop51ColorIndex
 90
      256
102
RTVSPost2010Prop51ColorRGB
 90
-16777216
102
RTVSPost2010PropOp51
 70
     0
102
RTVSPost2010Prop52
140
1.0
102
RTVSPost2010PropOp52
 70
     0
102
RTVSPost2010Prop53
 90
        2
102
RTVSPost2010PropOp53
 70
     1
102
RTVSPost2010Prop54
  1
strokes_ogs.tif
102
RTVSPost2010PropOp54
 70
     1
102
RTVSPost2010Prop55
280
     0
102
RTVSPost2010PropOp55
 70
     1
102
RTVSPost2010Prop56
140
1.0
102
RTVSPost2010PropOp56
 70
     1
102
RTVSPost2010Prop57
140
1.0
102
RTVSPost2010PropOp57
 70
     1
  0
XRECORD
  5
2E1
102
{ACAD_REACTORS
330
2E0
102
}
330
2E0
100
AcDbXrecord
280
     1
102
RTVSPropertyOp0
 70
     1
102
RTVSPropertyOp1
 70
     1
102
RTVSPropertyOp2
 70
     1
102
RTVSPropertyOp3
 70
     1
102
RTVSPropertyOp4
 70
     1
102
RTVSPropertyOp5
 70
     1
102
RTVSPropertyOp6
 70
     1
102
RTVSPropertyOp7
 70
     1
102
RTVSPropertyOp8
 70
     1
102
RTVSPropertyOp9
 70
     1
102
RTVSPropertyOp10
 70
     1
102
RTVSPropertyOp11
 70
     1
102
RTVSPropertyOp12
 70
     1
102
RTVSPropertyOp13
 70
     1
102
RTVSPropertyOp14
 70
     1
102
RTVSPropertyOp15
 70
     1
102
RTVSPropertyOp16
 70
     1
102
RTVSPropertyOp17
 70
     1
102
RTVSPropertyOp18
 70
     1
102
RTVSPropertyOp19
 70
     1
102
RTVSPropertyOp20
 70
     1
102
RTVSPropertyOp21
 70
     1
102
RTVSPropertyOp22
 70
     1
102
RTVSPropertyOp23
 70
     1
102
RTVSPropertyOp24
 70
     1
102
RTVSPropertyOp25
 70
     1
102
RTVSPropertyOp26
 70
     1
102
RTVSPropertyOp27
 70
     1
102
RTVSPropertyOp28
 70
     1
102
RTVSPropertyOp29
 70
     1
102
RTVSPropertyOp30
 70
     1
102
RTVSPropertyOp31
 70
     1
102
RTVSPropertyOp32
 70
     1
102
RTVSPropertyOp33
 70
     1
102
RTVSPropertyOp34
 70
     1
102
RTVSPropertyOp35
 70
     1
102
RTVSPropertyOp36
 70
     1
102
RTVSPropertyOp37
 70
     1
102
RTVSPropertyOp38
 70
     1
102
RTVSPropertyOp39
 70
     1
102
RTVSPropertyOp40
 70
     1
102
RTVSPropertyOp41
 70
     1
102
RTVSPropertyOp42
 70
     1
102
RTVSPropertyOp43
 70
     1
102
RTVSPropertyOp44
 70
     1
102
RTVSPropertyOp45
 70
     1
102
RTVSPropertyOp46
 70
     1
102
RTVSPropertyOp47
 70
     1
102
RTVSPropertyOp48
 70
     1
102
RTVSPropertyOp49
 70
     1
102
RTVSPropertyOp50
 70
     1
102
RTVSPropertyOp51
 70
     0
102
RTVSPropertyOp52
 70
     0
102
RTVSPropertyOp53
 70
     1
102
RTVSPropertyOp54
 70
     1
102
RTVSPropertyOp55
 70
     1
102
RTVSPropertyOp56
 70
     1
102
RTVSPropertyOp57
 70
     1
102
RTVSPost2010Prop28
280
     0
102
RTVSPost2010PropOp28
 70
     1
102
RTVSPost2010Prop29
280
     1
102
RTVSPost2010PropOp29
 70
     1
102
RTVSPost2010Prop30
280
     1
102
RTVSPost2010PropOp30
 70
     1
102
RTVSPost2010Prop31
280
     0
102
RTVSPost2010PropOp31
 70
     1
102
RTVSPost2010Prop32
280
     0
102
RTVSPost2010PropOp32
 70
     1
102
RTVSPost2010Prop33
280
     0
102
RTVSPost2010PropOp33
 70
     1
102
RTVSPost2010Prop34
280
     0
102
RTVSPost2010PropOp34
 70
     1
102
RTVSPost2010Prop35
280
     0
102
RTVSPost2010PropOp35
 70
     1
102
RTVSPost2010Prop36
280
     0
102
RTVSPost2010PropOp36
 70
     1
102
RTVSPost2010Prop37
 90
       50
102
RTVSPost2010PropOp37
 70
     1
102
RTVSPost2010Prop38
140
0.0
102
RTVSPost2010PropOp38
 70
     1
102
RTVSPost2010Prop39
140
1.0
102
RTVSPost2010PropOp39
 70
     1
102
RTVSPost2010Prop40
 90
        0
102
RTVSPost2010PropOp40
 70
     1
102
RTVSPost2010Prop41ColorIndex
 90
       18
102
RTVSPost2010Prop41ColorRGB
 90
        0
102
RTVSPost2010PropOp41
 70
     1
102
RTVSPost2010Prop42
 90
       50
102
RTVSPost2010PropOp42
 70
     1
102
RTVSPost2010Prop43
 90
        3
102
RTVSPost2010PropOp43
 70
     1
102
RTVSPost2010Prop44ColorIndex
 90
        5
102
RTVSPost2010Prop44ColorRGB
 90
      255
102
RTVSPost2010PropOp44
 70
     1
102
RTVSPost2010Prop45
280
     0
102
RTVSPost2010PropOp45
 70
     1
102
RTVSPost2010Prop46
 90
       50
102
RTVSPost2010PropOp46
 70
     1
102
RTVSPost2010Prop47
 90
       50
102
RTVSPost2010PropOp47
 70
     1
102
RTVSPost2010Prop48
 90
       50
102
RTVSPost2010PropOp48
 70
     1
102
RTVSPost2010Prop49
280
     0
102
RTVSPost2010PropOp49
 70
     1
102
RTVSPost2010Prop50
 90
       50
102
RTVSPost2010PropOp50
 70
     1
102
RTVSPost2010Prop51ColorIndex
 90
      256
102
RTVSPost2010Prop51ColorRGB
 90
-16777216
102
RTVSPost2010PropOp51
 70
     0
102
RTVSPost2010Prop52
140
1.0
102
RTVSPost2010PropOp52
 70
     0
102
RTVSPost2010Prop53
 90
        2
102
RTVSPost2010PropOp53
 70
     1
102
RTVSPost2010Prop54
  1
strokes_ogs.tif
102
RTVSPost2010PropOp54
 70
     1
102
RTVSPost2010Prop55
280
     0
102
RTVSPost2010PropOp55
 70
     1
102
RTVSPost2010Prop56
140
1.0
102
RTVSPost2010PropOp56
 70
     1
102
RTVSPost2010Prop57
140
1.0
102
RTVSPost2010PropOp57
 70
     1
  0
XRECORD
  5
2E3
102
{ACAD_REACTORS
330
2E2
102
}
330
2E2
100
AcDbXrecord
280
     1
102
RTVSPropertyOp0
 70
     1
102
RTVSPropertyOp1
 70
     1
102
RTVSPropertyOp2
 70
     1
102
RTVSPropertyOp3
 70
     1
102
RTVSPropertyOp4
 70
     1
102
RTVSPropertyOp5
 70
     1
102
RTVSPropertyOp6
 70
     1
102
RTVSPropertyOp7
 70
     1
102
RTVSPropertyOp8
 70
     1
102
RTVSPropertyOp9
 70
     1
102
RTVSPropertyOp10
 70
     1
102
RTVSPropertyOp11
 70
     1
102
RTVSPropertyOp12
 70
     1
102
RTVSPropertyOp13
 70
     1
102
RTVSPropertyOp14
 70
     1
102
RTVSPropertyOp15
 70
     1
102
RTVSPropertyOp16
 70
     1
102
RTVSPropertyOp17
 70
     1
102
RTVSPropertyOp18
 70
     1
102
RTVSPropertyOp19
 70
     1
102
RTVSPropertyOp20
 70
     1
102
RTVSPropertyOp21
 70
     1
102
RTVSPropertyOp22
 70
     1
102
RTVSPropertyOp23
 70
     1
102
RTVSPropertyOp24
 70
     1
102
RTVSPropertyOp25
 70
     1
102
RTVSPropertyOp26
 70
     1
102
RTVSPropertyOp27
 70
     1
102
RTVSPropertyOp28
 70
     1
102
RTVSPropertyOp29
 70
     1
102
RTVSPropertyOp30
 70
     1
102
RTVSPropertyOp31
 70
     1
102
RTVSPropertyOp32
 70
     1
102
RTVSPropertyOp33
 70
     1
102
RTVSPropertyOp34
 70
     1
102
RTVSPropertyOp35
 70
     1
102
RTVSPropertyOp36
 70
     1
102
RTVSPropertyOp37
 70
     1
102
RTVSPropertyOp38
 70
     1
102
RTVSPropertyOp39
 70
     1
102
RTVSPropertyOp40
 70
     1
102
RTVSPropertyOp41
 70
     1
102
RTVSPropertyOp42
 70
     1
102
RTVSPropertyOp43
 70
     1
102
RTVSPropertyOp44
 70
     1
102
RTVSPropertyOp45
 70
     1
102
RTVSPropertyOp46
 70
     1
102
RTVSPropertyOp47
 70
     1
102
RTVSPropertyOp48
 70
     1
102
RTVSPropertyOp49
 70
     1
102
RTVSPropertyOp50
 70
     1
102
RTVSPropertyOp51
 70
     0
102
RTVSPropertyOp52
 70
     0
102
RTVSPropertyOp53
 70
     1
102
RTVSPropertyOp54
 70
     1
102
RTVSPropertyOp55
 70
     1
102
RTVSPropertyOp56
 70
     1
102
RTVSPropertyOp57
 70
     1
102
RTVSPost2010Prop28
280
     0
102
RTVSPost2010PropOp28
 70
     1
102
RTVSPost2010Prop29
280
     1
102
RTVSPost2010PropOp29
 70
     1
102
RTVSPost2010Prop30
280
     1
102
RTVSPost2010PropOp30
 70
     1
102
RTVSPost2010Prop31
280
     0
102
RTVSPost2010PropOp31
 70
     1
102
RTVSPost2010Prop32
280
     0
102
RTVSPost2010PropOp32
 70
     1
102
RTVSPost2010Prop33
280
     0
102
RTVSPost2010PropOp33
 70
     1
102
RTVSPost2010Prop34
280
     0
102
RTVSPost2010PropOp34
 70
     1
102
RTVSPost2010Prop35
280
     0
102
RTVSPost2010PropOp35
 70
     1
102
RTVSPost2010Prop36
280
     0
102
RTVSPost2010PropOp36
 70
     1
102
RTVSPost2010Prop37
 90
       50
102
RTVSPost2010PropOp37
 70
     1
102
RTVSPost2010Prop38
140
0.0
102
RTVSPost2010PropOp38
 70
     1
102
RTVSPost2010Prop39
140
1.0
102
RTVSPost2010PropOp39
 70
     1
102
RTVSPost2010Prop40
 90
        0
102
RTVSPost2010PropOp40
 70
     1
102
RTVSPost2010Prop41ColorIndex
 90
       18
102
RTVSPost2010Prop41ColorRGB
 90
        0
102
RTVSPost2010PropOp41
 70
     1
102
RTVSPost2010Prop42
 90
       50
102
RTVSPost2010PropOp42
 70
     1
102
RTVSPost2010Prop43
 90
        3
102
RTVSPost2010PropOp43
 70
     1
102
RTVSPost2010Prop44ColorIndex
 90
        5
102
RTVSPost2010Prop44ColorRGB
 90
      255
102
RTVSPost2010PropOp44
 70
     1
102
RTVSPost2010Prop45
280
     0
102
RTVSPost2010PropOp45
 70
     1
102
RTVSPost2010Prop46
 90
       50
102
RTVSPost2010PropOp46
 70
     1
102
RTVSPost2010Prop47
 90
       50
102
RTVSPost2010PropOp47
 70
     1
102
RTVSPost2010Prop48
 90
       50
102
RTVSPost2010PropOp48
 70
     1
102
RTVSPost2010Prop49
280
     0
102
RTVSPost2010PropOp49
 70
     1
102
RTVSPost2010Prop50
 90
       50
102
RTVSPost2010PropOp50
 70
     1
102
RTVSPost2010Prop51ColorIndex
 90
      256
102
RTVSPost2010Prop51ColorRGB
 90
-16777216
102
RTVSPost2010PropOp51
 70
     0
102
RTVSPost2010Prop52
140
1.0
102
RTVSPost2010PropOp52
 70
     0
102
RTVSPost2010Prop53
 90
        2
102
RTVSPost2010PropOp53
 70
     1
102
RTVSPost2010Prop54
  1
strokes_ogs.tif
102
RTVSPost2010PropOp54
 70
     1
102
RTVSPost2010Prop55
280
     0
102
RTVSPost2010PropOp55
 70
     1
102
RTVSPost2010Prop56
140
1.0
102
RTVSPost2010PropOp56
 70
     1
102
RTVSPost2010Prop57
140
1.0
102
RTVSPost2010PropOp57
 70
     1
  0
XRECORD
  5
2E5
102
{ACAD_REACTORS
330
2E4
102
}
330
2E4
100
AcDbXrecord
280
     1
102
RTVSPropertyOp0
 70
     1
102
RTVSPropertyOp1
 70
     1
102
RTVSPropertyOp2
 70
     1
102
RTVSPropertyOp3
 70
     1
102
RTVSPropertyOp4
 70
     1
102
RTVSPropertyOp5
 70
     1
102
RTVSPropertyOp6
 70
     1
102
RTVSPropertyOp7
 70
     1
102
RTVSPropertyOp8
 70
     1
102
RTVSPropertyOp9
 70
     1
102
RTVSPropertyOp10
 70
     1
102
RTVSPropertyOp11
 70
     1
102
RTVSPropertyOp12
 70
     1
102
RTVSPropertyOp13
 70
     1
102
RTVSPropertyOp14
 70
     1
102
RTVSPropertyOp15
 70
     1
102
RTVSPropertyOp16
 70
     1
102
RTVSPropertyOp17
 70
     1
102
RTVSPropertyOp18
 70
     1
102
RTVSPropertyOp19
 70
     1
102
RTVSPropertyOp20
 70
     1
102
RTVSPropertyOp21
 70
     1
102
RTVSPropertyOp22
 70
     1
102
RTVSPropertyOp23
 70
     1
102
RTVSPropertyOp24
 70
     1
102
RTVSPropertyOp25
 70
     1
102
RTVSPropertyOp26
 70
     1
102
RTVSPropertyOp27
 70
     1
102
RTVSPropertyOp28
 70
     1
102
RTVSPropertyOp29
 70
     1
102
RTVSPropertyOp30
 70
     1
102
RTVSPropertyOp31
 70
     1
102
RTVSPropertyOp32
 70
     1
102
RTVSPropertyOp33
 70
     1
102
RTVSPropertyOp34
 70
     1
102
RTVSPropertyOp35
 70
     1
102
RTVSPropertyOp36
 70
     1
102
RTVSPropertyOp37
 70
     1
102
RTVSPropertyOp38
 70
     1
102
RTVSPropertyOp39
 70
     1
102
RTVSPropertyOp40
 70
     1
102
RTVSPropertyOp41
 70
     1
102
RTVSPropertyOp42
 70
     1
102
RTVSPropertyOp43
 70
     1
102
RTVSPropertyOp44
 70
     1
102
RTVSPropertyOp45
 70
     1
102
RTVSPropertyOp46
 70
     1
102
RTVSPropertyOp47
 70
     1
102
RTVSPropertyOp48
 70
     1
102
RTVSPropertyOp49
 70
     1
102
RTVSPropertyOp50
 70
     1
102
RTVSPropertyOp51
 70
     0
102
RTVSPropertyOp52
 70
     0
102
RTVSPropertyOp53
 70
     1
102
RTVSPropertyOp54
 70
     1
102
RTVSPropertyOp55
 70
     1
102
RTVSPropertyOp56
 70
     1
102
RTVSPropertyOp57
 70
     1
102
RTVSPost2010Prop28
280
     0
102
RTVSPost2010PropOp28
 70
     1
102
RTVSPost2010Prop29
280
     1
102
RTVSPost2010PropOp29
 70
     1
102
RTVSPost2010Prop30
280
     1
102
RTVSPost2010PropOp30
 70
     1
102
RTVSPost2010Prop31
280
     0
102
RTVSPost2010PropOp31
 70
     1
102
RTVSPost2010Prop32
280
     0
102
RTVSPost2010PropOp32
 70
     1
102
RTVSPost2010Prop33
280
     0
102
RTVSPost2010PropOp33
 70
     1
102
RTVSPost2010Prop34
280
     0
102
RTVSPost2010PropOp34
 70
     1
102
RTVSPost2010Prop35
280
     0
102
RTVSPost2010PropOp35
 70
     1
102
RTVSPost2010Prop36
280
     0
102
RTVSPost2010PropOp36
 70
     1
102
RTVSPost2010Prop37
 90
       50
102
RTVSPost2010PropOp37
 70
     1
102
RTVSPost2010Prop38
140
0.0
102
RTVSPost2010PropOp38
 70
     1
102
RTVSPost2010Prop39
140
1.0
102
RTVSPost2010PropOp39
 70
     1
102
RTVSPost2010Prop40
 90
        0
102
RTVSPost2010PropOp40
 70
     1
102
RTVSPost2010Prop41ColorIndex
 90
       18
102
RTVSPost2010Prop41ColorRGB
 90
        0
102
RTVSPost2010PropOp41
 70
     1
102
RTVSPost2010Prop42
 90
       50
102
RTVSPost2010PropOp42
 70
     1
102
RTVSPost2010Prop43
 90
        3
102
RTVSPost2010PropOp43
 70
     1
102
RTVSPost2010Prop44ColorIndex
 90
        5
102
RTVSPost2010Prop44ColorRGB
 90
      255
102
RTVSPost2010PropOp44
 70
     1
102
RTVSPost2010Prop45
280
     0
102
RTVSPost2010PropOp45
 70
     1
102
RTVSPost2010Prop46
 90
       50
102
RTVSPost2010PropOp46
 70
     1
102
RTVSPost2010Prop47
 90
       50
102
RTVSPost2010PropOp47
 70
     1
102
RTVSPost2010Prop48
 90
       50
102
RTVSPost2010PropOp48
 70
     1
102
RTVSPost2010Prop49
280
     0
102
RTVSPost2010PropOp49
 70
     1
102
RTVSPost2010Prop50
 90
       50
102
RTVSPost2010PropOp50
 70
     1
102
RTVSPost2010Prop51ColorIndex
 90
      256
102
RTVSPost2010Prop51ColorRGB
 90
-16777216
102
RTVSPost2010PropOp51
 70
     0
102
RTVSPost2010Prop52
140
1.0
102
RTVSPost2010PropOp52
 70
     0
102
RTVSPost2010Prop53
 90
        2
102
RTVSPost2010PropOp53
 70
     1
102
RTVSPost2010Prop54
  1
strokes_ogs.tif
102
RTVSPost2010PropOp54
 70
     1
102
RTVSPost2010Prop55
280
     0
102
RTVSPost2010PropOp55
 70
     1
102
RTVSPost2010Prop56
140
1.0
102
RTVSPost2010PropOp56
 70
     1
102
RTVSPost2010Prop57
140
1.0
102
RTVSPost2010PropOp57
 70
     1
  0
XRECORD
  5
2E7
102
{ACAD_REACTORS
330
2E6
102
}
330
2E6
100
AcDbXrecord
280
     1
102
RTVSPropertyOp0
 70
     1
102
RTVSPropertyOp1
 70
     1
102
RTVSPropertyOp2
 70
     1
102
RTVSPropertyOp3
 70
     1
102
RTVSPropertyOp4
 70
     1
102
RTVSPropertyOp5
 70
     1
102
RTVSPropertyOp6
 70
     1
102
RTVSPropertyOp7
 70
     1
102
RTVSPropertyOp8
 70
     1
102
RTVSPropertyOp9
 70
     1
102
RTVSPropertyOp10
 70
     1
102
RTVSPropertyOp11
 70
     1
102
RTVSPropertyOp12
 70
     1
102
RTVSPropertyOp13
 70
     1
102
RTVSPropertyOp14
 70
     1
102
RTVSPropertyOp15
 70
     1
102
RTVSPropertyOp16
 70
     1
102
RTVSPropertyOp17
 70
     1
102
RTVSPropertyOp18
 70
     1
102
RTVSPropertyOp19
 70
     1
102
RTVSPropertyOp20
 70
     1
102
RTVSPropertyOp21
 70
     1
102
RTVSPropertyOp22
 70
     1
102
RTVSPropertyOp23
 70
     1
102
RTVSPropertyOp24
 70
     1
102
RTVSPropertyOp25
 70
     1
102
RTVSPropertyOp26
 70
     1
102
RTVSPropertyOp27
 70
     1
102
RTVSPropertyOp28
 70
     1
102
RTVSPropertyOp29
 70
     1
102
RTVSPropertyOp30
 70
     1
102
RTVSPropertyOp31
 70
     1
102
RTVSPropertyOp32
 70
     1
102
RTVSPropertyOp33
 70
     1
102
RTVSPropertyOp34
 70
     1
102
RTVSPropertyOp35
 70
     1
102
RTVSPropertyOp36
 70
     1
102
RTVSPropertyOp37
 70
     1
102
RTVSPropertyOp38
 70
     1
102
RTVSPropertyOp39
 70
     1
102
RTVSPropertyOp40
 70
     1
102
RTVSPropertyOp41
 70
     1
102
RTVSPropertyOp42
 70
     1
102
RTVSPropertyOp43
 70
     1
102
RTVSPropertyOp44
 70
     1
102
RTVSPropertyOp45
 70
     1
102
RTVSPropertyOp46
 70
     1
102
RTVSPropertyOp47
 70
     1
102
RTVSPropertyOp48
 70
     1
102
RTVSPropertyOp49
 70
     1
102
RTVSPropertyOp50
 70
     1
102
RTVSPropertyOp51
 70
     0
102
RTVSPropertyOp52
 70
     0
102
RTVSPropertyOp53
 70
     1
102
RTVSPropertyOp54
 70
     1
102
RTVSPropertyOp55
 70
     1
102
RTVSPropertyOp56
 70
     1
102
RTVSPropertyOp57
 70
     1
102
RTVSPost2010Prop28
280
     0
102
RTVSPost2010PropOp28
 70
     1
102
RTVSPost2010Prop29
280
     1
102
RTVSPost2010PropOp29
 70
     1
102
RTVSPost2010Prop30
280
     1
102
RTVSPost2010PropOp30
 70
     1
102
RTVSPost2010Prop31
280
     0
102
RTVSPost2010PropOp31
 70
     1
102
RTVSPost2010Prop32
280
     0
102
RTVSPost2010PropOp32
 70
     1
102
RTVSPost2010Prop33
280
     0
102
RTVSPost2010PropOp33
 70
     1
102
RTVSPost2010Prop34
280
     0
102
RTVSPost2010PropOp34
 70
     1
102
RTVSPost2010Prop35
280
     0
102
RTVSPost2010PropOp35
 70
     1
102
RTVSPost2010Prop36
280
     0
102
RTVSPost2010PropOp36
 70
     1
102
RTVSPost2010Prop37
 90
       50
102
RTVSPost2010PropOp37
 70
     1
102
RTVSPost2010Prop38
140
0.0
102
RTVSPost2010PropOp38
 70
     1
102
RTVSPost2010Prop39
140
1.0
102
RTVSPost2010PropOp39
 70
     1
102
RTVSPost2010Prop40
 90
        0
102
RTVSPost2010PropOp40
 70
     1
102
RTVSPost2010Prop41ColorIndex
 90
       18
102
RTVSPost2010Prop41ColorRGB
 90
        0
102
RTVSPost2010PropOp41
 70
     1
102
RTVSPost2010Prop42
 90
       50
102
RTVSPost2010PropOp42
 70
     1
102
RTVSPost2010Prop43
 90
        3
102
RTVSPost2010PropOp43
 70
     1
102
RTVSPost2010Prop44ColorIndex
 90
        5
102
RTVSPost2010Prop44ColorRGB
 90
      255
102
RTVSPost2010PropOp44
 70
     1
102
RTVSPost2010Prop45
280
     0
102
RTVSPost2010PropOp45
 70
     1
102
RTVSPost2010Prop46
 90
       50
102
RTVSPost2010PropOp46
 70
     1
102
RTVSPost2010Prop47
 90
       50
102
RTVSPost2010PropOp47
 70
     1
102
RTVSPost2010Prop48
 90
       50
102
RTVSPost2010PropOp48
 70
     1
102
RTVSPost2010Prop49
280
     0
102
RTVSPost2010PropOp49
 70
     1
102
RTVSPost2010Prop50
 90
       50
102
RTVSPost2010PropOp50
 70
     1
102
RTVSPost2010Prop51ColorIndex
 90
      256
102
RTVSPost2010Prop51ColorRGB
 90
-16777216
102
RTVSPost2010PropOp51
 70
     0
102
RTVSPost2010Prop52
140
1.0
102
RTVSPost2010PropOp52
 70
     0
102
RTVSPost2010Prop53
 90
        2
102
RTVSPost2010PropOp53
 70
     1
102
RTVSPost2010Prop54
  1
strokes_ogs.tif
102
RTVSPost2010PropOp54
 70
     1
102
RTVSPost2010Prop55
280
     0
102
RTVSPost2010PropOp55
 70
     1
102
RTVSPost2010Prop56
140
1.0
102
RTVSPost2010PropOp56
 70
     1
102
RTVSPost2010Prop57
140
1.0
102
RTVSPost2010PropOp57
 70
     1
  0
XRECORD
  5
2ED
102
{ACAD_REACTORS
330
2EC
102
}
330
2EC
100
AcDbXrecord
280
     1
102
RTVSPropertyOp0
 70
     1
102
RTVSPropertyOp1
 70
     1
102
RTVSPropertyOp2
 70
     1
102
RTVSPropertyOp3
 70
     1
102
RTVSPropertyOp4
 70
     1
102
RTVSPropertyOp5
 70
     1
102
RTVSPropertyOp6
 70
     1
102
RTVSPropertyOp7
 70
     1
102
RTVSPropertyOp8
 70
     1
102
RTVSPropertyOp9
 70
     1
102
RTVSPropertyOp10
 70
     1
102
RTVSPropertyOp11
 70
     1
102
RTVSPropertyOp12
 70
     1
102
RTVSPropertyOp13
 70
     1
102
RTVSPropertyOp14
 70
     1
102
RTVSPropertyOp15
 70
     1
102
RTVSPropertyOp16
 70
     1
102
RTVSPropertyOp17
 70
     1
102
RTVSPropertyOp18
 70
     1
102
RTVSPropertyOp19
 70
     1
102
RTVSPropertyOp20
 70
     1
102
RTVSPropertyOp21
 70
     1
102
RTVSPropertyOp22
 70
     1
102
RTVSPropertyOp23
 70
     1
102
RTVSPropertyOp24
 70
     1
102
RTVSPropertyOp25
 70
     1
102
RTVSPropertyOp26
 70
     1
102
RTVSPropertyOp27
 70
     1
102
RTVSPropertyOp28
 70
     1
102
RTVSPropertyOp29
 70
     1
102
RTVSPropertyOp30
 70
     1
102
RTVSPropertyOp31
 70
     1
102
RTVSPropertyOp32
 70
     1
102
RTVSPropertyOp33
 70
     1
102
RTVSPropertyOp34
 70
     1
102
RTVSPropertyOp35
 70
     1
102
RTVSPropertyOp36
 70
     1
102
RTVSPropertyOp37
 70
     1
102
RTVSPropertyOp38
 70
     1
102
RTVSPropertyOp39
 70
     1
102
RTVSPropertyOp40
 70
     1
102
RTVSPropertyOp41
 70
     1
102
RTVSPropertyOp42
 70
     1
102
RTVSPropertyOp43
 70
     1
102
RTVSPropertyOp44
 70
     1
102
RTVSPropertyOp45
 70
     1
102
RTVSPropertyOp46
 70
     1
102
RTVSPropertyOp47
 70
     1
102
RTVSPropertyOp48
 70
     1
102
RTVSPropertyOp49
 70
     1
102
RTVSPropertyOp50
 70
     1
102
RTVSPropertyOp51
 70
     0
102
RTVSPropertyOp52
 70
     0
102
RTVSPropertyOp53
 70
     1
102
RTVSPropertyOp54
 70
     1
102
RTVSPropertyOp55
 70
     1
102
RTVSPropertyOp56
 70
     1
102
RTVSPropertyOp57
 70
     1
102
RTVSPost2010Prop28
280
     0
102
RTVSPost2010PropOp28
 70
     1
102
RTVSPost2010Prop29
280
     1
102
RTVSPost2010PropOp29
 70
     1
102
RTVSPost2010Prop30
280
     1
102
RTVSPost2010PropOp30
 70
     1
102
RTVSPost2010Prop31
280
     0
102
RTVSPost2010PropOp31
 70
     1
102
RTVSPost2010Prop32
280
     0
102
RTVSPost2010PropOp32
 70
     1
102
RTVSPost2010Prop33
280
     0
102
RTVSPost2010PropOp33
 70
     1
102
RTVSPost2010Prop34
280
     0
102
RTVSPost2010PropOp34
 70
     1
102
RTVSPost2010Prop35
280
     0
102
RTVSPost2010PropOp35
 70
     1
102
RTVSPost2010Prop36
280
     0
102
RTVSPost2010PropOp36
 70
     1
102
RTVSPost2010Prop37
 90
       50
102
RTVSPost2010PropOp37
 70
     1
102
RTVSPost2010Prop38
140
0.0
102
RTVSPost2010PropOp38
 70
     1
102
RTVSPost2010Prop39
140
1.0
102
RTVSPost2010PropOp39
 70
     1
102
RTVSPost2010Prop40
 90
        0
102
RTVSPost2010PropOp40
 70
     1
102
RTVSPost2010Prop41ColorIndex
 90
       18
102
RTVSPost2010Prop41ColorRGB
 90
        0
102
RTVSPost2010PropOp41
 70
     1
102
RTVSPost2010Prop42
 90
       50
102
RTVSPost2010PropOp42
 70
     1
102
RTVSPost2010Prop43
 90
        3
102
RTVSPost2010PropOp43
 70
     1
102
RTVSPost2010Prop44ColorIndex
 90
        5
102
RTVSPost2010Prop44ColorRGB
 90
      255
102
RTVSPost2010PropOp44
 70
     1
102
RTVSPost2010Prop45
280
     0
102
RTVSPost2010PropOp45
 70
     1
102
RTVSPost2010Prop46
 90
       50
102
RTVSPost2010PropOp46
 70
     1
102
RTVSPost2010Prop47
 90
       50
102
RTVSPost2010PropOp47
 70
     1
102
RTVSPost2010Prop48
 90
       50
102
RTVSPost2010PropOp48
 70
     1
102
RTVSPost2010Prop49
280
     0
102
RTVSPost2010PropOp49
 70
     1
102
RTVSPost2010Prop50
 90
       50
102
RTVSPost2010PropOp50
 70
     1
102
RTVSPost2010Prop51ColorIndex
 90
      256
102
RTVSPost2010Prop51ColorRGB
 90
-16777216
102
RTVSPost2010PropOp51
 70
     0
102
RTVSPost2010Prop52
140
1.0
102
RTVSPost2010PropOp52
 70
     0
102
RTVSPost2010Prop53
 90
        2
102
RTVSPost2010PropOp53
 70
     1
102
RTVSPost2010Prop54
  1
strokes_ogs.tif
102
RTVSPost2010PropOp54
 70
     1
102
RTVSPost2010Prop55
280
     0
102
RTVSPost2010PropOp55
 70
     1
102
RTVSPost2010Prop56
140
1.0
102
RTVSPost2010PropOp56
 70
     1
102
RTVSPost2010Prop57
140
1.0
102
RTVSPost2010PropOp57
 70
     1
  0
XRECORD
  5
301
102
{ACAD_REACTORS
330
300
102
}
330
300
100
AcDbXrecord
280
     1
102
RTVSPropertyOp0
 70
     0
102
RTVSPropertyOp1
 70
     0
102
RTVSPropertyOp2
 70
     0
102
RTVSPropertyOp3
 70
     0
102
RTVSPropertyOp4
 70
     0
102
RTVSPropertyOp5
 70
     0
102
RTVSPropertyOp6
 70
     0
102
RTVSPropertyOp7
 70
     0
102
RTVSPropertyOp8
 70
     0
102
RTVSPropertyOp9
 70
     0
102
RTVSPropertyOp10
 70
     0
102
RTVSPropertyOp11
 70
     0
102
RTVSPropertyOp12
 70
     0
102
RTVSPropertyOp13
 70
     0
102
RTVSPropertyOp14
 70
     2
102
RTVSPropertyOp15
 70
     0
102
RTVSPropertyOp16
 70
     0
102
RTVSPropertyOp17
 70
     0
102
RTVSPropertyOp18
 70
     0
102
RTVSPropertyOp19
 70
     0
102
RTVSPropertyOp20
 70
     0
102
RTVSPropertyOp21
 70
     0
102
RTVSPropertyOp22
 70
     0
102
RTVSPropertyOp23
 70
     0
102
RTVSPropertyOp24
 70
     0
102
RTVSPropertyOp25
 70
     0
102
RTVSPropertyOp26
 70
     0
102
RTVSPropertyOp27
 70
     0
102
RTVSPropertyOp28
 70
     0
102
RTVSPropertyOp29
 70
     0
102
RTVSPropertyOp30
 70
     0
102
RTVSPropertyOp31
 70
     0
102
RTVSPropertyOp32
 70
     0
102
RTVSPropertyOp33
 70
     0
102
RTVSPropertyOp34
 70
     0
102
RTVSPropertyOp35
 70
     0
102
RTVSPropertyOp36
 70
     0
102
RTVSPropertyOp37
 70
     0
102
RTVSPropertyOp38
 70
     0
102
RTVSPropertyOp39
 70
     0
102
RTVSPropertyOp40
 70
     0
102
RTVSPropertyOp41
 70
     0
102
RTVSPropertyOp42
 70
     0
102
RTVSPropertyOp43
 70
     0
102
RTVSPropertyOp44
 70
     0
102
RTVSPropertyOp45
 70
     0
102
RTVSPropertyOp46
 70
     0
102
RTVSPropertyOp47
 70
     0
102
RTVSPropertyOp48
 70
     0
102
RTVSPropertyOp49
 70
     0
102
RTVSPropertyOp50
 70
     0
102
RTVSPropertyOp51
 70
     0
102
RTVSPropertyOp52
 70
     0
102
RTVSPropertyOp53
 70
     0
102
RTVSPropertyOp54
 70
     0
102
RTVSPropertyOp55
 70
     0
102
RTVSPropertyOp56
 70
     0
102
RTVSPropertyOp57
 70
     0
102
RTVSPost2010Prop28
280
     0
102
RTVSPost2010PropOp28
 70
     0
102
RTVSPost2010Prop29
280
     1
102
RTVSPost2010PropOp29
 70
     0
102
RTVSPost2010Prop30
280
     1
102
RTVSPost2010PropOp30
 70
     0
102
RTVSPost2010Prop31
280
     0
102
RTVSPost2010PropOp31
 70
     0
102
RTVSPost2010Prop32
280
     0
102
RTVSPost2010PropOp32
 70
     0
102
RTVSPost2010Prop33
280
     0
102
RTVSPost2010PropOp33
 70
     0
102
RTVSPost2010Prop34
280
     0
102
RTVSPost2010PropOp34
 70
     0
102
RTVSPost2010Prop35
280
     0
102
RTVSPost2010PropOp35
 70
     0
102
RTVSPost2010Prop36
280
     0
102
RTVSPost2010PropOp36
 70
     0
102
RTVSPost2010Prop37
 90
       50
102
RTVSPost2010PropOp37
 70
     0
102
RTVSPost2010Prop38
140
0.0
102
RTVSPost2010PropOp38
 70
     0
102
RTVSPost2010Prop39
140
1.0
102
RTVSPost2010PropOp39
 70
     0
102
RTVSPost2010Prop40
 90
        0
102
RTVSPost2010PropOp40
 70
     0
102
RTVSPost2010Prop41ColorIndex
 90
       18
102
RTVSPost2010Prop41ColorRGB
 90
        0
102
RTVSPost2010PropOp41
 70
     0
102
RTVSPost2010Prop42
 90
       50
102
RTVSPost2010PropOp42
 70
     0
102
RTVSPost2010Prop43
 90
        3
102
RTVSPost2010PropOp43
 70
     0
102
RTVSPost2010Prop44ColorIndex
 90
        5
102
RTVSPost2010Prop44ColorRGB
 90
      255
102
RTVSPost2010PropOp44
 70
     0
102
RTVSPost2010Prop45
280
     0
102
RTVSPost2010PropOp45
 70
     0
102
RTVSPost2010Prop46
 90
       50
102
RTVSPost2010PropOp46
 70
     0
102
RTVSPost2010Prop47
 90
       50
102
RTVSPost2010PropOp47
 70
     0
102
RTVSPost2010Prop48
 90
       50
102
RTVSPost2010PropOp48
 70
     0
102
RTVSPost2010Prop49
280
     0
102
RTVSPost2010PropOp49
 70
     0
102
RTVSPost2010Prop50
 90
       50
102
RTVSPost2010PropOp50
 70
     0
102
RTVSPost2010Prop51ColorIndex
 90
      256
102
RTVSPost2010Prop51ColorRGB
 90
-16777216
102
RTVSPost2010PropOp51
 70
     0
102
RTVSPost2010Prop52
140
1.0
102
RTVSPost2010PropOp52
 70
     0
102
RTVSPost2010Prop53
 90
        2
102
RTVSPost2010PropOp53
 70
     0
102
RTVSPost2010Prop54
  1
strokes_ogs.tif
102
RTVSPost2010PropOp54
 70
     0
102
RTVSPost2010Prop55
280
     0
102
RTVSPost2010PropOp55
 70
     0
102
RTVSPost2010Prop56
140
1.0
102
RTVSPost2010PropOp56
 70
     0
102
RTVSPost2010Prop57
140
1.0
102
RTVSPost2010PropOp57
 70
     0
  0
XRECORD
  5
2FB
102
{ACAD_REACTORS
330
2FA
102
}
330
2FA
100
AcDbXrecord
280
     1
102
RTVSPropertyOp0
 70
     1
102
RTVSPropertyOp1
 70
     1
102
RTVSPropertyOp2
 70
     1
102
RTVSPropertyOp3
 70
     1
102
RTVSPropertyOp4
 70
     1
102
RTVSPropertyOp5
 70
     1
102
RTVSPropertyOp6
 70
     1
102
RTVSPropertyOp7
 70
     1
102
RTVSPropertyOp8
 70
     1
102
RTVSPropertyOp9
 70
     1
102
RTVSPropertyOp10
 70
     1
102
RTVSPropertyOp11
 70
     1
102
RTVSPropertyOp12
 70
     1
102
RTVSPropertyOp13
 70
     1
102
RTVSPropertyOp14
 70
     1
102
RTVSPropertyOp15
 70
     1
102
RTVSPropertyOp16
 70
     1
102
RTVSPropertyOp17
 70
     1
102
RTVSPropertyOp18
 70
     1
102
RTVSPropertyOp19
 70
     1
102
RTVSPropertyOp20
 70
     1
102
RTVSPropertyOp21
 70
     1
102
RTVSPropertyOp22
 70
     1
102
RTVSPropertyOp23
 70
     1
102
RTVSPropertyOp24
 70
     1
102
RTVSPropertyOp25
 70
     1
102
RTVSPropertyOp26
 70
     1
102
RTVSPropertyOp27
 70
     1
102
RTVSPropertyOp28
 70
     1
102
RTVSPropertyOp29
 70
     1
102
RTVSPropertyOp30
 70
     1
102
RTVSPropertyOp31
 70
     1
102
RTVSPropertyOp32
 70
     1
102
RTVSPropertyOp33
 70
     1
102
RTVSPropertyOp34
 70
     1
102
RTVSPropertyOp35
 70
     1
102
RTVSPropertyOp36
 70
     1
102
RTVSPropertyOp37
 70
     1
102
RTVSPropertyOp38
 70
     1
102
RTVSPropertyOp39
 70
     1
102
RTVSPropertyOp40
 70
     1
102
RTVSPropertyOp41
 70
     1
102
RTVSPropertyOp42
 70
     1
102
RTVSPropertyOp43
 70
     1
102
RTVSPropertyOp44
 70
     1
102
RTVSPropertyOp45
 70
     1
102
RTVSPropertyOp46
 70
     1
102
RTVSPropertyOp47
 70
     1
102
RTVSPropertyOp48
 70
     1
102
RTVSPropertyOp49
 70
     1
102
RTVSPropertyOp50
 70
     1
102
RTVSPropertyOp51
 70
     0
102
RTVSPropertyOp52
 70
     0
102
RTVSPropertyOp53
 70
     1
102
RTVSPropertyOp54
 70
     1
102
RTVSPropertyOp55
 70
     1
102
RTVSPropertyOp56
 70
     1
102
RTVSPropertyOp57
 70
     1
102
RTVSPost2010Prop28
280
     0
102
RTVSPost2010PropOp28
 70
     1
102
RTVSPost2010Prop29
280
     1
102
RTVSPost2010PropOp29
 70
     1
102
RTVSPost2010Prop30
280
     1
102
RTVSPost2010PropOp30
 70
     1
102
RTVSPost2010Prop31
280
     0
102
RTVSPost2010PropOp31
 70
     1
102
RTVSPost2010Prop32
280
     0
102
RTVSPost2010PropOp32
 70
     1
102
RTVSPost2010Prop33
280
     0
102
RTVSPost2010PropOp33
 70
     1
102
RTVSPost2010Prop34
280
     0
102
RTVSPost2010PropOp34
 70
     1
102
RTVSPost2010Prop35
280
     0
102
RTVSPost2010PropOp35
 70
     1
102
RTVSPost2010Prop36
280
     0
102
RTVSPost2010PropOp36
 70
     1
102
RTVSPost2010Prop37
 90
       50
102
RTVSPost2010PropOp37
 70
     1
102
RTVSPost2010Prop38
140
0.0
102
RTVSPost2010PropOp38
 70
     1
102
RTVSPost2010Prop39
140
1.0
102
RTVSPost2010PropOp39
 70
     1
102
RTVSPost2010Prop40
 90
        0
102
RTVSPost2010PropOp40
 70
     1
102
RTVSPost2010Prop41ColorIndex
 90
       18
102
RTVSPost2010Prop41ColorRGB
 90
        0
102
RTVSPost2010PropOp41
 70
     1
102
RTVSPost2010Prop42
 90
       50
102
RTVSPost2010PropOp42
 70
     1
102
RTVSPost2010Prop43
 90
        3
102
RTVSPost2010PropOp43
 70
     1
102
RTVSPost2010Prop44ColorIndex
 90
        5
102
RTVSPost2010Prop44ColorRGB
 90
      255
102
RTVSPost2010PropOp44
 70
     1
102
RTVSPost2010Prop45
280
     0
102
RTVSPost2010PropOp45
 70
     1
102
RTVSPost2010Prop46
 90
       50
102
RTVSPost2010PropOp46
 70
     1
102
RTVSPost2010Prop47
 90
       50
102
RTVSPost2010PropOp47
 70
     1
102
RTVSPost2010Prop48
 90
       50
102
RTVSPost2010PropOp48
 70
     1
102
RTVSPost2010Prop49
280
     0
102
RTVSPost2010PropOp49
 70
     1
102
RTVSPost2010Prop50
 90
       50
102
RTVSPost2010PropOp50
 70
     1
102
RTVSPost2010Prop51ColorIndex
 90
      256
102
RTVSPost2010Prop51ColorRGB
 90
-16777216
102
RTVSPost2010PropOp51
 70
     0
102
RTVSPost2010Prop52
140
1.0
102
RTVSPost2010PropOp52
 70
     0
102
RTVSPost2010Prop53
 90
        2
102
RTVSPost2010PropOp53
 70
     1
102
RTVSPost2010Prop54
  1
strokes_ogs.tif
102
RTVSPost2010PropOp54
 70
     1
102
RTVSPost2010Prop55
280
     0
102
RTVSPost2010PropOp55
 70
     1
102
RTVSPost2010Prop56
140
1.0
102
RTVSPost2010PropOp56
 70
     1
102
RTVSPost2010Prop57
140
1.0
102
RTVSPost2010PropOp57
 70
     1
  0
XRECORD
  5
303
102
{ACAD_REACTORS
330
302
102
}
330
302
100
AcDbXrecord
280
     1
102
RTVSPropertyOp0
 70
     0
102
RTVSPropertyOp1
 70
     0
102
RTVSPropertyOp2
 70
     0
102
RTVSPropertyOp3
 70
     0
102
RTVSPropertyOp4
 70
     0
102
RTVSPropertyOp5
 70
     0
102
RTVSPropertyOp6
 70
     0
102
RTVSPropertyOp7
 70
     0
102
RTVSPropertyOp8
 70
     0
102
RTVSPropertyOp9
 70
     0
102
RTVSPropertyOp10
 70
     0
102
RTVSPropertyOp11
 70
     0
102
RTVSPropertyOp12
 70
     0
102
RTVSPropertyOp13
 70
     0
102
RTVSPropertyOp14
 70
     2
102
RTVSPropertyOp15
 70
     0
102
RTVSPropertyOp16
 70
     0
102
RTVSPropertyOp17
 70
     0
102
RTVSPropertyOp18
 70
     0
102
RTVSPropertyOp19
 70
     0
102
RTVSPropertyOp20
 70
     0
102
RTVSPropertyOp21
 70
     0
102
RTVSPropertyOp22
 70
     0
102
RTVSPropertyOp23
 70
     0
102
RTVSPropertyOp24
 70
     0
102
RTVSPropertyOp25
 70
     0
102
RTVSPropertyOp26
 70
     0
102
RTVSPropertyOp27
 70
     0
102
RTVSPropertyOp28
 70
     0
102
RTVSPropertyOp29
 70
     0
102
RTVSPropertyOp30
 70
     0
102
RTVSPropertyOp31
 70
     0
102
RTVSPropertyOp32
 70
     0
102
RTVSPropertyOp33
 70
     0
102
RTVSPropertyOp34
 70
     0
102
RTVSPropertyOp35
 70
     0
102
RTVSPropertyOp36
 70
     0
102
RTVSPropertyOp37
 70
     0
102
RTVSPropertyOp38
 70
     0
102
RTVSPropertyOp39
 70
     0
102
RTVSPropertyOp40
 70
     0
102
RTVSPropertyOp41
 70
     0
102
RTVSPropertyOp42
 70
     0
102
RTVSPropertyOp43
 70
     0
102
RTVSPropertyOp44
 70
     0
102
RTVSPropertyOp45
 70
     0
102
RTVSPropertyOp46
 70
     0
102
RTVSPropertyOp47
 70
     0
102
RTVSPropertyOp48
 70
     0
102
RTVSPropertyOp49
 70
     0
102
RTVSPropertyOp50
 70
     0
102
RTVSPropertyOp51
 70
     0
102
RTVSPropertyOp52
 70
     0
102
RTVSPropertyOp53
 70
     0
102
RTVSPropertyOp54
 70
     0
102
RTVSPropertyOp55
 70
     0
102
RTVSPropertyOp56
 70
     0
102
RTVSPropertyOp57
 70
     0
102
RTVSPost2010Prop28
280
     0
102
RTVSPost2010PropOp28
 70
     0
102
RTVSPost2010Prop29
280
     1
102
RTVSPost2010PropOp29
 70
     0
102
RTVSPost2010Prop30
280
     1
102
RTVSPost2010PropOp30
 70
     0
102
RTVSPost2010Prop31
280
     0
102
RTVSPost2010PropOp31
 70
     0
102
RTVSPost2010Prop32
280
     0
102
RTVSPost2010PropOp32
 70
     0
102
RTVSPost2010Prop33
280
     0
102
RTVSPost2010PropOp33
 70
     0
102
RTVSPost2010Prop34
280
     0
102
RTVSPost2010PropOp34
 70
     0
102
RTVSPost2010Prop35
280
     0
102
RTVSPost2010PropOp35
 70
     0
102
RTVSPost2010Prop36
280
     0
102
RTVSPost2010PropOp36
 70
     0
102
RTVSPost2010Prop37
 90
       50
102
RTVSPost2010PropOp37
 70
     0
102
RTVSPost2010Prop38
140
0.0
102
RTVSPost2010PropOp38
 70
     0
102
RTVSPost2010Prop39
140
1.0
102
RTVSPost2010PropOp39
 70
     0
102
RTVSPost2010Prop40
 90
        0
102
RTVSPost2010PropOp40
 70
     0
102
RTVSPost2010Prop41ColorIndex
 90
       18
102
RTVSPost2010Prop41ColorRGB
 90
        0
102
RTVSPost2010PropOp41
 70
     0
102
RTVSPost2010Prop42
 90
       50
102
RTVSPost2010PropOp42
 70
     0
102
RTVSPost2010Prop43
 90
        3
102
RTVSPost2010PropOp43
 70
     0
102
RTVSPost2010Prop44ColorIndex
 90
        5
102
RTVSPost2010Prop44ColorRGB
 90
      255
102
RTVSPost2010PropOp44
 70
     0
102
RTVSPost2010Prop45
280
     0
102
RTVSPost2010PropOp45
 70
     0
102
RTVSPost2010Prop46
 90
       50
102
RTVSPost2010PropOp46
 70
     0
102
RTVSPost2010Prop47
 90
       50
102
RTVSPost2010PropOp47
 70
     0
102
RTVSPost2010Prop48
 90
       50
102
RTVSPost2010PropOp48
 70
     0
102
RTVSPost2010Prop49
280
     0
102
RTVSPost2010PropOp49
 70
     0
102
RTVSPost2010Prop50
 90
       50
102
RTVSPost2010PropOp50
 70
     0
102
RTVSPost2010Prop51ColorIndex
 90
      256
102
RTVSPost2010Prop51ColorRGB
 90
-16777216
102
RTVSPost2010PropOp51
 70
     0
102
RTVSPost2010Prop52
140
1.0
102
RTVSPost2010PropOp52
 70
     0
102
RTVSPost2010Prop53
 90
        2
102
RTVSPost2010PropOp53
 70
     0
102
RTVSPost2010Prop54
  1
strokes_ogs.tif
102
RTVSPost2010PropOp54
 70
     0
102
RTVSPost2010Prop55
280
     0
102
RTVSPost2010PropOp55
 70
     0
102
RTVSPost2010Prop56
140
1.0
102
RTVSPost2010PropOp56
 70
     0
102
RTVSPost2010Prop57
140
1.0
102
RTVSPost2010PropOp57
 70
     0
  0
XRECORD
  5
2F1
102
{ACAD_REACTORS
330
2F0
102
}
330
2F0
100
AcDbXrecord
280
     1
102
RTVSPropertyOp0
 70
     1
102
RTVSPropertyOp1
 70
     1
102
RTVSPropertyOp2
 70
     1
102
RTVSPropertyOp3
 70
     1
102
RTVSPropertyOp4
 70
     1
102
RTVSPropertyOp5
 70
     1
102
RTVSPropertyOp6
 70
     1
102
RTVSPropertyOp7
 70
     1
102
RTVSPropertyOp8
 70
     1
102
RTVSPropertyOp9
 70
     1
102
RTVSPropertyOp10
 70
     1
102
RTVSPropertyOp11
 70
     1
102
RTVSPropertyOp12
 70
     1
102
RTVSPropertyOp13
 70
     1
102
RTVSPropertyOp14
 70
     1
102
RTVSPropertyOp15
 70
     1
102
RTVSPropertyOp16
 70
     1
102
RTVSPropertyOp17
 70
     1
102
RTVSPropertyOp18
 70
     1
102
RTVSPropertyOp19
 70
     1
102
RTVSPropertyOp20
 70
     1
102
RTVSPropertyOp21
 70
     1
102
RTVSPropertyOp22
 70
     1
102
RTVSPropertyOp23
 70
     1
102
RTVSPropertyOp24
 70
     1
102
RTVSPropertyOp25
 70
     1
102
RTVSPropertyOp26
 70
     1
102
RTVSPropertyOp27
 70
     1
102
RTVSPropertyOp28
 70
     1
102
RTVSPropertyOp29
 70
     1
102
RTVSPropertyOp30
 70
     1
102
RTVSPropertyOp31
 70
     1
102
RTVSPropertyOp32
 70
     1
102
RTVSPropertyOp33
 70
     1
102
RTVSPropertyOp34
 70
     1
102
RTVSPropertyOp35
 70
     1
102
RTVSPropertyOp36
 70
     1
102
RTVSPropertyOp37
 70
     1
102
RTVSPropertyOp38
 70
     1
102
RTVSPropertyOp39
 70
     1
102
RTVSPropertyOp40
 70
     1
102
RTVSPropertyOp41
 70
     1
102
RTVSPropertyOp42
 70
     1
102
RTVSPropertyOp43
 70
     1
102
RTVSPropertyOp44
 70
     1
102
RTVSPropertyOp45
 70
     1
102
RTVSPropertyOp46
 70
     1
102
RTVSPropertyOp47
 70
     1
102
RTVSPropertyOp48
 70
     1
102
RTVSPropertyOp49
 70
     1
102
RTVSPropertyOp50
 70
     1
102
RTVSPropertyOp51
 70
     0
102
RTVSPropertyOp52
 70
     0
102
RTVSPropertyOp53
 70
     1
102
RTVSPropertyOp54
 70
     1
102
RTVSPropertyOp55
 70
     1
102
RTVSPropertyOp56
 70
     1
102
RTVSPropertyOp57
 70
     1
102
RTVSPost2010Prop28
280
     0
102
RTVSPost2010PropOp28
 70
     1
102
RTVSPost2010Prop29
280
     1
102
RTVSPost2010PropOp29
 70
     1
102
RTVSPost2010Prop30
280
     1
102
RTVSPost2010PropOp30
 70
     1
102
RTVSPost2010Prop31
280
     0
102
RTVSPost2010PropOp31
 70
     1
102
RTVSPost2010Prop32
280
     0
102
RTVSPost2010PropOp32
 70
     1
102
RTVSPost2010Prop33
280
     0
102
RTVSPost2010PropOp33
 70
     1
102
RTVSPost2010Prop34
280
     0
102
RTVSPost2010PropOp34
 70
     1
102
RTVSPost2010Prop35
280
     0
102
RTVSPost2010PropOp35
 70
     1
102
RTVSPost2010Prop36
280
     0
102
RTVSPost2010PropOp36
 70
     1
102
RTVSPost2010Prop37
 90
       50
102
RTVSPost2010PropOp37
 70
     1
102
RTVSPost2010Prop38
140
0.0
102
RTVSPost2010PropOp38
 70
     1
102
RTVSPost2010Prop39
140
1.0
102
RTVSPost2010PropOp39
 70
     1
102
RTVSPost2010Prop40
 90
        0
102
RTVSPost2010PropOp40
 70
     1
102
RTVSPost2010Prop41ColorIndex
 90
       18
102
RTVSPost2010Prop41ColorRGB
 90
        0
102
RTVSPost2010PropOp41
 70
     1
102
RTVSPost2010Prop42
 90
       50
102
RTVSPost2010PropOp42
 70
     1
102
RTVSPost2010Prop43
 90
        3
102
RTVSPost2010PropOp43
 70
     1
102
RTVSPost2010Prop44ColorIndex
 90
        5
102
RTVSPost2010Prop44ColorRGB
 90
      255
102
RTVSPost2010PropOp44
 70
     1
102
RTVSPost2010Prop45
280
     0
102
RTVSPost2010PropOp45
 70
     1
102
RTVSPost2010Prop46
 90
       50
102
RTVSPost2010PropOp46
 70
     1
102
RTVSPost2010Prop47
 90
       50
102
RTVSPost2010PropOp47
 70
     1
102
RTVSPost2010Prop48
 90
       50
102
RTVSPost2010PropOp48
 70
     1
102
RTVSPost2010Prop49
280
     0
102
RTVSPost2010PropOp49
 70
     1
102
RTVSPost2010Prop50
 90
       50
102
RTVSPost2010PropOp50
 70
     1
102
RTVSPost2010Prop51ColorIndex
 90
      256
102
RTVSPost2010Prop51ColorRGB
 90
-16777216
102
RTVSPost2010PropOp51
 70
     0
102
RTVSPost2010Prop52
140
1.0
102
RTVSPost2010PropOp52
 70
     0
102
RTVSPost2010Prop53
 90
        2
102
RTVSPost2010PropOp53
 70
     1
102
RTVSPost2010Prop54
  1
strokes_ogs.tif
102
RTVSPost2010PropOp54
 70
     1
102
RTVSPost2010Prop55
280
     0
102
RTVSPost2010PropOp55
 70
     1
102
RTVSPost2010Prop56
140
1.0
102
RTVSPost2010PropOp56
 70
     1
102
RTVSPost2010Prop57
140
1.0
102
RTVSPost2010PropOp57
 70
     1
  0
XRECORD
  5
30F
102
{ACAD_REACTORS
330
30E
102
}
330
30E
100
AcDbXrecord
280
     1
102
RTVSPropertyOp0
 70
     1
102
RTVSPropertyOp1
 70
     1
102
RTVSPropertyOp2
 70
     1
102
RTVSPropertyOp3
 70
     1
102
RTVSPropertyOp4
 70
     1
102
RTVSPropertyOp5
 70
     1
102
RTVSPropertyOp6
 70
     1
102
RTVSPropertyOp7
 70
     1
102
RTVSPropertyOp8
 70
     1
102
RTVSPropertyOp9
 70
     1
102
RTVSPropertyOp10
 70
     1
102
RTVSPropertyOp11
 70
     1
102
RTVSPropertyOp12
 70
     1
102
RTVSPropertyOp13
 70
     1
102
RTVSPropertyOp14
 70
     1
102
RTVSPropertyOp15
 70
     1
102
RTVSPropertyOp16
 70
     1
102
RTVSPropertyOp17
 70
     1
102
RTVSPropertyOp18
 70
     1
102
RTVSPropertyOp19
 70
     1
102
RTVSPropertyOp20
 70
     1
102
RTVSPropertyOp21
 70
     1
102
RTVSPropertyOp22
 70
     1
102
RTVSPropertyOp23
 70
     1
102
RTVSPropertyOp24
 70
     1
102
RTVSPropertyOp25
 70
     1
102
RTVSPropertyOp26
 70
     1
102
RTVSPropertyOp27
 70
     1
102
RTVSPropertyOp28
 70
     1
102
RTVSPropertyOp29
 70
     1
102
RTVSPropertyOp30
 70
     1
102
RTVSPropertyOp31
 70
     1
102
RTVSPropertyOp32
 70
     1
102
RTVSPropertyOp33
 70
     1
102
RTVSPropertyOp34
 70
     1
102
RTVSPropertyOp35
 70
     1
102
RTVSPropertyOp36
 70
     1
102
RTVSPropertyOp37
 70
     1
102
RTVSPropertyOp38
 70
     1
102
RTVSPropertyOp39
 70
     1
102
RTVSPropertyOp40
 70
     1
102
RTVSPropertyOp41
 70
     1
102
RTVSPropertyOp42
 70
     1
102
RTVSPropertyOp43
 70
     1
102
RTVSPropertyOp44
 70
     1
102
RTVSPropertyOp45
 70
     1
102
RTVSPropertyOp46
 70
     1
102
RTVSPropertyOp47
 70
     1
102
RTVSPropertyOp48
 70
     1
102
RTVSPropertyOp49
 70
     1
102
RTVSPropertyOp50
 70
     1
102
RTVSPropertyOp51
 70
     0
102
RTVSPropertyOp52
 70
     0
102
RTVSPropertyOp53
 70
     1
102
RTVSPropertyOp54
 70
     1
102
RTVSPropertyOp55
 70
     1
102
RTVSPropertyOp56
 70
     1
102
RTVSPropertyOp57
 70
     1
102
RTVSPost2010Prop28
280
     0
102
RTVSPost2010PropOp28
 70
     1
102
RTVSPost2010Prop29
280
     1
102
RTVSPost2010PropOp29
 70
     1
102
RTVSPost2010Prop30
280
     1
102
RTVSPost2010PropOp30
 70
     1
102
RTVSPost2010Prop31
280
     0
102
RTVSPost2010PropOp31
 70
     1
102
RTVSPost2010Prop32
280
     0
102
RTVSPost2010PropOp32
 70
     1
102
RTVSPost2010Prop33
280
     0
102
RTVSPost2010PropOp33
 70
     1
102
RTVSPost2010Prop34
280
     0
102
RTVSPost2010PropOp34
 70
     1
102
RTVSPost2010Prop35
280
     0
102
RTVSPost2010PropOp35
 70
     1
102
RTVSPost2010Prop36
280
     0
102
RTVSPost2010PropOp36
 70
     1
102
RTVSPost2010Prop37
 90
       50
102
RTVSPost2010PropOp37
 70
     1
102
RTVSPost2010Prop38
140
0.0
102
RTVSPost2010PropOp38
 70
     1
102
RTVSPost2010Prop39
140
1.0
102
RTVSPost2010PropOp39
 70
     1
102
RTVSPost2010Prop40
 90
        0
102
RTVSPost2010PropOp40
 70
     1
102
RTVSPost2010Prop41ColorIndex
 90
       18
102
RTVSPost2010Prop41ColorRGB
 90
        0
102
RTVSPost2010PropOp41
 70
     1
102
RTVSPost2010Prop42
 90
       50
102
RTVSPost2010PropOp42
 70
     1
102
RTVSPost2010Prop43
 90
        3
102
RTVSPost2010PropOp43
 70
     1
102
RTVSPost2010Prop44ColorIndex
 90
        5
102
RTVSPost2010Prop44ColorRGB
 90
      255
102
RTVSPost2010PropOp44
 70
     1
102
RTVSPost2010Prop45
280
     0
102
RTVSPost2010PropOp45
 70
     1
102
RTVSPost2010Prop46
 90
       50
102
RTVSPost2010PropOp46
 70
     1
102
RTVSPost2010Prop47
 90
       50
102
RTVSPost2010PropOp47
 70
     1
102
RTVSPost2010Prop48
 90
       50
102
RTVSPost2010PropOp48
 70
     1
102
RTVSPost2010Prop49
280
     0
102
RTVSPost2010PropOp49
 70
     1
102
RTVSPost2010Prop50
 90
       50
102
RTVSPost2010PropOp50
 70
     1
102
RTVSPost2010Prop51ColorIndex
 90
      256
102
RTVSPost2010Prop51ColorRGB
 90
-16777216
102
RTVSPost2010PropOp51
 70
     0
102
RTVSPost2010Prop52
140
1.0
102
RTVSPost2010PropOp52
 70
     0
102
RTVSPost2010Prop53
 90
        2
102
RTVSPost2010PropOp53
 70
     1
102
RTVSPost2010Prop54
  1
strokes_ogs.tif
102
RTVSPost2010PropOp54
 70
     1
102
RTVSPost2010Prop55
280
     0
102
RTVSPost2010PropOp55
 70
     1
102
RTVSPost2010Prop56
140
1.0
102
RTVSPost2010PropOp56
 70
     1
102
RTVSPost2010Prop57
140
1.0
102
RTVSPost2010PropOp57
 70
     1
  0
XRECORD
  5
30D
102
{ACAD_REACTORS
330
30C
102
}
330
30C
100
AcDbXrecord
280
     1
102
RTVSPropertyOp0
 70
     1
102
RTVSPropertyOp1
 70
     1
102
RTVSPropertyOp2
 70
     1
102
RTVSPropertyOp3
 70
     1
102
RTVSPropertyOp4
 70
     1
102
RTVSPropertyOp5
 70
     1
102
RTVSPropertyOp6
 70
     1
102
RTVSPropertyOp7
 70
     1
102
RTVSPropertyOp8
 70
     1
102
RTVSPropertyOp9
 70
     1
102
RTVSPropertyOp10
 70
     1
102
RTVSPropertyOp11
 70
     1
102
RTVSPropertyOp12
 70
     1
102
RTVSPropertyOp13
 70
     1
102
RTVSPropertyOp14
 70
     1
102
RTVSPropertyOp15
 70
     1
102
RTVSPropertyOp16
 70
     1
102
RTVSPropertyOp17
 70
     1
102
RTVSPropertyOp18
 70
     1
102
RTVSPropertyOp19
 70
     1
102
RTVSPropertyOp20
 70
     1
102
RTVSPropertyOp21
 70
     1
102
RTVSPropertyOp22
 70
     1
102
RTVSPropertyOp23
 70
     1
102
RTVSPropertyOp24
 70
     1
102
RTVSPropertyOp25
 70
     1
102
RTVSPropertyOp26
 70
     1
102
RTVSPropertyOp27
 70
     1
102
RTVSPropertyOp28
 70
     1
102
RTVSPropertyOp29
 70
     1
102
RTVSPropertyOp30
 70
     1
102
RTVSPropertyOp31
 70
     1
102
RTVSPropertyOp32
 70
     1
102
RTVSPropertyOp33
 70
     1
102
RTVSPropertyOp34
 70
     1
102
RTVSPropertyOp35
 70
     1
102
RTVSPropertyOp36
 70
     1
102
RTVSPropertyOp37
 70
     1
102
RTVSPropertyOp38
 70
     1
102
RTVSPropertyOp39
 70
     1
102
RTVSPropertyOp40
 70
     1
102
RTVSPropertyOp41
 70
     1
102
RTVSPropertyOp42
 70
     1
102
RTVSPropertyOp43
 70
     1
102
RTVSPropertyOp44
 70
     1
102
RTVSPropertyOp45
 70
     1
102
RTVSPropertyOp46
 70
     1
102
RTVSPropertyOp47
 70
     1
102
RTVSPropertyOp48
 70
     1
102
RTVSPropertyOp49
 70
     1
102
RTVSPropertyOp50
 70
     1
102
RTVSPropertyOp51
 70
     0
102
RTVSPropertyOp52
 70
     0
102
RTVSPropertyOp53
 70
     1
102
RTVSPropertyOp54
 70
     1
102
RTVSPropertyOp55
 70
     1
102
RTVSPropertyOp56
 70
     1
102
RTVSPropertyOp57
 70
     1
102
RTVSPost2010Prop28
280
     0
102
RTVSPost2010PropOp28
 70
     1
102
RTVSPost2010Prop29
280
     1
102
RTVSPost2010PropOp29
 70
     1
102
RTVSPost2010Prop30
280
     1
102
RTVSPost2010PropOp30
 70
     1
102
RTVSPost2010Prop31
280
     0
102
RTVSPost2010PropOp31
 70
     1
102
RTVSPost2010Prop32
280
     0
102
RTVSPost2010PropOp32
 70
     1
102
RTVSPost2010Prop33
280
     0
102
RTVSPost2010PropOp33
 70
     1
102
RTVSPost2010Prop34
280
     0
102
RTVSPost2010PropOp34
 70
     1
102
RTVSPost2010Prop35
280
     0
102
RTVSPost2010PropOp35
 70
     1
102
RTVSPost2010Prop36
280
     0
102
RTVSPost2010PropOp36
 70
     1
102
RTVSPost2010Prop37
 90
       50
102
RTVSPost2010PropOp37
 70
     1
102
RTVSPost2010Prop38
140
0.0
102
RTVSPost2010PropOp38
 70
     1
102
RTVSPost2010Prop39
140
1.0
102
RTVSPost2010PropOp39
 70
     1
102
RTVSPost2010Prop40
 90
        0
102
RTVSPost2010PropOp40
 70
     1
102
RTVSPost2010Prop41ColorIndex
 90
       18
102
RTVSPost2010Prop41ColorRGB
 90
        0
102
RTVSPost2010PropOp41
 70
     1
102
RTVSPost2010Prop42
 90
       50
102
RTVSPost2010PropOp42
 70
     1
102
RTVSPost2010Prop43
 90
        3
102
RTVSPost2010PropOp43
 70
     1
102
RTVSPost2010Prop44ColorIndex
 90
        5
102
RTVSPost2010Prop44ColorRGB
 90
      255
102
RTVSPost2010PropOp44
 70
     1
102
RTVSPost2010Prop45
280
     0
102
RTVSPost2010PropOp45
 70
     1
102
RTVSPost2010Prop46
 90
       50
102
RTVSPost2010PropOp46
 70
     1
102
RTVSPost2010Prop47
 90
       50
102
RTVSPost2010PropOp47
 70
     1
102
RTVSPost2010Prop48
 90
       50
102
RTVSPost2010PropOp48
 70
     1
102
RTVSPost2010Prop49
280
     0
102
RTVSPost2010PropOp49
 70
     1
102
RTVSPost2010Prop50
 90
       50
102
RTVSPost2010PropOp50
 70
     1
102
RTVSPost2010Prop51ColorIndex
 90
      256
102
RTVSPost2010Prop51ColorRGB
 90
-16777216
102
RTVSPost2010PropOp51
 70
     0
102
RTVSPost2010Prop52
140
1.0
102
RTVSPost2010PropOp52
 70
     0
102
RTVSPost2010Prop53
 90
        2
102
RTVSPost2010PropOp53
 70
     1
102
RTVSPost2010Prop54
  1
strokes_ogs.tif
102
RTVSPost2010PropOp54
 70
     1
102
RTVSPost2010Prop55
280
     0
102
RTVSPost2010PropOp55
 70
     1
102
RTVSPost2010Prop56
140
1.0
102
RTVSPost2010PropOp56
 70
     1
102
RTVSPost2010Prop57
140
1.0
102
RTVSPost2010PropOp57
 70
     1
  0
XRECORD
  5
307
102
{ACAD_REACTORS
330
306
102
}
330
306
100
AcDbXrecord
280
     1
102
RTVSPropertyOp0
 70
     1
102
RTVSPropertyOp1
 70
     1
102
RTVSPropertyOp2
 70
     1
102
RTVSPropertyOp3
 70
     1
102
RTVSPropertyOp4
 70
     1
102
RTVSPropertyOp5
 70
     1
102
RTVSPropertyOp6
 70
     1
102
RTVSPropertyOp7
 70
     1
102
RTVSPropertyOp8
 70
     1
102
RTVSPropertyOp9
 70
     1
102
RTVSPropertyOp10
 70
     1
102
RTVSPropertyOp11
 70
     1
102
RTVSPropertyOp12
 70
     1
102
RTVSPropertyOp13
 70
     1
102
RTVSPropertyOp14
 70
     1
102
RTVSPropertyOp15
 70
     1
102
RTVSPropertyOp16
 70
     1
102
RTVSPropertyOp17
 70
     1
102
RTVSPropertyOp18
 70
     1
102
RTVSPropertyOp19
 70
     1
102
RTVSPropertyOp20
 70
     1
102
RTVSPropertyOp21
 70
     1
102
RTVSPropertyOp22
 70
     1
102
RTVSPropertyOp23
 70
     1
102
RTVSPropertyOp24
 70
     1
102
RTVSPropertyOp25
 70
     1
102
RTVSPropertyOp26
 70
     1
102
RTVSPropertyOp27
 70
     1
102
RTVSPropertyOp28
 70
     1
102
RTVSPropertyOp29
 70
     1
102
RTVSPropertyOp30
 70
     1
102
RTVSPropertyOp31
 70
     1
102
RTVSPropertyOp32
 70
     1
102
RTVSPropertyOp33
 70
     1
102
RTVSPropertyOp34
 70
     1
102
RTVSPropertyOp35
 70
     1
102
RTVSPropertyOp36
 70
     1
102
RTVSPropertyOp37
 70
     1
102
RTVSPropertyOp38
 70
     1
102
RTVSPropertyOp39
 70
     1
102
RTVSPropertyOp40
 70
     1
102
RTVSPropertyOp41
 70
     1
102
RTVSPropertyOp42
 70
     1
102
RTVSPropertyOp43
 70
     1
102
RTVSPropertyOp44
 70
     1
102
RTVSPropertyOp45
 70
     1
102
RTVSPropertyOp46
 70
     1
102
RTVSPropertyOp47
 70
     1
102
RTVSPropertyOp48
 70
     1
102
RTVSPropertyOp49
 70
     1
102
RTVSPropertyOp50
 70
     1
102
RTVSPropertyOp51
 70
     0
102
RTVSPropertyOp52
 70
     0
102
RTVSPropertyOp53
 70
     1
102
RTVSPropertyOp54
 70
     1
102
RTVSPropertyOp55
 70
     1
102
RTVSPropertyOp56
 70
     1
102
RTVSPropertyOp57
 70
     1
102
RTVSPost2010Prop28
280
     0
102
RTVSPost2010PropOp28
 70
     1
102
RTVSPost2010Prop29
280
     1
102
RTVSPost2010PropOp29
 70
     1
102
RTVSPost2010Prop30
280
     1
102
RTVSPost2010PropOp30
 70
     1
102
RTVSPost2010Prop31
280
     0
102
RTVSPost2010PropOp31
 70
     1
102
RTVSPost2010Prop32
280
     0
102
RTVSPost2010PropOp32
 70
     1
102
RTVSPost2010Prop33
280
     0
102
RTVSPost2010PropOp33
 70
     1
102
RTVSPost2010Prop34
280
     0
102
RTVSPost2010PropOp34
 70
     1
102
RTVSPost2010Prop35
280
     0
102
RTVSPost2010PropOp35
 70
     1
102
RTVSPost2010Prop36
280
     0
102
RTVSPost2010PropOp36
 70
     1
102
RTVSPost2010Prop37
 90
       50
102
RTVSPost2010PropOp37
 70
     1
102
RTVSPost2010Prop38
140
0.0
102
RTVSPost2010PropOp38
 70
     1
102
RTVSPost2010Prop39
140
1.0
102
RTVSPost2010PropOp39
 70
     1
102
RTVSPost2010Prop40
 90
        0
102
RTVSPost2010PropOp40
 70
     1
102
RTVSPost2010Prop41ColorIndex
 90
       18
102
RTVSPost2010Prop41ColorRGB
 90
        0
102
RTVSPost2010PropOp41
 70
     1
102
RTVSPost2010Prop42
 90
       50
102
RTVSPost2010PropOp42
 70
     1
102
RTVSPost2010Prop43
 90
        3
102
RTVSPost2010PropOp43
 70
     1
102
RTVSPost2010Prop44ColorIndex
 90
        5
102
RTVSPost2010Prop44ColorRGB
 90
      255
102
RTVSPost2010PropOp44
 70
     1
102
RTVSPost2010Prop45
280
     0
102
RTVSPost2010PropOp45
 70
     1
102
RTVSPost2010Prop46
 90
       50
102
RTVSPost2010PropOp46
 70
     1
102
RTVSPost2010Prop47
 90
       50
102
RTVSPost2010PropOp47
 70
     1
102
RTVSPost2010Prop48
 90
       50
102
RTVSPost2010PropOp48
 70
     1
102
RTVSPost2010Prop49
280
     0
102
RTVSPost2010PropOp49
 70
     1
102
RTVSPost2010Prop50
 90
       50
102
RTVSPost2010PropOp50
 70
     1
102
RTVSPost2010Prop51ColorIndex
 90
      256
102
RTVSPost2010Prop51ColorRGB
 90
-16777216
102
RTVSPost2010PropOp51
 70
     0
102
RTVSPost2010Prop52
140
1.0
102
RTVSPost2010PropOp52
 70
     0
102
RTVSPost2010Prop53
 90
        2
102
RTVSPost2010PropOp53
 70
     1
102
RTVSPost2010Prop54
  1
strokes_ogs.tif
102
RTVSPost2010PropOp54
 70
     1
102
RTVSPost2010Prop55
280
     0
102
RTVSPost2010PropOp55
 70
     1
102
RTVSPost2010Prop56
140
1.0
102
RTVSPost2010PropOp56
 70
     1
102
RTVSPost2010Prop57
140
1.0
102
RTVSPost2010PropOp57
 70
     1
  0
XRECORD
  5
309
102
{ACAD_REACTORS
330
308
102
}
330
308
100
AcDbXrecord
280
     1
102
RTVSPropertyOp0
 70
     1
102
RTVSPropertyOp1
 70
     1
102
RTVSPropertyOp2
 70
     1
102
RTVSPropertyOp3
 70
     1
102
RTVSPropertyOp4
 70
     1
102
RTVSPropertyOp5
 70
     1
102
RTVSPropertyOp6
 70
     1
102
RTVSPropertyOp7
 70
     1
102
RTVSPropertyOp8
 70
     1
102
RTVSPropertyOp9
 70
     1
102
RTVSPropertyOp10
 70
     1
102
RTVSPropertyOp11
 70
     1
102
RTVSPropertyOp12
 70
     1
102
RTVSPropertyOp13
 70
     1
102
RTVSPropertyOp14
 70
     1
102
RTVSPropertyOp15
 70
     1
102
RTVSPropertyOp16
 70
     1
102
RTVSPropertyOp17
 70
     1
102
RTVSPropertyOp18
 70
     1
102
RTVSPropertyOp19
 70
     1
102
RTVSPropertyOp20
 70
     1
102
RTVSPropertyOp21
 70
     1
102
RTVSPropertyOp22
 70
     1
102
RTVSPropertyOp23
 70
     1
102
RTVSPropertyOp24
 70
     1
102
RTVSPropertyOp25
 70
     1
102
RTVSPropertyOp26
 70
     1
102
RTVSPropertyOp27
 70
     1
102
RTVSPropertyOp28
 70
     1
102
RTVSPropertyOp29
 70
     1
102
RTVSPropertyOp30
 70
     1
102
RTVSPropertyOp31
 70
     1
102
RTVSPropertyOp32
 70
     1
102
RTVSPropertyOp33
 70
     1
102
RTVSPropertyOp34
 70
     1
102
RTVSPropertyOp35
 70
     1
102
RTVSPropertyOp36
 70
     1
102
RTVSPropertyOp37
 70
     1
102
RTVSPropertyOp38
 70
     1
102
RTVSPropertyOp39
 70
     1
102
RTVSPropertyOp40
 70
     1
102
RTVSPropertyOp41
 70
     1
102
RTVSPropertyOp42
 70
     1
102
RTVSPropertyOp43
 70
     1
102
RTVSPropertyOp44
 70
     1
102
RTVSPropertyOp45
 70
     1
102
RTVSPropertyOp46
 70
     1
102
RTVSPropertyOp47
 70
     1
102
RTVSPropertyOp48
 70
     1
102
RTVSPropertyOp49
 70
     1
102
RTVSPropertyOp50
 70
     1
102
RTVSPropertyOp51
 70
     0
102
RTVSPropertyOp52
 70
     0
102
RTVSPropertyOp53
 70
     1
102
RTVSPropertyOp54
 70
     1
102
RTVSPropertyOp55
 70
     1
102
RTVSPropertyOp56
 70
     1
102
RTVSPropertyOp57
 70
     1
102
RTVSPost2010Prop28
280
     0
102
RTVSPost2010PropOp28
 70
     1
102
RTVSPost2010Prop29
280
     1
102
RTVSPost2010PropOp29
 70
     1
102
RTVSPost2010Prop30
280
     1
102
RTVSPost2010PropOp30
 70
     1
102
RTVSPost2010Prop31
280
     0
102
RTVSPost2010PropOp31
 70
     1
102
RTVSPost2010Prop32
280
     0
102
RTVSPost2010PropOp32
 70
     1
102
RTVSPost2010Prop33
280
     0
102
RTVSPost2010PropOp33
 70
     1
102
RTVSPost2010Prop34
280
     0
102
RTVSPost2010PropOp34
 70
     1
102
RTVSPost2010Prop35
280
     0
102
RTVSPost2010PropOp35
 70
     1
102
RTVSPost2010Prop36
280
     0
102
RTVSPost2010PropOp36
 70
     1
102
RTVSPost2010Prop37
 90
       50
102
RTVSPost2010PropOp37
 70
     1
102
RTVSPost2010Prop38
140
0.0
102
RTVSPost2010PropOp38
 70
     1
102
RTVSPost2010Prop39
140
1.0
102
RTVSPost2010PropOp39
 70
     1
102
RTVSPost2010Prop40
 90
        0
102
RTVSPost2010PropOp40
 70
     1
102
RTVSPost2010Prop41ColorIndex
 90
       18
102
RTVSPost2010Prop41ColorRGB
 90
        0
102
RTVSPost2010PropOp41
 70
     1
102
RTVSPost2010Prop42
 90
       50
102
RTVSPost2010PropOp42
 70
     1
102
RTVSPost2010Prop43
 90
        3
102
RTVSPost2010PropOp43
 70
     1
102
RTVSPost2010Prop44ColorIndex
 90
        5
102
RTVSPost2010Prop44ColorRGB
 90
      255
102
RTVSPost2010PropOp44
 70
     1
102
RTVSPost2010Prop45
280
     0
102
RTVSPost2010PropOp45
 70
     1
102
RTVSPost2010Prop46
 90
       50
102
RTVSPost2010PropOp46
 70
     1
102
RTVSPost2010Prop47
 90
       50
102
RTVSPost2010PropOp47
 70
     1
102
RTVSPost2010Prop48
 90
       50
102
RTVSPost2010PropOp48
 70
     1
102
RTVSPost2010Prop49
280
     0
102
RTVSPost2010PropOp49
 70
     1
102
RTVSPost2010Prop50
 90
       50
102
RTVSPost2010PropOp50
 70
     1
102
RTVSPost2010Prop51ColorIndex
 90
      256
102
RTVSPost2010Prop51ColorRGB
 90
-16777216
102
RTVSPost2010PropOp51
 70
     0
102
RTVSPost2010Prop52
140
1.0
102
RTVSPost2010PropOp52
 70
     0
102
RTVSPost2010Prop53
 90
        2
102
RTVSPost2010PropOp53
 70
     1
102
RTVSPost2010Prop54
  1
strokes_ogs.tif
102
RTVSPost2010PropOp54
 70
     1
102
RTVSPost2010Prop55
280
     0
102
RTVSPost2010PropOp55
 70
     1
102
RTVSPost2010Prop56
140
1.0
102
RTVSPost2010PropOp56
 70
     1
102
RTVSPost2010Prop57
140
1.0
102
RTVSPost2010PropOp57
 70
     1
  0
XRECORD
  5
2F9
102
{ACAD_REACTORS
330
2F8
102
}
330
2F8
100
AcDbXrecord
280
     1
102
RTVSPropertyOp0
 70
     1
102
RTVSPropertyOp1
 70
     1
102
RTVSPropertyOp2
 70
     1
102
RTVSPropertyOp3
 70
     1
102
RTVSPropertyOp4
 70
     1
102
RTVSPropertyOp5
 70
     1
102
RTVSPropertyOp6
 70
     1
102
RTVSPropertyOp7
 70
     1
102
RTVSPropertyOp8
 70
     1
102
RTVSPropertyOp9
 70
     1
102
RTVSPropertyOp10
 70
     1
102
RTVSPropertyOp11
 70
     1
102
RTVSPropertyOp12
 70
     1
102
RTVSPropertyOp13
 70
     1
102
RTVSPropertyOp14
 70
     1
102
RTVSPropertyOp15
 70
     1
102
RTVSPropertyOp16
 70
     1
102
RTVSPropertyOp17
 70
     1
102
RTVSPropertyOp18
 70
     1
102
RTVSPropertyOp19
 70
     1
102
RTVSPropertyOp20
 70
     1
102
RTVSPropertyOp21
 70
     1
102
RTVSPropertyOp22
 70
     1
102
RTVSPropertyOp23
 70
     1
102
RTVSPropertyOp24
 70
     1
102
RTVSPropertyOp25
 70
     1
102
RTVSPropertyOp26
 70
     1
102
RTVSPropertyOp27
 70
     1
102
RTVSPropertyOp28
 70
     1
102
RTVSPropertyOp29
 70
     1
102
RTVSPropertyOp30
 70
     1
102
RTVSPropertyOp31
 70
     1
102
RTVSPropertyOp32
 70
     1
102
RTVSPropertyOp33
 70
     1
102
RTVSPropertyOp34
 70
     1
102
RTVSPropertyOp35
 70
     1
102
RTVSPropertyOp36
 70
     1
102
RTVSPropertyOp37
 70
     1
102
RTVSPropertyOp38
 70
     1
102
RTVSPropertyOp39
 70
     1
102
RTVSPropertyOp40
 70
     1
102
RTVSPropertyOp41
 70
     1
102
RTVSPropertyOp42
 70
     1
102
RTVSPropertyOp43
 70
     1
102
RTVSPropertyOp44
 70
     1
102
RTVSPropertyOp45
 70
     1
102
RTVSPropertyOp46
 70
     1
102
RTVSPropertyOp47
 70
     1
102
RTVSPropertyOp48
 70
     1
102
RTVSPropertyOp49
 70
     1
102
RTVSPropertyOp50
 70
     1
102
RTVSPropertyOp51
 70
     0
102
RTVSPropertyOp52
 70
     0
102
RTVSPropertyOp53
 70
     1
102
RTVSPropertyOp54
 70
     1
102
RTVSPropertyOp55
 70
     1
102
RTVSPropertyOp56
 70
     1
102
RTVSPropertyOp57
 70
     1
102
RTVSPost2010Prop28
280
     0
102
RTVSPost2010PropOp28
 70
     1
102
RTVSPost2010Prop29
280
     1
102
RTVSPost2010PropOp29
 70
     1
102
RTVSPost2010Prop30
280
     1
102
RTVSPost2010PropOp30
 70
     1
102
RTVSPost2010Prop31
280
     0
102
RTVSPost2010PropOp31
 70
     1
102
RTVSPost2010Prop32
280
     0
102
RTVSPost2010PropOp32
 70
     1
102
RTVSPost2010Prop33
280
     0
102
RTVSPost2010PropOp33
 70
     1
102
RTVSPost2010Prop34
280
     0
102
RTVSPost2010PropOp34
 70
     1
102
RTVSPost2010Prop35
280
     0
102
RTVSPost2010PropOp35
 70
     1
102
RTVSPost2010Prop36
280
     0
102
RTVSPost2010PropOp36
 70
     1
102
RTVSPost2010Prop37
 90
       50
102
RTVSPost2010PropOp37
 70
     1
102
RTVSPost2010Prop38
140
0.0
102
RTVSPost2010PropOp38
 70
     1
102
RTVSPost2010Prop39
140
1.0
102
RTVSPost2010PropOp39
 70
     1
102
RTVSPost2010Prop40
 90
        0
102
RTVSPost2010PropOp40
 70
     1
102
RTVSPost2010Prop41ColorIndex
 90
       18
102
RTVSPost2010Prop41ColorRGB
 90
        0
102
RTVSPost2010PropOp41
 70
     1
102
RTVSPost2010Prop42
 90
       50
102
RTVSPost2010PropOp42
 70
     1
102
RTVSPost2010Prop43
 90
        3
102
RTVSPost2010PropOp43
 70
     1
102
RTVSPost2010Prop44ColorIndex
 90
        5
102
RTVSPost2010Prop44ColorRGB
 90
      255
102
RTVSPost2010PropOp44
 70
     1
102
RTVSPost2010Prop45
280
     0
102
RTVSPost2010PropOp45
 70
     1
102
RTVSPost2010Prop46
 90
       50
102
RTVSPost2010PropOp46
 70
     1
102
RTVSPost2010Prop47
 90
       50
102
RTVSPost2010PropOp47
 70
     1
102
RTVSPost2010Prop48
 90
       50
102
RTVSPost2010PropOp48
 70
     1
102
RTVSPost2010Prop49
280
     0
102
RTVSPost2010PropOp49
 70
     1
102
RTVSPost2010Prop50
 90
       50
102
RTVSPost2010PropOp50
 70
     1
102
RTVSPost2010Prop51ColorIndex
 90
      256
102
RTVSPost2010Prop51ColorRGB
 90
-16777216
102
RTVSPost2010PropOp51
 70
     0
102
RTVSPost2010Prop52
140
1.0
102
RTVSPost2010PropOp52
 70
     0
102
RTVSPost2010Prop53
 90
        2
102
RTVSPost2010PropOp53
 70
     1
102
RTVSPost2010Prop54
  1
strokes_ogs.tif
102
RTVSPost2010PropOp54
 70
     1
102
RTVSPost2010Prop55
280
     0
102
RTVSPost2010PropOp55
 70
     1
102
RTVSPost2010Prop56
140
1.0
102
RTVSPost2010PropOp56
 70
     1
102
RTVSPost2010Prop57
140
1.0
102
RTVSPost2010PropOp57
 70
     1
  0
XRECORD
  5
2EB
102
{ACAD_REACTORS
330
2EA
102
}
330
2EA
100
AcDbXrecord
280
     1
102
RTVSPropertyOp0
 70
     1
102
RTVSPropertyOp1
 70
     1
102
RTVSPropertyOp2
 70
     1
102
RTVSPropertyOp3
 70
     1
102
RTVSPropertyOp4
 70
     1
102
RTVSPropertyOp5
 70
     1
102
RTVSPropertyOp6
 70
     1
102
RTVSPropertyOp7
 70
     1
102
RTVSPropertyOp8
 70
     1
102
RTVSPropertyOp9
 70
     1
102
RTVSPropertyOp10
 70
     1
102
RTVSPropertyOp11
 70
     1
102
RTVSPropertyOp12
 70
     1
102
RTVSPropertyOp13
 70
     1
102
RTVSPropertyOp14
 70
     1
102
RTVSPropertyOp15
 70
     1
102
RTVSPropertyOp16
 70
     1
102
RTVSPropertyOp17
 70
     1
102
RTVSPropertyOp18
 70
     1
102
RTVSPropertyOp19
 70
     1
102
RTVSPropertyOp20
 70
     1
102
RTVSPropertyOp21
 70
     1
102
RTVSPropertyOp22
 70
     1
102
RTVSPropertyOp23
 70
     1
102
RTVSPropertyOp24
 70
     1
102
RTVSPropertyOp25
 70
     1
102
RTVSPropertyOp26
 70
     1
102
RTVSPropertyOp27
 70
     1
102
RTVSPropertyOp28
 70
     1
102
RTVSPropertyOp29
 70
     1
102
RTVSPropertyOp30
 70
     1
102
RTVSPropertyOp31
 70
     1
102
RTVSPropertyOp32
 70
     1
102
RTVSPropertyOp33
 70
     1
102
RTVSPropertyOp34
 70
     1
102
RTVSPropertyOp35
 70
     1
102
RTVSPropertyOp36
 70
     1
102
RTVSPropertyOp37
 70
     1
102
RTVSPropertyOp38
 70
     1
102
RTVSPropertyOp39
 70
     1
102
RTVSPropertyOp40
 70
     1
102
RTVSPropertyOp41
 70
     1
102
RTVSPropertyOp42
 70
     1
102
RTVSPropertyOp43
 70
     1
102
RTVSPropertyOp44
 70
     1
102
RTVSPropertyOp45
 70
     1
102
RTVSPropertyOp46
 70
     1
102
RTVSPropertyOp47
 70
     1
102
RTVSPropertyOp48
 70
     1
102
RTVSPropertyOp49
 70
     1
102
RTVSPropertyOp50
 70
     1
102
RTVSPropertyOp51
 70
     0
102
RTVSPropertyOp52
 70
     0
102
RTVSPropertyOp53
 70
     1
102
RTVSPropertyOp54
 70
     1
102
RTVSPropertyOp55
 70
     1
102
RTVSPropertyOp56
 70
     1
102
RTVSPropertyOp57
 70
     1
102
RTVSPost2010Prop28
280
     0
102
RTVSPost2010PropOp28
 70
     1
102
RTVSPost2010Prop29
280
     1
102
RTVSPost2010PropOp29
 70
     1
102
RTVSPost2010Prop30
280
     1
102
RTVSPost2010PropOp30
 70
     1
102
RTVSPost2010Prop31
280
     0
102
RTVSPost2010PropOp31
 70
     1
102
RTVSPost2010Prop32
280
     0
102
RTVSPost2010PropOp32
 70
     1
102
RTVSPost2010Prop33
280
     0
102
RTVSPost2010PropOp33
 70
     1
102
RTVSPost2010Prop34
280
     0
102
RTVSPost2010PropOp34
 70
     1
102
RTVSPost2010Prop35
280
     0
102
RTVSPost2010PropOp35
 70
     1
102
RTVSPost2010Prop36
280
     0
102
RTVSPost2010PropOp36
 70
     1
102
RTVSPost2010Prop37
 90
       50
102
RTVSPost2010PropOp37
 70
     1
102
RTVSPost2010Prop38
140
0.0
102
RTVSPost2010PropOp38
 70
     1
102
RTVSPost2010Prop39
140
1.0
102
RTVSPost2010PropOp39
 70
     1
102
RTVSPost2010Prop40
 90
        0
102
RTVSPost2010PropOp40
 70
     1
102
RTVSPost2010Prop41ColorIndex
 90
       18
102
RTVSPost2010Prop41ColorRGB
 90
        0
102
RTVSPost2010PropOp41
 70
     1
102
RTVSPost2010Prop42
 90
       50
102
RTVSPost2010PropOp42
 70
     1
102
RTVSPost2010Prop43
 90
        3
102
RTVSPost2010PropOp43
 70
     1
102
RTVSPost2010Prop44ColorIndex
 90
        5
102
RTVSPost2010Prop44ColorRGB
 90
      255
102
RTVSPost2010PropOp44
 70
     1
102
RTVSPost2010Prop45
280
     0
102
RTVSPost2010PropOp45
 70
     1
102
RTVSPost2010Prop46
 90
       50
102
RTVSPost2010PropOp46
 70
     1
102
RTVSPost2010Prop47
 90
       50
102
RTVSPost2010PropOp47
 70
     1
102
RTVSPost2010Prop48
 90
       50
102
RTVSPost2010PropOp48
 70
     1
102
RTVSPost2010Prop49
280
     0
102
RTVSPost2010PropOp49
 70
     1
102
RTVSPost2010Prop50
 90
       50
102
RTVSPost2010PropOp50
 70
     1
102
RTVSPost2010Prop51ColorIndex
 90
      256
102
RTVSPost2010Prop51ColorRGB
 90
-16777216
102
RTVSPost2010PropOp51
 70
     0
102
RTVSPost2010Prop52
140
1.0
102
RTVSPost2010PropOp52
 70
     0
102
RTVSPost2010Prop53
 90
        2
102
RTVSPost2010PropOp53
 70
     1
102
RTVSPost2010Prop54
  1
strokes_ogs.tif
102
RTVSPost2010PropOp54
 70
     1
102
RTVSPost2010Prop55
280
     0
102
RTVSPost2010PropOp55
 70
     1
102
RTVSPost2010Prop56
140
1.0
102
RTVSPost2010PropOp56
 70
     1
102
RTVSPost2010Prop57
140
1.0
102
RTVSPost2010PropOp57
 70
     1
  0
XRECORD
  5
30B
102
{ACAD_REACTORS
330
30A
102
}
330
30A
100
AcDbXrecord
280
     1
102
RTVSPropertyOp0
 70
     1
102
RTVSPropertyOp1
 70
     1
102
RTVSPropertyOp2
 70
     1
102
RTVSPropertyOp3
 70
     1
102
RTVSPropertyOp4
 70
     1
102
RTVSPropertyOp5
 70
     1
102
RTVSPropertyOp6
 70
     1
102
RTVSPropertyOp7
 70
     1
102
RTVSPropertyOp8
 70
     1
102
RTVSPropertyOp9
 70
     1
102
RTVSPropertyOp10
 70
     1
102
RTVSPropertyOp11
 70
     1
102
RTVSPropertyOp12
 70
     1
102
RTVSPropertyOp13
 70
     1
102
RTVSPropertyOp14
 70
     1
102
RTVSPropertyOp15
 70
     1
102
RTVSPropertyOp16
 70
     1
102
RTVSPropertyOp17
 70
     1
102
RTVSPropertyOp18
 70
     1
102
RTVSPropertyOp19
 70
     1
102
RTVSPropertyOp20
 70
     1
102
RTVSPropertyOp21
 70
     1
102
RTVSPropertyOp22
 70
     1
102
RTVSPropertyOp23
 70
     1
102
RTVSPropertyOp24
 70
     1
102
RTVSPropertyOp25
 70
     1
102
RTVSPropertyOp26
 70
     1
102
RTVSPropertyOp27
 70
     1
102
RTVSPropertyOp28
 70
     1
102
RTVSPropertyOp29
 70
     1
102
RTVSPropertyOp30
 70
     1
102
RTVSPropertyOp31
 70
     1
102
RTVSPropertyOp32
 70
     1
102
RTVSPropertyOp33
 70
     1
102
RTVSPropertyOp34
 70
     1
102
RTVSPropertyOp35
 70
     1
102
RTVSPropertyOp36
 70
     1
102
RTVSPropertyOp37
 70
     1
102
RTVSPropertyOp38
 70
     1
102
RTVSPropertyOp39
 70
     1
102
RTVSPropertyOp40
 70
     1
102
RTVSPropertyOp41
 70
     1
102
RTVSPropertyOp42
 70
     1
102
RTVSPropertyOp43
 70
     1
102
RTVSPropertyOp44
 70
     1
102
RTVSPropertyOp45
 70
     1
102
RTVSPropertyOp46
 70
     1
102
RTVSPropertyOp47
 70
     1
102
RTVSPropertyOp48
 70
     1
102
RTVSPropertyOp49
 70
     1
102
RTVSPropertyOp50
 70
     1
102
RTVSPropertyOp51
 70
     0
102
RTVSPropertyOp52
 70
     0
102
RTVSPropertyOp53
 70
     1
102
RTVSPropertyOp54
 70
     1
102
RTVSPropertyOp55
 70
     1
102
RTVSPropertyOp56
 70
     1
102
RTVSPropertyOp57
 70
     1
102
RTVSPost2010Prop28
280
     0
102
RTVSPost2010PropOp28
 70
     1
102
RTVSPost2010Prop29
280
     1
102
RTVSPost2010PropOp29
 70
     1
102
RTVSPost2010Prop30
280
     1
102
RTVSPost2010PropOp30
 70
     1
102
RTVSPost2010Prop31
280
     0
102
RTVSPost2010PropOp31
 70
     1
102
RTVSPost2010Prop32
280
     0
102
RTVSPost2010PropOp32
 70
     1
102
RTVSPost2010Prop33
280
     0
102
RTVSPost2010PropOp33
 70
     1
102
RTVSPost2010Prop34
280
     0
102
RTVSPost2010PropOp34
 70
     1
102
RTVSPost2010Prop35
280
     0
102
RTVSPost2010PropOp35
 70
     1
102
RTVSPost2010Prop36
280
     0
102
RTVSPost2010PropOp36
 70
     1
102
RTVSPost2010Prop37
 90
       50
102
RTVSPost2010PropOp37
 70
     1
102
RTVSPost2010Prop38
140
0.0
102
RTVSPost2010PropOp38
 70
     1
102
RTVSPost2010Prop39
140
1.0
102
RTVSPost2010PropOp39
 70
     1
102
RTVSPost2010Prop40
 90
        0
102
RTVSPost2010PropOp40
 70
     1
102
RTVSPost2010Prop41ColorIndex
 90
       18
102
RTVSPost2010Prop41ColorRGB
 90
        0
102
RTVSPost2010PropOp41
 70
     1
102
RTVSPost2010Prop42
 90
       50
102
RTVSPost2010PropOp42
 70
     1
102
RTVSPost2010Prop43
 90
        3
102
RTVSPost2010PropOp43
 70
     1
102
RTVSPost2010Prop44ColorIndex
 90
        5
102
RTVSPost2010Prop44ColorRGB
 90
      255
102
RTVSPost2010PropOp44
 70
     1
102
RTVSPost2010Prop45
280
     0
102
RTVSPost2010PropOp45
 70
     1
102
RTVSPost2010Prop46
 90
       50
102
RTVSPost2010PropOp46
 70
     1
102
RTVSPost2010Prop47
 90
       50
102
RTVSPost2010PropOp47
 70
     1
102
RTVSPost2010Prop48
 90
       50
102
RTVSPost2010PropOp48
 70
     1
102
RTVSPost2010Prop49
280
     0
102
RTVSPost2010PropOp49
 70
     1
102
RTVSPost2010Prop50
 90
       50
102
RTVSPost2010PropOp50
 70
     1
102
RTVSPost2010Prop51ColorIndex
 90
      256
102
RTVSPost2010Prop51ColorRGB
 90
-16777216
102
RTVSPost2010PropOp51
 70
     0
102
RTVSPost2010Prop52
140
1.0
102
RTVSPost2010PropOp52
 70
     0
102
RTVSPost2010Prop53
 90
        2
102
RTVSPost2010PropOp53
 70
     1
102
RTVSPost2010Prop54
  1
strokes_ogs.tif
102
RTVSPost2010PropOp54
 70
     1
102
RTVSPost2010Prop55
280
     0
102
RTVSPost2010PropOp55
 70
     1
102
RTVSPost2010Prop56
140
1.0
102
RTVSPost2010PropOp56
 70
     1
102
RTVSPost2010Prop57
140
1.0
102
RTVSPost2010PropOp57
 70
     1
  0
ENDSEC
  0
EOF
