  0
SECTION
  2
HEADER
  9
$ACADVER
  1
AC1015
  9
$ACADMAINTVER
 70
     6
  9
$DWGCODEPAGE
  3
ANSI_1252
  9
$INSBASE
 10
0.0
 20
0.0
 30
0.0
  9
$EXTMIN
 10
-160.013794
 20
0.0
 30
0.0
  9
$EXTMAX
 10
365.292755
 20
1028.307739
 30
0.0
  9
$LIMMIN
 10
-160.013794
 20
0.0
  9
$LIMMAX
 10
365.292755
 20
1028.307739
  9
$ORTHOMODE
 70
     0
  9
$REGENMODE
 70
     1
  9
$FILLMODE
 70
     1
  9
$QTEXTMODE
 70
     0
  9
$MIRRTEXT
 70
     1
  9
$LTSCALE
 40
1.0
  9
$ATTMODE
 70
     1
  9
$TEXTSIZE
 40
2.5
  9
$TRACEWID
 40
1.0
  9
$TEXTSTYLE
  7
Standard
  9
$CLAYER
  8
0
  9
$CELTYPE
  6
ByLayer
  9
$CECOLOR
 62
   256
  9
$CELTSCALE
 40
1.0
  9
$DISPSILH
 70
     0
  9
$DIMSCALE
 40
1.0
  9
$DIMASZ
 40
2.5
  9
$DIMEXO
 40
0.625
  9
$DIMDLI
 40
3.75
  9
$DIMRND
 40
0.0
  9
$DIMDLE
 40
0.0
  9
$DIMEXE
 40
1.25
  9
$DIMTP
 40
0.0
  9
$DIMTM
 40
0.0
  9
$DIMTXT
 40
2.5
  9
$DIMCEN
 40
2.5
  9
$DIMTSZ
 40
0.0
  9
$DIMTOL
 70
     0
  9
$DIMLIM
 70
     0
  9
$DIMTIH
 70
     0
  9
$DIMTOH
 70
     0
  9
$DIMSE1
 70
     0
  9
$DIMSE2
 70
     0
  9
$DIMTAD
 70
     1
  9
$DIMZIN
 70
     8
  9
$DIMBLK
  1

  9
$DIMASO
 70
     1
  9
$DIMSHO
 70
     1
  9
$DIMPOST
  1

  9
$DIMAPOST
  1

  9
$DIMALT
 70
     0
  9
$DIMALTD
 70
     3
  9
$DIMALTF
 40
0.03937
  9
$DIMLFAC
 40
1.0
  9
$DIMTOFL
 70
     1
  9
$DIMTVP
 40
0.0
  9
$DIMTIX
 70
     0
  9
$DIMSOXD
 70
     0
  9
$DIMSAH
 70
     0
  9
$DIMBLK1
  1

  9
$DIMBLK2
  1

  9
$DIMSTYLE
  2
ISO-25
  9
$DIMCLRD
 70
     0
  9
$DIMCLRE
 70
     0
  9
$DIMCLRT
 70
     0
  9
$DIMTFAC
 40
1.0
  9
$DIMGAP
 40
0.625
  9
$DIMJUST
 70
     0
  9
$DIMSD1
 70
     0
  9
$DIMSD2
 70
     0
  9
$DIMTOLJ
 70
     0
  9
$DIMTZIN
 70
     8
  9
$DIMALTZ
 70
     0
  9
$DIMALTTZ
 70
     0
  9
$DIMUPT
 70
     0
  9
$DIMDEC
 70
     2
  9
$DIMTDEC
 70
     2
  9
$DIMALTU
 70
     2
  9
$DIMALTTD
 70
     3
  9
$DIMTXSTY
  7
Standard
  9
$DIMAUNIT
 70
     0
  9
$DIMADEC
 70
     0
  9
$DIMALTRND
 40
0.0
  9
$DIMAZIN
 70
     0
  9
$DIMDSEP
 70
    44
  9
$DIMATFIT
 70
     3
  9
$DIMFRAC
 70
     0
  9
$DIMLDRBLK
  1

  9
$DIMLUNIT
 70
     2
  9
$DIMLWD
 70
    -2
  9
$DIMLWE
 70
    -2
  9
$DIMTMOVE
 70
     0
  9
$LUNITS
 70
     2
  9
$LUPREC
 70
     4
  9
$SKETCHINC
 40
1.0
  9
$FILLETRAD
 40
10.0
  9
$AUNITS
 70
     0
  9
$AUPREC
 70
     0
  9
$MENU
  1
.
  9
$ELEVATION
 40
0.0
  9
$PELEVATION
 40
0.0
  9
$THICKNESS
 40
0.0
  9
$LIMCHECK
 70
     0
  9
$CHAMFERA
 40
0.0
  9
$CHAMFERB
 40
0.0
  9
$CHAMFERC
 40
0.0
  9
$CHAMFERD
 40
0.0
  9
$SKPOLY
 70
     0
  9
$TDCREATE
 40
2459710.574833634
  9
$TDUCREATE
 40
2459710.491500301
  9
$TDUPDATE
 40
2459710.574834352
  9
$TDUUPDATE
 40
2459710.491501018
  9
$TDINDWG
 40
0.0000000116
  9
$TDUSRTIMER
 40
0.0000000116
  9
$USRTIMER
 70
     1
  9
$ANGBASE
 50
0.0
  9
$ANGDIR
 70
     0
  9
$PDMODE
 70
     0
  9
$PDSIZE
 40
0.0
  9
$PLINEWID
 40
0.0
  9
$SPLFRAME
 70
     0
  9
$SPLINETYPE
 70
     6
  9
$SPLINESEGS
 70
     8
  9
$HANDSEED
  5
330
  9
$SURFTAB1
 70
     6
  9
$SURFTAB2
 70
     6
  9
$SURFTYPE
 70
     6
  9
$SURFU
 70
     6
  9
$SURFV
 70
     6
  9
$UCSBASE
  2

  9
$UCSNAME
  2

  9
$UCSORG
 10
0.0
 20
0.0
 30
0.0
  9
$UCSXDIR
 10
1.0
 20
0.0
 30
0.0
  9
$UCSYDIR
 10
0.0
 20
1.0
 30
0.0
  9
$UCSORTHOREF
  2

  9
$UCSORTHOVIEW
 70
     0
  9
$UCSORGTOP
 10
0.0
 20
0.0
 30
0.0
  9
$UCSORGBOTTOM
 10
0.0
 20
0.0
 30
0.0
  9
$UCSORGLEFT
 10
0.0
 20
0.0
 30
0.0
  9
$UCSORGRIGHT
 10
0.0
 20
0.0
 30
0.0
  9
$UCSORGFRONT
 10
0.0
 20
0.0
 30
0.0
  9
$UCSORGBACK
 10
0.0
 20
0.0
 30
0.0
  9
$PUCSBASE
  2

  9
$PUCSNAME
  2

  9
$PUCSORG
 10
0.0
 20
0.0
 30
0.0
  9
$PUCSXDIR
 10
1.0
 20
0.0
 30
0.0
  9
$PUCSYDIR
 10
0.0
 20
1.0
 30
0.0
  9
$PUCSORTHOREF
  2

  9
$PUCSORTHOVIEW
 70
     0
  9
$PUCSORGTOP
 10
0.0
 20
0.0
 30
0.0
  9
$PUCSORGBOTTOM
 10
0.0
 20
0.0
 30
0.0
  9
$PUCSORGLEFT
 10
0.0
 20
0.0
 30
0.0
  9
$PUCSORGRIGHT
 10
0.0
 20
0.0
 30
0.0
  9
$PUCSORGFRONT
 10
0.0
 20
0.0
 30
0.0
  9
$PUCSORGBACK
 10
0.0
 20
0.0
 30
0.0
  9
$USERI1
 70
     0
  9
$USERI2
 70
     0
  9
$USERI3
 70
     0
  9
$USERI4
 70
     0
  9
$USERI5
 70
     0
  9
$USERR1
 40
0.0
  9
$USERR2
 40
0.0
  9
$USERR3
 40
0.0
  9
$USERR4
 40
0.0
  9
$USERR5
 40
0.0
  9
$WORLDVIEW
 70
     1
  9
$SHADEDGE
 70
     3
  9
$SHADEDIF
 70
    70
  9
$TILEMODE
 70
     1
  9
$MAXACTVP
 70
    64
  9
$PINSBASE
 10
0.0
 20
0.0
 30
0.0
  9
$PLIMCHECK
 70
     0
  9
$PEXTMIN
 10
1.000000E+20
 20
1.000000E+20
 30
1.000000E+20
  9
$PEXTMAX
 10
-1.000000E+20
 20
-1.000000E+20
 30
-1.000000E+20
  9
$PLIMMIN
 10
0.0
 20
0.0
  9
$PLIMMAX
 10
420.0
 20
297.0
  9
$UNITMODE
 70
     0
  9
$VISRETAIN
 70
     1
  9
$PLINEGEN
 70
     0
  9
$PSLTSCALE
 70
     1
  9
$TREEDEPTH
 70
  3020
  9
$CMLSTYLE
  2
Standard
  9
$CMLJUST
 70
     0
  9
$CMLSCALE
 40
20.0
  9
$PROXYGRAPHICS
 70
     1
  9
$MEASUREMENT
 70
     1
  9
$CELWEIGHT
370
    -1
  9
$ENDCAPS
280
     0
  9
$JOINSTYLE
280
     0
  9
$LWDISPLAY
290
     0
  9
$INSUNITS
 70
     4
  9
$HYPERLINKBASE
  1

  9
$STYLESHEET
  1

  9
$XEDIT
290
     1
  9
$CEPSNTYPE
380
     0
  9
$PSTYLEMODE
290
     1
  9
$FINGERPRINTGUID
  2
{38ea8d2d-6e15-4505-a9ae-61d654712a54}
  9
$VERSIONGUID
  2
{FAEB1C32-E019-11D5-929B-00C0DF256EC4}
  9
$EXTNAMES
290
     1
  9
$PSVPSCALE
 40
0.0
  9
$OLESTARTUP
290
     0
  0
ENDSEC
  0
SECTION
  2
CLASSES
  0
CLASS
  1
ACDBDICTIONARYWDFLT
  2
AcDbDictionaryWithDefault
  3
ObjectDBX Classes
 90
        0
280
     0
281
     0
  0
CLASS
  1
VISUALSTYLE
  2
AcDbVisualStyle
  3
ObjectDBX Classes
 90
     4095
280
     0
281
     0
  0
CLASS
  1
MATERIAL
  2
AcDbMaterial
  3
ObjectDBX Classes
 90
     1153
280
     0
281
     0
  0
CLASS
  1
SCALE
  2
AcDbScale
  3
ObjectDBX Classes
 90
     1153
280
     0
281
     0
  0
CLASS
  1
TABLESTYLE
  2
AcDbTableStyle
  3
ObjectDBX Classes
 90
     4095
280
     0
281
     0
  0
CLASS
  1
MLEADERSTYLE
  2
AcDbMLeaderStyle
  3
ACDB_MLEADERSTYLE_CLASS
 90
     4095
280
     0
281
     0
  0
CLASS
  1
SUN
  2
AcDbSun
  3
SCENEOE
 90
     1153
280
     0
281
     0
  0
CLASS
  1
DICTIONARYVAR
  2
AcDbDictionaryVar
  3
ObjectDBX Classes
 90
        0
280
     0
281
     0
  0
CLASS
  1
ACDBPLACEHOLDER
  2
AcDbPlaceHolder
  3
ObjectDBX Classes
 90
        0
280
     0
281
     0
  0
CLASS
  1
LAYOUT
  2
AcDbLayout
  3
ObjectDBX Classes
 90
        0
280
     0
281
     0
  0
ENDSEC
  0
SECTION
  2
TABLES
  0
TABLE
  2
VPORT
  5
8
102
{ACAD_XDICTIONARY
360
2F3
102
}
330
0
100
AcDbSymbolTable
 70
     1
  0
VPORT
  5
29
330
8
100
AcDbSymbolTableRecord
100
AcDbViewportTableRecord
  2
*Active
 70
     0
 10
0.0
 20
0.0
 11
1.0
 21
1.0
 12
344.186916
 22
148.5
 13
0.0
 23
0.0
 14
10.0
 24
10.0
 15
10.0
 25
10.0
 16
0.0
 26
0.0
 36
1.0
 17
0.0
 27
0.0
 37
0.0
 40
297.0
 41
1.972973
 42
50.0
 43
0.0
 44
0.0
 50
0.0
 51
0.0
 71
     0
 72
   100
 73
     1
 74
     3
 75
     0
 76
     0
 77
     0
 78
     0
281
     0
 65
     1
110
0.0
120
0.0
130
0.0
111
1.0
121
0.0
131
0.0
112
0.0
122
1.0
132
0.0
 79
     0
146
0.0
  0
ENDTAB
  0
TABLE
  2
LTYPE
  5
5
330
0
100
AcDbSymbolTable
 70
     1
  0
LTYPE
  5
14
330
5
100
AcDbSymbolTableRecord
100
AcDbLinetypeTableRecord
  2
ByBlock
 70
     0
  3

 72
    65
 73
     0
 40
0.0
  0
LTYPE
  5
15
330
5
100
AcDbSymbolTableRecord
100
AcDbLinetypeTableRecord
  2
ByLayer
 70
     0
  3

 72
    65
 73
     0
 40
0.0
  0
LTYPE
  5
16
330
5
100
AcDbSymbolTableRecord
100
AcDbLinetypeTableRecord
  2
Continuous
 70
     0
  3
Solid line
 72
    65
 73
     0
 40
0.0
  0
ENDTAB
  0
TABLE
  2
LAYER
  5
2
330
0
100
AcDbSymbolTable
 70
     1
  0
LAYER
  5
10
330
2
100
AcDbSymbolTableRecord
100
AcDbLayerTableRecord
  2
0
 70
     0
 62
   106
  6
Continuous
370
     0
390
F
  0
ENDTAB
  0
TABLE
  2
STYLE
  5
3
330
0
100
AcDbSymbolTable
 70
     4
  0
STYLE
  5
11
330
3
100
AcDbSymbolTableRecord
100
AcDbTextStyleTableRecord
  2
Standard
 70
     0
 40
0.0
 41
1.0
 50
0.0
 71
     0
 42
2.5
  3
txt
  4

  0
STYLE
  5
6E
330
3
100
AcDbSymbolTableRecord
100
AcDbTextStyleTableRecord
  2
Default
 70
     0
 40
0.0
 41
1.0
 50
0.0
 71
     0
 42
2.5
  3

  4

1001
ACAD
1000
txt
1071
        0
  0
STYLE
  5
6F
330
3
100
AcDbSymbolTableRecord
100
AcDbTextStyleTableRecord
  2
ISO
 70
     0
 40
0.0
 41
1.0
 50
0.0
 71
     0
 42
2.5
  3

  4

1001
ACAD
1000
txt
1071
        0
  0
STYLE
  5
70
330
3
100
AcDbSymbolTableRecord
100
AcDbTextStyleTableRecord
  2
GIANLU
 70
     0
 40
0.0
 41
1.0
 50
0.0
 71
     0
 42
2.5
  3

  4

1001
ACAD
1000
Arial
1071
 33554432
  0
ENDTAB
  0
TABLE
  2
VIEW
  5
6
330
0
100
AcDbSymbolTable
 70
     0
  0
ENDTAB
  0
TABLE
  2
UCS
  5
7
330
0
100
AcDbSymbolTable
 70
     0
  0
ENDTAB
  0
TABLE
  2
APPID
  5
9
330
0
100
AcDbSymbolTable
 70
     2
  0
APPID
  5
12
330
9
100
AcDbSymbolTableRecord
100
AcDbRegAppTableRecord
  2
ACAD
 70
     0
  0
APPID
  5
32D
330
9
100
AcDbSymbolTableRecord
100
AcDbRegAppTableRecord
  2
ACAD_MLEADERVER
 70
     0
  0
ENDTAB
  0
TABLE
  2
DIMSTYLE
  5
A
330
0
100
AcDbSymbolTable
 70
     4
100
AcDbDimStyleTable
  0
DIMSTYLE
105
27
330
A
100
AcDbSymbolTableRecord
100
AcDbDimStyleTableRecord
  2
ISO-25
 70
     0
 41
2.5
 42
0.625
 43
3.75
 44
1.25
 73
     0
 74
     0
 77
     1
 78
     8
140
2.5
141
2.5
143
0.03937
147
0.625
171
     3
172
     1
178
     0
271
     2
272
     2
274
     3
278
    44
283
     0
284
     8
340
11
  0
DIMSTYLE
105
71
330
A
100
AcDbSymbolTableRecord
100
AcDbDimStyleTableRecord
  2
Default
 70
     0
  3
<>
 41
4.375
 42
1.05
 44
2.1
 73
     0
 74
     0
 77
     1
 78
     8
140
3.5
146
0.4
147
1.75
172
     1
271
     2
178
     3
271
     2
272
     3
284
     8
340
6E
341
72
342
72
  0
DIMSTYLE
105
79
330
A
100
AcDbSymbolTableRecord
100
AcDbDimStyleTableRecord
  2
ISO
 70
     0
  3
<>
 41
4.375
 42
1.05
 44
2.1
 73
     0
 74
     0
 77
     1
 78
     8
140
3.5
146
0.4
147
1.75
172
     1
271
     2
178
     3
271
     2
272
     3
284
     8
340
6F
341
72
342
72
  0
DIMSTYLE
105
7A
330
A
100
AcDbSymbolTableRecord
100
AcDbDimStyleTableRecord
  2
zucchetti_unico
 70
     0
  3
<>
 41
3.5
 42
1.05
 44
2.1
 73
     0
 74
     0
 77
     1
 78
     8
140
3.5
146
0.6
147
1.75
172
     1
176
     3
177
     3
271
     2
178
     3
271
     2
272
     2
284
     8
340
6E
  0
ENDTAB
  0
TABLE
  2
BLOCK_RECORD
  5
1
330
0
100
AcDbSymbolTable
 70
     6
  0
BLOCK_RECORD
  5
1F
330
1
100
AcDbSymbolTableRecord
100
AcDbBlockTableRecord
  2
*Model_Space
340
22
  0
BLOCK_RECORD
  5
1B
330
1
100
AcDbSymbolTableRecord
100
AcDbBlockTableRecord
  2
*Paper_Space
340
1E
  0
BLOCK_RECORD
  5
23
330
1
100
AcDbSymbolTableRecord
100
AcDbBlockTableRecord
  2
*Paper_Space0
340
26
  0
BLOCK_RECORD
  5
72
330
1
100
AcDbSymbolTableRecord
100
AcDbBlockTableRecord
  2
_Closed
340
0
  0
BLOCK_RECORD
  5
7B
330
1
100
AcDbSymbolTableRecord
100
AcDbBlockTableRecord
  2
a
340
0
102
{BLKREFS
331
FA
102
}
  0
BLOCK_RECORD
  5
FB
330
1
100
AcDbSymbolTableRecord
100
AcDbBlockTableRecord
  2
b
340
0
102
{BLKREFS
331
172
102
}
  0
BLOCK_RECORD
  5
173
330
1
100
AcDbSymbolTableRecord
100
AcDbBlockTableRecord
  2
c
340
0
102
{BLKREFS
331
232
102
}
  0
BLOCK_RECORD
  5
233
330
1
100
AcDbSymbolTableRecord
100
AcDbBlockTableRecord
  2
e
340
0
102
{BLKREFS
331
2E7
102
}
  0
ENDTAB
  0
ENDSEC
  0
SECTION
  2
BLOCKS
  0
BLOCK
  5
20
330
1F
100
AcDbEntity
  8
0
100
AcDbBlockBegin
  2
*Model_Space
 70
     0
 10
0.0
 20
0.0
 30
0.0
  3
*Model_Space
  1

  0
ENDBLK
  5
21
330
1F
100
AcDbEntity
  8
0
100
AcDbBlockEnd
  0
BLOCK
  5
1C
330
1B
100
AcDbEntity
 67
     1
  8
0
100
AcDbBlockBegin
  2
*Paper_Space
 70
     0
 10
0.0
 20
0.0
 30
0.0
  3
*Paper_Space
  1

  0
ENDBLK
  5
1D
330
1B
100
AcDbEntity
 67
     1
  8
0
100
AcDbBlockEnd
  0
BLOCK
  5
24
330
23
100
AcDbEntity
  8
0
100
AcDbBlockBegin
  2
*Paper_Space0
 70
     0
 10
0.0
 20
0.0
 30
0.0
  3
*Paper_Space0
  1

  0
ENDBLK
  5
25
330
23
100
AcDbEntity
  8
0
100
AcDbBlockEnd
  0
BLOCK
  5
73
330
72
100
AcDbEntity
  8
0
100
AcDbBlockBegin
  2
_Closed
 70
     0
 10
0.0
 20
0.0
 30
0.0
  3
_Closed
  1

  0
LINE
  5
75
330
72
100
AcDbEntity
  8
0
  6
ByBlock
 62
     0
370
    -2
100
AcDbLine
 10
-1.0
 20
0.166667
 30
0.0
 11
0.0
 21
0.0
 31
0.0
  0
LINE
  5
76
330
72
100
AcDbEntity
  8
0
  6
ByBlock
 62
     0
370
    -2
100
AcDbLine
 10
0.0
 20
0.0
 30
0.0
 11
-1.0
 21
-0.166667
 31
0.0
  0
LINE
  5
77
330
72
100
AcDbEntity
  8
0
  6
ByBlock
 62
     0
370
    -2
100
AcDbLine
 10
-1.0
 20
0.166667
 30
0.0
 11
-1.0
 21
-0.166667
 31
0.0
  0
LINE
  5
78
330
72
100
AcDbEntity
  8
0
  6
ByBlock
 62
     0
370
    -2
100
AcDbLine
 10
0.0
 20
0.0
 30
0.0
 11
-1.0
 21
0.0
 31
0.0
  0
ENDBLK
  5
74
330
72
100
AcDbEntity
  8
0
100
AcDbBlockEnd
  0
BLOCK
  5
F8
330
7B
100
AcDbEntity
  8
0
100
AcDbBlockBegin
  2
a
 70
     0
 10
15.792099
 20
98.419441
 30
0.0
  3
a
  1

  0
ARC
  5
7C
330
7B
100
AcDbEntity
  8
0
  6
Continuous
 62
     0
370
    30
100
AcDbCircle
 10
109.373426
 20
762.490477
 30
0.0
 40
29.99993019786323
100
AcDbArc
 50
96.699455
 51
270.000368
  0
ARC
  5
7D
330
7B
100
AcDbEntity
  8
0
  6
Continuous
 62
     0
370
    30
100
AcDbCircle
 10
109.373812
 20
762.490477
 30
0.0
 40
29.99993019955124
100
AcDbArc
 50
269.999632
 51
83.300605
  0
ARC
  5
7E
330
7B
100
AcDbEntity
  8
0
  6
Continuous
 62
     0
370
     0
100
AcDbCircle
 10
109.373395
 20
762.490652
 30
0.0
 40
11.35010193746795
100
AcDbArc
 50
270.00113
 51
71.055358
  0
ARC
  5
7F
330
7B
100
AcDbEntity
  8
0
  6
Continuous
 62
     0
370
     0
100
AcDbCircle
 10
109.373843
 20
762.490652
 30
0.0
 40
11.35010193501505
100
AcDbArc
 50
108.944797
 51
269.99887
  0
LWPOLYLINE
  5
80
330
7B
100
AcDbEntity
  8
0
  6
Continuous
 62
     0
370
     0
100
AcDbPolyline
 90
        7
 70
     0
 43
0.0
 10
107.010704
 20
774.414246
 10
106.67701
 20
774.290344
 10
106.396996
 20
774.181213
 10
106.173462
 20
774.085815
 10
106.009323
 20
774.010864
 10
105.908218
 20
773.963074
 10
105.874001
 20
773.947693
  0
LWPOLYLINE
  5
81
330
7B
100
AcDbEntity
  8
0
  6
Continuous
 62
     0
370
     0
100
AcDbPolyline
 90
        7
 70
     0
 43
0.0
 10
105.877365
 20
772.920288
 10
106.178123
 20
773.058594
 10
106.449028
 20
773.250854
 10
106.678192
 20
773.490784
 10
106.854912
 20
773.771912
 10
106.968918
 20
774.085327
 10
107.010704
 20
774.414246
  0
LINE
  5
82
330
7B
100
AcDbEntity
  8
0
  6
Continuous
 62
     0
370
     0
100
AcDbLine
 10
107.010735
 20
822.307719
 30
0.0
 11
107.010722
 21
774.41426
 31
0.0
  0
LINE
  5
83
330
7B
100
AcDbEntity
  8
0
  6
Continuous
 62
     0
370
     0
100
AcDbLine
 10
107.010722
 20
774.41426
 30
0.0
 11
107.243728
 21
774.414237
 31
0.0
  0
LINE
  5
84
330
7B
100
AcDbEntity
  8
0
  6
Continuous
 62
     0
370
     0
100
AcDbLine
 10
107.243728
 20
774.414237
 30
0.0
 11
107.243741
 21
822.307719
 31
0.0
  0
LINE
  5
85
330
7B
100
AcDbEntity
  8
0
  6
Continuous
 62
     0
370
     0
100
AcDbLine
 10
107.243741
 20
822.307719
 30
0.0
 11
107.010735
 21
822.307719
 31
0.0
  0
LWPOLYLINE
  5
86
330
7B
100
AcDbEntity
  8
0
  6
Continuous
 62
     0
370
     0
100
AcDbPolyline
 90
        7
 70
     0
 43
0.0
 10
111.736504
 20
774.414246
 10
111.77829
 20
774.085327
 10
111.892296
 20
773.771912
 10
112.069016
 20
773.490784
 10
112.29818
 20
773.250854
 10
112.569092
 20
773.058655
 10
112.869843
 20
772.920288
  0
LWPOLYLINE
  5
87
330
7B
100
AcDbEntity
  8
0
  6
Continuous
 62
     0
370
     0
100
AcDbPolyline
 90
        7
 70
     0
 43
0.0
 10
112.873207
 20
773.947754
 10
112.838989
 20
773.963074
 10
112.737885
 20
774.010864
 10
112.573746
 20
774.085815
 10
112.350212
 20
774.181213
 10
112.070198
 20
774.290344
 10
111.736504
 20
774.414246
  0
LINE
  5
88
330
7B
100
AcDbEntity
  8
0
  6
Continuous
 62
     0
370
     0
100
AcDbLine
 10
111.503466
 20
822.307719
 30
0.0
 11
111.503479
 21
774.414247
 31
0.0
  0
LINE
  5
89
330
7B
100
AcDbEntity
  8
0
  6
Continuous
 62
     0
370
     0
100
AcDbLine
 10
111.503479
 20
774.414247
 30
0.0
 11
111.736485
 21
774.414269
 31
0.0
  0
LINE
  5
8A
330
7B
100
AcDbEntity
  8
0
  6
Continuous
 62
     0
370
     0
100
AcDbLine
 10
111.736485
 20
774.414269
 30
0.0
 11
111.736472
 21
822.307719
 31
0.0
  0
LINE
  5
8B
330
7B
100
AcDbEntity
  8
0
  6
Continuous
 62
     0
370
     0
100
AcDbLine
 10
111.736472
 20
822.307719
 30
0.0
 11
111.503466
 21
822.307719
 31
0.0
  0
LINE
  5
8C
330
7B
100
AcDbEntity
  8
0
  6
Continuous
 62
     0
370
     0
100
AcDbLine
 10
107.010735
 20
822.307719
 30
0.0
 11
105.873604
 21
822.307719
 31
0.0
  0
LINE
  5
8D
330
7B
100
AcDbEntity
  8
0
  6
Continuous
 62
     0
370
     0
100
AcDbLine
 10
112.873604
 20
822.307719
 30
0.0
 11
111.736472
 21
822.307719
 31
0.0
  0
LINE
  5
8E
330
7B
100
AcDbEntity
  8
0
  6
Continuous
 62
     0
370
    30
100
AcDbLine
 10
107.243741
 20
828.307719
 30
0.0
 11
111.503466
 21
828.307719
 31
0.0
  0
LINE
  5
8F
330
7B
100
AcDbEntity
  8
0
  6
Continuous
 62
     0
370
     0
100
AcDbLine
 10
107.010735
 20
822.307719
 30
0.0
 11
107.010735
 21
828.148318
 31
0.0
  0
LINE
  5
90
330
7B
100
AcDbEntity
  8
0
  6
Continuous
 62
     0
370
     0
100
AcDbLine
 10
111.503466
 20
822.307719
 30
0.0
 11
111.503466
 21
828.307719
 31
0.0
  0
LINE
  5
91
330
7B
100
AcDbEntity
  8
0
  6
Continuous
 62
     0
370
     0
100
AcDbLine
 10
107.243741
 20
828.307719
 30
0.0
 11
107.243741
 21
822.307719
 31
0.0
  0
LINE
  5
92
330
7B
100
AcDbEntity
  8
0
  6
Continuous
 62
     0
370
     0
100
AcDbLine
 10
107.243741
 20
822.307719
 30
0.0
 11
111.503466
 21
822.307719
 31
0.0
  0
LINE
  5
93
330
7B
100
AcDbEntity
  8
0
  6
Continuous
 62
     0
370
     0
100
AcDbLine
 10
111.736472
 20
828.148318
 30
0.0
 11
111.736472
 21
822.307719
 31
0.0
  0
ARC
  5
94
330
7B
100
AcDbEntity
  8
0
  6
Continuous
 62
     0
370
    30
100
AcDbCircle
 10
111.503466
 20
828.057719
 30
0.0
 40
0.2500000004193089
100
AcDbArc
 50
21.247505
 51
90.0
  0
ARC
  5
95
330
7B
100
AcDbEntity
  8
0
  6
Continuous
 62
     0
370
    30
100
AcDbCircle
 10
107.243741
 20
828.057719
 30
0.0
 40
0.2500000004161824
100
AcDbArc
 50
90.0
 51
158.752495
  0
LWPOLYLINE
  5
96
330
7B
100
AcDbEntity
  8
0
  6
Continuous
 62
     0
370
     0
100
AcDbPolyline
 90
        6
 70
     0
 43
0.0
 10
111.503479
 20
774.414246
 10
111.526588
 20
774.137878
 10
111.59417
 20
773.868591
 10
111.702538
 20
773.612976
 10
111.848969
 20
773.377014
 10
112.028664
 20
773.165344
  0
LWPOLYLINE
  5
97
330
7B
100
AcDbEntity
  8
0
  6
Continuous
 62
     0
370
     0
100
AcDbPolyline
 90
        6
 70
     0
 43
0.0
 10
106.718552
 20
773.165344
 10
106.898247
 20
773.377014
 10
107.04467
 20
773.612915
 10
107.153038
 20
773.868591
 10
107.220619
 20
774.137878
 10
107.243729
 20
774.414246
  0
LWPOLYLINE
  5
98
330
7B
100
AcDbEntity
  8
0
  6
Continuous
 62
     0
370
    30
100
AcDbPolyline
 90
        7
 70
     0
 43
0.0
 10
111.736473
 20
828.148315
 10
112.071388
 20
827.209045
 10
112.351799
 20
826.252014
 10
112.575302
 20
825.280151
 10
112.739037
 20
824.296448
 10
112.839233
 20
823.304321
 10
112.873604
 20
822.307739
  0
LWPOLYLINE
  5
99
330
7B
100
AcDbEntity
  8
0
  6
Continuous
 62
     0
370
    30
100
AcDbPolyline
 90
        7
 70
     0
 43
0.0
 10
107.010735
 20
828.148315
 10
106.675819
 20
827.209045
 10
106.395409
 20
826.252014
 10
106.171906
 20
825.280151
 10
106.008171
 20
824.296448
 10
105.907974
 20
823.304321
 10
105.873604
 20
822.307739
  0
LINE
  5
9A
330
7B
100
AcDbEntity
  8
0
  6
Continuous
 62
     0
370
    30
100
AcDbLine
 10
112.873604
 20
822.307719
 30
0.0
 11
112.873616
 21
773.947404
 31
0.0
  0
LINE
  5
9B
330
7B
100
AcDbEntity
  8
0
  6
Continuous
 62
     0
370
    30
100
AcDbLine
 10
105.873604
 20
822.307719
 30
0.0
 11
105.873591
 21
773.94739
 31
0.0
  0
LWPOLYLINE
  5
9C
330
7B
100
AcDbEntity
  8
0
  6
Continuous
 62
     0
370
    30
100
AcDbPolyline
 90
        7
 70
     0
 43
0.0
 10
112.873589
 20
773.947266
 10
112.900505
 20
773.664307
 10
112.980232
 20
773.391479
 10
113.110069
 20
773.138611
 10
113.285286
 20
772.914734
 10
113.499603
 20
772.727966
 10
113.741287
 20
772.586304
  0
LWPOLYLINE
  5
9D
330
7B
100
AcDbEntity
  8
0
  6
Continuous
 62
     0
370
    30
100
AcDbPolyline
 90
        7
 70
     0
 43
0.0
 10
105.873619
 20
773.947266
 10
105.846703
 20
773.664307
 10
105.766975
 20
773.391479
 10
105.637138
 20
773.13855
 10
105.461922
 20
772.914734
 10
105.247604
 20
772.727966
 10
105.00592
 20
772.586304
  0
ARC
  5
9E
330
7B
100
AcDbEntity
  8
0
  6
Continuous
 62
     0
370
    30
100
AcDbCircle
 10
109.373619
 20
762.490699
 30
0.0
 40
11.00000000101843
100
AcDbArc
 50
359.99922
 51
180.00078
  0
ARC
  5
9F
330
7B
100
AcDbEntity
  8
0
  6
Continuous
 62
     0
370
    30
100
AcDbCircle
 10
109.373619
 20
762.4904
 30
0.0
 40
11.00000000101843
100
AcDbArc
 50
179.99922
 51
0.00078
  0
ARC
  5
A0
330
7B
100
AcDbEntity
  8
0
  6
Continuous
 62
     0
370
    30
100
AcDbCircle
 10
109.373426
 20
862.490477
 30
0.0
 40
29.99993019786324
100
AcDbArc
 50
96.699455
 51
270.000368
  0
ARC
  5
A1
330
7B
100
AcDbEntity
  8
0
  6
Continuous
 62
     0
370
    30
100
AcDbCircle
 10
109.373812
 20
862.490477
 30
0.0
 40
29.99993019955123
100
AcDbArc
 50
269.999632
 51
83.300605
  0
ARC
  5
A2
330
7B
100
AcDbEntity
  8
0
  6
Continuous
 62
     0
370
     0
100
AcDbCircle
 10
109.373395
 20
862.490652
 30
0.0
 40
11.35010193746796
100
AcDbArc
 50
270.00113
 51
71.055358
  0
ARC
  5
A3
330
7B
100
AcDbEntity
  8
0
  6
Continuous
 62
     0
370
     0
100
AcDbCircle
 10
109.373843
 20
862.490652
 30
0.0
 40
11.35010193501503
100
AcDbArc
 50
108.944797
 51
269.99887
  0
LWPOLYLINE
  5
A4
330
7B
100
AcDbEntity
  8
0
  6
Continuous
 62
     0
370
     0
100
AcDbPolyline
 90
        7
 70
     0
 43
0.0
 10
107.010704
 20
874.414246
 10
106.67701
 20
874.290344
 10
106.396996
 20
874.181213
 10
106.173462
 20
874.085815
 10
106.009323
 20
874.010864
 10
105.908218
 20
873.963074
 10
105.874001
 20
873.947693
  0
LWPOLYLINE
  5
A5
330
7B
100
AcDbEntity
  8
0
  6
Continuous
 62
     0
370
     0
100
AcDbPolyline
 90
        7
 70
     0
 43
0.0
 10
105.877365
 20
872.920288
 10
106.178123
 20
873.058594
 10
106.449028
 20
873.250854
 10
106.678192
 20
873.490784
 10
106.854912
 20
873.771912
 10
106.968918
 20
874.085327
 10
107.010704
 20
874.414246
  0
LINE
  5
A6
330
7B
100
AcDbEntity
  8
0
  6
Continuous
 62
     0
370
     0
100
AcDbLine
 10
107.010735
 20
922.307719
 30
0.0
 11
107.010722
 21
874.41426
 31
0.0
  0
LINE
  5
A7
330
7B
100
AcDbEntity
  8
0
  6
Continuous
 62
     0
370
     0
100
AcDbLine
 10
107.010722
 20
874.41426
 30
0.0
 11
107.243728
 21
874.414237
 31
0.0
  0
LINE
  5
A8
330
7B
100
AcDbEntity
  8
0
  6
Continuous
 62
     0
370
     0
100
AcDbLine
 10
107.243728
 20
874.414237
 30
0.0
 11
107.243741
 21
922.307719
 31
0.0
  0
LINE
  5
A9
330
7B
100
AcDbEntity
  8
0
  6
Continuous
 62
     0
370
     0
100
AcDbLine
 10
107.243741
 20
922.307719
 30
0.0
 11
107.010735
 21
922.307719
 31
0.0
  0
LWPOLYLINE
  5
AA
330
7B
100
AcDbEntity
  8
0
  6
Continuous
 62
     0
370
     0
100
AcDbPolyline
 90
        7
 70
     0
 43
0.0
 10
111.736504
 20
874.414246
 10
111.77829
 20
874.085327
 10
111.892296
 20
873.771912
 10
112.069016
 20
873.490784
 10
112.29818
 20
873.250854
 10
112.569092
 20
873.058655
 10
112.869843
 20
872.920288
  0
LWPOLYLINE
  5
AB
330
7B
100
AcDbEntity
  8
0
  6
Continuous
 62
     0
370
     0
100
AcDbPolyline
 90
        7
 70
     0
 43
0.0
 10
112.873207
 20
873.947754
 10
112.838989
 20
873.963074
 10
112.737885
 20
874.010864
 10
112.573746
 20
874.085815
 10
112.350212
 20
874.181213
 10
112.070198
 20
874.290344
 10
111.736504
 20
874.414246
  0
LINE
  5
AC
330
7B
100
AcDbEntity
  8
0
  6
Continuous
 62
     0
370
     0
100
AcDbLine
 10
111.503466
 20
922.307719
 30
0.0
 11
111.503479
 21
874.414247
 31
0.0
  0
LINE
  5
AD
330
7B
100
AcDbEntity
  8
0
  6
Continuous
 62
     0
370
     0
100
AcDbLine
 10
111.503479
 20
874.414247
 30
0.0
 11
111.736485
 21
874.414269
 31
0.0
  0
LINE
  5
AE
330
7B
100
AcDbEntity
  8
0
  6
Continuous
 62
     0
370
     0
100
AcDbLine
 10
111.736485
 20
874.414269
 30
0.0
 11
111.736472
 21
922.307719
 31
0.0
  0
LINE
  5
AF
330
7B
100
AcDbEntity
  8
0
  6
Continuous
 62
     0
370
     0
100
AcDbLine
 10
111.736472
 20
922.307719
 30
0.0
 11
111.503466
 21
922.307719
 31
0.0
  0
LINE
  5
B0
330
7B
100
AcDbEntity
  8
0
  6
Continuous
 62
     0
370
     0
100
AcDbLine
 10
107.010735
 20
922.307719
 30
0.0
 11
105.873604
 21
922.307719
 31
0.0
  0
LINE
  5
B1
330
7B
100
AcDbEntity
  8
0
  6
Continuous
 62
     0
370
     0
100
AcDbLine
 10
112.873604
 20
922.307719
 30
0.0
 11
111.736472
 21
922.307719
 31
0.0
  0
LINE
  5
B2
330
7B
100
AcDbEntity
  8
0
  6
Continuous
 62
     0
370
    30
100
AcDbLine
 10
107.243741
 20
928.307719
 30
0.0
 11
111.503466
 21
928.307719
 31
0.0
  0
LINE
  5
B3
330
7B
100
AcDbEntity
  8
0
  6
Continuous
 62
     0
370
     0
100
AcDbLine
 10
107.010735
 20
922.307719
 30
0.0
 11
107.010735
 21
928.148318
 31
0.0
  0
LINE
  5
B4
330
7B
100
AcDbEntity
  8
0
  6
Continuous
 62
     0
370
     0
100
AcDbLine
 10
111.503466
 20
922.307719
 30
0.0
 11
111.503466
 21
928.307719
 31
0.0
  0
LINE
  5
B5
330
7B
100
AcDbEntity
  8
0
  6
Continuous
 62
     0
370
     0
100
AcDbLine
 10
107.243741
 20
928.307719
 30
0.0
 11
107.243741
 21
922.307719
 31
0.0
  0
LINE
  5
B6
330
7B
100
AcDbEntity
  8
0
  6
Continuous
 62
     0
370
     0
100
AcDbLine
 10
107.243741
 20
922.307719
 30
0.0
 11
111.503466
 21
922.307719
 31
0.0
  0
LINE
  5
B7
330
7B
100
AcDbEntity
  8
0
  6
Continuous
 62
     0
370
     0
100
AcDbLine
 10
111.736472
 20
928.148318
 30
0.0
 11
111.736472
 21
922.307719
 31
0.0
  0
ARC
  5
B8
330
7B
100
AcDbEntity
  8
0
  6
Continuous
 62
     0
370
    30
100
AcDbCircle
 10
111.503466
 20
928.057719
 30
0.0
 40
0.2500000004191687
100
AcDbArc
 50
21.247505
 51
90.0
  0
ARC
  5
B9
330
7B
100
AcDbEntity
  8
0
  6
Continuous
 62
     0
370
    30
100
AcDbCircle
 10
107.243741
 20
928.057719
 30
0.0
 40
0.2500000004195695
100
AcDbArc
 50
90.0
 51
158.752495
  0
LWPOLYLINE
  5
BA
330
7B
100
AcDbEntity
  8
0
  6
Continuous
 62
     0
370
     0
100
AcDbPolyline
 90
        6
 70
     0
 43
0.0
 10
111.503479
 20
874.414246
 10
111.526588
 20
874.137878
 10
111.59417
 20
873.868591
 10
111.702538
 20
873.612976
 10
111.848969
 20
873.377014
 10
112.028664
 20
873.165344
  0
LWPOLYLINE
  5
BB
330
7B
100
AcDbEntity
  8
0
  6
Continuous
 62
     0
370
     0
100
AcDbPolyline
 90
        6
 70
     0
 43
0.0
 10
106.718552
 20
873.165344
 10
106.898247
 20
873.377014
 10
107.04467
 20
873.612915
 10
107.153038
 20
873.868591
 10
107.220619
 20
874.137878
 10
107.243729
 20
874.414246
  0
LWPOLYLINE
  5
BC
330
7B
100
AcDbEntity
  8
0
  6
Continuous
 62
     0
370
    30
100
AcDbPolyline
 90
        7
 70
     0
 43
0.0
 10
111.736473
 20
928.148315
 10
112.071388
 20
927.209045
 10
112.351799
 20
926.252014
 10
112.575302
 20
925.280151
 10
112.739037
 20
924.296448
 10
112.839233
 20
923.304321
 10
112.873604
 20
922.307739
  0
LWPOLYLINE
  5
BD
330
7B
100
AcDbEntity
  8
0
  6
Continuous
 62
     0
370
    30
100
AcDbPolyline
 90
        7
 70
     0
 43
0.0
 10
107.010735
 20
928.148315
 10
106.675819
 20
927.209045
 10
106.395409
 20
926.252014
 10
106.171906
 20
925.280151
 10
106.008171
 20
924.296448
 10
105.907974
 20
923.304321
 10
105.873604
 20
922.307739
  0
LINE
  5
BE
330
7B
100
AcDbEntity
  8
0
  6
Continuous
 62
     0
370
    30
100
AcDbLine
 10
112.873604
 20
922.307719
 30
0.0
 11
112.873616
 21
873.947404
 31
0.0
  0
LINE
  5
BF
330
7B
100
AcDbEntity
  8
0
  6
Continuous
 62
     0
370
    30
100
AcDbLine
 10
105.873604
 20
922.307719
 30
0.0
 11
105.873591
 21
873.94739
 31
0.0
  0
LWPOLYLINE
  5
C0
330
7B
100
AcDbEntity
  8
0
  6
Continuous
 62
     0
370
    30
100
AcDbPolyline
 90
        7
 70
     0
 43
0.0
 10
112.873589
 20
873.947266
 10
112.900505
 20
873.664307
 10
112.980232
 20
873.391479
 10
113.110069
 20
873.138611
 10
113.285286
 20
872.914734
 10
113.499603
 20
872.727966
 10
113.741287
 20
872.586304
  0
LWPOLYLINE
  5
C1
330
7B
100
AcDbEntity
  8
0
  6
Continuous
 62
     0
370
    30
100
AcDbPolyline
 90
        7
 70
     0
 43
0.0
 10
105.873619
 20
873.947266
 10
105.846703
 20
873.664307
 10
105.766975
 20
873.391479
 10
105.637138
 20
873.13855
 10
105.461922
 20
872.914734
 10
105.247604
 20
872.727966
 10
105.00592
 20
872.586304
  0
ARC
  5
C2
330
7B
100
AcDbEntity
  8
0
  6
Continuous
 62
     0
370
    30
100
AcDbCircle
 10
109.373619
 20
862.490699
 30
0.0
 40
11.00000000101844
100
AcDbArc
 50
359.99922
 51
180.00078
  0
ARC
  5
C3
330
7B
100
AcDbEntity
  8
0
  6
Continuous
 62
     0
370
    30
100
AcDbCircle
 10
109.373619
 20
862.4904
 30
0.0
 40
11.00000000101843
100
AcDbArc
 50
179.99922
 51
0.00078
  0
ARC
  5
C4
330
7B
100
AcDbEntity
  8
0
  6
Continuous
 62
     0
370
    30
100
AcDbCircle
 10
109.373426
 20
962.490477
 30
0.0
 40
29.99993019786324
100
AcDbArc
 50
96.699455
 51
270.000368
  0
ARC
  5
C5
330
7B
100
AcDbEntity
  8
0
  6
Continuous
 62
     0
370
    30
100
AcDbCircle
 10
109.373812
 20
962.490477
 30
0.0
 40
29.99993019955124
100
AcDbArc
 50
269.999632
 51
83.300605
  0
ARC
  5
C6
330
7B
100
AcDbEntity
  8
0
  6
Continuous
 62
     0
370
     0
100
AcDbCircle
 10
109.373395
 20
962.490652
 30
0.0
 40
11.35010193746795
100
AcDbArc
 50
270.00113
 51
71.055358
  0
ARC
  5
C7
330
7B
100
AcDbEntity
  8
0
  6
Continuous
 62
     0
370
     0
100
AcDbCircle
 10
109.373843
 20
962.490652
 30
0.0
 40
11.35010193501503
100
AcDbArc
 50
108.944797
 51
269.99887
  0
LWPOLYLINE
  5
C8
330
7B
100
AcDbEntity
  8
0
  6
Continuous
 62
     0
370
     0
100
AcDbPolyline
 90
        7
 70
     0
 43
0.0
 10
107.010704
 20
974.414246
 10
106.67701
 20
974.290344
 10
106.396996
 20
974.181213
 10
106.173462
 20
974.085815
 10
106.009323
 20
974.010864
 10
105.908218
 20
973.963074
 10
105.874001
 20
973.947693
  0
LWPOLYLINE
  5
C9
330
7B
100
AcDbEntity
  8
0
  6
Continuous
 62
     0
370
     0
100
AcDbPolyline
 90
        7
 70
     0
 43
0.0
 10
105.877365
 20
972.920288
 10
106.178123
 20
973.058594
 10
106.449028
 20
973.250854
 10
106.678192
 20
973.490784
 10
106.854912
 20
973.771912
 10
106.968918
 20
974.085327
 10
107.010704
 20
974.414246
  0
LINE
  5
CA
330
7B
100
AcDbEntity
  8
0
  6
Continuous
 62
     0
370
     0
100
AcDbLine
 10
107.010735
 20
1022.307719
 30
0.0
 11
107.010722
 21
974.41426
 31
0.0
  0
LINE
  5
CB
330
7B
100
AcDbEntity
  8
0
  6
Continuous
 62
     0
370
     0
100
AcDbLine
 10
107.010722
 20
974.41426
 30
0.0
 11
107.243728
 21
974.414237
 31
0.0
  0
LINE
  5
CC
330
7B
100
AcDbEntity
  8
0
  6
Continuous
 62
     0
370
     0
100
AcDbLine
 10
107.243728
 20
974.414237
 30
0.0
 11
107.243741
 21
1022.307719
 31
0.0
  0
LINE
  5
CD
330
7B
100
AcDbEntity
  8
0
  6
Continuous
 62
     0
370
     0
100
AcDbLine
 10
107.243741
 20
1022.307719
 30
0.0
 11
107.010735
 21
1022.307719
 31
0.0
  0
LWPOLYLINE
  5
CE
330
7B
100
AcDbEntity
  8
0
  6
Continuous
 62
     0
370
     0
100
AcDbPolyline
 90
        7
 70
     0
 43
0.0
 10
111.736504
 20
974.414246
 10
111.77829
 20
974.085327
 10
111.892296
 20
973.771912
 10
112.069016
 20
973.490784
 10
112.29818
 20
973.250854
 10
112.569092
 20
973.058655
 10
112.869843
 20
972.920288
  0
LWPOLYLINE
  5
CF
330
7B
100
AcDbEntity
  8
0
  6
Continuous
 62
     0
370
     0
100
AcDbPolyline
 90
        7
 70
     0
 43
0.0
 10
112.873207
 20
973.947754
 10
112.838989
 20
973.963074
 10
112.737885
 20
974.010864
 10
112.573746
 20
974.085815
 10
112.350212
 20
974.181213
 10
112.070198
 20
974.290344
 10
111.736504
 20
974.414246
  0
LINE
  5
D0
330
7B
100
AcDbEntity
  8
0
  6
Continuous
 62
     0
370
     0
100
AcDbLine
 10
111.503466
 20
1022.307719
 30
0.0
 11
111.503479
 21
974.414247
 31
0.0
  0
LINE
  5
D1
330
7B
100
AcDbEntity
  8
0
  6
Continuous
 62
     0
370
     0
100
AcDbLine
 10
111.503479
 20
974.414247
 30
0.0
 11
111.736485
 21
974.414269
 31
0.0
  0
LINE
  5
D2
330
7B
100
AcDbEntity
  8
0
  6
Continuous
 62
     0
370
     0
100
AcDbLine
 10
111.736485
 20
974.414269
 30
0.0
 11
111.736472
 21
1022.307719
 31
0.0
  0
LINE
  5
D3
330
7B
100
AcDbEntity
  8
0
  6
Continuous
 62
     0
370
     0
100
AcDbLine
 10
111.736472
 20
1022.307719
 30
0.0
 11
111.503466
 21
1022.307719
 31
0.0
  0
LINE
  5
D4
330
7B
100
AcDbEntity
  8
0
  6
Continuous
 62
     0
370
     0
100
AcDbLine
 10
107.010735
 20
1022.307719
 30
0.0
 11
105.873604
 21
1022.307719
 31
0.0
  0
LINE
  5
D5
330
7B
100
AcDbEntity
  8
0
  6
Continuous
 62
     0
370
     0
100
AcDbLine
 10
112.873604
 20
1022.307719
 30
0.0
 11
111.736472
 21
1022.307719
 31
0.0
  0
LINE
  5
D6
330
7B
100
AcDbEntity
  8
0
  6
Continuous
 62
     0
370
    30
100
AcDbLine
 10
107.243741
 20
1028.307719
 30
0.0
 11
111.503466
 21
1028.307719
 31
0.0
  0
LINE
  5
D7
330
7B
100
AcDbEntity
  8
0
  6
Continuous
 62
     0
370
     0
100
AcDbLine
 10
107.010735
 20
1022.307719
 30
0.0
 11
107.010735
 21
1028.148318
 31
0.0
  0
LINE
  5
D8
330
7B
100
AcDbEntity
  8
0
  6
Continuous
 62
     0
370
     0
100
AcDbLine
 10
111.503466
 20
1022.307719
 30
0.0
 11
111.503466
 21
1028.307719
 31
0.0
  0
LINE
  5
D9
330
7B
100
AcDbEntity
  8
0
  6
Continuous
 62
     0
370
     0
100
AcDbLine
 10
107.243741
 20
1028.307719
 30
0.0
 11
107.243741
 21
1022.307719
 31
0.0
  0
LINE
  5
DA
330
7B
100
AcDbEntity
  8
0
  6
Continuous
 62
     0
370
     0
100
AcDbLine
 10
107.243741
 20
1022.307719
 30
0.0
 11
111.503466
 21
1022.307719
 31
0.0
  0
LINE
  5
DB
330
7B
100
AcDbEntity
  8
0
  6
Continuous
 62
     0
370
     0
100
AcDbLine
 10
111.736472
 20
1028.148318
 30
0.0
 11
111.736472
 21
1022.307719
 31
0.0
  0
ARC
  5
DC
330
7B
100
AcDbEntity
  8
0
  6
Continuous
 62
     0
370
    30
100
AcDbCircle
 10
111.503466
 20
1028.057719
 30
0.0
 40
0.2500000004163999
100
AcDbArc
 50
21.247505
 51
90.0
  0
ARC
  5
DD
330
7B
100
AcDbEntity
  8
0
  6
Continuous
 62
     0
370
    30
100
AcDbCircle
 10
107.243741
 20
1028.057719
 30
0.0
 40
0.2500000004126495
100
AcDbArc
 50
90.0
 51
158.752495
  0
LWPOLYLINE
  5
DE
330
7B
100
AcDbEntity
  8
0
  6
Continuous
 62
     0
370
     0
100
AcDbPolyline
 90
        6
 70
     0
 43
0.0
 10
111.503479
 20
974.414246
 10
111.526588
 20
974.137878
 10
111.59417
 20
973.868591
 10
111.702538
 20
973.612976
 10
111.848969
 20
973.377014
 10
112.028664
 20
973.165344
  0
LWPOLYLINE
  5
DF
330
7B
100
AcDbEntity
  8
0
  6
Continuous
 62
     0
370
     0
100
AcDbPolyline
 90
        6
 70
     0
 43
0.0
 10
106.718552
 20
973.165344
 10
106.898247
 20
973.377014
 10
107.04467
 20
973.612915
 10
107.153038
 20
973.868591
 10
107.220619
 20
974.137878
 10
107.243729
 20
974.414246
  0
LWPOLYLINE
  5
E0
330
7B
100
AcDbEntity
  8
0
  6
Continuous
 62
     0
370
    30
100
AcDbPolyline
 90
        7
 70
     0
 43
0.0
 10
111.736473
 20
1028.148315
 10
112.071388
 20
1027.209106
 10
112.351799
 20
1026.252075
 10
112.575302
 20
1025.280151
 10
112.739037
 20
1024.296387
 10
112.839233
 20
1023.304321
 10
112.873604
 20
1022.307739
  0
LWPOLYLINE
  5
E1
330
7B
100
AcDbEntity
  8
0
  6
Continuous
 62
     0
370
    30
100
AcDbPolyline
 90
        7
 70
     0
 43
0.0
 10
107.010735
 20
1028.148315
 10
106.675819
 20
1027.209106
 10
106.395409
 20
1026.252075
 10
106.171906
 20
1025.280151
 10
106.008171
 20
1024.296387
 10
105.907974
 20
1023.304321
 10
105.873604
 20
1022.307739
  0
LINE
  5
E2
330
7B
100
AcDbEntity
  8
0
  6
Continuous
 62
     0
370
    30
100
AcDbLine
 10
112.873604
 20
1022.307719
 30
0.0
 11
112.873616
 21
973.947404
 31
0.0
  0
LINE
  5
E3
330
7B
100
AcDbEntity
  8
0
  6
Continuous
 62
     0
370
    30
100
AcDbLine
 10
105.873604
 20
1022.307719
 30
0.0
 11
105.873591
 21
973.94739
 31
0.0
  0
LWPOLYLINE
  5
E4
330
7B
100
AcDbEntity
  8
0
  6
Continuous
 62
     0
370
    30
100
AcDbPolyline
 90
        7
 70
     0
 43
0.0
 10
112.873589
 20
973.947266
 10
112.900505
 20
973.664307
 10
112.980232
 20
973.391479
 10
113.110069
 20
973.138611
 10
113.285286
 20
972.914734
 10
113.499603
 20
972.727966
 10
113.741287
 20
972.586304
  0
LWPOLYLINE
  5
E5
330
7B
100
AcDbEntity
  8
0
  6
Continuous
 62
     0
370
    30
100
AcDbPolyline
 90
        7
 70
     0
 43
0.0
 10
105.873619
 20
973.947266
 10
105.846703
 20
973.664307
 10
105.766975
 20
973.391479
 10
105.637138
 20
973.13855
 10
105.461922
 20
972.914734
 10
105.247604
 20
972.727966
 10
105.00592
 20
972.586304
  0
ARC
  5
E6
330
7B
100
AcDbEntity
  8
0
  6
Continuous
 62
     0
370
    30
100
AcDbCircle
 10
109.373619
 20
962.490699
 30
0.0
 40
11.00000000101844
100
AcDbArc
 50
359.99922
 51
180.00078
  0
ARC
  5
E7
330
7B
100
AcDbEntity
  8
0
  6
Continuous
 62
     0
370
    30
100
AcDbCircle
 10
109.373619
 20
962.4904
 30
0.0
 40
11.00000000101843
100
AcDbArc
 50
179.99922
 51
0.00078
  0
LINE
  5
E8
330
7B
100
AcDbEntity
  8
0
  6
Continuous
 62
     0
370
    30
100
AcDbLine
 10
109.373619
 20
671.820462
 30
0.0
 11
105.423619
 21
671.820462
 31
0.0
  0
LINE
  5
E9
330
7B
100
AcDbEntity
  8
0
  6
Continuous
 62
     0
370
    30
100
AcDbLine
 10
113.323619
 20
671.820462
 30
0.0
 11
109.373619
 21
671.820462
 31
0.0
  0
LINE
  5
EA
330
7B
100
AcDbEntity
  8
0
  6
Continuous
 62
     0
370
    30
100
AcDbLine
 10
112.823619
 20
672.320462
 30
0.0
 11
109.373619
 21
672.320462
 31
0.0
  0
LINE
  5
EB
330
7B
100
AcDbEntity
  8
0
  6
Continuous
 62
     0
370
    30
100
AcDbLine
 10
109.373619
 20
672.320462
 30
0.0
 11
105.923619
 21
672.320462
 31
0.0
  0
ARC
  5
EC
330
7B
100
AcDbEntity
  8
0
  6
Continuous
 62
     0
370
    30
100
AcDbCircle
 10
109.373619
 20
642.490463
 30
0.0
 40
21.49999999999999
100
AcDbArc
 50
270.0
 51
90.0
  0
ARC
  5
ED
330
7B
100
AcDbEntity
  8
0
  6
Continuous
 62
     0
370
    30
100
AcDbCircle
 10
109.373619
 20
642.490463
 30
0.0
 40
21.49999999999999
100
AcDbArc
 50
90.0
 51
270.0
  0
ARC
  5
EE
330
7B
100
AcDbEntity
  8
0
  6
Continuous
 62
     0
370
    30
100
AcDbCircle
 10
109.373619
 20
642.490463
 30
0.0
 40
22.00000000000004
100
AcDbArc
 50
270.0
 51
90.0
  0
ARC
  5
EF
330
7B
100
AcDbEntity
  8
0
  6
Continuous
 62
     0
370
    30
100
AcDbCircle
 10
109.373619
 20
642.490463
 30
0.0
 40
22.00000000000001
100
AcDbArc
 50
90.0
 51
270.0
  0
ARC
  5
F0
330
7B
100
AcDbEntity
  8
0
  6
Continuous
 62
     0
370
     0
100
AcDbCircle
 10
109.373619
 20
642.490463
 30
0.0
 40
64.51526624356619
100
AcDbArc
 50
180.0
 51
0.000003
  0
ARC
  5
F1
330
7B
100
AcDbEntity
  8
0
  6
Continuous
 62
     0
370
     0
100
AcDbCircle
 10
109.373619
 20
642.490463
 30
0.0
 40
64.5152662435662
100
AcDbArc
 50
0.000003
 51
180.0
  0
ARC
  5
F2
330
7B
100
AcDbEntity
  8
0
  6
Continuous
 62
     0
370
    30
100
AcDbCircle
 10
109.373619
 20
642.490463
 30
0.0
 40
65.00000000000001
100
AcDbArc
 50
0.000003
 51
180.0
  0
ARC
  5
F3
330
7B
100
AcDbEntity
  8
0
  6
Continuous
 62
     0
370
    30
100
AcDbCircle
 10
109.373619
 20
642.490463
 30
0.0
 40
65.00000000000003
100
AcDbArc
 50
180.0
 51
0.000003
  0
LINE
  5
F4
330
7B
100
AcDbEntity
  8
0
  6
Continuous
 62
     0
370
    30
100
AcDbLine
 10
112.823676
 20
672.320406
 30
0.0
 11
113.323619
 21
671.820463
 31
0.0
  0
LINE
  5
F5
330
7B
100
AcDbEntity
  8
0
  6
Continuous
 62
     0
370
    30
100
AcDbLine
 10
105.42362
 20
671.820463
 30
0.0
 11
105.923562
 21
672.320406
 31
0.0
  0
LINE
  5
F6
330
7B
100
AcDbEntity
  8
0
  6
Continuous
 62
     0
370
    30
100
AcDbLine
 10
105.423619
 20
671.820462
 30
0.0
 11
105.423619
 21
664.13289
 31
0.0
  0
LINE
  5
F7
330
7B
100
AcDbEntity
  8
0
  6
Continuous
 62
     0
370
    30
100
AcDbLine
 10
113.323619
 20
671.820462
 30
0.0
 11
113.323619
 21
664.13289
 31
0.0
  0
ENDBLK
  5
F9
330
7B
100
AcDbEntity
  8
0
100
AcDbBlockEnd
  0
BLOCK
  5
170
330
FB
100
AcDbEntity
  8
0
100
AcDbBlockBegin
  2
b
 70
     0
 10
15.792099
 20
428.913277
 30
0.0
  3
b
  1

  0
LINE
  5
FC
330
FB
100
AcDbEntity
  8
0
  6
Continuous
 62
     0
370
    30
100
AcDbLine
 10
109.373611
 20
472.526675
 30
0.0
 11
79.373201
 21
472.526676
 31
0.0
  0
LINE
  5
FD
330
FB
100
AcDbEntity
  8
0
  6
Continuous
 62
     0
370
    30
100
AcDbLine
 10
139.374022
 20
472.526676
 30
0.0
 11
109.373611
 21
472.526675
 31
0.0
  0
LINE
  5
FE
330
FB
100
AcDbEntity
  8
0
  6
Continuous
 62
     0
370
    30
100
AcDbLine
 10
109.373611
 20
478.526675
 30
0.0
 11
79.373609
 21
478.526676
 31
0.0
  0
LINE
  5
FF
330
FB
100
AcDbEntity
  8
0
  6
Continuous
 62
     0
370
    30
100
AcDbLine
 10
139.373614
 20
478.526676
 30
0.0
 11
109.373611
 21
478.526675
 31
0.0
  0
LINE
  5
100
330
FB
100
AcDbEntity
  8
0
  6
Continuous
 62
     0
370
    30
100
AcDbLine
 10
139.373614
 20
472.526676
 30
0.0
 11
139.373614
 21
478.526676
 31
0.0
  0
LINE
  5
101
330
FB
100
AcDbEntity
  8
0
  6
Continuous
 62
     0
370
    30
100
AcDbLine
 10
79.373609
 20
472.526676
 30
0.0
 11
79.373609
 21
478.526676
 31
0.0
  0
LINE
  5
102
330
FB
100
AcDbEntity
  8
0
  6
Continuous
 62
     0
370
     0
100
AcDbLine
 10
109.373611
 20
438.026686
 30
0.0
 11
109.373611
 21
439.526686
 31
0.0
  0
LINE
  5
103
330
FB
100
AcDbEntity
  8
0
  6
Continuous
 62
     0
370
     0
100
AcDbLine
 10
109.373611
 20
439.526686
 30
0.0
 11
107.499308
 21
439.526686
 31
0.0
  0
LWPOLYLINE
  5
104
330
FB
100
AcDbEntity
  8
0
  6
Continuous
 62
     0
370
     0
100
AcDbPolyline
 90
        8
 70
     0
 43
0.0
 10
107.499306
 20
439.526672
 10
107.492889
 20
439.193451
 10
107.473991
 20
438.875763
 10
107.443527
 20
438.5914
 10
107.403091
 20
438.354034
 10
107.35463
 20
438.175262
 10
107.300499
 20
438.064362
 10
107.243721
 20
438.026672
  0
LWPOLYLINE
  5
105
330
FB
100
AcDbEntity
  8
0
  6
Continuous
 62
     0
370
     0
100
AcDbPolyline
 90
        7
 70
     0
 43
0.0
 10
107.010712
 20
437.867279
 10
106.991638
 20
437.913483
 10
106.909775
 20
437.982513
 10
106.768394
 20
438.071136
 10
106.573921
 20
438.175354
 10
106.33477
 20
438.290649
 10
106.063988
 20
438.410889
  0
LWPOLYLINE
  5
106
330
FB
100
AcDbEntity
  8
0
  6
Continuous
 62
     0
370
     0
100
AcDbPolyline
 90
       12
 70
     0
 43
0.0
 10
106.063988
 20
438.410889
 10
105.730003
 20
437.342834
 10
105.453972
 20
436.257141
 10
105.238129
 20
435.156708
 10
105.084656
 20
434.044342
 10
104.996239
 20
432.923706
 10
104.975342
 20
431.799194
 10
105.023415
 20
430.67569
 10
105.13884
 20
429.557983
 10
105.318352
 20
428.450165
 10
105.558884
 20
427.355225
 10
105.858322
 20
426.276459
  0
LWPOLYLINE
  5
107
330
FB
100
AcDbEntity
  8
0
  6
Continuous
 62
     0
370
     0
100
AcDbPolyline
 90
        8
 70
     0
 43
0.0
 10
105.858322
 20
426.276459
 10
106.121384
 20
426.260468
 10
106.363861
 20
426.245178
 10
106.577873
 20
426.230377
 10
106.756195
 20
426.2164
 10
106.892044
 20
426.203918
 10
106.978912
 20
426.193604
 10
107.010696
 20
426.186127
  0
LINE
  5
108
330
FB
100
AcDbEntity
  8
0
  6
Continuous
 62
     0
370
     0
100
AcDbLine
 10
98.373611
 20
426.276687
 30
0.0
 11
105.858251
 21
426.276686
 31
0.0
  0
LWPOLYLINE
  5
109
330
FB
100
AcDbEntity
  8
0
  6
Continuous
 62
     0
370
     0
100
AcDbPolyline
 90
        7
 70
     0
 43
0.0
 10
106.063995
 20
438.410889
 10
106.195755
 20
438.707275
 10
106.377869
 20
438.974792
 10
106.605949
 20
439.201996
 10
106.875862
 20
439.37674
 10
107.179504
 20
439.487854
 10
107.499306
 20
439.526672
  0
LINE
  5
10A
330
FB
100
AcDbEntity
  8
0
  6
Continuous
 62
     0
370
     0
100
AcDbLine
 10
109.373611
 20
439.526686
 30
0.0
 11
109.373611
 21
472.526676
 31
0.0
  0
ARC
  5
10B
330
FB
100
AcDbEntity
  8
0
  6
Continuous
 62
     0
370
    30
100
AcDbCircle
 10
107.243733
 20
437.776684
 30
0.0
 40
0.2499999999995501
100
AcDbArc
 50
90.0
 51
158.752495
  0
LWPOLYLINE
  5
10C
330
FB
100
AcDbEntity
  8
0
  6
Continuous
 62
     0
370
     0
100
AcDbPolyline
 90
        4
 70
     0
 43
0.0
 10
105.937584
 20
426.026672
 10
105.897682
 20
426.060181
 10
105.8685
 20
426.151703
 10
105.857849
 20
426.276672
  0
ARC
  5
10D
330
FB
100
AcDbEntity
  8
0
  6
Continuous
 62
     0
370
    30
100
AcDbCircle
 10
107.243733
 20
426.276684
 30
0.0
 40
0.2500000000238424
100
AcDbArc
 50
201.247505
 51
270.0
  0
LWPOLYLINE
  5
10E
330
FB
100
AcDbEntity
  8
0
  6
Continuous
 62
     0
370
     0
100
AcDbPolyline
 90
        8
 70
     0
 43
0.0
 10
111.736496
 20
426.186127
 10
111.76828
 20
426.193604
 10
111.855148
 20
426.203918
 10
111.990997
 20
426.2164
 10
112.169319
 20
426.230377
 10
112.383331
 20
426.245178
 10
112.625809
 20
426.260468
 10
112.888878
 20
426.276459
  0
LWPOLYLINE
  5
10F
330
FB
100
AcDbEntity
  8
0
  6
Continuous
 62
     0
370
     0
100
AcDbPolyline
 90
       12
 70
     0
 43
0.0
 10
112.888878
 20
426.276459
 10
113.188309
 20
427.355225
 10
113.428841
 20
428.450165
 10
113.60836
 20
429.557983
 10
113.723785
 20
430.67569
 10
113.771858
 20
431.799194
 10
113.750954
 20
432.923706
 10
113.662537
 20
434.044342
 10
113.509064
 20
435.156708
 10
113.293221
 20
436.257141
 10
113.017189
 20
437.342834
 10
112.683212
 20
438.410889
  0
LWPOLYLINE
  5
110
330
FB
100
AcDbEntity
  8
0
  6
Continuous
 62
     0
370
     0
100
AcDbPolyline
 90
        7
 70
     0
 43
0.0
 10
112.683212
 20
438.410889
 10
112.412422
 20
438.290649
 10
112.173271
 20
438.175354
 10
111.978798
 20
438.071136
 10
111.837418
 20
437.982513
 10
111.755554
 20
437.913483
 10
111.736481
 20
437.867279
  0
LWPOLYLINE
  5
111
330
FB
100
AcDbEntity
  8
0
  6
Continuous
 62
     0
370
     0
100
AcDbPolyline
 90
        8
 70
     0
 43
0.0
 10
111.503471
 20
438.026672
 10
111.446693
 20
438.064362
 10
111.392563
 20
438.175262
 10
111.344109
 20
438.354034
 10
111.303665
 20
438.5914
 10
111.273201
 20
438.875763
 10
111.254311
 20
439.193451
 10
111.247887
 20
439.526672
  0
LINE
  5
112
330
FB
100
AcDbEntity
  8
0
  6
Continuous
 62
     0
370
     0
100
AcDbLine
 10
111.247888
 20
439.526686
 30
0.0
 11
109.373611
 21
439.526686
 31
0.0
  0
LWPOLYLINE
  5
113
330
FB
100
AcDbEntity
  8
0
  6
Continuous
 62
     0
370
     0
100
AcDbPolyline
 90
        7
 70
     0
 43
0.0
 10
111.247887
 20
439.526672
 10
111.567627
 20
439.487701
 10
111.871254
 20
439.376465
 10
112.141396
 20
439.201904
 10
112.36969
 20
438.975006
 10
112.551636
 20
438.707428
 10
112.683205
 20
438.410889
  0
LINE
  5
114
330
FB
100
AcDbEntity
  8
0
  6
Continuous
 62
     0
370
     0
100
AcDbLine
 10
112.888945
 20
426.276686
 30
0.0
 11
120.373611
 21
426.276687
 31
0.0
  0
ARC
  5
115
330
FB
100
AcDbEntity
  8
0
  6
Continuous
 62
     0
370
    30
100
AcDbCircle
 10
111.503459
 20
437.776684
 30
0.0
 40
0.2499999999919008
100
AcDbArc
 50
21.247505
 51
90.0
  0
LWPOLYLINE
  5
116
330
FB
100
AcDbEntity
  8
0
  6
Continuous
 62
     0
370
     0
100
AcDbPolyline
 90
        4
 70
     0
 43
0.0
 10
112.889351
 20
426.276672
 10
112.8787
 20
426.151703
 10
112.84951
 20
426.060181
 10
112.809616
 20
426.026672
  0
ARC
  5
117
330
FB
100
AcDbEntity
  8
0
  6
Continuous
 62
     0
370
    30
100
AcDbCircle
 10
111.503459
 20
426.276684
 30
0.0
 40
0.2500000000665479
100
AcDbArc
 50
270.0
 51
338.752495
  0
LWPOLYLINE
  5
118
330
FB
100
AcDbEntity
  8
0
  6
Continuous
 62
     0
370
    30
100
AcDbPolyline
 90
        7
 70
     0
 43
0.0
 10
107.010727
 20
426.186096
 10
106.676826
 20
427.122253
 10
106.396339
 20
428.078735
 10
106.172516
 20
429.051483
 10
106.008621
 20
430.036438
 10
105.90789
 20
431.029541
 10
105.873596
 20
432.026672
  0
LWPOLYLINE
  5
119
330
FB
100
AcDbEntity
  8
0
  6
Continuous
 62
     0
370
    30
100
AcDbPolyline
 90
        7
 70
     0
 43
0.0
 10
105.873596
 20
432.026672
 10
105.90789
 20
433.023834
 10
106.008621
 20
434.016937
 10
106.172516
 20
435.001892
 10
106.396339
 20
435.97464
 10
106.676826
 20
436.931122
 10
107.010727
 20
437.867279
  0
LINE
  5
11A
330
FB
100
AcDbEntity
  8
0
  6
Continuous
 62
     0
370
    30
100
AcDbLine
 10
107.243733
 20
438.026684
 30
0.0
 11
111.503459
 21
438.026684
 31
0.0
  0
LWPOLYLINE
  5
11B
330
FB
100
AcDbEntity
  8
0
  6
Continuous
 62
     0
370
    30
100
AcDbPolyline
 90
        7
 70
     0
 43
0.0
 10
111.736465
 20
437.867279
 10
112.070366
 20
436.931122
 10
112.350853
 20
435.97464
 10
112.574677
 20
435.001892
 10
112.738571
 20
434.016937
 10
112.839294
 20
433.023834
 10
112.873596
 20
432.026672
  0
LWPOLYLINE
  5
11C
330
FB
100
AcDbEntity
  8
0
  6
Continuous
 62
     0
370
    30
100
AcDbPolyline
 90
        7
 70
     0
 43
0.0
 10
112.873596
 20
432.026672
 10
112.839294
 20
431.029541
 10
112.738571
 20
430.036438
 10
112.574677
 20
429.051483
 10
112.350853
 20
428.078735
 10
112.070366
 20
427.122253
 10
111.736465
 20
426.186096
  0
LINE
  5
11D
330
FB
100
AcDbEntity
  8
0
  6
Continuous
 62
     0
370
     0
100
AcDbLine
 10
111.503459
 20
432.026684
 30
0.0
 11
111.503459
 21
438.026684
 31
0.0
  0
LINE
  5
11E
330
FB
100
AcDbEntity
  8
0
  6
Continuous
 62
     0
370
     0
100
AcDbLine
 10
107.243733
 20
438.026684
 30
0.0
 11
107.243733
 21
432.026684
 31
0.0
  0
LINE
  5
11F
330
FB
100
AcDbEntity
  8
0
  6
Continuous
 62
     0
370
     0
100
AcDbLine
 10
107.243733
 20
432.026684
 30
0.0
 11
111.503459
 21
432.026684
 31
0.0
  0
LINE
  5
120
330
FB
100
AcDbEntity
  8
0
  6
Continuous
 62
     0
370
     0
100
AcDbLine
 10
107.010727
 20
426.186085
 30
0.0
 11
107.010727
 21
432.026684
 31
0.0
  0
LINE
  5
121
330
FB
100
AcDbEntity
  8
0
  6
Continuous
 62
     0
370
     0
100
AcDbLine
 10
107.010727
 20
432.026684
 30
0.0
 11
107.010727
 21
437.867284
 31
0.0
  0
LWPOLYLINE
  5
122
330
FB
100
AcDbEntity
  8
0
  6
Continuous
 62
     0
370
     0
100
AcDbPolyline
 90
       16
 70
     0
 43
0.0
 10
111.503456
 20
426.026672
 10
111.503456
 20
426.063171
 10
111.503456
 20
426.171326
 10
111.503456
 20
426.34729
 10
111.503456
 20
426.585083
 10
111.503456
 20
426.876892
 10
111.503456
 20
427.213989
 10
111.503456
 20
427.587006
 10
111.503456
 20
427.990692
 10
111.503456
 20
428.443665
 10
111.503456
 20
428.947754
 10
111.503456
 20
429.499084
 10
111.503456
 20
430.091583
 10
111.503456
 20
430.717163
 10
111.503456
 20
431.365967
 10
111.503456
 20
432.026672
  0
LINE
  5
123
330
FB
100
AcDbEntity
  8
0
  6
Continuous
 62
     0
370
     0
100
AcDbLine
 10
107.243733
 20
432.026684
 30
0.0
 11
107.243733
 21
426.026684
 31
0.0
  0
LINE
  5
124
330
FB
100
AcDbEntity
  8
0
  6
Continuous
 62
     0
370
    30
100
AcDbLine
 10
107.243733
 20
426.026684
 30
0.0
 11
111.503459
 21
426.026684
 31
0.0
  0
LINE
  5
125
330
FB
100
AcDbEntity
  8
0
  6
Continuous
 62
     0
370
     0
100
AcDbLine
 10
111.736464
 20
437.867284
 30
0.0
 11
111.736464
 21
432.026684
 31
0.0
  0
LINE
  5
126
330
FB
100
AcDbEntity
  8
0
  6
Continuous
 62
     0
370
     0
100
AcDbLine
 10
111.736464
 20
432.026684
 30
0.0
 11
111.736464
 21
426.186085
 31
0.0
  0
LINE
  5
127
330
FB
100
AcDbEntity
  8
0
  6
Continuous
 62
     0
370
     0
100
AcDbLine
 10
111.736464
 20
432.026684
 30
0.0
 11
111.503459
 21
432.026684
 31
0.0
  0
LINE
  5
128
330
FB
100
AcDbEntity
  8
0
  6
Continuous
 62
     0
370
     0
100
AcDbLine
 10
107.243733
 20
432.026684
 30
0.0
 11
107.010727
 21
432.026684
 31
0.0
  0
LINE
  5
129
330
FB
100
AcDbEntity
  8
0
  6
Continuous
 62
     0
370
    30
100
AcDbLine
 10
111.503471
 20
426.026686
 30
0.0
 11
112.028676
 21
426.026686
 31
0.0
  0
LINE
  5
12A
330
FB
100
AcDbEntity
  8
0
  6
Continuous
 62
     0
370
    30
100
AcDbLine
 10
106.718519
 20
426.026686
 30
0.0
 11
107.243721
 21
426.026686
 31
0.0
  0
ARC
  5
12B
330
FB
100
AcDbEntity
  8
0
  6
Continuous
 62
     0
370
    30
100
AcDbCircle
 10
120.123088
 20
426.276694
 30
0.0
 40
0.2500069616534221
100
AcDbArc
 50
270.082753
 51
359.998409
  0
LINE
  5
12C
330
FB
100
AcDbEntity
  8
0
  6
Continuous
 62
     0
370
    30
100
AcDbLine
 10
120.373611
 20
472.526676
 30
0.0
 11
120.373611
 21
426.276687
 31
0.0
  0
ARC
  5
12D
330
FB
100
AcDbEntity
  8
0
  6
Continuous
 62
     0
370
    30
100
AcDbCircle
 10
98.624135
 20
426.276694
 30
0.0
 40
0.2500069616637403
100
AcDbArc
 50
180.001591
 51
269.917247
  0
LINE
  5
12E
330
FB
100
AcDbEntity
  8
0
  6
Continuous
 62
     0
370
    30
100
AcDbLine
 10
98.373611
 20
472.526676
 30
0.0
 11
98.373611
 21
426.276687
 31
0.0
  0
LWPOLYLINE
  5
12F
330
FB
100
AcDbEntity
  8
0
  6
Continuous
 62
     0
370
    30
100
AcDbPolyline
 90
       38
 70
     0
 43
0.0
 10
120.373611
 20
420.026672
 10
120.333984
 20
420.026672
 10
120.215317
 20
420.026672
 10
120.018738
 20
420.026672
 10
119.745369
 20
420.026672
 10
119.397034
 20
420.026672
 10
118.976662
 20
420.026672
 10
118.487305
 20
420.026672
 10
117.932091
 20
420.026672
 10
117.315063
 20
420.026672
 10
116.640984
 20
420.026672
 10
115.91465
 20
420.026672
 10
115.140999
 20
420.026672
 10
114.325775
 20
420.026672
 10
113.475006
 20
420.026672
 10
112.594704
 20
420.026672
 10
111.691086
 20
420.026672
 10
110.770775
 20
420.026672
 10
109.840446
 20
420.026672
 10
108.906776
 20
420.026672
 10
107.976448
 20
420.026672
 10
107.056137
 20
420.026672
 10
106.152519
 20
420.026672
 10
105.272217
 20
420.026672
 10
104.421448
 20
420.026672
 10
103.606224
 20
420.026672
 10
102.832573
 20
420.026672
 10
102.106239
 20
420.026672
 10
101.432159
 20
420.026672
 10
100.815132
 20
420.026672
 10
100.259918
 20
420.026672
 10
99.770561
 20
420.026672
 10
99.350189
 20
420.026672
 10
99.001854
 20
420.026672
 10
98.728485
 20
420.026672
 10
98.531906
 20
420.026672
 10
98.413239
 20
420.026672
 10
98.373611
 20
420.026672
  0
LINE
  5
130
330
FB
100
AcDbEntity
  8
0
  6
Continuous
 62
     0
370
    30
100
AcDbLine
 10
120.373611
 20
420.026687
 30
0.0
 11
120.373611
 21
426.026687
 31
0.0
  0
LINE
  5
131
330
FB
100
AcDbEntity
  8
0
  6
Continuous
 62
     0
370
    30
100
AcDbLine
 10
106.718519
 20
426.026686
 30
0.0
 11
98.373611
 21
426.026687
 31
0.0
  0
LINE
  5
132
330
FB
100
AcDbEntity
  8
0
  6
Continuous
 62
     0
370
    30
100
AcDbLine
 10
120.373611
 20
426.026687
 30
0.0
 11
112.028676
 21
426.026686
 31
0.0
  0
LINE
  5
133
330
FB
100
AcDbEntity
  8
0
  6
Continuous
 62
     0
370
    30
100
AcDbLine
 10
98.373611
 20
420.026687
 30
0.0
 11
98.373611
 21
426.026687
 31
0.0
  0
ARC
  5
134
330
FB
100
AcDbEntity
  8
0
  6
Continuous
 62
     0
370
    30
100
AcDbCircle
 10
109.373611
 20
422.576688
 30
0.0
 40
3.949999999983498
100
AcDbArc
 50
220.208182
 51
270.0
  0
ARC
  5
135
330
FB
100
AcDbEntity
  8
0
  6
Continuous
 62
     0
370
    30
100
AcDbCircle
 10
109.373611
 20
422.576688
 30
0.0
 40
3.94999999999958
100
AcDbArc
 50
270.0
 51
319.791818
  0
ARC
  5
136
330
FB
100
AcDbEntity
  8
0
  6
Continuous
 62
     0
370
    30
100
AcDbCircle
 10
109.373611
 20
422.576688
 30
0.0
 40
3.44999999999282
100
AcDbArc
 50
270.0
 51
312.342885
  0
ARC
  5
137
330
FB
100
AcDbEntity
  8
0
  6
Continuous
 62
     0
370
    30
100
AcDbCircle
 10
109.373611
 20
422.576688
 30
0.0
 40
3.449999999992826
100
AcDbArc
 50
227.657115
 51
270.0
  0
LINE
  5
138
330
FB
100
AcDbEntity
  8
0
  6
Continuous
 62
     0
370
    30
100
AcDbLine
 10
109.373611
 20
413.576689
 30
0.0
 11
130.873611
 21
413.576689
 31
0.0
  0
LINE
  5
139
330
FB
100
AcDbEntity
  8
0
  6
Continuous
 62
     0
370
    30
100
AcDbLine
 10
87.873611
 20
413.576689
 30
0.0
 11
109.373611
 21
413.576689
 31
0.0
  0
LINE
  5
13A
330
FB
100
AcDbEntity
  8
0
  6
Continuous
 62
     0
370
    30
100
AcDbLine
 10
109.373611
 20
414.076689
 30
0.0
 11
131.373611
 21
414.076689
 31
0.0
  0
LINE
  5
13B
330
FB
100
AcDbEntity
  8
0
  6
Continuous
 62
     0
370
    30
100
AcDbLine
 10
87.373611
 20
414.076689
 30
0.0
 11
109.373611
 21
414.076689
 31
0.0
  0
LINE
  5
13C
330
FB
100
AcDbEntity
  8
0
  6
Continuous
 62
     0
370
     0
100
AcDbLine
 10
109.373611
 20
414.076689
 30
0.0
 11
109.373611
 21
418.626689
 31
0.0
  0
LINE
  5
13D
330
FB
100
AcDbEntity
  8
0
  6
Continuous
 62
     0
370
    30
100
AcDbLine
 10
120.373611
 20
463.576689
 30
0.0
 11
131.373107
 21
463.576689
 31
0.0
  0
LINE
  5
13E
330
FB
100
AcDbEntity
  8
0
  6
Continuous
 62
     0
370
    30
100
AcDbLine
 10
87.374116
 20
463.576689
 30
0.0
 11
98.373611
 21
463.576689
 31
0.0
  0
LWPOLYLINE
  5
13F
330
FB
100
AcDbEntity
  8
0
  6
Continuous
 62
     0
370
     0
100
AcDbPolyline
 90
       18
 70
     0
 43
0.0
 10
120.373611
 20
466.507324
 10
121.426552
 20
466.506866
 10
122.436218
 20
466.505737
 10
123.39901
 20
466.503998
 10
124.31134
 20
466.501587
 10
125.169853
 20
466.498566
 10
125.971443
 20
466.494904
 10
126.713058
 20
466.490662
 10
127.391678
 20
466.48584
 10
128.005142
 20
466.480438
 10
128.551743
 20
466.474487
 10
129.029709
 20
466.467987
 10
129.43721
 20
466.460999
 10
129.772873
 20
466.453491
 10
130.035385
 20
466.445557
 10
130.22345
 20
466.437164
 10
130.336151
 20
466.428406
 10
130.373413
 20
466.41925
  0
LWPOLYLINE
  5
140
330
FB
100
AcDbEntity
  8
0
  6
Continuous
 62
     0
370
     0
100
AcDbPolyline
 90
        9
 70
     0
 43
0.0
 10
91.343826
 20
466.326691
 10
92.022957
 20
466.337555
 10
92.766243
 20
466.348389
 10
93.570374
 20
466.359131
 10
94.43087
 20
466.369781
 10
95.344017
 20
466.380219
 10
96.307419
 20
466.390503
 10
97.318359
 20
466.400513
 10
98.373611
 20
466.410309
  0
LWPOLYLINE
  5
141
330
FB
100
AcDbEntity
  8
0
  6
Continuous
 62
     0
370
     0
100
AcDbPolyline
 90
       18
 70
     0
 43
0.0
 10
130.369598
 20
468.131042
 10
130.309433
 20
468.122223
 10
130.176834
 20
468.11377
 10
129.971985
 20
468.105652
 10
129.695801
 20
468.097961
 10
129.349243
 20
468.090729
 10
128.933502
 20
468.083954
 10
128.450241
 20
468.077698
 10
127.901306
 20
468.07196
 10
127.28849
 20
468.066742
 10
126.613609
 20
468.062073
 10
125.878777
 20
468.057983
 10
125.086815
 20
468.054504
 10
124.240631
 20
468.051575
 10
123.343163
 20
468.049255
 10
122.397331
 20
468.047577
 10
121.406273
 20
468.046509
 10
120.373611
 20
468.046051
  0
LINE
  5
142
330
FB
100
AcDbEntity
  8
0
  6
Continuous
 62
     0
370
    30
100
AcDbLine
 10
91.343829
 20
468.131046
 30
0.0
 11
98.373611
 21
468.131046
 31
0.0
  0
LINE
  5
143
330
FB
100
AcDbEntity
  8
0
  6
Continuous
 62
     0
370
     0
100
AcDbLine
 10
91.343829
 20
468.131046
 30
0.0
 11
91.343829
 21
466.326701
 31
0.0
  0
LWPOLYLINE
  5
144
330
FB
100
AcDbEntity
  8
0
  6
Continuous
 62
     0
370
     0
100
AcDbPolyline
 90
       10
 70
     0
 43
0.0
 10
88.37384
 20
466.419342
 10
88.411179
 20
466.409882
 10
88.523506
 20
466.400146
 10
88.710495
 20
466.390167
 10
88.971413
 20
466.379944
 10
89.305511
 20
466.369507
 10
89.711914
 20
466.358948
 10
90.188713
 20
466.348236
 10
90.733398
 20
466.337494
 10
91.343826
 20
466.326691
  0
LINE
  5
145
330
FB
100
AcDbEntity
  8
0
  6
Continuous
 62
     0
370
    30
100
AcDbLine
 10
88.373617
 20
468.131047
 30
0.0
 11
91.343829
 21
468.131046
 31
0.0
  0
LINE
  5
146
330
FB
100
AcDbEntity
  8
0
  6
Continuous
 62
     0
370
     0
100
AcDbLine
 10
91.601398
 20
466.02669
 30
0.0
 11
91.730182
 21
466.02669
 31
0.0
  0
LINE
  5
147
330
FB
100
AcDbEntity
  8
0
  6
Continuous
 62
     0
370
     0
100
AcDbLine
 10
91.447659
 20
466.029339
 30
0.0
 11
91.601398
 21
466.02669
 31
0.0
  0
LWPOLYLINE
  5
148
330
FB
100
AcDbEntity
  8
0
  6
Continuous
 62
     0
370
     0
100
AcDbPolyline
 90
       20
 70
     0
 43
0.0
 10
120.373611
 20
466.207306
 10
121.433777
 20
466.206726
 10
122.448059
 20
466.205444
 10
123.412621
 20
466.203491
 10
124.323776
 20
466.200867
 10
125.178062
 20
466.197601
 10
125.972229
 20
466.193665
 10
126.703262
 20
466.189087
 10
127.36837
 20
466.183899
 10
127.965034
 20
466.178101
 10
128.490982
 20
466.171753
 10
128.944199
 20
466.164825
 10
129.322983
 20
466.157379
 10
129.62587
 20
466.149445
 10
129.85173
 20
466.141052
 10
129.99968
 20
466.132202
 10
130.069183
 20
466.122955
 10
130.059952
 20
466.113373
 10
129.972046
 20
466.103424
 10
129.805771
 20
466.093201
  0
LWPOLYLINE
  5
149
330
FB
100
AcDbEntity
  8
0
  6
Continuous
 62
     0
370
     0
100
AcDbPolyline
 90
        9
 70
     0
 43
0.0
 10
91.601395
 20
466.026703
 10
92.258369
 20
466.037354
 10
92.974968
 20
466.047974
 10
93.748711
 20
466.058502
 10
94.576881
 20
466.068939
 10
95.456604
 20
466.079254
 10
96.384819
 20
466.089355
 10
97.358284
 20
466.099243
 10
98.373611
 20
466.108856
  0
LWPOLYLINE
  5
14A
330
FB
100
AcDbEntity
  8
0
  6
Continuous
 62
     0
370
     0
100
AcDbPolyline
 90
       19
 70
     0
 43
0.0
 10
129.852692
 20
466.105652
 10
129.917358
 20
466.115234
 10
129.906967
 20
466.124481
 10
129.821548
 20
466.133392
 10
129.661407
 20
466.141907
 10
129.427139
 20
466.149994
 10
129.119598
 20
466.157623
 10
128.739899
 20
466.164795
 10
128.289444
 20
466.171448
 10
127.769859
 20
466.177582
 10
127.183067
 20
466.183167
 10
126.531189
 20
466.188171
 10
125.81662
 20
466.192596
 10
125.041969
 20
466.196381
 10
124.210068
 20
466.199585
 10
123.323952
 20
466.202148
 10
122.386856
 20
466.204071
 10
121.402214
 20
466.205322
 10
120.373611
 20
466.205933
  0
LINE
  5
14B
330
FB
100
AcDbEntity
  8
0
  6
Continuous
 62
     0
370
     0
100
AcDbLine
 10
120.373611
 20
463.650954
 30
0.0
 11
129.623611
 21
463.650954
 31
0.0
  0
LINE
  5
14C
330
FB
100
AcDbEntity
  8
0
  6
Continuous
 62
     0
370
     0
100
AcDbLine
 10
91.98775
 20
463.650954
 30
0.0
 11
98.373611
 21
463.650954
 31
0.0
  0
LWPOLYLINE
  5
14D
330
FB
100
AcDbEntity
  8
0
  6
Continuous
 62
     0
370
     0
100
AcDbPolyline
 90
        8
 70
     0
 43
0.0
 10
98.373611
 20
465.806
 10
97.285492
 20
465.795319
 10
96.249763
 20
465.784332
 10
95.270157
 20
465.773132
 10
94.34967
 20
465.761688
 10
93.492287
 20
465.750092
 10
92.703499
 20
465.738403
 10
91.987747
 20
465.726685
  0
LWPOLYLINE
  5
14E
330
FB
100
AcDbEntity
  8
0
  6
Continuous
 62
     0
370
     0
100
AcDbPolyline
 90
       17
 70
     0
 43
0.0
 10
129.623428
 20
465.818634
 10
129.584091
 20
465.828033
 10
129.466354
 20
465.837067
 10
129.27034
 20
465.845642
 10
128.997147
 20
465.85379
 10
128.648148
 20
465.86142
 10
128.224731
 20
465.8685
 10
127.728546
 20
465.875061
 10
127.161537
 20
465.881042
 10
126.525612
 20
465.886414
 10
125.822647
 20
465.891174
 10
125.055405
 20
465.895294
 10
124.22718
 20
465.898773
 10
123.341309
 20
465.901581
 10
122.401207
 20
465.903717
 10
121.410683
 20
465.905151
 10
120.373611
 20
465.905914
  0
LINE
  5
14F
330
FB
100
AcDbEntity
  8
0
  6
Continuous
 62
     0
370
     0
100
AcDbLine
 10
91.98775
 20
465.726678
 30
0.0
 11
91.98775
 21
463.650954
 31
0.0
  0
LWPOLYLINE
  5
150
330
FB
100
AcDbEntity
  8
0
  6
Continuous
 62
     0
370
     0
100
AcDbPolyline
 90
       11
 70
     0
 43
0.0
 10
89.123611
 20
463.65094
 10
89.156395
 20
463.65094
 10
89.253525
 20
463.65094
 10
89.41272
 20
463.65094
 10
89.631218
 20
463.65094
 10
89.905815
 20
463.65094
 10
90.232964
 20
463.65094
 10
90.608826
 20
463.65094
 10
91.029358
 20
463.65094
 10
91.49041
 20
463.65094
 10
91.987747
 20
463.65094
  0
LWPOLYLINE
  5
151
330
FB
100
AcDbEntity
  8
0
  6
Continuous
 62
     0
370
     0
100
AcDbPolyline
 90
       10
 70
     0
 43
0.0
 10
91.987747
 20
465.726685
 10
91.398865
 20
465.737396
 10
90.873421
 20
465.748077
 10
90.413521
 20
465.758698
 10
90.021561
 20
465.769196
 10
89.699394
 20
465.779541
 10
89.447853
 20
465.789703
 10
89.267677
 20
465.799652
 10
89.159561
 20
465.809296
 10
89.123833
 20
465.818665
  0
ARC
  5
152
330
FB
100
AcDbEntity
  8
0
  6
Continuous
 62
     0
370
     0
100
AcDbCircle
 10
92.335016
 20
463.650876
 30
0.0
 40
0.3472655827280074
100
AcDbArc
 50
179.987093
 51
192.335209
  0
LWPOLYLINE
  5
153
330
FB
100
AcDbEntity
  8
0
  6
Continuous
 62
     0
370
     0
100
AcDbPolyline
 90
        5
 70
     0
 43
0.0
 10
91.730179
 20
466.026703
 10
91.828766
 20
466.003815
 10
91.912643
 20
465.938873
 10
91.9683
 20
465.841217
 10
91.987747
 20
465.726685
  0
LWPOLYLINE
  5
154
330
FB
100
AcDbEntity
  8
0
  6
Continuous
 62
     0
370
     0
100
AcDbPolyline
 90
        5
 70
     0
 43
0.0
 10
91.343826
 20
466.326691
 10
91.363632
 20
466.212158
 10
91.419487
 20
466.114502
 10
91.503273
 20
466.049561
 10
91.601395
 20
466.026703
  0
LINE
  5
155
330
FB
100
AcDbEntity
  8
0
  6
Continuous
 62
     0
370
    30
100
AcDbLine
 10
130.369586
 20
468.131047
 30
0.0
 11
120.373611
 21
468.130923
 31
0.0
  0
ARC
  5
156
330
FB
100
AcDbEntity
  8
0
  6
Continuous
 62
     0
370
    30
100
AcDbCircle
 10
173.873611
 20
469.511594
 30
0.0
 40
0.5000000000138725
100
AcDbArc
 50
271.749655
 51
0.000003
  0
LINE
  5
157
330
FB
100
AcDbEntity
  8
0
  6
Continuous
 62
     0
370
     0
100
AcDbLine
 10
120.373611
 20
469.011825
 30
0.0
 11
173.888878
 21
469.011828
 31
0.0
  0
LINE
  5
158
330
FB
100
AcDbEntity
  8
0
  6
Continuous
 62
     0
370
     0
100
AcDbLine
 10
44.858345
 20
469.011828
 30
0.0
 11
98.373611
 21
469.011825
 31
0.0
  0
LINE
  5
159
330
FB
100
AcDbEntity
  8
0
  6
Continuous
 62
     0
370
     0
100
AcDbLine
 10
98.373611
 20
469.511592
 30
0.0
 11
44.373611
 21
469.511594
 31
0.0
  0
LINE
  5
15A
330
FB
100
AcDbEntity
  8
0
  6
Continuous
 62
     0
370
     0
100
AcDbLine
 10
174.373611
 20
469.511594
 30
0.0
 11
120.373611
 21
469.511592
 31
0.0
  0
ARC
  5
15B
330
FB
100
AcDbEntity
  8
0
  6
Continuous
 62
     0
370
    30
100
AcDbCircle
 10
109.373611
 20
2581.02669
 30
0.0
 40
2112.999999999435
100
AcDbArc
 50
270.569442
 51
271.749658
  0
LINE
  5
15C
330
FB
100
AcDbEntity
  8
0
  6
Continuous
 62
     0
370
    30
100
AcDbLine
 10
44.373611
 20
469.511594
 30
0.0
 11
44.373611
 21
478.52669
 31
0.0
  0
LINE
  5
15D
330
FB
100
AcDbEntity
  8
0
  6
Continuous
 62
     0
370
    30
100
AcDbLine
 10
174.373611
 20
478.52669
 30
0.0
 11
174.373611
 21
469.511594
 31
0.0
  0
LINE
  5
15E
330
FB
100
AcDbEntity
  8
0
  6
Continuous
 62
     0
370
    30
100
AcDbLine
 10
79.373609
 20
478.526688
 30
0.0
 11
44.373611
 21
478.52669
 31
0.0
  0
LINE
  5
15F
330
FB
100
AcDbEntity
  8
0
  6
Continuous
 62
     0
370
    30
100
AcDbLine
 10
174.373611
 20
478.52669
 30
0.0
 11
139.373614
 21
478.526688
 31
0.0
  0
ARC
  5
160
330
FB
100
AcDbEntity
  8
0
  6
Continuous
 62
     0
370
    30
100
AcDbCircle
 10
109.374791
 20
2581.08495
 30
0.0
 40
2113.058268380391
100
AcDbArc
 50
268.250355
 51
269.430542
  0
ARC
  5
161
330
FB
100
AcDbEntity
  8
0
  6
Continuous
 62
     0
370
    30
100
AcDbCircle
 10
44.873703
 20
469.511683
 30
0.0
 40
0.5000914569364738
100
AcDbArc
 50
180.010159
 51
268.240183
  0
LWPOLYLINE
  5
162
330
FB
100
AcDbEntity
  8
0
  6
Continuous
 62
     0
370
    30
100
AcDbPolyline
 90
       60
 70
     0
 43
0.0
 10
91.59771
 20
466.026733
 10
91.500015
 20
466.028412
 10
91.403862
 20
466.03006
 10
91.309242
 20
466.031738
 10
91.216171
 20
466.033417
 10
91.124657
 20
466.035095
 10
91.034706
 20
466.036774
 10
90.946327
 20
466.038452
 10
90.85952
 20
466.040131
 10
90.7743
 20
466.041779
 10
90.690674
 20
466.043457
 10
90.608635
 20
466.045135
 10
90.528206
 20
466.046783
 10
90.449394
 20
466.048462
 10
90.372192
 20
466.05011
 10
90.296616
 20
466.051788
 10
90.222672
 20
466.053436
 10
90.150368
 20
466.055115
 10
90.079704
 20
466.056763
 10
90.010689
 20
466.058411
 10
89.943336
 20
466.060059
 10
89.87764
 20
466.061707
 10
89.813606
 20
466.063354
 10
89.751244
 20
466.065002
 10
89.690559
 20
466.06665
 10
89.631561
 20
466.068268
 10
89.574242
 20
466.069916
 10
89.518616
 20
466.071533
 10
89.464684
 20
466.073181
 10
89.412445
 20
466.074799
 10
89.3619
 20
466.076416
 10
89.313049
 20
466.078033
 10
89.2659
 20
466.079651
 10
89.220444
 20
466.081268
 10
89.176689
 20
466.082886
 10
89.134636
 20
466.084473
 10
89.094276
 20
466.08609
 10
89.055618
 20
466.087677
 10
89.018654
 20
466.089294
 10
88.983376
 20
466.090881
 10
88.949776
 20
466.092468
 10
88.917862
 20
466.094086
 10
88.887596
 20
466.095673
 10
88.858978
 20
466.09726
 10
88.831993
 20
466.098877
 10
88.806595
 20
466.100494
 10
88.782753
 20
466.102112
 10
88.760399
 20
466.10379
 10
88.739471
 20
466.105469
 10
88.719833
 20
466.107208
 10
88.701324
 20
466.109039
 10
88.683708
 20
466.110962
 10
88.66655
 20
466.113129
 10
88.648994
 20
466.115784
 10
88.62989
 20
466.119171
 10
88.605934
 20
466.124725
 10
88.570824
 20
466.135925
 10
88.508202
 20
466.16803
 10
88.418327
 20
466.261505
 10
88.37368
 20
466.419342
  0
LWPOLYLINE
  5
163
330
FB
100
AcDbEntity
  8
0
  6
Continuous
 62
     0
370
    30
100
AcDbPolyline
 90
       22
 70
     0
 43
0.0
 10
129.804901
 20
466.092834
 10
129.833176
 20
466.094269
 10
129.860123
 20
466.095703
 10
129.885742
 20
466.097137
 10
129.91008
 20
466.098572
 10
129.933136
 20
466.100006
 10
129.954941
 20
466.101471
 10
129.97551
 20
466.102936
 10
129.994919
 20
466.104401
 10
130.013245
 20
466.105927
 10
130.030563
 20
466.107513
 10
130.047012
 20
466.109131
 10
130.062744
 20
466.11087
 10
130.078033
 20
466.112762
 10
130.093567
 20
466.115021
 10
130.110107
 20
466.117828
 10
130.129211
 20
466.121765
 10
130.154221
 20
466.128387
 10
130.192307
 20
466.142456
 10
130.256958
 20
466.181244
 10
130.337219
 20
466.27597
 10
130.373535
 20
466.419342
  0
LWPOLYLINE
  5
164
330
FB
100
AcDbEntity
  8
0
  6
Continuous
 62
     0
370
    30
100
AcDbPolyline
 90
        8
 70
     0
 43
0.0
 10
129.62355
 20
465.818634
 10
129.65657
 20
465.95517
 10
129.731476
 20
466.048431
 10
129.793488
 20
466.087799
 10
129.826233
 20
466.100616
 10
129.843002
 20
466.105408
 10
129.850433
 20
466.106964
 10
129.852524
 20
466.107361
  0
LWPOLYLINE
  5
165
330
FB
100
AcDbEntity
  8
0
  6
Continuous
 62
     0
370
    30
100
AcDbPolyline
 90
        5
 70
     0
 43
0.0
 10
89.12368
 20
465.818634
 10
89.101006
 20
465.932709
 10
89.044044
 20
466.021667
 10
88.983574
 20
466.071716
 10
88.942192
 20
466.092834
  0
ARC
  5
166
330
FB
100
AcDbEntity
  8
0
  6
Continuous
 62
     0
370
    30
100
AcDbCircle
 10
129.323214
 20
463.650995
 30
0.0
 40
0.3003205669759583
100
AcDbArc
 50
345.672845
 51
359.992324
  0
ARC
  5
167
330
FB
100
AcDbEntity
  8
0
  6
Continuous
 62
     0
370
    30
100
AcDbCircle
 10
89.424015
 20
463.650996
 30
0.0
 40
0.300323452276148
100
AcDbArc
 50
180.007862
 51
194.329096
  0
LINE
  5
168
330
FB
100
AcDbEntity
  8
0
  6
Continuous
 62
     0
370
    30
100
AcDbLine
 10
89.123611
 20
463.650954
 30
0.0
 11
89.123611
 21
465.818637
 31
0.0
  0
LINE
  5
169
330
FB
100
AcDbEntity
  8
0
  6
Continuous
 62
     0
370
    30
100
AcDbLine
 10
129.623611
 20
463.650954
 30
0.0
 11
129.623611
 21
465.818624
 31
0.0
  0
LINE
  5
16A
330
FB
100
AcDbEntity
  8
0
  6
Continuous
 62
     0
370
    30
100
AcDbLine
 10
88.373611
 20
466.419331
 30
0.0
 11
88.373611
 21
468.131047
 31
0.0
  0
LINE
  5
16B
330
FB
100
AcDbEntity
  8
0
  6
Continuous
 62
     0
370
    30
100
AcDbLine
 10
130.373611
 20
466.419314
 30
0.0
 11
130.373611
 21
468.131047
 31
0.0
  0
LINE
  5
16C
330
FB
100
AcDbEntity
  8
0
  6
Continuous
 62
     0
370
    30
100
AcDbLine
 10
87.373611
 20
414.076689
 30
0.0
 11
87.374116
 21
463.576689
 31
0.0
  0
LINE
  5
16D
330
FB
100
AcDbEntity
  8
0
  6
Continuous
 62
     0
370
    30
100
AcDbLine
 10
131.373611
 20
414.076689
 30
0.0
 11
131.373107
 21
463.576689
 31
0.0
  0
LINE
  5
16E
330
FB
100
AcDbEntity
  8
0
  6
Continuous
 62
     0
370
    30
100
AcDbLine
 10
131.373611
 20
414.076689
 30
0.0
 11
130.873632
 21
413.57671
 31
0.0
  0
LINE
  5
16F
330
FB
100
AcDbEntity
  8
0
  6
Continuous
 62
     0
370
    30
100
AcDbLine
 10
87.373611
 20
414.076689
 30
0.0
 11
87.873591
 21
413.57671
 31
0.0
  0
ENDBLK
  5
171
330
FB
100
AcDbEntity
  8
0
100
AcDbBlockEnd
  0
BLOCK
  5
230
330
173
100
AcDbEntity
  8
0
100
AcDbBlockBegin
  2
c
 70
     0
 10
73.501144
 20
98.419441
 30
0.0
  3
c
  1

  0
LWPOLYLINE
  5
174
330
173
100
AcDbEntity
  8
0
  6
Continuous
 62
     0
370
    30
100
AcDbPolyline
 90
       62
 70
     0
 43
0.0
 10
306.342773
 20
792.490601
 10
306.342773
 20
792.450928
 10
306.342773
 20
792.331543
 10
306.342773
 20
792.133057
 10
306.342773
 20
791.85614
 10
306.342773
 20
791.501587
 10
306.342773
 20
791.070007
 10
306.342773
 20
790.562256
 10
306.342773
 20
789.979919
 10
306.342773
 20
789.324829
 10
306.342773
 20
788.598877
 10
306.342773
 20
787.803894
 10
306.342773
 20
786.941772
 10
306.342773
 20
786.014465
 10
306.342773
 20
785.024536
 10
306.342773
 20
783.974915
 10
306.342773
 20
782.868591
 10
306.342773
 20
781.708374
 10
306.342773
 20
780.497192
 10
306.342773
 20
779.238037
 10
306.342773
 20
777.934326
 10
306.342773
 20
776.589722
 10
306.342773
 20
775.207825
 10
306.342773
 20
773.792358
 10
306.342773
 20
772.346924
 10
306.342773
 20
770.875244
 10
306.342773
 20
769.381287
 10
306.342773
 20
767.868958
 10
306.342773
 20
766.342468
 10
306.342773
 20
764.805786
 10
306.342773
 20
763.263
 10
306.342773
 20
761.718201
 10
306.342773
 20
760.175415
 10
306.342773
 20
758.638733
 10
306.342773
 20
757.112183
 10
306.342773
 20
755.599915
 10
306.342773
 20
754.105896
 10
306.342773
 20
752.634216
 10
306.342773
 20
751.188843
 10
306.342773
 20
749.773376
 10
306.342773
 20
748.391479
 10
306.342773
 20
747.046814
 10
306.342773
 20
745.743103
 10
306.342773
 20
744.483948
 10
306.342773
 20
743.272827
 10
306.342773
 20
742.11261
 10
306.342773
 20
741.006226
 10
306.342773
 20
739.956604
 10
306.342773
 20
738.966675
 10
306.342773
 20
738.039368
 10
306.342773
 20
737.177246
 10
306.342773
 20
736.382263
 10
306.342773
 20
735.656311
 10
306.342773
 20
735.001282
 10
306.342773
 20
734.418884
 10
306.342773
 20
733.911133
 10
306.342773
 20
733.479553
 10
306.342773
 20
733.125
 10
306.342773
 20
732.848145
 10
306.342773
 20
732.649658
 10
306.342773
 20
732.530212
 10
306.342773
 20
732.490601
  0
LINE
  5
175
330
173
100
AcDbEntity
  8
0
  6
Continuous
 62
     0
370
    30
100
AcDbLine
 10
306.342763
 20
792.490583
 30
0.0
 11
300.342763
 21
792.490583
 31
0.0
  0
LINE
  5
176
330
173
100
AcDbEntity
  8
0
  6
Continuous
 62
     0
370
    30
100
AcDbLine
 10
300.342763
 20
792.490583
 30
0.0
 11
300.342763
 21
732.490578
 31
0.0
  0
LINE
  5
177
330
173
100
AcDbEntity
  8
0
  6
Continuous
 62
     0
370
    30
100
AcDbLine
 10
306.342763
 20
732.490578
 30
0.0
 11
300.342763
 21
732.490578
 31
0.0
  0
ARC
  5
178
330
173
100
AcDbEntity
  8
0
  6
Continuous
 62
     0
370
    30
100
AcDbCircle
 10
339.342753
 20
774.99058
 30
0.0
 40
1.500000000014694
100
AcDbArc
 50
270.0
 51
360.0
  0
LINE
  5
179
330
173
100
AcDbEntity
  8
0
  6
Continuous
 62
     0
370
     0
100
AcDbLine
 10
339.342753
 20
773.49058
 30
0.0
 11
339.342753
 21
773.329722
 31
0.0
  0
LWPOLYLINE
  5
17A
330
173
100
AcDbEntity
  8
0
  6
Continuous
 62
     0
370
     0
100
AcDbPolyline
 90
        8
 70
     0
 43
0.0
 10
339.342743
 20
773.329712
 10
339.675995
 20
773.366882
 10
339.993683
 20
773.476135
 10
340.278046
 20
773.652283
 10
340.515411
 20
773.886169
 10
340.694183
 20
774.166382
 10
340.805054
 20
774.479431
 10
340.842743
 20
774.8078
  0
LWPOLYLINE
  5
17B
330
173
100
AcDbEntity
  8
0
  6
Continuous
 62
     0
370
     0
100
AcDbPolyline
 90
        9
 70
     0
 43
0.0
 10
352.683319
 20
774.414307
 10
351.272858
 20
774.234253
 10
349.822418
 20
774.085815
 10
348.341614
 20
773.983215
 10
346.843018
 20
773.947754
 10
345.344543
 20
773.986755
 10
343.863708
 20
774.089294
 10
342.413147
 20
774.236084
 10
341.002167
 20
774.411377
  0
LWPOLYLINE
  5
17C
330
173
100
AcDbEntity
  8
0
  6
Continuous
 62
     0
370
     0
100
AcDbPolyline
 90
        7
 70
     0
 43
0.0
 10
341.002167
 20
774.411377
 10
340.955963
 20
774.095032
 10
340.886932
 20
773.791687
 10
340.798309
 20
773.517395
 10
340.694092
 20
773.28418
 10
340.578796
 20
773.102539
 10
340.458557
 20
772.980896
  0
LWPOLYLINE
  5
17D
330
173
100
AcDbEntity
  8
0
  6
Continuous
 62
     0
370
     0
100
AcDbPolyline
 90
        8
 70
     0
 43
0.0
 10
340.458557
 20
772.980896
 10
342.14502
 20
772.810486
 10
343.871002
 20
772.673279
 10
345.624939
 20
772.590393
 10
347.391571
 20
772.575989
 10
349.152313
 20
772.634277
 10
350.890289
 20
772.753418
 10
352.592987
 20
772.913757
  0
LWPOLYLINE
  5
17E
330
173
100
AcDbEntity
  8
0
  6
Continuous
 62
     0
370
     0
100
AcDbPolyline
 90
        7
 70
     0
 43
0.0
 10
352.592987
 20
772.913757
 10
352.611572
 20
773.050293
 10
352.629242
 20
773.242065
 10
352.64621
 20
773.482849
 10
352.661591
 20
773.765808
 10
352.674286
 20
774.082031
 10
352.683319
 20
774.414307
  0
LINE
  5
17F
330
173
100
AcDbEntity
  8
0
  6
Continuous
 62
     0
370
    30
100
AcDbLine
 10
306.342763
 20
751.49058
 30
0.0
 11
352.592753
 21
751.49058
 31
0.0
  0
LINE
  5
180
330
173
100
AcDbEntity
  8
0
  6
Continuous
 62
     0
370
     0
100
AcDbLine
 10
352.592753
 20
751.49058
 30
0.0
 11
352.592753
 21
772.913739
 31
0.0
  0
LWPOLYLINE
  5
181
330
173
100
AcDbEntity
  8
0
  6
Continuous
 62
     0
370
     0
100
AcDbPolyline
 90
        7
 70
     0
 43
0.0
 10
340.458557
 20
772.980896
 10
340.16214
 20
773.021545
 10
339.894653
 20
773.074829
 10
339.66745
 20
773.13678
 10
339.492676
 20
773.203186
 10
339.381592
 20
773.269348
 10
339.342743
 20
773.329712
  0
LINE
  5
182
330
173
100
AcDbEntity
  8
0
  6
Continuous
 62
     0
370
    30
100
AcDbLine
 10
339.342753
 20
773.49058
 30
0.0
 11
306.342763
 21
773.49058
 31
0.0
  0
LINE
  5
183
330
173
100
AcDbEntity
  8
0
  6
Continuous
 62
     0
370
     0
100
AcDbLine
 10
341.002154
 20
822.307749
 30
0.0
 11
340.842753
 21
822.307749
 31
0.0
  0
LINE
  5
184
330
173
100
AcDbEntity
  8
0
  6
Continuous
 62
     0
370
    30
100
AcDbLine
 10
340.842753
 20
822.307749
 30
0.0
 11
340.842753
 21
774.807786
 31
0.0
  0
LWPOLYLINE
  5
185
330
173
100
AcDbEntity
  8
0
  6
Continuous
 62
     0
370
     0
100
AcDbPolyline
 90
        5
 70
     0
 43
0.0
 10
340.842743
 20
774.8078
 10
340.853668
 20
774.707947
 10
340.882935
 20
774.604858
 10
340.929932
 20
774.502686
 10
341.002167
 20
774.411377
  0
LINE
  5
186
330
173
100
AcDbEntity
  8
0
  6
Continuous
 62
     0
370
     0
100
AcDbLine
 10
341.002154
 20
774.411377
 30
0.0
 11
341.002154
 21
822.307749
 31
0.0
  0
ARC
  5
187
330
173
100
AcDbEntity
  8
0
  6
Continuous
 62
     0
370
    30
100
AcDbCircle
 10
352.592753
 20
751.74058
 30
0.0
 40
0.2500000000513154
100
AcDbArc
 50
270.0
 51
360.0
  0
LWPOLYLINE
  5
188
330
173
100
AcDbEntity
  8
0
  6
Continuous
 62
     0
370
     0
100
AcDbPolyline
 90
        4
 70
     0
 43
0.0
 10
352.842743
 20
772.676636
 10
352.809265
 20
772.795105
 10
352.717743
 20
772.881836
 10
352.592743
 20
772.913574
  0
LINE
  5
189
330
173
100
AcDbEntity
  8
0
  6
Continuous
 62
     0
370
     0
100
AcDbLine
 10
352.683352
 20
822.307749
 30
0.0
 11
352.683352
 21
774.41429
 31
0.0
  0
LINE
  5
18A
330
173
100
AcDbEntity
  8
0
  6
Continuous
 62
     0
370
     0
100
AcDbLine
 10
352.683352
 20
774.41429
 30
0.0
 11
352.842753
 21
774.414267
 31
0.0
  0
LINE
  5
18B
330
173
100
AcDbEntity
  8
0
  6
Continuous
 62
     0
370
    30
100
AcDbLine
 10
352.842753
 20
774.414267
 30
0.0
 11
352.842753
 21
822.307749
 31
0.0
  0
LWPOLYLINE
  5
18C
330
173
100
AcDbEntity
  8
0
  6
Continuous
 62
     0
370
     0
100
AcDbPolyline
 90
        4
 70
     0
 43
0.0
 10
352.842743
 20
822.307739
 10
352.821991
 20
822.307739
 10
352.768829
 20
822.307739
 10
352.68335
 20
822.307739
  0
LINE
  5
18D
330
173
100
AcDbEntity
  8
0
  6
Continuous
 62
     0
370
     0
100
AcDbLine
 10
352.683352
 20
822.307749
 30
0.0
 11
346.842753
 21
822.307749
 31
0.0
  0
LINE
  5
18E
330
173
100
AcDbEntity
  8
0
  6
Continuous
 62
     0
370
     0
100
AcDbLine
 10
346.842753
 20
822.307749
 30
0.0
 11
341.002154
 21
822.307749
 31
0.0
  0
ARC
  5
18F
330
173
100
AcDbEntity
  8
0
  6
Continuous
 62
     0
370
    30
100
AcDbCircle
 10
346.842753
 20
822.307749
 30
0.0
 40
6.000000000002636
100
AcDbArc
 50
90.0
 51
180.0
  0
ARC
  5
190
330
173
100
AcDbEntity
  8
0
  6
Continuous
 62
     0
370
     0
100
AcDbCircle
 10
346.842072
 20
822.307068
 30
0.0
 40
5.841280374626129
100
AcDbArc
 50
0.006679
 51
89.993321
  0
ARC
  5
191
330
173
100
AcDbEntity
  8
0
  6
Continuous
 62
     0
370
     0
100
AcDbCircle
 10
346.843434
 20
822.307068
 30
0.0
 40
5.841280374639096
100
AcDbArc
 50
90.006679
 51
179.993321
  0
ARC
  5
192
330
173
100
AcDbEntity
  8
0
  6
Continuous
 62
     0
370
    30
100
AcDbCircle
 10
346.842753
 20
822.307749
 30
0.0
 40
5.999999999997812
100
AcDbArc
 50
0.0
 51
90.0
  0
LINE
  5
193
330
173
100
AcDbEntity
  8
0
  6
Continuous
 62
     0
370
     0
100
AcDbLine
 10
346.842753
 20
828.307749
 30
0.0
 11
346.842753
 21
828.148349
 31
0.0
  0
LINE
  5
194
330
173
100
AcDbEntity
  8
0
  6
Continuous
 62
     0
370
    30
100
AcDbLine
 10
352.842753
 20
773.165339
 30
0.0
 11
352.842753
 21
774.414267
 31
0.0
  0
LINE
  5
195
330
173
100
AcDbEntity
  8
0
  6
Continuous
 62
     0
370
    30
100
AcDbLine
 10
358.842753
 20
773.49073
 30
0.0
 11
358.842753
 21
762.49058
 31
0.0
  0
LINE
  5
196
330
173
100
AcDbEntity
  8
0
  6
Continuous
 62
     0
370
    30
100
AcDbLine
 10
358.842753
 20
762.49058
 30
0.0
 11
358.842753
 21
751.490431
 31
0.0
  0
LINE
  5
197
330
173
100
AcDbEntity
  8
0
  6
Continuous
 62
     0
370
    30
100
AcDbLine
 10
352.842753
 20
773.165339
 30
0.0
 11
352.842753
 21
762.49058
 31
0.0
  0
LINE
  5
198
330
173
100
AcDbEntity
  8
0
  6
Continuous
 62
     0
370
    30
100
AcDbLine
 10
352.842753
 20
762.49058
 30
0.0
 11
352.842753
 21
751.49058
 31
0.0
  0
LINE
  5
199
330
173
100
AcDbEntity
  8
0
  6
Continuous
 62
     0
370
    30
100
AcDbLine
 10
358.842753
 20
751.49058
 30
0.0
 11
352.842753
 21
751.49058
 31
0.0
  0
LINE
  5
19A
330
173
100
AcDbEntity
  8
0
  6
Continuous
 62
     0
370
    30
100
AcDbLine
 10
358.842753
 20
773.49058
 30
0.0
 11
352.842753
 21
773.49058
 31
0.0
  0
LWPOLYLINE
  5
19B
330
173
100
AcDbEntity
  8
0
  6
Continuous
 62
     0
370
    30
100
AcDbPolyline
 90
       62
 70
     0
 43
0.0
 10
306.342773
 20
892.490601
 10
306.342773
 20
892.450928
 10
306.342773
 20
892.331543
 10
306.342773
 20
892.133057
 10
306.342773
 20
891.85614
 10
306.342773
 20
891.501587
 10
306.342773
 20
891.070007
 10
306.342773
 20
890.562256
 10
306.342773
 20
889.979919
 10
306.342773
 20
889.324829
 10
306.342773
 20
888.598877
 10
306.342773
 20
887.803894
 10
306.342773
 20
886.941772
 10
306.342773
 20
886.014465
 10
306.342773
 20
885.024536
 10
306.342773
 20
883.974915
 10
306.342773
 20
882.868591
 10
306.342773
 20
881.708374
 10
306.342773
 20
880.497192
 10
306.342773
 20
879.238037
 10
306.342773
 20
877.934326
 10
306.342773
 20
876.589722
 10
306.342773
 20
875.207825
 10
306.342773
 20
873.792358
 10
306.342773
 20
872.346924
 10
306.342773
 20
870.875244
 10
306.342773
 20
869.381287
 10
306.342773
 20
867.868958
 10
306.342773
 20
866.342468
 10
306.342773
 20
864.805786
 10
306.342773
 20
863.263
 10
306.342773
 20
861.718201
 10
306.342773
 20
860.175415
 10
306.342773
 20
858.638733
 10
306.342773
 20
857.112183
 10
306.342773
 20
855.599915
 10
306.342773
 20
854.105896
 10
306.342773
 20
852.634216
 10
306.342773
 20
851.188843
 10
306.342773
 20
849.773376
 10
306.342773
 20
848.391479
 10
306.342773
 20
847.046814
 10
306.342773
 20
845.743103
 10
306.342773
 20
844.483948
 10
306.342773
 20
843.272827
 10
306.342773
 20
842.11261
 10
306.342773
 20
841.006226
 10
306.342773
 20
839.956604
 10
306.342773
 20
838.966675
 10
306.342773
 20
838.039368
 10
306.342773
 20
837.177246
 10
306.342773
 20
836.382263
 10
306.342773
 20
835.656311
 10
306.342773
 20
835.001282
 10
306.342773
 20
834.418884
 10
306.342773
 20
833.911133
 10
306.342773
 20
833.479553
 10
306.342773
 20
833.125
 10
306.342773
 20
832.848145
 10
306.342773
 20
832.649658
 10
306.342773
 20
832.530212
 10
306.342773
 20
832.490601
  0
LINE
  5
19C
330
173
100
AcDbEntity
  8
0
  6
Continuous
 62
     0
370
    30
100
AcDbLine
 10
306.342763
 20
892.490583
 30
0.0
 11
300.342763
 21
892.490583
 31
0.0
  0
LINE
  5
19D
330
173
100
AcDbEntity
  8
0
  6
Continuous
 62
     0
370
    30
100
AcDbLine
 10
300.342763
 20
892.490583
 30
0.0
 11
300.342763
 21
832.490578
 31
0.0
  0
LINE
  5
19E
330
173
100
AcDbEntity
  8
0
  6
Continuous
 62
     0
370
    30
100
AcDbLine
 10
306.342763
 20
832.490578
 30
0.0
 11
300.342763
 21
832.490578
 31
0.0
  0
ARC
  5
19F
330
173
100
AcDbEntity
  8
0
  6
Continuous
 62
     0
370
    30
100
AcDbCircle
 10
339.342753
 20
874.99058
 30
0.0
 40
1.500000000017824
100
AcDbArc
 50
270.0
 51
360.0
  0
LINE
  5
1A0
330
173
100
AcDbEntity
  8
0
  6
Continuous
 62
     0
370
     0
100
AcDbLine
 10
339.342753
 20
873.49058
 30
0.0
 11
339.342753
 21
873.329722
 31
0.0
  0
LWPOLYLINE
  5
1A1
330
173
100
AcDbEntity
  8
0
  6
Continuous
 62
     0
370
     0
100
AcDbPolyline
 90
        8
 70
     0
 43
0.0
 10
339.342743
 20
873.329712
 10
339.675995
 20
873.366882
 10
339.993683
 20
873.476135
 10
340.278046
 20
873.652283
 10
340.515411
 20
873.886169
 10
340.694183
 20
874.166382
 10
340.805054
 20
874.479431
 10
340.842743
 20
874.8078
  0
LWPOLYLINE
  5
1A2
330
173
100
AcDbEntity
  8
0
  6
Continuous
 62
     0
370
     0
100
AcDbPolyline
 90
        9
 70
     0
 43
0.0
 10
352.683319
 20
874.414307
 10
351.272858
 20
874.234253
 10
349.822418
 20
874.085815
 10
348.341614
 20
873.983215
 10
346.843018
 20
873.947754
 10
345.344543
 20
873.986755
 10
343.863708
 20
874.089294
 10
342.413147
 20
874.236084
 10
341.002167
 20
874.411377
  0
LWPOLYLINE
  5
1A3
330
173
100
AcDbEntity
  8
0
  6
Continuous
 62
     0
370
     0
100
AcDbPolyline
 90
        7
 70
     0
 43
0.0
 10
341.002167
 20
874.411377
 10
340.955963
 20
874.095032
 10
340.886932
 20
873.791687
 10
340.798309
 20
873.517395
 10
340.694092
 20
873.28418
 10
340.578796
 20
873.102539
 10
340.458557
 20
872.980896
  0
LWPOLYLINE
  5
1A4
330
173
100
AcDbEntity
  8
0
  6
Continuous
 62
     0
370
     0
100
AcDbPolyline
 90
        8
 70
     0
 43
0.0
 10
340.458557
 20
872.980896
 10
342.14502
 20
872.810486
 10
343.871002
 20
872.673279
 10
345.624939
 20
872.590393
 10
347.391571
 20
872.575989
 10
349.152313
 20
872.634277
 10
350.890289
 20
872.753418
 10
352.592987
 20
872.913757
  0
LWPOLYLINE
  5
1A5
330
173
100
AcDbEntity
  8
0
  6
Continuous
 62
     0
370
     0
100
AcDbPolyline
 90
        7
 70
     0
 43
0.0
 10
352.592987
 20
872.913757
 10
352.611572
 20
873.050293
 10
352.629242
 20
873.242065
 10
352.64621
 20
873.482849
 10
352.661591
 20
873.765808
 10
352.674286
 20
874.082031
 10
352.683319
 20
874.414307
  0
LINE
  5
1A6
330
173
100
AcDbEntity
  8
0
  6
Continuous
 62
     0
370
    30
100
AcDbLine
 10
306.342763
 20
851.49058
 30
0.0
 11
352.592753
 21
851.49058
 31
0.0
  0
LINE
  5
1A7
330
173
100
AcDbEntity
  8
0
  6
Continuous
 62
     0
370
     0
100
AcDbLine
 10
352.592753
 20
851.49058
 30
0.0
 11
352.592753
 21
872.913739
 31
0.0
  0
LWPOLYLINE
  5
1A8
330
173
100
AcDbEntity
  8
0
  6
Continuous
 62
     0
370
     0
100
AcDbPolyline
 90
        7
 70
     0
 43
0.0
 10
340.458557
 20
872.980896
 10
340.16214
 20
873.021545
 10
339.894653
 20
873.074829
 10
339.66745
 20
873.13678
 10
339.492676
 20
873.203186
 10
339.381592
 20
873.269348
 10
339.342743
 20
873.329712
  0
LINE
  5
1A9
330
173
100
AcDbEntity
  8
0
  6
Continuous
 62
     0
370
    30
100
AcDbLine
 10
339.342753
 20
873.49058
 30
0.0
 11
306.342763
 21
873.49058
 31
0.0
  0
LINE
  5
1AA
330
173
100
AcDbEntity
  8
0
  6
Continuous
 62
     0
370
     0
100
AcDbLine
 10
341.002154
 20
922.307749
 30
0.0
 11
340.842753
 21
922.307749
 31
0.0
  0
LINE
  5
1AB
330
173
100
AcDbEntity
  8
0
  6
Continuous
 62
     0
370
    30
100
AcDbLine
 10
340.842753
 20
922.307749
 30
0.0
 11
340.842753
 21
874.807786
 31
0.0
  0
LWPOLYLINE
  5
1AC
330
173
100
AcDbEntity
  8
0
  6
Continuous
 62
     0
370
     0
100
AcDbPolyline
 90
        5
 70
     0
 43
0.0
 10
340.842743
 20
874.8078
 10
340.853668
 20
874.707947
 10
340.882935
 20
874.604858
 10
340.929932
 20
874.502686
 10
341.002167
 20
874.411377
  0
LINE
  5
1AD
330
173
100
AcDbEntity
  8
0
  6
Continuous
 62
     0
370
     0
100
AcDbLine
 10
341.002154
 20
874.411377
 30
0.0
 11
341.002154
 21
922.307749
 31
0.0
  0
ARC
  5
1AE
330
173
100
AcDbEntity
  8
0
  6
Continuous
 62
     0
370
    30
100
AcDbCircle
 10
352.592753
 20
851.74058
 30
0.0
 40
0.2500000000337046
100
AcDbArc
 50
270.0
 51
360.0
  0
LWPOLYLINE
  5
1AF
330
173
100
AcDbEntity
  8
0
  6
Continuous
 62
     0
370
     0
100
AcDbPolyline
 90
        4
 70
     0
 43
0.0
 10
352.842743
 20
872.676636
 10
352.809265
 20
872.795105
 10
352.717743
 20
872.881836
 10
352.592743
 20
872.913574
  0
LINE
  5
1B0
330
173
100
AcDbEntity
  8
0
  6
Continuous
 62
     0
370
     0
100
AcDbLine
 10
352.683352
 20
922.307749
 30
0.0
 11
352.683352
 21
874.41429
 31
0.0
  0
LINE
  5
1B1
330
173
100
AcDbEntity
  8
0
  6
Continuous
 62
     0
370
     0
100
AcDbLine
 10
352.683352
 20
874.41429
 30
0.0
 11
352.842753
 21
874.414267
 31
0.0
  0
LINE
  5
1B2
330
173
100
AcDbEntity
  8
0
  6
Continuous
 62
     0
370
    30
100
AcDbLine
 10
352.842753
 20
874.414267
 30
0.0
 11
352.842753
 21
922.307749
 31
0.0
  0
LWPOLYLINE
  5
1B3
330
173
100
AcDbEntity
  8
0
  6
Continuous
 62
     0
370
     0
100
AcDbPolyline
 90
        5
 70
     0
 43
0.0
 10
352.842743
 20
922.307739
 10
352.842163
 20
922.307739
 10
352.799072
 20
922.307739
 10
352.798706
 20
922.307739
 10
352.68335
 20
922.307739
  0
LINE
  5
1B4
330
173
100
AcDbEntity
  8
0
  6
Continuous
 62
     0
370
     0
100
AcDbLine
 10
352.683352
 20
922.307749
 30
0.0
 11
346.842753
 21
922.307749
 31
0.0
  0
LINE
  5
1B5
330
173
100
AcDbEntity
  8
0
  6
Continuous
 62
     0
370
     0
100
AcDbLine
 10
346.842753
 20
922.307749
 30
0.0
 11
341.002154
 21
922.307749
 31
0.0
  0
ARC
  5
1B6
330
173
100
AcDbEntity
  8
0
  6
Continuous
 62
     0
370
    30
100
AcDbCircle
 10
346.842753
 20
922.307749
 30
0.0
 40
6.000000000001537
100
AcDbArc
 50
90.0
 51
180.0
  0
ARC
  5
1B7
330
173
100
AcDbEntity
  8
0
  6
Continuous
 62
     0
370
     0
100
AcDbCircle
 10
346.842072
 20
922.307068
 30
0.0
 40
5.841280374627688
100
AcDbArc
 50
0.006679
 51
89.993321
  0
ARC
  5
1B8
330
173
100
AcDbEntity
  8
0
  6
Continuous
 62
     0
370
     0
100
AcDbCircle
 10
346.843434
 20
922.307068
 30
0.0
 40
5.841280374637464
100
AcDbArc
 50
90.006679
 51
179.993321
  0
ARC
  5
1B9
330
173
100
AcDbEntity
  8
0
  6
Continuous
 62
     0
370
    30
100
AcDbCircle
 10
346.842753
 20
922.307749
 30
0.0
 40
6.000000000001449
100
AcDbArc
 50
0.0
 51
90.0
  0
LINE
  5
1BA
330
173
100
AcDbEntity
  8
0
  6
Continuous
 62
     0
370
     0
100
AcDbLine
 10
346.842753
 20
928.307749
 30
0.0
 11
346.842753
 21
928.148349
 31
0.0
  0
LINE
  5
1BB
330
173
100
AcDbEntity
  8
0
  6
Continuous
 62
     0
370
    30
100
AcDbLine
 10
352.842753
 20
873.165339
 30
0.0
 11
352.842753
 21
874.414267
 31
0.0
  0
LINE
  5
1BC
330
173
100
AcDbEntity
  8
0
  6
Continuous
 62
     0
370
    30
100
AcDbLine
 10
358.842753
 20
873.49073
 30
0.0
 11
358.842753
 21
862.49058
 31
0.0
  0
LINE
  5
1BD
330
173
100
AcDbEntity
  8
0
  6
Continuous
 62
     0
370
    30
100
AcDbLine
 10
358.842753
 20
862.49058
 30
0.0
 11
358.842753
 21
851.490431
 31
0.0
  0
LINE
  5
1BE
330
173
100
AcDbEntity
  8
0
  6
Continuous
 62
     0
370
    30
100
AcDbLine
 10
352.842753
 20
873.165339
 30
0.0
 11
352.842753
 21
862.49058
 31
0.0
  0
LINE
  5
1BF
330
173
100
AcDbEntity
  8
0
  6
Continuous
 62
     0
370
    30
100
AcDbLine
 10
352.842753
 20
862.49058
 30
0.0
 11
352.842753
 21
851.49058
 31
0.0
  0
LINE
  5
1C0
330
173
100
AcDbEntity
  8
0
  6
Continuous
 62
     0
370
    30
100
AcDbLine
 10
358.842753
 20
851.49058
 30
0.0
 11
352.842753
 21
851.49058
 31
0.0
  0
LINE
  5
1C1
330
173
100
AcDbEntity
  8
0
  6
Continuous
 62
     0
370
    30
100
AcDbLine
 10
358.842753
 20
873.49058
 30
0.0
 11
352.842753
 21
873.49058
 31
0.0
  0
LWPOLYLINE
  5
1C2
330
173
100
AcDbEntity
  8
0
  6
Continuous
 62
     0
370
    30
100
AcDbPolyline
 90
       62
 70
     0
 43
0.0
 10
306.342773
 20
992.490601
 10
306.342773
 20
992.450928
 10
306.342773
 20
992.331543
 10
306.342773
 20
992.133057
 10
306.342773
 20
991.85614
 10
306.342773
 20
991.501587
 10
306.342773
 20
991.070007
 10
306.342773
 20
990.562256
 10
306.342773
 20
989.979919
 10
306.342773
 20
989.324829
 10
306.342773
 20
988.598877
 10
306.342773
 20
987.803894
 10
306.342773
 20
986.941772
 10
306.342773
 20
986.014465
 10
306.342773
 20
985.024536
 10
306.342773
 20
983.974915
 10
306.342773
 20
982.868591
 10
306.342773
 20
981.708374
 10
306.342773
 20
980.497192
 10
306.342773
 20
979.238037
 10
306.342773
 20
977.934326
 10
306.342773
 20
976.589722
 10
306.342773
 20
975.207825
 10
306.342773
 20
973.792358
 10
306.342773
 20
972.346924
 10
306.342773
 20
970.875244
 10
306.342773
 20
969.381287
 10
306.342773
 20
967.868958
 10
306.342773
 20
966.342468
 10
306.342773
 20
964.805786
 10
306.342773
 20
963.263
 10
306.342773
 20
961.718201
 10
306.342773
 20
960.175415
 10
306.342773
 20
958.638733
 10
306.342773
 20
957.112183
 10
306.342773
 20
955.599915
 10
306.342773
 20
954.105896
 10
306.342773
 20
952.634216
 10
306.342773
 20
951.188843
 10
306.342773
 20
949.773376
 10
306.342773
 20
948.391479
 10
306.342773
 20
947.046814
 10
306.342773
 20
945.743103
 10
306.342773
 20
944.483948
 10
306.342773
 20
943.272827
 10
306.342773
 20
942.11261
 10
306.342773
 20
941.006226
 10
306.342773
 20
939.956604
 10
306.342773
 20
938.966675
 10
306.342773
 20
938.039368
 10
306.342773
 20
937.177246
 10
306.342773
 20
936.382263
 10
306.342773
 20
935.656311
 10
306.342773
 20
935.001282
 10
306.342773
 20
934.418884
 10
306.342773
 20
933.911133
 10
306.342773
 20
933.479553
 10
306.342773
 20
933.125
 10
306.342773
 20
932.848145
 10
306.342773
 20
932.649658
 10
306.342773
 20
932.530212
 10
306.342773
 20
932.490601
  0
LINE
  5
1C3
330
173
100
AcDbEntity
  8
0
  6
Continuous
 62
     0
370
    30
100
AcDbLine
 10
306.342763
 20
992.490583
 30
0.0
 11
300.342763
 21
992.490583
 31
0.0
  0
LINE
  5
1C4
330
173
100
AcDbEntity
  8
0
  6
Continuous
 62
     0
370
    30
100
AcDbLine
 10
300.342763
 20
992.490583
 30
0.0
 11
300.342763
 21
932.490578
 31
0.0
  0
LINE
  5
1C5
330
173
100
AcDbEntity
  8
0
  6
Continuous
 62
     0
370
    30
100
AcDbLine
 10
306.342763
 20
932.490578
 30
0.0
 11
300.342763
 21
932.490578
 31
0.0
  0
ARC
  5
1C6
330
173
100
AcDbEntity
  8
0
  6
Continuous
 62
     0
370
    30
100
AcDbCircle
 10
339.342753
 20
974.99058
 30
0.0
 40
1.500000000008171
100
AcDbArc
 50
270.0
 51
360.0
  0
LINE
  5
1C7
330
173
100
AcDbEntity
  8
0
  6
Continuous
 62
     0
370
     0
100
AcDbLine
 10
339.342753
 20
973.49058
 30
0.0
 11
339.342753
 21
973.329722
 31
0.0
  0
LWPOLYLINE
  5
1C8
330
173
100
AcDbEntity
  8
0
  6
Continuous
 62
     0
370
     0
100
AcDbPolyline
 90
        8
 70
     0
 43
0.0
 10
339.342743
 20
973.329712
 10
339.675995
 20
973.366882
 10
339.993683
 20
973.476135
 10
340.278046
 20
973.652283
 10
340.515411
 20
973.886169
 10
340.694183
 20
974.166382
 10
340.805054
 20
974.479431
 10
340.842743
 20
974.8078
  0
LWPOLYLINE
  5
1C9
330
173
100
AcDbEntity
  8
0
  6
Continuous
 62
     0
370
     0
100
AcDbPolyline
 90
        9
 70
     0
 43
0.0
 10
352.683319
 20
974.414307
 10
351.272858
 20
974.234253
 10
349.822418
 20
974.085815
 10
348.341614
 20
973.983215
 10
346.843018
 20
973.947754
 10
345.344543
 20
973.986755
 10
343.863708
 20
974.089294
 10
342.413147
 20
974.236084
 10
341.002167
 20
974.411377
  0
LWPOLYLINE
  5
1CA
330
173
100
AcDbEntity
  8
0
  6
Continuous
 62
     0
370
     0
100
AcDbPolyline
 90
        7
 70
     0
 43
0.0
 10
341.002167
 20
974.411377
 10
340.955963
 20
974.095032
 10
340.886932
 20
973.791687
 10
340.798309
 20
973.517395
 10
340.694092
 20
973.28418
 10
340.578796
 20
973.102539
 10
340.458557
 20
972.980896
  0
LWPOLYLINE
  5
1CB
330
173
100
AcDbEntity
  8
0
  6
Continuous
 62
     0
370
     0
100
AcDbPolyline
 90
        8
 70
     0
 43
0.0
 10
340.458557
 20
972.980896
 10
342.14502
 20
972.810486
 10
343.871002
 20
972.673279
 10
345.624939
 20
972.590393
 10
347.391571
 20
972.575989
 10
349.152313
 20
972.634277
 10
350.890289
 20
972.753418
 10
352.592987
 20
972.913757
  0
LWPOLYLINE
  5
1CC
330
173
100
AcDbEntity
  8
0
  6
Continuous
 62
     0
370
     0
100
AcDbPolyline
 90
        7
 70
     0
 43
0.0
 10
352.592987
 20
972.913757
 10
352.611572
 20
973.050293
 10
352.629242
 20
973.242065
 10
352.64621
 20
973.482849
 10
352.661591
 20
973.765808
 10
352.674286
 20
974.082031
 10
352.683319
 20
974.414307
  0
LINE
  5
1CD
330
173
100
AcDbEntity
  8
0
  6
Continuous
 62
     0
370
    30
100
AcDbLine
 10
306.342763
 20
951.49058
 30
0.0
 11
352.592753
 21
951.49058
 31
0.0
  0
LINE
  5
1CE
330
173
100
AcDbEntity
  8
0
  6
Continuous
 62
     0
370
     0
100
AcDbLine
 10
352.592753
 20
951.49058
 30
0.0
 11
352.592753
 21
972.913739
 31
0.0
  0
LWPOLYLINE
  5
1CF
330
173
100
AcDbEntity
  8
0
  6
Continuous
 62
     0
370
     0
100
AcDbPolyline
 90
        7
 70
     0
 43
0.0
 10
340.458557
 20
972.980896
 10
340.16214
 20
973.021545
 10
339.894653
 20
973.074829
 10
339.66745
 20
973.13678
 10
339.492676
 20
973.203186
 10
339.381592
 20
973.269348
 10
339.342743
 20
973.329712
  0
LINE
  5
1D0
330
173
100
AcDbEntity
  8
0
  6
Continuous
 62
     0
370
    30
100
AcDbLine
 10
339.342753
 20
973.49058
 30
0.0
 11
306.342763
 21
973.49058
 31
0.0
  0
LINE
  5
1D1
330
173
100
AcDbEntity
  8
0
  6
Continuous
 62
     0
370
     0
100
AcDbLine
 10
341.002154
 20
1022.307749
 30
0.0
 11
340.842753
 21
1022.307749
 31
0.0
  0
LINE
  5
1D2
330
173
100
AcDbEntity
  8
0
  6
Continuous
 62
     0
370
    30
100
AcDbLine
 10
340.842753
 20
1022.307749
 30
0.0
 11
340.842753
 21
974.807786
 31
0.0
  0
LWPOLYLINE
  5
1D3
330
173
100
AcDbEntity
  8
0
  6
Continuous
 62
     0
370
     0
100
AcDbPolyline
 90
        5
 70
     0
 43
0.0
 10
340.842743
 20
974.8078
 10
340.853668
 20
974.707947
 10
340.882935
 20
974.604858
 10
340.929932
 20
974.502686
 10
341.002167
 20
974.411377
  0
LINE
  5
1D4
330
173
100
AcDbEntity
  8
0
  6
Continuous
 62
     0
370
     0
100
AcDbLine
 10
341.002154
 20
974.411377
 30
0.0
 11
341.002154
 21
1022.307749
 31
0.0
  0
ARC
  5
1D5
330
173
100
AcDbEntity
  8
0
  6
Continuous
 62
     0
370
    30
100
AcDbCircle
 10
352.592753
 20
951.74058
 30
0.0
 40
0.2500000000554756
100
AcDbArc
 50
270.0
 51
360.0
  0
LWPOLYLINE
  5
1D6
330
173
100
AcDbEntity
  8
0
  6
Continuous
 62
     0
370
     0
100
AcDbPolyline
 90
        4
 70
     0
 43
0.0
 10
352.842743
 20
972.676636
 10
352.809265
 20
972.795105
 10
352.717743
 20
972.881836
 10
352.592743
 20
972.913574
  0
LINE
  5
1D7
330
173
100
AcDbEntity
  8
0
  6
Continuous
 62
     0
370
     0
100
AcDbLine
 10
352.683352
 20
1022.307749
 30
0.0
 11
352.683352
 21
974.41429
 31
0.0
  0
LINE
  5
1D8
330
173
100
AcDbEntity
  8
0
  6
Continuous
 62
     0
370
     0
100
AcDbLine
 10
352.683352
 20
974.41429
 30
0.0
 11
352.842753
 21
974.414267
 31
0.0
  0
LINE
  5
1D9
330
173
100
AcDbEntity
  8
0
  6
Continuous
 62
     0
370
    30
100
AcDbLine
 10
352.842753
 20
974.414267
 30
0.0
 11
352.842753
 21
1022.307749
 31
0.0
  0
LWPOLYLINE
  5
1DA
330
173
100
AcDbEntity
  8
0
  6
Continuous
 62
     0
370
     0
100
AcDbPolyline
 90
        4
 70
     0
 43
0.0
 10
352.842743
 20
1022.307739
 10
352.821991
 20
1022.307739
 10
352.768829
 20
1022.307739
 10
352.68335
 20
1022.307739
  0
LINE
  5
1DB
330
173
100
AcDbEntity
  8
0
  6
Continuous
 62
     0
370
     0
100
AcDbLine
 10
352.683352
 20
1022.307749
 30
0.0
 11
346.842753
 21
1022.307749
 31
0.0
  0
LINE
  5
1DC
330
173
100
AcDbEntity
  8
0
  6
Continuous
 62
     0
370
     0
100
AcDbLine
 10
346.842753
 20
1022.307749
 30
0.0
 11
341.002154
 21
1022.307749
 31
0.0
  0
ARC
  5
1DD
330
173
100
AcDbEntity
  8
0
  6
Continuous
 62
     0
370
    30
100
AcDbCircle
 10
346.842753
 20
1022.307749
 30
0.0
 40
6.000000000001336
100
AcDbArc
 50
90.0
 51
180.0
  0
ARC
  5
1DE
330
173
100
AcDbEntity
  8
0
  6
Continuous
 62
     0
370
     0
100
AcDbCircle
 10
346.842072
 20
1022.307068
 30
0.0
 40
5.841280374626185
100
AcDbArc
 50
0.006679
 51
89.993321
  0
ARC
  5
1DF
330
173
100
AcDbEntity
  8
0
  6
Continuous
 62
     0
370
     0
100
AcDbCircle
 10
346.843434
 20
1022.307068
 30
0.0
 40
5.841280374638258
100
AcDbArc
 50
90.006679
 51
179.993321
  0
ARC
  5
1E0
330
173
100
AcDbEntity
  8
0
  6
Continuous
 62
     0
370
    30
100
AcDbCircle
 10
346.842753
 20
1022.307749
 30
0.0
 40
6.000000000001172
100
AcDbArc
 50
0.0
 51
90.0
  0
LINE
  5
1E1
330
173
100
AcDbEntity
  8
0
  6
Continuous
 62
     0
370
     0
100
AcDbLine
 10
346.842753
 20
1028.307749
 30
0.0
 11
346.842753
 21
1028.148349
 31
0.0
  0
LINE
  5
1E2
330
173
100
AcDbEntity
  8
0
  6
Continuous
 62
     0
370
    30
100
AcDbLine
 10
352.842753
 20
973.165339
 30
0.0
 11
352.842753
 21
974.414267
 31
0.0
  0
LINE
  5
1E3
330
173
100
AcDbEntity
  8
0
  6
Continuous
 62
     0
370
    30
100
AcDbLine
 10
358.842753
 20
973.49073
 30
0.0
 11
358.842753
 21
962.49058
 31
0.0
  0
LINE
  5
1E4
330
173
100
AcDbEntity
  8
0
  6
Continuous
 62
     0
370
    30
100
AcDbLine
 10
358.842753
 20
962.49058
 30
0.0
 11
358.842753
 21
951.490431
 31
0.0
  0
LINE
  5
1E5
330
173
100
AcDbEntity
  8
0
  6
Continuous
 62
     0
370
    30
100
AcDbLine
 10
352.842753
 20
973.165339
 30
0.0
 11
352.842753
 21
962.49058
 31
0.0
  0
LINE
  5
1E6
330
173
100
AcDbEntity
  8
0
  6
Continuous
 62
     0
370
    30
100
AcDbLine
 10
352.842753
 20
962.49058
 30
0.0
 11
352.842753
 21
951.49058
 31
0.0
  0
LINE
  5
1E7
330
173
100
AcDbEntity
  8
0
  6
Continuous
 62
     0
370
    30
100
AcDbLine
 10
358.842753
 20
951.49058
 30
0.0
 11
352.842753
 21
951.49058
 31
0.0
  0
LINE
  5
1E8
330
173
100
AcDbEntity
  8
0
  6
Continuous
 62
     0
370
    30
100
AcDbLine
 10
358.842753
 20
973.49058
 30
0.0
 11
352.842753
 21
973.49058
 31
0.0
  0
LWPOLYLINE
  5
1E9
330
173
100
AcDbEntity
  8
0
  6
Continuous
 62
     0
370
    30
100
AcDbPolyline
 90
       24
 70
     0
 43
0.0
 10
360.242767
 20
671.820496
 10
360.208099
 20
671.820496
 10
360.101044
 20
671.820496
 10
359.919739
 20
671.820496
 10
359.666626
 20
671.820496
 10
359.348358
 20
671.820496
 10
358.975342
 20
671.820496
 10
358.560516
 20
671.820496
 10
358.116333
 20
671.820496
 10
357.632385
 20
671.820496
 10
357.112061
 20
671.820496
 10
356.568542
 20
671.820496
 10
356.016998
 20
671.820496
 10
355.47345
 20
671.820496
 10
354.953156
 20
671.820496
 10
354.469177
 20
671.820496
 10
354.024994
 20
671.820496
 10
353.610168
 20
671.820496
 10
353.237152
 20
671.820496
 10
352.918915
 20
671.820496
 10
352.665802
 20
671.820496
 10
352.484497
 20
671.820496
 10
352.377411
 20
671.820496
 10
352.342773
 20
671.820496
  0
LINE
  5
1EA
330
173
100
AcDbEntity
  8
0
  6
Continuous
 62
     0
370
    30
100
AcDbLine
 10
360.242764
 20
664.490493
 30
0.0
 11
360.242764
 21
671.820493
 31
0.0
  0
LWPOLYLINE
  5
1EB
330
173
100
AcDbEntity
  8
0
  6
Continuous
 62
     0
370
    30
100
AcDbPolyline
 90
       24
 70
     0
 43
0.0
 10
352.342773
 20
664.490479
 10
352.3797
 20
664.483887
 10
352.489838
 20
664.464478
 10
352.670776
 20
664.433838
 10
352.918671
 20
664.394348
 10
353.229248
 20
664.348694
 10
353.596588
 20
664.300232
 10
354.013885
 20
664.252625
 10
354.473846
 20
664.20929
 10
354.96817
 20
664.173462
 10
355.487701
 20
664.147949
 10
356.022675
 20
664.134705
 10
356.562866
 20
664.134644
 10
357.09787
 20
664.147949
 10
357.617401
 20
664.173462
 10
358.111694
 20
664.20929
 10
358.571655
 20
664.252625
 10
358.989014
 20
664.300232
 10
359.356293
 20
664.348633
 10
359.66684
 20
664.394348
 10
359.914917
 20
664.433899
 10
360.095734
 20
664.464478
 10
360.205841
 20
664.483887
 10
360.242767
 20
664.490479
  0
LWPOLYLINE
  5
1EC
330
173
100
AcDbEntity
  8
0
  6
Continuous
 62
     0
370
    30
100
AcDbPolyline
 90
       22
 70
     0
 43
0.0
 10
359.742767
 20
672.320496
 10
359.709808
 20
672.320496
 10
359.605164
 20
672.320496
 10
359.422882
 20
672.320496
 10
359.161835
 20
672.320496
 10
358.826599
 20
672.320496
 10
358.427551
 20
672.320496
 10
357.97995
 20
672.320496
 10
357.501923
 20
672.320496
 10
357.012207
 20
672.320496
 10
356.528107
 20
672.320496
 10
356.057404
 20
672.320496
 10
355.573303
 20
672.320496
 10
355.083618
 20
672.320496
 10
354.60556
 20
672.320496
 10
354.157959
 20
672.320496
 10
353.758942
 20
672.320496
 10
353.423706
 20
672.320496
 10
353.162628
 20
672.320496
 10
352.980377
 20
672.320496
 10
352.875732
 20
672.320496
 10
352.842773
 20
672.320496
  0
LINE
  5
1ED
330
173
100
AcDbEntity
  8
0
  6
Continuous
 62
     0
370
    30
100
AcDbLine
 10
359.742764
 20
672.320493
 30
0.0
 11
360.242764
 21
671.820493
 31
0.0
  0
LINE
  5
1EE
330
173
100
AcDbEntity
  8
0
  6
Continuous
 62
     0
370
    30
100
AcDbLine
 10
365.292764
 20
620.990493
 30
0.0
 11
365.292764
 21
663.990493
 31
0.0
  0
LINE
  5
1EF
330
173
100
AcDbEntity
  8
0
  6
Continuous
 62
     0
370
    30
100
AcDbLine
 10
365.292764
 20
620.990493
 30
0.0
 11
364.792764
 21
620.490493
 31
0.0
  0
LINE
  5
1F0
330
173
100
AcDbEntity
  8
0
  6
Continuous
 62
     0
370
    30
100
AcDbLine
 10
364.792764
 20
620.490493
 30
0.0
 11
364.792764
 21
664.490493
 31
0.0
  0
LINE
  5
1F1
330
173
100
AcDbEntity
  8
0
  6
Continuous
 62
     0
370
    30
100
AcDbLine
 10
352.342764
 20
664.490493
 30
0.0
 11
315.292764
 21
664.490493
 31
0.0
  0
LINE
  5
1F2
330
173
100
AcDbEntity
  8
0
  6
Continuous
 62
     0
370
    30
100
AcDbLine
 10
364.792764
 20
664.490493
 30
0.0
 11
360.242764
 21
664.490493
 31
0.0
  0
LINE
  5
1F3
330
173
100
AcDbEntity
  8
0
  6
Continuous
 62
     0
370
    30
100
AcDbLine
 10
315.292764
 20
620.490493
 30
0.0
 11
364.792764
 21
620.490493
 31
0.0
  0
LINE
  5
1F4
330
173
100
AcDbEntity
  8
0
  6
Continuous
 62
     0
370
    30
100
AcDbLine
 10
315.292764
 20
620.490493
 30
0.0
 11
315.292764
 21
664.490493
 31
0.0
  0
LWPOLYLINE
  5
1F5
330
173
100
AcDbEntity
  8
0
  6
Continuous
 62
     0
370
     0
100
AcDbPolyline
 90
       18
 70
     0
 43
0.0
 10
312.542755
 20
653.257446
 10
312.531769
 20
654.333435
 10
312.520813
 20
655.367432
 10
312.509918
 20
656.354736
 10
312.499176
 20
657.289673
 10
312.488586
 20
658.167969
 10
312.47821
 20
658.987976
 10
312.468079
 20
659.747437
 10
312.458221
 20
660.44342
 10
312.448639
 20
661.073242
 10
312.439423
 20
661.634583
 10
312.430603
 20
662.124878
 10
312.42218
 20
662.542053
 10
312.414215
 20
662.884766
 10
312.406708
 20
663.151855
 10
312.39975
 20
663.342163
 10
312.39328
 20
663.455078
 10
312.38739
 20
663.490417
  0
LWPOLYLINE
  5
1F6
330
173
100
AcDbEntity
  8
0
  6
Continuous
 62
     0
370
     0
100
AcDbPolyline
 90
        9
 70
     0
 43
0.0
 10
310.797852
 20
663.49054
 10
310.792114
 20
663.453552
 10
310.785828
 20
663.342896
 10
310.779022
 20
663.158569
 10
310.771729
 20
662.900879
 10
310.763977
 20
662.571289
 10
310.755829
 20
662.171692
 10
310.747284
 20
661.703979
 10
310.738403
 20
661.169678
  0
LINE
  5
1F7
330
173
100
AcDbEntity
  8
0
  6
Continuous
 62
     0
370
    30
100
AcDbLine
 10
310.738408
 20
653.257431
 30
0.0
 11
310.738407
 21
661.169666
 31
0.0
  0
LINE
  5
1F8
330
173
100
AcDbEntity
  8
0
  6
Continuous
 62
     0
370
     0
100
AcDbLine
 10
310.738408
 20
653.257431
 30
0.0
 11
312.542753
 21
653.257431
 31
0.0
  0
LINE
  5
1F9
330
173
100
AcDbEntity
  8
0
  6
Continuous
 62
     0
370
     0
100
AcDbLine
 10
310.823422
 20
624.460711
 30
0.0
 11
312.362106
 21
624.460711
 31
0.0
  0
LWPOLYLINE
  5
1FA
330
173
100
AcDbEntity
  8
0
  6
Continuous
 62
     0
370
     0
100
AcDbPolyline
 90
       25
 70
     0
 43
0.0
 10
312.362122
 20
624.460693
 10
312.362488
 20
625.202209
 10
312.363647
 20
626.019104
 10
312.36557
 20
626.90741
 10
312.368256
 20
627.862305
 10
312.371704
 20
628.879272
 10
312.375854
 20
629.954102
 10
312.380737
 20
631.08252
 10
312.386322
 20
632.260071
 10
312.392548
 20
633.481506
 10
312.399445
 20
634.741516
 10
312.406952
 20
636.034668
 10
312.415009
 20
637.355469
 10
312.423645
 20
638.698181
 10
312.4328
 20
640.05719
 10
312.442383
 20
641.426697
 10
312.452423
 20
642.80072
 10
312.46286
 20
644.173218
 10
312.473633
 20
645.538208
 10
312.48468
 20
646.890198
 10
312.496002
 20
648.223816
 10
312.507507
 20
649.533875
 10
312.519196
 20
650.814087
 10
312.530945
 20
652.057312
 10
312.542755
 20
653.257446
  0
LINE
  5
1FB
330
173
100
AcDbEntity
  8
0
  6
Continuous
 62
     0
370
    30
100
AcDbLine
 10
310.738408
 20
642.08018
 30
0.0
 11
310.738408
 21
653.257431
 31
0.0
  0
LWPOLYLINE
  5
1FC
330
173
100
AcDbEntity
  8
0
  6
Continuous
 62
     0
370
     0
100
AcDbPolyline
 90
       17
 70
     0
 43
0.0
 10
310.738403
 20
642.0802
 10
310.747894
 20
640.753418
 10
310.756989
 20
639.432373
 10
310.765625
 20
638.123779
 10
310.773743
 20
636.83313
 10
310.781372
 20
635.565186
 10
310.788422
 20
634.324829
 10
310.794891
 20
633.117126
 10
310.800751
 20
631.947021
 10
310.805969
 20
630.819153
 10
310.810547
 20
629.738037
 10
310.814453
 20
628.708008
 10
310.817657
 20
627.733276
 10
310.82016
 20
626.817688
 10
310.821991
 20
625.9646
 10
310.823059
 20
625.177612
 10
310.823425
 20
624.460693
  0
LWPOLYLINE
  5
1FD
330
173
100
AcDbEntity
  8
0
  6
Continuous
 62
     0
370
     0
100
AcDbPolyline
 90
       10
 70
     0
 43
0.0
 10
312.387695
 20
621.490723
 10
312.382446
 20
621.527588
 10
312.377747
 20
621.639648
 10
312.373627
 20
621.826416
 10
312.370148
 20
622.087219
 10
312.367249
 20
622.421326
 10
312.365021
 20
622.827881
 10
312.363403
 20
623.304932
 10
312.362427
 20
623.849915
 10
312.362122
 20
624.460693
  0
LWPOLYLINE
  5
1FE
330
173
100
AcDbEntity
  8
0
  6
Continuous
 62
     0
370
     0
100
AcDbPolyline
 90
       10
 70
     0
 43
0.0
 10
310.823425
 20
624.460693
 10
310.82309
 20
623.847046
 10
310.822113
 20
623.300049
 10
310.820496
 20
622.822388
 10
310.818237
 20
622.415955
 10
310.815338
 20
622.08197
 10
310.811798
 20
621.821655
 10
310.807678
 20
621.635864
 10
310.802948
 20
621.525391
 10
310.797638
 20
621.49054
  0
LWPOLYLINE
  5
1FF
330
173
100
AcDbEntity
  8
0
  6
Continuous
 62
     0
370
     0
100
AcDbPolyline
 90
       11
 70
     0
 43
0.0
 10
312.663452
 20
624.849304
 10
312.663788
 20
624.242004
 10
312.664764
 20
623.702087
 10
312.666412
 20
623.231506
 10
312.668732
 20
622.832031
 10
312.671661
 20
622.505127
 10
312.675232
 20
622.252075
 10
312.679443
 20
622.07373
 10
312.684235
 20
621.970703
 10
312.689606
 20
621.943481
 10
312.695557
 20
621.992126
  0
LWPOLYLINE
  5
200
330
173
100
AcDbEntity
  8
0
  6
Continuous
 62
     0
370
     0
100
AcDbPolyline
 90
       25
 70
     0
 43
0.0
 10
312.662109
 20
624.716003
 10
312.662476
 20
625.448303
 10
312.663635
 20
626.253479
 10
312.665558
 20
627.128235
 10
312.668243
 20
628.068787
 10
312.671692
 20
629.071106
 10
312.675842
 20
630.130859
 10
312.680725
 20
631.24353
 10
312.68631
 20
632.404358
 10
312.692535
 20
633.608398
 10
312.699432
 20
634.850464
 10
312.70694
 20
636.125244
 10
312.715027
 20
637.427246
 10
312.723633
 20
638.750977
 10
312.732788
 20
640.090698
 10
312.742401
 20
641.440674
 10
312.752441
 20
642.795105
 10
312.762848
 20
644.148254
 10
312.773621
 20
645.494324
 10
312.784698
 20
646.827454
 10
312.79599
 20
648.142029
 10
312.807526
 20
649.432434
 10
312.819183
 20
650.693054
 10
312.830963
 20
651.918518
 10
312.842773
 20
653.103638
  0
LWPOLYLINE
  5
201
330
173
100
AcDbEntity
  8
0
  6
Continuous
 62
     0
370
     0
100
AcDbPolyline
 90
       13
 70
     0
 43
0.0
 10
312.703613
 20
622.031555
 10
312.697205
 20
621.883179
 10
312.691284
 20
621.803345
 10
312.685883
 20
621.792175
 10
312.680969
 20
621.849792
 10
312.676605
 20
621.976013
 10
312.672791
 20
622.170349
 10
312.669556
 20
622.43219
 10
312.66687
 20
622.760681
 10
312.664795
 20
623.154724
 10
312.6633
 20
623.613037
 10
312.662384
 20
624.134033
 10
312.662109
 20
624.716003
  0
LWPOLYLINE
  5
202
330
173
100
AcDbEntity
  8
0
  6
Continuous
 62
     0
370
     0
100
AcDbPolyline
 90
        8
 70
     0
 43
0.0
 10
312.842773
 20
653.103638
 10
312.831177
 20
654.222656
 10
312.819611
 20
655.293335
 10
312.808167
 20
656.311157
 10
312.796844
 20
657.272034
 10
312.785736
 20
658.171936
 10
312.774841
 20
659.007141
 10
312.764252
 20
659.774231
  0
LINE
  5
203
330
173
100
AcDbEntity
  8
0
  6
Continuous
 62
     0
370
     0
100
AcDbLine
 10
315.2185
 20
652.872898
 30
0.0
 11
315.218499
 21
662.740493
 31
0.0
  0
LWPOLYLINE
  5
204
330
173
100
AcDbEntity
  8
0
  6
Continuous
 62
     0
370
     0
100
AcDbPolyline
 90
       18
 70
     0
 43
0.0
 10
312.988831
 20
662.740479
 10
312.99469
 20
662.702881
 10
313.001099
 20
662.590942
 10
313.008026
 20
662.404724
 10
313.015472
 20
662.14502
 10
313.023376
 20
661.812927
 10
313.031708
 20
661.409424
 10
313.040466
 20
660.935791
 10
313.049591
 20
660.394287
 10
313.059082
 20
659.787109
 10
313.068848
 20
659.116577
 10
313.078888
 20
658.385315
 10
313.089172
 20
657.595947
 10
313.09964
 20
656.750793
 10
313.110291
 20
655.851379
 10
313.121063
 20
654.901733
 10
313.131897
 20
653.907471
 10
313.142761
 20
652.872925
  0
LINE
  5
205
330
173
100
AcDbEntity
  8
0
  6
Continuous
 62
     0
370
     0
100
AcDbLine
 10
313.142776
 20
652.872898
 30
0.0
 11
315.2185
 21
652.872898
 31
0.0
  0
LINE
  5
206
330
173
100
AcDbEntity
  8
0
  6
Continuous
 62
     0
370
     0
100
AcDbLine
 10
315.2185
 20
625.104632
 30
0.0
 11
315.2185
 21
652.872898
 31
0.0
  0
LWPOLYLINE
  5
207
330
173
100
AcDbEntity
  8
0
  6
Continuous
 62
     0
370
     0
100
AcDbPolyline
 90
       24
 70
     0
 43
0.0
 10
313.142761
 20
652.872925
 10
313.130554
 20
651.664368
 10
313.118378
 20
650.410767
 10
313.106293
 20
649.119019
 10
313.094391
 20
647.796936
 10
313.082703
 20
646.450928
 10
313.07132
 20
645.086975
 10
313.060272
 20
643.710815
 10
313.049591
 20
642.328674
 10
313.039368
 20
640.947083
 10
313.029602
 20
639.572754
 10
313.020386
 20
638.212097
 10
313.011719
 20
636.871338
 10
313.003662
 20
635.556763
 10
312.996277
 20
634.274536
 10
312.989563
 20
633.030579
 10
312.983551
 20
631.83075
 10
312.978302
 20
630.680847
 10
312.973785
 20
629.586121
 10
312.970093
 20
628.551086
 10
312.967194
 20
627.580505
 10
312.965118
 20
626.679138
 10
312.963867
 20
625.852417
 10
312.96344
 20
625.104614
  0
LINE
  5
208
330
173
100
AcDbEntity
  8
0
  6
Continuous
 62
     0
370
     0
100
AcDbLine
 10
312.963438
 20
625.104632
 30
0.0
 11
315.2185
 21
625.104632
 31
0.0
  0
LWPOLYLINE
  5
209
330
173
100
AcDbEntity
  8
0
  6
Continuous
 62
     0
370
     0
100
AcDbPolyline
 90
       10
 70
     0
 43
0.0
 10
312.96344
 20
625.104614
 10
312.963745
 20
624.515442
 10
312.964722
 20
623.989807
 10
312.966339
 20
623.529724
 10
312.968567
 20
623.137634
 10
312.971405
 20
622.81543
 10
312.974884
 20
622.563965
 10
312.978973
 20
622.383972
 10
312.983643
 20
622.276123
 10
312.988861
 20
622.240723
  0
LWPOLYLINE
  5
20A
330
173
100
AcDbEntity
  8
0
  6
Continuous
 62
     0
370
     0
100
AcDbPolyline
 90
       11
 70
     0
 43
0.0
 10
315.218506
 20
622.240479
 10
315.218506
 20
622.273254
 10
315.218506
 20
622.370422
 10
315.218506
 20
622.529602
 10
315.218506
 20
622.748108
 10
315.218506
 20
623.022705
 10
315.218506
 20
623.349854
 10
315.218506
 20
623.725708
 10
315.218506
 20
624.14624
 10
315.218506
 20
624.6073
 10
315.218506
 20
625.104614
  0
ARC
  5
20B
330
173
100
AcDbEntity
  8
0
  6
Continuous
 62
     0
370
     0
100
AcDbCircle
 10
315.218578
 20
625.451897
 30
0.0
 40
0.3472655810297789
100
AcDbArc
 50
269.987093
 51
282.335209
  0
ARC
  5
20C
330
173
100
AcDbEntity
  8
0
  6
Continuous
 62
     0
370
     0
100
AcDbCircle
 10
315.218786
 20
652.298916
 30
0.0
 40
0.573982212651466
100
AcDbArc
 50
82.594655
 51
90.028485
  0
LWPOLYLINE
  5
20D
330
173
100
AcDbEntity
  8
0
  6
Continuous
 62
     0
370
     0
100
AcDbPolyline
 90
        5
 70
     0
 43
0.0
 10
312.663452
 20
624.849304
 10
312.687042
 20
624.947205
 10
312.752228
 20
625.029968
 10
312.849243
 20
625.085266
 10
312.96344
 20
625.104614
  0
LWPOLYLINE
  5
20E
330
173
100
AcDbEntity
  8
0
  6
Continuous
 62
     0
370
     0
100
AcDbPolyline
 90
        5
 70
     0
 43
0.0
 10
312.842773
 20
653.026733
 10
312.865631
 20
652.968384
 10
312.930573
 20
652.918396
 10
313.028229
 20
652.884949
 10
313.142761
 20
652.872925
  0
LWPOLYLINE
  5
20F
330
173
100
AcDbEntity
  8
0
  6
Continuous
 62
     0
370
     0
100
AcDbPolyline
 90
        5
 70
     0
 43
0.0
 10
312.542755
 20
653.257446
 10
312.657318
 20
653.245972
 10
312.754944
 20
653.212891
 10
312.819885
 20
653.16272
 10
312.842773
 20
653.103638
  0
LWPOLYLINE
  5
210
330
173
100
AcDbEntity
  8
0
  6
Continuous
 62
     0
370
     0
100
AcDbPolyline
 90
        5
 70
     0
 43
0.0
 10
312.662109
 20
624.716003
 10
312.638519
 20
624.618164
 10
312.573303
 20
624.535339
 10
312.476318
 20
624.480103
 10
312.362122
 20
624.460693
  0
ARC
  5
211
330
173
100
AcDbEntity
  8
0
  6
Continuous
 62
     0
370
     0
100
AcDbCircle
 10
310.823608
 20
624.808951
 30
0.0
 40
0.3482396123040287
100
AcDbArc
 50
255.858937
 51
269.969334
  0
LINE
  5
212
330
173
100
AcDbEntity
  8
0
  6
Continuous
 62
     0
370
    30
100
AcDbLine
 10
310.73853
 20
624.471264
 30
0.0
 11
310.738467
 21
621.496533
 31
0.0
  0
LINE
  5
213
330
173
100
AcDbEntity
  8
0
  6
Continuous
 62
     0
370
    30
100
AcDbLine
 10
310.738408
 20
642.08018
 30
0.0
 11
310.73853
 21
624.471264
 31
0.0
  0
LINE
  5
214
330
173
100
AcDbEntity
  8
0
  6
Continuous
 62
     0
370
     0
100
AcDbLine
 10
309.857626
 20
577.975227
 30
0.0
 11
309.857629
 21
642.490493
 31
0.0
  0
LINE
  5
215
330
173
100
AcDbEntity
  8
0
  6
Continuous
 62
     0
370
     0
100
AcDbLine
 10
309.857629
 20
642.490493
 30
0.0
 11
309.857626
 21
707.005759
 31
0.0
  0
LINE
  5
216
330
173
100
AcDbEntity
  8
0
  6
Continuous
 62
     0
370
     0
100
AcDbLine
 10
309.357859
 20
707.490493
 30
0.0
 11
309.357862
 21
642.490493
 31
0.0
  0
LINE
  5
217
330
173
100
AcDbEntity
  8
0
  6
Continuous
 62
     0
370
     0
100
AcDbLine
 10
309.357862
 20
642.490493
 30
0.0
 11
309.357859
 21
577.490493
 31
0.0
  0
LINE
  5
218
330
173
100
AcDbEntity
  8
0
  6
Continuous
 62
     0
370
     0
100
AcDbLine
 10
309.357862
 20
642.490493
 30
0.0
 11
300.342766
 21
642.490493
 31
0.0
  0
LINE
  5
219
330
173
100
AcDbEntity
  8
0
  6
Continuous
 62
     0
370
    30
100
AcDbLine
 10
300.342766
 20
642.490493
 30
0.0
 11
300.342763
 21
577.490493
 31
0.0
  0
LINE
  5
21A
330
173
100
AcDbEntity
  8
0
  6
Continuous
 62
     0
370
    30
100
AcDbLine
 10
300.342763
 20
707.490493
 30
0.0
 11
300.342766
 21
642.490493
 31
0.0
  0
LINE
  5
21B
330
173
100
AcDbEntity
  8
0
  6
Continuous
 62
     0
370
    30
100
AcDbLine
 10
300.342763
 20
707.490493
 30
0.0
 11
309.357859
 21
707.490493
 31
0.0
  0
LINE
  5
21C
330
173
100
AcDbEntity
  8
0
  6
Continuous
 62
     0
370
    30
100
AcDbLine
 10
300.342763
 20
577.490493
 30
0.0
 11
309.357859
 21
577.490493
 31
0.0
  0
ARC
  5
21D
330
173
100
AcDbEntity
  8
0
  6
Continuous
 62
     0
370
    30
100
AcDbCircle
 10
-1802.187792
 20
642.489875
 30
0.0
 40
2113.030560466869
100
AcDbArc
 50
0.569288
 51
1.749653
  0
ARC
  5
21E
330
173
100
AcDbEntity
  8
0
  6
Continuous
 62
     0
370
    30
100
AcDbCircle
 10
-1802.187588
 20
642.491107
 30
0.0
 40
2113.030355754087
100
AcDbArc
 50
358.250347
 51
359.430714
  0
ARC
  5
21F
330
173
100
AcDbEntity
  8
0
  6
Continuous
 62
     0
370
    30
100
AcDbCircle
 10
309.357771
 20
577.990585
 30
0.0
 40
0.500091456883567
100
AcDbArc
 50
270.010159
 51
358.240183
  0
ARC
  5
220
330
173
100
AcDbEntity
  8
0
  6
Continuous
 62
     0
370
    30
100
AcDbCircle
 10
309.357771
 20
706.990402
 30
0.0
 40
0.5000914569364491
100
AcDbArc
 50
1.759817
 51
89.989841
  0
ARC
  5
221
330
173
100
AcDbEntity
  8
0
  6
Continuous
 62
     0
370
    30
100
AcDbCircle
 10
310.798096
 20
663.18973
 30
0.0
 40
0.3007161027806294
100
AcDbArc
 50
90.044048
 51
101.436752
  0
ARC
  5
222
330
173
100
AcDbEntity
  8
0
  6
Continuous
 62
     0
370
    30
100
AcDbCircle
 10
310.798094
 20
621.791278
 30
0.0
 40
0.3007163674429679
100
AcDbArc
 50
258.563511
 51
269.955959
  0
LWPOLYLINE
  5
223
330
173
100
AcDbEntity
  8
0
  6
Continuous
 62
     0
370
    30
100
AcDbPolyline
 90
       23
 70
     0
 43
0.0
 10
312.387665
 20
621.49054
 10
312.530426
 20
621.526672
 10
312.630951
 20
621.614746
 10
312.670654
 20
621.689087
 10
312.681671
 20
621.726624
 10
312.685974
 20
621.747986
 10
312.688293
 20
621.763184
 10
312.68988
 20
621.776001
 10
312.691101
 20
621.787964
 10
312.6922
 20
621.799866
 10
312.693176
 20
621.812195
 10
312.694122
 20
621.825134
 10
312.695007
 20
621.838867
 10
312.695892
 20
621.853455
 10
312.696777
 20
621.869019
 10
312.697632
 20
621.88562
 10
312.698517
 20
621.903259
 10
312.699371
 20
621.921936
 10
312.700256
 20
621.941711
 10
312.701111
 20
621.962585
 10
312.701996
 20
621.984619
 10
312.702881
 20
622.007751
 10
312.703766
 20
622.031982
  0
LWPOLYLINE
  5
224
330
173
100
AcDbEntity
  8
0
  6
Continuous
 62
     0
370
    30
100
AcDbPolyline
 90
       57
 70
     0
 43
0.0
 10
312.842773
 20
653.104431
 10
312.839386
 20
653.433594
 10
312.836029
 20
653.759033
 10
312.832672
 20
654.080566
 10
312.829315
 20
654.398132
 10
312.825958
 20
654.711609
 10
312.822601
 20
655.020813
 10
312.819275
 20
655.325684
 10
312.815948
 20
655.626038
 10
312.812622
 20
655.921875
 10
312.809296
 20
656.213074
 10
312.806
 20
656.499512
 10
312.802704
 20
656.781067
 10
312.799438
 20
657.057678
 10
312.796173
 20
657.329224
 10
312.792938
 20
657.595642
 10
312.789703
 20
657.856812
 10
312.786499
 20
658.11261
 10
312.783295
 20
658.363037
 10
312.780121
 20
658.60791
 10
312.776978
 20
658.847229
 10
312.773865
 20
659.080872
 10
312.770752
 20
659.308716
 10
312.7677
 20
659.530762
 10
312.764648
 20
659.746887
 10
312.761627
 20
659.957092
 10
312.758636
 20
660.161194
 10
312.755646
 20
660.359131
 10
312.752716
 20
660.550964
 10
312.749817
 20
660.736511
 10
312.746948
 20
660.915771
 10
312.74411
 20
661.088623
 10
312.741302
 20
661.255005
 10
312.738525
 20
661.414856
 10
312.735809
 20
661.568176
 10
312.733093
 20
661.714905
 10
312.730438
 20
661.85498
 10
312.727814
 20
661.988342
 10
312.72525
 20
662.11499
 10
312.722717
 20
662.234802
 10
312.720215
 20
662.3479
 10
312.717743
 20
662.454102
 10
312.715332
 20
662.553406
 10
312.712952
 20
662.645813
 10
312.710602
 20
662.731262
 10
312.708313
 20
662.809814
 10
312.706085
 20
662.881409
 10
312.703857
 20
662.946167
 10
312.701691
 20
663.004028
 10
312.699554
 20
663.055176
 10
312.697418
 20
663.099731
 10
312.695282
 20
663.138062
 10
312.692993
 20
663.171021
 10
312.690399
 20
663.200439
 10
312.68573
 20
663.234497
 10
312.655426
 20
663.326538
 10
312.387665
 20
663.490417
  0
LWPOLYLINE
  5
225
330
173
100
AcDbEntity
  8
0
  6
Continuous
 62
     0
370
    30
100
AcDbPolyline
 90
        5
 70
     0
 43
0.0
 10
312.703766
 20
662.949036
 10
312.722015
 20
662.90387
 10
312.774872
 20
662.830383
 10
312.869873
 20
662.765076
 10
312.9888
 20
662.740417
  0
LWPOLYLINE
  5
226
330
173
100
AcDbEntity
  8
0
  6
Continuous
 62
     0
370
    30
100
AcDbPolyline
 90
        8
 70
     0
 43
0.0
 10
312.9888
 20
622.24054
 10
312.853638
 20
622.208313
 10
312.754181
 20
622.127136
 10
312.711151
 20
622.052917
 10
312.699554
 20
622.01709
 10
312.696106
 20
622.000977
 10
312.694946
 20
621.99408
 10
312.694702
 20
621.992188
  0
ARC
  5
227
330
173
100
AcDbEntity
  8
0
  6
Continuous
 62
     0
370
    30
100
AcDbCircle
 10
315.218458
 20
662.440042
 30
0.0
 40
0.3003239325081204
100
AcDbArc
 50
75.673122
 51
89.992113
  0
ARC
  5
228
330
173
100
AcDbEntity
  8
0
  6
Continuous
 62
     0
370
    30
100
AcDbCircle
 10
315.218458
 20
622.540896
 30
0.0
 40
0.3003236446485762
100
AcDbArc
 50
270.007865
 51
284.327124
  0
LINE
  5
229
330
173
100
AcDbEntity
  8
0
  6
Continuous
 62
     0
370
    30
100
AcDbLine
 10
312.988803
 20
622.240493
 30
0.0
 11
315.218499
 21
622.240493
 31
0.0
  0
LINE
  5
22A
330
173
100
AcDbEntity
  8
0
  6
Continuous
 62
     0
370
    30
100
AcDbLine
 10
315.218499
 20
662.740493
 30
0.0
 11
312.988815
 21
662.740493
 31
0.0
  0
LINE
  5
22B
330
173
100
AcDbEntity
  8
0
  6
Continuous
 62
     0
370
    30
100
AcDbLine
 10
312.387653
 20
621.490493
 30
0.0
 11
310.797869
 21
621.490493
 31
0.0
  0
LINE
  5
22C
330
173
100
AcDbEntity
  8
0
  6
Continuous
 62
     0
370
    30
100
AcDbLine
 10
312.387673
 20
663.490493
 30
0.0
 11
310.797869
 21
663.490493
 31
0.0
  0
LINE
  5
22D
330
173
100
AcDbEntity
  8
0
  6
Continuous
 62
     0
370
    30
100
AcDbLine
 10
364.792764
 20
664.490493
 30
0.0
 11
365.292764
 21
663.990493
 31
0.0
  0
LINE
  5
22E
330
173
100
AcDbEntity
  8
0
  6
Continuous
 62
     0
370
    30
100
AcDbLine
 10
352.342764
 20
671.820493
 30
0.0
 11
352.842764
 21
672.320493
 31
0.0
  0
LINE
  5
22F
330
173
100
AcDbEntity
  8
0
  6
Continuous
 62
     0
370
    30
100
AcDbLine
 10
352.342764
 20
671.820493
 30
0.0
 11
352.342764
 21
664.490493
 31
0.0
  0
ENDBLK
  5
231
330
173
100
AcDbEntity
  8
0
100
AcDbBlockEnd
  0
BLOCK
  5
2E5
330
233
100
AcDbEntity
  8
0
100
AcDbBlockBegin
  2
e
 70
     0
 10
-59.87233
 20
0.0
 30
0.0
  3
e
  1

  0
LWPOLYLINE
  5
234
330
233
100
AcDbEntity
  8
0
  6
Continuous
 62
     0
370
    30
100
AcDbPolyline
 90
       62
 70
     0
 43
0.0
 10
-101.063789
 20
732.49054
 10
-101.063789
 20
732.530212
 10
-101.063789
 20
732.649658
 10
-101.063789
 20
732.848145
 10
-101.063789
 20
733.125
 10
-101.063789
 20
733.479553
 10
-101.063789
 20
733.911133
 10
-101.063789
 20
734.418884
 10
-101.063789
 20
735.001282
 10
-101.063789
 20
735.656311
 10
-101.063789
 20
736.382263
 10
-101.063789
 20
737.177246
 10
-101.063789
 20
738.039368
 10
-101.063789
 20
738.966675
 10
-101.063789
 20
739.956604
 10
-101.063789
 20
741.006226
 10
-101.063789
 20
742.112549
 10
-101.063789
 20
743.272766
 10
-101.063789
 20
744.483948
 10
-101.063789
 20
745.743103
 10
-101.063789
 20
747.046814
 10
-101.063789
 20
748.391418
 10
-101.063789
 20
749.773315
 10
-101.063789
 20
751.188843
 10
-101.063789
 20
752.634216
 10
-101.063789
 20
754.105896
 10
-101.063789
 20
755.599915
 10
-101.063789
 20
757.112183
 10
-101.063789
 20
758.638733
 10
-101.063789
 20
760.175415
 10
-101.063789
 20
761.71814
 10
-101.063789
 20
763.263
 10
-101.063789
 20
764.805786
 10
-101.063789
 20
766.342468
 10
-101.063789
 20
767.868958
 10
-101.063789
 20
769.381226
 10
-101.063789
 20
770.875244
 10
-101.063789
 20
772.346924
 10
-101.063789
 20
773.792297
 10
-101.063789
 20
775.207825
 10
-101.063789
 20
776.589722
 10
-101.063789
 20
777.934326
 10
-101.063789
 20
779.238037
 10
-101.063789
 20
780.497192
 10
-101.063789
 20
781.708374
 10
-101.063789
 20
782.868591
 10
-101.063789
 20
783.974915
 10
-101.063789
 20
785.024536
 10
-101.063789
 20
786.014465
 10
-101.063789
 20
786.941772
 10
-101.063789
 20
787.803894
 10
-101.063789
 20
788.598877
 10
-101.063789
 20
789.324829
 10
-101.063789
 20
789.979919
 10
-101.063789
 20
790.562256
 10
-101.063789
 20
791.070007
 10
-101.063789
 20
791.501587
 10
-101.063789
 20
791.85614
 10
-101.063789
 20
792.132996
 10
-101.063789
 20
792.331482
 10
-101.063789
 20
792.450928
 10
-101.063789
 20
792.490601
  0
LINE
  5
235
330
233
100
AcDbEntity
  8
0
  6
Continuous
 62
     0
370
    30
100
AcDbLine
 10
-101.063787
 20
792.490575
 30
0.0
 11
-95.063787
 21
792.490575
 31
0.0
  0
LINE
  5
236
330
233
100
AcDbEntity
  8
0
  6
Continuous
 62
     0
370
    30
100
AcDbLine
 10
-95.063787
 20
732.49057
 30
0.0
 11
-95.063787
 21
792.490575
 31
0.0
  0
LINE
  5
237
330
233
100
AcDbEntity
  8
0
  6
Continuous
 62
     0
370
    30
100
AcDbLine
 10
-101.063787
 20
732.49057
 30
0.0
 11
-95.063787
 21
732.49057
 31
0.0
  0
ARC
  5
238
330
233
100
AcDbEntity
  8
0
  6
Continuous
 62
     0
370
    30
100
AcDbCircle
 10
-134.063776
 20
774.990573
 30
0.0
 40
1.500000000014694
100
AcDbArc
 50
180.0
 51
270.0
  0
LINE
  5
239
330
233
100
AcDbEntity
  8
0
  6
Continuous
 62
     0
370
    30
100
AcDbLine
 10
-101.063787
 20
751.490573
 30
0.0
 11
-147.313776
 21
751.490573
 31
0.0
  0
LINE
  5
23A
330
233
100
AcDbEntity
  8
0
  6
Continuous
 62
     0
370
    30
100
AcDbLine
 10
-134.063776
 20
773.490573
 30
0.0
 11
-101.063787
 21
773.490573
 31
0.0
  0
ARC
  5
23B
330
233
100
AcDbEntity
  8
0
  6
Continuous
 62
     0
370
    30
100
AcDbCircle
 10
-147.313776
 20
751.740573
 30
0.0
 40
0.2500000000513154
100
AcDbArc
 50
180.0
 51
270.0
  0
LWPOLYLINE
  5
23C
330
233
100
AcDbEntity
  8
0
  6
Continuous
 62
     0
370
     0
100
AcDbPolyline
 90
        7
 70
     0
 43
0.0
 10
-147.404327
 20
774.414307
 10
-147.395309
 20
774.082031
 10
-147.382599
 20
773.765808
 10
-147.367218
 20
773.482849
 10
-147.350266
 20
773.242065
 10
-147.332596
 20
773.050293
 10
-147.313995
 20
772.913757
  0
LWPOLYLINE
  5
23D
330
233
100
AcDbEntity
  8
0
  6
Continuous
 62
     0
370
     0
100
AcDbPolyline
 90
        8
 70
     0
 43
0.0
 10
-147.313995
 20
772.913757
 10
-145.611298
 20
772.753418
 10
-143.873337
 20
772.634338
 10
-142.112579
 20
772.575989
 10
-140.345963
 20
772.590393
 10
-138.592026
 20
772.673279
 10
-136.866058
 20
772.810486
 10
-135.179581
 20
772.980896
  0
LWPOLYLINE
  5
23E
330
233
100
AcDbEntity
  8
0
  6
Continuous
 62
     0
370
     0
100
AcDbPolyline
 90
        7
 70
     0
 43
0.0
 10
-135.179581
 20
772.980896
 10
-135.299805
 20
773.102539
 10
-135.4151
 20
773.28418
 10
-135.519333
 20
773.517395
 10
-135.607941
 20
773.791687
 10
-135.676971
 20
774.095032
 10
-135.723175
 20
774.411377
  0
LWPOLYLINE
  5
23F
330
233
100
AcDbEntity
  8
0
  6
Continuous
 62
     0
370
     0
100
AcDbPolyline
 90
        9
 70
     0
 43
0.0
 10
-135.723175
 20
774.411377
 10
-137.134171
 20
774.236084
 10
-138.584747
 20
774.089294
 10
-140.065552
 20
773.986755
 10
-141.564056
 20
773.947754
 10
-143.062637
 20
773.983215
 10
-144.543457
 20
774.085815
 10
-145.993896
 20
774.234253
 10
-147.404327
 20
774.414307
  0
LWPOLYLINE
  5
240
330
233
100
AcDbEntity
  8
0
  6
Continuous
 62
     0
370
     0
100
AcDbPolyline
 90
        8
 70
     0
 43
0.0
 10
-135.563782
 20
774.8078
 10
-135.526093
 20
774.479431
 10
-135.415207
 20
774.166382
 10
-135.23642
 20
773.886169
 10
-134.999069
 20
773.652283
 10
-134.714691
 20
773.476135
 10
-134.397018
 20
773.366882
 10
-134.063782
 20
773.329712
  0
LINE
  5
241
330
233
100
AcDbEntity
  8
0
  6
Continuous
 62
     0
370
     0
100
AcDbLine
 10
-134.063776
 20
773.329719
 30
0.0
 11
-134.063776
 21
773.490573
 31
0.0
  0
LWPOLYLINE
  5
242
330
233
100
AcDbEntity
  8
0
  6
Continuous
 62
     0
370
     0
100
AcDbPolyline
 90
        8
 70
     0
 43
0.0
 10
-134.063782
 20
773.329712
 10
-134.09256
 20
773.278442
 10
-134.175354
 20
773.222412
 10
-134.306656
 20
773.164978
 10
-134.480072
 20
773.109314
 10
-134.688278
 20
773.058411
 10
-134.923889
 20
773.014832
 10
-135.179581
 20
772.980896
  0
LINE
  5
243
330
233
100
AcDbEntity
  8
0
  6
Continuous
 62
     0
370
     0
100
AcDbLine
 10
-147.313777
 20
772.913741
 30
0.0
 11
-147.313776
 21
751.490573
 31
0.0
  0
LINE
  5
244
330
233
100
AcDbEntity
  8
0
  6
Continuous
 62
     0
370
     0
100
AcDbLine
 10
-135.563776
 20
822.307742
 30
0.0
 11
-135.723177
 21
822.307742
 31
0.0
  0
LINE
  5
245
330
233
100
AcDbEntity
  8
0
  6
Continuous
 62
     0
370
     0
100
AcDbLine
 10
-135.723177
 20
822.307742
 30
0.0
 11
-135.723177
 21
774.411379
 31
0.0
  0
LWPOLYLINE
  5
246
330
233
100
AcDbEntity
  8
0
  6
Continuous
 62
     0
370
     0
100
AcDbPolyline
 90
        5
 70
     0
 43
0.0
 10
-135.723175
 20
774.411377
 10
-135.650955
 20
774.502686
 10
-135.603943
 20
774.604797
 10
-135.574646
 20
774.707947
 10
-135.563782
 20
774.8078
  0
LINE
  5
247
330
233
100
AcDbEntity
  8
0
  6
Continuous
 62
     0
370
    30
100
AcDbLine
 10
-135.563776
 20
774.807784
 30
0.0
 11
-135.563776
 21
822.307742
 31
0.0
  0
LWPOLYLINE
  5
248
330
233
100
AcDbEntity
  8
0
  6
Continuous
 62
     0
370
     0
100
AcDbPolyline
 90
        4
 70
     0
 43
0.0
 10
-147.313782
 20
772.913574
 10
-147.438782
 20
772.881836
 10
-147.530273
 20
772.795105
 10
-147.563782
 20
772.676636
  0
LINE
  5
249
330
233
100
AcDbEntity
  8
0
  6
Continuous
 62
     0
370
    30
100
AcDbLine
 10
-147.563776
 20
822.307742
 30
0.0
 11
-147.563776
 21
774.41427
 31
0.0
  0
LWPOLYLINE
  5
24A
330
233
100
AcDbEntity
  8
0
  6
Continuous
 62
     0
370
     0
100
AcDbPolyline
 90
        4
 70
     0
 43
0.0
 10
-147.563782
 20
774.414246
 10
-147.544022
 20
774.414307
 10
-147.487976
 20
774.414307
 10
-147.404373
 20
774.414307
  0
LINE
  5
24B
330
233
100
AcDbEntity
  8
0
  6
Continuous
 62
     0
370
     0
100
AcDbLine
 10
-147.404376
 20
774.414292
 30
0.0
 11
-147.404376
 21
822.307742
 31
0.0
  0
LINE
  5
24C
330
233
100
AcDbEntity
  8
0
  6
Continuous
 62
     0
370
     0
100
AcDbLine
 10
-147.404376
 20
822.307742
 30
0.0
 11
-147.563776
 21
822.307741
 31
0.0
  0
LINE
  5
24D
330
233
100
AcDbEntity
  8
0
  6
Continuous
 62
     0
370
     0
100
AcDbLine
 10
-135.723177
 20
822.307742
 30
0.0
 11
-141.563777
 21
822.307742
 31
0.0
  0
LINE
  5
24E
330
233
100
AcDbEntity
  8
0
  6
Continuous
 62
     0
370
     0
100
AcDbLine
 10
-141.563777
 20
822.307742
 30
0.0
 11
-147.404376
 21
822.307742
 31
0.0
  0
ARC
  5
24F
330
233
100
AcDbEntity
  8
0
  6
Continuous
 62
     0
370
    30
100
AcDbCircle
 10
-141.563776
 20
822.307742
 30
0.0
 40
6.000000000001982
100
AcDbArc
 50
0.0
 51
90.0
  0
ARC
  5
250
330
233
100
AcDbEntity
  8
0
  6
Continuous
 62
     0
370
    30
100
AcDbCircle
 10
-141.563776
 20
822.307742
 30
0.0
 40
5.9999999999986
100
AcDbArc
 50
90.0
 51
180.0
  0
ARC
  5
251
330
233
100
AcDbEntity
  8
0
  6
Continuous
 62
     0
370
     0
100
AcDbCircle
 10
-141.564457
 20
822.307061
 30
0.0
 40
5.841280374636994
100
AcDbArc
 50
0.006679
 51
89.993321
  0
ARC
  5
252
330
233
100
AcDbEntity
  8
0
  6
Continuous
 62
     0
370
     0
100
AcDbCircle
 10
-141.563095
 20
822.307061
 30
0.0
 40
5.841280374643344
100
AcDbArc
 50
90.006679
 51
179.993321
  0
LINE
  5
253
330
233
100
AcDbEntity
  8
0
  6
Continuous
 62
     0
370
     0
100
AcDbLine
 10
-141.563776
 20
828.148341
 30
0.0
 11
-141.563776
 21
828.307742
 31
0.0
  0
LINE
  5
254
330
233
100
AcDbEntity
  8
0
  6
Continuous
 62
     0
370
    30
100
AcDbLine
 10
-147.563776
 20
774.41427
 30
0.0
 11
-147.563776
 21
773.165339
 31
0.0
  0
LINE
  5
255
330
233
100
AcDbEntity
  8
0
  6
Continuous
 62
     0
370
    30
100
AcDbLine
 10
-153.563777
 20
762.490573
 30
0.0
 11
-153.563776
 21
773.490722
 31
0.0
  0
LINE
  5
256
330
233
100
AcDbEntity
  8
0
  6
Continuous
 62
     0
370
    30
100
AcDbLine
 10
-153.563776
 20
751.490423
 30
0.0
 11
-153.563777
 21
762.490573
 31
0.0
  0
LINE
  5
257
330
233
100
AcDbEntity
  8
0
  6
Continuous
 62
     0
370
    30
100
AcDbLine
 10
-147.563777
 20
762.490573
 30
0.0
 11
-147.563777
 21
773.165339
 31
0.0
  0
LINE
  5
258
330
233
100
AcDbEntity
  8
0
  6
Continuous
 62
     0
370
    30
100
AcDbLine
 10
-147.563776
 20
751.490573
 30
0.0
 11
-147.563777
 21
762.490573
 31
0.0
  0
LINE
  5
259
330
233
100
AcDbEntity
  8
0
  6
Continuous
 62
     0
370
    30
100
AcDbLine
 10
-153.563776
 20
751.490573
 30
0.0
 11
-147.563776
 21
751.490573
 31
0.0
  0
LINE
  5
25A
330
233
100
AcDbEntity
  8
0
  6
Continuous
 62
     0
370
    30
100
AcDbLine
 10
-153.563776
 20
773.490573
 30
0.0
 11
-147.563776
 21
773.490573
 31
0.0
  0
LWPOLYLINE
  5
25B
330
233
100
AcDbEntity
  8
0
  6
Continuous
 62
     0
370
    30
100
AcDbPolyline
 90
       62
 70
     0
 43
0.0
 10
-101.063789
 20
832.49054
 10
-101.063789
 20
832.530212
 10
-101.063789
 20
832.649658
 10
-101.063789
 20
832.848145
 10
-101.063789
 20
833.125
 10
-101.063789
 20
833.479553
 10
-101.063789
 20
833.911133
 10
-101.063789
 20
834.418884
 10
-101.063789
 20
835.001282
 10
-101.063789
 20
835.656311
 10
-101.063789
 20
836.382263
 10
-101.063789
 20
837.177246
 10
-101.063789
 20
838.039368
 10
-101.063789
 20
838.966675
 10
-101.063789
 20
839.956604
 10
-101.063789
 20
841.006226
 10
-101.063789
 20
842.112549
 10
-101.063789
 20
843.272766
 10
-101.063789
 20
844.483948
 10
-101.063789
 20
845.743103
 10
-101.063789
 20
847.046814
 10
-101.063789
 20
848.391418
 10
-101.063789
 20
849.773315
 10
-101.063789
 20
851.188843
 10
-101.063789
 20
852.634216
 10
-101.063789
 20
854.105896
 10
-101.063789
 20
855.599915
 10
-101.063789
 20
857.112183
 10
-101.063789
 20
858.638733
 10
-101.063789
 20
860.175415
 10
-101.063789
 20
861.71814
 10
-101.063789
 20
863.263
 10
-101.063789
 20
864.805786
 10
-101.063789
 20
866.342468
 10
-101.063789
 20
867.868958
 10
-101.063789
 20
869.381226
 10
-101.063789
 20
870.875244
 10
-101.063789
 20
872.346924
 10
-101.063789
 20
873.792297
 10
-101.063789
 20
875.207825
 10
-101.063789
 20
876.589722
 10
-101.063789
 20
877.934326
 10
-101.063789
 20
879.238037
 10
-101.063789
 20
880.497192
 10
-101.063789
 20
881.708374
 10
-101.063789
 20
882.868591
 10
-101.063789
 20
883.974915
 10
-101.063789
 20
885.024536
 10
-101.063789
 20
886.014465
 10
-101.063789
 20
886.941772
 10
-101.063789
 20
887.803894
 10
-101.063789
 20
888.598877
 10
-101.063789
 20
889.324829
 10
-101.063789
 20
889.979919
 10
-101.063789
 20
890.562256
 10
-101.063789
 20
891.070007
 10
-101.063789
 20
891.501587
 10
-101.063789
 20
891.85614
 10
-101.063789
 20
892.132996
 10
-101.063789
 20
892.331482
 10
-101.063789
 20
892.450928
 10
-101.063789
 20
892.490601
  0
LINE
  5
25C
330
233
100
AcDbEntity
  8
0
  6
Continuous
 62
     0
370
    30
100
AcDbLine
 10
-101.063787
 20
892.490575
 30
0.0
 11
-95.063787
 21
892.490575
 31
0.0
  0
LINE
  5
25D
330
233
100
AcDbEntity
  8
0
  6
Continuous
 62
     0
370
    30
100
AcDbLine
 10
-95.063787
 20
832.49057
 30
0.0
 11
-95.063787
 21
892.490575
 31
0.0
  0
LINE
  5
25E
330
233
100
AcDbEntity
  8
0
  6
Continuous
 62
     0
370
    30
100
AcDbLine
 10
-101.063787
 20
832.49057
 30
0.0
 11
-95.063787
 21
832.49057
 31
0.0
  0
ARC
  5
25F
330
233
100
AcDbEntity
  8
0
  6
Continuous
 62
     0
370
    30
100
AcDbCircle
 10
-134.063776
 20
874.990573
 30
0.0
 40
1.500000000017824
100
AcDbArc
 50
180.0
 51
270.0
  0
LINE
  5
260
330
233
100
AcDbEntity
  8
0
  6
Continuous
 62
     0
370
    30
100
AcDbLine
 10
-101.063787
 20
851.490573
 30
0.0
 11
-147.313776
 21
851.490573
 31
0.0
  0
LINE
  5
261
330
233
100
AcDbEntity
  8
0
  6
Continuous
 62
     0
370
    30
100
AcDbLine
 10
-134.063776
 20
873.490573
 30
0.0
 11
-101.063787
 21
873.490573
 31
0.0
  0
ARC
  5
262
330
233
100
AcDbEntity
  8
0
  6
Continuous
 62
     0
370
    30
100
AcDbCircle
 10
-147.313776
 20
851.740573
 30
0.0
 40
0.2500000000337046
100
AcDbArc
 50
180.0
 51
270.0
  0
LWPOLYLINE
  5
263
330
233
100
AcDbEntity
  8
0
  6
Continuous
 62
     0
370
     0
100
AcDbPolyline
 90
        7
 70
     0
 43
0.0
 10
-147.404327
 20
874.414307
 10
-147.395309
 20
874.082031
 10
-147.382599
 20
873.765808
 10
-147.367218
 20
873.482849
 10
-147.350266
 20
873.242065
 10
-147.332596
 20
873.050293
 10
-147.313995
 20
872.913757
  0
LWPOLYLINE
  5
264
330
233
100
AcDbEntity
  8
0
  6
Continuous
 62
     0
370
     0
100
AcDbPolyline
 90
        8
 70
     0
 43
0.0
 10
-147.313995
 20
872.913757
 10
-145.611298
 20
872.753418
 10
-143.873337
 20
872.634338
 10
-142.112579
 20
872.575989
 10
-140.345963
 20
872.590393
 10
-138.592026
 20
872.673279
 10
-136.866058
 20
872.810486
 10
-135.179581
 20
872.980896
  0
LWPOLYLINE
  5
265
330
233
100
AcDbEntity
  8
0
  6
Continuous
 62
     0
370
     0
100
AcDbPolyline
 90
        7
 70
     0
 43
0.0
 10
-135.179581
 20
872.980896
 10
-135.299805
 20
873.102539
 10
-135.4151
 20
873.28418
 10
-135.519333
 20
873.517395
 10
-135.607941
 20
873.791687
 10
-135.676971
 20
874.095032
 10
-135.723175
 20
874.411377
  0
LWPOLYLINE
  5
266
330
233
100
AcDbEntity
  8
0
  6
Continuous
 62
     0
370
     0
100
AcDbPolyline
 90
        9
 70
     0
 43
0.0
 10
-135.723175
 20
874.411377
 10
-137.134171
 20
874.236084
 10
-138.584747
 20
874.089294
 10
-140.065552
 20
873.986755
 10
-141.564056
 20
873.947754
 10
-143.062637
 20
873.983215
 10
-144.543457
 20
874.085815
 10
-145.993896
 20
874.234253
 10
-147.404327
 20
874.414307
  0
LWPOLYLINE
  5
267
330
233
100
AcDbEntity
  8
0
  6
Continuous
 62
     0
370
     0
100
AcDbPolyline
 90
        8
 70
     0
 43
0.0
 10
-135.563782
 20
874.8078
 10
-135.526093
 20
874.479431
 10
-135.415207
 20
874.166382
 10
-135.23642
 20
873.886169
 10
-134.999069
 20
873.652283
 10
-134.714691
 20
873.476135
 10
-134.397018
 20
873.366882
 10
-134.063782
 20
873.329712
  0
LINE
  5
268
330
233
100
AcDbEntity
  8
0
  6
Continuous
 62
     0
370
     0
100
AcDbLine
 10
-134.063776
 20
873.329719
 30
0.0
 11
-134.063776
 21
873.490573
 31
0.0
  0
LWPOLYLINE
  5
269
330
233
100
AcDbEntity
  8
0
  6
Continuous
 62
     0
370
     0
100
AcDbPolyline
 90
        8
 70
     0
 43
0.0
 10
-134.063782
 20
873.329712
 10
-134.09256
 20
873.278442
 10
-134.175354
 20
873.222412
 10
-134.306656
 20
873.164978
 10
-134.480072
 20
873.109314
 10
-134.688278
 20
873.058411
 10
-134.923889
 20
873.014832
 10
-135.179581
 20
872.980896
  0
LINE
  5
26A
330
233
100
AcDbEntity
  8
0
  6
Continuous
 62
     0
370
     0
100
AcDbLine
 10
-147.313777
 20
872.913741
 30
0.0
 11
-147.313776
 21
851.490573
 31
0.0
  0
LINE
  5
26B
330
233
100
AcDbEntity
  8
0
  6
Continuous
 62
     0
370
     0
100
AcDbLine
 10
-135.563776
 20
922.307742
 30
0.0
 11
-135.723177
 21
922.307742
 31
0.0
  0
LINE
  5
26C
330
233
100
AcDbEntity
  8
0
  6
Continuous
 62
     0
370
     0
100
AcDbLine
 10
-135.723177
 20
922.307742
 30
0.0
 11
-135.723177
 21
874.411379
 31
0.0
  0
LWPOLYLINE
  5
26D
330
233
100
AcDbEntity
  8
0
  6
Continuous
 62
     0
370
     0
100
AcDbPolyline
 90
        5
 70
     0
 43
0.0
 10
-135.723175
 20
874.411377
 10
-135.650955
 20
874.502686
 10
-135.603943
 20
874.604797
 10
-135.574646
 20
874.707947
 10
-135.563782
 20
874.8078
  0
LINE
  5
26E
330
233
100
AcDbEntity
  8
0
  6
Continuous
 62
     0
370
    30
100
AcDbLine
 10
-135.563776
 20
874.807784
 30
0.0
 11
-135.563776
 21
922.307742
 31
0.0
  0
LWPOLYLINE
  5
26F
330
233
100
AcDbEntity
  8
0
  6
Continuous
 62
     0
370
     0
100
AcDbPolyline
 90
        4
 70
     0
 43
0.0
 10
-147.313782
 20
872.913574
 10
-147.438782
 20
872.881836
 10
-147.530273
 20
872.795105
 10
-147.563782
 20
872.676636
  0
LINE
  5
270
330
233
100
AcDbEntity
  8
0
  6
Continuous
 62
     0
370
    30
100
AcDbLine
 10
-147.563776
 20
922.307742
 30
0.0
 11
-147.563776
 21
874.41427
 31
0.0
  0
LWPOLYLINE
  5
271
330
233
100
AcDbEntity
  8
0
  6
Continuous
 62
     0
370
     0
100
AcDbPolyline
 90
        4
 70
     0
 43
0.0
 10
-147.563782
 20
874.414246
 10
-147.544022
 20
874.414307
 10
-147.487976
 20
874.414307
 10
-147.404373
 20
874.414307
  0
LINE
  5
272
330
233
100
AcDbEntity
  8
0
  6
Continuous
 62
     0
370
     0
100
AcDbLine
 10
-147.404376
 20
874.414292
 30
0.0
 11
-147.404376
 21
922.307742
 31
0.0
  0
LINE
  5
273
330
233
100
AcDbEntity
  8
0
  6
Continuous
 62
     0
370
     0
100
AcDbLine
 10
-147.404376
 20
922.307742
 30
0.0
 11
-147.563776
 21
922.307741
 31
0.0
  0
LINE
  5
274
330
233
100
AcDbEntity
  8
0
  6
Continuous
 62
     0
370
     0
100
AcDbLine
 10
-135.723177
 20
922.307742
 30
0.0
 11
-141.563777
 21
922.307742
 31
0.0
  0
LINE
  5
275
330
233
100
AcDbEntity
  8
0
  6
Continuous
 62
     0
370
     0
100
AcDbLine
 10
-141.563777
 20
922.307742
 30
0.0
 11
-147.404376
 21
922.307742
 31
0.0
  0
ARC
  5
276
330
233
100
AcDbEntity
  8
0
  6
Continuous
 62
     0
370
    30
100
AcDbCircle
 10
-141.563776
 20
922.307742
 30
0.0
 40
5.999999999999899
100
AcDbArc
 50
0.0
 51
90.0
  0
ARC
  5
277
330
233
100
AcDbEntity
  8
0
  6
Continuous
 62
     0
370
    30
100
AcDbCircle
 10
-141.563776
 20
922.307742
 30
0.0
 40
6.00000000000064
100
AcDbArc
 50
90.0
 51
180.0
  0
ARC
  5
278
330
233
100
AcDbEntity
  8
0
  6
Continuous
 62
     0
370
     0
100
AcDbCircle
 10
-141.564457
 20
922.307061
 30
0.0
 40
5.841280374640157
100
AcDbArc
 50
0.006679
 51
89.993321
  0
ARC
  5
279
330
233
100
AcDbEntity
  8
0
  6
Continuous
 62
     0
370
     0
100
AcDbCircle
 10
-141.563095
 20
922.307061
 30
0.0
 40
5.841280374643507
100
AcDbArc
 50
90.006679
 51
179.993321
  0
LINE
  5
27A
330
233
100
AcDbEntity
  8
0
  6
Continuous
 62
     0
370
     0
100
AcDbLine
 10
-141.563776
 20
928.148341
 30
0.0
 11
-141.563776
 21
928.307742
 31
0.0
  0
LINE
  5
27B
330
233
100
AcDbEntity
  8
0
  6
Continuous
 62
     0
370
    30
100
AcDbLine
 10
-147.563776
 20
874.41427
 30
0.0
 11
-147.563776
 21
873.165339
 31
0.0
  0
LINE
  5
27C
330
233
100
AcDbEntity
  8
0
  6
Continuous
 62
     0
370
    30
100
AcDbLine
 10
-153.563777
 20
862.490573
 30
0.0
 11
-153.563776
 21
873.490722
 31
0.0
  0
LINE
  5
27D
330
233
100
AcDbEntity
  8
0
  6
Continuous
 62
     0
370
    30
100
AcDbLine
 10
-153.563776
 20
851.490423
 30
0.0
 11
-153.563777
 21
862.490573
 31
0.0
  0
LINE
  5
27E
330
233
100
AcDbEntity
  8
0
  6
Continuous
 62
     0
370
    30
100
AcDbLine
 10
-147.563777
 20
862.490573
 30
0.0
 11
-147.563777
 21
873.165339
 31
0.0
  0
LINE
  5
27F
330
233
100
AcDbEntity
  8
0
  6
Continuous
 62
     0
370
    30
100
AcDbLine
 10
-147.563776
 20
851.490573
 30
0.0
 11
-147.563777
 21
862.490573
 31
0.0
  0
LINE
  5
280
330
233
100
AcDbEntity
  8
0
  6
Continuous
 62
     0
370
    30
100
AcDbLine
 10
-153.563776
 20
851.490573
 30
0.0
 11
-147.563776
 21
851.490573
 31
0.0
  0
LINE
  5
281
330
233
100
AcDbEntity
  8
0
  6
Continuous
 62
     0
370
    30
100
AcDbLine
 10
-153.563776
 20
873.490573
 30
0.0
 11
-147.563776
 21
873.490573
 31
0.0
  0
LWPOLYLINE
  5
282
330
233
100
AcDbEntity
  8
0
  6
Continuous
 62
     0
370
    30
100
AcDbPolyline
 90
       62
 70
     0
 43
0.0
 10
-101.063789
 20
932.49054
 10
-101.063789
 20
932.530212
 10
-101.063789
 20
932.649658
 10
-101.063789
 20
932.848145
 10
-101.063789
 20
933.125
 10
-101.063789
 20
933.479553
 10
-101.063789
 20
933.911133
 10
-101.063789
 20
934.418884
 10
-101.063789
 20
935.001282
 10
-101.063789
 20
935.656311
 10
-101.063789
 20
936.382263
 10
-101.063789
 20
937.177246
 10
-101.063789
 20
938.039368
 10
-101.063789
 20
938.966675
 10
-101.063789
 20
939.956604
 10
-101.063789
 20
941.006226
 10
-101.063789
 20
942.112549
 10
-101.063789
 20
943.272766
 10
-101.063789
 20
944.483948
 10
-101.063789
 20
945.743103
 10
-101.063789
 20
947.046814
 10
-101.063789
 20
948.391418
 10
-101.063789
 20
949.773315
 10
-101.063789
 20
951.188843
 10
-101.063789
 20
952.634216
 10
-101.063789
 20
954.105896
 10
-101.063789
 20
955.599915
 10
-101.063789
 20
957.112183
 10
-101.063789
 20
958.638733
 10
-101.063789
 20
960.175415
 10
-101.063789
 20
961.71814
 10
-101.063789
 20
963.263
 10
-101.063789
 20
964.805786
 10
-101.063789
 20
966.342468
 10
-101.063789
 20
967.868958
 10
-101.063789
 20
969.381226
 10
-101.063789
 20
970.875244
 10
-101.063789
 20
972.346924
 10
-101.063789
 20
973.792297
 10
-101.063789
 20
975.207825
 10
-101.063789
 20
976.589722
 10
-101.063789
 20
977.934326
 10
-101.063789
 20
979.238037
 10
-101.063789
 20
980.497192
 10
-101.063789
 20
981.708374
 10
-101.063789
 20
982.868591
 10
-101.063789
 20
983.974915
 10
-101.063789
 20
985.024536
 10
-101.063789
 20
986.014465
 10
-101.063789
 20
986.941772
 10
-101.063789
 20
987.803894
 10
-101.063789
 20
988.598877
 10
-101.063789
 20
989.324829
 10
-101.063789
 20
989.979919
 10
-101.063789
 20
990.562256
 10
-101.063789
 20
991.070007
 10
-101.063789
 20
991.501587
 10
-101.063789
 20
991.85614
 10
-101.063789
 20
992.132996
 10
-101.063789
 20
992.331482
 10
-101.063789
 20
992.450928
 10
-101.063789
 20
992.490601
  0
LINE
  5
283
330
233
100
AcDbEntity
  8
0
  6
Continuous
 62
     0
370
    30
100
AcDbLine
 10
-101.063787
 20
992.490575
 30
0.0
 11
-95.063787
 21
992.490575
 31
0.0
  0
LINE
  5
284
330
233
100
AcDbEntity
  8
0
  6
Continuous
 62
     0
370
    30
100
AcDbLine
 10
-95.063787
 20
932.49057
 30
0.0
 11
-95.063787
 21
992.490575
 31
0.0
  0
LINE
  5
285
330
233
100
AcDbEntity
  8
0
  6
Continuous
 62
     0
370
    30
100
AcDbLine
 10
-101.063787
 20
932.49057
 30
0.0
 11
-95.063787
 21
932.49057
 31
0.0
  0
ARC
  5
286
330
233
100
AcDbEntity
  8
0
  6
Continuous
 62
     0
370
    30
100
AcDbCircle
 10
-134.063776
 20
974.990573
 30
0.0
 40
1.500000000008171
100
AcDbArc
 50
180.0
 51
270.0
  0
LINE
  5
287
330
233
100
AcDbEntity
  8
0
  6
Continuous
 62
     0
370
    30
100
AcDbLine
 10
-101.063787
 20
951.490573
 30
0.0
 11
-147.313776
 21
951.490573
 31
0.0
  0
LINE
  5
288
330
233
100
AcDbEntity
  8
0
  6
Continuous
 62
     0
370
    30
100
AcDbLine
 10
-134.063776
 20
973.490573
 30
0.0
 11
-101.063787
 21
973.490573
 31
0.0
  0
ARC
  5
289
330
233
100
AcDbEntity
  8
0
  6
Continuous
 62
     0
370
    30
100
AcDbCircle
 10
-147.313776
 20
951.740573
 30
0.0
 40
0.2500000000554756
100
AcDbArc
 50
180.0
 51
270.0
  0
LWPOLYLINE
  5
28A
330
233
100
AcDbEntity
  8
0
  6
Continuous
 62
     0
370
     0
100
AcDbPolyline
 90
        7
 70
     0
 43
0.0
 10
-147.404327
 20
974.414307
 10
-147.395309
 20
974.082031
 10
-147.382599
 20
973.765808
 10
-147.367218
 20
973.482849
 10
-147.350266
 20
973.242065
 10
-147.332596
 20
973.050293
 10
-147.313995
 20
972.913757
  0
LWPOLYLINE
  5
28B
330
233
100
AcDbEntity
  8
0
  6
Continuous
 62
     0
370
     0
100
AcDbPolyline
 90
        8
 70
     0
 43
0.0
 10
-147.313995
 20
972.913757
 10
-145.611298
 20
972.753418
 10
-143.873337
 20
972.634338
 10
-142.112579
 20
972.575989
 10
-140.345963
 20
972.590393
 10
-138.592026
 20
972.673279
 10
-136.866058
 20
972.810486
 10
-135.179581
 20
972.980896
  0
LWPOLYLINE
  5
28C
330
233
100
AcDbEntity
  8
0
  6
Continuous
 62
     0
370
     0
100
AcDbPolyline
 90
        7
 70
     0
 43
0.0
 10
-135.179581
 20
972.980896
 10
-135.299805
 20
973.102539
 10
-135.4151
 20
973.28418
 10
-135.519333
 20
973.517395
 10
-135.607941
 20
973.791687
 10
-135.676971
 20
974.095032
 10
-135.723175
 20
974.411377
  0
LWPOLYLINE
  5
28D
330
233
100
AcDbEntity
  8
0
  6
Continuous
 62
     0
370
     0
100
AcDbPolyline
 90
        9
 70
     0
 43
0.0
 10
-135.723175
 20
974.411377
 10
-137.134171
 20
974.236084
 10
-138.584747
 20
974.089294
 10
-140.065552
 20
973.986755
 10
-141.564056
 20
973.947754
 10
-143.062637
 20
973.983215
 10
-144.543457
 20
974.085815
 10
-145.993896
 20
974.234253
 10
-147.404327
 20
974.414307
  0
LWPOLYLINE
  5
28E
330
233
100
AcDbEntity
  8
0
  6
Continuous
 62
     0
370
     0
100
AcDbPolyline
 90
        8
 70
     0
 43
0.0
 10
-135.563782
 20
974.8078
 10
-135.526093
 20
974.479431
 10
-135.415207
 20
974.166382
 10
-135.23642
 20
973.886169
 10
-134.999069
 20
973.652283
 10
-134.714691
 20
973.476135
 10
-134.397018
 20
973.366882
 10
-134.063782
 20
973.329712
  0
LINE
  5
28F
330
233
100
AcDbEntity
  8
0
  6
Continuous
 62
     0
370
     0
100
AcDbLine
 10
-134.063776
 20
973.329719
 30
0.0
 11
-134.063776
 21
973.490573
 31
0.0
  0
LWPOLYLINE
  5
290
330
233
100
AcDbEntity
  8
0
  6
Continuous
 62
     0
370
     0
100
AcDbPolyline
 90
        8
 70
     0
 43
0.0
 10
-134.063782
 20
973.329712
 10
-134.09256
 20
973.278442
 10
-134.175354
 20
973.222412
 10
-134.306656
 20
973.164978
 10
-134.480072
 20
973.109314
 10
-134.688278
 20
973.058411
 10
-134.923889
 20
973.014832
 10
-135.179581
 20
972.980896
  0
LINE
  5
291
330
233
100
AcDbEntity
  8
0
  6
Continuous
 62
     0
370
     0
100
AcDbLine
 10
-147.313777
 20
972.913741
 30
0.0
 11
-147.313776
 21
951.490573
 31
0.0
  0
LINE
  5
292
330
233
100
AcDbEntity
  8
0
  6
Continuous
 62
     0
370
     0
100
AcDbLine
 10
-135.563776
 20
1022.307742
 30
0.0
 11
-135.723177
 21
1022.307742
 31
0.0
  0
LINE
  5
293
330
233
100
AcDbEntity
  8
0
  6
Continuous
 62
     0
370
     0
100
AcDbLine
 10
-135.723177
 20
1022.307742
 30
0.0
 11
-135.723177
 21
974.411379
 31
0.0
  0
LWPOLYLINE
  5
294
330
233
100
AcDbEntity
  8
0
  6
Continuous
 62
     0
370
     0
100
AcDbPolyline
 90
        5
 70
     0
 43
0.0
 10
-135.723175
 20
974.411377
 10
-135.650955
 20
974.502686
 10
-135.603943
 20
974.604797
 10
-135.574646
 20
974.707947
 10
-135.563782
 20
974.8078
  0
LINE
  5
295
330
233
100
AcDbEntity
  8
0
  6
Continuous
 62
     0
370
    30
100
AcDbLine
 10
-135.563776
 20
974.807784
 30
0.0
 11
-135.563776
 21
1022.307742
 31
0.0
  0
LWPOLYLINE
  5
296
330
233
100
AcDbEntity
  8
0
  6
Continuous
 62
     0
370
     0
100
AcDbPolyline
 90
        4
 70
     0
 43
0.0
 10
-147.313782
 20
972.913574
 10
-147.438782
 20
972.881836
 10
-147.530273
 20
972.795105
 10
-147.563782
 20
972.676636
  0
LINE
  5
297
330
233
100
AcDbEntity
  8
0
  6
Continuous
 62
     0
370
    30
100
AcDbLine
 10
-147.563776
 20
1022.307742
 30
0.0
 11
-147.563776
 21
974.41427
 31
0.0
  0
LWPOLYLINE
  5
298
330
233
100
AcDbEntity
  8
0
  6
Continuous
 62
     0
370
     0
100
AcDbPolyline
 90
        4
 70
     0
 43
0.0
 10
-147.563782
 20
974.414246
 10
-147.544022
 20
974.414307
 10
-147.487976
 20
974.414307
 10
-147.404373
 20
974.414307
  0
LINE
  5
299
330
233
100
AcDbEntity
  8
0
  6
Continuous
 62
     0
370
     0
100
AcDbLine
 10
-147.404376
 20
974.414292
 30
0.0
 11
-147.404376
 21
1022.307742
 31
0.0
  0
LINE
  5
29A
330
233
100
AcDbEntity
  8
0
  6
Continuous
 62
     0
370
     0
100
AcDbLine
 10
-147.404376
 20
1022.307742
 30
0.0
 11
-147.563776
 21
1022.307741
 31
0.0
  0
LINE
  5
29B
330
233
100
AcDbEntity
  8
0
  6
Continuous
 62
     0
370
     0
100
AcDbLine
 10
-135.723177
 20
1022.307742
 30
0.0
 11
-141.563777
 21
1022.307742
 31
0.0
  0
LINE
  5
29C
330
233
100
AcDbEntity
  8
0
  6
Continuous
 62
     0
370
     0
100
AcDbLine
 10
-141.563777
 20
1022.307742
 30
0.0
 11
-147.404376
 21
1022.307742
 31
0.0
  0
ARC
  5
29D
330
233
100
AcDbEntity
  8
0
  6
Continuous
 62
     0
370
    30
100
AcDbCircle
 10
-141.563776
 20
1022.307742
 30
0.0
 40
6.000000000001897
100
AcDbArc
 50
0.0
 51
90.0
  0
ARC
  5
29E
330
233
100
AcDbEntity
  8
0
  6
Continuous
 62
     0
370
    30
100
AcDbCircle
 10
-141.563776
 20
1022.307742
 30
0.0
 40
6.00000000000005
100
AcDbArc
 50
90.0
 51
180.0
  0
ARC
  5
29F
330
233
100
AcDbEntity
  8
0
  6
Continuous
 62
     0
370
     0
100
AcDbCircle
 10
-141.564457
 20
1022.307061
 30
0.0
 40
5.841280374636354
100
AcDbArc
 50
0.006679
 51
89.993321
  0
ARC
  5
2A0
330
233
100
AcDbEntity
  8
0
  6
Continuous
 62
     0
370
     0
100
AcDbCircle
 10
-141.563095
 20
1022.307061
 30
0.0
 40
5.84128037464053
100
AcDbArc
 50
90.006679
 51
179.993321
  0
LINE
  5
2A1
330
233
100
AcDbEntity
  8
0
  6
Continuous
 62
     0
370
     0
100
AcDbLine
 10
-141.563776
 20
1028.148341
 30
0.0
 11
-141.563776
 21
1028.307742
 31
0.0
  0
LINE
  5
2A2
330
233
100
AcDbEntity
  8
0
  6
Continuous
 62
     0
370
    30
100
AcDbLine
 10
-147.563776
 20
974.41427
 30
0.0
 11
-147.563776
 21
973.165339
 31
0.0
  0
LINE
  5
2A3
330
233
100
AcDbEntity
  8
0
  6
Continuous
 62
     0
370
    30
100
AcDbLine
 10
-153.563777
 20
962.490573
 30
0.0
 11
-153.563776
 21
973.490722
 31
0.0
  0
LINE
  5
2A4
330
233
100
AcDbEntity
  8
0
  6
Continuous
 62
     0
370
    30
100
AcDbLine
 10
-153.563776
 20
951.490423
 30
0.0
 11
-153.563777
 21
962.490573
 31
0.0
  0
LINE
  5
2A5
330
233
100
AcDbEntity
  8
0
  6
Continuous
 62
     0
370
    30
100
AcDbLine
 10
-147.563777
 20
962.490573
 30
0.0
 11
-147.563777
 21
973.165339
 31
0.0
  0
LINE
  5
2A6
330
233
100
AcDbEntity
  8
0
  6
Continuous
 62
     0
370
    30
100
AcDbLine
 10
-147.563776
 20
951.490573
 30
0.0
 11
-147.563777
 21
962.490573
 31
0.0
  0
LINE
  5
2A7
330
233
100
AcDbEntity
  8
0
  6
Continuous
 62
     0
370
    30
100
AcDbLine
 10
-153.563776
 20
951.490573
 30
0.0
 11
-147.563776
 21
951.490573
 31
0.0
  0
LINE
  5
2A8
330
233
100
AcDbEntity
  8
0
  6
Continuous
 62
     0
370
    30
100
AcDbLine
 10
-153.563776
 20
973.490573
 30
0.0
 11
-147.563776
 21
973.490573
 31
0.0
  0
LINE
  5
2A9
330
233
100
AcDbEntity
  8
0
  6
Continuous
 62
     0
370
    30
100
AcDbLine
 10
-147.063788
 20
671.820485
 30
0.0
 11
-154.963788
 21
671.820485
 31
0.0
  0
LINE
  5
2AA
330
233
100
AcDbEntity
  8
0
  6
Continuous
 62
     0
370
    30
100
AcDbLine
 10
-154.963788
 20
664.490485
 30
0.0
 11
-154.963788
 21
671.820485
 31
0.0
  0
LWPOLYLINE
  5
2AB
330
233
100
AcDbEntity
  8
0
  6
Continuous
 62
     0
370
    30
100
AcDbPolyline
 90
       24
 70
     0
 43
0.0
 10
-154.963791
 20
664.490479
 10
-154.926865
 20
664.483887
 10
-154.816757
 20
664.464478
 10
-154.635956
 20
664.433899
 10
-154.387878
 20
664.394348
 10
-154.077316
 20
664.348633
 10
-153.710037
 20
664.300232
 10
-153.292679
 20
664.252625
 10
-152.832718
 20
664.209229
 10
-152.338409
 20
664.173462
 10
-151.818878
 20
664.147949
 10
-151.28389
 20
664.134644
 10
-150.743698
 20
664.134705
 10
-150.20871
 20
664.147949
 10
-149.689194
 20
664.173462
 10
-149.194885
 20
664.209229
 10
-148.734909
 20
664.252563
 10
-148.317627
 20
664.300232
 10
-147.950272
 20
664.348633
 10
-147.639694
 20
664.394348
 10
-147.391785
 20
664.433838
 10
-147.210846
 20
664.464478
 10
-147.100708
 20
664.483887
 10
-147.063782
 20
664.490479
  0
LINE
  5
2AC
330
233
100
AcDbEntity
  8
0
  6
Continuous
 62
     0
370
    30
100
AcDbLine
 10
-147.563788
 20
672.320485
 30
0.0
 11
-154.463788
 21
672.320485
 31
0.0
  0
LINE
  5
2AD
330
233
100
AcDbEntity
  8
0
  6
Continuous
 62
     0
370
    30
100
AcDbLine
 10
-154.463788
 20
672.320485
 30
0.0
 11
-154.963788
 21
671.820485
 31
0.0
  0
LINE
  5
2AE
330
233
100
AcDbEntity
  8
0
  6
Continuous
 62
     0
370
    30
100
AcDbLine
 10
-160.013788
 20
663.990485
 30
0.0
 11
-160.013788
 21
620.990485
 31
0.0
  0
LINE
  5
2AF
330
233
100
AcDbEntity
  8
0
  6
Continuous
 62
     0
370
    30
100
AcDbLine
 10
-160.013788
 20
620.990485
 30
0.0
 11
-159.513788
 21
620.490485
 31
0.0
  0
LINE
  5
2B0
330
233
100
AcDbEntity
  8
0
  6
Continuous
 62
     0
370
    30
100
AcDbLine
 10
-159.513788
 20
664.490485
 30
0.0
 11
-159.513788
 21
620.490485
 31
0.0
  0
LINE
  5
2B1
330
233
100
AcDbEntity
  8
0
  6
Continuous
 62
     0
370
    30
100
AcDbLine
 10
-147.063788
 20
664.490485
 30
0.0
 11
-110.013788
 21
664.490485
 31
0.0
  0
LINE
  5
2B2
330
233
100
AcDbEntity
  8
0
  6
Continuous
 62
     0
370
    30
100
AcDbLine
 10
-159.513788
 20
664.490485
 30
0.0
 11
-154.963788
 21
664.490485
 31
0.0
  0
LINE
  5
2B3
330
233
100
AcDbEntity
  8
0
  6
Continuous
 62
     0
370
    30
100
AcDbLine
 10
-110.013788
 20
620.490485
 30
0.0
 11
-159.513788
 21
620.490485
 31
0.0
  0
LINE
  5
2B4
330
233
100
AcDbEntity
  8
0
  6
Continuous
 62
     0
370
    30
100
AcDbLine
 10
-110.013788
 20
664.490485
 30
0.0
 11
-110.013788
 21
620.490485
 31
0.0
  0
LWPOLYLINE
  5
2B5
330
233
100
AcDbEntity
  8
0
  6
Continuous
 62
     0
370
     0
100
AcDbPolyline
 90
       36
 70
     0
 43
0.0
 10
-107.108643
 20
663.490479
 10
-107.103355
 20
663.451965
 10
-107.098648
 20
663.33728
 10
-107.094543
 20
663.146851
 10
-107.091042
 20
662.88147
 10
-107.088165
 20
662.542175
 10
-107.08593
 20
662.129822
 10
-107.084343
 20
661.646118
 10
-107.083412
 20
661.093018
 10
-107.08313
 20
660.472412
 10
-107.083504
 20
659.786377
 10
-107.084541
 20
659.037537
 10
-107.08622
 20
658.228638
 10
-107.088547
 20
657.362305
 10
-107.091515
 20
656.441711
 10
-107.095108
 20
655.470642
 10
-107.099304
 20
654.453125
 10
-107.104095
 20
653.392944
 10
-107.109467
 20
652.293884
 10
-107.115395
 20
651.159546
 10
-107.121857
 20
649.993408
 10
-107.128838
 20
648.799194
 10
-107.136322
 20
647.58136
 10
-107.144264
 20
646.344543
 10
-107.152649
 20
645.093567
 10
-107.16143
 20
643.83313
 10
-107.170586
 20
642.568115
 10
-107.180077
 20
641.303406
 10
-107.189857
 20
640.043762
 10
-107.199905
 20
638.793884
 10
-107.210175
 20
637.557922
 10
-107.22065
 20
636.339233
 10
-107.231293
 20
635.140869
 10
-107.242073
 20
633.967957
 10
-107.252914
 20
632.827209
 10
-107.263779
 20
631.723572
  0
LINE
  5
2B6
330
233
100
AcDbEntity
  8
0
  6
Continuous
 62
     0
370
     0
100
AcDbLine
 10
-107.263776
 20
631.723547
 30
0.0
 11
-105.459431
 21
631.723547
 31
0.0
  0
LINE
  5
2B7
330
233
100
AcDbEntity
  8
0
  6
Continuous
 62
     0
370
    30
100
AcDbLine
 10
-105.459431
 20
642.490487
 30
0.0
 11
-105.459431
 21
631.723547
 31
0.0
  0
LINE
  5
2B8
330
233
100
AcDbEntity
  8
0
  6
Continuous
 62
     0
370
    30
100
AcDbLine
 10
-105.459431
 20
642.900715
 30
0.0
 11
-105.459431
 21
642.490487
 31
0.0
  0
LWPOLYLINE
  5
2B9
330
233
100
AcDbEntity
  8
0
  6
Continuous
 62
     0
370
     0
100
AcDbPolyline
 90
       27
 70
     0
 43
0.0
 10
-105.459435
 20
642.900696
 10
-105.468391
 20
644.150635
 10
-105.47699
 20
645.39679
 10
-105.485207
 20
646.635437
 10
-105.492996
 20
647.860657
 10
-105.500328
 20
649.066467
 10
-105.507156
 20
650.247498
 10
-105.513474
 20
651.399902
 10
-105.519241
 20
652.519958
 10
-105.524467
 20
653.603943
 10
-105.529106
 20
654.648315
 10
-105.533157
 20
655.649353
 10
-105.536613
 20
656.603699
 10
-105.539444
 20
657.507935
 10
-105.541656
 20
658.358643
 10
-105.543228
 20
659.152405
 10
-105.544159
 20
659.886353
 10
-105.544441
 20
660.558105
 10
-105.544083
 20
661.165527
 10
-105.543076
 20
661.706177
 10
-105.541428
 20
662.177917
 10
-105.539146
 20
662.579102
 10
-105.536232
 20
662.908691
 10
-105.532707
 20
663.165588
 10
-105.528587
 20
663.348755
 10
-105.523872
 20
663.457092
 10
-105.518585
 20
663.490417
  0
LWPOLYLINE
  5
2BA
330
233
100
AcDbEntity
  8
0
  6
Continuous
 62
     0
370
     0
100
AcDbPolyline
 90
       18
 70
     0
 43
0.0
 10
-107.263779
 20
631.723572
 10
-107.252831
 20
630.650879
 10
-107.241905
 20
629.620178
 10
-107.231049
 20
628.63562
 10
-107.220314
 20
627.702271
 10
-107.209755
 20
626.824219
 10
-107.199387
 20
626.004395
 10
-107.18927
 20
625.245483
 10
-107.17942
 20
624.55011
 10
-107.169876
 20
623.920776
 10
-107.160683
 20
623.35968
 10
-107.151871
 20
622.86908
 10
-107.143463
 20
622.45105
 10
-107.135506
 20
622.106934
 10
-107.128021
 20
621.837891
 10
-107.12104
 20
621.645081
 10
-107.114578
 20
621.529297
 10
-107.108673
 20
621.490723
  0
LWPOLYLINE
  5
2BB
330
233
100
AcDbEntity
  8
0
  6
Continuous
 62
     0
370
     0
100
AcDbPolyline
 90
        9
 70
     0
 43
0.0
 10
-105.518883
 20
621.490479
 10
-105.513115
 20
621.527588
 10
-105.506828
 20
621.638428
 10
-105.500038
 20
621.82251
 10
-105.492767
 20
622.079224
 10
-105.485046
 20
622.407776
 10
-105.476891
 20
622.807068
 10
-105.468338
 20
623.275635
 10
-105.459435
 20
623.811279
  0
LINE
  5
2BC
330
233
100
AcDbEntity
  8
0
  6
Continuous
 62
     0
370
    30
100
AcDbLine
 10
-105.459431
 20
631.723547
 30
0.0
 11
-105.459431
 21
623.811274
 31
0.0
  0
LWPOLYLINE
  5
2BD
330
233
100
AcDbEntity
  8
0
  6
Continuous
 62
     0
370
     0
100
AcDbPolyline
 90
       13
 70
     0
 43
0.0
 10
-107.563789
 20
631.87738
 10
-107.55278
 20
630.814392
 10
-107.541824
 20
629.7948
 10
-107.530937
 20
628.822327
 10
-107.52018
 20
627.900635
 10
-107.509583
 20
627.033142
 10
-107.499184
 20
626.223022
 10
-107.489029
 20
625.473267
 10
-107.479149
 20
624.786743
 10
-107.469582
 20
624.166016
 10
-107.460365
 20
623.613281
 10
-107.451538
 20
623.130615
 10
-107.443123
 20
622.71991
  0
LWPOLYLINE
  5
2BE
330
233
100
AcDbEntity
  8
0
  6
Continuous
 62
     0
370
     0
100
AcDbPolyline
 90
       38
 70
     0
 43
0.0
 10
-107.424652
 20
662.949463
 10
-107.41787
 20
663.104614
 10
-107.411629
 20
663.182678
 10
-107.40596
 20
663.183411
 10
-107.400879
 20
663.106812
 10
-107.396416
 20
662.953125
 10
-107.39257
 20
662.7229
 10
-107.389366
 20
662.417114
 10
-107.38681
 20
662.036804
 10
-107.384918
 20
661.583374
 10
-107.383698
 20
661.058655
 10
-107.383148
 20
660.464478
 10
-107.383278
 20
659.803101
 10
-107.384079
 20
659.077026
 10
-107.385551
 20
658.28894
 10
-107.387695
 20
657.441772
 10
-107.390488
 20
656.538757
 10
-107.393936
 20
655.583191
 10
-107.398018
 20
654.578674
 10
-107.402718
 20
653.528992
 10
-107.40802
 20
652.438049
 10
-107.413902
 20
651.309937
 10
-107.420349
 20
650.148804
 10
-107.42733
 20
648.959106
 10
-107.434822
 20
647.745239
 10
-107.442795
 20
646.511658
 10
-107.451225
 20
645.263123
 10
-107.460068
 20
644.004211
 10
-107.469299
 20
642.739624
 10
-107.478889
 20
641.474182
 10
-107.488792
 20
640.212463
 10
-107.498978
 20
638.95929
 10
-107.509407
 20
637.71936
 10
-107.520035
 20
636.497253
 10
-107.53083
 20
635.297607
 10
-107.541748
 20
634.124817
 10
-107.55275
 20
632.983337
 10
-107.563789
 20
631.87738
  0
LWPOLYLINE
  5
2BF
330
233
100
AcDbEntity
  8
0
  6
Continuous
 62
     0
370
     0
100
AcDbPolyline
 90
       35
 70
     0
 43
0.0
 10
-109.939522
 20
662.740479
 10
-109.939522
 20
662.70459
 10
-109.939522
 20
662.595093
 10
-109.939522
 20
662.409485
 10
-109.939522
 20
662.146118
 10
-109.939522
 20
661.804138
 10
-109.939522
 20
661.383667
 10
-109.939522
 20
660.88562
 10
-109.939522
 20
660.312134
 10
-109.939522
 20
659.666016
 10
-109.939522
 20
658.951111
 10
-109.939522
 20
658.172119
 10
-109.939522
 20
657.334351
 10
-109.939522
 20
656.443787
 10
-109.939522
 20
655.506836
 10
-109.939522
 20
654.530212
 10
-109.939522
 20
653.520874
 10
-109.939522
 20
652.48584
 10
-109.939522
 20
651.418823
 10
-109.939522
 20
650.304138
 10
-109.939522
 20
649.14624
 10
-109.939522
 20
647.950256
 10
-109.939522
 20
646.72229
 10
-109.939522
 20
645.468933
 10
-109.939522
 20
644.197266
 10
-109.939522
 20
642.914734
 10
-109.939522
 20
641.629028
 10
-109.939522
 20
640.347961
 10
-109.939522
 20
639.079163
 10
-109.939522
 20
637.830078
 10
-109.939522
 20
636.607788
 10
-109.939522
 20
635.418823
 10
-109.939522
 20
634.269226
 10
-109.939522
 20
633.164124
 10
-109.939522
 20
632.108093
  0
LINE
  5
2C0
330
233
100
AcDbEntity
  8
0
  6
Continuous
 62
     0
370
     0
100
AcDbLine
 10
-109.939524
 20
632.108081
 30
0.0
 11
-107.863799
 21
632.108081
 31
0.0
  0
LWPOLYLINE
  5
2C1
330
233
100
AcDbEntity
  8
0
  6
Continuous
 62
     0
370
     0
100
AcDbPolyline
 90
       35
 70
     0
 43
0.0
 10
-107.8638
 20
632.108093
 10
-107.852661
 20
633.207642
 10
-107.841553
 20
634.345276
 10
-107.830513
 20
635.515503
 10
-107.819618
 20
636.711243
 10
-107.808914
 20
637.927429
 10
-107.798416
 20
639.160889
 10
-107.788177
 20
640.407898
 10
-107.778214
 20
641.663818
 10
-107.768578
 20
642.923767
 10
-107.759308
 20
644.182495
 10
-107.750443
 20
645.434814
 10
-107.742012
 20
646.67572
 10
-107.734062
 20
647.900146
 10
-107.726608
 20
649.103027
 10
-107.719704
 20
650.279419
 10
-107.713348
 20
651.424988
 10
-107.707581
 20
652.536072
 10
-107.702415
 20
653.608765
 10
-107.697868
 20
654.639221
 10
-107.693954
 20
655.623413
 10
-107.690704
 20
656.55719
 10
-107.688118
 20
657.436279
 10
-107.686218
 20
658.257263
 10
-107.685005
 20
659.01709
 10
-107.684479
 20
659.712952
 10
-107.684654
 20
660.342041
 10
-107.685524
 20
660.901978
 10
-107.68708
 20
661.390808
 10
-107.689323
 20
661.806396
 10
-107.692245
 20
662.147034
 10
-107.695831
 20
662.411621
 10
-107.700066
 20
662.599182
 10
-107.704926
 20
662.708801
 10
-107.710396
 20
662.740112
  0
LWPOLYLINE
  5
2C2
330
233
100
AcDbEntity
  8
0
  6
Continuous
 62
     0
370
     0
100
AcDbPolyline
 90
       18
 70
     0
 43
0.0
 10
-107.709824
 20
622.240723
 10
-107.715691
 20
622.277954
 10
-107.722099
 20
622.389648
 10
-107.729034
 20
622.575562
 10
-107.736465
 20
622.835022
 10
-107.744362
 20
623.16687
 10
-107.752701
 20
623.570007
 10
-107.761452
 20
624.043091
 10
-107.770584
 20
624.584106
 10
-107.780052
 20
625.190979
 10
-107.789833
 20
625.861511
 10
-107.799881
 20
626.593323
 10
-107.810165
 20
627.38385
 10
-107.820656
 20
628.230469
 10
-107.831314
 20
629.130493
 10
-107.842087
 20
630.079895
 10
-107.852936
 20
631.073792
 10
-107.8638
 20
632.108093
  0
LINE
  5
2C3
330
233
100
AcDbEntity
  8
0
  6
Continuous
 62
     0
370
     0
100
AcDbLine
 10
-109.939524
 20
632.108081
 30
0.0
 11
-109.939523
 21
622.240485
 31
0.0
  0
ARC
  5
2C4
330
233
100
AcDbEntity
  8
0
  6
Continuous
 62
     0
370
     0
100
AcDbCircle
 10
-109.939809
 20
632.682063
 30
0.0
 40
0.5739822123220055
100
AcDbArc
 50
262.594655
 51
270.028485
  0
LWPOLYLINE
  5
2C5
330
233
100
AcDbEntity
  8
0
  6
Continuous
 62
     0
370
     0
100
AcDbPolyline
 90
        5
 70
     0
 43
0.0
 10
-107.8638
 20
632.108093
 10
-107.749245
 20
632.09668
 10
-107.651604
 20
632.063538
 10
-107.586655
 20
632.013367
 10
-107.563789
 20
631.954285
  0
LWPOLYLINE
  5
2C6
330
233
100
AcDbEntity
  8
0
  6
Continuous
 62
     0
370
     0
100
AcDbPolyline
 90
        5
 70
     0
 43
0.0
 10
-107.563789
 20
631.87738
 10
-107.540916
 20
631.819031
 10
-107.475975
 20
631.769043
 10
-107.378326
 20
631.735535
 10
-107.263779
 20
631.723572
  0
LWPOLYLINE
  5
2C7
330
233
100
AcDbEntity
  8
0
  6
Continuous
 62
     0
370
    30
100
AcDbPolyline
 90
        9
 70
     0
 43
0.0
 10
-105.459488
 20
621.496582
 10
-105.45948
 20
621.531189
 10
-105.459465
 20
621.639954
 10
-105.459457
 20
621.82251
 10
-105.45945
 20
622.078186
 10
-105.459442
 20
622.40625
 10
-105.459435
 20
622.805359
 10
-105.459435
 20
623.274292
 10
-105.459435
 20
623.811279
  0
LWPOLYLINE
  5
2C8
330
233
100
AcDbEntity
  8
0
  6
Continuous
 62
     0
370
    30
100
AcDbPolyline
 90
       27
 70
     0
 43
0.0
 10
-105.459435
 20
642.900696
 10
-105.459435
 20
644.152954
 10
-105.459435
 20
645.399292
 10
-105.459442
 20
646.635132
 10
-105.45945
 20
647.85614
 10
-105.459457
 20
649.057922
 10
-105.459473
 20
650.236267
 10
-105.45948
 20
651.386902
 10
-105.459488
 20
652.505615
 10
-105.459503
 20
653.588684
 10
-105.459511
 20
654.632141
 10
-105.459526
 20
655.632202
 10
-105.459534
 20
656.585327
 10
-105.459541
 20
657.488281
 10
-105.459549
 20
658.337891
 10
-105.459549
 20
659.130981
 10
-105.459557
 20
659.864685
 10
-105.459557
 20
660.536621
 10
-105.459557
 20
661.14447
 10
-105.459549
 20
661.68573
 10
-105.459549
 20
662.158569
 10
-105.459541
 20
662.561584
 10
-105.459534
 20
662.893188
 10
-105.459518
 20
663.1521
 10
-105.459511
 20
663.33728
 10
-105.459503
 20
663.448242
 10
-105.459488
 20
663.484436
  0
LINE
  5
2C9
330
233
100
AcDbEntity
  8
0
  6
Continuous
 62
     0
370
     0
100
AcDbLine
 10
-104.578653
 20
642.490489
 30
0.0
 11
-104.57865
 21
577.975219
 31
0.0
  0
LINE
  5
2CA
330
233
100
AcDbEntity
  8
0
  6
Continuous
 62
     0
370
     0
100
AcDbLine
 10
-104.57865
 20
707.005752
 30
0.0
 11
-104.578653
 21
642.490489
 31
0.0
  0
LINE
  5
2CB
330
233
100
AcDbEntity
  8
0
  6
Continuous
 62
     0
370
     0
100
AcDbLine
 10
-104.078886
 20
642.490489
 30
0.0
 11
-104.078883
 21
707.490485
 31
0.0
  0
LINE
  5
2CC
330
233
100
AcDbEntity
  8
0
  6
Continuous
 62
     0
370
     0
100
AcDbLine
 10
-104.078883
 20
577.490485
 30
0.0
 11
-104.078886
 21
642.490489
 31
0.0
  0
LINE
  5
2CD
330
233
100
AcDbEntity
  8
0
  6
Continuous
 62
     0
370
    30
100
AcDbLine
 10
-95.063787
 20
577.490485
 30
0.0
 11
-95.06379
 21
642.490485
 31
0.0
  0
LINE
  5
2CE
330
233
100
AcDbEntity
  8
0
  6
Continuous
 62
     0
370
     0
100
AcDbLine
 10
-95.06379
 20
642.490485
 30
0.0
 11
-104.078886
 21
642.490489
 31
0.0
  0
LINE
  5
2CF
330
233
100
AcDbEntity
  8
0
  6
Continuous
 62
     0
370
    30
100
AcDbLine
 10
-95.06379
 20
642.490485
 30
0.0
 11
-95.063787
 21
707.490485
 31
0.0
  0
LINE
  5
2D0
330
233
100
AcDbEntity
  8
0
  6
Continuous
 62
     0
370
    30
100
AcDbLine
 10
-95.063787
 20
707.490485
 30
0.0
 11
-104.078883
 21
707.490485
 31
0.0
  0
LINE
  5
2D1
330
233
100
AcDbEntity
  8
0
  6
Continuous
 62
     0
370
    30
100
AcDbLine
 10
-95.063787
 20
577.490485
 30
0.0
 11
-104.078883
 21
577.490485
 31
0.0
  0
ARC
  5
2D2
330
233
100
AcDbEntity
  8
0
  6
Continuous
 62
     0
370
    30
100
AcDbCircle
 10
2007.466769
 20
642.489867
 30
0.0
 40
2113.030560466869
100
AcDbArc
 50
178.250347
 51
179.430712
  0
ARC
  5
2D3
330
233
100
AcDbEntity
  8
0
  6
Continuous
 62
     0
370
    30
100
AcDbCircle
 10
2007.466564
 20
642.4911
 30
0.0
 40
2113.030355754087
100
AcDbArc
 50
180.569286
 51
181.749653
  0
ARC
  5
2D4
330
233
100
AcDbEntity
  8
0
  6
Continuous
 62
     0
370
    30
100
AcDbCircle
 10
-104.078794
 20
577.990577
 30
0.0
 40
0.500091456883567
100
AcDbArc
 50
181.759817
 51
269.989841
  0
ARC
  5
2D5
330
233
100
AcDbEntity
  8
0
  6
Continuous
 62
     0
370
    30
100
AcDbCircle
 10
-104.078794
 20
706.990394
 30
0.0
 40
0.5000914569364491
100
AcDbArc
 50
90.010159
 51
178.240183
  0
ARC
  5
2D6
330
233
100
AcDbEntity
  8
0
  6
Continuous
 62
     0
370
    30
100
AcDbCircle
 10
-105.51912
 20
663.189722
 30
0.0
 40
0.3007161286911115
100
AcDbArc
 50
78.563249
 51
89.955951
  0
ARC
  5
2D7
330
233
100
AcDbEntity
  8
0
  6
Continuous
 62
     0
370
    30
100
AcDbCircle
 10
-105.519118
 20
621.79127
 30
0.0
 40
0.3007163425780479
100
AcDbArc
 50
270.044041
 51
281.436489
  0
LWPOLYLINE
  5
2D8
330
233
100
AcDbEntity
  8
0
  6
Continuous
 62
     0
370
    30
100
AcDbPolyline
 90
       52
 70
     0
 43
0.0
 10
-107.108688
 20
621.49054
 10
-107.38472
 20
621.671448
 10
-107.408043
 20
621.754456
 10
-107.412247
 20
621.789062
 10
-107.414948
 20
621.822388
 10
-107.417351
 20
621.860962
 10
-107.419693
 20
621.906677
 10
-107.422043
 20
621.960205
 10
-107.424423
 20
622.02179
 10
-107.426842
 20
622.091614
 10
-107.429306
 20
622.1698
 10
-107.431824
 20
622.256226
 10
-107.434395
 20
622.351074
 10
-107.437012
 20
622.454285
 10
-107.439682
 20
622.565735
 10
-107.442398
 20
622.685547
 10
-107.445168
 20
622.813599
 10
-107.44799
 20
622.949829
 10
-107.450851
 20
623.094177
 10
-107.453766
 20
623.246582
 10
-107.456726
 20
623.407043
 10
-107.459724
 20
623.575439
 10
-107.462769
 20
623.75177
 10
-107.465858
 20
623.935913
 10
-107.468987
 20
624.127869
 10
-107.472153
 20
624.327515
 10
-107.475357
 20
624.534668
 10
-107.4786
 20
624.749329
 10
-107.48188
 20
624.971436
 10
-107.485191
 20
625.200806
 10
-107.488533
 20
625.437439
 10
-107.491913
 20
625.681152
 10
-107.495316
 20
625.931946
 10
-107.498749
 20
626.189636
 10
-107.502213
 20
626.454163
 10
-107.505699
 20
626.725403
 10
-107.509216
 20
627.003235
 10
-107.512749
 20
627.287537
 10
-107.516304
 20
627.578186
 10
-107.519882
 20
627.875061
 10
-107.523476
 20
628.178101
 10
-107.527084
 20
628.487061
 10
-107.530708
 20
628.801941
 10
-107.534348
 20
629.122498
 10
-107.538002
 20
629.448669
 10
-107.541664
 20
629.780334
 10
-107.545341
 20
630.117249
 10
-107.549019
 20
630.459351
 10
-107.552704
 20
630.806519
 10
-107.556396
 20
631.158508
 10
-107.560089
 20
631.515259
 10
-107.563782
 20
631.876587
  0
LWPOLYLINE
  5
2D9
330
233
100
AcDbEntity
  8
0
  6
Continuous
 62
     0
370
    30
100
AcDbPolyline
 90
       22
 70
     0
 43
0.0
 10
-107.424789
 20
662.948975
 10
-107.423859
 20
662.974365
 10
-107.422935
 20
662.998535
 10
-107.422012
 20
663.021423
 10
-107.421104
 20
663.043091
 10
-107.420189
 20
663.063599
 10
-107.419281
 20
663.082886
 10
-107.418373
 20
663.101013
 10
-107.417458
 20
663.118042
 10
-107.416542
 20
663.133911
 10
-107.415611
 20
663.148804
 10
-107.41465
 20
663.162781
 10
-107.413628
 20
663.175964
 10
-107.412552
 20
663.188538
 10
-107.411369
 20
663.200867
 10
-107.409851
 20
663.213867
 10
-107.407631
 20
663.229065
 10
-107.40387
 20
663.24939
 10
-107.394066
 20
663.28479
 10
-107.358185
 20
663.357483
 10
-107.257401
 20
663.450989
 10
-107.108688
 20
663.490417
  0
LWPOLYLINE
  5
2DA
330
233
100
AcDbEntity
  8
0
  6
Continuous
 62
     0
370
    30
100
AcDbPolyline
 90
        8
 70
     0
 43
0.0
 10
-107.415726
 20
662.98877
 10
-107.415985
 20
662.986877
 10
-107.417183
 20
662.979919
 10
-107.420372
 20
662.964355
 10
-107.432205
 20
662.927795
 10
-107.475182
 20
662.853882
 10
-107.574532
 20
662.772705
 10
-107.709831
 20
662.740417
  0
LWPOLYLINE
  5
2DB
330
233
100
AcDbEntity
  8
0
  6
Continuous
 62
     0
370
    30
100
AcDbPolyline
 90
        5
 70
     0
 43
0.0
 10
-107.709831
 20
622.24054
 10
-107.59082
 20
622.21582
 10
-107.495583
 20
622.15033
 10
-107.442924
 20
622.076721
 10
-107.424789
 20
622.031982
  0
ARC
  5
2DC
330
233
100
AcDbEntity
  8
0
  6
Continuous
 62
     0
370
    30
100
AcDbCircle
 10
-109.939482
 20
662.440034
 30
0.0
 40
0.3003239324954468
100
AcDbArc
 50
90.007887
 51
104.326878
  0
ARC
  5
2DD
330
233
100
AcDbEntity
  8
0
  6
Continuous
 62
     0
370
    30
100
AcDbCircle
 10
-109.939482
 20
622.540889
 30
0.0
 40
0.3003236378867934
100
AcDbArc
 50
255.672876
 51
269.992135
  0
LINE
  5
2DE
330
233
100
AcDbEntity
  8
0
  6
Continuous
 62
     0
370
    30
100
AcDbLine
 10
-107.709827
 20
622.240485
 30
0.0
 11
-109.939523
 21
622.240485
 31
0.0
  0
LINE
  5
2DF
330
233
100
AcDbEntity
  8
0
  6
Continuous
 62
     0
370
    30
100
AcDbLine
 10
-109.939523
 20
662.740485
 30
0.0
 11
-107.709838
 21
662.740485
 31
0.0
  0
LINE
  5
2E0
330
233
100
AcDbEntity
  8
0
  6
Continuous
 62
     0
370
    30
100
AcDbLine
 10
-107.108677
 20
621.490485
 30
0.0
 11
-105.518893
 21
621.490485
 31
0.0
  0
LINE
  5
2E1
330
233
100
AcDbEntity
  8
0
  6
Continuous
 62
     0
370
    30
100
AcDbLine
 10
-107.108697
 20
663.490485
 30
0.0
 11
-105.518893
 21
663.490485
 31
0.0
  0
LINE
  5
2E2
330
233
100
AcDbEntity
  8
0
  6
Continuous
 62
     0
370
    30
100
AcDbLine
 10
-159.513788
 20
664.490485
 30
0.0
 11
-160.013788
 21
663.990485
 31
0.0
  0
LINE
  5
2E3
330
233
100
AcDbEntity
  8
0
  6
Continuous
 62
     0
370
    30
100
AcDbLine
 10
-147.063788
 20
671.820485
 30
0.0
 11
-147.563788
 21
672.320485
 31
0.0
  0
LINE
  5
2E4
330
233
100
AcDbEntity
  8
0
  6
Continuous
 62
     0
370
    30
100
AcDbLine
 10
-147.063788
 20
671.820485
 30
0.0
 11
-147.063788
 21
664.490485
 31
0.0
  0
ENDBLK
  5
2E6
330
233
100
AcDbEntity
  8
0
100
AcDbBlockEnd
  0
ENDSEC
  0
SECTION
  2
ENTITIES
  0
INSERT
  5
FA
330
1F
100
AcDbEntity
  8
0
  6
Continuous
 62
     7
370
     0
100
AcDbBlockReference
  2
a
 10
15.792099
 20
98.419441
 30
0.0
  0
INSERT
  5
172
330
1F
100
AcDbEntity
  8
0
  6
Continuous
 62
     7
370
     0
100
AcDbBlockReference
  2
b
 10
15.792099
 20
428.913277
 30
0.0
  0
INSERT
  5
232
330
1F
100
AcDbEntity
  8
0
  6
Continuous
 62
     7
370
     0
100
AcDbBlockReference
  2
c
 10
73.501144
 20
98.419441
 30
0.0
  0
INSERT
  5
2E7
330
1F
100
AcDbEntity
  8
0
  6
Continuous
 62
     7
370
     0
100
AcDbBlockReference
  2
e
 10
-59.87233
 20
0.0
 30
0.0
  0
ENDSEC
  0
SECTION
  2
OBJECTS
  0
DICTIONARY
  5
C
330
0
100
AcDbDictionary
281
     1
  3
ACAD_GROUP
350
D
  3
ACAD_LAYOUT
350
1A
  3
ACAD_MATERIAL
350
43
  3
ACAD_MLEADERSTYLE
350
6B
  3
ACAD_MLINESTYLE
350
17
  3
ACAD_PLOTSETTINGS
350
19
  3
ACAD_PLOTSTYLENAME
350
E
  3
ACAD_SCALELIST
350
47
  3
ACAD_TABLESTYLE
350
69
  3
ACAD_VISUALSTYLE
350
2A
  3
AcDbVariableDictionary
350
2E8
  0
DICTIONARY
  5
2F3
330
8
100
AcDbDictionary
280
     1
281
     1
  3
ACAD_XREC_ROUNDTRIP
360
2F4
  0
DICTIONARY
  5
D
102
{ACAD_REACTORS
330
C
102
}
330
C
100
AcDbDictionary
281
     1
  0
DICTIONARY
  5
1A
102
{ACAD_REACTORS
330
C
102
}
330
C
100
AcDbDictionary
281
     1
  3
Layout1
350
1E
  3
Layout2
350
26
  3
Model
350
22
  0
DICTIONARY
  5
43
102
{ACAD_REACTORS
330
C
102
}
330
C
100
AcDbDictionary
281
     1
  3
ByBlock
350
45
  3
ByLayer
350
44
  3
Global
350
46
  0
DICTIONARY
  5
6B
102
{ACAD_REACTORS
330
C
102
}
330
C
100
AcDbDictionary
281
     1
  3
Standard
350
6C
  0
DICTIONARY
  5
17
102
{ACAD_REACTORS
330
C
102
}
330
C
100
AcDbDictionary
281
     1
  3
Standard
350
18
  0
DICTIONARY
  5
19
102
{ACAD_REACTORS
330
C
102
}
330
C
100
AcDbDictionary
281
     1
  0
ACDBDICTIONARYWDFLT
  5
E
102
{ACAD_REACTORS
330
C
102
}
330
C
100
AcDbDictionary
281
     1
  3
Normal
350
F
100
AcDbDictionaryWithDefault
340
F
  0
DICTIONARY
  5
47
102
{ACAD_REACTORS
330
C
102
}
330
C
100
AcDbDictionary
281
     1
  3
A0
350
48
  3
A1
350
49
  3
A2
350
4A
  3
A3
350
4B
  3
A4
350
4C
  3
A5
350
4D
  3
A6
350
4E
  3
A7
350
4F
  3
A8
350
50
  3
A9
350
51
  3
B0
350
52
  3
B1
350
53
  3
B2
350
54
  3
B3
350
55
  3
B4
350
56
  3
B5
350
57
  3
B6
350
58
  3
B7
350
59
  3
B8
350
5A
  3
B9
350
5B
  3
C0
350
5C
  3
C1
350
5D
  3
C2
350
5E
  3
C3
350
5F
  3
C4
350
60
  3
C5
350
61
  3
C6
350
62
  3
C7
350
63
  3
C8
350
64
  3
C9
350
65
  3
D0
350
66
  3
D1
350
67
  3
D2
350
68
  0
DICTIONARY
  5
69
102
{ACAD_REACTORS
330
C
102
}
330
C
100
AcDbDictionary
281
     1
  3
Standard
350
6A
  0
DICTIONARY
  5
2A
102
{ACAD_REACTORS
330
C
102
}
330
C
100
AcDbDictionary
281
     1
  3
2dWireframe
350
2F
  3
Basic
350
32
  3
Brighten
350
36
  3
ColorChange
350
3A
  3
Conceptual
350
34
  3
Dim
350
35
  3
EdgeColorOff
350
3D
  3
Facepattern
350
39
  3
Flat
350
2B
  3
FlatWithEdges
350
2C
  3
Gouraud
350
2D
  3
GouraudWithEdges
350
2E
  3
Hidden
350
31
  3
JitterOff
350
3B
  3
Linepattern
350
38
  3
OverhangOff
350
3C
  3
Realistic
350
33
  3
Shaded
350
42
  3
Shaded with edges
350
41
  3
Shades of Gray
350
3E
  3
Sketchy
350
3F
  3
Thicken
350
37
  3
Wireframe
350
30
  3
X-Ray
350
40
  0
DICTIONARY
  5
2E8
102
{ACAD_REACTORS
330
C
102
}
330
C
100
AcDbDictionary
281
     1
  3
CANNOSCALE
350
2F5
  3
CENTEREXE
350
2EF
  3
CENTERLTYPEFILE
350
2F0
  3
CMLEADERSTYLE
350
2EA
  3
CTABLESTYLE
350
2E9
  3
DIMASSOC
350
2F1
  3
HIDETEXT
350
2F2
  3
MSLTSCALE
350
2F6
  3
PSOLHEIGHT
350
2EC
  3
PSOLWIDTH
350
2EB
  0
XRECORD
  5
2F4
102
{ACAD_REACTORS
330
2F3
102
}
330
2F3
100
AcDbXrecord
280
     1
102
VTR_0.000_0.000_1.000_1.000_VISUALSTYLE
340
2F
102
VTR_0.000_0.000_1.000_1.000_GRIDDISPLAY
 70
     3
102
VTR_0.000_0.000_1.000_1.000_GRIDMAJOR
 70
     5
102
VTR_0.000_0.000_1.000_1.000_DEFAULTLIGHTING
280
     1
102
VTR_0.000_0.000_1.000_1.000_DEFAULTLIGHTINGTYPE
 70
     1
102
VTR_0.000_0.000_1.000_1.000_BRIGHTNESS
141
0.0
102
VTR_0.000_0.000_1.000_1.000_CONTRAST
142
0.0
  0
LAYOUT
  5
1E
102
{ACAD_REACTORS
330
1A
102
}
330
1A
100
AcDbPlotSettings
  1

  2
none_device
  4

  6

 40
0.0
 41
0.0
 42
0.0
 43
0.0
 44
0.0
 45
0.0
 46
0.0
 47
0.0
 48
0.0
 49
0.0
140
0.0
141
0.0
142
1.0
143
1.0
 70
   688
 72
     1
 73
     0
 74
     5
  7

 75
    16
147
1.0
148
0.0
149
0.0
100
AcDbLayout
  1
Layout1
 70
     1
 71
     1
 10
0.0
 20
0.0
 11
420.0
 21
297.0
 12
0.0
 22
0.0
 32
0.0
 14
1.000000E+20
 24
1.000000E+20
 34
1.000000E+20
 15
-1.000000E+20
 25
-1.000000E+20
 35
-1.000000E+20
146
0.0
 13
0.0
 23
0.0
 33
0.0
 16
1.0
 26
0.0
 36
0.0
 17
0.0
 27
1.0
 37
0.0
 76
     0
330
1B
  0
LAYOUT
  5
26
102
{ACAD_REACTORS
330
1A
102
}
330
1A
100
AcDbPlotSettings
  1

  2
none_device
  4

  6

 40
0.0
 41
0.0
 42
0.0
 43
0.0
 44
0.0
 45
0.0
 46
0.0
 47
0.0
 48
0.0
 49
0.0
140
0.0
141
0.0
142
1.0
143
1.0
 70
   688
 72
     1
 73
     0
 74
     5
  7

 75
    16
147
1.0
148
0.0
149
0.0
100
AcDbLayout
  1
Layout2
 70
     1
 71
     2
 10
0.0
 20
0.0
 11
0.0
 21
0.0
 12
0.0
 22
0.0
 32
0.0
 14
0.0
 24
0.0
 34
0.0
 15
0.0
 25
0.0
 35
0.0
146
0.0
 13
0.0
 23
0.0
 33
0.0
 16
1.0
 26
0.0
 36
0.0
 17
0.0
 27
1.0
 37
0.0
 76
     0
330
23
  0
LAYOUT
  5
22
102
{ACAD_REACTORS
330
1A
102
}
330
1A
100
AcDbPlotSettings
  1

  2
none_device
  4
Letter_(8.50_x_11.00_Inches)
  6

 40
6.35
 41
6.35
 42
6.350005
 43
6.350005
 44
215.9
 45
279.4
 46
0.0
 47
0.0
 48
0.0
 49
0.0
140
0.0
141
0.0
142
1.0
143
1.0
 70
  1712
 72
     1
 73
     0
 74
     0
  7

 75
     0
147
1.0
148
0.0
149
0.0
100
AcDbLayout
  1
Model
 70
     1
 71
     0
 10
-160.013794
 20
0.0
 11
365.292755
 21
1028.307739
 12
0.0
 22
0.0
 32
0.0
 14
-160.013794
 24
0.0
 34
0.0
 15
365.292755
 25
1028.307739
 35
0.0
146
0.0
 13
0.0
 23
0.0
 33
0.0
 16
1.0
 26
0.0
 36
0.0
 17
0.0
 27
1.0
 37
0.0
 76
     0
330
1F
331
29
  0
MATERIAL
  5
45
102
{ACAD_REACTORS
330
43
102
}
102
{ACAD_XDICTIONARY
360
329
102
}
330
43
100
AcDbMaterial
  1
ByBlock
  0
MATERIAL
  5
44
102
{ACAD_REACTORS
330
43
102
}
102
{ACAD_XDICTIONARY
360
327
102
}
330
43
100
AcDbMaterial
  1
ByLayer
  0
MATERIAL
  5
46
102
{ACAD_REACTORS
330
43
102
}
102
{ACAD_XDICTIONARY
360
32B
102
}
330
43
100
AcDbMaterial
  1
Global
  0
MLEADERSTYLE
  5
6C
102
{ACAD_REACTORS
330
6B
102
}
102
{ACAD_XDICTIONARY
360
32E
102
}
330
6B
100
AcDbMLeaderStyle
170
     2
171
     1
172
     0
 90
        2
 40
0.0
 41
0.0
173
     1
 91
-1056964608
340
14
 92
       -2
290
     1
 42
2.0
291
     1
 43
8.0
  3
Standard
341
0
 44
4.0
300

342
11
174
     1
178
     6
175
     1
176
     0
 93
-1056964608
 45
4.0
292
     0
297
     0
 46
4.0
343
0
 94
-1056964608
 47
1.0
 49
1.0
140
1.0
293
     1
141
0.0
294
     1
177
     0
142
1.0
295
     0
296
     0
143
3.75
1001
ACAD_MLEADERVER
1070
     2
  0
MLINESTYLE
  5
18
102
{ACAD_REACTORS
330
17
102
}
330
17
100
AcDbMlineStyle
  2
Standard
 70
     0
  3

 62
   256
 51
90.0
 52
90.0
 71
     2
 49
0.5
 62
   256
  6
BYLAYER
 49
-0.5
 62
   256
  6
BYLAYER
  0
ACDBPLACEHOLDER
  5
F
102
{ACAD_REACTORS
330
E
102
}
330
E
  0
SCALE
  5
48
102
{ACAD_REACTORS
330
47
102
}
330
47
100
AcDbScale
 70
     0
300
1:1
140
1.0
141
1.0
290
     1
  0
SCALE
  5
49
102
{ACAD_REACTORS
330
47
102
}
330
47
100
AcDbScale
 70
     0
300
1:2
140
1.0
141
2.0
290
     0
  0
SCALE
  5
4A
102
{ACAD_REACTORS
330
47
102
}
330
47
100
AcDbScale
 70
     0
300
1:4
140
1.0
141
4.0
290
     0
  0
SCALE
  5
4B
102
{ACAD_REACTORS
330
47
102
}
330
47
100
AcDbScale
 70
     0
300
1:5
140
1.0
141
5.0
290
     0
  0
SCALE
  5
4C
102
{ACAD_REACTORS
330
47
102
}
330
47
100
AcDbScale
 70
     0
300
1:8
140
1.0
141
8.0
290
     0
  0
SCALE
  5
4D
102
{ACAD_REACTORS
330
47
102
}
330
47
100
AcDbScale
 70
     0
300
1:10
140
1.0
141
10.0
290
     0
  0
SCALE
  5
4E
102
{ACAD_REACTORS
330
47
102
}
330
47
100
AcDbScale
 70
     0
300
1:16
140
1.0
141
16.0
290
     0
  0
SCALE
  5
4F
102
{ACAD_REACTORS
330
47
102
}
330
47
100
AcDbScale
 70
     0
300
1:20
140
1.0
141
20.0
290
     0
  0
SCALE
  5
50
102
{ACAD_REACTORS
330
47
102
}
330
47
100
AcDbScale
 70
     0
300
1:30
140
1.0
141
30.0
290
     0
  0
SCALE
  5
51
102
{ACAD_REACTORS
330
47
102
}
330
47
100
AcDbScale
 70
     0
300
1:40
140
1.0
141
40.0
290
     0
  0
SCALE
  5
52
102
{ACAD_REACTORS
330
47
102
}
330
47
100
AcDbScale
 70
     0
300
1:50
140
1.0
141
50.0
290
     0
  0
SCALE
  5
53
102
{ACAD_REACTORS
330
47
102
}
330
47
100
AcDbScale
 70
     0
300
1:100
140
1.0
141
100.0
290
     0
  0
SCALE
  5
54
102
{ACAD_REACTORS
330
47
102
}
330
47
100
AcDbScale
 70
     0
300
2:1
140
2.0
141
1.0
290
     0
  0
SCALE
  5
55
102
{ACAD_REACTORS
330
47
102
}
330
47
100
AcDbScale
 70
     0
300
4:1
140
4.0
141
1.0
290
     0
  0
SCALE
  5
56
102
{ACAD_REACTORS
330
47
102
}
330
47
100
AcDbScale
 70
     0
300
8:1
140
8.0
141
1.0
290
     0
  0
SCALE
  5
57
102
{ACAD_REACTORS
330
47
102
}
330
47
100
AcDbScale
 70
     0
300
10:1
140
10.0
141
1.0
290
     0
  0
SCALE
  5
58
102
{ACAD_REACTORS
330
47
102
}
330
47
100
AcDbScale
 70
     0
300
100:1
140
100.0
141
1.0
290
     0
  0
SCALE
  5
59
102
{ACAD_REACTORS
330
47
102
}
330
47
100
AcDbScale
 70
     0
300
1/128" = 1'-0"
140
0.007812
141
12.0
290
     0
  0
SCALE
  5
5A
102
{ACAD_REACTORS
330
47
102
}
330
47
100
AcDbScale
 70
     0
300
1/64" = 1'-0"
140
0.015625
141
12.0
290
     0
  0
SCALE
  5
5B
102
{ACAD_REACTORS
330
47
102
}
330
47
100
AcDbScale
 70
     0
300
1/32" = 1'-0"
140
0.03125
141
12.0
290
     0
  0
SCALE
  5
5C
102
{ACAD_REACTORS
330
47
102
}
330
47
100
AcDbScale
 70
     0
300
1/16" = 1'-0"
140
0.0625
141
12.0
290
     0
  0
SCALE
  5
5D
102
{ACAD_REACTORS
330
47
102
}
330
47
100
AcDbScale
 70
     0
300
3/32" = 1'-0"
140
0.09375
141
12.0
290
     0
  0
SCALE
  5
5E
102
{ACAD_REACTORS
330
47
102
}
330
47
100
AcDbScale
 70
     0
300
1/8" = 1'-0"
140
0.125
141
12.0
290
     0
  0
SCALE
  5
5F
102
{ACAD_REACTORS
330
47
102
}
330
47
100
AcDbScale
 70
     0
300
3/16" = 1'-0"
140
0.1875
141
12.0
290
     0
  0
SCALE
  5
60
102
{ACAD_REACTORS
330
47
102
}
330
47
100
AcDbScale
 70
     0
300
1/4" = 1'-0"
140
0.25
141
12.0
290
     0
  0
SCALE
  5
61
102
{ACAD_REACTORS
330
47
102
}
330
47
100
AcDbScale
 70
     0
300
3/8" = 1'-0"
140
0.375
141
12.0
290
     0
  0
SCALE
  5
62
102
{ACAD_REACTORS
330
47
102
}
330
47
100
AcDbScale
 70
     0
300
1/2" = 1'-0"
140
0.5
141
12.0
290
     0
  0
SCALE
  5
63
102
{ACAD_REACTORS
330
47
102
}
330
47
100
AcDbScale
 70
     0
300
3/4" = 1'-0"
140
0.75
141
12.0
290
     0
  0
SCALE
  5
64
102
{ACAD_REACTORS
330
47
102
}
330
47
100
AcDbScale
 70
     0
300
1" = 1'-0"
140
1.0
141
12.0
290
     0
  0
SCALE
  5
65
102
{ACAD_REACTORS
330
47
102
}
330
47
100
AcDbScale
 70
     0
300
1-1/2" = 1'-0"
140
1.5
141
12.0
290
     0
  0
SCALE
  5
66
102
{ACAD_REACTORS
330
47
102
}
330
47
100
AcDbScale
 70
     0
300
3" = 1'-0"
140
3.0
141
12.0
290
     0
  0
SCALE
  5
67
102
{ACAD_REACTORS
330
47
102
}
330
47
100
AcDbScale
 70
     0
300
6" = 1'-0"
140
6.0
141
12.0
290
     0
  0
SCALE
  5
68
102
{ACAD_REACTORS
330
47
102
}
330
47
100
AcDbScale
 70
     0
300
1'-0" = 1'-0"
140
12.0
141
12.0
290
     0
  0
TABLESTYLE
  5
6A
102
{ACAD_REACTORS
330
69
102
}
330
69
100
AcDbTableStyle
  3
Standard
 70
     0
 71
     0
 40
1.5
 41
1.5
280
     0
281
     0
  7
Standard
140
4.5
170
     2
 62
     0
 63
   257
283
     0
274
    -2
284
     1
 64
     0
275
    -2
285
     1
 65
     0
276
    -2
286
     1
 66
     0
277
    -2
287
     1
 67
     0
278
    -2
288
     1
 68
     0
279
    -2
289
     1
 69
     0
  7
Standard
140
6.0
170
     5
 62
     0
 63
   257
283
     0
274
    -2
284
     1
 64
     0
275
    -2
285
     1
 65
     0
276
    -2
286
     1
 66
     0
277
    -2
287
     1
 67
     0
278
    -2
288
     1
 68
     0
279
    -2
289
     1
 69
     0
  7
Standard
140
4.5
170
     5
 62
     0
 63
   257
283
     0
274
    -2
284
     1
 64
     0
275
    -2
285
     1
 65
     0
276
    -2
286
     1
 66
     0
277
    -2
287
     1
 67
     0
278
    -2
288
     1
 68
     0
279
    -2
289
     1
 69
     0
  0
VISUALSTYLE
  5
2F
102
{ACAD_REACTORS
330
2A
102
}
102
{ACAD_XDICTIONARY
360
2FF
102
}
330
2A
100
AcDbVisualStyle
  2
2dWireframe
 70
     4
 71
     0
 72
     2
 73
     0
 90
        0
 40
0.6
 41
30.0
 62
     5
 63
     7
 74
     1
 91
        4
 64
     7
 65
   257
 75
     1
175
     1
 42
1.0
 92
        0
 66
   257
 43
1.0
 76
     1
 77
     6
 78
     2
 67
     7
 79
     5
170
     0
171
     0
290
     0
174
     0
 93
        1
 44
0.0
173
     0
291
     0
 45
0.0
1001
ACAD
1000
AcDbSavedByObjectVersion
1070
     0
  0
VISUALSTYLE
  5
32
102
{ACAD_REACTORS
330
2A
102
}
102
{ACAD_XDICTIONARY
360
305
102
}
330
2A
100
AcDbVisualStyle
  2
Basic
 70
     7
 71
     1
 72
     0
 73
     1
 90
        0
 40
0.6
 41
30.0
 62
     5
 63
     7
 74
     0
 91
        4
 64
     7
 65
   257
 75
     1
175
     1
 42
1.0
 92
        8
 66
     7
 43
1.0
 76
     1
 77
     6
 78
     2
 67
     7
 79
     5
170
     0
171
     0
290
     0
174
     0
 93
        1
 44
0.0
173
     0
291
     1
 45
0.0
1001
ACAD
1000
AcDbSavedByObjectVersion
1070
     0
  0
VISUALSTYLE
  5
36
102
{ACAD_REACTORS
330
2A
102
}
102
{ACAD_XDICTIONARY
360
30D
102
}
330
2A
100
AcDbVisualStyle
  2
Brighten
 70
    12
 71
     2
 72
     2
 73
     0
 90
        0
 40
0.6
 41
30.0
 62
     5
 63
     7
 74
     1
 91
        4
 64
     7
 65
   257
 75
     1
175
     1
 42
1.0
 92
        8
 66
     7
 43
1.0
 76
     1
 77
     6
 78
     2
 67
     7
 79
     5
170
     0
171
     0
290
     0
174
     0
 93
        1
 44
50.0
173
     0
291
     1
 45
0.0
1001
ACAD
1000
AcDbSavedByObjectVersion
1070
     0
  0
VISUALSTYLE
  5
3A
102
{ACAD_REACTORS
330
2A
102
}
102
{ACAD_XDICTIONARY
360
315
102
}
330
2A
100
AcDbVisualStyle
  2
ColorChange
 70
    16
 71
     2
 72
     2
 73
     3
 90
        0
 40
0.6
 41
30.0
 62
     5
 63
     8
 74
     1
 91
        4
 64
     7
 65
   257
 75
     1
175
     1
 42
1.0
 92
        8
 66
     8
 43
1.0
 76
     1
 77
     6
 78
     2
 67
     7
 79
     5
170
     0
171
     0
290
     0
174
     0
 93
        1
 44
0.0
173
     0
291
     1
 45
0.0
1001
ACAD
1000
AcDbSavedByObjectVersion
1070
     0
  0
VISUALSTYLE
  5
34
102
{ACAD_REACTORS
330
2A
102
}
102
{ACAD_XDICTIONARY
360
309
102
}
330
2A
100
AcDbVisualStyle
  2
Conceptual
 70
     9
 71
     3
 72
     2
 73
     0
 90
        0
 40
0.6
 41
30.0
 62
     5
 63
     7
 74
     2
 91
        2
 64
     7
 65
   257
 75
     1
175
     1
 42
179.0
 92
        8
 66
     7
 43
1.0
 76
     1
 77
     6
 78
     2
 67
     7
 79
     3
170
     0
171
     0
290
     0
174
     0
 93
        1
 44
0.0
173
     0
291
     0
 45
0.0
1001
ACAD
1000
AcDbSavedByObjectVersion
1070
     0
  0
VISUALSTYLE
  5
35
102
{ACAD_REACTORS
330
2A
102
}
102
{ACAD_XDICTIONARY
360
30B
102
}
330
2A
100
AcDbVisualStyle
  2
Dim
 70
    11
 71
     2
 72
     2
 73
     0
 90
        0
 40
0.6
 41
30.0
 62
     5
 63
     7
 74
     1
 91
        4
 64
     7
 65
   257
 75
     1
175
     1
 42
1.0
 92
        8
 66
     7
 43
1.0
 76
     1
 77
     6
 78
     2
 67
     7
 79
     5
170
     0
171
     0
290
     0
174
     0
 93
        1
 44
-50.0
173
     0
291
     1
 45
0.0
1001
ACAD
1000
AcDbSavedByObjectVersion
1070
     0
  0
VISUALSTYLE
  5
3D
102
{ACAD_REACTORS
330
2A
102
}
102
{ACAD_XDICTIONARY
360
31B
102
}
330
2A
100
AcDbVisualStyle
  2
EdgeColorOff
 70
    22
 71
     2
 72
     2
 73
     0
 90
        0
 40
0.6
 41
30.0
 62
     5
 63
     7
 74
     1
 91
        4
 64
     7
 65
   257
 75
     1
175
     1
 42
1.0
 92
        8
 66
     7
 43
1.0
 76
     1
 77
     6
 78
     2
 67
     7
 79
     5
170
     0
171
     0
290
     0
174
     0
 93
        1
 44
0.0
173
     0
291
     1
 45
0.0
1001
ACAD
1000
AcDbSavedByObjectVersion
1070
     0
  0
VISUALSTYLE
  5
39
102
{ACAD_REACTORS
330
2A
102
}
102
{ACAD_XDICTIONARY
360
313
102
}
330
2A
100
AcDbVisualStyle
  2
Facepattern
 70
    15
 71
     2
 72
     2
 73
     0
 90
        0
 40
0.6
 41
30.0
 62
     5
 63
     7
 74
     1
 91
        4
 64
     7
 65
   257
 75
     1
175
     1
 42
1.0
 92
        8
 66
     7
 43
1.0
 76
     1
 77
     6
 78
     2
 67
     7
 79
     5
170
     0
171
     0
290
     0
174
     0
 93
        1
 44
0.0
173
     0
291
     1
 45
0.0
1001
ACAD
1000
AcDbSavedByObjectVersion
1070
     0
  0
VISUALSTYLE
  5
2B
102
{ACAD_REACTORS
330
2A
102
}
102
{ACAD_XDICTIONARY
360
2F7
102
}
330
2A
100
AcDbVisualStyle
  2
Flat
 70
     0
 71
     2
 72
     1
 73
     1
 90
        2
 40
0.6
 41
30.0
 62
     5
 63
     7
 74
     0
 91
        0
 64
     7
 65
   257
 75
     1
175
     1
 42
1.0
 92
        8
 66
     7
 43
1.0
 76
     1
 77
     6
 78
     2
 67
     7
 79
     5
170
     0
171
     0
290
     0
174
     0
 93
       13
 44
0.0
173
     0
291
     1
 45
0.0
1001
ACAD
1000
AcDbSavedByObjectVersion
1070
     0
  0
VISUALSTYLE
  5
2C
102
{ACAD_REACTORS
330
2A
102
}
102
{ACAD_XDICTIONARY
360
2F9
102
}
330
2A
100
AcDbVisualStyle
  2
FlatWithEdges
 70
     1
 71
     2
 72
     1
 73
     1
 90
        2
 40
0.6
 41
30.0
 62
     5
 63
     7
 74
     1
 91
        0
 64
     7
 65
   257
 75
     1
175
     1
 42
1.0
 92
        0
 66
   257
 43
1.0
 76
     1
 77
     6
 78
     2
 67
     7
 79
     5
170
     0
171
     0
290
     0
174
     0
 93
       13
 44
0.0
173
     0
291
     1
 45
0.0
1001
ACAD
1000
AcDbSavedByObjectVersion
1070
     0
  0
VISUALSTYLE
  5
2D
102
{ACAD_REACTORS
330
2A
102
}
102
{ACAD_XDICTIONARY
360
2FB
102
}
330
2A
100
AcDbVisualStyle
  2
Gouraud
 70
     2
 71
     2
 72
     2
 73
     1
 90
        2
 40
0.6
 41
30.0
 62
     5
 63
     7
 74
     0
 91
        0
 64
     7
 65
   257
 75
     1
175
     1
 42
1.0
 92
        0
 66
     7
 43
1.0
 76
     1
 77
     6
 78
     2
 67
     7
 79
     5
170
     0
171
     0
290
     0
174
     0
 93
       13
 44
0.0
173
     0
291
     1
 45
0.0
1001
ACAD
1000
AcDbSavedByObjectVersion
1070
     0
  0
VISUALSTYLE
  5
2E
102
{ACAD_REACTORS
330
2A
102
}
102
{ACAD_XDICTIONARY
360
2FD
102
}
330
2A
100
AcDbVisualStyle
  2
GouraudWithEdges
 70
     3
 71
     2
 72
     2
 73
     1
 90
        2
 40
0.6
 41
30.0
 62
     5
 63
     7
 74
     1
 91
        0
 64
     7
 65
   257
 75
     1
175
     1
 42
1.0
 92
        0
 66
   257
 43
1.0
 76
     1
 77
     6
 78
     2
 67
     7
 79
     5
170
     0
171
     0
290
     0
174
     0
 93
       13
 44
0.0
173
     0
291
     1
 45
0.0
1001
ACAD
1000
AcDbSavedByObjectVersion
1070
     0
  0
VISUALSTYLE
  5
31
102
{ACAD_REACTORS
330
2A
102
}
102
{ACAD_XDICTIONARY
360
303
102
}
330
2A
100
AcDbVisualStyle
  2
Hidden
 70
     6
 71
     1
 72
     2
 73
     2
 90
        0
 40
0.6
 41
30.0
 62
     5
 63
     7
 74
     2
 91
        2
 64
     7
 65
   257
 75
     2
175
     1
 42
40.0
 92
        0
 66
   257
 43
1.0
 76
     1
 77
     6
 78
     2
 67
     7
 79
     3
170
     0
171
     0
290
     0
174
     0
 93
        1
 44
0.0
173
     0
291
     0
 45
0.0
1001
ACAD
1000
AcDbSavedByObjectVersion
1070
     0
  0
VISUALSTYLE
  5
3B
102
{ACAD_REACTORS
330
2A
102
}
102
{ACAD_XDICTIONARY
360
317
102
}
330
2A
100
AcDbVisualStyle
  2
JitterOff
 70
    20
 71
     2
 72
     2
 73
     0
 90
        0
 40
0.6
 41
30.0
 62
     5
 63
     7
 74
     1
 91
        4
 64
     7
 65
   257
 75
     1
175
     1
 42
1.0
 92
       10
 66
     7
 43
1.0
 76
     1
 77
     6
 78
     2
 67
     7
 79
     5
170
     0
171
     0
290
     0
174
     0
 93
        1
 44
0.0
173
     0
291
     1
 45
0.0
1001
ACAD
1000
AcDbSavedByObjectVersion
1070
     0
  0
VISUALSTYLE
  5
38
102
{ACAD_REACTORS
330
2A
102
}
102
{ACAD_XDICTIONARY
360
311
102
}
330
2A
100
AcDbVisualStyle
  2
Linepattern
 70
    14
 71
     2
 72
     2
 73
     0
 90
        0
 40
0.6
 41
30.0
 62
     5
 63
     7
 74
     1
 91
        4
 64
     7
 65
   257
 75
     7
175
     7
 42
1.0
 92
        8
 66
     7
 43
1.0
 76
     1
 77
     6
 78
     2
 67
     7
 79
     5
170
     0
171
     0
290
     0
174
     0
 93
        1
 44
0.0
173
     0
291
     1
 45
0.0
1001
ACAD
1000
AcDbSavedByObjectVersion
1070
     0
  0
VISUALSTYLE
  5
3C
102
{ACAD_REACTORS
330
2A
102
}
102
{ACAD_XDICTIONARY
360
319
102
}
330
2A
100
AcDbVisualStyle
  2
OverhangOff
 70
    21
 71
     2
 72
     2
 73
     0
 90
        0
 40
0.6
 41
30.0
 62
     5
 63
     7
 74
     1
 91
        4
 64
     7
 65
   257
 75
     1
175
     1
 42
1.0
 92
        9
 66
     7
 43
1.0
 76
     1
 77
     6
 78
     2
 67
     7
 79
     5
170
     0
171
     0
290
     0
174
     0
 93
        1
 44
0.0
173
     0
291
     1
 45
0.0
1001
ACAD
1000
AcDbSavedByObjectVersion
1070
     0
  0
VISUALSTYLE
  5
33
102
{ACAD_REACTORS
330
2A
102
}
102
{ACAD_XDICTIONARY
360
307
102
}
330
2A
100
AcDbVisualStyle
  2
Realistic
 70
     8
 71
     2
 72
     3
 73
     0
 90
        2
 40
0.6
 41
30.0
 62
     5
 63
     7
 74
     0
 91
        0
 64
     7
 65
   257
 75
     1
175
     1
 42
1.0
 92
        8
 66
   257
 43
1.0
 76
     1
 77
     6
 78
     2
 67
     7
 79
     3
170
     0
171
     0
290
     0
174
     0
 93
       13
 44
0.0
173
     0
291
     0
 45
0.0
1001
ACAD
1000
AcDbSavedByObjectVersion
1070
     0
  0
VISUALSTYLE
  5
42
102
{ACAD_REACTORS
330
2A
102
}
102
{ACAD_XDICTIONARY
360
325
102
}
330
2A
100
AcDbVisualStyle
  2
Shaded
 70
    27
 71
     2
 72
     2
 73
     1
 90
        2
 40
0.6
 41
30.0
 62
     5
 63
     7
 74
     0
 91
        4
 64
     7
 65
   257
 75
     1
175
     1
 42
1.0
 92
        8
 66
   257
 43
1.0
 76
     1
 77
     6
 78
     2
 67
     8
 79
     3
170
     0
171
     0
290
     0
174
     0
 93
        5
 44
0.0
173
     0
291
     0
 45
0.0
1001
ACAD
1000
AcDbSavedByObjectVersion
1070
     0
  0
VISUALSTYLE
  5
41
102
{ACAD_REACTORS
330
2A
102
}
102
{ACAD_XDICTIONARY
360
323
102
}
330
2A
100
AcDbVisualStyle
  2
Shaded with edges
 70
    26
 71
     2
 72
     2
 73
     1
 90
        2
 40
0.6
 41
30.0
 62
     5
 63
     7
 74
     1
 91
       10
 64
     7
 65
   257
 75
     2
175
     1
 42
1.0
 92
        8
 66
   257
 43
1.0
 76
     1
 77
     6
 78
     2
 67
     7
 79
     3
170
     0
171
     0
290
     0
174
     0
 93
        5
 44
0.0
173
     0
291
     0
 45
0.0
1001
ACAD
1000
AcDbSavedByObjectVersion
1070
     0
  0
VISUALSTYLE
  5
3E
102
{ACAD_REACTORS
330
2A
102
}
102
{ACAD_XDICTIONARY
360
31D
102
}
330
2A
100
AcDbVisualStyle
  2
Shades of Gray
 70
    23
 71
     2
 72
     2
 73
     3
 90
        0
 40
0.6
 41
30.0
 62
     5
 63
     7
 74
     2
 91
        2
 64
     7
 65
     7
 75
     1
175
     1
 42
40.0
 92
        8
 66
     7
 43
1.0
 76
     1
 77
     6
 78
     2
 67
     7
 79
     3
170
     0
171
     0
290
     0
174
     0
 93
        1
 44
0.0
173
     0
291
     0
 45
0.0
1001
ACAD
1000
AcDbSavedByObjectVersion
1070
     0
  0
VISUALSTYLE
  5
3F
102
{ACAD_REACTORS
330
2A
102
}
102
{ACAD_XDICTIONARY
360
31F
102
}
330
2A
100
AcDbVisualStyle
  2
Sketchy
 70
    24
 71
     1
 72
     2
 73
     2
 90
        0
 40
0.6
 41
30.0
 62
     5
 63
     7
 74
     2
 91
        2
 64
     7
 65
     7
 75
     1
175
     1
 42
40.0
 92
       11
 66
     7
 43
1.0
 76
     1
 77
     6
 78
     2
 67
     7
 79
     6
170
     0
171
     0
290
     0
174
     0
 93
        1
 44
0.0
173
     0
291
     0
 45
0.0
1001
ACAD
1000
AcDbSavedByObjectVersion
1070
     0
  0
VISUALSTYLE
  5
37
102
{ACAD_REACTORS
330
2A
102
}
102
{ACAD_XDICTIONARY
360
30F
102
}
330
2A
100
AcDbVisualStyle
  2
Thicken
 70
    13
 71
     2
 72
     2
 73
     0
 90
        0
 40
0.6
 41
30.0
 62
     5
 63
     7
 74
     1
 91
        4
 64
     7
 65
   257
 75
     1
175
     1
 42
1.0
 92
       12
 66
     7
 43
1.0
 76
     1
 77
     6
 78
     2
 67
     7
 79
     5
170
     0
171
     0
290
     0
174
     0
 93
        1
 44
0.0
173
     0
291
     1
 45
0.0
1001
ACAD
1000
AcDbSavedByObjectVersion
1070
     0
  0
VISUALSTYLE
  5
30
102
{ACAD_REACTORS
330
2A
102
}
102
{ACAD_XDICTIONARY
360
301
102
}
330
2A
100
AcDbVisualStyle
  2
Wireframe
 70
     5
 71
     0
 72
     2
 73
     0
 90
        0
 40
0.6
 41
30.0
 62
     5
 63
     7
 74
     1
 91
        4
 64
     7
 65
   257
 75
     1
175
     1
 42
1.0
 92
        0
 66
   257
 43
1.0
 76
     1
 77
     6
 78
     2
 67
     7
 79
     3
170
     0
171
     0
290
     0
174
     0
 93
        1
 44
0.0
173
     0
291
     0
 45
0.0
1001
ACAD
1000
AcDbSavedByObjectVersion
1070
     0
  0
VISUALSTYLE
  5
40
102
{ACAD_REACTORS
330
2A
102
}
102
{ACAD_XDICTIONARY
360
321
102
}
330
2A
100
AcDbVisualStyle
  2
X-Ray
 70
    25
 71
     2
 72
     2
 73
     1
 90
        1
 40
0.5
 41
30.0
 62
     5
 63
     7
 74
     1
 91
        0
 64
     7
 65
   257
 75
     1
175
     1
 42
1.0
 92
        8
 66
     7
 43
1.0
 76
     1
 77
     6
 78
     2
 67
     7
 79
     3
170
     0
171
     0
290
     0
174
     0
 93
       13
 44
0.0
173
     0
291
     0
 45
0.0
1001
ACAD
1000
AcDbSavedByObjectVersion
1070
     0
  0
DICTIONARYVAR
  5
2F5
102
{ACAD_REACTORS
330
2E8
102
}
330
2E8
100
DictionaryVariables
280
     0
  1
1:1
  0
DICTIONARYVAR
  5
2EF
102
{ACAD_REACTORS
330
2E8
102
}
330
2E8
100
DictionaryVariables
280
     0
  1
3.500000
  0
DICTIONARYVAR
  5
2F0
102
{ACAD_REACTORS
330
2E8
102
}
330
2E8
100
DictionaryVariables
280
     0
  1
acadiso.lin
  0
DICTIONARYVAR
  5
2EA
102
{ACAD_REACTORS
330
2E8
102
}
330
2E8
100
DictionaryVariables
280
     0
  1
Standard
  0
DICTIONARYVAR
  5
2E9
102
{ACAD_REACTORS
330
2E8
102
}
330
2E8
100
DictionaryVariables
280
     0
  1
Standard
  0
DICTIONARYVAR
  5
2F1
102
{ACAD_REACTORS
330
2E8
102
}
330
2E8
100
DictionaryVariables
280
     0
  1
2
  0
DICTIONARYVAR
  5
2F2
102
{ACAD_REACTORS
330
2E8
102
}
330
2E8
100
DictionaryVariables
280
     0
  1
1
  0
DICTIONARYVAR
  5
2F6
102
{ACAD_REACTORS
330
2E8
102
}
330
2E8
100
DictionaryVariables
280
     0
  1
1
  0
DICTIONARYVAR
  5
2EC
102
{ACAD_REACTORS
330
2E8
102
}
330
2E8
100
DictionaryVariables
280
     0
  1
80.000000
  0
DICTIONARYVAR
  5
2EB
102
{ACAD_REACTORS
330
2E8
102
}
330
2E8
100
DictionaryVariables
280
     0
  1
5.000000
  0
DICTIONARY
  5
329
330
45
100
AcDbDictionary
280
     1
281
     1
  3
ACAD_XREC_ROUNDTRIP
360
32A
  0
DICTIONARY
  5
327
330
44
100
AcDbDictionary
280
     1
281
     1
  3
ACAD_XREC_ROUNDTRIP
360
328
  0
DICTIONARY
  5
32B
330
46
100
AcDbDictionary
280
     1
281
     1
  3
ACAD_XREC_ROUNDTRIP
360
32C
  0
DICTIONARY
  5
32E
330
6C
100
AcDbDictionary
280
     1
281
     1
  3
ACAD_XREC_ROUNDTRIP
360
32F
  0
DICTIONARY
  5
2FF
330
2F
100
AcDbDictionary
280
     1
281
     1
  3
ACAD_XREC_ROUNDTRIP
360
300
  0
DICTIONARY
  5
305
330
32
100
AcDbDictionary
280
     1
281
     1
  3
ACAD_XREC_ROUNDTRIP
360
306
  0
DICTIONARY
  5
30D
330
36
100
AcDbDictionary
280
     1
281
     1
  3
ACAD_XREC_ROUNDTRIP
360
30E
  0
DICTIONARY
  5
315
330
3A
100
AcDbDictionary
280
     1
281
     1
  3
ACAD_XREC_ROUNDTRIP
360
316
  0
DICTIONARY
  5
309
330
34
100
AcDbDictionary
280
     1
281
     1
  3
ACAD_XREC_ROUNDTRIP
360
30A
  0
DICTIONARY
  5
30B
330
35
100
AcDbDictionary
280
     1
281
     1
  3
ACAD_XREC_ROUNDTRIP
360
30C
  0
DICTIONARY
  5
31B
330
3D
100
AcDbDictionary
280
     1
281
     1
  3
ACAD_XREC_ROUNDTRIP
360
31C
  0
DICTIONARY
  5
313
330
39
100
AcDbDictionary
280
     1
281
     1
  3
ACAD_XREC_ROUNDTRIP
360
314
  0
DICTIONARY
  5
2F7
330
2B
100
AcDbDictionary
280
     1
281
     1
  3
ACAD_XREC_ROUNDTRIP
360
2F8
  0
DICTIONARY
  5
2F9
330
2C
100
AcDbDictionary
280
     1
281
     1
  3
ACAD_XREC_ROUNDTRIP
360
2FA
  0
DICTIONARY
  5
2FB
330
2D
100
AcDbDictionary
280
     1
281
     1
  3
ACAD_XREC_ROUNDTRIP
360
2FC
  0
DICTIONARY
  5
2FD
330
2E
100
AcDbDictionary
280
     1
281
     1
  3
ACAD_XREC_ROUNDTRIP
360
2FE
  0
DICTIONARY
  5
303
330
31
100
AcDbDictionary
280
     1
281
     1
  3
ACAD_XREC_ROUNDTRIP
360
304
  0
DICTIONARY
  5
317
330
3B
100
AcDbDictionary
280
     1
281
     1
  3
ACAD_XREC_ROUNDTRIP
360
318
  0
DICTIONARY
  5
311
330
38
100
AcDbDictionary
280
     1
281
     1
  3
ACAD_XREC_ROUNDTRIP
360
312
  0
DICTIONARY
  5
319
330
3C
100
AcDbDictionary
280
     1
281
     1
  3
ACAD_XREC_ROUNDTRIP
360
31A
  0
DICTIONARY
  5
307
330
33
100
AcDbDictionary
280
     1
281
     1
  3
ACAD_XREC_ROUNDTRIP
360
308
  0
DICTIONARY
  5
325
330
42
100
AcDbDictionary
280
     1
281
     1
  3
ACAD_XREC_ROUNDTRIP
360
326
  0
DICTIONARY
  5
323
330
41
100
AcDbDictionary
280
     1
281
     1
  3
ACAD_XREC_ROUNDTRIP
360
324
  0
DICTIONARY
  5
31D
330
3E
100
AcDbDictionary
280
     1
281
     1
  3
ACAD_XREC_ROUNDTRIP
360
31E
  0
DICTIONARY
  5
31F
330
3F
100
AcDbDictionary
280
     1
281
     1
  3
ACAD_XREC_ROUNDTRIP
360
320
  0
DICTIONARY
  5
30F
330
37
100
AcDbDictionary
280
     1
281
     1
  3
ACAD_XREC_ROUNDTRIP
360
310
  0
DICTIONARY
  5
301
330
30
100
AcDbDictionary
280
     1
281
     1
  3
ACAD_XREC_ROUNDTRIP
360
302
  0
DICTIONARY
  5
321
330
40
100
AcDbDictionary
280
     1
281
     1
  3
ACAD_XREC_ROUNDTRIP
360
322
  0
XRECORD
  5
32A
102
{ACAD_REACTORS
330
329
102
}
330
329
100
AcDbXrecord
280
     1
102
MATERIAL
148
0.0
149
0.0
149
0.0
 93
        0
 94
      127
282
     0
 72
     1
 77
     1
171
     1
175
     1
179
     1
273
     0
  0
XRECORD
  5
328
102
{ACAD_REACTORS
330
327
102
}
330
327
100
AcDbXrecord
280
     1
102
MATERIAL
148
0.0
149
0.0
149
0.0
 93
        0
 94
      127
282
     0
 72
     1
 77
     1
171
     1
175
     1
179
     1
273
     0
  0
XRECORD
  5
32C
102
{ACAD_REACTORS
330
32B
102
}
330
32B
100
AcDbXrecord
280
     1
102
MATERIAL
148
0.0
149
0.0
149
0.0
 93
        0
 94
      127
282
     0
 72
     1
 77
     1
171
     1
175
     1
179
     1
273
     0
  0
XRECORD
  5
32F
102
{ACAD_REACTORS
330
32E
102
}
330
32E
100
AcDbXrecord
280
     1
102
ACAD_ROUNDTRIP_2010_MLEADER_STYLE
  0
XRECORD
  5
300
102
{ACAD_REACTORS
330
2FF
102
}
330
2FF
100
AcDbXrecord
280
     1
102
RTVSPropertyOp0
 70
     1
102
RTVSPropertyOp1
 70
     1
102
RTVSPropertyOp2
 70
     1
102
RTVSPropertyOp3
 70
     1
102
RTVSPropertyOp4
 70
     1
102
RTVSPropertyOp5
 70
     1
102
RTVSPropertyOp6
 70
     1
102
RTVSPropertyOp7
 70
     1
102
RTVSPropertyOp8
 70
     1
102
RTVSPropertyOp9
 70
     1
102
RTVSPropertyOp10
 70
     1
102
RTVSPropertyOp11
 70
     1
102
RTVSPropertyOp12
 70
     1
102
RTVSPropertyOp13
 70
     1
102
RTVSPropertyOp14
 70
     1
102
RTVSPropertyOp15
 70
     1
102
RTVSPropertyOp16
 70
     1
102
RTVSPropertyOp17
 70
     1
102
RTVSPropertyOp18
 70
     1
102
RTVSPropertyOp19
 70
     1
102
RTVSPropertyOp20
 70
     1
102
RTVSPropertyOp21
 70
     1
102
RTVSPropertyOp22
 70
     1
102
RTVSPropertyOp23
 70
     1
102
RTVSPropertyOp24
 70
     1
102
RTVSPropertyOp25
 70
     1
102
RTVSPropertyOp26
 70
     1
102
RTVSPropertyOp27
 70
     1
102
RTVSPropertyOp28
 70
     1
102
RTVSPropertyOp29
 70
     1
102
RTVSPropertyOp30
 70
     1
102
RTVSPropertyOp31
 70
     1
102
RTVSPropertyOp32
 70
     1
102
RTVSPropertyOp33
 70
     1
102
RTVSPropertyOp34
 70
     1
102
RTVSPropertyOp35
 70
     1
102
RTVSPropertyOp36
 70
     1
102
RTVSPropertyOp37
 70
     1
102
RTVSPropertyOp38
 70
     1
102
RTVSPropertyOp39
 70
     1
102
RTVSPropertyOp40
 70
     1
102
RTVSPropertyOp41
 70
     1
102
RTVSPropertyOp42
 70
     1
102
RTVSPropertyOp43
 70
     1
102
RTVSPropertyOp44
 70
     1
102
RTVSPropertyOp45
 70
     1
102
RTVSPropertyOp46
 70
     1
102
RTVSPropertyOp47
 70
     1
102
RTVSPropertyOp48
 70
     1
102
RTVSPropertyOp49
 70
     1
102
RTVSPropertyOp50
 70
     1
102
RTVSPropertyOp51
 70
     0
102
RTVSPropertyOp52
 70
     0
102
RTVSPropertyOp53
 70
     1
102
RTVSPropertyOp54
 70
     1
102
RTVSPropertyOp55
 70
     1
102
RTVSPropertyOp56
 70
     1
102
RTVSPropertyOp57
 70
     1
102
RTVSPost2010Prop28
280
     1
102
RTVSPost2010PropOp28
 70
     1
102
RTVSPost2010Prop29
280
     1
102
RTVSPost2010PropOp29
 70
     1
102
RTVSPost2010Prop30
280
     0
102
RTVSPost2010PropOp30
 70
     1
102
RTVSPost2010Prop31
280
     0
102
RTVSPost2010PropOp31
 70
     1
102
RTVSPost2010Prop32
280
     0
102
RTVSPost2010PropOp32
 70
     1
102
RTVSPost2010Prop33
280
     0
102
RTVSPost2010PropOp33
 70
     1
102
RTVSPost2010Prop34
280
     0
102
RTVSPost2010PropOp34
 70
     1
102
RTVSPost2010Prop35
280
     0
102
RTVSPost2010PropOp35
 70
     1
102
RTVSPost2010Prop36
280
     0
102
RTVSPost2010PropOp36
 70
     1
102
RTVSPost2010Prop37
 90
       50
102
RTVSPost2010PropOp37
 70
     1
102
RTVSPost2010Prop38
140
0.0
102
RTVSPost2010PropOp38
 70
     1
102
RTVSPost2010Prop39
140
1.0
102
RTVSPost2010PropOp39
 70
     1
102
RTVSPost2010Prop40
 90
        0
102
RTVSPost2010PropOp40
 70
     1
102
RTVSPost2010Prop41ColorIndex
 90
       18
102
RTVSPost2010Prop41ColorRGB
 90
        0
102
RTVSPost2010PropOp41
 70
     1
102
RTVSPost2010Prop42
 90
       50
102
RTVSPost2010PropOp42
 70
     1
102
RTVSPost2010Prop43
 90
        3
102
RTVSPost2010PropOp43
 70
     1
102
RTVSPost2010Prop44ColorIndex
 90
        5
102
RTVSPost2010Prop44ColorRGB
 90
      255
102
RTVSPost2010PropOp44
 70
     1
102
RTVSPost2010Prop45
280
     0
102
RTVSPost2010PropOp45
 70
     1
102
RTVSPost2010Prop46
 90
       50
102
RTVSPost2010PropOp46
 70
     1
102
RTVSPost2010Prop47
 90
       50
102
RTVSPost2010PropOp47
 70
     1
102
RTVSPost2010Prop48
 90
       50
102
RTVSPost2010PropOp48
 70
     1
102
RTVSPost2010Prop49
280
     0
102
RTVSPost2010PropOp49
 70
     1
102
RTVSPost2010Prop50
 90
       50
102
RTVSPost2010PropOp50
 70
     1
102
RTVSPost2010Prop51ColorIndex
 90
      256
102
RTVSPost2010Prop51ColorRGB
 90
-16777216
102
RTVSPost2010PropOp51
 70
     0
102
RTVSPost2010Prop52
140
1.0
102
RTVSPost2010PropOp52
 70
     0
102
RTVSPost2010Prop53
 90
        2
102
RTVSPost2010PropOp53
 70
     1
102
RTVSPost2010Prop54
  1
strokes_ogs.tif
102
RTVSPost2010PropOp54
 70
     1
102
RTVSPost2010Prop55
280
     0
102
RTVSPost2010PropOp55
 70
     1
102
RTVSPost2010Prop56
140
1.0
102
RTVSPost2010PropOp56
 70
     1
102
RTVSPost2010Prop57
140
1.0
102
RTVSPost2010PropOp57
 70
     1
  0
XRECORD
  5
306
102
{ACAD_REACTORS
330
305
102
}
330
305
100
AcDbXrecord
280
     1
102
RTVSPropertyOp0
 70
     1
102
RTVSPropertyOp1
 70
     1
102
RTVSPropertyOp2
 70
     1
102
RTVSPropertyOp3
 70
     1
102
RTVSPropertyOp4
 70
     1
102
RTVSPropertyOp5
 70
     1
102
RTVSPropertyOp6
 70
     1
102
RTVSPropertyOp7
 70
     1
102
RTVSPropertyOp8
 70
     1
102
RTVSPropertyOp9
 70
     1
102
RTVSPropertyOp10
 70
     1
102
RTVSPropertyOp11
 70
     1
102
RTVSPropertyOp12
 70
     1
102
RTVSPropertyOp13
 70
     1
102
RTVSPropertyOp14
 70
     1
102
RTVSPropertyOp15
 70
     1
102
RTVSPropertyOp16
 70
     1
102
RTVSPropertyOp17
 70
     1
102
RTVSPropertyOp18
 70
     1
102
RTVSPropertyOp19
 70
     1
102
RTVSPropertyOp20
 70
     1
102
RTVSPropertyOp21
 70
     1
102
RTVSPropertyOp22
 70
     1
102
RTVSPropertyOp23
 70
     1
102
RTVSPropertyOp24
 70
     1
102
RTVSPropertyOp25
 70
     1
102
RTVSPropertyOp26
 70
     1
102
RTVSPropertyOp27
 70
     1
102
RTVSPropertyOp28
 70
     1
102
RTVSPropertyOp29
 70
     1
102
RTVSPropertyOp30
 70
     1
102
RTVSPropertyOp31
 70
     1
102
RTVSPropertyOp32
 70
     1
102
RTVSPropertyOp33
 70
     1
102
RTVSPropertyOp34
 70
     1
102
RTVSPropertyOp35
 70
     1
102
RTVSPropertyOp36
 70
     1
102
RTVSPropertyOp37
 70
     1
102
RTVSPropertyOp38
 70
     1
102
RTVSPropertyOp39
 70
     1
102
RTVSPropertyOp40
 70
     1
102
RTVSPropertyOp41
 70
     1
102
RTVSPropertyOp42
 70
     1
102
RTVSPropertyOp43
 70
     1
102
RTVSPropertyOp44
 70
     1
102
RTVSPropertyOp45
 70
     1
102
RTVSPropertyOp46
 70
     1
102
RTVSPropertyOp47
 70
     1
102
RTVSPropertyOp48
 70
     1
102
RTVSPropertyOp49
 70
     1
102
RTVSPropertyOp50
 70
     1
102
RTVSPropertyOp51
 70
     0
102
RTVSPropertyOp52
 70
     0
102
RTVSPropertyOp53
 70
     1
102
RTVSPropertyOp54
 70
     1
102
RTVSPropertyOp55
 70
     1
102
RTVSPropertyOp56
 70
     1
102
RTVSPropertyOp57
 70
     1
102
RTVSPost2010Prop28
280
     0
102
RTVSPost2010PropOp28
 70
     1
102
RTVSPost2010Prop29
280
     1
102
RTVSPost2010PropOp29
 70
     1
102
RTVSPost2010Prop30
280
     1
102
RTVSPost2010PropOp30
 70
     1
102
RTVSPost2010Prop31
280
     0
102
RTVSPost2010PropOp31
 70
     1
102
RTVSPost2010Prop32
280
     0
102
RTVSPost2010PropOp32
 70
     1
102
RTVSPost2010Prop33
280
     0
102
RTVSPost2010PropOp33
 70
     1
102
RTVSPost2010Prop34
280
     0
102
RTVSPost2010PropOp34
 70
     1
102
RTVSPost2010Prop35
280
     0
102
RTVSPost2010PropOp35
 70
     1
102
RTVSPost2010Prop36
280
     0
102
RTVSPost2010PropOp36
 70
     1
102
RTVSPost2010Prop37
 90
       50
102
RTVSPost2010PropOp37
 70
     1
102
RTVSPost2010Prop38
140
0.0
102
RTVSPost2010PropOp38
 70
     1
102
RTVSPost2010Prop39
140
1.0
102
RTVSPost2010PropOp39
 70
     1
102
RTVSPost2010Prop40
 90
        0
102
RTVSPost2010PropOp40
 70
     1
102
RTVSPost2010Prop41ColorIndex
 90
       18
102
RTVSPost2010Prop41ColorRGB
 90
        0
102
RTVSPost2010PropOp41
 70
     1
102
RTVSPost2010Prop42
 90
       50
102
RTVSPost2010PropOp42
 70
     1
102
RTVSPost2010Prop43
 90
        3
102
RTVSPost2010PropOp43
 70
     1
102
RTVSPost2010Prop44ColorIndex
 90
        5
102
RTVSPost2010Prop44ColorRGB
 90
      255
102
RTVSPost2010PropOp44
 70
     1
102
RTVSPost2010Prop45
280
     0
102
RTVSPost2010PropOp45
 70
     1
102
RTVSPost2010Prop46
 90
       50
102
RTVSPost2010PropOp46
 70
     1
102
RTVSPost2010Prop47
 90
       50
102
RTVSPost2010PropOp47
 70
     1
102
RTVSPost2010Prop48
 90
       50
102
RTVSPost2010PropOp48
 70
     1
102
RTVSPost2010Prop49
280
     0
102
RTVSPost2010PropOp49
 70
     1
102
RTVSPost2010Prop50
 90
       50
102
RTVSPost2010PropOp50
 70
     1
102
RTVSPost2010Prop51ColorIndex
 90
      256
102
RTVSPost2010Prop51ColorRGB
 90
-16777216
102
RTVSPost2010PropOp51
 70
     0
102
RTVSPost2010Prop52
140
1.0
102
RTVSPost2010PropOp52
 70
     0
102
RTVSPost2010Prop53
 90
        2
102
RTVSPost2010PropOp53
 70
     1
102
RTVSPost2010Prop54
  1
strokes_ogs.tif
102
RTVSPost2010PropOp54
 70
     1
102
RTVSPost2010Prop55
280
     0
102
RTVSPost2010PropOp55
 70
     1
102
RTVSPost2010Prop56
140
1.0
102
RTVSPost2010PropOp56
 70
     1
102
RTVSPost2010Prop57
140
1.0
102
RTVSPost2010PropOp57
 70
     1
  0
XRECORD
  5
30E
102
{ACAD_REACTORS
330
30D
102
}
330
30D
100
AcDbXrecord
280
     1
102
RTVSPropertyOp0
 70
     1
102
RTVSPropertyOp1
 70
     1
102
RTVSPropertyOp2
 70
     1
102
RTVSPropertyOp3
 70
     1
102
RTVSPropertyOp4
 70
     1
102
RTVSPropertyOp5
 70
     1
102
RTVSPropertyOp6
 70
     1
102
RTVSPropertyOp7
 70
     1
102
RTVSPropertyOp8
 70
     1
102
RTVSPropertyOp9
 70
     1
102
RTVSPropertyOp10
 70
     1
102
RTVSPropertyOp11
 70
     1
102
RTVSPropertyOp12
 70
     1
102
RTVSPropertyOp13
 70
     1
102
RTVSPropertyOp14
 70
     1
102
RTVSPropertyOp15
 70
     1
102
RTVSPropertyOp16
 70
     1
102
RTVSPropertyOp17
 70
     1
102
RTVSPropertyOp18
 70
     1
102
RTVSPropertyOp19
 70
     1
102
RTVSPropertyOp20
 70
     1
102
RTVSPropertyOp21
 70
     1
102
RTVSPropertyOp22
 70
     1
102
RTVSPropertyOp23
 70
     1
102
RTVSPropertyOp24
 70
     1
102
RTVSPropertyOp25
 70
     1
102
RTVSPropertyOp26
 70
     1
102
RTVSPropertyOp27
 70
     1
102
RTVSPropertyOp28
 70
     1
102
RTVSPropertyOp29
 70
     1
102
RTVSPropertyOp30
 70
     1
102
RTVSPropertyOp31
 70
     1
102
RTVSPropertyOp32
 70
     1
102
RTVSPropertyOp33
 70
     1
102
RTVSPropertyOp34
 70
     1
102
RTVSPropertyOp35
 70
     1
102
RTVSPropertyOp36
 70
     1
102
RTVSPropertyOp37
 70
     1
102
RTVSPropertyOp38
 70
     1
102
RTVSPropertyOp39
 70
     1
102
RTVSPropertyOp40
 70
     1
102
RTVSPropertyOp41
 70
     1
102
RTVSPropertyOp42
 70
     1
102
RTVSPropertyOp43
 70
     1
102
RTVSPropertyOp44
 70
     1
102
RTVSPropertyOp45
 70
     1
102
RTVSPropertyOp46
 70
     1
102
RTVSPropertyOp47
 70
     1
102
RTVSPropertyOp48
 70
     1
102
RTVSPropertyOp49
 70
     1
102
RTVSPropertyOp50
 70
     1
102
RTVSPropertyOp51
 70
     0
102
RTVSPropertyOp52
 70
     0
102
RTVSPropertyOp53
 70
     1
102
RTVSPropertyOp54
 70
     1
102
RTVSPropertyOp55
 70
     1
102
RTVSPropertyOp56
 70
     1
102
RTVSPropertyOp57
 70
     1
102
RTVSPost2010Prop28
280
     0
102
RTVSPost2010PropOp28
 70
     1
102
RTVSPost2010Prop29
280
     1
102
RTVSPost2010PropOp29
 70
     1
102
RTVSPost2010Prop30
280
     1
102
RTVSPost2010PropOp30
 70
     1
102
RTVSPost2010Prop31
280
     0
102
RTVSPost2010PropOp31
 70
     1
102
RTVSPost2010Prop32
280
     0
102
RTVSPost2010PropOp32
 70
     1
102
RTVSPost2010Prop33
280
     0
102
RTVSPost2010PropOp33
 70
     1
102
RTVSPost2010Prop34
280
     0
102
RTVSPost2010PropOp34
 70
     1
102
RTVSPost2010Prop35
280
     0
102
RTVSPost2010PropOp35
 70
     1
102
RTVSPost2010Prop36
280
     0
102
RTVSPost2010PropOp36
 70
     1
102
RTVSPost2010Prop37
 90
       50
102
RTVSPost2010PropOp37
 70
     1
102
RTVSPost2010Prop38
140
0.0
102
RTVSPost2010PropOp38
 70
     1
102
RTVSPost2010Prop39
140
1.0
102
RTVSPost2010PropOp39
 70
     1
102
RTVSPost2010Prop40
 90
        0
102
RTVSPost2010PropOp40
 70
     1
102
RTVSPost2010Prop41ColorIndex
 90
       18
102
RTVSPost2010Prop41ColorRGB
 90
        0
102
RTVSPost2010PropOp41
 70
     1
102
RTVSPost2010Prop42
 90
       50
102
RTVSPost2010PropOp42
 70
     1
102
RTVSPost2010Prop43
 90
        3
102
RTVSPost2010PropOp43
 70
     1
102
RTVSPost2010Prop44ColorIndex
 90
        5
102
RTVSPost2010Prop44ColorRGB
 90
      255
102
RTVSPost2010PropOp44
 70
     1
102
RTVSPost2010Prop45
280
     0
102
RTVSPost2010PropOp45
 70
     1
102
RTVSPost2010Prop46
 90
       50
102
RTVSPost2010PropOp46
 70
     1
102
RTVSPost2010Prop47
 90
       50
102
RTVSPost2010PropOp47
 70
     1
102
RTVSPost2010Prop48
 90
       50
102
RTVSPost2010PropOp48
 70
     1
102
RTVSPost2010Prop49
280
     0
102
RTVSPost2010PropOp49
 70
     1
102
RTVSPost2010Prop50
 90
       50
102
RTVSPost2010PropOp50
 70
     1
102
RTVSPost2010Prop51ColorIndex
 90
      256
102
RTVSPost2010Prop51ColorRGB
 90
-16777216
102
RTVSPost2010PropOp51
 70
     0
102
RTVSPost2010Prop52
140
1.0
102
RTVSPost2010PropOp52
 70
     0
102
RTVSPost2010Prop53
 90
        2
102
RTVSPost2010PropOp53
 70
     1
102
RTVSPost2010Prop54
  1
strokes_ogs.tif
102
RTVSPost2010PropOp54
 70
     1
102
RTVSPost2010Prop55
280
     0
102
RTVSPost2010PropOp55
 70
     1
102
RTVSPost2010Prop56
140
1.0
102
RTVSPost2010PropOp56
 70
     1
102
RTVSPost2010Prop57
140
1.0
102
RTVSPost2010PropOp57
 70
     1
  0
XRECORD
  5
316
102
{ACAD_REACTORS
330
315
102
}
330
315
100
AcDbXrecord
280
     1
102
RTVSPropertyOp0
 70
     1
102
RTVSPropertyOp1
 70
     1
102
RTVSPropertyOp2
 70
     1
102
RTVSPropertyOp3
 70
     1
102
RTVSPropertyOp4
 70
     1
102
RTVSPropertyOp5
 70
     1
102
RTVSPropertyOp6
 70
     1
102
RTVSPropertyOp7
 70
     1
102
RTVSPropertyOp8
 70
     1
102
RTVSPropertyOp9
 70
     1
102
RTVSPropertyOp10
 70
     1
102
RTVSPropertyOp11
 70
     1
102
RTVSPropertyOp12
 70
     1
102
RTVSPropertyOp13
 70
     1
102
RTVSPropertyOp14
 70
     1
102
RTVSPropertyOp15
 70
     1
102
RTVSPropertyOp16
 70
     1
102
RTVSPropertyOp17
 70
     1
102
RTVSPropertyOp18
 70
     1
102
RTVSPropertyOp19
 70
     1
102
RTVSPropertyOp20
 70
     1
102
RTVSPropertyOp21
 70
     1
102
RTVSPropertyOp22
 70
     1
102
RTVSPropertyOp23
 70
     1
102
RTVSPropertyOp24
 70
     1
102
RTVSPropertyOp25
 70
     1
102
RTVSPropertyOp26
 70
     1
102
RTVSPropertyOp27
 70
     1
102
RTVSPropertyOp28
 70
     1
102
RTVSPropertyOp29
 70
     1
102
RTVSPropertyOp30
 70
     1
102
RTVSPropertyOp31
 70
     1
102
RTVSPropertyOp32
 70
     1
102
RTVSPropertyOp33
 70
     1
102
RTVSPropertyOp34
 70
     1
102
RTVSPropertyOp35
 70
     1
102
RTVSPropertyOp36
 70
     1
102
RTVSPropertyOp37
 70
     1
102
RTVSPropertyOp38
 70
     1
102
RTVSPropertyOp39
 70
     1
102
RTVSPropertyOp40
 70
     1
102
RTVSPropertyOp41
 70
     1
102
RTVSPropertyOp42
 70
     1
102
RTVSPropertyOp43
 70
     1
102
RTVSPropertyOp44
 70
     1
102
RTVSPropertyOp45
 70
     1
102
RTVSPropertyOp46
 70
     1
102
RTVSPropertyOp47
 70
     1
102
RTVSPropertyOp48
 70
     1
102
RTVSPropertyOp49
 70
     1
102
RTVSPropertyOp50
 70
     1
102
RTVSPropertyOp51
 70
     0
102
RTVSPropertyOp52
 70
     0
102
RTVSPropertyOp53
 70
     1
102
RTVSPropertyOp54
 70
     1
102
RTVSPropertyOp55
 70
     1
102
RTVSPropertyOp56
 70
     1
102
RTVSPropertyOp57
 70
     1
102
RTVSPost2010Prop28
280
     0
102
RTVSPost2010PropOp28
 70
     1
102
RTVSPost2010Prop29
280
     1
102
RTVSPost2010PropOp29
 70
     1
102
RTVSPost2010Prop30
280
     1
102
RTVSPost2010PropOp30
 70
     1
102
RTVSPost2010Prop31
280
     0
102
RTVSPost2010PropOp31
 70
     1
102
RTVSPost2010Prop32
280
     0
102
RTVSPost2010PropOp32
 70
     1
102
RTVSPost2010Prop33
280
     0
102
RTVSPost2010PropOp33
 70
     1
102
RTVSPost2010Prop34
280
     0
102
RTVSPost2010PropOp34
 70
     1
102
RTVSPost2010Prop35
280
     0
102
RTVSPost2010PropOp35
 70
     1
102
RTVSPost2010Prop36
280
     0
102
RTVSPost2010PropOp36
 70
     1
102
RTVSPost2010Prop37
 90
       50
102
RTVSPost2010PropOp37
 70
     1
102
RTVSPost2010Prop38
140
0.0
102
RTVSPost2010PropOp38
 70
     1
102
RTVSPost2010Prop39
140
1.0
102
RTVSPost2010PropOp39
 70
     1
102
RTVSPost2010Prop40
 90
        0
102
RTVSPost2010PropOp40
 70
     1
102
RTVSPost2010Prop41ColorIndex
 90
       18
102
RTVSPost2010Prop41ColorRGB
 90
        0
102
RTVSPost2010PropOp41
 70
     1
102
RTVSPost2010Prop42
 90
       50
102
RTVSPost2010PropOp42
 70
     1
102
RTVSPost2010Prop43
 90
        3
102
RTVSPost2010PropOp43
 70
     1
102
RTVSPost2010Prop44ColorIndex
 90
        5
102
RTVSPost2010Prop44ColorRGB
 90
      255
102
RTVSPost2010PropOp44
 70
     1
102
RTVSPost2010Prop45
280
     0
102
RTVSPost2010PropOp45
 70
     1
102
RTVSPost2010Prop46
 90
       50
102
RTVSPost2010PropOp46
 70
     1
102
RTVSPost2010Prop47
 90
       50
102
RTVSPost2010PropOp47
 70
     1
102
RTVSPost2010Prop48
 90
       50
102
RTVSPost2010PropOp48
 70
     1
102
RTVSPost2010Prop49
280
     0
102
RTVSPost2010PropOp49
 70
     1
102
RTVSPost2010Prop50
 90
       50
102
RTVSPost2010PropOp50
 70
     1
102
RTVSPost2010Prop51ColorIndex
 90
      256
102
RTVSPost2010Prop51ColorRGB
 90
-16777216
102
RTVSPost2010PropOp51
 70
     0
102
RTVSPost2010Prop52
140
1.0
102
RTVSPost2010PropOp52
 70
     0
102
RTVSPost2010Prop53
 90
        2
102
RTVSPost2010PropOp53
 70
     1
102
RTVSPost2010Prop54
  1
strokes_ogs.tif
102
RTVSPost2010PropOp54
 70
     1
102
RTVSPost2010Prop55
280
     0
102
RTVSPost2010PropOp55
 70
     1
102
RTVSPost2010Prop56
140
1.0
102
RTVSPost2010PropOp56
 70
     1
102
RTVSPost2010Prop57
140
1.0
102
RTVSPost2010PropOp57
 70
     1
  0
XRECORD
  5
30A
102
{ACAD_REACTORS
330
309
102
}
330
309
100
AcDbXrecord
280
     1
102
RTVSPropertyOp0
 70
     1
102
RTVSPropertyOp1
 70
     1
102
RTVSPropertyOp2
 70
     1
102
RTVSPropertyOp3
 70
     1
102
RTVSPropertyOp4
 70
     1
102
RTVSPropertyOp5
 70
     1
102
RTVSPropertyOp6
 70
     1
102
RTVSPropertyOp7
 70
     1
102
RTVSPropertyOp8
 70
     1
102
RTVSPropertyOp9
 70
     1
102
RTVSPropertyOp10
 70
     1
102
RTVSPropertyOp11
 70
     1
102
RTVSPropertyOp12
 70
     1
102
RTVSPropertyOp13
 70
     1
102
RTVSPropertyOp14
 70
     1
102
RTVSPropertyOp15
 70
     1
102
RTVSPropertyOp16
 70
     1
102
RTVSPropertyOp17
 70
     1
102
RTVSPropertyOp18
 70
     1
102
RTVSPropertyOp19
 70
     1
102
RTVSPropertyOp20
 70
     1
102
RTVSPropertyOp21
 70
     1
102
RTVSPropertyOp22
 70
     1
102
RTVSPropertyOp23
 70
     1
102
RTVSPropertyOp24
 70
     1
102
RTVSPropertyOp25
 70
     1
102
RTVSPropertyOp26
 70
     1
102
RTVSPropertyOp27
 70
     1
102
RTVSPropertyOp28
 70
     1
102
RTVSPropertyOp29
 70
     1
102
RTVSPropertyOp30
 70
     1
102
RTVSPropertyOp31
 70
     1
102
RTVSPropertyOp32
 70
     1
102
RTVSPropertyOp33
 70
     1
102
RTVSPropertyOp34
 70
     1
102
RTVSPropertyOp35
 70
     1
102
RTVSPropertyOp36
 70
     1
102
RTVSPropertyOp37
 70
     1
102
RTVSPropertyOp38
 70
     1
102
RTVSPropertyOp39
 70
     1
102
RTVSPropertyOp40
 70
     1
102
RTVSPropertyOp41
 70
     1
102
RTVSPropertyOp42
 70
     1
102
RTVSPropertyOp43
 70
     1
102
RTVSPropertyOp44
 70
     1
102
RTVSPropertyOp45
 70
     1
102
RTVSPropertyOp46
 70
     1
102
RTVSPropertyOp47
 70
     1
102
RTVSPropertyOp48
 70
     1
102
RTVSPropertyOp49
 70
     1
102
RTVSPropertyOp50
 70
     1
102
RTVSPropertyOp51
 70
     0
102
RTVSPropertyOp52
 70
     0
102
RTVSPropertyOp53
 70
     1
102
RTVSPropertyOp54
 70
     1
102
RTVSPropertyOp55
 70
     1
102
RTVSPropertyOp56
 70
     1
102
RTVSPropertyOp57
 70
     1
102
RTVSPost2010Prop28
280
     0
102
RTVSPost2010PropOp28
 70
     1
102
RTVSPost2010Prop29
280
     1
102
RTVSPost2010PropOp29
 70
     1
102
RTVSPost2010Prop30
280
     1
102
RTVSPost2010PropOp30
 70
     1
102
RTVSPost2010Prop31
280
     0
102
RTVSPost2010PropOp31
 70
     1
102
RTVSPost2010Prop32
280
     0
102
RTVSPost2010PropOp32
 70
     1
102
RTVSPost2010Prop33
280
     0
102
RTVSPost2010PropOp33
 70
     1
102
RTVSPost2010Prop34
280
     0
102
RTVSPost2010PropOp34
 70
     1
102
RTVSPost2010Prop35
280
     0
102
RTVSPost2010PropOp35
 70
     1
102
RTVSPost2010Prop36
280
     0
102
RTVSPost2010PropOp36
 70
     1
102
RTVSPost2010Prop37
 90
       50
102
RTVSPost2010PropOp37
 70
     1
102
RTVSPost2010Prop38
140
0.0
102
RTVSPost2010PropOp38
 70
     1
102
RTVSPost2010Prop39
140
1.0
102
RTVSPost2010PropOp39
 70
     1
102
RTVSPost2010Prop40
 90
        0
102
RTVSPost2010PropOp40
 70
     1
102
RTVSPost2010Prop41ColorIndex
 90
       18
102
RTVSPost2010Prop41ColorRGB
 90
        0
102
RTVSPost2010PropOp41
 70
     1
102
RTVSPost2010Prop42
 90
       50
102
RTVSPost2010PropOp42
 70
     1
102
RTVSPost2010Prop43
 90
        3
102
RTVSPost2010PropOp43
 70
     1
102
RTVSPost2010Prop44ColorIndex
 90
        5
102
RTVSPost2010Prop44ColorRGB
 90
      255
102
RTVSPost2010PropOp44
 70
     1
102
RTVSPost2010Prop45
280
     0
102
RTVSPost2010PropOp45
 70
     1
102
RTVSPost2010Prop46
 90
       50
102
RTVSPost2010PropOp46
 70
     1
102
RTVSPost2010Prop47
 90
       50
102
RTVSPost2010PropOp47
 70
     1
102
RTVSPost2010Prop48
 90
       50
102
RTVSPost2010PropOp48
 70
     1
102
RTVSPost2010Prop49
280
     0
102
RTVSPost2010PropOp49
 70
     1
102
RTVSPost2010Prop50
 90
       50
102
RTVSPost2010PropOp50
 70
     1
102
RTVSPost2010Prop51ColorIndex
 90
      256
102
RTVSPost2010Prop51ColorRGB
 90
-16777216
102
RTVSPost2010PropOp51
 70
     0
102
RTVSPost2010Prop52
140
1.0
102
RTVSPost2010PropOp52
 70
     0
102
RTVSPost2010Prop53
 90
        2
102
RTVSPost2010PropOp53
 70
     1
102
RTVSPost2010Prop54
  1
strokes_ogs.tif
102
RTVSPost2010PropOp54
 70
     1
102
RTVSPost2010Prop55
280
     0
102
RTVSPost2010PropOp55
 70
     1
102
RTVSPost2010Prop56
140
1.0
102
RTVSPost2010PropOp56
 70
     1
102
RTVSPost2010Prop57
140
1.0
102
RTVSPost2010PropOp57
 70
     1
  0
XRECORD
  5
30C
102
{ACAD_REACTORS
330
30B
102
}
330
30B
100
AcDbXrecord
280
     1
102
RTVSPropertyOp0
 70
     1
102
RTVSPropertyOp1
 70
     1
102
RTVSPropertyOp2
 70
     1
102
RTVSPropertyOp3
 70
     1
102
RTVSPropertyOp4
 70
     1
102
RTVSPropertyOp5
 70
     1
102
RTVSPropertyOp6
 70
     1
102
RTVSPropertyOp7
 70
     1
102
RTVSPropertyOp8
 70
     1
102
RTVSPropertyOp9
 70
     1
102
RTVSPropertyOp10
 70
     1
102
RTVSPropertyOp11
 70
     1
102
RTVSPropertyOp12
 70
     1
102
RTVSPropertyOp13
 70
     1
102
RTVSPropertyOp14
 70
     1
102
RTVSPropertyOp15
 70
     1
102
RTVSPropertyOp16
 70
     1
102
RTVSPropertyOp17
 70
     1
102
RTVSPropertyOp18
 70
     1
102
RTVSPropertyOp19
 70
     1
102
RTVSPropertyOp20
 70
     1
102
RTVSPropertyOp21
 70
     1
102
RTVSPropertyOp22
 70
     1
102
RTVSPropertyOp23
 70
     1
102
RTVSPropertyOp24
 70
     1
102
RTVSPropertyOp25
 70
     1
102
RTVSPropertyOp26
 70
     1
102
RTVSPropertyOp27
 70
     1
102
RTVSPropertyOp28
 70
     1
102
RTVSPropertyOp29
 70
     1
102
RTVSPropertyOp30
 70
     1
102
RTVSPropertyOp31
 70
     1
102
RTVSPropertyOp32
 70
     1
102
RTVSPropertyOp33
 70
     1
102
RTVSPropertyOp34
 70
     1
102
RTVSPropertyOp35
 70
     1
102
RTVSPropertyOp36
 70
     1
102
RTVSPropertyOp37
 70
     1
102
RTVSPropertyOp38
 70
     1
102
RTVSPropertyOp39
 70
     1
102
RTVSPropertyOp40
 70
     1
102
RTVSPropertyOp41
 70
     1
102
RTVSPropertyOp42
 70
     1
102
RTVSPropertyOp43
 70
     1
102
RTVSPropertyOp44
 70
     1
102
RTVSPropertyOp45
 70
     1
102
RTVSPropertyOp46
 70
     1
102
RTVSPropertyOp47
 70
     1
102
RTVSPropertyOp48
 70
     1
102
RTVSPropertyOp49
 70
     1
102
RTVSPropertyOp50
 70
     1
102
RTVSPropertyOp51
 70
     0
102
RTVSPropertyOp52
 70
     0
102
RTVSPropertyOp53
 70
     1
102
RTVSPropertyOp54
 70
     1
102
RTVSPropertyOp55
 70
     1
102
RTVSPropertyOp56
 70
     1
102
RTVSPropertyOp57
 70
     1
102
RTVSPost2010Prop28
280
     0
102
RTVSPost2010PropOp28
 70
     1
102
RTVSPost2010Prop29
280
     1
102
RTVSPost2010PropOp29
 70
     1
102
RTVSPost2010Prop30
280
     1
102
RTVSPost2010PropOp30
 70
     1
102
RTVSPost2010Prop31
280
     0
102
RTVSPost2010PropOp31
 70
     1
102
RTVSPost2010Prop32
280
     0
102
RTVSPost2010PropOp32
 70
     1
102
RTVSPost2010Prop33
280
     0
102
RTVSPost2010PropOp33
 70
     1
102
RTVSPost2010Prop34
280
     0
102
RTVSPost2010PropOp34
 70
     1
102
RTVSPost2010Prop35
280
     0
102
RTVSPost2010PropOp35
 70
     1
102
RTVSPost2010Prop36
280
     0
102
RTVSPost2010PropOp36
 70
     1
102
RTVSPost2010Prop37
 90
       50
102
RTVSPost2010PropOp37
 70
     1
102
RTVSPost2010Prop38
140
0.0
102
RTVSPost2010PropOp38
 70
     1
102
RTVSPost2010Prop39
140
1.0
102
RTVSPost2010PropOp39
 70
     1
102
RTVSPost2010Prop40
 90
        0
102
RTVSPost2010PropOp40
 70
     1
102
RTVSPost2010Prop41ColorIndex
 90
       18
102
RTVSPost2010Prop41ColorRGB
 90
        0
102
RTVSPost2010PropOp41
 70
     1
102
RTVSPost2010Prop42
 90
       50
102
RTVSPost2010PropOp42
 70
     1
102
RTVSPost2010Prop43
 90
        3
102
RTVSPost2010PropOp43
 70
     1
102
RTVSPost2010Prop44ColorIndex
 90
        5
102
RTVSPost2010Prop44ColorRGB
 90
      255
102
RTVSPost2010PropOp44
 70
     1
102
RTVSPost2010Prop45
280
     0
102
RTVSPost2010PropOp45
 70
     1
102
RTVSPost2010Prop46
 90
       50
102
RTVSPost2010PropOp46
 70
     1
102
RTVSPost2010Prop47
 90
       50
102
RTVSPost2010PropOp47
 70
     1
102
RTVSPost2010Prop48
 90
       50
102
RTVSPost2010PropOp48
 70
     1
102
RTVSPost2010Prop49
280
     0
102
RTVSPost2010PropOp49
 70
     1
102
RTVSPost2010Prop50
 90
       50
102
RTVSPost2010PropOp50
 70
     1
102
RTVSPost2010Prop51ColorIndex
 90
      256
102
RTVSPost2010Prop51ColorRGB
 90
-16777216
102
RTVSPost2010PropOp51
 70
     0
102
RTVSPost2010Prop52
140
1.0
102
RTVSPost2010PropOp52
 70
     0
102
RTVSPost2010Prop53
 90
        2
102
RTVSPost2010PropOp53
 70
     1
102
RTVSPost2010Prop54
  1
strokes_ogs.tif
102
RTVSPost2010PropOp54
 70
     1
102
RTVSPost2010Prop55
280
     0
102
RTVSPost2010PropOp55
 70
     1
102
RTVSPost2010Prop56
140
1.0
102
RTVSPost2010PropOp56
 70
     1
102
RTVSPost2010Prop57
140
1.0
102
RTVSPost2010PropOp57
 70
     1
  0
XRECORD
  5
31C
102
{ACAD_REACTORS
330
31B
102
}
330
31B
100
AcDbXrecord
280
     1
102
RTVSPropertyOp0
 70
     0
102
RTVSPropertyOp1
 70
     0
102
RTVSPropertyOp2
 70
     0
102
RTVSPropertyOp3
 70
     0
102
RTVSPropertyOp4
 70
     0
102
RTVSPropertyOp5
 70
     0
102
RTVSPropertyOp6
 70
     0
102
RTVSPropertyOp7
 70
     0
102
RTVSPropertyOp8
 70
     0
102
RTVSPropertyOp9
 70
     0
102
RTVSPropertyOp10
 70
     0
102
RTVSPropertyOp11
 70
     0
102
RTVSPropertyOp12
 70
     0
102
RTVSPropertyOp13
 70
     0
102
RTVSPropertyOp14
 70
     2
102
RTVSPropertyOp15
 70
     0
102
RTVSPropertyOp16
 70
     0
102
RTVSPropertyOp17
 70
     0
102
RTVSPropertyOp18
 70
     0
102
RTVSPropertyOp19
 70
     0
102
RTVSPropertyOp20
 70
     0
102
RTVSPropertyOp21
 70
     0
102
RTVSPropertyOp22
 70
     0
102
RTVSPropertyOp23
 70
     0
102
RTVSPropertyOp24
 70
     0
102
RTVSPropertyOp25
 70
     0
102
RTVSPropertyOp26
 70
     0
102
RTVSPropertyOp27
 70
     0
102
RTVSPropertyOp28
 70
     0
102
RTVSPropertyOp29
 70
     0
102
RTVSPropertyOp30
 70
     0
102
RTVSPropertyOp31
 70
     0
102
RTVSPropertyOp32
 70
     0
102
RTVSPropertyOp33
 70
     0
102
RTVSPropertyOp34
 70
     0
102
RTVSPropertyOp35
 70
     0
102
RTVSPropertyOp36
 70
     0
102
RTVSPropertyOp37
 70
     0
102
RTVSPropertyOp38
 70
     0
102
RTVSPropertyOp39
 70
     0
102
RTVSPropertyOp40
 70
     0
102
RTVSPropertyOp41
 70
     0
102
RTVSPropertyOp42
 70
     0
102
RTVSPropertyOp43
 70
     0
102
RTVSPropertyOp44
 70
     0
102
RTVSPropertyOp45
 70
     0
102
RTVSPropertyOp46
 70
     0
102
RTVSPropertyOp47
 70
     0
102
RTVSPropertyOp48
 70
     0
102
RTVSPropertyOp49
 70
     0
102
RTVSPropertyOp50
 70
     0
102
RTVSPropertyOp51
 70
     0
102
RTVSPropertyOp52
 70
     0
102
RTVSPropertyOp53
 70
     0
102
RTVSPropertyOp54
 70
     0
102
RTVSPropertyOp55
 70
     0
102
RTVSPropertyOp56
 70
     0
102
RTVSPropertyOp57
 70
     0
102
RTVSPost2010Prop28
280
     0
102
RTVSPost2010PropOp28
 70
     0
102
RTVSPost2010Prop29
280
     1
102
RTVSPost2010PropOp29
 70
     0
102
RTVSPost2010Prop30
280
     1
102
RTVSPost2010PropOp30
 70
     0
102
RTVSPost2010Prop31
280
     0
102
RTVSPost2010PropOp31
 70
     0
102
RTVSPost2010Prop32
280
     0
102
RTVSPost2010PropOp32
 70
     0
102
RTVSPost2010Prop33
280
     0
102
RTVSPost2010PropOp33
 70
     0
102
RTVSPost2010Prop34
280
     0
102
RTVSPost2010PropOp34
 70
     0
102
RTVSPost2010Prop35
280
     0
102
RTVSPost2010PropOp35
 70
     0
102
RTVSPost2010Prop36
280
     0
102
RTVSPost2010PropOp36
 70
     0
102
RTVSPost2010Prop37
 90
       50
102
RTVSPost2010PropOp37
 70
     0
102
RTVSPost2010Prop38
140
0.0
102
RTVSPost2010PropOp38
 70
     0
102
RTVSPost2010Prop39
140
1.0
102
RTVSPost2010PropOp39
 70
     0
102
RTVSPost2010Prop40
 90
        0
102
RTVSPost2010PropOp40
 70
     0
102
RTVSPost2010Prop41ColorIndex
 90
       18
102
RTVSPost2010Prop41ColorRGB
 90
        0
102
RTVSPost2010PropOp41
 70
     0
102
RTVSPost2010Prop42
 90
       50
102
RTVSPost2010PropOp42
 70
     0
102
RTVSPost2010Prop43
 90
        3
102
RTVSPost2010PropOp43
 70
     0
102
RTVSPost2010Prop44ColorIndex
 90
        5
102
RTVSPost2010Prop44ColorRGB
 90
      255
102
RTVSPost2010PropOp44
 70
     0
102
RTVSPost2010Prop45
280
     0
102
RTVSPost2010PropOp45
 70
     0
102
RTVSPost2010Prop46
 90
       50
102
RTVSPost2010PropOp46
 70
     0
102
RTVSPost2010Prop47
 90
       50
102
RTVSPost2010PropOp47
 70
     0
102
RTVSPost2010Prop48
 90
       50
102
RTVSPost2010PropOp48
 70
     0
102
RTVSPost2010Prop49
280
     0
102
RTVSPost2010PropOp49
 70
     0
102
RTVSPost2010Prop50
 90
       50
102
RTVSPost2010PropOp50
 70
     0
102
RTVSPost2010Prop51ColorIndex
 90
      256
102
RTVSPost2010Prop51ColorRGB
 90
-16777216
102
RTVSPost2010PropOp51
 70
     0
102
RTVSPost2010Prop52
140
1.0
102
RTVSPost2010PropOp52
 70
     0
102
RTVSPost2010Prop53
 90
        2
102
RTVSPost2010PropOp53
 70
     0
102
RTVSPost2010Prop54
  1
strokes_ogs.tif
102
RTVSPost2010PropOp54
 70
     0
102
RTVSPost2010Prop55
280
     0
102
RTVSPost2010PropOp55
 70
     0
102
RTVSPost2010Prop56
140
1.0
102
RTVSPost2010PropOp56
 70
     0
102
RTVSPost2010Prop57
140
1.0
102
RTVSPost2010PropOp57
 70
     0
  0
XRECORD
  5
314
102
{ACAD_REACTORS
330
313
102
}
330
313
100
AcDbXrecord
280
     1
102
RTVSPropertyOp0
 70
     1
102
RTVSPropertyOp1
 70
     1
102
RTVSPropertyOp2
 70
     1
102
RTVSPropertyOp3
 70
     1
102
RTVSPropertyOp4
 70
     1
102
RTVSPropertyOp5
 70
     1
102
RTVSPropertyOp6
 70
     1
102
RTVSPropertyOp7
 70
     1
102
RTVSPropertyOp8
 70
     1
102
RTVSPropertyOp9
 70
     1
102
RTVSPropertyOp10
 70
     1
102
RTVSPropertyOp11
 70
     1
102
RTVSPropertyOp12
 70
     1
102
RTVSPropertyOp13
 70
     1
102
RTVSPropertyOp14
 70
     1
102
RTVSPropertyOp15
 70
     1
102
RTVSPropertyOp16
 70
     1
102
RTVSPropertyOp17
 70
     1
102
RTVSPropertyOp18
 70
     1
102
RTVSPropertyOp19
 70
     1
102
RTVSPropertyOp20
 70
     1
102
RTVSPropertyOp21
 70
     1
102
RTVSPropertyOp22
 70
     1
102
RTVSPropertyOp23
 70
     1
102
RTVSPropertyOp24
 70
     1
102
RTVSPropertyOp25
 70
     1
102
RTVSPropertyOp26
 70
     1
102
RTVSPropertyOp27
 70
     1
102
RTVSPropertyOp28
 70
     1
102
RTVSPropertyOp29
 70
     1
102
RTVSPropertyOp30
 70
     1
102
RTVSPropertyOp31
 70
     1
102
RTVSPropertyOp32
 70
     1
102
RTVSPropertyOp33
 70
     1
102
RTVSPropertyOp34
 70
     1
102
RTVSPropertyOp35
 70
     1
102
RTVSPropertyOp36
 70
     1
102
RTVSPropertyOp37
 70
     1
102
RTVSPropertyOp38
 70
     1
102
RTVSPropertyOp39
 70
     1
102
RTVSPropertyOp40
 70
     1
102
RTVSPropertyOp41
 70
     1
102
RTVSPropertyOp42
 70
     1
102
RTVSPropertyOp43
 70
     1
102
RTVSPropertyOp44
 70
     1
102
RTVSPropertyOp45
 70
     1
102
RTVSPropertyOp46
 70
     1
102
RTVSPropertyOp47
 70
     1
102
RTVSPropertyOp48
 70
     1
102
RTVSPropertyOp49
 70
     1
102
RTVSPropertyOp50
 70
     1
102
RTVSPropertyOp51
 70
     0
102
RTVSPropertyOp52
 70
     0
102
RTVSPropertyOp53
 70
     1
102
RTVSPropertyOp54
 70
     1
102
RTVSPropertyOp55
 70
     1
102
RTVSPropertyOp56
 70
     1
102
RTVSPropertyOp57
 70
     1
102
RTVSPost2010Prop28
280
     0
102
RTVSPost2010PropOp28
 70
     1
102
RTVSPost2010Prop29
280
     1
102
RTVSPost2010PropOp29
 70
     1
102
RTVSPost2010Prop30
280
     1
102
RTVSPost2010PropOp30
 70
     1
102
RTVSPost2010Prop31
280
     0
102
RTVSPost2010PropOp31
 70
     1
102
RTVSPost2010Prop32
280
     0
102
RTVSPost2010PropOp32
 70
     1
102
RTVSPost2010Prop33
280
     0
102
RTVSPost2010PropOp33
 70
     1
102
RTVSPost2010Prop34
280
     0
102
RTVSPost2010PropOp34
 70
     1
102
RTVSPost2010Prop35
280
     0
102
RTVSPost2010PropOp35
 70
     1
102
RTVSPost2010Prop36
280
     0
102
RTVSPost2010PropOp36
 70
     1
102
RTVSPost2010Prop37
 90
       50
102
RTVSPost2010PropOp37
 70
     1
102
RTVSPost2010Prop38
140
0.0
102
RTVSPost2010PropOp38
 70
     1
102
RTVSPost2010Prop39
140
1.0
102
RTVSPost2010PropOp39
 70
     1
102
RTVSPost2010Prop40
 90
        0
102
RTVSPost2010PropOp40
 70
     1
102
RTVSPost2010Prop41ColorIndex
 90
       18
102
RTVSPost2010Prop41ColorRGB
 90
        0
102
RTVSPost2010PropOp41
 70
     1
102
RTVSPost2010Prop42
 90
       50
102
RTVSPost2010PropOp42
 70
     1
102
RTVSPost2010Prop43
 90
        3
102
RTVSPost2010PropOp43
 70
     1
102
RTVSPost2010Prop44ColorIndex
 90
        5
102
RTVSPost2010Prop44ColorRGB
 90
      255
102
RTVSPost2010PropOp44
 70
     1
102
RTVSPost2010Prop45
280
     0
102
RTVSPost2010PropOp45
 70
     1
102
RTVSPost2010Prop46
 90
       50
102
RTVSPost2010PropOp46
 70
     1
102
RTVSPost2010Prop47
 90
       50
102
RTVSPost2010PropOp47
 70
     1
102
RTVSPost2010Prop48
 90
       50
102
RTVSPost2010PropOp48
 70
     1
102
RTVSPost2010Prop49
280
     0
102
RTVSPost2010PropOp49
 70
     1
102
RTVSPost2010Prop50
 90
       50
102
RTVSPost2010PropOp50
 70
     1
102
RTVSPost2010Prop51ColorIndex
 90
      256
102
RTVSPost2010Prop51ColorRGB
 90
-16777216
102
RTVSPost2010PropOp51
 70
     0
102
RTVSPost2010Prop52
140
1.0
102
RTVSPost2010PropOp52
 70
     0
102
RTVSPost2010Prop53
 90
        2
102
RTVSPost2010PropOp53
 70
     1
102
RTVSPost2010Prop54
  1
strokes_ogs.tif
102
RTVSPost2010PropOp54
 70
     1
102
RTVSPost2010Prop55
280
     0
102
RTVSPost2010PropOp55
 70
     1
102
RTVSPost2010Prop56
140
1.0
102
RTVSPost2010PropOp56
 70
     1
102
RTVSPost2010Prop57
140
1.0
102
RTVSPost2010PropOp57
 70
     1
  0
XRECORD
  5
2F8
102
{ACAD_REACTORS
330
2F7
102
}
330
2F7
100
AcDbXrecord
280
     1
102
RTVSPropertyOp0
 70
     1
102
RTVSPropertyOp1
 70
     1
102
RTVSPropertyOp2
 70
     1
102
RTVSPropertyOp3
 70
     1
102
RTVSPropertyOp4
 70
     1
102
RTVSPropertyOp5
 70
     1
102
RTVSPropertyOp6
 70
     1
102
RTVSPropertyOp7
 70
     1
102
RTVSPropertyOp8
 70
     1
102
RTVSPropertyOp9
 70
     1
102
RTVSPropertyOp10
 70
     1
102
RTVSPropertyOp11
 70
     1
102
RTVSPropertyOp12
 70
     1
102
RTVSPropertyOp13
 70
     1
102
RTVSPropertyOp14
 70
     1
102
RTVSPropertyOp15
 70
     1
102
RTVSPropertyOp16
 70
     1
102
RTVSPropertyOp17
 70
     1
102
RTVSPropertyOp18
 70
     1
102
RTVSPropertyOp19
 70
     1
102
RTVSPropertyOp20
 70
     1
102
RTVSPropertyOp21
 70
     1
102
RTVSPropertyOp22
 70
     1
102
RTVSPropertyOp23
 70
     1
102
RTVSPropertyOp24
 70
     1
102
RTVSPropertyOp25
 70
     1
102
RTVSPropertyOp26
 70
     1
102
RTVSPropertyOp27
 70
     1
102
RTVSPropertyOp28
 70
     1
102
RTVSPropertyOp29
 70
     1
102
RTVSPropertyOp30
 70
     1
102
RTVSPropertyOp31
 70
     1
102
RTVSPropertyOp32
 70
     1
102
RTVSPropertyOp33
 70
     1
102
RTVSPropertyOp34
 70
     1
102
RTVSPropertyOp35
 70
     1
102
RTVSPropertyOp36
 70
     1
102
RTVSPropertyOp37
 70
     1
102
RTVSPropertyOp38
 70
     1
102
RTVSPropertyOp39
 70
     1
102
RTVSPropertyOp40
 70
     1
102
RTVSPropertyOp41
 70
     1
102
RTVSPropertyOp42
 70
     1
102
RTVSPropertyOp43
 70
     1
102
RTVSPropertyOp44
 70
     1
102
RTVSPropertyOp45
 70
     1
102
RTVSPropertyOp46
 70
     1
102
RTVSPropertyOp47
 70
     1
102
RTVSPropertyOp48
 70
     1
102
RTVSPropertyOp49
 70
     1
102
RTVSPropertyOp50
 70
     1
102
RTVSPropertyOp51
 70
     0
102
RTVSPropertyOp52
 70
     0
102
RTVSPropertyOp53
 70
     1
102
RTVSPropertyOp54
 70
     1
102
RTVSPropertyOp55
 70
     1
102
RTVSPropertyOp56
 70
     1
102
RTVSPropertyOp57
 70
     1
102
RTVSPost2010Prop28
280
     0
102
RTVSPost2010PropOp28
 70
     1
102
RTVSPost2010Prop29
280
     1
102
RTVSPost2010PropOp29
 70
     1
102
RTVSPost2010Prop30
280
     1
102
RTVSPost2010PropOp30
 70
     1
102
RTVSPost2010Prop31
280
     0
102
RTVSPost2010PropOp31
 70
     1
102
RTVSPost2010Prop32
280
     0
102
RTVSPost2010PropOp32
 70
     1
102
RTVSPost2010Prop33
280
     0
102
RTVSPost2010PropOp33
 70
     1
102
RTVSPost2010Prop34
280
     0
102
RTVSPost2010PropOp34
 70
     1
102
RTVSPost2010Prop35
280
     0
102
RTVSPost2010PropOp35
 70
     1
102
RTVSPost2010Prop36
280
     0
102
RTVSPost2010PropOp36
 70
     1
102
RTVSPost2010Prop37
 90
       50
102
RTVSPost2010PropOp37
 70
     1
102
RTVSPost2010Prop38
140
0.0
102
RTVSPost2010PropOp38
 70
     1
102
RTVSPost2010Prop39
140
1.0
102
RTVSPost2010PropOp39
 70
     1
102
RTVSPost2010Prop40
 90
        0
102
RTVSPost2010PropOp40
 70
     1
102
RTVSPost2010Prop41ColorIndex
 90
       18
102
RTVSPost2010Prop41ColorRGB
 90
        0
102
RTVSPost2010PropOp41
 70
     1
102
RTVSPost2010Prop42
 90
       50
102
RTVSPost2010PropOp42
 70
     1
102
RTVSPost2010Prop43
 90
        3
102
RTVSPost2010PropOp43
 70
     1
102
RTVSPost2010Prop44ColorIndex
 90
        5
102
RTVSPost2010Prop44ColorRGB
 90
      255
102
RTVSPost2010PropOp44
 70
     1
102
RTVSPost2010Prop45
280
     0
102
RTVSPost2010PropOp45
 70
     1
102
RTVSPost2010Prop46
 90
       50
102
RTVSPost2010PropOp46
 70
     1
102
RTVSPost2010Prop47
 90
       50
102
RTVSPost2010PropOp47
 70
     1
102
RTVSPost2010Prop48
 90
       50
102
RTVSPost2010PropOp48
 70
     1
102
RTVSPost2010Prop49
280
     0
102
RTVSPost2010PropOp49
 70
     1
102
RTVSPost2010Prop50
 90
       50
102
RTVSPost2010PropOp50
 70
     1
102
RTVSPost2010Prop51ColorIndex
 90
      256
102
RTVSPost2010Prop51ColorRGB
 90
-16777216
102
RTVSPost2010PropOp51
 70
     0
102
RTVSPost2010Prop52
140
1.0
102
RTVSPost2010PropOp52
 70
     0
102
RTVSPost2010Prop53
 90
        2
102
RTVSPost2010PropOp53
 70
     1
102
RTVSPost2010Prop54
  1
strokes_ogs.tif
102
RTVSPost2010PropOp54
 70
     1
102
RTVSPost2010Prop55
280
     0
102
RTVSPost2010PropOp55
 70
     1
102
RTVSPost2010Prop56
140
1.0
102
RTVSPost2010PropOp56
 70
     1
102
RTVSPost2010Prop57
140
1.0
102
RTVSPost2010PropOp57
 70
     1
  0
XRECORD
  5
2FA
102
{ACAD_REACTORS
330
2F9
102
}
330
2F9
100
AcDbXrecord
280
     1
102
RTVSPropertyOp0
 70
     1
102
RTVSPropertyOp1
 70
     1
102
RTVSPropertyOp2
 70
     1
102
RTVSPropertyOp3
 70
     1
102
RTVSPropertyOp4
 70
     1
102
RTVSPropertyOp5
 70
     1
102
RTVSPropertyOp6
 70
     1
102
RTVSPropertyOp7
 70
     1
102
RTVSPropertyOp8
 70
     1
102
RTVSPropertyOp9
 70
     1
102
RTVSPropertyOp10
 70
     1
102
RTVSPropertyOp11
 70
     1
102
RTVSPropertyOp12
 70
     1
102
RTVSPropertyOp13
 70
     1
102
RTVSPropertyOp14
 70
     1
102
RTVSPropertyOp15
 70
     1
102
RTVSPropertyOp16
 70
     1
102
RTVSPropertyOp17
 70
     1
102
RTVSPropertyOp18
 70
     1
102
RTVSPropertyOp19
 70
     1
102
RTVSPropertyOp20
 70
     1
102
RTVSPropertyOp21
 70
     1
102
RTVSPropertyOp22
 70
     1
102
RTVSPropertyOp23
 70
     1
102
RTVSPropertyOp24
 70
     1
102
RTVSPropertyOp25
 70
     1
102
RTVSPropertyOp26
 70
     1
102
RTVSPropertyOp27
 70
     1
102
RTVSPropertyOp28
 70
     1
102
RTVSPropertyOp29
 70
     1
102
RTVSPropertyOp30
 70
     1
102
RTVSPropertyOp31
 70
     1
102
RTVSPropertyOp32
 70
     1
102
RTVSPropertyOp33
 70
     1
102
RTVSPropertyOp34
 70
     1
102
RTVSPropertyOp35
 70
     1
102
RTVSPropertyOp36
 70
     1
102
RTVSPropertyOp37
 70
     1
102
RTVSPropertyOp38
 70
     1
102
RTVSPropertyOp39
 70
     1
102
RTVSPropertyOp40
 70
     1
102
RTVSPropertyOp41
 70
     1
102
RTVSPropertyOp42
 70
     1
102
RTVSPropertyOp43
 70
     1
102
RTVSPropertyOp44
 70
     1
102
RTVSPropertyOp45
 70
     1
102
RTVSPropertyOp46
 70
     1
102
RTVSPropertyOp47
 70
     1
102
RTVSPropertyOp48
 70
     1
102
RTVSPropertyOp49
 70
     1
102
RTVSPropertyOp50
 70
     1
102
RTVSPropertyOp51
 70
     0
102
RTVSPropertyOp52
 70
     0
102
RTVSPropertyOp53
 70
     1
102
RTVSPropertyOp54
 70
     1
102
RTVSPropertyOp55
 70
     1
102
RTVSPropertyOp56
 70
     1
102
RTVSPropertyOp57
 70
     1
102
RTVSPost2010Prop28
280
     0
102
RTVSPost2010PropOp28
 70
     1
102
RTVSPost2010Prop29
280
     1
102
RTVSPost2010PropOp29
 70
     1
102
RTVSPost2010Prop30
280
     1
102
RTVSPost2010PropOp30
 70
     1
102
RTVSPost2010Prop31
280
     0
102
RTVSPost2010PropOp31
 70
     1
102
RTVSPost2010Prop32
280
     0
102
RTVSPost2010PropOp32
 70
     1
102
RTVSPost2010Prop33
280
     0
102
RTVSPost2010PropOp33
 70
     1
102
RTVSPost2010Prop34
280
     0
102
RTVSPost2010PropOp34
 70
     1
102
RTVSPost2010Prop35
280
     0
102
RTVSPost2010PropOp35
 70
     1
102
RTVSPost2010Prop36
280
     0
102
RTVSPost2010PropOp36
 70
     1
102
RTVSPost2010Prop37
 90
       50
102
RTVSPost2010PropOp37
 70
     1
102
RTVSPost2010Prop38
140
0.0
102
RTVSPost2010PropOp38
 70
     1
102
RTVSPost2010Prop39
140
1.0
102
RTVSPost2010PropOp39
 70
     1
102
RTVSPost2010Prop40
 90
        0
102
RTVSPost2010PropOp40
 70
     1
102
RTVSPost2010Prop41ColorIndex
 90
       18
102
RTVSPost2010Prop41ColorRGB
 90
        0
102
RTVSPost2010PropOp41
 70
     1
102
RTVSPost2010Prop42
 90
       50
102
RTVSPost2010PropOp42
 70
     1
102
RTVSPost2010Prop43
 90
        3
102
RTVSPost2010PropOp43
 70
     1
102
RTVSPost2010Prop44ColorIndex
 90
        5
102
RTVSPost2010Prop44ColorRGB
 90
      255
102
RTVSPost2010PropOp44
 70
     1
102
RTVSPost2010Prop45
280
     0
102
RTVSPost2010PropOp45
 70
     1
102
RTVSPost2010Prop46
 90
       50
102
RTVSPost2010PropOp46
 70
     1
102
RTVSPost2010Prop47
 90
       50
102
RTVSPost2010PropOp47
 70
     1
102
RTVSPost2010Prop48
 90
       50
102
RTVSPost2010PropOp48
 70
     1
102
RTVSPost2010Prop49
280
     0
102
RTVSPost2010PropOp49
 70
     1
102
RTVSPost2010Prop50
 90
       50
102
RTVSPost2010PropOp50
 70
     1
102
RTVSPost2010Prop51ColorIndex
 90
      256
102
RTVSPost2010Prop51ColorRGB
 90
-16777216
102
RTVSPost2010PropOp51
 70
     0
102
RTVSPost2010Prop52
140
1.0
102
RTVSPost2010PropOp52
 70
     0
102
RTVSPost2010Prop53
 90
        2
102
RTVSPost2010PropOp53
 70
     1
102
RTVSPost2010Prop54
  1
strokes_ogs.tif
102
RTVSPost2010PropOp54
 70
     1
102
RTVSPost2010Prop55
280
     0
102
RTVSPost2010PropOp55
 70
     1
102
RTVSPost2010Prop56
140
1.0
102
RTVSPost2010PropOp56
 70
     1
102
RTVSPost2010Prop57
140
1.0
102
RTVSPost2010PropOp57
 70
     1
  0
XRECORD
  5
2FC
102
{ACAD_REACTORS
330
2FB
102
}
330
2FB
100
AcDbXrecord
280
     1
102
RTVSPropertyOp0
 70
     1
102
RTVSPropertyOp1
 70
     1
102
RTVSPropertyOp2
 70
     1
102
RTVSPropertyOp3
 70
     1
102
RTVSPropertyOp4
 70
     1
102
RTVSPropertyOp5
 70
     1
102
RTVSPropertyOp6
 70
     1
102
RTVSPropertyOp7
 70
     1
102
RTVSPropertyOp8
 70
     1
102
RTVSPropertyOp9
 70
     1
102
RTVSPropertyOp10
 70
     1
102
RTVSPropertyOp11
 70
     1
102
RTVSPropertyOp12
 70
     1
102
RTVSPropertyOp13
 70
     1
102
RTVSPropertyOp14
 70
     1
102
RTVSPropertyOp15
 70
     1
102
RTVSPropertyOp16
 70
     1
102
RTVSPropertyOp17
 70
     1
102
RTVSPropertyOp18
 70
     1
102
RTVSPropertyOp19
 70
     1
102
RTVSPropertyOp20
 70
     1
102
RTVSPropertyOp21
 70
     1
102
RTVSPropertyOp22
 70
     1
102
RTVSPropertyOp23
 70
     1
102
RTVSPropertyOp24
 70
     1
102
RTVSPropertyOp25
 70
     1
102
RTVSPropertyOp26
 70
     1
102
RTVSPropertyOp27
 70
     1
102
RTVSPropertyOp28
 70
     1
102
RTVSPropertyOp29
 70
     1
102
RTVSPropertyOp30
 70
     1
102
RTVSPropertyOp31
 70
     1
102
RTVSPropertyOp32
 70
     1
102
RTVSPropertyOp33
 70
     1
102
RTVSPropertyOp34
 70
     1
102
RTVSPropertyOp35
 70
     1
102
RTVSPropertyOp36
 70
     1
102
RTVSPropertyOp37
 70
     1
102
RTVSPropertyOp38
 70
     1
102
RTVSPropertyOp39
 70
     1
102
RTVSPropertyOp40
 70
     1
102
RTVSPropertyOp41
 70
     1
102
RTVSPropertyOp42
 70
     1
102
RTVSPropertyOp43
 70
     1
102
RTVSPropertyOp44
 70
     1
102
RTVSPropertyOp45
 70
     1
102
RTVSPropertyOp46
 70
     1
102
RTVSPropertyOp47
 70
     1
102
RTVSPropertyOp48
 70
     1
102
RTVSPropertyOp49
 70
     1
102
RTVSPropertyOp50
 70
     1
102
RTVSPropertyOp51
 70
     0
102
RTVSPropertyOp52
 70
     0
102
RTVSPropertyOp53
 70
     1
102
RTVSPropertyOp54
 70
     1
102
RTVSPropertyOp55
 70
     1
102
RTVSPropertyOp56
 70
     1
102
RTVSPropertyOp57
 70
     1
102
RTVSPost2010Prop28
280
     0
102
RTVSPost2010PropOp28
 70
     1
102
RTVSPost2010Prop29
280
     1
102
RTVSPost2010PropOp29
 70
     1
102
RTVSPost2010Prop30
280
     1
102
RTVSPost2010PropOp30
 70
     1
102
RTVSPost2010Prop31
280
     0
102
RTVSPost2010PropOp31
 70
     1
102
RTVSPost2010Prop32
280
     0
102
RTVSPost2010PropOp32
 70
     1
102
RTVSPost2010Prop33
280
     0
102
RTVSPost2010PropOp33
 70
     1
102
RTVSPost2010Prop34
280
     0
102
RTVSPost2010PropOp34
 70
     1
102
RTVSPost2010Prop35
280
     0
102
RTVSPost2010PropOp35
 70
     1
102
RTVSPost2010Prop36
280
     0
102
RTVSPost2010PropOp36
 70
     1
102
RTVSPost2010Prop37
 90
       50
102
RTVSPost2010PropOp37
 70
     1
102
RTVSPost2010Prop38
140
0.0
102
RTVSPost2010PropOp38
 70
     1
102
RTVSPost2010Prop39
140
1.0
102
RTVSPost2010PropOp39
 70
     1
102
RTVSPost2010Prop40
 90
        0
102
RTVSPost2010PropOp40
 70
     1
102
RTVSPost2010Prop41ColorIndex
 90
       18
102
RTVSPost2010Prop41ColorRGB
 90
        0
102
RTVSPost2010PropOp41
 70
     1
102
RTVSPost2010Prop42
 90
       50
102
RTVSPost2010PropOp42
 70
     1
102
RTVSPost2010Prop43
 90
        3
102
RTVSPost2010PropOp43
 70
     1
102
RTVSPost2010Prop44ColorIndex
 90
        5
102
RTVSPost2010Prop44ColorRGB
 90
      255
102
RTVSPost2010PropOp44
 70
     1
102
RTVSPost2010Prop45
280
     0
102
RTVSPost2010PropOp45
 70
     1
102
RTVSPost2010Prop46
 90
       50
102
RTVSPost2010PropOp46
 70
     1
102
RTVSPost2010Prop47
 90
       50
102
RTVSPost2010PropOp47
 70
     1
102
RTVSPost2010Prop48
 90
       50
102
RTVSPost2010PropOp48
 70
     1
102
RTVSPost2010Prop49
280
     0
102
RTVSPost2010PropOp49
 70
     1
102
RTVSPost2010Prop50
 90
       50
102
RTVSPost2010PropOp50
 70
     1
102
RTVSPost2010Prop51ColorIndex
 90
      256
102
RTVSPost2010Prop51ColorRGB
 90
-16777216
102
RTVSPost2010PropOp51
 70
     0
102
RTVSPost2010Prop52
140
1.0
102
RTVSPost2010PropOp52
 70
     0
102
RTVSPost2010Prop53
 90
        2
102
RTVSPost2010PropOp53
 70
     1
102
RTVSPost2010Prop54
  1
strokes_ogs.tif
102
RTVSPost2010PropOp54
 70
     1
102
RTVSPost2010Prop55
280
     0
102
RTVSPost2010PropOp55
 70
     1
102
RTVSPost2010Prop56
140
1.0
102
RTVSPost2010PropOp56
 70
     1
102
RTVSPost2010Prop57
140
1.0
102
RTVSPost2010PropOp57
 70
     1
  0
XRECORD
  5
2FE
102
{ACAD_REACTORS
330
2FD
102
}
330
2FD
100
AcDbXrecord
280
     1
102
RTVSPropertyOp0
 70
     1
102
RTVSPropertyOp1
 70
     1
102
RTVSPropertyOp2
 70
     1
102
RTVSPropertyOp3
 70
     1
102
RTVSPropertyOp4
 70
     1
102
RTVSPropertyOp5
 70
     1
102
RTVSPropertyOp6
 70
     1
102
RTVSPropertyOp7
 70
     1
102
RTVSPropertyOp8
 70
     1
102
RTVSPropertyOp9
 70
     1
102
RTVSPropertyOp10
 70
     1
102
RTVSPropertyOp11
 70
     1
102
RTVSPropertyOp12
 70
     1
102
RTVSPropertyOp13
 70
     1
102
RTVSPropertyOp14
 70
     1
102
RTVSPropertyOp15
 70
     1
102
RTVSPropertyOp16
 70
     1
102
RTVSPropertyOp17
 70
     1
102
RTVSPropertyOp18
 70
     1
102
RTVSPropertyOp19
 70
     1
102
RTVSPropertyOp20
 70
     1
102
RTVSPropertyOp21
 70
     1
102
RTVSPropertyOp22
 70
     1
102
RTVSPropertyOp23
 70
     1
102
RTVSPropertyOp24
 70
     1
102
RTVSPropertyOp25
 70
     1
102
RTVSPropertyOp26
 70
     1
102
RTVSPropertyOp27
 70
     1
102
RTVSPropertyOp28
 70
     1
102
RTVSPropertyOp29
 70
     1
102
RTVSPropertyOp30
 70
     1
102
RTVSPropertyOp31
 70
     1
102
RTVSPropertyOp32
 70
     1
102
RTVSPropertyOp33
 70
     1
102
RTVSPropertyOp34
 70
     1
102
RTVSPropertyOp35
 70
     1
102
RTVSPropertyOp36
 70
     1
102
RTVSPropertyOp37
 70
     1
102
RTVSPropertyOp38
 70
     1
102
RTVSPropertyOp39
 70
     1
102
RTVSPropertyOp40
 70
     1
102
RTVSPropertyOp41
 70
     1
102
RTVSPropertyOp42
 70
     1
102
RTVSPropertyOp43
 70
     1
102
RTVSPropertyOp44
 70
     1
102
RTVSPropertyOp45
 70
     1
102
RTVSPropertyOp46
 70
     1
102
RTVSPropertyOp47
 70
     1
102
RTVSPropertyOp48
 70
     1
102
RTVSPropertyOp49
 70
     1
102
RTVSPropertyOp50
 70
     1
102
RTVSPropertyOp51
 70
     0
102
RTVSPropertyOp52
 70
     0
102
RTVSPropertyOp53
 70
     1
102
RTVSPropertyOp54
 70
     1
102
RTVSPropertyOp55
 70
     1
102
RTVSPropertyOp56
 70
     1
102
RTVSPropertyOp57
 70
     1
102
RTVSPost2010Prop28
280
     0
102
RTVSPost2010PropOp28
 70
     1
102
RTVSPost2010Prop29
280
     1
102
RTVSPost2010PropOp29
 70
     1
102
RTVSPost2010Prop30
280
     1
102
RTVSPost2010PropOp30
 70
     1
102
RTVSPost2010Prop31
280
     0
102
RTVSPost2010PropOp31
 70
     1
102
RTVSPost2010Prop32
280
     0
102
RTVSPost2010PropOp32
 70
     1
102
RTVSPost2010Prop33
280
     0
102
RTVSPost2010PropOp33
 70
     1
102
RTVSPost2010Prop34
280
     0
102
RTVSPost2010PropOp34
 70
     1
102
RTVSPost2010Prop35
280
     0
102
RTVSPost2010PropOp35
 70
     1
102
RTVSPost2010Prop36
280
     0
102
RTVSPost2010PropOp36
 70
     1
102
RTVSPost2010Prop37
 90
       50
102
RTVSPost2010PropOp37
 70
     1
102
RTVSPost2010Prop38
140
0.0
102
RTVSPost2010PropOp38
 70
     1
102
RTVSPost2010Prop39
140
1.0
102
RTVSPost2010PropOp39
 70
     1
102
RTVSPost2010Prop40
 90
        0
102
RTVSPost2010PropOp40
 70
     1
102
RTVSPost2010Prop41ColorIndex
 90
       18
102
RTVSPost2010Prop41ColorRGB
 90
        0
102
RTVSPost2010PropOp41
 70
     1
102
RTVSPost2010Prop42
 90
       50
102
RTVSPost2010PropOp42
 70
     1
102
RTVSPost2010Prop43
 90
        3
102
RTVSPost2010PropOp43
 70
     1
102
RTVSPost2010Prop44ColorIndex
 90
        5
102
RTVSPost2010Prop44ColorRGB
 90
      255
102
RTVSPost2010PropOp44
 70
     1
102
RTVSPost2010Prop45
280
     0
102
RTVSPost2010PropOp45
 70
     1
102
RTVSPost2010Prop46
 90
       50
102
RTVSPost2010PropOp46
 70
     1
102
RTVSPost2010Prop47
 90
       50
102
RTVSPost2010PropOp47
 70
     1
102
RTVSPost2010Prop48
 90
       50
102
RTVSPost2010PropOp48
 70
     1
102
RTVSPost2010Prop49
280
     0
102
RTVSPost2010PropOp49
 70
     1
102
RTVSPost2010Prop50
 90
       50
102
RTVSPost2010PropOp50
 70
     1
102
RTVSPost2010Prop51ColorIndex
 90
      256
102
RTVSPost2010Prop51ColorRGB
 90
-16777216
102
RTVSPost2010PropOp51
 70
     0
102
RTVSPost2010Prop52
140
1.0
102
RTVSPost2010PropOp52
 70
     0
102
RTVSPost2010Prop53
 90
        2
102
RTVSPost2010PropOp53
 70
     1
102
RTVSPost2010Prop54
  1
strokes_ogs.tif
102
RTVSPost2010PropOp54
 70
     1
102
RTVSPost2010Prop55
280
     0
102
RTVSPost2010PropOp55
 70
     1
102
RTVSPost2010Prop56
140
1.0
102
RTVSPost2010PropOp56
 70
     1
102
RTVSPost2010Prop57
140
1.0
102
RTVSPost2010PropOp57
 70
     1
  0
XRECORD
  5
304
102
{ACAD_REACTORS
330
303
102
}
330
303
100
AcDbXrecord
280
     1
102
RTVSPropertyOp0
 70
     1
102
RTVSPropertyOp1
 70
     1
102
RTVSPropertyOp2
 70
     1
102
RTVSPropertyOp3
 70
     1
102
RTVSPropertyOp4
 70
     1
102
RTVSPropertyOp5
 70
     1
102
RTVSPropertyOp6
 70
     1
102
RTVSPropertyOp7
 70
     1
102
RTVSPropertyOp8
 70
     1
102
RTVSPropertyOp9
 70
     1
102
RTVSPropertyOp10
 70
     1
102
RTVSPropertyOp11
 70
     1
102
RTVSPropertyOp12
 70
     1
102
RTVSPropertyOp13
 70
     1
102
RTVSPropertyOp14
 70
     1
102
RTVSPropertyOp15
 70
     1
102
RTVSPropertyOp16
 70
     1
102
RTVSPropertyOp17
 70
     1
102
RTVSPropertyOp18
 70
     1
102
RTVSPropertyOp19
 70
     1
102
RTVSPropertyOp20
 70
     1
102
RTVSPropertyOp21
 70
     1
102
RTVSPropertyOp22
 70
     1
102
RTVSPropertyOp23
 70
     1
102
RTVSPropertyOp24
 70
     1
102
RTVSPropertyOp25
 70
     1
102
RTVSPropertyOp26
 70
     1
102
RTVSPropertyOp27
 70
     1
102
RTVSPropertyOp28
 70
     1
102
RTVSPropertyOp29
 70
     1
102
RTVSPropertyOp30
 70
     1
102
RTVSPropertyOp31
 70
     1
102
RTVSPropertyOp32
 70
     1
102
RTVSPropertyOp33
 70
     1
102
RTVSPropertyOp34
 70
     1
102
RTVSPropertyOp35
 70
     1
102
RTVSPropertyOp36
 70
     1
102
RTVSPropertyOp37
 70
     1
102
RTVSPropertyOp38
 70
     1
102
RTVSPropertyOp39
 70
     1
102
RTVSPropertyOp40
 70
     1
102
RTVSPropertyOp41
 70
     1
102
RTVSPropertyOp42
 70
     1
102
RTVSPropertyOp43
 70
     1
102
RTVSPropertyOp44
 70
     1
102
RTVSPropertyOp45
 70
     1
102
RTVSPropertyOp46
 70
     1
102
RTVSPropertyOp47
 70
     1
102
RTVSPropertyOp48
 70
     1
102
RTVSPropertyOp49
 70
     1
102
RTVSPropertyOp50
 70
     1
102
RTVSPropertyOp51
 70
     0
102
RTVSPropertyOp52
 70
     0
102
RTVSPropertyOp53
 70
     1
102
RTVSPropertyOp54
 70
     1
102
RTVSPropertyOp55
 70
     1
102
RTVSPropertyOp56
 70
     1
102
RTVSPropertyOp57
 70
     1
102
RTVSPost2010Prop28
280
     0
102
RTVSPost2010PropOp28
 70
     1
102
RTVSPost2010Prop29
280
     1
102
RTVSPost2010PropOp29
 70
     1
102
RTVSPost2010Prop30
280
     1
102
RTVSPost2010PropOp30
 70
     1
102
RTVSPost2010Prop31
280
     0
102
RTVSPost2010PropOp31
 70
     1
102
RTVSPost2010Prop32
280
     0
102
RTVSPost2010PropOp32
 70
     1
102
RTVSPost2010Prop33
280
     0
102
RTVSPost2010PropOp33
 70
     1
102
RTVSPost2010Prop34
280
     0
102
RTVSPost2010PropOp34
 70
     1
102
RTVSPost2010Prop35
280
     0
102
RTVSPost2010PropOp35
 70
     1
102
RTVSPost2010Prop36
280
     0
102
RTVSPost2010PropOp36
 70
     1
102
RTVSPost2010Prop37
 90
       50
102
RTVSPost2010PropOp37
 70
     1
102
RTVSPost2010Prop38
140
0.0
102
RTVSPost2010PropOp38
 70
     1
102
RTVSPost2010Prop39
140
1.0
102
RTVSPost2010PropOp39
 70
     1
102
RTVSPost2010Prop40
 90
        0
102
RTVSPost2010PropOp40
 70
     1
102
RTVSPost2010Prop41ColorIndex
 90
       18
102
RTVSPost2010Prop41ColorRGB
 90
        0
102
RTVSPost2010PropOp41
 70
     1
102
RTVSPost2010Prop42
 90
       50
102
RTVSPost2010PropOp42
 70
     1
102
RTVSPost2010Prop43
 90
        3
102
RTVSPost2010PropOp43
 70
     1
102
RTVSPost2010Prop44ColorIndex
 90
        5
102
RTVSPost2010Prop44ColorRGB
 90
      255
102
RTVSPost2010PropOp44
 70
     1
102
RTVSPost2010Prop45
280
     0
102
RTVSPost2010PropOp45
 70
     1
102
RTVSPost2010Prop46
 90
       50
102
RTVSPost2010PropOp46
 70
     1
102
RTVSPost2010Prop47
 90
       50
102
RTVSPost2010PropOp47
 70
     1
102
RTVSPost2010Prop48
 90
       50
102
RTVSPost2010PropOp48
 70
     1
102
RTVSPost2010Prop49
280
     0
102
RTVSPost2010PropOp49
 70
     1
102
RTVSPost2010Prop50
 90
       50
102
RTVSPost2010PropOp50
 70
     1
102
RTVSPost2010Prop51ColorIndex
 90
      256
102
RTVSPost2010Prop51ColorRGB
 90
-16777216
102
RTVSPost2010PropOp51
 70
     0
102
RTVSPost2010Prop52
140
1.0
102
RTVSPost2010PropOp52
 70
     0
102
RTVSPost2010Prop53
 90
        2
102
RTVSPost2010PropOp53
 70
     1
102
RTVSPost2010Prop54
  1
strokes_ogs.tif
102
RTVSPost2010PropOp54
 70
     1
102
RTVSPost2010Prop55
280
     0
102
RTVSPost2010PropOp55
 70
     1
102
RTVSPost2010Prop56
140
1.0
102
RTVSPost2010PropOp56
 70
     1
102
RTVSPost2010Prop57
140
1.0
102
RTVSPost2010PropOp57
 70
     1
  0
XRECORD
  5
318
102
{ACAD_REACTORS
330
317
102
}
330
317
100
AcDbXrecord
280
     1
102
RTVSPropertyOp0
 70
     0
102
RTVSPropertyOp1
 70
     0
102
RTVSPropertyOp2
 70
     0
102
RTVSPropertyOp3
 70
     0
102
RTVSPropertyOp4
 70
     0
102
RTVSPropertyOp5
 70
     0
102
RTVSPropertyOp6
 70
     0
102
RTVSPropertyOp7
 70
     0
102
RTVSPropertyOp8
 70
     0
102
RTVSPropertyOp9
 70
     0
102
RTVSPropertyOp10
 70
     0
102
RTVSPropertyOp11
 70
     0
102
RTVSPropertyOp12
 70
     0
102
RTVSPropertyOp13
 70
     0
102
RTVSPropertyOp14
 70
     2
102
RTVSPropertyOp15
 70
     0
102
RTVSPropertyOp16
 70
     0
102
RTVSPropertyOp17
 70
     0
102
RTVSPropertyOp18
 70
     0
102
RTVSPropertyOp19
 70
     0
102
RTVSPropertyOp20
 70
     0
102
RTVSPropertyOp21
 70
     0
102
RTVSPropertyOp22
 70
     0
102
RTVSPropertyOp23
 70
     0
102
RTVSPropertyOp24
 70
     0
102
RTVSPropertyOp25
 70
     0
102
RTVSPropertyOp26
 70
     0
102
RTVSPropertyOp27
 70
     0
102
RTVSPropertyOp28
 70
     0
102
RTVSPropertyOp29
 70
     0
102
RTVSPropertyOp30
 70
     0
102
RTVSPropertyOp31
 70
     0
102
RTVSPropertyOp32
 70
     0
102
RTVSPropertyOp33
 70
     0
102
RTVSPropertyOp34
 70
     0
102
RTVSPropertyOp35
 70
     0
102
RTVSPropertyOp36
 70
     0
102
RTVSPropertyOp37
 70
     0
102
RTVSPropertyOp38
 70
     0
102
RTVSPropertyOp39
 70
     0
102
RTVSPropertyOp40
 70
     0
102
RTVSPropertyOp41
 70
     0
102
RTVSPropertyOp42
 70
     0
102
RTVSPropertyOp43
 70
     0
102
RTVSPropertyOp44
 70
     0
102
RTVSPropertyOp45
 70
     0
102
RTVSPropertyOp46
 70
     0
102
RTVSPropertyOp47
 70
     0
102
RTVSPropertyOp48
 70
     0
102
RTVSPropertyOp49
 70
     0
102
RTVSPropertyOp50
 70
     0
102
RTVSPropertyOp51
 70
     0
102
RTVSPropertyOp52
 70
     0
102
RTVSPropertyOp53
 70
     0
102
RTVSPropertyOp54
 70
     0
102
RTVSPropertyOp55
 70
     0
102
RTVSPropertyOp56
 70
     0
102
RTVSPropertyOp57
 70
     0
102
RTVSPost2010Prop28
280
     0
102
RTVSPost2010PropOp28
 70
     0
102
RTVSPost2010Prop29
280
     1
102
RTVSPost2010PropOp29
 70
     0
102
RTVSPost2010Prop30
280
     1
102
RTVSPost2010PropOp30
 70
     0
102
RTVSPost2010Prop31
280
     0
102
RTVSPost2010PropOp31
 70
     0
102
RTVSPost2010Prop32
280
     0
102
RTVSPost2010PropOp32
 70
     0
102
RTVSPost2010Prop33
280
     0
102
RTVSPost2010PropOp33
 70
     0
102
RTVSPost2010Prop34
280
     0
102
RTVSPost2010PropOp34
 70
     0
102
RTVSPost2010Prop35
280
     0
102
RTVSPost2010PropOp35
 70
     0
102
RTVSPost2010Prop36
280
     0
102
RTVSPost2010PropOp36
 70
     0
102
RTVSPost2010Prop37
 90
       50
102
RTVSPost2010PropOp37
 70
     0
102
RTVSPost2010Prop38
140
0.0
102
RTVSPost2010PropOp38
 70
     0
102
RTVSPost2010Prop39
140
1.0
102
RTVSPost2010PropOp39
 70
     0
102
RTVSPost2010Prop40
 90
        0
102
RTVSPost2010PropOp40
 70
     0
102
RTVSPost2010Prop41ColorIndex
 90
       18
102
RTVSPost2010Prop41ColorRGB
 90
        0
102
RTVSPost2010PropOp41
 70
     0
102
RTVSPost2010Prop42
 90
       50
102
RTVSPost2010PropOp42
 70
     0
102
RTVSPost2010Prop43
 90
        3
102
RTVSPost2010PropOp43
 70
     0
102
RTVSPost2010Prop44ColorIndex
 90
        5
102
RTVSPost2010Prop44ColorRGB
 90
      255
102
RTVSPost2010PropOp44
 70
     0
102
RTVSPost2010Prop45
280
     0
102
RTVSPost2010PropOp45
 70
     0
102
RTVSPost2010Prop46
 90
       50
102
RTVSPost2010PropOp46
 70
     0
102
RTVSPost2010Prop47
 90
       50
102
RTVSPost2010PropOp47
 70
     0
102
RTVSPost2010Prop48
 90
       50
102
RTVSPost2010PropOp48
 70
     0
102
RTVSPost2010Prop49
280
     0
102
RTVSPost2010PropOp49
 70
     0
102
RTVSPost2010Prop50
 90
       50
102
RTVSPost2010PropOp50
 70
     0
102
RTVSPost2010Prop51ColorIndex
 90
      256
102
RTVSPost2010Prop51ColorRGB
 90
-16777216
102
RTVSPost2010PropOp51
 70
     0
102
RTVSPost2010Prop52
140
1.0
102
RTVSPost2010PropOp52
 70
     0
102
RTVSPost2010Prop53
 90
        2
102
RTVSPost2010PropOp53
 70
     0
102
RTVSPost2010Prop54
  1
strokes_ogs.tif
102
RTVSPost2010PropOp54
 70
     0
102
RTVSPost2010Prop55
280
     0
102
RTVSPost2010PropOp55
 70
     0
102
RTVSPost2010Prop56
140
1.0
102
RTVSPost2010PropOp56
 70
     0
102
RTVSPost2010Prop57
140
1.0
102
RTVSPost2010PropOp57
 70
     0
  0
XRECORD
  5
312
102
{ACAD_REACTORS
330
311
102
}
330
311
100
AcDbXrecord
280
     1
102
RTVSPropertyOp0
 70
     1
102
RTVSPropertyOp1
 70
     1
102
RTVSPropertyOp2
 70
     1
102
RTVSPropertyOp3
 70
     1
102
RTVSPropertyOp4
 70
     1
102
RTVSPropertyOp5
 70
     1
102
RTVSPropertyOp6
 70
     1
102
RTVSPropertyOp7
 70
     1
102
RTVSPropertyOp8
 70
     1
102
RTVSPropertyOp9
 70
     1
102
RTVSPropertyOp10
 70
     1
102
RTVSPropertyOp11
 70
     1
102
RTVSPropertyOp12
 70
     1
102
RTVSPropertyOp13
 70
     1
102
RTVSPropertyOp14
 70
     1
102
RTVSPropertyOp15
 70
     1
102
RTVSPropertyOp16
 70
     1
102
RTVSPropertyOp17
 70
     1
102
RTVSPropertyOp18
 70
     1
102
RTVSPropertyOp19
 70
     1
102
RTVSPropertyOp20
 70
     1
102
RTVSPropertyOp21
 70
     1
102
RTVSPropertyOp22
 70
     1
102
RTVSPropertyOp23
 70
     1
102
RTVSPropertyOp24
 70
     1
102
RTVSPropertyOp25
 70
     1
102
RTVSPropertyOp26
 70
     1
102
RTVSPropertyOp27
 70
     1
102
RTVSPropertyOp28
 70
     1
102
RTVSPropertyOp29
 70
     1
102
RTVSPropertyOp30
 70
     1
102
RTVSPropertyOp31
 70
     1
102
RTVSPropertyOp32
 70
     1
102
RTVSPropertyOp33
 70
     1
102
RTVSPropertyOp34
 70
     1
102
RTVSPropertyOp35
 70
     1
102
RTVSPropertyOp36
 70
     1
102
RTVSPropertyOp37
 70
     1
102
RTVSPropertyOp38
 70
     1
102
RTVSPropertyOp39
 70
     1
102
RTVSPropertyOp40
 70
     1
102
RTVSPropertyOp41
 70
     1
102
RTVSPropertyOp42
 70
     1
102
RTVSPropertyOp43
 70
     1
102
RTVSPropertyOp44
 70
     1
102
RTVSPropertyOp45
 70
     1
102
RTVSPropertyOp46
 70
     1
102
RTVSPropertyOp47
 70
     1
102
RTVSPropertyOp48
 70
     1
102
RTVSPropertyOp49
 70
     1
102
RTVSPropertyOp50
 70
     1
102
RTVSPropertyOp51
 70
     0
102
RTVSPropertyOp52
 70
     0
102
RTVSPropertyOp53
 70
     1
102
RTVSPropertyOp54
 70
     1
102
RTVSPropertyOp55
 70
     1
102
RTVSPropertyOp56
 70
     1
102
RTVSPropertyOp57
 70
     1
102
RTVSPost2010Prop28
280
     0
102
RTVSPost2010PropOp28
 70
     1
102
RTVSPost2010Prop29
280
     1
102
RTVSPost2010PropOp29
 70
     1
102
RTVSPost2010Prop30
280
     1
102
RTVSPost2010PropOp30
 70
     1
102
RTVSPost2010Prop31
280
     0
102
RTVSPost2010PropOp31
 70
     1
102
RTVSPost2010Prop32
280
     0
102
RTVSPost2010PropOp32
 70
     1
102
RTVSPost2010Prop33
280
     0
102
RTVSPost2010PropOp33
 70
     1
102
RTVSPost2010Prop34
280
     0
102
RTVSPost2010PropOp34
 70
     1
102
RTVSPost2010Prop35
280
     0
102
RTVSPost2010PropOp35
 70
     1
102
RTVSPost2010Prop36
280
     0
102
RTVSPost2010PropOp36
 70
     1
102
RTVSPost2010Prop37
 90
       50
102
RTVSPost2010PropOp37
 70
     1
102
RTVSPost2010Prop38
140
0.0
102
RTVSPost2010PropOp38
 70
     1
102
RTVSPost2010Prop39
140
1.0
102
RTVSPost2010PropOp39
 70
     1
102
RTVSPost2010Prop40
 90
        0
102
RTVSPost2010PropOp40
 70
     1
102
RTVSPost2010Prop41ColorIndex
 90
       18
102
RTVSPost2010Prop41ColorRGB
 90
        0
102
RTVSPost2010PropOp41
 70
     1
102
RTVSPost2010Prop42
 90
       50
102
RTVSPost2010PropOp42
 70
     1
102
RTVSPost2010Prop43
 90
        3
102
RTVSPost2010PropOp43
 70
     1
102
RTVSPost2010Prop44ColorIndex
 90
        5
102
RTVSPost2010Prop44ColorRGB
 90
      255
102
RTVSPost2010PropOp44
 70
     1
102
RTVSPost2010Prop45
280
     0
102
RTVSPost2010PropOp45
 70
     1
102
RTVSPost2010Prop46
 90
       50
102
RTVSPost2010PropOp46
 70
     1
102
RTVSPost2010Prop47
 90
       50
102
RTVSPost2010PropOp47
 70
     1
102
RTVSPost2010Prop48
 90
       50
102
RTVSPost2010PropOp48
 70
     1
102
RTVSPost2010Prop49
280
     0
102
RTVSPost2010PropOp49
 70
     1
102
RTVSPost2010Prop50
 90
       50
102
RTVSPost2010PropOp50
 70
     1
102
RTVSPost2010Prop51ColorIndex
 90
      256
102
RTVSPost2010Prop51ColorRGB
 90
-16777216
102
RTVSPost2010PropOp51
 70
     0
102
RTVSPost2010Prop52
140
1.0
102
RTVSPost2010PropOp52
 70
     0
102
RTVSPost2010Prop53
 90
        2
102
RTVSPost2010PropOp53
 70
     1
102
RTVSPost2010Prop54
  1
strokes_ogs.tif
102
RTVSPost2010PropOp54
 70
     1
102
RTVSPost2010Prop55
280
     0
102
RTVSPost2010PropOp55
 70
     1
102
RTVSPost2010Prop56
140
1.0
102
RTVSPost2010PropOp56
 70
     1
102
RTVSPost2010Prop57
140
1.0
102
RTVSPost2010PropOp57
 70
     1
  0
XRECORD
  5
31A
102
{ACAD_REACTORS
330
319
102
}
330
319
100
AcDbXrecord
280
     1
102
RTVSPropertyOp0
 70
     0
102
RTVSPropertyOp1
 70
     0
102
RTVSPropertyOp2
 70
     0
102
RTVSPropertyOp3
 70
     0
102
RTVSPropertyOp4
 70
     0
102
RTVSPropertyOp5
 70
     0
102
RTVSPropertyOp6
 70
     0
102
RTVSPropertyOp7
 70
     0
102
RTVSPropertyOp8
 70
     0
102
RTVSPropertyOp9
 70
     0
102
RTVSPropertyOp10
 70
     0
102
RTVSPropertyOp11
 70
     0
102
RTVSPropertyOp12
 70
     0
102
RTVSPropertyOp13
 70
     0
102
RTVSPropertyOp14
 70
     2
102
RTVSPropertyOp15
 70
     0
102
RTVSPropertyOp16
 70
     0
102
RTVSPropertyOp17
 70
     0
102
RTVSPropertyOp18
 70
     0
102
RTVSPropertyOp19
 70
     0
102
RTVSPropertyOp20
 70
     0
102
RTVSPropertyOp21
 70
     0
102
RTVSPropertyOp22
 70
     0
102
RTVSPropertyOp23
 70
     0
102
RTVSPropertyOp24
 70
     0
102
RTVSPropertyOp25
 70
     0
102
RTVSPropertyOp26
 70
     0
102
RTVSPropertyOp27
 70
     0
102
RTVSPropertyOp28
 70
     0
102
RTVSPropertyOp29
 70
     0
102
RTVSPropertyOp30
 70
     0
102
RTVSPropertyOp31
 70
     0
102
RTVSPropertyOp32
 70
     0
102
RTVSPropertyOp33
 70
     0
102
RTVSPropertyOp34
 70
     0
102
RTVSPropertyOp35
 70
     0
102
RTVSPropertyOp36
 70
     0
102
RTVSPropertyOp37
 70
     0
102
RTVSPropertyOp38
 70
     0
102
RTVSPropertyOp39
 70
     0
102
RTVSPropertyOp40
 70
     0
102
RTVSPropertyOp41
 70
     0
102
RTVSPropertyOp42
 70
     0
102
RTVSPropertyOp43
 70
     0
102
RTVSPropertyOp44
 70
     0
102
RTVSPropertyOp45
 70
     0
102
RTVSPropertyOp46
 70
     0
102
RTVSPropertyOp47
 70
     0
102
RTVSPropertyOp48
 70
     0
102
RTVSPropertyOp49
 70
     0
102
RTVSPropertyOp50
 70
     0
102
RTVSPropertyOp51
 70
     0
102
RTVSPropertyOp52
 70
     0
102
RTVSPropertyOp53
 70
     0
102
RTVSPropertyOp54
 70
     0
102
RTVSPropertyOp55
 70
     0
102
RTVSPropertyOp56
 70
     0
102
RTVSPropertyOp57
 70
     0
102
RTVSPost2010Prop28
280
     0
102
RTVSPost2010PropOp28
 70
     0
102
RTVSPost2010Prop29
280
     1
102
RTVSPost2010PropOp29
 70
     0
102
RTVSPost2010Prop30
280
     1
102
RTVSPost2010PropOp30
 70
     0
102
RTVSPost2010Prop31
280
     0
102
RTVSPost2010PropOp31
 70
     0
102
RTVSPost2010Prop32
280
     0
102
RTVSPost2010PropOp32
 70
     0
102
RTVSPost2010Prop33
280
     0
102
RTVSPost2010PropOp33
 70
     0
102
RTVSPost2010Prop34
280
     0
102
RTVSPost2010PropOp34
 70
     0
102
RTVSPost2010Prop35
280
     0
102
RTVSPost2010PropOp35
 70
     0
102
RTVSPost2010Prop36
280
     0
102
RTVSPost2010PropOp36
 70
     0
102
RTVSPost2010Prop37
 90
       50
102
RTVSPost2010PropOp37
 70
     0
102
RTVSPost2010Prop38
140
0.0
102
RTVSPost2010PropOp38
 70
     0
102
RTVSPost2010Prop39
140
1.0
102
RTVSPost2010PropOp39
 70
     0
102
RTVSPost2010Prop40
 90
        0
102
RTVSPost2010PropOp40
 70
     0
102
RTVSPost2010Prop41ColorIndex
 90
       18
102
RTVSPost2010Prop41ColorRGB
 90
        0
102
RTVSPost2010PropOp41
 70
     0
102
RTVSPost2010Prop42
 90
       50
102
RTVSPost2010PropOp42
 70
     0
102
RTVSPost2010Prop43
 90
        3
102
RTVSPost2010PropOp43
 70
     0
102
RTVSPost2010Prop44ColorIndex
 90
        5
102
RTVSPost2010Prop44ColorRGB
 90
      255
102
RTVSPost2010PropOp44
 70
     0
102
RTVSPost2010Prop45
280
     0
102
RTVSPost2010PropOp45
 70
     0
102
RTVSPost2010Prop46
 90
       50
102
RTVSPost2010PropOp46
 70
     0
102
RTVSPost2010Prop47
 90
       50
102
RTVSPost2010PropOp47
 70
     0
102
RTVSPost2010Prop48
 90
       50
102
RTVSPost2010PropOp48
 70
     0
102
RTVSPost2010Prop49
280
     0
102
RTVSPost2010PropOp49
 70
     0
102
RTVSPost2010Prop50
 90
       50
102
RTVSPost2010PropOp50
 70
     0
102
RTVSPost2010Prop51ColorIndex
 90
      256
102
RTVSPost2010Prop51ColorRGB
 90
-16777216
102
RTVSPost2010PropOp51
 70
     0
102
RTVSPost2010Prop52
140
1.0
102
RTVSPost2010PropOp52
 70
     0
102
RTVSPost2010Prop53
 90
        2
102
RTVSPost2010PropOp53
 70
     0
102
RTVSPost2010Prop54
  1
strokes_ogs.tif
102
RTVSPost2010PropOp54
 70
     0
102
RTVSPost2010Prop55
280
     0
102
RTVSPost2010PropOp55
 70
     0
102
RTVSPost2010Prop56
140
1.0
102
RTVSPost2010PropOp56
 70
     0
102
RTVSPost2010Prop57
140
1.0
102
RTVSPost2010PropOp57
 70
     0
  0
XRECORD
  5
308
102
{ACAD_REACTORS
330
307
102
}
330
307
100
AcDbXrecord
280
     1
102
RTVSPropertyOp0
 70
     1
102
RTVSPropertyOp1
 70
     1
102
RTVSPropertyOp2
 70
     1
102
RTVSPropertyOp3
 70
     1
102
RTVSPropertyOp4
 70
     1
102
RTVSPropertyOp5
 70
     1
102
RTVSPropertyOp6
 70
     1
102
RTVSPropertyOp7
 70
     1
102
RTVSPropertyOp8
 70
     1
102
RTVSPropertyOp9
 70
     1
102
RTVSPropertyOp10
 70
     1
102
RTVSPropertyOp11
 70
     1
102
RTVSPropertyOp12
 70
     1
102
RTVSPropertyOp13
 70
     1
102
RTVSPropertyOp14
 70
     1
102
RTVSPropertyOp15
 70
     1
102
RTVSPropertyOp16
 70
     1
102
RTVSPropertyOp17
 70
     1
102
RTVSPropertyOp18
 70
     1
102
RTVSPropertyOp19
 70
     1
102
RTVSPropertyOp20
 70
     1
102
RTVSPropertyOp21
 70
     1
102
RTVSPropertyOp22
 70
     1
102
RTVSPropertyOp23
 70
     1
102
RTVSPropertyOp24
 70
     1
102
RTVSPropertyOp25
 70
     1
102
RTVSPropertyOp26
 70
     1
102
RTVSPropertyOp27
 70
     1
102
RTVSPropertyOp28
 70
     1
102
RTVSPropertyOp29
 70
     1
102
RTVSPropertyOp30
 70
     1
102
RTVSPropertyOp31
 70
     1
102
RTVSPropertyOp32
 70
     1
102
RTVSPropertyOp33
 70
     1
102
RTVSPropertyOp34
 70
     1
102
RTVSPropertyOp35
 70
     1
102
RTVSPropertyOp36
 70
     1
102
RTVSPropertyOp37
 70
     1
102
RTVSPropertyOp38
 70
     1
102
RTVSPropertyOp39
 70
     1
102
RTVSPropertyOp40
 70
     1
102
RTVSPropertyOp41
 70
     1
102
RTVSPropertyOp42
 70
     1
102
RTVSPropertyOp43
 70
     1
102
RTVSPropertyOp44
 70
     1
102
RTVSPropertyOp45
 70
     1
102
RTVSPropertyOp46
 70
     1
102
RTVSPropertyOp47
 70
     1
102
RTVSPropertyOp48
 70
     1
102
RTVSPropertyOp49
 70
     1
102
RTVSPropertyOp50
 70
     1
102
RTVSPropertyOp51
 70
     0
102
RTVSPropertyOp52
 70
     0
102
RTVSPropertyOp53
 70
     1
102
RTVSPropertyOp54
 70
     1
102
RTVSPropertyOp55
 70
     1
102
RTVSPropertyOp56
 70
     1
102
RTVSPropertyOp57
 70
     1
102
RTVSPost2010Prop28
280
     0
102
RTVSPost2010PropOp28
 70
     1
102
RTVSPost2010Prop29
280
     1
102
RTVSPost2010PropOp29
 70
     1
102
RTVSPost2010Prop30
280
     1
102
RTVSPost2010PropOp30
 70
     1
102
RTVSPost2010Prop31
280
     0
102
RTVSPost2010PropOp31
 70
     1
102
RTVSPost2010Prop32
280
     0
102
RTVSPost2010PropOp32
 70
     1
102
RTVSPost2010Prop33
280
     0
102
RTVSPost2010PropOp33
 70
     1
102
RTVSPost2010Prop34
280
     0
102
RTVSPost2010PropOp34
 70
     1
102
RTVSPost2010Prop35
280
     0
102
RTVSPost2010PropOp35
 70
     1
102
RTVSPost2010Prop36
280
     0
102
RTVSPost2010PropOp36
 70
     1
102
RTVSPost2010Prop37
 90
       50
102
RTVSPost2010PropOp37
 70
     1
102
RTVSPost2010Prop38
140
0.0
102
RTVSPost2010PropOp38
 70
     1
102
RTVSPost2010Prop39
140
1.0
102
RTVSPost2010PropOp39
 70
     1
102
RTVSPost2010Prop40
 90
        0
102
RTVSPost2010PropOp40
 70
     1
102
RTVSPost2010Prop41ColorIndex
 90
       18
102
RTVSPost2010Prop41ColorRGB
 90
        0
102
RTVSPost2010PropOp41
 70
     1
102
RTVSPost2010Prop42
 90
       50
102
RTVSPost2010PropOp42
 70
     1
102
RTVSPost2010Prop43
 90
        3
102
RTVSPost2010PropOp43
 70
     1
102
RTVSPost2010Prop44ColorIndex
 90
        5
102
RTVSPost2010Prop44ColorRGB
 90
      255
102
RTVSPost2010PropOp44
 70
     1
102
RTVSPost2010Prop45
280
     0
102
RTVSPost2010PropOp45
 70
     1
102
RTVSPost2010Prop46
 90
       50
102
RTVSPost2010PropOp46
 70
     1
102
RTVSPost2010Prop47
 90
       50
102
RTVSPost2010PropOp47
 70
     1
102
RTVSPost2010Prop48
 90
       50
102
RTVSPost2010PropOp48
 70
     1
102
RTVSPost2010Prop49
280
     0
102
RTVSPost2010PropOp49
 70
     1
102
RTVSPost2010Prop50
 90
       50
102
RTVSPost2010PropOp50
 70
     1
102
RTVSPost2010Prop51ColorIndex
 90
      256
102
RTVSPost2010Prop51ColorRGB
 90
-16777216
102
RTVSPost2010PropOp51
 70
     0
102
RTVSPost2010Prop52
140
1.0
102
RTVSPost2010PropOp52
 70
     0
102
RTVSPost2010Prop53
 90
        2
102
RTVSPost2010PropOp53
 70
     1
102
RTVSPost2010Prop54
  1
strokes_ogs.tif
102
RTVSPost2010PropOp54
 70
     1
102
RTVSPost2010Prop55
280
     0
102
RTVSPost2010PropOp55
 70
     1
102
RTVSPost2010Prop56
140
1.0
102
RTVSPost2010PropOp56
 70
     1
102
RTVSPost2010Prop57
140
1.0
102
RTVSPost2010PropOp57
 70
     1
  0
XRECORD
  5
326
102
{ACAD_REACTORS
330
325
102
}
330
325
100
AcDbXrecord
280
     1
102
RTVSPropertyOp0
 70
     1
102
RTVSPropertyOp1
 70
     1
102
RTVSPropertyOp2
 70
     1
102
RTVSPropertyOp3
 70
     1
102
RTVSPropertyOp4
 70
     1
102
RTVSPropertyOp5
 70
     1
102
RTVSPropertyOp6
 70
     1
102
RTVSPropertyOp7
 70
     1
102
RTVSPropertyOp8
 70
     1
102
RTVSPropertyOp9
 70
     1
102
RTVSPropertyOp10
 70
     1
102
RTVSPropertyOp11
 70
     1
102
RTVSPropertyOp12
 70
     1
102
RTVSPropertyOp13
 70
     1
102
RTVSPropertyOp14
 70
     1
102
RTVSPropertyOp15
 70
     1
102
RTVSPropertyOp16
 70
     1
102
RTVSPropertyOp17
 70
     1
102
RTVSPropertyOp18
 70
     1
102
RTVSPropertyOp19
 70
     1
102
RTVSPropertyOp20
 70
     1
102
RTVSPropertyOp21
 70
     1
102
RTVSPropertyOp22
 70
     1
102
RTVSPropertyOp23
 70
     1
102
RTVSPropertyOp24
 70
     1
102
RTVSPropertyOp25
 70
     1
102
RTVSPropertyOp26
 70
     1
102
RTVSPropertyOp27
 70
     1
102
RTVSPropertyOp28
 70
     1
102
RTVSPropertyOp29
 70
     1
102
RTVSPropertyOp30
 70
     1
102
RTVSPropertyOp31
 70
     1
102
RTVSPropertyOp32
 70
     1
102
RTVSPropertyOp33
 70
     1
102
RTVSPropertyOp34
 70
     1
102
RTVSPropertyOp35
 70
     1
102
RTVSPropertyOp36
 70
     1
102
RTVSPropertyOp37
 70
     1
102
RTVSPropertyOp38
 70
     1
102
RTVSPropertyOp39
 70
     1
102
RTVSPropertyOp40
 70
     1
102
RTVSPropertyOp41
 70
     1
102
RTVSPropertyOp42
 70
     1
102
RTVSPropertyOp43
 70
     1
102
RTVSPropertyOp44
 70
     1
102
RTVSPropertyOp45
 70
     1
102
RTVSPropertyOp46
 70
     1
102
RTVSPropertyOp47
 70
     1
102
RTVSPropertyOp48
 70
     1
102
RTVSPropertyOp49
 70
     1
102
RTVSPropertyOp50
 70
     1
102
RTVSPropertyOp51
 70
     0
102
RTVSPropertyOp52
 70
     0
102
RTVSPropertyOp53
 70
     1
102
RTVSPropertyOp54
 70
     1
102
RTVSPropertyOp55
 70
     1
102
RTVSPropertyOp56
 70
     1
102
RTVSPropertyOp57
 70
     1
102
RTVSPost2010Prop28
280
     0
102
RTVSPost2010PropOp28
 70
     1
102
RTVSPost2010Prop29
280
     1
102
RTVSPost2010PropOp29
 70
     1
102
RTVSPost2010Prop30
280
     1
102
RTVSPost2010PropOp30
 70
     1
102
RTVSPost2010Prop31
280
     0
102
RTVSPost2010PropOp31
 70
     1
102
RTVSPost2010Prop32
280
     0
102
RTVSPost2010PropOp32
 70
     1
102
RTVSPost2010Prop33
280
     0
102
RTVSPost2010PropOp33
 70
     1
102
RTVSPost2010Prop34
280
     0
102
RTVSPost2010PropOp34
 70
     1
102
RTVSPost2010Prop35
280
     0
102
RTVSPost2010PropOp35
 70
     1
102
RTVSPost2010Prop36
280
     0
102
RTVSPost2010PropOp36
 70
     1
102
RTVSPost2010Prop37
 90
       50
102
RTVSPost2010PropOp37
 70
     1
102
RTVSPost2010Prop38
140
0.0
102
RTVSPost2010PropOp38
 70
     1
102
RTVSPost2010Prop39
140
1.0
102
RTVSPost2010PropOp39
 70
     1
102
RTVSPost2010Prop40
 90
        0
102
RTVSPost2010PropOp40
 70
     1
102
RTVSPost2010Prop41ColorIndex
 90
       18
102
RTVSPost2010Prop41ColorRGB
 90
        0
102
RTVSPost2010PropOp41
 70
     1
102
RTVSPost2010Prop42
 90
       50
102
RTVSPost2010PropOp42
 70
     1
102
RTVSPost2010Prop43
 90
        3
102
RTVSPost2010PropOp43
 70
     1
102
RTVSPost2010Prop44ColorIndex
 90
        5
102
RTVSPost2010Prop44ColorRGB
 90
      255
102
RTVSPost2010PropOp44
 70
     1
102
RTVSPost2010Prop45
280
     0
102
RTVSPost2010PropOp45
 70
     1
102
RTVSPost2010Prop46
 90
       50
102
RTVSPost2010PropOp46
 70
     1
102
RTVSPost2010Prop47
 90
       50
102
RTVSPost2010PropOp47
 70
     1
102
RTVSPost2010Prop48
 90
       50
102
RTVSPost2010PropOp48
 70
     1
102
RTVSPost2010Prop49
280
     0
102
RTVSPost2010PropOp49
 70
     1
102
RTVSPost2010Prop50
 90
       50
102
RTVSPost2010PropOp50
 70
     1
102
RTVSPost2010Prop51ColorIndex
 90
      256
102
RTVSPost2010Prop51ColorRGB
 90
-16777216
102
RTVSPost2010PropOp51
 70
     0
102
RTVSPost2010Prop52
140
1.0
102
RTVSPost2010PropOp52
 70
     0
102
RTVSPost2010Prop53
 90
        2
102
RTVSPost2010PropOp53
 70
     1
102
RTVSPost2010Prop54
  1
strokes_ogs.tif
102
RTVSPost2010PropOp54
 70
     1
102
RTVSPost2010Prop55
280
     0
102
RTVSPost2010PropOp55
 70
     1
102
RTVSPost2010Prop56
140
1.0
102
RTVSPost2010PropOp56
 70
     1
102
RTVSPost2010Prop57
140
1.0
102
RTVSPost2010PropOp57
 70
     1
  0
XRECORD
  5
324
102
{ACAD_REACTORS
330
323
102
}
330
323
100
AcDbXrecord
280
     1
102
RTVSPropertyOp0
 70
     1
102
RTVSPropertyOp1
 70
     1
102
RTVSPropertyOp2
 70
     1
102
RTVSPropertyOp3
 70
     1
102
RTVSPropertyOp4
 70
     1
102
RTVSPropertyOp5
 70
     1
102
RTVSPropertyOp6
 70
     1
102
RTVSPropertyOp7
 70
     1
102
RTVSPropertyOp8
 70
     1
102
RTVSPropertyOp9
 70
     1
102
RTVSPropertyOp10
 70
     1
102
RTVSPropertyOp11
 70
     1
102
RTVSPropertyOp12
 70
     1
102
RTVSPropertyOp13
 70
     1
102
RTVSPropertyOp14
 70
     1
102
RTVSPropertyOp15
 70
     1
102
RTVSPropertyOp16
 70
     1
102
RTVSPropertyOp17
 70
     1
102
RTVSPropertyOp18
 70
     1
102
RTVSPropertyOp19
 70
     1
102
RTVSPropertyOp20
 70
     1
102
RTVSPropertyOp21
 70
     1
102
RTVSPropertyOp22
 70
     1
102
RTVSPropertyOp23
 70
     1
102
RTVSPropertyOp24
 70
     1
102
RTVSPropertyOp25
 70
     1
102
RTVSPropertyOp26
 70
     1
102
RTVSPropertyOp27
 70
     1
102
RTVSPropertyOp28
 70
     1
102
RTVSPropertyOp29
 70
     1
102
RTVSPropertyOp30
 70
     1
102
RTVSPropertyOp31
 70
     1
102
RTVSPropertyOp32
 70
     1
102
RTVSPropertyOp33
 70
     1
102
RTVSPropertyOp34
 70
     1
102
RTVSPropertyOp35
 70
     1
102
RTVSPropertyOp36
 70
     1
102
RTVSPropertyOp37
 70
     1
102
RTVSPropertyOp38
 70
     1
102
RTVSPropertyOp39
 70
     1
102
RTVSPropertyOp40
 70
     1
102
RTVSPropertyOp41
 70
     1
102
RTVSPropertyOp42
 70
     1
102
RTVSPropertyOp43
 70
     1
102
RTVSPropertyOp44
 70
     1
102
RTVSPropertyOp45
 70
     1
102
RTVSPropertyOp46
 70
     1
102
RTVSPropertyOp47
 70
     1
102
RTVSPropertyOp48
 70
     1
102
RTVSPropertyOp49
 70
     1
102
RTVSPropertyOp50
 70
     1
102
RTVSPropertyOp51
 70
     0
102
RTVSPropertyOp52
 70
     0
102
RTVSPropertyOp53
 70
     1
102
RTVSPropertyOp54
 70
     1
102
RTVSPropertyOp55
 70
     1
102
RTVSPropertyOp56
 70
     1
102
RTVSPropertyOp57
 70
     1
102
RTVSPost2010Prop28
280
     0
102
RTVSPost2010PropOp28
 70
     1
102
RTVSPost2010Prop29
280
     1
102
RTVSPost2010PropOp29
 70
     1
102
RTVSPost2010Prop30
280
     1
102
RTVSPost2010PropOp30
 70
     1
102
RTVSPost2010Prop31
280
     0
102
RTVSPost2010PropOp31
 70
     1
102
RTVSPost2010Prop32
280
     0
102
RTVSPost2010PropOp32
 70
     1
102
RTVSPost2010Prop33
280
     0
102
RTVSPost2010PropOp33
 70
     1
102
RTVSPost2010Prop34
280
     0
102
RTVSPost2010PropOp34
 70
     1
102
RTVSPost2010Prop35
280
     0
102
RTVSPost2010PropOp35
 70
     1
102
RTVSPost2010Prop36
280
     0
102
RTVSPost2010PropOp36
 70
     1
102
RTVSPost2010Prop37
 90
       50
102
RTVSPost2010PropOp37
 70
     1
102
RTVSPost2010Prop38
140
0.0
102
RTVSPost2010PropOp38
 70
     1
102
RTVSPost2010Prop39
140
1.0
102
RTVSPost2010PropOp39
 70
     1
102
RTVSPost2010Prop40
 90
        0
102
RTVSPost2010PropOp40
 70
     1
102
RTVSPost2010Prop41ColorIndex
 90
       18
102
RTVSPost2010Prop41ColorRGB
 90
        0
102
RTVSPost2010PropOp41
 70
     1
102
RTVSPost2010Prop42
 90
       50
102
RTVSPost2010PropOp42
 70
     1
102
RTVSPost2010Prop43
 90
        3
102
RTVSPost2010PropOp43
 70
     1
102
RTVSPost2010Prop44ColorIndex
 90
        5
102
RTVSPost2010Prop44ColorRGB
 90
      255
102
RTVSPost2010PropOp44
 70
     1
102
RTVSPost2010Prop45
280
     0
102
RTVSPost2010PropOp45
 70
     1
102
RTVSPost2010Prop46
 90
       50
102
RTVSPost2010PropOp46
 70
     1
102
RTVSPost2010Prop47
 90
       50
102
RTVSPost2010PropOp47
 70
     1
102
RTVSPost2010Prop48
 90
       50
102
RTVSPost2010PropOp48
 70
     1
102
RTVSPost2010Prop49
280
     0
102
RTVSPost2010PropOp49
 70
     1
102
RTVSPost2010Prop50
 90
       50
102
RTVSPost2010PropOp50
 70
     1
102
RTVSPost2010Prop51ColorIndex
 90
      256
102
RTVSPost2010Prop51ColorRGB
 90
-16777216
102
RTVSPost2010PropOp51
 70
     0
102
RTVSPost2010Prop52
140
1.0
102
RTVSPost2010PropOp52
 70
     0
102
RTVSPost2010Prop53
 90
        2
102
RTVSPost2010PropOp53
 70
     1
102
RTVSPost2010Prop54
  1
strokes_ogs.tif
102
RTVSPost2010PropOp54
 70
     1
102
RTVSPost2010Prop55
280
     0
102
RTVSPost2010PropOp55
 70
     1
102
RTVSPost2010Prop56
140
1.0
102
RTVSPost2010PropOp56
 70
     1
102
RTVSPost2010Prop57
140
1.0
102
RTVSPost2010PropOp57
 70
     1
  0
XRECORD
  5
31E
102
{ACAD_REACTORS
330
31D
102
}
330
31D
100
AcDbXrecord
280
     1
102
RTVSPropertyOp0
 70
     1
102
RTVSPropertyOp1
 70
     1
102
RTVSPropertyOp2
 70
     1
102
RTVSPropertyOp3
 70
     1
102
RTVSPropertyOp4
 70
     1
102
RTVSPropertyOp5
 70
     1
102
RTVSPropertyOp6
 70
     1
102
RTVSPropertyOp7
 70
     1
102
RTVSPropertyOp8
 70
     1
102
RTVSPropertyOp9
 70
     1
102
RTVSPropertyOp10
 70
     1
102
RTVSPropertyOp11
 70
     1
102
RTVSPropertyOp12
 70
     1
102
RTVSPropertyOp13
 70
     1
102
RTVSPropertyOp14
 70
     1
102
RTVSPropertyOp15
 70
     1
102
RTVSPropertyOp16
 70
     1
102
RTVSPropertyOp17
 70
     1
102
RTVSPropertyOp18
 70
     1
102
RTVSPropertyOp19
 70
     1
102
RTVSPropertyOp20
 70
     1
102
RTVSPropertyOp21
 70
     1
102
RTVSPropertyOp22
 70
     1
102
RTVSPropertyOp23
 70
     1
102
RTVSPropertyOp24
 70
     1
102
RTVSPropertyOp25
 70
     1
102
RTVSPropertyOp26
 70
     1
102
RTVSPropertyOp27
 70
     1
102
RTVSPropertyOp28
 70
     1
102
RTVSPropertyOp29
 70
     1
102
RTVSPropertyOp30
 70
     1
102
RTVSPropertyOp31
 70
     1
102
RTVSPropertyOp32
 70
     1
102
RTVSPropertyOp33
 70
     1
102
RTVSPropertyOp34
 70
     1
102
RTVSPropertyOp35
 70
     1
102
RTVSPropertyOp36
 70
     1
102
RTVSPropertyOp37
 70
     1
102
RTVSPropertyOp38
 70
     1
102
RTVSPropertyOp39
 70
     1
102
RTVSPropertyOp40
 70
     1
102
RTVSPropertyOp41
 70
     1
102
RTVSPropertyOp42
 70
     1
102
RTVSPropertyOp43
 70
     1
102
RTVSPropertyOp44
 70
     1
102
RTVSPropertyOp45
 70
     1
102
RTVSPropertyOp46
 70
     1
102
RTVSPropertyOp47
 70
     1
102
RTVSPropertyOp48
 70
     1
102
RTVSPropertyOp49
 70
     1
102
RTVSPropertyOp50
 70
     1
102
RTVSPropertyOp51
 70
     0
102
RTVSPropertyOp52
 70
     0
102
RTVSPropertyOp53
 70
     1
102
RTVSPropertyOp54
 70
     1
102
RTVSPropertyOp55
 70
     1
102
RTVSPropertyOp56
 70
     1
102
RTVSPropertyOp57
 70
     1
102
RTVSPost2010Prop28
280
     0
102
RTVSPost2010PropOp28
 70
     1
102
RTVSPost2010Prop29
280
     1
102
RTVSPost2010PropOp29
 70
     1
102
RTVSPost2010Prop30
280
     1
102
RTVSPost2010PropOp30
 70
     1
102
RTVSPost2010Prop31
280
     0
102
RTVSPost2010PropOp31
 70
     1
102
RTVSPost2010Prop32
280
     0
102
RTVSPost2010PropOp32
 70
     1
102
RTVSPost2010Prop33
280
     0
102
RTVSPost2010PropOp33
 70
     1
102
RTVSPost2010Prop34
280
     0
102
RTVSPost2010PropOp34
 70
     1
102
RTVSPost2010Prop35
280
     0
102
RTVSPost2010PropOp35
 70
     1
102
RTVSPost2010Prop36
280
     0
102
RTVSPost2010PropOp36
 70
     1
102
RTVSPost2010Prop37
 90
       50
102
RTVSPost2010PropOp37
 70
     1
102
RTVSPost2010Prop38
140
0.0
102
RTVSPost2010PropOp38
 70
     1
102
RTVSPost2010Prop39
140
1.0
102
RTVSPost2010PropOp39
 70
     1
102
RTVSPost2010Prop40
 90
        0
102
RTVSPost2010PropOp40
 70
     1
102
RTVSPost2010Prop41ColorIndex
 90
       18
102
RTVSPost2010Prop41ColorRGB
 90
        0
102
RTVSPost2010PropOp41
 70
     1
102
RTVSPost2010Prop42
 90
       50
102
RTVSPost2010PropOp42
 70
     1
102
RTVSPost2010Prop43
 90
        3
102
RTVSPost2010PropOp43
 70
     1
102
RTVSPost2010Prop44ColorIndex
 90
        5
102
RTVSPost2010Prop44ColorRGB
 90
      255
102
RTVSPost2010PropOp44
 70
     1
102
RTVSPost2010Prop45
280
     0
102
RTVSPost2010PropOp45
 70
     1
102
RTVSPost2010Prop46
 90
       50
102
RTVSPost2010PropOp46
 70
     1
102
RTVSPost2010Prop47
 90
       50
102
RTVSPost2010PropOp47
 70
     1
102
RTVSPost2010Prop48
 90
       50
102
RTVSPost2010PropOp48
 70
     1
102
RTVSPost2010Prop49
280
     0
102
RTVSPost2010PropOp49
 70
     1
102
RTVSPost2010Prop50
 90
       50
102
RTVSPost2010PropOp50
 70
     1
102
RTVSPost2010Prop51ColorIndex
 90
      256
102
RTVSPost2010Prop51ColorRGB
 90
-16777216
102
RTVSPost2010PropOp51
 70
     0
102
RTVSPost2010Prop52
140
1.0
102
RTVSPost2010PropOp52
 70
     0
102
RTVSPost2010Prop53
 90
        2
102
RTVSPost2010PropOp53
 70
     1
102
RTVSPost2010Prop54
  1
strokes_ogs.tif
102
RTVSPost2010PropOp54
 70
     1
102
RTVSPost2010Prop55
280
     0
102
RTVSPost2010PropOp55
 70
     1
102
RTVSPost2010Prop56
140
1.0
102
RTVSPost2010PropOp56
 70
     1
102
RTVSPost2010Prop57
140
1.0
102
RTVSPost2010PropOp57
 70
     1
  0
XRECORD
  5
320
102
{ACAD_REACTORS
330
31F
102
}
330
31F
100
AcDbXrecord
280
     1
102
RTVSPropertyOp0
 70
     1
102
RTVSPropertyOp1
 70
     1
102
RTVSPropertyOp2
 70
     1
102
RTVSPropertyOp3
 70
     1
102
RTVSPropertyOp4
 70
     1
102
RTVSPropertyOp5
 70
     1
102
RTVSPropertyOp6
 70
     1
102
RTVSPropertyOp7
 70
     1
102
RTVSPropertyOp8
 70
     1
102
RTVSPropertyOp9
 70
     1
102
RTVSPropertyOp10
 70
     1
102
RTVSPropertyOp11
 70
     1
102
RTVSPropertyOp12
 70
     1
102
RTVSPropertyOp13
 70
     1
102
RTVSPropertyOp14
 70
     1
102
RTVSPropertyOp15
 70
     1
102
RTVSPropertyOp16
 70
     1
102
RTVSPropertyOp17
 70
     1
102
RTVSPropertyOp18
 70
     1
102
RTVSPropertyOp19
 70
     1
102
RTVSPropertyOp20
 70
     1
102
RTVSPropertyOp21
 70
     1
102
RTVSPropertyOp22
 70
     1
102
RTVSPropertyOp23
 70
     1
102
RTVSPropertyOp24
 70
     1
102
RTVSPropertyOp25
 70
     1
102
RTVSPropertyOp26
 70
     1
102
RTVSPropertyOp27
 70
     1
102
RTVSPropertyOp28
 70
     1
102
RTVSPropertyOp29
 70
     1
102
RTVSPropertyOp30
 70
     1
102
RTVSPropertyOp31
 70
     1
102
RTVSPropertyOp32
 70
     1
102
RTVSPropertyOp33
 70
     1
102
RTVSPropertyOp34
 70
     1
102
RTVSPropertyOp35
 70
     1
102
RTVSPropertyOp36
 70
     1
102
RTVSPropertyOp37
 70
     1
102
RTVSPropertyOp38
 70
     1
102
RTVSPropertyOp39
 70
     1
102
RTVSPropertyOp40
 70
     1
102
RTVSPropertyOp41
 70
     1
102
RTVSPropertyOp42
 70
     1
102
RTVSPropertyOp43
 70
     1
102
RTVSPropertyOp44
 70
     1
102
RTVSPropertyOp45
 70
     1
102
RTVSPropertyOp46
 70
     1
102
RTVSPropertyOp47
 70
     1
102
RTVSPropertyOp48
 70
     1
102
RTVSPropertyOp49
 70
     1
102
RTVSPropertyOp50
 70
     1
102
RTVSPropertyOp51
 70
     0
102
RTVSPropertyOp52
 70
     0
102
RTVSPropertyOp53
 70
     1
102
RTVSPropertyOp54
 70
     1
102
RTVSPropertyOp55
 70
     1
102
RTVSPropertyOp56
 70
     1
102
RTVSPropertyOp57
 70
     1
102
RTVSPost2010Prop28
280
     0
102
RTVSPost2010PropOp28
 70
     1
102
RTVSPost2010Prop29
280
     1
102
RTVSPost2010PropOp29
 70
     1
102
RTVSPost2010Prop30
280
     1
102
RTVSPost2010PropOp30
 70
     1
102
RTVSPost2010Prop31
280
     0
102
RTVSPost2010PropOp31
 70
     1
102
RTVSPost2010Prop32
280
     0
102
RTVSPost2010PropOp32
 70
     1
102
RTVSPost2010Prop33
280
     0
102
RTVSPost2010PropOp33
 70
     1
102
RTVSPost2010Prop34
280
     0
102
RTVSPost2010PropOp34
 70
     1
102
RTVSPost2010Prop35
280
     0
102
RTVSPost2010PropOp35
 70
     1
102
RTVSPost2010Prop36
280
     0
102
RTVSPost2010PropOp36
 70
     1
102
RTVSPost2010Prop37
 90
       50
102
RTVSPost2010PropOp37
 70
     1
102
RTVSPost2010Prop38
140
0.0
102
RTVSPost2010PropOp38
 70
     1
102
RTVSPost2010Prop39
140
1.0
102
RTVSPost2010PropOp39
 70
     1
102
RTVSPost2010Prop40
 90
        0
102
RTVSPost2010PropOp40
 70
     1
102
RTVSPost2010Prop41ColorIndex
 90
       18
102
RTVSPost2010Prop41ColorRGB
 90
        0
102
RTVSPost2010PropOp41
 70
     1
102
RTVSPost2010Prop42
 90
       50
102
RTVSPost2010PropOp42
 70
     1
102
RTVSPost2010Prop43
 90
        3
102
RTVSPost2010PropOp43
 70
     1
102
RTVSPost2010Prop44ColorIndex
 90
        5
102
RTVSPost2010Prop44ColorRGB
 90
      255
102
RTVSPost2010PropOp44
 70
     1
102
RTVSPost2010Prop45
280
     0
102
RTVSPost2010PropOp45
 70
     1
102
RTVSPost2010Prop46
 90
       50
102
RTVSPost2010PropOp46
 70
     1
102
RTVSPost2010Prop47
 90
       50
102
RTVSPost2010PropOp47
 70
     1
102
RTVSPost2010Prop48
 90
       50
102
RTVSPost2010PropOp48
 70
     1
102
RTVSPost2010Prop49
280
     0
102
RTVSPost2010PropOp49
 70
     1
102
RTVSPost2010Prop50
 90
       50
102
RTVSPost2010PropOp50
 70
     1
102
RTVSPost2010Prop51ColorIndex
 90
      256
102
RTVSPost2010Prop51ColorRGB
 90
-16777216
102
RTVSPost2010PropOp51
 70
     0
102
RTVSPost2010Prop52
140
1.0
102
RTVSPost2010PropOp52
 70
     0
102
RTVSPost2010Prop53
 90
        2
102
RTVSPost2010PropOp53
 70
     1
102
RTVSPost2010Prop54
  1
strokes_ogs.tif
102
RTVSPost2010PropOp54
 70
     1
102
RTVSPost2010Prop55
280
     0
102
RTVSPost2010PropOp55
 70
     1
102
RTVSPost2010Prop56
140
1.0
102
RTVSPost2010PropOp56
 70
     1
102
RTVSPost2010Prop57
140
1.0
102
RTVSPost2010PropOp57
 70
     1
  0
XRECORD
  5
310
102
{ACAD_REACTORS
330
30F
102
}
330
30F
100
AcDbXrecord
280
     1
102
RTVSPropertyOp0
 70
     1
102
RTVSPropertyOp1
 70
     1
102
RTVSPropertyOp2
 70
     1
102
RTVSPropertyOp3
 70
     1
102
RTVSPropertyOp4
 70
     1
102
RTVSPropertyOp5
 70
     1
102
RTVSPropertyOp6
 70
     1
102
RTVSPropertyOp7
 70
     1
102
RTVSPropertyOp8
 70
     1
102
RTVSPropertyOp9
 70
     1
102
RTVSPropertyOp10
 70
     1
102
RTVSPropertyOp11
 70
     1
102
RTVSPropertyOp12
 70
     1
102
RTVSPropertyOp13
 70
     1
102
RTVSPropertyOp14
 70
     1
102
RTVSPropertyOp15
 70
     1
102
RTVSPropertyOp16
 70
     1
102
RTVSPropertyOp17
 70
     1
102
RTVSPropertyOp18
 70
     1
102
RTVSPropertyOp19
 70
     1
102
RTVSPropertyOp20
 70
     1
102
RTVSPropertyOp21
 70
     1
102
RTVSPropertyOp22
 70
     1
102
RTVSPropertyOp23
 70
     1
102
RTVSPropertyOp24
 70
     1
102
RTVSPropertyOp25
 70
     1
102
RTVSPropertyOp26
 70
     1
102
RTVSPropertyOp27
 70
     1
102
RTVSPropertyOp28
 70
     1
102
RTVSPropertyOp29
 70
     1
102
RTVSPropertyOp30
 70
     1
102
RTVSPropertyOp31
 70
     1
102
RTVSPropertyOp32
 70
     1
102
RTVSPropertyOp33
 70
     1
102
RTVSPropertyOp34
 70
     1
102
RTVSPropertyOp35
 70
     1
102
RTVSPropertyOp36
 70
     1
102
RTVSPropertyOp37
 70
     1
102
RTVSPropertyOp38
 70
     1
102
RTVSPropertyOp39
 70
     1
102
RTVSPropertyOp40
 70
     1
102
RTVSPropertyOp41
 70
     1
102
RTVSPropertyOp42
 70
     1
102
RTVSPropertyOp43
 70
     1
102
RTVSPropertyOp44
 70
     1
102
RTVSPropertyOp45
 70
     1
102
RTVSPropertyOp46
 70
     1
102
RTVSPropertyOp47
 70
     1
102
RTVSPropertyOp48
 70
     1
102
RTVSPropertyOp49
 70
     1
102
RTVSPropertyOp50
 70
     1
102
RTVSPropertyOp51
 70
     0
102
RTVSPropertyOp52
 70
     0
102
RTVSPropertyOp53
 70
     1
102
RTVSPropertyOp54
 70
     1
102
RTVSPropertyOp55
 70
     1
102
RTVSPropertyOp56
 70
     1
102
RTVSPropertyOp57
 70
     1
102
RTVSPost2010Prop28
280
     0
102
RTVSPost2010PropOp28
 70
     1
102
RTVSPost2010Prop29
280
     1
102
RTVSPost2010PropOp29
 70
     1
102
RTVSPost2010Prop30
280
     1
102
RTVSPost2010PropOp30
 70
     1
102
RTVSPost2010Prop31
280
     0
102
RTVSPost2010PropOp31
 70
     1
102
RTVSPost2010Prop32
280
     0
102
RTVSPost2010PropOp32
 70
     1
102
RTVSPost2010Prop33
280
     0
102
RTVSPost2010PropOp33
 70
     1
102
RTVSPost2010Prop34
280
     0
102
RTVSPost2010PropOp34
 70
     1
102
RTVSPost2010Prop35
280
     0
102
RTVSPost2010PropOp35
 70
     1
102
RTVSPost2010Prop36
280
     0
102
RTVSPost2010PropOp36
 70
     1
102
RTVSPost2010Prop37
 90
       50
102
RTVSPost2010PropOp37
 70
     1
102
RTVSPost2010Prop38
140
0.0
102
RTVSPost2010PropOp38
 70
     1
102
RTVSPost2010Prop39
140
1.0
102
RTVSPost2010PropOp39
 70
     1
102
RTVSPost2010Prop40
 90
        0
102
RTVSPost2010PropOp40
 70
     1
102
RTVSPost2010Prop41ColorIndex
 90
       18
102
RTVSPost2010Prop41ColorRGB
 90
        0
102
RTVSPost2010PropOp41
 70
     1
102
RTVSPost2010Prop42
 90
       50
102
RTVSPost2010PropOp42
 70
     1
102
RTVSPost2010Prop43
 90
        3
102
RTVSPost2010PropOp43
 70
     1
102
RTVSPost2010Prop44ColorIndex
 90
        5
102
RTVSPost2010Prop44ColorRGB
 90
      255
102
RTVSPost2010PropOp44
 70
     1
102
RTVSPost2010Prop45
280
     0
102
RTVSPost2010PropOp45
 70
     1
102
RTVSPost2010Prop46
 90
       50
102
RTVSPost2010PropOp46
 70
     1
102
RTVSPost2010Prop47
 90
       50
102
RTVSPost2010PropOp47
 70
     1
102
RTVSPost2010Prop48
 90
       50
102
RTVSPost2010PropOp48
 70
     1
102
RTVSPost2010Prop49
280
     0
102
RTVSPost2010PropOp49
 70
     1
102
RTVSPost2010Prop50
 90
       50
102
RTVSPost2010PropOp50
 70
     1
102
RTVSPost2010Prop51ColorIndex
 90
      256
102
RTVSPost2010Prop51ColorRGB
 90
-16777216
102
RTVSPost2010PropOp51
 70
     0
102
RTVSPost2010Prop52
140
1.0
102
RTVSPost2010PropOp52
 70
     0
102
RTVSPost2010Prop53
 90
        2
102
RTVSPost2010PropOp53
 70
     1
102
RTVSPost2010Prop54
  1
strokes_ogs.tif
102
RTVSPost2010PropOp54
 70
     1
102
RTVSPost2010Prop55
280
     0
102
RTVSPost2010PropOp55
 70
     1
102
RTVSPost2010Prop56
140
1.0
102
RTVSPost2010PropOp56
 70
     1
102
RTVSPost2010Prop57
140
1.0
102
RTVSPost2010PropOp57
 70
     1
  0
XRECORD
  5
302
102
{ACAD_REACTORS
330
301
102
}
330
301
100
AcDbXrecord
280
     1
102
RTVSPropertyOp0
 70
     1
102
RTVSPropertyOp1
 70
     1
102
RTVSPropertyOp2
 70
     1
102
RTVSPropertyOp3
 70
     1
102
RTVSPropertyOp4
 70
     1
102
RTVSPropertyOp5
 70
     1
102
RTVSPropertyOp6
 70
     1
102
RTVSPropertyOp7
 70
     1
102
RTVSPropertyOp8
 70
     1
102
RTVSPropertyOp9
 70
     1
102
RTVSPropertyOp10
 70
     1
102
RTVSPropertyOp11
 70
     1
102
RTVSPropertyOp12
 70
     1
102
RTVSPropertyOp13
 70
     1
102
RTVSPropertyOp14
 70
     1
102
RTVSPropertyOp15
 70
     1
102
RTVSPropertyOp16
 70
     1
102
RTVSPropertyOp17
 70
     1
102
RTVSPropertyOp18
 70
     1
102
RTVSPropertyOp19
 70
     1
102
RTVSPropertyOp20
 70
     1
102
RTVSPropertyOp21
 70
     1
102
RTVSPropertyOp22
 70
     1
102
RTVSPropertyOp23
 70
     1
102
RTVSPropertyOp24
 70
     1
102
RTVSPropertyOp25
 70
     1
102
RTVSPropertyOp26
 70
     1
102
RTVSPropertyOp27
 70
     1
102
RTVSPropertyOp28
 70
     1
102
RTVSPropertyOp29
 70
     1
102
RTVSPropertyOp30
 70
     1
102
RTVSPropertyOp31
 70
     1
102
RTVSPropertyOp32
 70
     1
102
RTVSPropertyOp33
 70
     1
102
RTVSPropertyOp34
 70
     1
102
RTVSPropertyOp35
 70
     1
102
RTVSPropertyOp36
 70
     1
102
RTVSPropertyOp37
 70
     1
102
RTVSPropertyOp38
 70
     1
102
RTVSPropertyOp39
 70
     1
102
RTVSPropertyOp40
 70
     1
102
RTVSPropertyOp41
 70
     1
102
RTVSPropertyOp42
 70
     1
102
RTVSPropertyOp43
 70
     1
102
RTVSPropertyOp44
 70
     1
102
RTVSPropertyOp45
 70
     1
102
RTVSPropertyOp46
 70
     1
102
RTVSPropertyOp47
 70
     1
102
RTVSPropertyOp48
 70
     1
102
RTVSPropertyOp49
 70
     1
102
RTVSPropertyOp50
 70
     1
102
RTVSPropertyOp51
 70
     0
102
RTVSPropertyOp52
 70
     0
102
RTVSPropertyOp53
 70
     1
102
RTVSPropertyOp54
 70
     1
102
RTVSPropertyOp55
 70
     1
102
RTVSPropertyOp56
 70
     1
102
RTVSPropertyOp57
 70
     1
102
RTVSPost2010Prop28
280
     0
102
RTVSPost2010PropOp28
 70
     1
102
RTVSPost2010Prop29
280
     1
102
RTVSPost2010PropOp29
 70
     1
102
RTVSPost2010Prop30
280
     1
102
RTVSPost2010PropOp30
 70
     1
102
RTVSPost2010Prop31
280
     0
102
RTVSPost2010PropOp31
 70
     1
102
RTVSPost2010Prop32
280
     0
102
RTVSPost2010PropOp32
 70
     1
102
RTVSPost2010Prop33
280
     0
102
RTVSPost2010PropOp33
 70
     1
102
RTVSPost2010Prop34
280
     0
102
RTVSPost2010PropOp34
 70
     1
102
RTVSPost2010Prop35
280
     0
102
RTVSPost2010PropOp35
 70
     1
102
RTVSPost2010Prop36
280
     0
102
RTVSPost2010PropOp36
 70
     1
102
RTVSPost2010Prop37
 90
       50
102
RTVSPost2010PropOp37
 70
     1
102
RTVSPost2010Prop38
140
0.0
102
RTVSPost2010PropOp38
 70
     1
102
RTVSPost2010Prop39
140
1.0
102
RTVSPost2010PropOp39
 70
     1
102
RTVSPost2010Prop40
 90
        0
102
RTVSPost2010PropOp40
 70
     1
102
RTVSPost2010Prop41ColorIndex
 90
       18
102
RTVSPost2010Prop41ColorRGB
 90
        0
102
RTVSPost2010PropOp41
 70
     1
102
RTVSPost2010Prop42
 90
       50
102
RTVSPost2010PropOp42
 70
     1
102
RTVSPost2010Prop43
 90
        3
102
RTVSPost2010PropOp43
 70
     1
102
RTVSPost2010Prop44ColorIndex
 90
        5
102
RTVSPost2010Prop44ColorRGB
 90
      255
102
RTVSPost2010PropOp44
 70
     1
102
RTVSPost2010Prop45
280
     0
102
RTVSPost2010PropOp45
 70
     1
102
RTVSPost2010Prop46
 90
       50
102
RTVSPost2010PropOp46
 70
     1
102
RTVSPost2010Prop47
 90
       50
102
RTVSPost2010PropOp47
 70
     1
102
RTVSPost2010Prop48
 90
       50
102
RTVSPost2010PropOp48
 70
     1
102
RTVSPost2010Prop49
280
     0
102
RTVSPost2010PropOp49
 70
     1
102
RTVSPost2010Prop50
 90
       50
102
RTVSPost2010PropOp50
 70
     1
102
RTVSPost2010Prop51ColorIndex
 90
      256
102
RTVSPost2010Prop51ColorRGB
 90
-16777216
102
RTVSPost2010PropOp51
 70
     0
102
RTVSPost2010Prop52
140
1.0
102
RTVSPost2010PropOp52
 70
     0
102
RTVSPost2010Prop53
 90
        2
102
RTVSPost2010PropOp53
 70
     1
102
RTVSPost2010Prop54
  1
strokes_ogs.tif
102
RTVSPost2010PropOp54
 70
     1
102
RTVSPost2010Prop55
280
     0
102
RTVSPost2010PropOp55
 70
     1
102
RTVSPost2010Prop56
140
1.0
102
RTVSPost2010PropOp56
 70
     1
102
RTVSPost2010Prop57
140
1.0
102
RTVSPost2010PropOp57
 70
     1
  0
XRECORD
  5
322
102
{ACAD_REACTORS
330
321
102
}
330
321
100
AcDbXrecord
280
     1
102
RTVSPropertyOp0
 70
     1
102
RTVSPropertyOp1
 70
     1
102
RTVSPropertyOp2
 70
     1
102
RTVSPropertyOp3
 70
     1
102
RTVSPropertyOp4
 70
     1
102
RTVSPropertyOp5
 70
     1
102
RTVSPropertyOp6
 70
     1
102
RTVSPropertyOp7
 70
     1
102
RTVSPropertyOp8
 70
     1
102
RTVSPropertyOp9
 70
     1
102
RTVSPropertyOp10
 70
     1
102
RTVSPropertyOp11
 70
     1
102
RTVSPropertyOp12
 70
     1
102
RTVSPropertyOp13
 70
     1
102
RTVSPropertyOp14
 70
     1
102
RTVSPropertyOp15
 70
     1
102
RTVSPropertyOp16
 70
     1
102
RTVSPropertyOp17
 70
     1
102
RTVSPropertyOp18
 70
     1
102
RTVSPropertyOp19
 70
     1
102
RTVSPropertyOp20
 70
     1
102
RTVSPropertyOp21
 70
     1
102
RTVSPropertyOp22
 70
     1
102
RTVSPropertyOp23
 70
     1
102
RTVSPropertyOp24
 70
     1
102
RTVSPropertyOp25
 70
     1
102
RTVSPropertyOp26
 70
     1
102
RTVSPropertyOp27
 70
     1
102
RTVSPropertyOp28
 70
     1
102
RTVSPropertyOp29
 70
     1
102
RTVSPropertyOp30
 70
     1
102
RTVSPropertyOp31
 70
     1
102
RTVSPropertyOp32
 70
     1
102
RTVSPropertyOp33
 70
     1
102
RTVSPropertyOp34
 70
     1
102
RTVSPropertyOp35
 70
     1
102
RTVSPropertyOp36
 70
     1
102
RTVSPropertyOp37
 70
     1
102
RTVSPropertyOp38
 70
     1
102
RTVSPropertyOp39
 70
     1
102
RTVSPropertyOp40
 70
     1
102
RTVSPropertyOp41
 70
     1
102
RTVSPropertyOp42
 70
     1
102
RTVSPropertyOp43
 70
     1
102
RTVSPropertyOp44
 70
     1
102
RTVSPropertyOp45
 70
     1
102
RTVSPropertyOp46
 70
     1
102
RTVSPropertyOp47
 70
     1
102
RTVSPropertyOp48
 70
     1
102
RTVSPropertyOp49
 70
     1
102
RTVSPropertyOp50
 70
     1
102
RTVSPropertyOp51
 70
     0
102
RTVSPropertyOp52
 70
     0
102
RTVSPropertyOp53
 70
     1
102
RTVSPropertyOp54
 70
     1
102
RTVSPropertyOp55
 70
     1
102
RTVSPropertyOp56
 70
     1
102
RTVSPropertyOp57
 70
     1
102
RTVSPost2010Prop28
280
     0
102
RTVSPost2010PropOp28
 70
     1
102
RTVSPost2010Prop29
280
     1
102
RTVSPost2010PropOp29
 70
     1
102
RTVSPost2010Prop30
280
     1
102
RTVSPost2010PropOp30
 70
     1
102
RTVSPost2010Prop31
280
     0
102
RTVSPost2010PropOp31
 70
     1
102
RTVSPost2010Prop32
280
     0
102
RTVSPost2010PropOp32
 70
     1
102
RTVSPost2010Prop33
280
     0
102
RTVSPost2010PropOp33
 70
     1
102
RTVSPost2010Prop34
280
     0
102
RTVSPost2010PropOp34
 70
     1
102
RTVSPost2010Prop35
280
     0
102
RTVSPost2010PropOp35
 70
     1
102
RTVSPost2010Prop36
280
     0
102
RTVSPost2010PropOp36
 70
     1
102
RTVSPost2010Prop37
 90
       50
102
RTVSPost2010PropOp37
 70
     1
102
RTVSPost2010Prop38
140
0.0
102
RTVSPost2010PropOp38
 70
     1
102
RTVSPost2010Prop39
140
1.0
102
RTVSPost2010PropOp39
 70
     1
102
RTVSPost2010Prop40
 90
        0
102
RTVSPost2010PropOp40
 70
     1
102
RTVSPost2010Prop41ColorIndex
 90
       18
102
RTVSPost2010Prop41ColorRGB
 90
        0
102
RTVSPost2010PropOp41
 70
     1
102
RTVSPost2010Prop42
 90
       50
102
RTVSPost2010PropOp42
 70
     1
102
RTVSPost2010Prop43
 90
        3
102
RTVSPost2010PropOp43
 70
     1
102
RTVSPost2010Prop44ColorIndex
 90
        5
102
RTVSPost2010Prop44ColorRGB
 90
      255
102
RTVSPost2010PropOp44
 70
     1
102
RTVSPost2010Prop45
280
     0
102
RTVSPost2010PropOp45
 70
     1
102
RTVSPost2010Prop46
 90
       50
102
RTVSPost2010PropOp46
 70
     1
102
RTVSPost2010Prop47
 90
       50
102
RTVSPost2010PropOp47
 70
     1
102
RTVSPost2010Prop48
 90
       50
102
RTVSPost2010PropOp48
 70
     1
102
RTVSPost2010Prop49
280
     0
102
RTVSPost2010PropOp49
 70
     1
102
RTVSPost2010Prop50
 90
       50
102
RTVSPost2010PropOp50
 70
     1
102
RTVSPost2010Prop51ColorIndex
 90
      256
102
RTVSPost2010Prop51ColorRGB
 90
-16777216
102
RTVSPost2010PropOp51
 70
     0
102
RTVSPost2010Prop52
140
1.0
102
RTVSPost2010PropOp52
 70
     0
102
RTVSPost2010Prop53
 90
        2
102
RTVSPost2010PropOp53
 70
     1
102
RTVSPost2010Prop54
  1
strokes_ogs.tif
102
RTVSPost2010PropOp54
 70
     1
102
RTVSPost2010Prop55
280
     0
102
RTVSPost2010PropOp55
 70
     1
102
RTVSPost2010Prop56
140
1.0
102
RTVSPost2010PropOp56
 70
     1
102
RTVSPost2010Prop57
140
1.0
102
RTVSPost2010PropOp57
 70
     1
  0
ENDSEC
  0
EOF
