  0
SECTION
  2
HEADER
  9
$ACADVER
  1
AC1015
  9
$ACADMAINTVER
 70
     6
  9
$DWGCODEPAGE
  3
ANSI_1252
  9
$INSBASE
 10
0.0
 20
0.0
 30
0.0
  9
$EXTMIN
 10
-60.0
 20
-200.419052
 30
0.0
  9
$EXTMAX
 10
60.0
 20
30.0
 30
0.0
  9
$LIMMIN
 10
-60.0
 20
-200.419052
  9
$LIMMAX
 10
60.0
 20
30.0
  9
$ORTHOMODE
 70
     0
  9
$REGENMODE
 70
     1
  9
$FILLMODE
 70
     1
  9
$QTEXTMODE
 70
     0
  9
$MIRRTEXT
 70
     1
  9
$LTSCALE
 40
1.0
  9
$ATTMODE
 70
     1
  9
$TEXTSIZE
 40
2.5
  9
$TRACEWID
 40
1.0
  9
$TEXTSTYLE
  7
Standard
  9
$CLAYER
  8
0
  9
$CELTYPE
  6
ByLayer
  9
$CECOLOR
 62
   256
  9
$CELTSCALE
 40
1.0
  9
$DISPSILH
 70
     0
  9
$DIMSCALE
 40
1.0
  9
$DIMASZ
 40
2.5
  9
$DIMEXO
 40
0.625
  9
$DIMDLI
 40
3.75
  9
$DIMRND
 40
0.0
  9
$DIMDLE
 40
0.0
  9
$DIMEXE
 40
1.25
  9
$DIMTP
 40
0.0
  9
$DIMTM
 40
0.0
  9
$DIMTXT
 40
2.5
  9
$DIMCEN
 40
2.5
  9
$DIMTSZ
 40
0.0
  9
$DIMTOL
 70
     0
  9
$DIMLIM
 70
     0
  9
$DIMTIH
 70
     0
  9
$DIMTOH
 70
     0
  9
$DIMSE1
 70
     0
  9
$DIMSE2
 70
     0
  9
$DIMTAD
 70
     1
  9
$DIMZIN
 70
     8
  9
$DIMBLK
  1

  9
$DIMASO
 70
     1
  9
$DIMSHO
 70
     1
  9
$DIMPOST
  1

  9
$DIMAPOST
  1

  9
$DIMALT
 70
     0
  9
$DIMALTD
 70
     3
  9
$DIMALTF
 40
0.03937
  9
$DIMLFAC
 40
1.0
  9
$DIMTOFL
 70
     1
  9
$DIMTVP
 40
0.0
  9
$DIMTIX
 70
     0
  9
$DIMSOXD
 70
     0
  9
$DIMSAH
 70
     0
  9
$DIMBLK1
  1

  9
$DIMBLK2
  1

  9
$DIMSTYLE
  2
ISO-25
  9
$DIMCLRD
 70
     0
  9
$DIMCLRE
 70
     0
  9
$DIMCLRT
 70
     0
  9
$DIMTFAC
 40
1.0
  9
$DIMGAP
 40
0.625
  9
$DIMJUST
 70
     0
  9
$DIMSD1
 70
     0
  9
$DIMSD2
 70
     0
  9
$DIMTOLJ
 70
     0
  9
$DIMTZIN
 70
     8
  9
$DIMALTZ
 70
     0
  9
$DIMALTTZ
 70
     0
  9
$DIMUPT
 70
     0
  9
$DIMDEC
 70
     2
  9
$DIMTDEC
 70
     2
  9
$DIMALTU
 70
     2
  9
$DIMALTTD
 70
     3
  9
$DIMTXSTY
  7
Standard
  9
$DIMAUNIT
 70
     0
  9
$DIMADEC
 70
     0
  9
$DIMALTRND
 40
0.0
  9
$DIMAZIN
 70
     0
  9
$DIMDSEP
 70
    44
  9
$DIMATFIT
 70
     3
  9
$DIMFRAC
 70
     0
  9
$DIMLDRBLK
  1

  9
$DIMLUNIT
 70
     2
  9
$DIMLWD
 70
    -2
  9
$DIMLWE
 70
    -2
  9
$DIMTMOVE
 70
     0
  9
$LUNITS
 70
     2
  9
$LUPREC
 70
     4
  9
$SKETCHINC
 40
1.0
  9
$FILLETRAD
 40
10.0
  9
$AUNITS
 70
     0
  9
$AUPREC
 70
     0
  9
$MENU
  1
.
  9
$ELEVATION
 40
0.0
  9
$PELEVATION
 40
0.0
  9
$THICKNESS
 40
0.0
  9
$LIMCHECK
 70
     0
  9
$CHAMFERA
 40
0.0
  9
$CHAMFERB
 40
0.0
  9
$CHAMFERC
 40
0.0
  9
$CHAMFERD
 40
0.0
  9
$SKPOLY
 70
     0
  9
$TDCREATE
 40
2459724.421496099
  9
$TDUCREATE
 40
2459724.338162766
  9
$TDUPDATE
 40
2459724.421496956
  9
$TDUUPDATE
 40
2459724.338163623
  9
$TDINDWG
 40
0.0000000116
  9
$TDUSRTIMER
 40
0.0000000116
  9
$USRTIMER
 70
     1
  9
$ANGBASE
 50
0.0
  9
$ANGDIR
 70
     0
  9
$PDMODE
 70
     0
  9
$PDSIZE
 40
0.0
  9
$PLINEWID
 40
0.0
  9
$SPLFRAME
 70
     0
  9
$SPLINETYPE
 70
     6
  9
$SPLINESEGS
 70
     8
  9
$HANDSEED
  5
1A5
  9
$SURFTAB1
 70
     6
  9
$SURFTAB2
 70
     6
  9
$SURFTYPE
 70
     6
  9
$SURFU
 70
     6
  9
$SURFV
 70
     6
  9
$UCSBASE
  2

  9
$UCSNAME
  2

  9
$UCSORG
 10
0.0
 20
0.0
 30
0.0
  9
$UCSXDIR
 10
1.0
 20
0.0
 30
0.0
  9
$UCSYDIR
 10
0.0
 20
1.0
 30
0.0
  9
$UCSORTHOREF
  2

  9
$UCSORTHOVIEW
 70
     0
  9
$UCSORGTOP
 10
0.0
 20
0.0
 30
0.0
  9
$UCSORGBOTTOM
 10
0.0
 20
0.0
 30
0.0
  9
$UCSORGLEFT
 10
0.0
 20
0.0
 30
0.0
  9
$UCSORGRIGHT
 10
0.0
 20
0.0
 30
0.0
  9
$UCSORGFRONT
 10
0.0
 20
0.0
 30
0.0
  9
$UCSORGBACK
 10
0.0
 20
0.0
 30
0.0
  9
$PUCSBASE
  2

  9
$PUCSNAME
  2

  9
$PUCSORG
 10
0.0
 20
0.0
 30
0.0
  9
$PUCSXDIR
 10
1.0
 20
0.0
 30
0.0
  9
$PUCSYDIR
 10
0.0
 20
1.0
 30
0.0
  9
$PUCSORTHOREF
  2

  9
$PUCSORTHOVIEW
 70
     0
  9
$PUCSORGTOP
 10
0.0
 20
0.0
 30
0.0
  9
$PUCSORGBOTTOM
 10
0.0
 20
0.0
 30
0.0
  9
$PUCSORGLEFT
 10
0.0
 20
0.0
 30
0.0
  9
$PUCSORGRIGHT
 10
0.0
 20
0.0
 30
0.0
  9
$PUCSORGFRONT
 10
0.0
 20
0.0
 30
0.0
  9
$PUCSORGBACK
 10
0.0
 20
0.0
 30
0.0
  9
$USERI1
 70
     0
  9
$USERI2
 70
     0
  9
$USERI3
 70
     0
  9
$USERI4
 70
     0
  9
$USERI5
 70
     0
  9
$USERR1
 40
0.0
  9
$USERR2
 40
0.0
  9
$USERR3
 40
0.0
  9
$USERR4
 40
0.0
  9
$USERR5
 40
0.0
  9
$WORLDVIEW
 70
     1
  9
$SHADEDGE
 70
     3
  9
$SHADEDIF
 70
    70
  9
$TILEMODE
 70
     1
  9
$MAXACTVP
 70
    64
  9
$PINSBASE
 10
0.0
 20
0.0
 30
0.0
  9
$PLIMCHECK
 70
     0
  9
$PEXTMIN
 10
1.000000E+20
 20
1.000000E+20
 30
1.000000E+20
  9
$PEXTMAX
 10
-1.000000E+20
 20
-1.000000E+20
 30
-1.000000E+20
  9
$PLIMMIN
 10
0.0
 20
0.0
  9
$PLIMMAX
 10
420.0
 20
297.0
  9
$UNITMODE
 70
     0
  9
$VISRETAIN
 70
     1
  9
$PLINEGEN
 70
     0
  9
$PSLTSCALE
 70
     1
  9
$TREEDEPTH
 70
  3020
  9
$CMLSTYLE
  2
Standard
  9
$CMLJUST
 70
     0
  9
$CMLSCALE
 40
20.0
  9
$PROXYGRAPHICS
 70
     1
  9
$MEASUREMENT
 70
     1
  9
$CELWEIGHT
370
    -1
  9
$ENDCAPS
280
     0
  9
$JOINSTYLE
280
     0
  9
$LWDISPLAY
290
     0
  9
$INSUNITS
 70
     4
  9
$HYPERLINKBASE
  1

  9
$STYLESHEET
  1

  9
$XEDIT
290
     1
  9
$CEPSNTYPE
380
     0
  9
$PSTYLEMODE
290
     1
  9
$FINGERPRINTGUID
  2
{97b5579a-5c2b-4985-a885-a8d54c2354b3}
  9
$VERSIONGUID
  2
{FAEB1C32-E019-11D5-929B-00C0DF256EC4}
  9
$EXTNAMES
290
     1
  9
$PSVPSCALE
 40
0.0
  9
$OLESTARTUP
290
     0
  0
ENDSEC
  0
SECTION
  2
CLASSES
  0
CLASS
  1
ACDBDICTIONARYWDFLT
  2
AcDbDictionaryWithDefault
  3
ObjectDBX Classes
 90
        0
280
     0
281
     0
  0
CLASS
  1
VISUALSTYLE
  2
AcDbVisualStyle
  3
ObjectDBX Classes
 90
     4095
280
     0
281
     0
  0
CLASS
  1
MATERIAL
  2
AcDbMaterial
  3
ObjectDBX Classes
 90
     1153
280
     0
281
     0
  0
CLASS
  1
SCALE
  2
AcDbScale
  3
ObjectDBX Classes
 90
     1153
280
     0
281
     0
  0
CLASS
  1
TABLESTYLE
  2
AcDbTableStyle
  3
ObjectDBX Classes
 90
     4095
280
     0
281
     0
  0
CLASS
  1
MLEADERSTYLE
  2
AcDbMLeaderStyle
  3
ACDB_MLEADERSTYLE_CLASS
 90
     4095
280
     0
281
     0
  0
CLASS
  1
SUN
  2
AcDbSun
  3
SCENEOE
 90
     1153
280
     0
281
     0
  0
CLASS
  1
DICTIONARYVAR
  2
AcDbDictionaryVar
  3
ObjectDBX Classes
 90
        0
280
     0
281
     0
  0
CLASS
  1
ACDBPLACEHOLDER
  2
AcDbPlaceHolder
  3
ObjectDBX Classes
 90
        0
280
     0
281
     0
  0
CLASS
  1
LAYOUT
  2
AcDbLayout
  3
ObjectDBX Classes
 90
        0
280
     0
281
     0
  0
ENDSEC
  0
SECTION
  2
TABLES
  0
TABLE
  2
VPORT
  5
8
102
{ACAD_XDICTIONARY
360
168
102
}
330
0
100
AcDbSymbolTable
 70
     1
  0
VPORT
  5
29
330
8
100
AcDbSymbolTableRecord
100
AcDbViewportTableRecord
  2
*Active
 70
     0
 10
0.0
 20
0.0
 11
1.0
 21
1.0
 12
344.186916
 22
148.5
 13
0.0
 23
0.0
 14
10.0
 24
10.0
 15
10.0
 25
10.0
 16
0.0
 26
0.0
 36
1.0
 17
0.0
 27
0.0
 37
0.0
 40
297.0
 41
1.972973
 42
50.0
 43
0.0
 44
0.0
 50
0.0
 51
0.0
 71
     0
 72
   100
 73
     1
 74
     3
 75
     0
 76
     0
 77
     0
 78
     0
281
     0
 65
     1
110
0.0
120
0.0
130
0.0
111
1.0
121
0.0
131
0.0
112
0.0
122
1.0
132
0.0
 79
     0
146
0.0
  0
ENDTAB
  0
TABLE
  2
LTYPE
  5
5
330
0
100
AcDbSymbolTable
 70
     1
  0
LTYPE
  5
14
330
5
100
AcDbSymbolTableRecord
100
AcDbLinetypeTableRecord
  2
ByBlock
 70
     0
  3

 72
    65
 73
     0
 40
0.0
  0
LTYPE
  5
15
330
5
100
AcDbSymbolTableRecord
100
AcDbLinetypeTableRecord
  2
ByLayer
 70
     0
  3

 72
    65
 73
     0
 40
0.0
  0
LTYPE
  5
16
330
5
100
AcDbSymbolTableRecord
100
AcDbLinetypeTableRecord
  2
Continuous
 70
     0
  3
Solid line
 72
    65
 73
     0
 40
0.0
  0
ENDTAB
  0
TABLE
  2
LAYER
  5
2
330
0
100
AcDbSymbolTable
 70
     1
  0
LAYER
  5
10
330
2
100
AcDbSymbolTableRecord
100
AcDbLayerTableRecord
  2
0
 70
     0
 62
   106
  6
Continuous
370
     0
390
F
  0
ENDTAB
  0
TABLE
  2
STYLE
  5
3
330
0
100
AcDbSymbolTable
 70
     2
  0
STYLE
  5
11
330
3
100
AcDbSymbolTableRecord
100
AcDbTextStyleTableRecord
  2
Standard
 70
     0
 40
0.0
 41
1.0
 50
0.0
 71
     0
 42
2.5
  3
txt
  4

  0
STYLE
  5
6E
330
3
100
AcDbSymbolTableRecord
100
AcDbTextStyleTableRecord
  2
Default
 70
     0
 40
0.0
 41
1.0
 50
0.0
 71
     0
 42
2.5
  3

  4

1001
ACAD
1000
txt
1071
        0
  0
ENDTAB
  0
TABLE
  2
VIEW
  5
6
330
0
100
AcDbSymbolTable
 70
     0
  0
ENDTAB
  0
TABLE
  2
UCS
  5
7
330
0
100
AcDbSymbolTable
 70
     0
  0
ENDTAB
  0
TABLE
  2
APPID
  5
9
330
0
100
AcDbSymbolTable
 70
     2
  0
APPID
  5
12
330
9
100
AcDbSymbolTableRecord
100
AcDbRegAppTableRecord
  2
ACAD
 70
     0
  0
APPID
  5
1A2
330
9
100
AcDbSymbolTableRecord
100
AcDbRegAppTableRecord
  2
ACAD_MLEADERVER
 70
     0
  0
ENDTAB
  0
TABLE
  2
DIMSTYLE
  5
A
330
0
100
AcDbSymbolTable
 70
     2
100
AcDbDimStyleTable
  0
DIMSTYLE
105
27
330
A
100
AcDbSymbolTableRecord
100
AcDbDimStyleTableRecord
  2
ISO-25
 70
     0
 41
2.5
 42
0.625
 43
3.75
 44
1.25
 73
     0
 74
     0
 77
     1
 78
     8
140
2.5
141
2.5
143
0.03937
147
0.625
171
     3
172
     1
178
     0
271
     2
272
     2
274
     3
278
    44
283
     0
284
     8
340
11
  0
DIMSTYLE
105
6F
330
A
100
AcDbSymbolTableRecord
100
AcDbDimStyleTableRecord
  2
Default
 70
     0
  3
<>
 41
4.375
 42
1.05
 44
2.1
 73
     0
 74
     0
 77
     1
 78
     8
140
3.5
146
0.4
147
1.75
172
     1
271
     2
178
     3
271
     2
272
     3
284
     8
340
6E
341
70
342
70
  0
ENDTAB
  0
TABLE
  2
BLOCK_RECORD
  5
1
330
0
100
AcDbSymbolTable
 70
     2
  0
BLOCK_RECORD
  5
1F
330
1
100
AcDbSymbolTableRecord
100
AcDbBlockTableRecord
  2
*Model_Space
340
22
  0
BLOCK_RECORD
  5
1B
330
1
100
AcDbSymbolTableRecord
100
AcDbBlockTableRecord
  2
*Paper_Space
340
1E
  0
BLOCK_RECORD
  5
23
330
1
100
AcDbSymbolTableRecord
100
AcDbBlockTableRecord
  2
*Paper_Space0
340
26
  0
BLOCK_RECORD
  5
70
330
1
100
AcDbSymbolTableRecord
100
AcDbBlockTableRecord
  2
_Closed
340
0
  0
ENDTAB
  0
ENDSEC
  0
SECTION
  2
BLOCKS
  0
BLOCK
  5
20
330
1F
100
AcDbEntity
  8
0
100
AcDbBlockBegin
  2
*Model_Space
 70
     0
 10
0.0
 20
0.0
 30
0.0
  3
*Model_Space
  1

  0
ENDBLK
  5
21
330
1F
100
AcDbEntity
  8
0
100
AcDbBlockEnd
  0
BLOCK
  5
1C
330
1B
100
AcDbEntity
 67
     1
  8
0
100
AcDbBlockBegin
  2
*Paper_Space
 70
     0
 10
0.0
 20
0.0
 30
0.0
  3
*Paper_Space
  1

  0
ENDBLK
  5
1D
330
1B
100
AcDbEntity
 67
     1
  8
0
100
AcDbBlockEnd
  0
BLOCK
  5
24
330
23
100
AcDbEntity
  8
0
100
AcDbBlockBegin
  2
*Paper_Space0
 70
     0
 10
0.0
 20
0.0
 30
0.0
  3
*Paper_Space0
  1

  0
ENDBLK
  5
25
330
23
100
AcDbEntity
  8
0
100
AcDbBlockEnd
  0
BLOCK
  5
71
330
70
100
AcDbEntity
  8
0
100
AcDbBlockBegin
  2
_Closed
 70
     0
 10
0.0
 20
0.0
 30
0.0
  3
_Closed
  1

  0
LINE
  5
73
330
70
100
AcDbEntity
  8
0
  6
ByBlock
 62
     0
370
    -2
100
AcDbLine
 10
-1.0
 20
0.166667
 30
0.0
 11
0.0
 21
0.0
 31
0.0
  0
LINE
  5
74
330
70
100
AcDbEntity
  8
0
  6
ByBlock
 62
     0
370
    -2
100
AcDbLine
 10
0.0
 20
0.0
 30
0.0
 11
-1.0
 21
-0.166667
 31
0.0
  0
LINE
  5
75
330
70
100
AcDbEntity
  8
0
  6
ByBlock
 62
     0
370
    -2
100
AcDbLine
 10
-1.0
 20
0.166667
 30
0.0
 11
-1.0
 21
-0.166667
 31
0.0
  0
LINE
  5
76
330
70
100
AcDbEntity
  8
0
  6
ByBlock
 62
     0
370
    -2
100
AcDbLine
 10
0.0
 20
0.0
 30
0.0
 11
-1.0
 21
0.0
 31
0.0
  0
ENDBLK
  5
72
330
70
100
AcDbEntity
  8
0
100
AcDbBlockEnd
  0
ENDSEC
  0
SECTION
  2
ENTITIES
  0
SPLINE
  5
77
330
1F
100
AcDbEntity
  8
0
  6
Continuous
 62
    18
370
    30
100
AcDbSpline
210
0.0
220
0.0
230
1.0
 70
     8
 71
     3
 72
    11
 73
     7
 74
     0
 42
0.000000001
 43
0.0
 40
0.0
 40
0.0
 40
0.0
 40
0.0
 40
0.5852709660483841
 40
1.17054193209677
 40
1.755812898145157
 40
2.341083864193541
 40
2.341083864193541
 40
2.341083864193541
 40
2.341083864193541
 10
-30.66399499369417
 20
39.28294709368637
 30
0.0
 10
-30.66935983029121
 20
39.10563834885738
 30
0.0
 10
-30.7334088734721
 20
38.77224464853734
 30
0.0
 10
-30.97464201104297
 20
38.42647497911486
 30
0.0
 10
-31.32363631797374
 20
38.28343284156529
 30
0.0
 10
-31.59462821440574
 20
38.33935390209649
 30
0.0
 10
-31.72759548619415
 20
38.40209940780105
 30
0.0
  0
ARC
  5
78
330
1F
100
AcDbEntity
  8
0
  6
Continuous
 62
    18
370
    30
100
AcDbCircle
 10
-28.697936
 20
30.143801
 30
0.0
 40
8.796495690812057
100
AcDbArc
 50
110.146191
 51
120.048127
  0
SPLINE
  5
79
330
1F
100
AcDbEntity
  8
0
  6
Continuous
 62
    18
370
    30
100
AcDbSpline
210
0.0
220
0.0
230
1.0
 70
     8
 71
     3
 72
    11
 73
     7
 74
     0
 42
0.000000001
 43
0.0
 40
0.0
 40
0.0
 40
0.0
 40
0.0
 40
0.5852709660483841
 40
1.170541932096771
 40
1.755812898145157
 40
2.341083864193541
 40
2.341083864193541
 40
2.341083864193541
 40
2.341083864193541
 10
-33.10258101409157
 20
37.75809226342588
 30
0.0
 10
-32.96961374230328
 20
37.69534675772127
 30
0.0
 10
-32.70837901369599
 20
37.63485569578978
 30
0.0
 10
-32.40111207615034
 20
37.7583538283626
 30
0.0
 10
-32.22220048777722
 20
38.07493371933475
 30
0.0
 10
-32.2074573511379
 20
38.38523382671988
 30
0.0
 10
-32.22647854812304
 20
38.55112079326
 30
0.0
  0
ARC
  5
7A
330
1F
100
AcDbEntity
  8
0
  6
Continuous
 62
    18
370
    30
100
AcDbCircle
 10
-27.2212
 20
29.898517
 30
0.0
 40
9.996017830490675
100
AcDbArc
 50
110.146191
 51
120.048127
  0
SPLINE
  5
7B
330
1F
100
AcDbEntity
  8
0
  6
Continuous
 62
    18
370
    30
100
AcDbSpline
210
0.0
220
0.0
230
1.0
 70
     8
 71
     3
 72
    18
 73
    14
 74
     0
 42
0.000000001
 43
0.0
 40
0.0
 40
0.0
 40
0.0
 40
0.0
 40
0.023853387416012
 40
0.071560162248035
 40
0.143445661411604
 40
0.215098752999388
 40
0.286547868508206
 40
0.428867497905898
 40
0.570756272079706
 40
0.712953688997983
 40
0.8560293812334411
 40
0.9520097937444799
 40
1.0
 40
1.0
 40
1.0
 40
1.0
 10
-24.3375471483498
 20
34.32341761078968
 30
0.0
 10
-24.42297750987574
 20
34.33122884438029
 30
0.0
 10
-24.67920806218329
 20
34.35479149308242
 30
0.0
 10
-25.18545430377871
 20
34.41559008935309
 30
0.0
 10
-25.84716432803457
 20
34.5120953717996
 30
0.0
 10
-26.56880645439979
 20
34.64327241036571
 30
0.0
 10
-27.49474607602018
 20
34.85447790039831
 30
0.0
 10
-28.58276087126011
 20
35.19237222048105
 30
0.0
 10
-29.74954634985203
 20
35.745877956192
 30
0.0
 10
-30.76037793759552
 20
36.43387932345328
 30
0.0
 10
-31.52311342270967
 20
37.13102888084165
 30
0.0
 10
-32.01072882329628
 20
37.6921050871328
 30
0.0
 10
-32.22924287828282
 20
37.98067145152157
 30
0.0
 10
-32.29912048171103
 20
38.07771197612811
 30
0.0
  0
SPLINE
  5
7C
330
1F
100
AcDbEntity
  8
0
  6
Continuous
 62
    18
370
    30
100
AcDbSpline
210
0.0
220
0.0
230
1.0
 70
     8
 71
     3
 72
    12
 73
     8
 74
     0
 42
0.000000001
 43
0.0
 40
0.0
 40
0.0
 40
0.0
 40
0.0
 40
0.11114353165462
 40
0.333430594963861
 40
0.6666706734079841
 40
0.8888902244693279
 40
1.0
 40
1.0
 40
1.0
 40
1.0
 10
-32.29912048171103
 20
38.07771197612811
 30
0.0
 10
-32.30403974195683
 20
38.01683462528138
 30
0.0
 10
-32.33305992041441
 20
37.83219108195345
 30
0.0
 10
-32.47565485953702
 20
37.45651219494783
 30
0.0
 10
-32.78778956555151
 20
37.06664798440616
 30
0.0
 10
-33.14581906611151
 20
36.81695736021746
 30
0.0
 10
-33.33664302028119
 20
36.72693951090199
 30
0.0
 10
-33.40124250104832
 20
36.70095895602282
 30
0.0
  0
SPLINE
  5
7D
330
1F
100
AcDbEntity
  8
0
  6
Continuous
 62
    18
370
    30
100
AcDbSpline
210
0.0
220
0.0
230
1.0
 70
     8
 71
     3
 72
    16
 73
    12
 74
     0
 42
0.000000001
 43
0.0
 40
0.0
 40
0.0
 40
0.0
 40
0.0
 40
0.047318756474514
 40
0.141956269423541
 40
0.284595518423884
 40
0.427905354993474
 40
0.5715253681935899
 40
0.7149243111419731
 40
0.8578296908947349
 40
0.9526098969649119
 40
1.0
 40
1.0
 40
1.0
 40
1.0
 10
-33.40124250104832
 20
36.70095895602282
 30
0.0
 10
-33.32259745195238
 20
36.60707374501933
 30
0.0
 10
-33.07923078870111
 20
36.32761163827135
 30
0.0
 10
-32.54670990916337
 20
35.77972634655734
 30
0.0
 10
-31.73520255062674
 20
35.08857295315974
 30
0.0
 10
-30.68441613344002
 20
34.39068431712505
 30
0.0
 10
-29.49899149341512
 20
33.79588060858956
 30
0.0
 10
-28.18927304808697
 20
33.31983349181084
 30
0.0
 10
-26.93829198229444
 20
32.99048572122049
 30
0.0
 10
-25.95422754701899
 20
32.79659564021514
 30
0.0
 10
-25.45186820358263
 20
32.70953882386513
 30
0.0
 10
-25.28286870703509
 20
32.68240717057782
 30
0.0
  0
SPLINE
  5
7E
330
1F
100
AcDbEntity
  8
0
  6
Continuous
 62
    18
370
    30
100
AcDbSpline
210
0.0
220
0.0
230
1.0
 70
     8
 71
     3
 72
    12
 73
     8
 74
     0
 42
0.000000001
 43
0.0
 40
0.0
 40
0.0
 40
0.0
 40
0.0
 40
0.110121513178634
 40
0.330364539535901
 40
0.663707340209824
 40
0.8879024467366079
 40
1.0
 40
1.0
 40
1.0
 40
1.0
 10
-25.28286870703509
 20
32.68240717057782
 30
0.0
 10
-25.22860765561863
 20
32.720940159973
 30
0.0
 10
-25.06877576154072
 20
32.84736730651917
 30
0.0
 10
-24.76812153070487
 20
33.16269435842324
 30
0.0
 10
-24.49551641171091
 20
33.6180452598295
 30
0.0
 10
-24.36571245499862
 20
34.04826463761407
 30
0.0
 10
-24.3410612088948
 20
34.255730821643
 30
0.0
 10
-24.3375471483498
 20
34.32341761078968
 30
0.0
  0
ELLIPSE
  5
7F
330
1F
100
AcDbEntity
  8
0
  6
Continuous
 62
    18
370
    30
100
AcDbEllipse
 10
-54.862607
 20
39.179064
 30
0.0
 11
4.694341131211671
 21
9.948022986695003
 31
0.0
210
0.0
220
0.0
230
1.0
 40
0.657285
 41
0.5850716491031402
 42
3.726664302692934
  0
LINE
  5
80
330
1F
100
AcDbEntity
  8
0
  6
Continuous
 62
    18
370
    30
100
AcDbLine
 10
-55.165099
 20
29.181663
 30
0.0
 11
-23.301806
 21
14.145794
 31
0.0
  0
ELLIPSE
  5
81
330
1F
100
AcDbEntity
  8
0
  6
Continuous
 62
    18
370
    30
100
AcDbEllipse
 10
-22.999314
 20
24.143196
 30
0.0
 11
-4.694341131211671
 21
-9.948022986695003
 31
0.0
210
0.0
220
0.0
230
-1.0
 40
0.657285
 41
5.698113658076435
 42
8.514432597409273
  0
SPLINE
  5
82
330
1F
100
AcDbEntity
  8
0
  6
Continuous
 62
    18
370
    30
100
AcDbSpline
210
0.0
220
0.0
230
1.0
 70
     8
 71
     3
 72
    17
 73
    13
 74
     0
 42
0.000000001
 43
0.0
 40
0.000000167079431
 40
0.000000167079431
 40
0.000000167079431
 40
0.000000167079431
 40
0.029703248310852
 40
0.089109744932557
 40
0.182485356227471
 40
0.281961969585118
 40
0.3905885070989369
 40
0.514447413234971
 40
0.6703123698046909
 40
0.778920218642939
 40
0.926306739547646
 40
1.0
 40
1.0
 40
1.0
 40
1.0
 10
-33.40123581647508
 20
36.70096269314863
 30
0.0
 10
-33.40909818691556
 20
36.71033459426391
 30
0.0
 10
-33.43183211365611
 20
36.73880434022433
 30
0.0
 10
-33.47309478815144
 20
36.79921418394747
 30
0.0
 10
-33.51719493817431
 20
36.88696487233119
 30
0.0
 10
-33.54978644358782
 20
36.99686515918026
 30
0.0
 10
-33.56077785517935
 20
37.12194348232859
 30
0.0
 10
-33.53975145726416
 20
37.27061918445443
 30
0.0
 10
-33.47470804093017
 20
37.41798955249453
 30
0.0
 10
-33.3619855348807
 20
37.5652202720851
 30
0.0
 10
-33.23820374654115
 20
37.67453353336251
 30
0.0
 10
-33.1372682470067
 20
37.73775387580611
 30
0.0
 10
-33.10258101409163
 20
37.75809226342594
 30
0.0
  0
LINE
  5
83
330
1F
100
AcDbEntity
  8
0
  6
Continuous
 62
    18
370
    30
100
AcDbLine
 10
-31.727595
 20
38.402099
 30
0.0
 11
-54.560115
 21
49.176465
 31
0.0
  0
ELLIPSE
  5
84
330
1F
100
AcDbEntity
  8
0
  6
Continuous
 62
    18
370
    30
100
AcDbEllipse
 10
-30.749865
 20
81.64128
 30
0.0
 11
0.2498856409850018
 21
-0.007560848465239444
 31
0.0
210
0.0
220
0.0
230
-1.0
 40
0.416205
 41
2.749583677368263
 42
3.949541033782639
  0
LINE
  5
85
330
1F
100
AcDbEntity
  8
0
  6
Continuous
 62
    18
370
    30
100
AcDbLine
 10
-30.920257
 20
81.721686
 30
0.0
 11
-32.226479
 21
38.551121
 31
0.0
  0
SPLINE
  5
86
330
1F
100
AcDbEntity
  8
0
  6
Continuous
 62
    18
370
    30
100
AcDbSpline
210
0.0
220
0.0
230
1.0
 70
     8
 71
     3
 72
    12
 73
     8
 74
     0
 42
0.000000001
 43
0.0
 40
0.0
 40
0.0
 40
0.0
 40
0.0
 40
0.113508485352724
 40
0.3405254560581709
 40
0.6934375002153319
 40
0.8978125000717772
 40
0.999971150064732
 40
0.999971150064732
 40
0.999971150064732
 40
0.999971150064732
 10
-32.22647854812304
 20
38.55112079326
 30
0.0
 10
-32.23562837971478
 20
38.53477624054156
 30
0.0
 10
-32.26031567773974
 20
38.48422506197835
 30
0.0
 10
-32.29696320622399
 20
38.37507171908078
 30
0.0
 10
-32.3166687393492
 20
38.24755963492029
 30
0.0
 10
-32.31336968553369
 20
38.13970553042768
 30
0.0
 10
-32.30372118221401
 20
38.09253502000212
 30
0.0
 10
-32.29912396600893
 20
38.07770175567646
 30
0.0
  0
LINE
  5
87
330
1F
100
AcDbEntity
  8
0
  6
Continuous
 62
    18
370
    30
100
AcDbLine
 10
-32.299119
 20
38.077714
 30
0.0
 11
-30.981997
 21
81.608533
 31
0.0
  0
SPLINE
  5
88
330
1F
100
AcDbEntity
  8
0
  6
Continuous
 62
    18
370
    30
100
AcDbSpline
210
0.0
220
0.0
230
1.0
 70
     8
 71
     3
 72
    11
 73
     7
 74
     0
 42
0.000000001
 43
0.0
 40
0.0
 40
0.0
 40
0.0
 40
0.0
 40
0.097545161008065
 40
0.195090322016127
 40
0.292635483024191
 40
0.3901806440322569
 40
0.3901806440322569
 40
0.3901806440322569
 40
0.3901806440322569
 10
-23.12453944625865
 20
14.29260244027518
 30
0.0
 10
-23.12543358569165
 20
14.26305098280366
 30
0.0
 10
-23.1361084262217
 20
14.20748536608366
 30
0.0
 10
-23.17631394915013
 20
14.14985708784653
 30
0.0
 10
-23.23447966697198
 20
14.12601673158827
 30
0.0
 10
-23.27964498304401
 20
14.13533690834342
 30
0.0
 10
-23.30180619500878
 20
14.1457944926276
 30
0.0
  0
SPLINE
  5
89
330
1F
100
AcDbEntity
  8
0
  6
Continuous
 62
    18
370
    30
100
AcDbSpline
210
0.0
220
0.0
230
1.0
 70
     8
 71
     3
 72
    23
 73
    19
 74
     0
 42
0.000000001
 43
0.0
 40
0.0
 40
0.0
 40
0.0
 40
0.0
 40
0.023787262503618
 40
0.071361787510854
 40
0.142718260954774
 40
0.214078378487705
 40
0.2854410658297269
 40
0.356786763330675
 40
0.4283051158551879
 40
0.500000022274228
 40
0.5716949233646731
 40
0.6432132531833561
 40
0.7145589497060999
 40
0.7859216340021471
 40
0.8572817477322561
 40
0.9286382211600929
 40
0.976212740386698
 40
1.0
 40
1.0
 40
1.0
 40
1.0
 10
-25.06136888317012
 20
32.40785430773593
 30
0.0
 10
-25.22952836278988
 20
32.27795078282213
 30
0.0
 10
-25.72898166379069
 20
31.86944580096815
 30
0.0
 10
-26.69447158491435
 20
30.94287119580815
 30
0.0
 10
-27.86782389986358
 20
29.4994049459564
 30
0.0
 10
-28.98637755858282
 20
27.65587542308725
 30
0.0
 10
-29.85614593579275
 20
25.667910254378
 30
0.0
 10
-30.44493439003485
 20
23.61382295048983
 30
0.0
 10
-30.72481970335251
 20
21.57494402720394
 30
0.0
 10
-30.6878085448386
 20
19.63256851171863
 30
0.0
 10
-30.32887614561115
 20
17.87166757839796
 30
0.0
 10
-29.66961267432025
 20
16.36220647192408
 30
0.0
 10
-28.73349859790038
 20
15.16773896942442
 30
0.0
 10
-27.56168378713419
 20
14.33065870524501
 30
0.0
 10
-26.19849901551719
 20
13.88613722972872
 30
0.0
 10
-24.86742949338377
 20
13.85446661130962
 30
0.0
 10
-23.82483639118696
 20
14.0598911580872
 30
0.0
 10
-23.29977953096692
 20
14.22892431122892
 30
0.0
 10
-23.12453944625877
 20
14.29260244027509
 30
0.0
  0
SPLINE
  5
8A
330
1F
100
AcDbEntity
  8
0
  6
Continuous
 62
    18
370
    30
100
AcDbSpline
210
0.0
220
0.0
230
1.0
 70
     8
 71
     3
 72
    12
 73
     8
 74
     0
 42
0.000000001
 43
0.0
 40
0.000932392810657
 40
0.000932392810657
 40
0.000932392810657
 40
0.000932392810657
 40
0.111131923221761
 40
0.333395769665283
 40
0.6666042314658449
 40
0.8888680771552819
 40
1.0
 40
1.0
 40
1.0
 40
1.0
 10
-25.28330304997353
 20
32.68231383605587
 30
0.0
 10
-25.27358368513778
 20
32.67770719034775
 30
0.0
 10
-25.24347905184457
 20
32.66087994408562
 30
0.0
 10
-25.17984003217815
 20
32.61027970883796
 30
0.0
 10
-25.11404015394099
 20
32.52897200893926
 30
0.0
 10
-25.07589866568678
 20
32.45375273529257
 30
0.0
 10
-25.06435083429191
 20
32.4190219588798
 30
0.0
 10
-25.06136888265279
 20
32.40785430812835
 30
0.0
  0
LINE
  5
8B
330
1F
100
AcDbEntity
  8
0
  6
Continuous
 62
    18
370
    30
100
AcDbLine
 10
-23.020469
 20
77.851593
 30
0.0
 11
-24.337512
 21
34.323397
 31
0.0
  0
ARC
  5
8C
330
1F
100
AcDbEntity
  8
0
  6
Continuous
 62
    18
370
    30
100
AcDbCircle
 10
-24.21774
 20
34.848406
 30
0.0
 40
0.5384976919506073
100
AcDbArc
 50
257.148862
 51
287.201608
  0
LINE
  5
8D
330
1F
100
AcDbEntity
  8
0
  6
Continuous
 62
    18
370
    30
100
AcDbLine
 10
-24.058488
 20
34.333995
 30
0.0
 11
-22.741444
 21
77.862211
 31
0.0
  0
ELLIPSE
  5
8E
330
1F
100
AcDbEntity
  8
0
  6
Continuous
 62
    18
370
    30
100
AcDbEllipse
 10
-22.911836
 20
77.942617
 30
0.0
 11
0.249885640913464
 21
-0.007560850829524647
 31
0.0
210
0.0
220
0.0
230
-1.0
 40
0.416205
 41
0.8079483762439922
 42
2.007905777609147
  0
SPLINE
  5
8F
330
1F
100
AcDbEntity
  8
0
  6
Continuous
 62
    18
370
    30
100
AcDbSpline
210
0.0
220
0.0
230
1.0
 70
     8
 71
     3
 72
    12
 73
     8
 74
     0
 42
0.000000001
 43
0.0
 40
0.0
 40
0.0
 40
0.0
 40
0.0
 40
0.110121517154552
 40
0.330364551463657
 40
0.6637073520457291
 40
0.88790245068191
 40
1.0
 40
1.0
 40
1.0
 40
1.0
 10
-20.14204016152347
 20
34.54964673286182
 30
0.0
 10
-20.18956953878568
 20
34.55120767784169
 30
0.0
 10
-20.32862025962741
 20
34.56907553466883
 30
0.0
 10
-20.58269569271452
 20
34.6829155347103
 30
0.0
 10
-20.79718843478882
 20
34.96134491567267
 30
0.0
 10
-20.88001974939947
 20
35.31433238945317
 30
0.0
 10
-20.8846124459606
 20
35.51117705179061
 30
0.0
 10
-20.88189980921804
 20
35.57857286791642
 30
0.0
  0
SPLINE
  5
90
330
1F
100
AcDbEntity
  8
0
  6
Continuous
 62
    18
370
    30
100
AcDbSpline
210
0.0
220
0.0
230
1.0
 70
     8
 71
     3
 72
    16
 73
    12
 74
     0
 42
0.000000001
 43
0.0
 40
0.0
 40
0.0
 40
0.0
 40
0.0
 40
0.047318757231042
 40
0.141956271693126
 40
0.284595521917504
 40
0.427905357447891
 40
0.571525368924264
 40
0.714924310592056
 40
0.8578296898097391
 40
0.952609896603246
 40
1.0
 40
1.0
 40
1.0
 40
1.0
 10
-28.56101231321672
 20
38.45901584411502
 30
0.0
 10
-28.39046172513871
 20
38.39851235024545
 30
0.0
 10
-27.88246807734303
 20
38.21516744810614
 30
0.0
 10
-26.88692444582385
 20
37.83546024472088
 30
0.0
 10
-25.61420293775221
 20
37.31182807800627
 30
0.0
 10
-24.26993374683472
 20
36.72053769471057
 30
0.0
 10
-23.03363115426917
 20
36.14421383171236
 30
0.0
 10
-21.92834344884919
 20
35.59391381146256
 30
0.0
 10
-21.0643018457515
 20
35.12402269093278
 30
0.0
 10
-20.49229100489457
 20
34.78046736541339
 30
0.0
 10
-20.22743584168352
 20
34.60714478677417
 30
0.0
 10
-20.14204016152347
 20
34.54964673286182
 30
0.0
  0
SPLINE
  5
91
330
1F
100
AcDbEntity
  8
0
  6
Continuous
 62
    18
370
    30
100
AcDbSpline
210
0.0
220
0.0
230
1.0
 70
     8
 71
     3
 72
    12
 73
     8
 74
     0
 42
0.000000001
 43
0.0
 40
0.0
 40
0.0
 40
0.0
 40
0.0
 40
0.111143531605723
 40
0.333430594817168
 40
0.6666706729866111
 40
0.888890224328871
 40
1.0
 40
1.0
 40
1.0
 40
1.0
 10
-28.84345840819792
 20
39.3328725949701
 30
0.0
 10
-28.8526483695765
 20
39.27044390261389
 30
0.0
 10
-28.87354524691521
 20
39.0887504209831
 30
0.0
 10
-28.87472182495877
 20
38.76443615071855
 30
0.0
 10
-28.79471953833568
 20
38.51700198709386
 30
0.0
 10
-28.66524489367877
 20
38.4443809654399
 30
0.0
 10
-28.58801482331772
 20
38.45172495931541
 30
0.0
 10
-28.56101231321672
 20
38.45901584411502
 30
0.0
  0
SPLINE
  5
92
330
1F
100
AcDbEntity
  8
0
  6
Continuous
 62
    18
370
    30
100
AcDbSpline
210
0.0
220
0.0
230
1.0
 70
     8
 71
     3
 72
    18
 73
    14
 74
     0
 42
0.000000001
 43
0.0
 40
0.0
 40
0.0
 40
0.0
 40
0.0
 40
0.023853387358442
 40
0.071560162075325
 40
0.143445660406623
 40
0.215098751809124
 40
0.286547867518459
 40
0.428867497809072
 40
0.570756273848432
 40
0.7129536922235981
 40
0.856029383394608
 40
0.9520097944648691
 40
1.0
 40
1.0
 40
1.0
 40
1.0
 10
-20.8818998092202
 20
35.578572867925
 30
0.0
 10
-20.91750389707032
 20
35.60448190403508
 30
0.0
 10
-21.02446176638607
 20
35.68226308721293
 30
0.0
 10
-21.25600081379518
 20
35.84284028853128
 30
0.0
 10
-21.590218409342
 20
36.05829672082547
 30
0.0
 10
-22.00533656977488
 20
36.30080880538003
 30
0.0
 10
-22.6071273774072
 20
36.62975100944334
 30
0.0
 10
-23.45291703409696
 20
37.05562589426515
 30
0.0
 10
-24.61909921537237
 20
37.60935074960435
 30
0.0
 10
-25.9197297191602
 20
38.19209183148217
 30
0.0
 10
-27.17259576331325
 20
38.71121709080828
 30
0.0
 10
-28.1634995266766
 20
39.08948992116746
 30
0.0
 10
-28.67249694869029
 20
39.27254753216525
 30
0.0
 10
-28.84345840819792
 20
39.3328725949701
 30
0.0
  0
ARC
  5
93
330
1F
100
AcDbEntity
  8
0
  6
Continuous
 62
    18
370
    30
100
AcDbCircle
 10
-27.898312
 20
31.752955
 30
0.0
 40
8.021831932422659
100
AcDbArc
 50
98.699182
 51
110.167729
  0
SPLINE
  5
94
330
1F
100
AcDbEntity
  8
0
  6
Continuous
 62
    18
370
    30
100
AcDbSpline
210
0.0
220
0.0
230
1.0
 70
     8
 71
     3
 72
    11
 73
     7
 74
     0
 42
0.000000001
 43
0.0
 40
0.0
 40
0.0
 40
0.0
 40
0.0
 40
0.5852709660483841
 40
1.17054193209677
 40
1.755812898145157
 40
2.341083864193541
 40
2.341083864193541
 40
2.341083864193541
 40
2.341083864193541
 10
-29.1115873280862
 20
39.68250400797515
 30
0.0
 10
-29.14118094159419
 20
39.4989592881804
 30
0.0
 10
-29.2542179354371
 20
39.15295712499488
 30
0.0
 10
-29.55737073317543
 20
38.79125064406441
 30
0.0
 10
-29.94782332484463
 20
38.63753802047648
 30
0.0
 10
-30.22850946867099
 20
38.69096398667065
 30
0.0
 10
-30.36147674045928
 20
38.75370949237524
 30
0.0
  0
ARC
  5
95
330
1F
100
AcDbEntity
  8
0
  6
Continuous
 62
    18
370
    30
100
AcDbCircle
 10
-29.293794
 20
31.775706
 30
0.0
 40
7.059212100526091
100
AcDbArc
 50
98.699182
 51
110.167729
  0
ELLIPSE
  5
96
330
1F
100
AcDbEntity
  8
0
  6
Continuous
 62
    18
370
    30
100
AcDbEllipse
 10
-54.862607
 20
39.179064
 30
0.0
 11
4.694341131211756
 21
9.948022986695182
 31
0.0
210
0.0
220
0.0
230
1.0
 40
0.657285
 41
3.726664302692944
 42
6.868256956282726
  0
SPLINE
  5
97
330
1F
100
AcDbEntity
  8
0
  6
Continuous
 62
    18
370
    30
100
AcDbSpline
210
0.0
220
0.0
230
1.0
 70
     8
 71
     3
 72
    17
 73
    13
 74
     0
 42
0.000000001
 43
0.0
 40
0.0
 40
0.0
 40
0.0
 40
0.0
 40
0.07355312535411
 40
0.220659376062329
 40
0.329342156962089
 40
0.485652569956135
 40
0.6096243588455811
 40
0.7181857826803482
 40
0.8175843682744028
 40
0.910909232993478
 40
0.970303077664493
 40
0.999999832941637
 40
0.999999832941637
 40
0.999999832941637
 40
0.999999832941637
 10
-30.36147674045934
 20
38.75370949237529
 30
0.0
 10
-30.32651076058941
 20
38.75867945972308
 30
0.0
 10
-30.21880652017533
 20
38.77127575827029
 30
0.0
 10
-30.03431913886003
 20
38.77390724517394
 30
0.0
 10
-29.7880432150295
 20
38.75703634350523
 30
0.0
 10
-29.54204354452479
 20
38.72270192505005
 30
0.0
 10
-29.29224010777124
 20
38.67225490881904
 30
0.0
 10
-29.08015510165301
 20
38.62017871380439
 30
0.0
 10
-28.89119527079929
 20
38.5671211759572
 30
0.0
 10
-28.73748176742423
 20
38.51923351270449
 30
0.0
 10
-28.62959091882236
 20
38.48305339748833
 30
0.0
 10
-28.57805952168313
 20
38.465050696692
 30
0.0
 10
-28.56101528978597
 20
38.45901607205755
 30
0.0
  0
ELLIPSE
  5
98
330
1F
100
AcDbEntity
  8
0
  6
Continuous
 62
    18
370
    30
100
AcDbEllipse
 10
-22.999314
 20
24.143196
 30
0.0
 11
-4.694341131211756
 21
-9.948022986695182
 31
0.0
210
0.0
220
0.0
230
-1.0
 40
0.657285
 41
2.881792103471892
 42
5.698113658076435
  0
ELLIPSE
  5
99
330
1F
100
AcDbEntity
  8
0
  6
Continuous
 62
    18
370
    30
100
AcDbEllipse
 10
-27.634991
 20
82.772652
 30
0.0
 11
0.24988564402632
 21
-0.007560747949195847
 31
0.0
210
0.0
220
0.0
230
-1.0
 40
0.416206
 41
3.949541201187103
 42
5.14949860258287
  0
LINE
  5
9A
330
1F
100
AcDbEntity
  8
0
  6
Continuous
 62
    18
370
    30
100
AcDbLine
 10
-27.526358
 20
82.863676
 30
0.0
 11
-28.843462
 21
39.332872
 31
0.0
  0
SPLINE
  5
9B
330
1F
100
AcDbEntity
  8
0
  6
Continuous
 62
    18
370
    30
100
AcDbSpline
210
0.0
220
0.0
230
1.0
 70
     8
 71
     3
 72
    12
 73
     8
 74
     0
 42
0.000000001
 43
0.0
 40
0.000028851425765
 40
0.000028851425765
 40
0.000028851425765
 40
0.000028851425765
 40
0.102180890778029
 40
0.306542672334087
 40
0.659229943808417
 40
0.886409981269472
 40
1.0
 40
1.0
 40
1.0
 40
1.0
 10
-28.84347280071397
 20
39.33285841294997
 30
0.0
 10
-28.8550674825381
 20
39.34514896386017
 30
0.0
 10
-28.8883814967255
 20
39.38371733484914
 30
0.0
 10
-28.95346612733248
 20
39.46909514523517
 30
0.0
 10
-29.02143654894842
 20
39.56470325327535
 30
0.0
 10
-29.07748796300426
 20
39.64021854485543
 30
0.0
 10
-29.10322849771681
 20
39.67250947904992
 30
0.0
 10
-29.1115873280862
 20
39.68250400797515
 30
0.0
  0
LINE
  5
9C
330
1F
100
AcDbEntity
  8
0
  6
Continuous
 62
    18
370
    30
100
AcDbLine
 10
-29.111587
 20
39.682504
 30
0.0
 11
-27.805383
 21
82.853058
 31
0.0
  0
SPLINE
  5
9D
330
1F
100
AcDbEntity
  8
0
  6
Continuous
 62
    18
370
    30
100
AcDbSpline
210
0.0
220
0.0
230
1.0
 70
     8
 71
     3
 72
    12
 73
     8
 74
     0
 42
0.000000001
 43
0.0
 40
0.0
 40
0.0
 40
0.0
 40
0.0
 40
0.111131922844718
 40
0.333395768534153
 40
0.666604230334722
 40
0.8888680767782409
 40
0.999067609830116
 40
0.999067609830116
 40
0.999067609830116
 40
0.999067609830116
 10
-20.03627651754054
 20
34.23305644853158
 30
0.0
 10
-20.03254501155708
 20
34.24666254544411
 30
0.0
 10
-20.02395244738226
 20
34.28870866858617
 30
0.0
 10
-20.02274054758742
 20
34.37822178653752
 30
0.0
 10
-20.05399943136096
 20
34.47207538453978
 30
0.0
 10
-20.10354473519537
 20
34.52779470610142
 30
0.0
 10
-20.13188295630276
 20
34.5452635445389
 30
0.0
 10
-20.1416016975508
 20
34.54987041688199
 30
0.0
  0
SPLINE
  5
9E
330
1F
100
AcDbEntity
  8
0
  6
Continuous
 62
    18
370
    30
100
AcDbSpline
210
0.0
220
0.0
230
1.0
 70
     8
 71
     3
 72
    23
 73
    19
 74
     0
 42
0.000000001
 43
0.0
 40
0.0
 40
0.0
 40
0.0
 40
0.0
 40
0.023787259572025
 40
0.071361778716074
 40
0.142718253181606
 40
0.2140783706627651
 40
0.28544105756521
 40
0.356786753958766
 40
0.4283050839526781
 40
0.4999999855269429
 40
0.571694892429777
 40
0.6432132451294519
 40
0.7145589424574351
 40
0.785921626945911
 40
0.857281740473872
 40
0.928638212613005
 40
0.976212737537668
 40
1.0
 40
1.0
 40
1.0
 40
1.0
 10
-23.12453944625865
 20
14.292602440275
 30
0.0
 10
-22.94930092036957
 20
14.35622375808134
 30
0.0
 10
-22.42291732540177
 20
14.56909066527956
 30
0.0
 10
-21.3697219164054
 20
15.12489044624661
 30
0.0
 10
-20.00713180219167
 20
16.13494209893599
 30
0.0
 10
-18.58645160386077
 20
17.59060890835462
 30
0.0
 10
-17.33737652075386
 20
19.30699844425297
 30
0.0
 10
-16.30737303928491
 20
21.21559353030887
 30
0.0
 10
-15.54110093938333
 20
23.24283461995535
 30
0.0
 10
-15.06644915866535
 20
25.30650906431828
 30
0.0
 10
-14.90977090935853
 20
27.31923770874832
 30
0.0
 10
-15.07112658540915
 20
29.19785217164372
 30
0.0
 10
-15.54732055793555
 20
30.86512152870756
 30
0.0
 10
-16.31478645482029
 20
32.25841577301617
 30
0.0
 10
-17.34540252761239
 20
33.32133140233546
 30
0.0
 10
-18.45651363484727
 20
33.93504182624855
 30
0.0
 10
-19.386768832855
 20
34.17304902324526
 30
0.0
 10
-19.87232790257745
 20
34.22378037498774
 30
0.0
 10
-20.03627651703566
 20
34.23305644851038
 30
0.0
  0
LINE
  5
9F
330
1F
100
AcDbEntity
  8
0
  6
Continuous
 62
    18
370
    30
100
AcDbLine
 10
-19.62657
 20
78.993583
 30
0.0
 11
-20.943595
 21
35.465382
 31
0.0
  0
SPLINE
  5
A0
330
1F
100
AcDbEntity
  8
0
  6
Continuous
 62
    18
370
    30
100
AcDbSpline
210
0.0
220
0.0
230
1.0
 70
     8
 71
     3
 72
    12
 73
     8
 74
     0
 42
0.000000001
 43
0.0
 40
0.0
 40
0.0
 40
0.0
 40
0.0
 40
0.111111111111112
 40
0.333333333333335
 40
0.6666666666666581
 40
0.8888888888888861
 40
1.0
 40
1.0
 40
1.0
 40
1.0
 10
-20.94359519388233
 20
35.46538243498262
 30
0.0
 10
-20.93552464280764
 20
35.46831453907748
 30
0.0
 10
-20.91280739280505
 20
35.47781604057607
 30
0.0
 10
-20.87712842697424
 20
35.50089741958641
 30
0.0
 10
-20.85985156921872
 20
35.53256599273487
 30
0.0
 10
-20.86754509342391
 20
35.56078265630711
 30
0.0
 10
-20.87776787611118
 20
35.57418424380944
 30
0.0
 10
-20.8818541006879
 20
35.57855570502394
 30
0.0
  0
LINE
  5
A1
330
1F
100
AcDbEntity
  8
0
  6
Continuous
 62
    18
370
    30
100
AcDbLine
 10
-20.881854
 20
35.578556
 30
0.0
 11
-19.56483
 21
79.106736
 31
0.0
  0
ELLIPSE
  5
A2
330
1F
100
AcDbEntity
  8
0
  6
Continuous
 62
    18
370
    30
100
AcDbEllipse
 10
-19.796962
 20
79.073989
 30
0.0
 11
0.2498856440978549
 21
-0.007560745584910376
 31
0.0
210
0.0
220
0.0
230
-1.0
 40
0.416206
 41
5.891176412237611
 42
7.091133858715379
  0
SPLINE
  5
A3
330
1F
100
AcDbEntity
  8
0
  6
Continuous
 62
    18
370
    30
100
AcDbSpline
210
0.0
220
0.0
230
1.0
 70
     8
 71
     3
 72
     8
 73
     4
 74
     0
 42
0.000000001
 43
0.0
 40
0.142733265228682
 40
0.142733265228682
 40
0.142733265228682
 40
0.142733265228682
 40
5.099019503591424
 40
5.099019503591424
 40
5.099019503591424
 40
5.099019503591424
 10
-23.0204687811934
 20
77.8515925049191
 30
0.0
 10
-24.80666925828204
 20
78.25538278608369
 30
0.0
 10
-26.4725666928686
 20
78.78619246059628
 30
0.0
 10
-27.83274681782369
 20
79.42804356053082
 30
0.0
  0
SPLINE
  5
A4
330
1F
100
AcDbEntity
  8
0
  6
Continuous
 62
    18
370
    30
100
AcDbSpline
210
0.0
220
0.0
230
1.0
 70
     8
 71
     3
 72
     8
 73
     4
 74
     0
 42
0.000000001
 43
0.0
 40
5.099019513591429
 40
5.099019513591429
 40
5.099019513591429
 40
5.099019513591429
 40
10.05530576196185
 40
10.05530576196185
 40
10.05530576196185
 40
10.05530576196185
 10
-27.83274682605672
 20
79.42804356441627
 30
0.0
 10
-29.19292695252487
 20
80.06989466609494
 30
0.0
 10
-30.24738976775318
 20
80.8227871936119
 30
0.0
 10
-30.98199711404077
 20
81.60853295129678
 30
0.0
  0
LINE
  5
A5
330
1F
100
AcDbEntity
  8
0
  6
Continuous
 62
    18
370
    30
100
AcDbLine
 10
-30.920257
 20
81.721686
 30
0.0
 11
-27.805383
 21
82.853058
 31
0.0
  0
SPLINE
  5
A6
330
1F
100
AcDbEntity
  8
0
  6
Continuous
 62
    18
370
    30
100
AcDbSpline
210
0.0
220
0.0
230
1.0
 70
     8
 71
     3
 72
     8
 73
     4
 74
     0
 42
0.000000001
 43
0.0
 40
0.142733265234975
 40
0.142733265234975
 40
0.142733265234975
 40
0.142733265234975
 40
5.099019513594174
 40
5.099019513594174
 40
5.099019513594174
 40
5.099019513594174
 10
-27.52635800326168
 20
82.86367644475419
 30
0.0
 10
-25.74015752257206
 20
82.45988616277472
 30
0.0
 10
-24.07426008486912
 20
81.9290764869344
 30
0.0
 10
-22.7140799584041
 20
81.28722538525719
 30
0.0
  0
SPLINE
  5
A7
330
1F
100
AcDbEntity
  8
0
  6
Continuous
 62
    18
370
    30
100
AcDbSpline
210
0.0
220
0.0
230
1.0
 70
     8
 71
     3
 72
     8
 73
     4
 74
     0
 42
0.000000001
 43
0.0
 40
5.099019513594174
 40
5.099019513594174
 40
5.099019513594174
 40
5.099019513594174
 40
10.0553057619568
 40
10.0553057619568
 40
10.0553057619568
 40
10.0553057619568
 10
-22.7140799584041
 20
81.28722538525756
 30
0.0
 10
-21.35389983193845
 20
80.64537428357983
 30
0.0
 10
-20.29943701671111
 20
79.89248175606485
 30
0.0
 10
-19.56482967042335
 20
79.10673599838123
 30
0.0
  0
ELLIPSE
  5
A8
330
1F
100
AcDbEntity
  8
0
  6
Continuous
 62
    18
370
    30
100
AcDbEllipse
 10
-23.715977
 20
80.92332
 30
0.0
 11
2.048364564316744
 21
-5.639521487825665
 31
0.0
210
0.0
220
0.0
230
1.0
 40
0.62829
 41
2.577104986762946
 42
4.147901313557334
  0
ELLIPSE
  5
A9
330
1F
100
AcDbEntity
  8
0
  6
Continuous
 62
    18
370
    30
100
AcDbEllipse
 10
-26.83085
 20
79.791948
 30
0.0
 11
-2.048364564316744
 21
5.639521487825665
 31
0.0
210
0.0
220
0.0
230
-1.0
 40
0.62829
 41
5.276876637385622
 42
6.847672974006433
  0
LINE
  5
AA
330
1F
100
AcDbEntity
  8
0
  6
Continuous
 62
    18
370
    30
100
AcDbLine
 10
-26.665855
 20
85.245076
 30
0.0
 11
-23.550981
 21
86.376448
 31
0.0
  0
SPLINE
  5
AB
330
1F
100
AcDbEntity
  8
0
  6
Continuous
 62
    18
370
    30
100
AcDbSpline
210
0.0
220
0.0
230
1.0
 70
     8
 71
     3
 72
    16
 73
    12
 74
     0
 42
0.000000001
 43
0.0
 40
0.0
 40
0.0
 40
0.0
 40
0.0
 40
0.044592532255573
 40
0.133777596766719
 40
0.276347266837105
 40
0.424764279721691
 40
0.5752363116615958
 40
0.7236525411072481
 40
0.8662224579329401
 40
0.955407485977647
 40
1.0
 40
1.0
 40
1.0
 40
1.0
 10
-23.02046878120215
 20
77.85159250491867
 30
0.0
 10
-23.01673563456909
 20
77.97527149889751
 30
0.0
 10
-23.01526674857119
 20
78.35089774444825
 30
0.0
 10
-23.07268057286466
 20
79.15251822510552
 30
0.0
 10
-23.29461865580201
 20
80.27954027220275
 30
0.0
 10
-23.74756799269117
 20
81.56146934386038
 30
0.0
 10
-24.38491112999826
 20
82.76007455416396
 30
0.0
 10
-25.15491490800314
 20
83.77943709968352
 30
0.0
 10
-25.90063054369857
 20
84.47261386762602
 30
0.0
 10
-26.47003989537039
 20
84.85023324088667
 30
0.0
 10
-26.74787830861753
 20
84.99453539923309
 30
0.0
 10
-26.84062087370397
 20
85.0383185741793
 30
0.0
  0
SPLINE
  5
AC
330
1F
100
AcDbEntity
  8
0
  6
Continuous
 62
    18
370
    30
100
AcDbSpline
210
0.0
220
0.0
230
1.0
 70
     8
 71
     3
 72
    16
 73
    12
 74
     0
 42
0.000000001
 43
0.0
 40
0.0
 40
0.0
 40
0.0
 40
0.0
 40
0.04459253225554
 40
0.13377759676662
 40
0.276347266837078
 40
0.424764279721811
 40
0.57523631166175
 40
0.723652541107336
 40
0.8662224579329862
 40
0.955407485977662
 40
1.0
 40
1.0
 40
1.0
 40
1.0
 10
-26.84062087369851
 20
85.03831857419664
 30
0.0
 10
-26.93337152597501
 20
85.08207564266021
 30
0.0
 10
-27.21201721148599
 20
85.2003729182249
 30
0.0
 10
-27.78788587695173
 20
85.36320340476126
 30
0.0
 10
-28.553987506452
 20
85.38331738316671
 30
0.0
 10
-29.36333880558594
 20
85.10952381870712
 30
0.0
 10
-30.05406492120146
 20
84.53725441284362
 30
0.0
 10
-30.57080280428629
 20
83.71314093328147
 30
0.0
 10
-30.85361193421924
 20
82.82422619906473
 30
0.0
 10
-30.9572842889966
 20
82.09862861558565
 30
0.0
 10
-30.97824844543128
 20
81.73220284093696
 30
0.0
 10
-30.98199711404082
 20
81.60853295129726
 30
0.0
  0
ELLIPSE
  5
AD
330
1F
100
AcDbEntity
  8
0
  6
Continuous
 62
    18
370
    30
100
AcDbEllipse
 10
-23.715977
 20
80.92332
 30
0.0
 11
2.048364564357278
 21
-5.639521487810217
 31
0.0
210
0.0
220
0.0
230
1.0
 40
0.62829
 41
1.006308649675478
 42
2.57710498675918
  0
ELLIPSE
  5
AE
330
1F
100
AcDbEntity
  8
0
  6
Continuous
 62
    18
370
    30
100
AcDbEllipse
 10
-26.83085
 20
79.791948
 30
0.0
 11
-2.048364564357278
 21
5.639521487810217
 31
0.0
210
0.0
220
0.0
230
-1.0
 40
0.62829
 41
0.564487666832215
 42
2.135283993623716
  0
LINE
  5
AF
330
1F
100
AcDbEntity
  8
0
  6
Continuous
 62
    18
370
    30
100
AcDbLine
 10
-22.741444
 20
77.862211
 30
0.0
 11
-19.62657
 21
78.993583
 31
0.0
  0
SPLINE
  5
B0
330
1F
100
AcDbEntity
  8
0
  6
Continuous
 62
    18
370
    30
100
AcDbSpline
210
0.0
220
0.0
230
1.0
 70
     8
 71
     3
 72
    16
 73
    12
 74
     0
 42
0.000000001
 43
0.0
 40
0.0
 40
0.0
 40
0.0
 40
0.0
 40
0.044592532255553
 40
0.13377759676666
 40
0.276347266837119
 40
0.424764279721824
 40
0.5752363116617191
 40
0.7236525411072771
 40
0.8662224579329341
 40
0.9554074859776451
 40
1.0
 40
1.0
 40
1.0
 40
1.0
 10
-27.52635800326168
 20
82.86367644475496
 30
0.0
 10
-27.52260695347381
 20
82.98735139152856
 30
0.0
 10
-27.5016233036748
 20
83.35378520108063
 30
0.0
 10
-27.3980006127084
 20
84.07937548258076
 30
0.0
 10
-27.1150680382846
 20
84.9682315032457
 30
0.0
 10
-26.59838786051601
 20
85.79261759038135
 30
0.0
 10
-25.90747397266357
 20
86.36453374652578
 30
0.0
 10
-25.09833604236483
 20
86.63856466625657
 30
0.0
 10
-24.33225906628796
 20
86.61832354902111
 30
0.0
 10
-23.75635068525752
 20
86.45551907976835
 30
0.0
 10
-23.47772523790989
 20
86.33721517046484
 30
0.0
 10
-23.38498176292966
 20
86.29346206764603
 30
0.0
  0
SPLINE
  5
B1
330
1F
100
AcDbEntity
  8
0
  6
Continuous
 62
    18
370
    30
100
AcDbSpline
210
0.0
220
0.0
230
1.0
 70
     8
 71
     3
 72
    16
 73
    12
 74
     0
 42
0.000000001
 43
0.0
 40
0.0
 40
0.0
 40
0.0
 40
0.0
 40
0.044592532255528
 40
0.133777596766583
 40
0.276347266837087
 40
0.424764279721934
 40
0.575236311661859
 40
0.7236525411073169
 40
0.8662224579329129
 40
0.955407485977638
 40
1.0
 40
1.0
 40
1.0
 40
1.0
 10
-23.38498176293403
 20
86.29346206766027
 30
0.0
 10
-23.29223162036435
 20
86.24968815328688
 30
0.0
 10
-23.01437230254241
 20
86.10539381471605
 30
0.0
 10
-22.44500320137205
 20
85.72776334460491
 30
0.0
 10
-21.69926779384069
 20
85.03453670625868
 30
0.0
 10
-20.92903763149125
 20
84.01537196358245
 30
0.0
 10
-20.29189801249133
 20
82.81659822175865
 30
0.0
 10
-19.83888136036801
 20
81.5347145142639
 30
0.0
 10
-19.61706965213635
 20
80.40765425094162
 30
0.0
 10
-19.55960581746909
 20
79.60605253766761
 30
0.0
 10
-19.56109414570675
 20
79.23041994690405
 30
0.0
 10
-19.56482967041426
 20
79.10673599837216
 30
0.0
  0
ARC
  5
B2
330
1F
100
AcDbEntity
  8
0
  6
Continuous
 62
    18
370
    30
100
AcDbCircle
 10
-23.502316
 20
86.266274
 30
0.0
 40
0.1204434310621403
100
AcDbArc
 50
13.045963
 51
113.831369
  0
SPLINE
  5
B3
330
1F
100
AcDbEntity
  8
0
  6
Continuous
 62
    18
370
    30
100
AcDbSpline
210
0.0
220
0.0
230
1.0
 70
     8
 71
     3
 72
    11
 73
     7
 74
     0
 42
0.000000001
 43
0.0
 40
0.0
 40
0.0
 40
0.0
 40
0.0
 40
0.074728338353977
 40
0.149447765311876
 40
0.224158280873711
 40
0.29885988503949
 40
0.29885988503949
 40
0.29885988503949
 40
0.29885988503949
 10
-26.66585467037002
 20
85.2450763469796
 30
0.0
 10
-26.68406650530987
 20
85.23846151672774
 30
0.0
 10
-26.72092757931755
 20
85.21828527760647
 30
0.0
 10
-26.77174054466478
 20
85.17016483889316
 30
0.0
 10
-26.81373874431198
 20
85.10848832350555
 30
0.0
 10
-26.83338262494622
 20
85.06181255514232
 30
0.0
 10
-26.84062087370397
 20
85.0383185741793
 30
0.0
  0
SPLINE
  5
B4
330
1F
100
AcDbEntity
  8
0
  6
Continuous
 62
    18
370
    30
100
AcDbSpline
210
0.0
220
0.0
230
1.0
 70
     8
 71
     3
 72
    16
 73
    12
 74
     0
 42
0.000000001
 43
0.0
 40
0.000000002807287
 40
0.000000002807287
 40
0.000000002807287
 40
0.000000002807287
 40
0.047599620279615
 40
0.142798860838844
 40
0.285772078867519
 40
0.428695799851689
 40
0.571584324702741
 40
0.714494477924885
 40
0.857434593082553
 40
0.9524781976941841
 40
0.999999930846433
 40
0.999999930846433
 40
0.999999930846433
 40
0.999999930846433
 10
-20.94359537949798
 20
35.46538236170446
 30
0.0
 10
-20.94391506007894
 20
35.4322465274835
 30
0.0
 10
-20.94483775872219
 20
35.3328533692667
 30
0.0
 10
-20.92926507353575
 20
35.14086450483501
 30
0.0
 10
-20.87512749531878
 20
34.90583542193735
 30
0.0
 10
-20.77138069249308
 20
34.67770346788444
 30
0.0
 10
-20.63004636343815
 20
34.49226776398373
 30
0.0
 10
-20.4566692868505
 20
34.35356881332325
 30
0.0
 10
-20.27987801689328
 20
34.27349711604933
 30
0.0
 10
-20.135910201084
 20
34.24149971250594
 30
0.0
 10
-20.06144385641663
 20
34.23422565715026
 30
0.0
 10
-20.03635200854494
 20
34.23278192853851
 30
0.0
  0
SPLINE
  5
B5
330
1F
100
AcDbEntity
  8
0
  6
Continuous
 62
    18
370
    30
100
AcDbSpline
210
0.0
220
0.0
230
1.0
 70
     8
 71
     3
 72
    16
 73
    12
 74
     0
 42
0.000000001
 43
0.0
 40
0.000000002807128
 40
0.000000002807128
 40
0.000000002807128
 40
0.000000002807128
 40
0.0475996205758
 40
0.142798861727399
 40
0.285772080049584
 40
0.428695800376455
 40
0.5715843226964219
 40
0.714494472552899
 40
0.857434588455324
 40
0.952478196151775
 40
0.9999999305324151
 40
0.9999999305324151
 40
0.9999999305324151
 40
0.9999999305324151
 10
-24.05848732902852
 20
34.33399492152429
 30
0.0
 10
-24.06018800508808
 20
34.3003575452577
 30
0.0
 10
-24.06532630773039
 20
34.19943338503217
 30
0.0
 10
-24.09299223766656
 20
33.99173990572487
 30
0.0
 10
-24.16271315675856
 20
33.71172383756169
 30
0.0
 10
-24.28272382538243
 20
33.40231991728396
 30
0.0
 10
-24.43854475678067
 20
33.10895282267958
 30
0.0
 10
-24.62426085120568
 20
32.83982543786487
 30
0.0
 10
-24.80987985065489
 20
32.62812030725041
 30
0.0
 10
-24.95900459318453
 20
32.48966671012118
 30
0.0
 10
-25.03557075005078
 20
32.42753505441908
 30
0.0
 10
-25.06130850953973
 20
32.40762913545123
 30
0.0
  0
SPLINE
  5
B6
330
1F
100
AcDbEntity
  8
0
  6
Continuous
 62
    18
370
    30
100
AcDbSpline
210
0.0
220
0.0
230
1.0
 70
    12
 71
     2
 72
     8
 73
     5
 74
     0
 42
0.000000001
 43
0.0
 40
0.0
 40
0.0
 40
0.0
 40
0.5
 40
0.5
 40
1.0
 40
1.0
 40
1.0
 10
-22.55805499524119
 20
33.0150080821499
 30
0.0
 41
1.0
 10
-15.35535946561207
 20
35.63114250464321
 30
0.0
 41
0.707106781186548
 10
-15.62622703095404
 20
26.67892426731621
 30
0.0
 41
1.0
 10
-15.89709459629601
 20
17.7267060299892
 30
0.0
 41
0.707106781186548
 10
-23.09979012592525
 20
15.11057160749596
 30
0.0
 41
1.0
  0
SPLINE
  5
B7
330
1F
100
AcDbEntity
  8
0
  6
Continuous
 62
    18
370
    30
100
AcDbSpline
210
0.0
220
0.0
230
1.0
 70
    12
 71
     2
 72
     8
 73
     5
 74
     0
 42
0.000000001
 43
0.0
 40
0.0
 40
0.0
 40
0.0
 40
0.5
 40
0.5
 40
1.0
 40
1.0
 40
1.0
 10
-23.09979012592525
 20
15.11057160749596
 30
0.0
 41
1.0
 10
-30.30248565555437
 20
12.49443718500274
 30
0.0
 41
0.707106781186548
 10
-30.0316180902124
 20
21.44665542232977
 30
0.0
 41
1.0
 10
-29.76075052487031
 20
30.39887365965672
 30
0.0
 41
0.707106781186548
 10
-22.55805499524119
 20
33.0150080821499
 30
0.0
 41
1.0
  0
ARC
  5
B8
330
1F
100
AcDbEntity
  8
0
  6
Continuous
 62
    18
370
     0
100
AcDbCircle
 10
-27.472907
 20
29.844486
 30
0.0
 40
9.536980580849221
100
AcDbArc
 50
110.146191
 51
120.048127
  0
ARC
  5
B9
330
1F
100
AcDbEntity
  8
0
  6
Continuous
 62
    18
370
     0
100
AcDbCircle
 10
-27.841938
 20
29.872128
 30
0.0
 40
9.147827591347987
100
AcDbArc
 50
110.146191
 51
120.048127
  0
ARC
  5
BA
330
1F
100
AcDbEntity
  8
0
  6
Continuous
 62
    18
370
     0
100
AcDbCircle
 10
-28.272111
 20
29.977233
 30
0.0
 40
8.887803876830034
100
AcDbArc
 50
110.146191
 51
120.048127
  0
SPLINE
  5
BB
330
1F
100
AcDbEntity
  8
0
  6
Continuous
 62
    18
370
     0
100
AcDbSpline
210
0.0
220
0.0
230
1.0
 70
     8
 71
     3
 72
    11
 73
     7
 74
     0
 42
0.000000001
 43
0.0
 40
0.0
 40
0.0
 40
0.0
 40
0.0
 40
0.5852709660483841
 40
1.17054193209677
 40
1.755812898145157
 40
2.341083864193541
 40
2.341083864193541
 40
2.341083864193541
 40
2.341083864193541
 10
-31.05546374207107
 20
39.13046661469008
 30
0.0
 10
-31.05471883753391
 20
38.95553766712101
 30
0.0
 10
-31.10641464892124
 20
38.62695565792274
 30
0.0
 10
-31.33203358127882
 20
38.2872678571039
 30
0.0
 10
-31.67057340309201
 20
38.14829783234754
 30
0.0
 10
-31.93912071297761
 20
38.20517108057976
 30
0.0
 10
-32.0720879847659
 20
38.26791658628431
 30
0.0
  0
SPLINE
  5
BC
330
1F
100
AcDbEntity
  8
0
  6
Continuous
 62
    18
370
     0
100
AcDbSpline
210
0.0
220
0.0
230
1.0
 70
     8
 71
     3
 72
    11
 73
     7
 74
     0
 42
0.000000001
 43
0.0
 40
0.0
 40
0.0
 40
0.0
 40
0.0
 40
0.5852709660483841
 40
1.17054193209677
 40
1.755812898145157
 40
2.341083864193541
 40
2.341083864193541
 40
2.341083864193541
 40
2.341083864193541
 10
-31.44684504616218
 20
38.95745124008633
 30
0.0
 10
-31.43999176525334
 20
38.7852225825288
 30
0.0
 10
-31.47933710424881
 20
38.46210026592465
 30
0.0
 10
-31.68934531921421
 20
38.12931339289472
 30
0.0
 10
-32.01743299117929
 20
37.99496388169504
 30
0.0
 10
-32.28353626057775
 20
38.05291755092841
 30
0.0
 10
-32.41650353236609
 20
38.11566305663303
 30
0.0
  0
SPLINE
  5
BD
330
1F
100
AcDbEntity
  8
0
  6
Continuous
 62
    18
370
     0
100
AcDbSpline
210
0.0
220
0.0
230
1.0
 70
     8
 71
     3
 72
    11
 73
     7
 74
     0
 42
0.000000001
 43
0.0
 40
0.0
 40
0.0
 40
0.0
 40
0.0
 40
0.5852709660483841
 40
1.17054193209677
 40
1.755812898145157
 40
2.341083864193541
 40
2.341083864193541
 40
2.341083864193541
 40
2.341083864193541
 10
-31.83742184413812
 20
38.76421795671047
 30
0.0
 10
-31.82447274296617
 20
38.59500513463126
 30
0.0
 10
-31.85149299665515
 20
38.27798050922124
 30
0.0
 10
-32.04592258292932
 20
37.95290097976132
 30
0.0
 10
-32.3635795900236
 20
37.8237119174957
 30
0.0
 10
-32.62724384279657
 20
37.88287226155776
 30
0.0
 10
-32.76021111458492
 20
37.94561776726226
 30
0.0
  0
SPLINE
  5
BE
330
1F
100
AcDbEntity
  8
0
  6
Continuous
 62
    18
370
     0
100
AcDbSpline
210
0.0
220
0.0
230
1.0
 70
     8
 71
     3
 72
    19
 73
    15
 74
     0
 42
0.000000001
 43
0.0
 40
0.0102767174657937
 40
0.0102767174657937
 40
0.0102767174657937
 40
0.0102767174657937
 40
0.7789572452960518
 40
1.55888044428416
 40
3.119370864347344
 40
4.680034998686098
 40
6.239872142834051
 40
7.798763126876506
 40
9.3592426135663
 40
10.9210039484179
 40
11.70107763625192
 40
12.09152347847426
 40
12.28877452038433
 40
12.36969272938837
 40
12.36969272938837
 40
12.36969272938837
 40
12.36969272938837
 10
-32.40345824466578
 20
37.66069834616412
 30
0.0
 10
-32.31158322200044
 20
37.53681010118198
 30
0.0
 10
-32.11636383539934
 20
37.2897422760738
 30
0.0
 10
-31.68565893913136
 20
36.80504117206323
 30
0.0
 10
-31.07069532634198
 20
36.2253032285972
 30
0.0
 10
-30.21470632047088
 20
35.59574531141806
 30
0.0
 10
-29.24032835225823
 20
35.05131920183319
 30
0.0
 10
-28.14687942534731
 20
34.61568464362838
 30
0.0
 10
-26.95406983994711
 20
34.27943946580228
 30
0.0
 10
-25.89134953552535
 20
34.0700493249953
 30
0.0
 10
-25.11733136667731
 20
33.95123830108193
 30
0.0
 10
-24.72231217367202
 20
33.89944011047101
 30
0.0
 10
-24.52894754595536
 20
33.8773365946408
 30
0.0
 10
-24.44832851955095
 20
33.86865011475224
 30
0.0
 10
-24.42486818310419
 20
33.86614877695958
 30
0.0
  0
SPLINE
  5
BF
330
1F
100
AcDbEntity
  8
0
  6
Continuous
 62
    18
370
     0
100
AcDbSpline
210
0.0
220
0.0
230
1.0
 70
     8
 71
     3
 72
    18
 73
    14
 74
     0
 42
0.000000001
 43
0.0
 40
0.0102698520650395
 40
0.0102698520650395
 40
0.0102698520650395
 40
0.0102698520650395
 40
0.7789572452960518
 40
1.55888044428416
 40
3.119370864347344
 40
4.680034998686098
 40
6.239872142834051
 40
7.798763126876506
 40
9.3592426135663
 40
10.9210039484179
 40
11.70107763625192
 40
12.09152347847426
 40
12.2106804784313
 40
12.2106804784313
 40
12.2106804784313
 40
12.2106804784313
 10
-32.63996699751137
 20
37.26635901048068
 30
0.0
 10
-32.54439602327022
 20
37.14315371932484
 30
0.0
 10
-32.34198266968814
 20
36.897437508047
 30
0.0
 10
-31.89651383447868
 20
36.41375588069886
 30
0.0
 10
-31.26273430224181
 20
35.83316639199441
 30
0.0
 10
-30.38294568115599
 20
35.1992228803131
 30
0.0
 10
-29.38418648433434
 20
34.646445793194
 30
0.0
 10
-28.26742306391223
 20
34.19737372884364
 30
0.0
 10
-27.05305347726475
 20
33.84440933778407
 30
0.0
 10
-25.9745056693997
 20
33.61887499674216
 30
0.0
 10
-25.19098931763828
 20
33.48858368600838
 30
0.0
 10
-24.81467805526486
 20
33.43357472033862
 30
0.0
 10
-24.66472075625751
 20
33.414165752655
 30
0.0
 10
-24.62959261790387
 20
33.40972703167765
 30
0.0
  0
SPLINE
  5
C0
330
1F
100
AcDbEntity
  8
0
  6
Continuous
 62
    18
370
     0
100
AcDbSpline
210
0.0
220
0.0
230
1.0
 70
     8
 71
     3
 72
    17
 73
    13
 74
     0
 42
0.000000001
 43
0.0
 40
0.0102629866642854
 40
0.0102629866642854
 40
0.0102629866642854
 40
0.0102629866642854
 40
0.7789572452960518
 40
1.55888044428416
 40
3.119370864347344
 40
4.680034998686098
 40
6.239872142834051
 40
7.798763126876506
 40
9.3592426135663
 40
10.9210039484179
 40
11.70107763625192
 40
12.02176096320639
 40
12.02176096320639
 40
12.02176096320639
 40
12.02176096320639
 10
-32.98434602222278
 20
36.93513081961959
 30
0.0
 10
-32.88328552055381
 20
36.81061326374335
 30
0.0
 10
-32.67012221707898
 20
36.56237290071971
 30
0.0
 10
-32.20334160695613
 20
36.07302231892285
 30
0.0
 10
-31.54333611638332
 20
35.48451930314411
 30
0.0
 10
-30.63186552515229
 20
34.84011019123886
 30
0.0
 10
-29.60233075307035
 20
34.27573318529841
 30
0.0
 10
-28.45799703419844
 20
33.81193241703016
 30
0.0
 10
-27.21878896872651
 20
33.44269418953874
 30
0.0
 10
-26.12191440467312
 20
33.20323741660096
 30
0.0
 10
-25.34726618400637
 20
33.06742023347586
 30
0.0
 10
-25.02239046094734
 20
33.01604217447568
 30
0.0
 10
-24.92694970206233
 20
33.00193466836906
 30
0.0
  0
SPLINE
  5
C1
330
1F
100
AcDbEntity
  8
0
  6
Continuous
 62
    18
370
     0
100
AcDbSpline
210
0.0
220
0.0
230
1.0
 70
     8
 71
     3
 72
    11
 73
     7
 74
     0
 42
0.000000001
 43
0.0
 40
0.0000240903387826
 40
0.0000240903387826
 40
0.0000240903387826
 40
0.0000240903387826
 40
0.457605257120869
 40
0.915261454814751
 40
1.372968593081654
 40
1.83068177533638
 40
1.83068177533638
 40
1.83068177533638
 40
1.83068177533638
 10
-30.96129148479415
 20
36.63475317153266
 30
0.0
 10
-30.97114464067844
 20
36.50393449960185
 30
0.0
 10
-31.02933335283397
 20
36.2315126957571
 30
0.0
 10
-31.22396640736012
 20
35.83314995689153
 30
0.0
 10
-31.50834083699872
 20
35.47910646236419
 30
0.0
 10
-31.74188614971682
 20
35.29331562633153
 30
0.0
 10
-31.86347603234988
 20
35.21769643244018
 30
0.0
  0
SPLINE
  5
C2
330
1F
100
AcDbEntity
  8
0
  6
Continuous
 62
    18
370
     0
100
AcDbSpline
210
0.0
220
0.0
230
1.0
 70
     8
 71
     3
 72
    11
 73
     7
 74
     0
 42
0.000000001
 43
0.0
 40
0.0000047049603169
 40
0.0000047049603169
 40
0.0000047049603169
 40
0.0000047049603169
 40
0.457605257120869
 40
0.915261454814751
 40
1.372968593081654
 40
1.83050699706517
 40
1.83050699706517
 40
1.83050699706517
 40
1.83050699706517
 10
-29.1606406515256
 20
35.47461512593733
 30
0.0
 10
-29.16454074411329
 20
35.34335715104328
 30
0.0
 10
-29.20328882842223
 20
35.06798846485387
 30
0.0
 10
-29.34932187187148
 20
34.65676306556816
 30
0.0
 10
-29.57078193879934
 20
34.28039589178711
 30
0.0
 10
-29.75714554785582
 20
34.07322928475736
 30
0.0
 10
-29.85537463433238
 20
33.98553501205297
 30
0.0
  0
SPLINE
  5
C3
330
1F
100
AcDbEntity
  8
0
  6
Continuous
 62
    18
370
     0
100
AcDbSpline
210
0.0
220
0.0
230
1.0
 70
     8
 71
     3
 72
    11
 73
     7
 74
     0
 42
0.000000001
 43
0.0
 40
0.0001942219398047
 40
0.0001942219398047
 40
0.0001942219398047
 40
0.0001942219398047
 40
0.457605257120869
 40
0.915261454814751
 40
1.372968593081654
 40
1.830722814891362
 40
1.830722814891362
 40
1.830722814891362
 40
1.830722814891362
 10
-26.91636521023361
 20
34.7239670526955
 30
0.0
 10
-26.91131339014238
 20
34.58614908316738
 30
0.0
 10
-26.92739224112378
 20
34.29418272442571
 30
0.0
 10
-27.02831350344933
 20
33.85249923052837
 30
0.0
 10
-27.19682835393008
 20
33.44478624243249
 30
0.0
 10
-27.34498776090456
 20
33.21926045554287
 30
0.0
 10
-27.42409841420557
 20
33.12381806977954
 30
0.0
  0
LINE
  5
C4
330
1F
100
AcDbEntity
  8
0
  6
Continuous
 62
    18
370
     0
100
AcDbLine
 10
-60.336411
 20
44.182431
 30
0.0
 11
-28.473118
 21
29.146563
 31
0.0
  0
LINE
  5
C5
330
1F
100
AcDbEntity
  8
0
  6
Continuous
 62
    18
370
     0
100
AcDbLine
 10
-62.906226
 20
36.257493
 30
0.0
 11
-31.042934
 21
21.221624
 31
0.0
  0
LINE
  5
C6
330
1F
100
AcDbEntity
  8
0
  6
Continuous
 62
    18
370
     0
100
AcDbLine
 10
-60.764199
 20
30.043971
 30
0.0
 11
-28.900906
 21
15.008102
 31
0.0
  0
LINE
  5
C7
330
1F
100
AcDbEntity
  8
0
  6
Continuous
 62
    18
370
     0
100
AcDbLine
 10
-30.998982
 20
81.639252
 30
0.0
 11
-32.313926
 21
38.180447
 31
0.0
  0
LINE
  5
C8
330
1F
100
AcDbEntity
  8
0
  6
Continuous
 62
    18
370
     0
100
AcDbLine
 10
-30.993716
 20
81.670152
 30
0.0
 11
-32.305779
 21
38.306555
 31
0.0
  0
LINE
  5
C9
330
1F
100
AcDbEntity
  8
0
  6
Continuous
 62
    18
370
     0
100
AcDbLine
 10
-30.966669
 20
81.698473
 30
0.0
 11
-32.275666
 21
38.436203
 31
0.0
  0
SPLINE
  5
CA
330
1F
100
AcDbEntity
  8
0
  6
Continuous
 62
    18
370
     0
100
AcDbSpline
210
0.0
220
0.0
230
1.0
 70
     8
 71
     3
 72
    21
 73
    17
 74
     0
 42
0.000000001
 43
0.0
 40
0.0000451958507943
 40
0.0000451958507943
 40
0.0000451958507943
 40
0.0000451958507943
 40
1.916228057630582
 40
3.832456115261163
 40
5.748684172891748
 40
7.664912230522335
 40
9.581140288152913
 40
11.4973683457835
 40
15.31499192676657
 40
19.13261550774964
 40
21.04884356538022
 40
22.9650716230108
 40
24.88129968064139
 40
26.79752773827197
 40
28.71375579590255
 40
30.62998385353313
 40
30.62998385353313
 40
30.62998385353313
 40
30.62998385353313
 10
-25.21442384055127
 20
32.63686288157295
 30
0.0
 10
-25.66590159045936
 20
32.28802432285357
 30
0.0
 10
-26.54727031878782
 20
31.50052347876353
 30
0.0
 10
-27.75606883151237
 20
30.09221874106686
 30
0.0
 10
-28.81629593731832
 20
28.49874439793425
 30
0.0
 10
-29.69465009322037
 20
26.76995297704624
 30
0.0
 10
-30.36406817274398
 20
24.95849319459225
 30
0.0
 10
-30.94960665420375
 20
22.51569282307648
 30
0.0
 10
-31.07431401477338
 20
19.52370313073345
 30
0.0
 10
-30.3604023275244
 20
17.00445211785626
 30
0.0
 10
-29.34879984289351
 20
15.46197748207763
 30
0.0
 10
-28.39017291658159
 20
14.56826437872877
 30
0.0
 10
-27.26303334624571
 20
13.96999158639414
 30
0.0
 10
-26.00198512494966
 20
13.68504539518642
 30
0.0
 10
-24.64658692159507
 20
13.72220052396597
 30
0.0
 10
-23.70658982829194
 20
13.96142226495112
 30
0.0
 10
-23.23607670968634
 20
14.13232016848679
 30
0.0
  0
SPLINE
  5
CB
330
1F
100
AcDbEntity
  8
0
  6
Continuous
 62
    18
370
     0
100
AcDbSpline
210
0.0
220
0.0
230
1.0
 70
     8
 71
     3
 72
    21
 73
    17
 74
     0
 42
0.000000001
 43
0.0
 40
0.0000905579519488
 40
0.0000905579519488
 40
0.0000905579519488
 40
0.0000905579519488
 40
1.916228057630582
 40
3.832456115261163
 40
5.748684172891748
 40
7.664912230522335
 40
9.581140288152913
 40
11.4973683457835
 40
15.31499192676657
 40
19.13261550774964
 40
21.04884356538022
 40
22.9650716230108
 40
24.88129968064139
 40
26.79752773827197
 40
28.71375579590255
 40
30.62998385353313
 40
30.62998385353313
 40
30.62998385353313
 40
30.62998385353313
 10
-25.14792282959301
 20
32.56868300956807
 30
0.0
 10
-25.5971613065047
 20
32.2215721376051
 30
0.0
 10
-26.47416904140269
 20
31.43796525332819
 30
0.0
 10
-27.67699241066741
 20
30.03662182701169
 30
0.0
 10
-28.73198709280761
 20
28.45101158470996
 30
0.0
 10
-29.6060064028574
 20
26.73075208032753
 30
0.0
 10
-30.27212077605013
 20
24.92823219856388
 30
0.0
 10
-30.85476951304791
 20
22.49748751436687
 30
0.0
 10
-30.97886141892739
 20
19.52026386374075
 30
0.0
 10
-30.26847302247829
 20
17.01344583672804
 30
0.0
 10
-29.26186298970229
 20
15.47858360846453
 30
0.0
 10
-28.30796707072646
 20
14.58928115031287
 30
0.0
 10
-27.1863901498741
 20
13.9939609487017
 30
0.0
 10
-25.93156544288034
 20
13.71042102147837
 30
0.0
 10
-24.58285638904566
 20
13.74739278258696
 30
0.0
 10
-23.64749836128765
 20
13.98543391849992
 30
0.0
 10
-23.17930731496573
 20
14.15548840817638
 30
0.0
  0
SPLINE
  5
CC
330
1F
100
AcDbEntity
  8
0
  6
Continuous
 62
    18
370
     0
100
AcDbSpline
210
0.0
220
0.0
230
1.0
 70
     8
 71
     3
 72
    21
 73
    17
 74
     0
 42
0.000000001
 43
0.0
 40
0.0001359200531028
 40
0.0001359200531028
 40
0.0001359200531028
 40
0.0001359200531028
 40
1.916228057630582
 40
3.832456115261163
 40
5.748684172891748
 40
7.664912230522335
 40
9.581140288152913
 40
11.4973683457835
 40
15.31499192676657
 40
19.13261550774964
 40
21.04884356538022
 40
22.9650716230108
 40
24.88129968064139
 40
26.79752773827197
 40
28.71375579590255
 40
30.62998385353313
 40
30.62998385353313
 40
30.62998385353313
 40
30.62998385353313
 10
-25.09417544014733
 20
32.48826715646081
 30
0.0
 10
-25.54006830776355
 20
32.14373882983397
 30
0.0
 10
-26.41055511888133
 20
31.36595583627755
 30
0.0
 10
-27.60444090843332
 20
29.97502509306781
 30
0.0
 10
-28.65160471516275
 20
28.40118430938782
 30
0.0
 10
-29.51913646992971
 20
26.69369372041425
 30
0.0
 10
-30.18030649718951
 20
24.90455334554147
 30
0.0
 10
-30.75863042597261
 20
22.4918512724586
 30
0.0
 10
-30.88180123881641
 20
19.53672656495777
 30
0.0
 10
-30.17668581968177
 20
17.0485158162368
 30
0.0
 10
-29.17754751912138
 20
15.52504636092826
 30
0.0
 10
-28.23073205298867
 20
14.64234489979592
 30
0.0
 10
-27.11748022540864
 20
14.05144356247595
 30
0.0
 10
-25.87196966578374
 20
13.77000825803572
 30
0.0
 10
-24.53327163166755
 20
13.80670559003121
 30
0.0
 10
-23.60485645613811
 20
14.04297982558953
 30
0.0
 10
-23.1401406365773
 20
14.21177205722415
 30
0.0
  0
ARC
  5
CD
330
1F
100
AcDbEntity
  8
0
  6
Continuous
 62
    18
370
     0
100
AcDbCircle
 10
-26.963276
 20
32.722775
 30
0.0
 40
6.540148013149055
100
AcDbArc
 50
244.937876
 51
248.028395
  0
SPLINE
  5
CE
330
1F
100
AcDbEntity
  8
0
  6
Continuous
 62
    18
370
     0
100
AcDbSpline
210
0.0
220
0.0
230
1.0
 70
     8
 71
     3
 72
    11
 73
     7
 74
     0
 42
0.000000001
 43
0.0
 40
0.0
 40
0.0
 40
0.0
 40
0.0
 40
0.097545161008066
 40
0.19509032201613
 40
0.2926354830241921
 40
0.3897363615593979
 40
0.3897363615593979
 40
0.3897363615593979
 40
0.3897363615593979
 10
-30.98574321278959
 20
19.64115881760731
 30
0.0
 10
-30.96358200082487
 20
19.63070123332324
 30
0.0
 10
-30.90932889661296
 20
19.61488169216392
 30
0.0
 10
-30.81229846933705
 20
19.61092695622645
 30
0.0
 10
-30.71419606466124
 20
19.62701765032744
 30
0.0
 10
-30.65770655812667
 20
19.64966105825818
 30
0.0
 10
-30.63416438997039
 20
19.66289040855652
 30
0.0
  0
SPLINE
  5
CF
330
1F
100
AcDbEntity
  8
0
  6
Continuous
 62
    18
370
     0
100
AcDbSpline
210
0.0
220
0.0
230
1.0
 70
     8
 71
     3
 72
    11
 73
     7
 74
     0
 42
0.000000001
 43
0.0
 40
0.0
 40
0.0
 40
0.0
 40
0.0
 40
0.097545161008066
 40
0.19509032201613
 40
0.2926354830241921
 40
0.3901619597844634
 40
0.3901619597844634
 40
0.3901619597844634
 40
0.3901619597844634
 10
-28.43265591303735
 20
14.62892962289274
 30
0.0
 10
-28.41049470107258
 20
14.61847203860856
 30
0.0
 10
-28.3592611318242
 20
14.60858045819708
 30
0.0
 10
-28.27514400613914
 20
14.62997715745749
 30
0.0
 10
-28.19618402574647
 20
14.6839522866292
 30
0.0
 10
-28.15484735168604
 20
14.73662378502004
 30
0.0
 10
-28.13878817283007
 20
14.76474106623948
 30
0.0
  0
LINE
  5
D0
330
1F
100
AcDbEntity
  8
0
  6
Continuous
 62
    18
370
     0
100
AcDbLine
 10
-24.266153
 20
34.312422
 30
0.0
 11
-22.94911
 21
77.840623
 31
0.0
  0
LINE
  5
D1
330
1F
100
AcDbEntity
  8
0
  6
Continuous
 62
    18
370
     0
100
AcDbLine
 10
-24.191465
 20
34.310557
 30
0.0
 11
-22.874422
 21
77.838764
 31
0.0
  0
LINE
  5
D2
330
1F
100
AcDbEntity
  8
0
  6
Continuous
 62
    18
370
     0
100
AcDbLine
 10
-24.120119
 20
34.317969
 30
0.0
 11
-22.803075
 21
77.846181
 31
0.0
  0
SPLINE
  5
D3
330
1F
100
AcDbEntity
  8
0
  6
Continuous
 62
    18
370
     0
100
AcDbSpline
210
0.0
220
0.0
230
1.0
 70
     8
 71
     3
 72
    19
 73
    15
 74
     0
 42
0.000000001
 43
0.0
 40
0.0102767176018012
 40
0.0102767176018012
 40
0.0102767176018012
 40
0.0102767176018012
 40
0.7789571841928791
 40
1.558880320254069
 40
3.119370615985988
 40
4.680034628457181
 40
6.239871668358804
 40
7.798762556643865
 40
9.359241931935944
 40
10.92100314127455
 40
11.70107676862516
 40
12.09152257861108
 40
12.28877360494659
 40
12.36969213718374
 40
12.36969213718374
 40
12.36969213718374
 40
12.36969213718374
 10
-28.87145719653396
 20
38.94358554477184
 30
0.0
 10
-28.64778483437569
 20
38.86756844768914
 30
0.0
 10
-28.2014248479412
 20
38.711719381954
 30
0.0
 10
-27.32643503439816
 20
38.38839054397337
 30
0.0
 10
-26.27025835588294
 20
37.96890917196046
 30
0.0
 10
-25.08331267645603
 20
37.4595607742755
 30
0.0
 10
-23.9915627166021
 20
36.95776636754636
 30
0.0
 10
-23.01346486133734
 20
36.48023423271371
 30
0.0
 10
-22.15216335138125
 20
36.02357938052566
 30
0.0
 10
-21.53169613596781
 20
35.65355497356211
 30
0.0
 10
-21.1478004102343
 20
35.39304449601332
 30
0.0
 10
-20.9688113131342
 20
35.26278030043997
 30
0.0
 10
-20.88509354553432
 20
35.20085103063269
 30
0.0
 10
-20.85105900370965
 20
35.17524418449361
 30
0.0
 10
-20.84119831736835
 20
35.16780316469746
 30
0.0
  0
SPLINE
  5
D4
330
1F
100
AcDbEntity
  8
0
  6
Continuous
 62
    18
370
     0
100
AcDbSpline
210
0.0
220
0.0
230
1.0
 70
     8
 71
     3
 72
    18
 73
    14
 74
     0
 42
0.000000001
 43
0.0
 40
0.0102698521300962
 40
0.0102698521300962
 40
0.0102698521300962
 40
0.0102698521300962
 40
0.7789571841928791
 40
1.558880320254069
 40
3.119370615985988
 40
4.680034628457181
 40
6.239871668358804
 40
7.798762556643865
 40
9.359241931935944
 40
10.92100314127455
 40
11.70107676862516
 40
12.09152257861108
 40
12.21067996004694
 40
12.21067996004694
 40
12.21067996004694
 40
12.21067996004694
 10
-28.82972874703742
 20
38.6503058202205
 30
0.0
 10
-28.60349683514961
 20
38.57455891219905
 30
0.0
 10
-28.15228142101354
 20
38.41921205428738
 30
0.0
 10
-27.26600767230472
 20
38.09563867767619
 30
0.0
 10
-26.19415957031968
 20
37.67416360432043
 30
0.0
 10
-24.98509788589034
 20
37.15981808866337
 30
0.0
 10
-23.86871853267398
 20
36.64976285528979
 30
0.0
 10
-22.86660598428249
 20
36.15904755863278
 30
0.0
 10
-21.98254147790344
 20
35.68611046401469
 30
0.0
 10
-21.34359405642344
 20
35.30090538911324
 30
0.0
 10
-20.94690371425268
 20
35.03011196220183
 30
0.0
 10
-20.77227643139387
 20
34.90184770988138
 30
0.0
 10
-20.70560604953375
 20
34.85218738707979
 30
0.0
 10
-20.69014081765111
 20
34.84060669026542
 30
0.0
  0
SPLINE
  5
D5
330
1F
100
AcDbEntity
  8
0
  6
Continuous
 62
    18
370
     0
100
AcDbSpline
210
0.0
220
0.0
230
1.0
 70
     8
 71
     3
 72
    17
 73
    13
 74
     0
 42
0.000000001
 43
0.0
 40
0.0102629866583913
 40
0.0102629866583913
 40
0.0102629866583913
 40
0.0102629866583913
 40
0.7789571841928791
 40
1.558880320254069
 40
3.119370615985988
 40
4.680034628457181
 40
6.239871668358804
 40
7.798762556643865
 40
9.359241931935944
 40
10.92100314127455
 40
11.70107676862516
 40
12.02176032871853
 40
12.02176032871853
 40
12.02176032871853
 40
12.02176032871853
 10
-28.72257665271523
 20
38.48308090653843
 30
0.0
 10
-28.49324259007389
 20
38.40515458877837
 30
0.0
 10
-28.0359882725018
 20
38.24557242847802
 30
0.0
 10
-27.1364520332538
 20
37.91340642320961
 30
0.0
 10
-26.04647464011252
 20
37.48107693230708
 30
0.0
 10
-24.81237332943731
 20
36.95385316713853
 30
0.0
 10
-23.66780214046524
 20
36.43125954484557
 30
0.0
 10
-22.6356260698556
 20
35.92672112826321
 30
0.0
 10
-21.72059953998273
 20
35.43973437507418
 30
0.0
 10
-21.05503507674869
 20
35.04361804997413
 30
0.0
 10
-20.65030047453751
 20
34.77344159241119
 30
0.0
 10
-20.49291891907805
 20
34.66122661960323
 30
0.0
 10
-20.44796353514634
 20
34.62878188411728
 30
0.0
  0
SPLINE
  5
D6
330
1F
100
AcDbEntity
  8
0
  6
Continuous
 62
    18
370
     0
100
AcDbSpline
210
0.0
220
0.0
230
1.0
 70
     8
 71
     3
 72
    11
 73
     7
 74
     0
 42
0.000000001
 43
0.0
 40
0.000024090523061
 40
0.000024090523061
 40
0.000024090523061
 40
0.000024090523061
 40
0.457606203270548
 40
0.91526334692384
 40
1.372971430959883
 40
1.830685559354476
 40
1.830685559354476
 40
1.830685559354476
 40
1.830685559354476
 10
-26.27616191719096
 20
38.33647850170076
 30
0.0
 10
-26.28992415197688
 20
38.20423965480894
 30
0.0
 10
-26.29115508018306
 20
37.95250516963669
 30
0.0
 10
-26.21319499854575
 20
37.65315193689722
 30
0.0
 10
-26.06280021895797
 20
37.45702337674415
 30
0.0
 10
-25.92248734967143
 20
37.40702408391822
 30
0.0
 10
-25.84605854710688
 20
37.40332868305954
 30
0.0
  0
SPLINE
  5
D7
330
1F
100
AcDbEntity
  8
0
  6
Continuous
 62
    18
370
     0
100
AcDbSpline
210
0.0
220
0.0
230
1.0
 70
     8
 71
     3
 72
    11
 73
     7
 74
     0
 42
0.000000001
 43
0.0
 40
0.0000047050323833
 40
0.0000047050323833
 40
0.0000047050323833
 40
0.0000047050323833
 40
0.457606203270548
 40
0.91526334692384
 40
1.372971430959883
 40
1.830510783424846
 40
1.830510783424846
 40
1.830510783424846
 40
1.830510783424846
 10
-24.04199505471599
 20
37.33380139239937
 30
0.0
 10
-24.04596197225301
 20
37.20251884449723
 30
0.0
 10
-24.02299007935003
 20
36.94956722918651
 30
0.0
 10
-23.89841621851421
 20
36.63662990535084
 30
0.0
 10
-23.69450460313404
 20
36.41476427240731
 30
0.0
 10
-23.51626471613934
 20
36.34002768952926
 30
0.0
 10
-23.42101373240452
 20
36.32260867744249
 30
0.0
  0
SPLINE
  5
D8
330
1F
100
AcDbEntity
  8
0
  6
Continuous
 62
    18
370
     0
100
AcDbSpline
210
0.0
220
0.0
230
1.0
 70
     8
 71
     3
 72
    11
 73
     7
 74
     0
 42
0.000000001
 43
0.0
 40
0.0001942212173996
 40
0.0001942212173996
 40
0.0001942212173996
 40
0.0001942212173996
 40
0.457606203270548
 40
0.91526334692384
 40
1.372971430959883
 40
1.830726598395257
 40
1.830726598395257
 40
1.830726598395257
 40
1.830726598395257
 10
-22.23348141058241
 20
36.42487674191384
 30
0.0
 10
-22.231640273098
 20
36.28589234004448
 30
0.0
 10
-22.18973839344848
 20
36.01498495766766
 30
0.0
 10
-22.01766073597399
 20
35.67245839992333
 30
0.0
 10
-21.7518909552983
 20
35.42248428863358
 30
0.0
 10
-21.52691494462374
 20
35.33248745346668
 30
0.0
 10
-21.40842053010258
 20
35.30881859218255
 30
0.0
  0
ARC
  5
D9
330
1F
100
AcDbEntity
  8
0
  6
Continuous
 62
    18
370
     0
100
AcDbCircle
 10
-28.118924
 20
31.613765
 30
0.0
 40
7.653453271082512
100
AcDbArc
 50
98.699182
 51
110.167729
  0
ARC
  5
DA
330
1F
100
AcDbEntity
  8
0
  6
Continuous
 62
    18
370
     0
100
AcDbCircle
 10
-28.461595
 20
31.569212
 30
0.0
 40
7.341156921585803
100
AcDbArc
 50
98.699182
 51
110.167729
  0
ARC
  5
DB
330
1F
100
AcDbEntity
  8
0
  6
Continuous
 62
    18
370
     0
100
AcDbCircle
 10
-28.874154
 20
31.626078
 30
0.0
 40
7.132487172155306
100
AcDbArc
 50
98.699182
 51
110.167729
  0
SPLINE
  5
DC
330
1F
100
AcDbEntity
  8
0
  6
Continuous
 62
    18
370
     0
100
AcDbSpline
210
0.0
220
0.0
230
1.0
 70
     8
 71
     3
 72
    11
 73
     7
 74
     0
 42
0.000000001
 43
0.0
 40
0.0
 40
0.0
 40
0.0
 40
0.0
 40
0.5852709660483841
 40
1.17054193209677
 40
1.755812898145157
 40
2.341083864193541
 40
2.341083864193541
 40
2.341083864193541
 40
2.341083864193541
 10
-29.49624623815161
 20
39.614573162753
 30
0.0
 10
-29.5198363932091
 20
39.43208865499579
 30
0.0
 10
-29.62073504728117
 20
39.08823012519201
 30
0.0
 10
-29.90854525845576
 20
38.72923314830763
 30
0.0
 10
-30.28872522717056
 20
38.57733467211548
 30
0.0
 10
-30.56700930952853
 20
38.63118484287514
 30
0.0
 10
-30.69997658131682
 20
38.6939303485797
 30
0.0
  0
SPLINE
  5
DD
330
1F
100
AcDbEntity
  8
0
  6
Continuous
 62
    18
370
     0
100
AcDbSpline
210
0.0
220
0.0
230
1.0
 70
     8
 71
     3
 72
    11
 73
     7
 74
     0
 42
0.000000001
 43
0.0
 40
0.0
 40
0.0
 40
0.0
 40
0.0
 40
0.5852709660483841
 40
1.17054193209677
 40
1.755812898145157
 40
2.341083864193541
 40
2.341083864193541
 40
2.341083864193541
 40
2.341083864193541
 10
-29.88367431336336
 20
39.52522110448282
 30
0.0
 10
-29.90121779098466
 20
39.3441311344713
 30
0.0
 10
-29.9898907211995
 20
39.00309220825437
 30
0.0
 10
-30.26224789430442
 20
38.64765914644582
 30
0.0
 10
-30.63208128730092
 20
38.49814688822704
 30
0.0
 10
-30.90794601571478
 20
38.55255503159742
 30
0.0
 10
-31.04091328750307
 20
38.61530053730198
 30
0.0
  0
SPLINE
  5
DE
330
1F
100
AcDbEntity
  8
0
  6
Continuous
 62
    18
370
     0
100
AcDbSpline
210
0.0
220
0.0
230
1.0
 70
     8
 71
     3
 72
    11
 73
     7
 74
     0
 42
0.000000001
 43
0.0
 40
0.0
 40
0.0
 40
0.0
 40
0.0
 40
0.5852709660483841
 40
1.17054193209677
 40
1.755812898145157
 40
2.341083864193541
 40
2.341083864193541
 40
2.341083864193541
 40
2.341083864193541
 10
-30.27316175556653
 20
39.41461153303561
 30
0.0
 10
-30.28462641474623
 20
39.235247871577
 30
0.0
 10
-30.36100863548761
 20
38.89769935342028
 30
0.0
 10
-30.61783063017593
 20
38.54667808834978
 30
0.0
 10
-30.97726245041626
 20
38.4001197469465
 30
0.0
 10
-31.25069496485359
 20
38.45521860872384
 30
0.0
 10
-31.38366223664194
 20
38.51796411442837
 30
0.0
  0
LINE
  5
DF
330
1F
100
AcDbEntity
  8
0
  6
Continuous
 62
    18
370
     0
100
AcDbLine
 10
-49.388803
 20
34.175697
 30
0.0
 11
-17.525511
 21
19.139828
 31
0.0
  0
LINE
  5
E0
330
1F
100
AcDbEntity
  8
0
  6
Continuous
 62
    18
370
     0
100
AcDbLine
 10
-46.818988
 20
42.100635
 30
0.0
 11
-14.955695
 21
27.064767
 31
0.0
  0
LINE
  5
E1
330
1F
100
AcDbEntity
  8
0
  6
Continuous
 62
    18
370
     0
100
AcDbLine
 10
-48.961015
 20
48.314157
 30
0.0
 11
-17.097723
 21
33.278289
 31
0.0
  0
LINE
  5
E2
330
1F
100
AcDbEntity
  8
0
  6
Continuous
 62
    18
370
     0
100
AcDbLine
 10
-27.743751
 20
82.869088
 30
0.0
 11
-29.052734
 21
39.606696
 31
0.0
  0
LINE
  5
E3
330
1F
100
AcDbEntity
  8
0
  6
Continuous
 62
    18
370
     0
100
AcDbLine
 10
-27.672405
 20
82.876505
 30
0.0
 11
-28.984453
 21
39.51282
 31
0.0
  0
LINE
  5
E4
330
1F
100
AcDbEntity
  8
0
  6
Continuous
 62
    18
370
     0
100
AcDbLine
 10
-27.597717
 20
82.874646
 30
0.0
 11
-28.912642
 21
39.415853
 31
0.0
  0
SPLINE
  5
E5
330
1F
100
AcDbEntity
  8
0
  6
Continuous
 62
    18
370
     0
100
AcDbSpline
210
0.0
220
0.0
230
1.0
 70
     8
 71
     3
 72
    21
 73
    17
 74
     0
 42
0.000000001
 43
0.0
 40
0.0
 40
0.0
 40
0.0
 40
0.0
 40
1.916229832651254
 40
3.832459665302508
 40
5.748689497953767
 40
7.664919330605022
 40
9.581149163256274
 40
11.49737899590753
 40
15.31500608565996
 40
19.13263317541239
 40
21.04886300806364
 40
22.9650928407149
 40
24.88132267336616
 40
26.7975525060174
 40
28.71378233866866
 40
30.62996697563484
 40
30.62996697563484
 40
30.62996697563484
 40
30.62996697563484
 10
-23.23607670968623
 20
14.13232016848656
 30
0.0
 10
-22.76556315523975
 20
14.30321823032659
 30
0.0
 10
-21.81931190249388
 20
14.74911230160839
 30
0.0
 10
-20.4360636199081
 20
15.70667829563723
 30
0.0
 10
-19.12955411432146
 20
16.9242039325637
 30
0.0
 10
-17.94075820450983
 20
18.36366335591356
 30
0.0
 10
-16.90614340785827
 20
19.98135585438786
 30
0.0
 10
-15.77768084476615
 20
22.30113936377353
 30
0.0
 10
-14.89376079737598
 20
25.40075225623667
 30
0.0
 10
-14.83817375941128
 20
28.36763911006676
 30
0.0
 10
-15.28726237014767
 20
30.43464732779964
 30
0.0
 10
-15.86072364209956
 20
31.79467344816558
 30
0.0
 10
-16.65282272584436
 20
32.91672870863519
 30
0.0
 10
-17.63911629504052
 20
33.76687230715595
 30
0.0
 10
-18.78861286076114
 20
34.31860395762414
 30
0.0
 10
-19.64138648170184
 20
34.47623425235188
 30
0.0
 10
-20.08155447087795
 20
34.50121153001833
 30
0.0
  0
SPLINE
  5
E6
330
1F
100
AcDbEntity
  8
0
  6
Continuous
 62
    18
370
     0
100
AcDbSpline
210
0.0
220
0.0
230
1.0
 70
     8
 71
     3
 72
    21
 73
    17
 74
     0
 42
0.000000001
 43
0.0
 40
0.0
 40
0.0
 40
0.0
 40
0.0
 40
1.916229832651254
 40
3.832459665302508
 40
5.748689497953767
 40
7.664919330605022
 40
9.581149163256274
 40
11.49737899590753
 40
15.31500608565996
 40
19.13263317541239
 40
21.04886300806364
 40
22.9650928407149
 40
24.88132267336616
 40
26.7975525060174
 40
28.71378233866866
 40
30.62992161370045
 40
30.62992161370045
 40
30.62992161370045
 40
30.62992161370045
 10
-23.17930731496567
 20
14.15548840817618
 30
0.0
 10
-22.71111583495393
 20
14.32554305537573
 30
0.0
 10
-21.76953451322684
 20
14.76923655408376
 30
0.0
 10
-20.39311282563158
 20
15.72207677668013
 30
0.0
 10
-19.09305119448526
 20
16.93359369158719
 30
0.0
 10
-17.91012221999175
 20
18.36594910720956
 30
0.0
 10
-16.88061344535849
 20
19.97565798362172
 30
0.0
 10
-15.75772006097235
 20
22.28399291744526
 30
0.0
 10
-14.87816232817413
 20
25.36830862710281
 30
0.0
 10
-14.82284962287967
 20
28.32055332652811
 30
0.0
 10
-15.26972189537877
 20
30.37736046313751
 30
0.0
 10
-15.84035302620877
 20
31.73067459432752
 30
0.0
 10
-16.6285429493892
 20
32.84719229735606
 30
0.0
 10
-17.60996897107161
 20
33.69314027452376
 30
0.0
 10
-18.75378352546923
 20
34.24214469154148
 30
0.0
 10
-19.60233748330893
 20
34.39899766960844
 30
0.0
 10
-20.04032214103812
 20
34.42385362758802
 30
0.0
  0
SPLINE
  5
E7
330
1F
100
AcDbEntity
  8
0
  6
Continuous
 62
    18
370
     0
100
AcDbSpline
210
0.0
220
0.0
230
1.0
 70
     8
 71
     3
 72
    21
 73
    17
 74
     0
 42
0.000000001
 43
0.0
 40
0.0
 40
0.0
 40
0.0
 40
0.0
 40
1.916229832651254
 40
3.832459665302508
 40
5.748689497953767
 40
7.664919330605022
 40
9.581149163256274
 40
11.49737899590753
 40
15.31500608565996
 40
19.13263317541239
 40
21.04886300806364
 40
22.9650928407149
 40
24.88132267336616
 40
26.7975525060174
 40
28.71378233866866
 40
30.62987625176606
 40
30.62987625176606
 40
30.62987625176606
 40
30.62987625176606
 10
-23.1401406365773
 20
14.21177205722393
 30
0.0
 10
-22.67542438654566
 20
14.38056444521231
 30
0.0
 10
-21.74083211049286
 20
14.82096455432537
 30
0.0
 10
-20.37462714429982
 20
15.7667321601628
 30
0.0
 10
-19.08421543919779
 20
16.96925638706927
 30
0.0
 10
-17.91006695391034
 20
18.39097990378872
 30
0.0
 10
-16.88819988125447
 20
19.98874044541571
 30
0.0
 10
-15.77364136181272
 20
22.27994137507875
 30
0.0
 10
-14.90061229417152
 20
25.34136323279685
 30
0.0
 10
-14.84571015673212
 20
28.27169439956205
 30
0.0
 10
-15.28926544465325
 20
30.31323453937671
 30
0.0
 10
-15.85566096997091
 20
31.65650346888711
 30
0.0
 10
-16.63800042092338
 20
32.76473363153804
 30
0.0
 10
-17.61214164294687
 20
33.60440241761088
 30
0.0
 10
-18.74745708270468
 20
34.14932745702328
 30
0.0
 10
-19.58970152616978
 20
34.3050167818447
 30
0.0
 10
-20.02442423275798
 20
34.32969017567582
 30
0.0
  0
SPLINE
  5
E8
330
1F
100
AcDbEntity
  8
0
  6
Continuous
 62
    18
370
     0
100
AcDbSpline
210
0.0
220
0.0
230
1.0
 70
     8
 71
     3
 72
    11
 73
     7
 74
     0
 42
0.000000001
 43
0.0
 40
0.0
 40
0.0
 40
0.0
 40
0.0
 40
0.097545161008066
 40
0.19509032201613
 40
0.2926354830241921
 40
0.3901616521525832
 40
0.3901616521525832
 40
0.3901616521525832
 40
0.3901616521525832
 10
-18.02736343159647
 20
18.40830274189165
 30
0.0
 10
-18.00520221963181
 20
18.39784515760761
 30
0.0
 10
-17.96627498415289
 20
18.3834837146598
 30
0.0
 10
-17.93478695578362
 20
18.38576466142905
 30
0.0
 10
-17.93442568708442
 20
18.41119142106609
 30
0.0
 10
-17.95526966351736
 20
18.44127779380418
 30
0.0
 10
-17.96996179825569
 20
18.45822560078241
 30
0.0
  0
SPLINE
  5
E9
330
1F
100
AcDbEntity
  8
0
  6
Continuous
 62
    18
370
     0
100
AcDbSpline
210
0.0
220
0.0
230
1.0
 70
     8
 71
     3
 72
    11
 73
     7
 74
     0
 42
0.000000001
 43
0.0
 40
0.0
 40
0.0
 40
0.0
 40
0.0
 40
0.097545161008066
 40
0.19509032201613
 40
0.2926354830241921
 40
0.3897363598762695
 40
0.3897363598762695
 40
0.3897363598762695
 40
0.3897363598762695
 10
-15.1108578243831
 20
25.40718430781268
 30
0.0
 10
-15.08869661241845
 20
25.39672672352859
 30
0.0
 10
-15.05321872653813
 20
25.37408770715192
 30
0.0
 10
-15.0364821391011
 20
25.34096889752894
 30
0.0
 10
-15.05811983244511
 20
25.3135679733471
 30
0.0
 10
-15.09625717152325
 20
25.30184131857303
 30
0.0
 10
-15.11943064277406
 20
25.29810276237622
 30
0.0
  0
SPLINE
  5
EA
330
1F
100
AcDbEntity
  8
0
  6
Continuous
 62
    18
370
     0
100
AcDbSpline
210
0.0
220
0.0
230
1.0
 70
     8
 71
     3
 72
    11
 73
     7
 74
     0
 42
0.000000001
 43
0.0
 40
0.0
 40
0.0
 40
0.0
 40
0.0
 40
0.097545161008066
 40
0.19509032201613
 40
0.2926354830241921
 40
0.3901619691075462
 40
0.3901619691075462
 40
0.3901619691075462
 40
0.3901619691075462
 10
-15.95282311085894
 20
31.80383591626423
 30
0.0
 10
-15.93066189889423
 20
31.79337833198019
 30
0.0
 10
-15.89418822112661
 20
31.76317399921837
 30
0.0
 10
-15.87319304383469
 20
31.6977014618557
 30
0.0
 10
-15.88850228100504
 20
31.62194208052536
 30
0.0
 10
-15.92174351777786
 20
31.57197850089045
 30
0.0
 10
-15.94256674242055
 20
31.54933774653028
 30
0.0
  0
LINE
  5
EB
330
1F
100
AcDbEntity
  8
0
  6
Continuous
 62
    18
370
     0
100
AcDbLine
 10
-19.547844
 20
79.076017
 30
0.0
 11
-20.864869
 21
35.547832
 31
0.0
  0
LINE
  5
EC
330
1F
100
AcDbEntity
  8
0
  6
Continuous
 62
    18
370
     0
100
AcDbLine
 10
-19.553111
 20
79.045117
 30
0.0
 11
-20.870135
 21
35.516927
 31
0.0
  0
LINE
  5
ED
330
1F
100
AcDbEntity
  8
0
  6
Continuous
 62
    18
370
     0
100
AcDbLine
 10
-19.580158
 20
79.016796
 30
0.0
 11
-20.897183
 21
35.4886
 31
0.0
  0
LINE
  5
EE
330
1F
100
AcDbEntity
  8
0
  6
Continuous
 62
    18
370
     0
100
AcDbLine
 10
-25.586366
 20
78.550545
 30
0.0
 11
-26.912461
 21
34.723143
 31
0.0
  0
LINE
  5
EF
330
1F
100
AcDbEntity
  8
0
  6
Continuous
 62
    18
370
     0
100
AcDbLine
 10
-27.832747
 20
79.428044
 30
0.0
 11
-29.162617
 21
35.475919
 31
0.0
  0
LINE
  5
F0
330
1F
100
AcDbEntity
  8
0
  6
Continuous
 62
    18
370
     0
100
AcDbLine
 10
-29.641962
 20
80.464328
 30
0.0
 11
-30.967952
 21
36.640436
 31
0.0
  0
LINE
  5
F1
330
1F
100
AcDbEntity
  8
0
  6
Continuous
 62
    18
370
     0
100
AcDbLine
 10
-20.904865
 20
80.250941
 30
0.0
 11
-22.230942
 21
36.423557
 31
0.0
  0
LINE
  5
F2
330
1F
100
AcDbEntity
  8
0
  6
Continuous
 62
    18
370
     0
100
AcDbLine
 10
-22.71408
 20
81.287226
 30
0.0
 11
-24.043931
 21
37.33512
 31
0.0
  0
LINE
  5
F3
330
1F
100
AcDbEntity
  8
0
  6
Continuous
 62
    18
370
     0
100
AcDbLine
 10
-24.960462
 20
82.164724
 30
0.0
 11
-26.286433
 21
38.34085
 31
0.0
  0
LINE
  5
F4
330
1F
100
AcDbEntity
  8
0
  6
Continuous
 62
    18
370
     0
100
AcDbLine
 10
-25.128489
 20
86.699832
 30
0.0
 11
-28.243362
 21
85.56846
 31
0.0
  0
LINE
  5
F5
330
1F
100
AcDbEntity
  8
0
  6
Continuous
 62
    18
370
     0
100
AcDbLine
 10
-26.490954
 20
86.143794
 30
0.0
 11
-29.605828
 21
85.012422
 31
0.0
  0
LINE
  5
F6
330
1F
100
AcDbEntity
  8
0
  6
Continuous
 62
    18
370
     0
100
AcDbLine
 10
-27.430955
 20
84.792987
 30
0.0
 11
-30.545828
 21
83.661615
 31
0.0
  0
SPLINE
  5
F7
330
1F
100
AcDbEntity
  8
0
  6
Continuous
 62
    18
370
     0
100
AcDbSpline
210
0.0
220
0.0
230
1.0
 70
    12
 71
     2
 72
     8
 73
     5
 74
     0
 42
0.000000001
 43
0.0
 40
-0.00000002
 40
-0.00000002
 40
-0.00000002
 40
7.853981633976113
 40
7.853981633976113
 40
15.7079632879518
 40
15.7079632879518
 40
15.7079632879518
 10
-26.75818684479815
 20
78.96772516078929
 30
0.0
 41
1.000000001491693
 10
-26.71709030523714
 20
80.32597252854836
 30
0.0
 41
0.7071067804407014
 10
-27.73566639018428
 20
80.8066251785502
 30
0.0
 41
1.0
 10
-28.75424247513125
 20
81.28727782855256
 30
0.0
 41
0.7071067804407014
 10
-28.79533900735576
 20
79.92903045733178
 30
0.0
 41
1.000000001491693
  0
SPLINE
  5
F8
330
1F
100
AcDbEntity
  8
0
  6
Continuous
 62
    18
370
     0
100
AcDbSpline
210
0.0
220
0.0
230
1.0
 70
    12
 71
     2
 72
     8
 73
     5
 74
     0
 42
0.000000001
 43
0.0
 40
-0.00000002
 40
-0.00000002
 40
-0.00000002
 40
7.853981633976113
 40
7.853981633976113
 40
15.7079632879518
 40
15.7079632879518
 40
15.7079632879518
 10
-25.5863654416534
 20
78.5505452191353
 30
0.0
 41
1.000000001491693
 10
-25.50454976897412
 20
81.25456660986177
 30
0.0
 41
0.7071067804407011
 10
-27.53234793531526
 20
82.21145787868818
 30
0.0
 41
1.0
 10
-29.56014610165629
 20
83.16834914751524
 30
0.0
 41
0.7071067804407011
 10
-29.64196175973022
 20
80.46432774989697
 30
0.0
 41
1.000000001491693
  0
SPLINE
  5
F9
330
1F
100
AcDbEntity
  8
0
  6
Continuous
 62
    18
370
     0
100
AcDbSpline
210
0.0
220
0.0
230
1.0
 70
    12
 71
     2
 72
     8
 73
     5
 74
     0
 42
0.000000001
 43
0.0
 40
-0.00000002
 40
-0.00000002
 40
-0.00000002
 40
7.853981633976113
 40
7.853981633976113
 40
15.7079632879518
 40
15.7079632879518
 40
15.7079632879518
 10
-24.33466522105117
 20
78.178001681799
 30
0.0
 41
1.000000001491693
 10
-24.21288522947417
 20
82.2028503617941
 30
0.0
 41
0.707106780440701
 10
-27.2311974370201
 20
83.62715217147846
 30
0.0
 41
1.0
 10
-30.24950964456637
 20
85.0514539811629
 30
0.0
 41
0.707106780440701
 10
-30.37128961440349
 20
81.02660529090946
 30
0.0
 41
1.000000001491693
  0
SPLINE
  5
FA
330
1F
100
AcDbEntity
  8
0
  6
Continuous
 62
    18
370
     0
100
AcDbSpline
210
0.0
220
0.0
230
1.0
 70
     8
 71
     3
 72
     8
 73
     4
 74
     0
 42
0.000000001
 43
0.0
 40
5.099019493591889
 40
5.099019493591889
 40
5.099019493591889
 40
5.099019493591889
 40
10.05530577196187
 40
10.05530577196187
 40
10.05530577196187
 40
10.05530577196187
 10
-27.83274683816954
 20
79.4280435543846
 30
0.0
 10
-26.83214875190559
 20
80.25671419774272
 30
0.0
 10
-25.52583335005896
 20
81.19642626865257
 30
0.0
 10
-24.07283771012804
 20
82.15528739515815
 30
0.0
  0
SPLINE
  5
FB
330
1F
100
AcDbEntity
  8
0
  6
Continuous
 62
    18
370
     0
100
AcDbSpline
210
0.0
220
0.0
230
1.0
 70
     8
 71
     3
 72
     8
 73
     4
 74
     0
 42
0.000000001
 43
0.0
 40
5.099019493591889
 40
5.099019493591889
 40
5.099019493591889
 40
5.099019493591889
 40
10.05530577196187
 40
10.05530577196187
 40
10.05530577196187
 40
10.05530577196187
 10
-27.83274682672082
 20
79.42804354245914
 30
0.0
 10
-27.77786757907425
 20
81.24181191615145
 30
0.0
 10
-27.41727101612393
 20
83.16662171768854
 30
0.0
 10
-26.8406208702052
 20
85.03831858552607
 30
0.0
  0
ARC
  5
FC
330
1F
100
AcDbEntity
  8
0
  6
Continuous
 62
    18
370
     0
100
AcDbCircle
 10
-11.288046
 20
88.190428
 30
0.0
 40
18.72181923817372
100
AcDbArc
 50
190.396689
 51
207.906536
  0
LINE
  5
FD
330
1F
100
AcDbEntity
  8
0
  6
Continuous
 62
    18
370
     0
100
AcDbLine
 10
-25.113466
 20
84.091503
 30
0.0
 11
-21.998593
 21
85.222875
 31
0.0
  0
LINE
  5
FE
330
1F
100
AcDbEntity
  8
0
  6
Continuous
 62
    18
370
     0
100
AcDbLine
 10
-23.822534
 20
82.283362
 30
0.0
 11
-20.70766
 21
83.414734
 31
0.0
  0
LINE
  5
FF
330
1F
100
AcDbEntity
  8
0
  6
Continuous
 62
    18
370
     0
100
AcDbLine
 10
-22.98959
 20
80.095926
 30
0.0
 11
-19.874717
 21
81.227297
 31
0.0
  0
SPLINE
  5
100
330
1F
100
AcDbEntity
  8
0
  6
Continuous
 62
    18
370
     0
100
AcDbSpline
210
0.0
220
0.0
230
1.0
 70
     8
 71
     3
 72
     8
 73
     4
 74
     0
 42
0.000000001
 43
0.0
 40
5.099019493591889
 40
5.099019493591889
 40
5.099019493591889
 40
5.099019493591889
 40
10.0553057719714
 40
10.0553057719714
 40
10.0553057719714
 40
10.0553057719714
 10
-22.71407997051692
 20
81.28722537522592
 30
0.0
 10
-21.71348187931669
 20
82.11589602037762
 30
0.0
 10
-21.01860110310706
 20
82.83352523846605
 30
0.0
 10
-20.61719860572468
 20
83.41043088630997
 30
0.0
  0
SPLINE
  5
101
330
1F
100
AcDbEntity
  8
0
  6
Continuous
 62
    18
370
     0
100
AcDbSpline
210
0.0
220
0.0
230
1.0
 70
     8
 71
     3
 72
     8
 73
     4
 74
     0
 42
0.000000001
 43
0.0
 40
5.099019493591889
 40
5.099019493591889
 40
5.099019493591889
 40
5.099019493591889
 40
10.0553057719714
 40
10.0553057719714
 40
10.0553057719714
 40
10.0553057719714
 10
-22.71407995906809
 20
81.2872253633004
 30
0.0
 10
-22.65920070648762
 20
83.10099373878828
 30
0.0
 10
-22.91003876917743
 20
84.80372068750526
 30
0.0
 10
-23.38498176580906
 20
86.29346207668226
 30
0.0
  0
SPLINE
  5
102
330
1F
100
AcDbEntity
  8
0
  6
Continuous
 62
    18
370
     0
100
AcDbSpline
210
0.0
220
0.0
230
1.0
 70
     8
 71
     3
 72
     8
 73
     4
 74
     0
 42
0.000000001
 43
0.0
 40
5.099019493591889
 40
5.099019493591889
 40
5.099019493591889
 40
5.099019493591889
 40
10.0553057719714
 40
10.0553057719714
 40
10.0553057719714
 40
10.0553057719714
 10
-22.71407994723027
 20
81.28722536423734
 30
0.0
 10
-23.6370670538564
 20
83.02361054981824
 30
0.0
 10
-24.86577147604253
 20
84.6489543086052
 30
0.0
 10
-26.2468493011712
 20
86.06698896316016
 30
0.0
  0
SPLINE
  5
103
330
1F
100
AcDbEntity
  8
0
  6
Continuous
 62
    18
370
     0
100
AcDbSpline
210
0.0
220
0.0
230
1.0
 70
    12
 71
     2
 72
     8
 73
     5
 74
     0
 42
0.000000001
 43
0.0
 40
-0.00000002
 40
-0.00000002
 40
-0.00000002
 40
7.85398163397569
 40
7.85398163397569
 40
15.7079632879518
 40
15.7079632879518
 40
15.7079632879518
 10
-21.75148777739859
 20
80.7862384825583
 30
0.0
 41
1.000000001491693
 10
-21.71039123783844
 20
82.14448585031931
 30
0.0
 41
0.7071067804407011
 10
-22.72896732278751
 20
82.62513850032224
 30
0.0
 41
1.0
 10
-23.74754340773676
 20
83.10579115032596
 30
0.0
 41
0.707106780440702
 10
-23.78863993996065
 20
81.74754377910261
 30
0.0
 41
1.000000001491693
  0
SPLINE
  5
104
330
1F
100
AcDbEntity
  8
0
  6
Continuous
 62
    18
370
     0
100
AcDbSpline
210
0.0
220
0.0
230
1.0
 70
    12
 71
     2
 72
     8
 73
     5
 74
     0
 42
0.000000001
 43
0.0
 40
-0.00000002
 40
-0.00000002
 40
-0.00000002
 40
7.85398163397569
 40
7.85398163397569
 40
15.7079632879518
 40
15.7079632879518
 40
15.7079632879518
 10
-20.90486502531614
 20
80.25094118029904
 30
0.0
 41
1.000000001491693
 10
-20.82304935263839
 20
82.95496257102954
 30
0.0
 41
0.7071067804407014
 10
-22.85084751898397
 20
83.91185383985794
 30
0.0
 41
1.0
 10
-24.87864568532921
 20
84.86874510868705
 30
0.0
 41
0.707106780440702
 10
-24.96046134340166
 20
82.16472371106403
 30
0.0
 41
1.000000001491693
  0
SPLINE
  5
105
330
1F
100
AcDbEntity
  8
0
  6
Continuous
 62
    18
370
     0
100
AcDbSpline
210
0.0
220
0.0
230
1.0
 70
    12
 71
     2
 72
     8
 73
     5
 74
     0
 42
0.000000001
 43
0.0
 40
-0.00000002
 40
-0.00000002
 40
-0.00000002
 40
7.85398163397569
 40
7.85398163397569
 40
15.7079632879518
 40
15.7079632879518
 40
15.7079632879518
 10
-20.17553717092947
 20
79.68866362977201
 30
0.0
 41
1.000000001491694
 10
-20.05375717935486
 20
83.71351230977353
 30
0.0
 41
0.7071067804407019
 10
-23.0720693869075
 20
85.13781411946016
 30
0.0
 41
1.0
 10
-26.09038159445957
 20
86.56211592914744
 30
0.0
 41
0.707106780440702
 10
-26.21216156429476
 20
82.53726723888718
 30
0.0
 41
1.000000001491694
  0
SPLINE
  5
106
330
1F
100
AcDbEntity
  8
0
  6
Continuous
 62
    18
370
     0
100
AcDbSpline
210
0.0
220
0.0
230
1.0
 70
     8
 71
     3
 72
    11
 73
     7
 74
     0
 42
0.000000001
 43
0.0
 40
0.0
 40
0.0
 40
0.0
 40
0.0
 40
2.319113045898096
 40
4.63382755517508
 40
6.948645772378891
 40
9.26790437129863
 40
9.26790437129863
 40
9.26790437129863
 40
9.26790437129863
 10
-23.49727542565039
 20
86.38592273561491
 30
0.0
 10
-22.96614896462948
 20
86.13528729167521
 30
0.0
 10
-21.90222097239636
 20
85.34625541879072
 30
0.0
 10
-20.58148392886186
 20
83.49413778172789
 30
0.0
 10
-19.72773465200383
 20
81.25538920690076
 30
0.0
 10
-19.55877026411336
 20
79.72508266154469
 30
0.0
 10
-19.58016453881787
 20
79.01679128615694
 30
0.0
  0
SPLINE
  5
107
330
1F
100
AcDbEntity
  8
0
  6
Continuous
 62
    18
370
     0
100
AcDbSpline
210
0.0
220
0.0
230
1.0
 70
     8
 71
     3
 72
    11
 73
     7
 74
     0
 42
0.000000001
 43
0.0
 40
0.0
 40
0.0
 40
0.0
 40
0.0
 40
2.319113045898096
 40
4.63382755517508
 40
6.948645772378891
 40
9.26790437129863
 40
9.26790437129863
 40
9.26790437129863
 40
9.26790437129863
 10
-23.44897357650761
 20
86.37426089036774
 30
0.0
 10
-22.92045270759222
 20
86.12485146658469
 30
0.0
 10
-21.8613086240769
 20
85.33893442374372
 30
0.0
 10
-20.54923454502959
 20
83.49807083867466
 30
0.0
 10
-19.70041271353146
 20
81.2735888224116
 30
0.0
 10
-19.53185111872203
 20
79.74995261135976
 30
0.0
 10
-19.55311459711548
 20
79.0451099530793
 30
0.0
  0
SPLINE
  5
108
330
1F
100
AcDbEntity
  8
0
  6
Continuous
 62
    18
370
     0
100
AcDbSpline
210
0.0
220
0.0
230
1.0
 70
     8
 71
     3
 72
    11
 73
     7
 74
     0
 42
0.000000001
 43
0.0
 40
0.0
 40
0.0
 40
0.0
 40
0.0
 40
2.319113045898096
 40
4.63382755517508
 40
6.948645772378891
 40
9.26790437129863
 40
9.26790437129863
 40
9.26790437129863
 40
9.26790437129863
 10
-23.4103921802852
 20
86.34249703869241
 30
0.0
 10
-22.88615023524231
 20
86.09510641514461
 30
0.0
 10
-21.83519643816958
 20
85.3148982402447
 30
0.0
 10
-20.53566850891706
 20
83.49082322906273
 30
0.0
 10
-19.69427042425762
 20
81.28719799939742
 30
0.0
 10
-19.52674372096827
 20
79.77515825041377
 30
0.0
 10
-19.54784342784397
 20
79.07601153215188
 30
0.0
  0
SPLINE
  5
109
330
1F
100
AcDbEntity
  8
0
  6
Continuous
 62
    18
370
     0
100
AcDbSpline
210
0.0
220
0.0
230
1.0
 70
     8
 71
     3
 72
    11
 73
     7
 74
     0
 42
0.000000001
 43
0.0
 40
0.0000000000022224
 40
0.0000000000022224
 40
0.0000000000022224
 40
0.0000000000022224
 40
0.074728338354657
 40
0.149447765313237
 40
0.224158280875756
 40
0.2987168876653014
 40
0.2987168876653014
 40
0.2987168876653014
 40
0.2987168876653014
 10
-22.00006417318626
 20
85.22440519192374
 30
0.0
 10
-21.9815848487573
 20
85.23073869176721
 30
0.0
 10
-21.94654289188125
 20
85.23806230131687
 30
0.0
 10
-21.90530215219233
 20
85.2317168665449
 30
0.0
 10
-21.8788471538308
 20
85.20875519874458
 30
0.0
 10
-21.8726561857364
 20
85.18361119539051
 30
0.0
 10
-21.8725529318729
 20
85.16927158354879
 30
0.0
  0
SPLINE
  5
10A
330
1F
100
AcDbEntity
  8
0
  6
Continuous
 62
    18
370
     0
100
AcDbSpline
210
0.0
220
0.0
230
1.0
 70
     8
 71
     3
 72
    11
 73
     7
 74
     0
 42
0.000000001
 43
0.0
 40
0.0
 40
0.0
 40
0.0
 40
0.0
 40
0.074728338354657
 40
0.149447765313237
 40
0.224158280875756
 40
0.2988598834319308
 40
0.2988598834319308
 40
0.2988598834319308
 40
0.2988598834319308
 10
-20.70761083661675
 20
83.41462730086832
 30
0.0
 10
-20.68940965273508
 20
83.42126015854748
 30
0.0
 10
-20.65656472976325
 20
83.43147620929321
 30
0.0
 10
-20.62323992202822
 20
83.43595831132299
 30
0.0
 10
-20.60858526950221
 20
83.4293083060522
 30
0.0
 10
-20.612220577168
 20
83.41777060100924
 30
0.0
 10
-20.61726415163377
 20
83.41054329372442
 30
0.0
  0
SPLINE
  5
10B
330
1F
100
AcDbEntity
  8
0
  6
Continuous
 62
    18
370
     0
100
AcDbSpline
210
0.0
220
0.0
230
1.0
 70
     8
 71
     3
 72
    11
 73
     7
 74
     0
 42
0.000000001
 43
0.0
 40
0.0
 40
0.0
 40
0.0
 40
0.0
 40
0.074728338354657
 40
0.149447765313237
 40
0.224158280875756
 40
0.2987091131012723
 40
0.2987091131012723
 40
0.2987091131012723
 40
0.2987091131012723
 10
-19.8741270107689
 20
81.2248804289087
 30
0.0
 10
-19.85604298541072
 20
81.23194009579655
 30
0.0
 10
-19.8244809090687
 20
81.2457835542472
 30
0.0
 10
-19.79606859353952
 20
81.26352378438523
 30
0.0
 10
-19.78882584177949
 20
81.27674746532638
 30
0.0
 10
-19.79860599661971
 20
81.28177716809178
 30
0.0
 10
-19.80684999861555
 20
81.28322586526065
 30
0.0
  0
SPLINE
  5
10C
330
1F
100
AcDbEntity
  8
0
  6
Continuous
 62
    18
370
     0
100
AcDbSpline
210
0.0
220
0.0
230
1.0
 70
     8
 71
     3
 72
    11
 73
     7
 74
     0
 42
0.000000001
 43
0.0
 40
0.0000000149700607
 40
0.0000000149700607
 40
0.0000000149700607
 40
0.0000000149700607
 40
2.319113045888732
 40
4.633827555156133
 40
6.948645772350434
 40
9.26790437126061
 40
9.26790437126061
 40
9.26790437126061
 40
9.26790437126061
 10
-27.74376340911142
 20
82.86908617381752
 30
0.0
 10
-27.7223304803607
 20
83.57732914589963
 30
0.0
 10
-27.46687445332218
 20
84.90734000347466
 30
0.0
 10
-26.50353103519778
 20
86.28865374965247
 30
0.0
 10
-25.10946038901254
 20
86.85958053403809
 30
0.0
 10
-24.02841334371088
 20
86.63650727365277
 30
0.0
 10
-23.49727542564487
 20
86.38592273560079
 30
0.0
  0
SPLINE
  5
10D
330
1F
100
AcDbEntity
  8
0
  6
Continuous
 62
    18
370
     0
100
AcDbSpline
210
0.0
220
0.0
230
1.0
 70
     8
 71
     3
 72
    11
 73
     7
 74
     0
 42
0.000000001
 43
0.0
 40
0.000000029940017
 40
0.000000029940017
 40
0.000000029940017
 40
0.000000029940017
 40
2.319113045888732
 40
4.633827555156133
 40
6.948645772350434
 40
9.26790437126061
 40
9.26790437126061
 40
9.26790437126061
 40
9.26790437126061
 10
-27.67242264843495
 20
82.87650459990829
 30
0.0
 10
-27.6510941801365
 20
83.58127349446153
 30
0.0
 10
-27.39647199716196
 20
84.90517472790707
 30
0.0
 10
-26.43876690923791
 20
86.27713762335296
 30
0.0
 10
-25.05379063421519
 20
86.84522567280803
 30
0.0
 10
-23.9775345216094
 20
86.62359947313726
 30
0.0
 10
-23.4489735765025
 20
86.37426089035336
 30
0.0
  0
SPLINE
  5
10E
330
1F
100
AcDbEntity
  8
0
  6
Continuous
 62
    18
370
     0
100
AcDbSpline
210
0.0
220
0.0
230
1.0
 70
     8
 71
     3
 72
    11
 73
     7
 74
     0
 42
0.000000001
 43
0.0
 40
0.0000000449099732
 40
0.0000000449099732
 40
0.0000000449099732
 40
0.0000000449099732
 40
2.319113045888732
 40
4.633827555156133
 40
6.948645772350434
 40
9.26790437126061
 40
9.26790437126061
 40
9.26790437126061
 40
9.26790437126061
 10
-27.59773007636153
 20
82.87464714609196
 30
0.0
 10
-27.57657526714279
 20
83.57371108182201
 30
0.0
 10
-27.32365361489128
 20
84.88726425241013
 30
0.0
 10
-26.37448884174187
 20
86.24584538907541
 30
0.0
 10
-25.00270761678523
 20
86.80943259838645
 30
0.0
 10
-23.93469903872021
 20
86.58984412705263
 30
0.0
 10
-23.41039218028054
 20
86.34249703867786
 30
0.0
  0
SPLINE
  5
10F
330
1F
100
AcDbEntity
  8
0
  6
Continuous
 62
    18
370
     0
100
AcDbSpline
210
0.0
220
0.0
230
1.0
 70
     8
 71
     3
 72
    11
 73
     7
 74
     0
 42
0.000000001
 43
0.0
 40
0.0
 40
0.0
 40
0.0
 40
0.0
 40
0.074728338354114
 40
0.14944776531215
 40
0.224158280874122
 40
0.2987170171232678
 40
0.2987170171232678
 40
0.2987170171232678
 40
0.2987170171232678
 10
-27.43163270868597
 20
84.79128271065116
 30
0.0
 10
-27.41329420341843
 20
84.79820549850538
 30
0.0
 10
-27.37170568444917
 20
84.80728219728385
 30
0.0
 10
-27.30100357286089
 20
84.80502963930007
 30
0.0
 10
-27.22818407922939
 20
84.78725570109312
 30
0.0
 10
-27.18239883081916
 20
84.76600721834488
 30
0.0
 10
-27.1613967362783
 20
84.75362057913947
 30
0.0
  0
SPLINE
  5
110
330
1F
100
AcDbEntity
  8
0
  6
Continuous
 62
    18
370
     0
100
AcDbSpline
210
0.0
220
0.0
230
1.0
 70
     8
 71
     3
 72
    11
 73
     7
 74
     0
 42
0.000000001
 43
0.0
 40
0.0
 40
0.0
 40
0.0
 40
0.0
 40
0.074728338354114
 40
0.14944776531215
 40
0.224158280874122
 40
0.2988598833160052
 40
0.2988598833160052
 40
0.2988598833160052
 40
0.2988598833160052
 10
-26.49089056342062
 20
86.14383433826475
 30
0.0
 10
-26.47268829821472
 20
86.15043860436663
 30
0.0
 10
-26.43256335007889
 20
86.15715975215412
 30
0.0
 10
-26.36743001941748
 20
86.14654160601035
 30
0.0
 10
-26.30300030502118
 20
86.1163200600759
 30
0.0
 10
-26.26424035897325
 20
86.08473047070828
 30
0.0
 10
-26.24691226836642
 20
86.0669267520712
 30
0.0
  0
SPLINE
  5
111
330
1F
100
AcDbEntity
  8
0
  6
Continuous
 62
    18
370
     0
100
AcDbSpline
210
0.0
220
0.0
230
1.0
 70
     8
 71
     3
 72
    11
 73
     7
 74
     0
 42
0.000000001
 43
0.0
 40
0.0
 40
0.0
 40
0.0
 40
0.0
 40
0.074728338354114
 40
0.14944776531215
 40
0.224158280874122
 40
0.2987091110374666
 40
0.2987091110374666
 40
0.2987091110374666
 40
0.2987091110374666
 10
-25.12688106783689
 20
86.69995719896627
 30
0.0
 10
-25.10894707281305
 20
86.70651105557334
 30
0.0
 10
-25.07109455785631
 20
86.71244221411303
 30
0.0
 10
-25.01429943685513
 20
86.69868485395003
 30
0.0
 10
-24.96236666937989
 20
86.66369656104155
 30
0.0
 10
-24.93398125959855
 20
86.62814157728211
 30
0.0
 10
-24.92206798675298
 20
86.6082688463169
 30
0.0
  0
SPLINE
  5
112
330
1F
100
AcDbEntity
  8
0
  6
Continuous
 62
    18
370
     0
100
AcDbSpline
210
0.0
220
0.0
230
1.0
 70
     8
 71
     3
 72
    11
 73
     7
 74
     0
 42
0.000000001
 43
0.0
 40
0.000000047022757
 40
0.000000047022757
 40
0.000000047022757
 40
0.000000047022757
 40
2.31911304588724
 40
4.633827555153279
 40
6.948645772346363
 40
9.267904371254838
 40
9.267904371254838
 40
9.267904371254838
 40
9.267904371254838
 10
-22.94909670559102
 20
77.84062188671756
 30
0.0
 10
-22.92794814271954
 20
78.53969146464945
 30
0.0
 10
-23.09537936658094
 20
80.05161122182933
 30
0.0
 10
-23.93676624980866
 20
82.255107324065
 30
0.0
 10
-25.23629985455436
 20
84.07931601946655
 30
0.0
 10
-26.28734193303187
 20
84.85965013351193
 30
0.0
 10
-26.81164545929936
 20
85.10710735070865
 30
0.0
  0
SPLINE
  5
113
330
1F
100
AcDbEntity
  8
0
  6
Continuous
 62
    18
370
     0
100
AcDbSpline
210
0.0
220
0.0
230
1.0
 70
     8
 71
     3
 72
    11
 73
     7
 74
     0
 42
0.000000001
 43
0.0
 40
0.0000000313485411
 40
0.0000000313485411
 40
0.0000000313485411
 40
0.0000000313485411
 40
2.31911304588724
 40
4.633827555153279
 40
6.948645772346363
 40
9.267904371254838
 40
9.267904371254838
 40
9.267904371254838
 40
9.267904371254838
 10
-22.8744041343424
 20
77.83876440564185
 30
0.0
 10
-22.8530840115794
 20
78.54353856725297
 30
0.0
 10
-23.02155064303571
 20
80.06709269108218
 30
0.0
 10
-23.87043855487933
 20
82.2915556185074
 30
0.0
 10
-25.18252857828371
 20
84.13237034834233
 30
0.0
 10
-26.24170691944839
 20
84.91841974406606
 30
0.0
 10
-26.77026311457932
 20
85.16791531432364
 30
0.0
  0
SPLINE
  5
114
330
1F
100
AcDbEntity
  8
0
  6
Continuous
 62
    18
370
     0
100
AcDbSpline
210
0.0
220
0.0
230
1.0
 70
     8
 71
     3
 72
    11
 73
     7
 74
     0
 42
0.000000001
 43
0.0
 40
0.0000000156743252
 40
0.0000000156743252
 40
0.0000000156743252
 40
0.0000000156743252
 40
2.31911304588724
 40
4.633827555153279
 40
6.948645772346363
 40
9.267904371254838
 40
9.267904371254838
 40
9.267904371254838
 40
9.267904371254838
 10
-22.80306337450708
 20
77.84618280393228
 30
0.0
 10
-22.78163756137421
 20
78.55442840561187
 30
0.0
 10
-22.95055023324857
 20
80.08468987962421
 30
0.0
 10
-23.80435926842198
 20
82.32350576613015
 30
0.0
 10
-25.1251199043168
 20
84.17548705586594
 30
0.0
 10
-26.18903986016333
 20
84.96461348089508
 30
0.0
 10
-26.72017426175454
 20
85.21531423900342
 30
0.0
  0
ARC
  5
115
330
1F
100
AcDbEntity
  8
0
  6
Continuous
 62
    18
370
     0
100
AcDbCircle
 10
-23.549715
 20
81.826151
 30
0.0
 40
1.820979048054459
100
AcDbArc
 50
279.078262
 51
287.932818
  0
ARC
  5
116
330
1F
100
AcDbEntity
  8
0
  6
Continuous
 62
    18
370
     0
100
AcDbCircle
 10
-23.345369
 20
81.04471
 30
0.0
 40
1.327496001619019
100
AcDbArc
 50
111.069013
 51
123.227006
  0
ARC
  5
117
330
1F
100
AcDbEntity
  8
0
  6
Continuous
 62
    18
370
     0
100
AcDbCircle
 10
-24.906149
 20
83.628388
 30
0.0
 40
0.5095136660331396
100
AcDbArc
 50
114.201357
 51
145.893688
  0
SPLINE
  5
118
330
1F
100
AcDbEntity
  8
0
  6
Continuous
 62
    18
370
     0
100
AcDbSpline
210
0.0
220
0.0
230
1.0
 70
     8
 71
     3
 72
    11
 73
     7
 74
     0
 42
0.000000001
 43
0.0
 40
0.0
 40
0.0
 40
0.0
 40
0.0
 40
2.319113045894505
 40
4.633827555167685
 40
6.94864577236776
 40
9.26790437128378
 40
9.26790437128378
 40
9.26790437128378
 40
9.26790437128378
 10
-26.81164545929373
 20
85.10710735072644
 30
0.0
 10
-27.3358877862389
 20
85.35448535231706
 30
0.0
 10
-28.40380194692663
 20
85.57415067929975
 30
0.0
 10
-29.77557224483677
 20
85.01060335034794
 30
0.0
 10
-30.72475304323193
 20
83.65199190405673
 30
0.0
 10
-30.97777575345536
 20
82.33837435618204
 30
0.0
 10
-30.99898335661418
 20
81.63925741752044
 30
0.0
  0
SPLINE
  5
119
330
1F
100
AcDbEntity
  8
0
  6
Continuous
 62
    18
370
     0
100
AcDbSpline
210
0.0
220
0.0
230
1.0
 70
     8
 71
     3
 72
    11
 73
     7
 74
     0
 42
0.000000001
 43
0.0
 40
0.0
 40
0.0
 40
0.0
 40
0.0
 40
2.319113045894505
 40
4.633827555167685
 40
6.94864577236776
 40
9.26790437128378
 40
9.26790437128378
 40
9.26790437128378
 40
9.26790437128378
 10
-26.77026311457335
 20
85.16791531434154
 30
0.0
 10
-27.2987843842045
 20
85.4173114943741
 30
0.0
 10
-28.37499898893098
 20
85.63904496236682
 30
0.0
 10
-29.75996339975289
 20
85.07087091814483
 30
0.0
 10
-30.71760468997637
 20
83.69885166353407
 30
0.0
 10
-30.97232437851288
 20
82.37494849872834
 30
0.0
 10
-30.99371218734261
 20
81.67015899659279
 30
0.0
  0
SPLINE
  5
11A
330
1F
100
AcDbEntity
  8
0
  6
Continuous
 62
    18
370
     0
100
AcDbSpline
210
0.0
220
0.0
230
1.0
 70
     8
 71
     3
 72
    11
 73
     7
 74
     0
 42
0.000000001
 43
0.0
 40
0.0
 40
0.0
 40
0.0
 40
0.0
 40
2.319113045894505
 40
4.633827555167685
 40
6.94864577236776
 40
9.26790437128378
 40
9.26790437128378
 40
9.26790437128378
 40
9.26790437128378
 10
-26.72017426174811
 20
85.21531423902147
 30
0.0
 10
-27.2513009745786
 20
85.46594136059073
 30
0.0
 10
-28.33235082639872
 20
85.68909291673577
 30
0.0
 10
-29.72640517391015
 20
85.11806142196392
 30
0.0
 10
-30.68968800538754
 20
83.73670773745607
 30
0.0
 10
-30.94519634393519
 20
82.40672227102252
 30
0.0
 10
-30.96666224564039
 20
81.69847766351495
 30
0.0
  0
SPLINE
  5
11B
330
1F
100
AcDbEntity
  8
0
  6
Continuous
 62
    18
370
     0
100
AcDbSpline
210
0.0
220
0.0
230
1.0
 70
     8
 71
     3
 72
    11
 73
     7
 74
     0
 42
0.000000001
 43
0.0
 40
0.0001428679167819
 40
0.0001428679167819
 40
0.0001428679167819
 40
0.0001428679167819
 40
0.074701604166292
 40
0.149412119728633
 40
0.22413154668704
 40
0.298859885041525
 40
0.298859885041525
 40
0.298859885041525
 40
0.298859885041525
 10
-28.37753887549065
 20
85.35313797124697
 30
0.0
 10
-28.3762541938611
 20
85.37784505029114
 30
0.0
 10
-28.3678193209286
 20
85.42686259639316
 30
0.0
 10
-28.33871879007965
 20
85.49133570017452
 30
0.0
 10
-28.29577421012628
 20
85.54130247047704
 30
0.0
 10
-28.26032949507758
 20
85.56193730483017
 30
0.0
 10
-28.24184088475464
 20
85.5685777049975
 30
0.0
  0
SPLINE
  5
11C
330
1F
100
AcDbEntity
  8
0
  6
Continuous
 62
    18
370
     0
100
AcDbSpline
210
0.0
220
0.0
230
1.0
 70
     8
 71
     3
 72
    11
 73
     7
 74
     0
 42
0.000000001
 43
0.0
 40
0.0000000017240369
 40
0.0000000017240369
 40
0.0000000017240369
 40
0.0000000017240369
 40
0.074701604166292
 40
0.149412119728633
 40
0.22413154668704
 40
0.298859885041525
 40
0.298859885041525
 40
0.298859885041525
 40
0.298859885041525
 10
-29.70241799870452
 20
84.81189372058891
 30
0.0
 10
-29.70655950128371
 20
84.83448003913134
 30
0.0
 10
-29.70848560605544
 20
84.87943177455942
 30
0.0
 10
-29.69182506277001
 20
84.93907679388755
 30
0.0
 10
-29.65721945801708
 20
84.98588945110262
 30
0.0
 10
-29.62408251244527
 20
85.00575689751514
 30
0.0
 10
-29.60588208883358
 20
85.01236462814774
 30
0.0
  0
SPLINE
  5
11D
330
1F
100
AcDbEntity
  8
0
  6
Continuous
 62
    18
370
     0
100
AcDbSpline
210
0.0
220
0.0
230
1.0
 70
     8
 71
     3
 72
    11
 73
     7
 74
     0
 42
0.000000001
 43
0.0
 40
0.0001507740025822
 40
0.0001507740025822
 40
0.0001507740025822
 40
0.0001507740025822
 40
0.074701604166292
 40
0.149412119728633
 40
0.22413154668704
 40
0.298859885041525
 40
0.298859885041525
 40
0.298859885041525
 40
0.298859885041525
 10
-30.61693437615548
 20
83.49861528076879
 30
0.0
 10
-30.62470316715472
 20
83.51576976702046
 30
0.0
 10
-30.63358971590898
 20
83.55033328890535
 30
0.0
 10
-30.62532032791039
 20
83.59748747094571
 30
0.0
 10
-30.59628112586147
 20
83.6359464051825
 30
0.0
 10
-30.56460678116279
 20
83.6535003515545
 30
0.0
 10
-30.54654531592648
 20
83.65981440265688
 30
0.0
  0
SPLINE
  5
11E
330
1F
100
AcDbEntity
  8
0
  6
Continuous
 62
    18
370
     0
100
AcDbSpline
210
0.0
220
0.0
230
1.0
 70
     8
 71
     3
 72
    13
 73
     9
 74
     0
 42
0.000000001
 43
0.0
 40
0.0000000061850984
 40
0.0000000061850984
 40
0.0000000061850984
 40
0.0000000061850984
 40
0.133384395025243
 40
0.267052460165537
 40
0.534845968623715
 40
1.069857445576208
 40
1.606006938928689
 40
2.14028710316913
 40
2.14028710316913
 40
2.14028710316913
 40
2.14028710316913
 10
-20.86487156487736
 20
35.54784587340802
 30
0.0
 10
-20.86531449106163
 20
35.50975852141842
 30
0.0
 10
-20.86620128527045
 20
35.43350281494282
 30
0.0
 10
-20.85445955024856
 20
35.28765477125461
 30
0.0
 10
-20.80834314008005
 20
35.04846732789824
 30
0.0
 10
-20.66798458557774
 20
34.76622759106536
 30
0.0
 10
-20.41009188095806
 20
34.55475494086829
 30
0.0
 10
-20.19468303450923
 20
34.5027715756485
 30
0.0
 10
-20.08150273471192
 20
34.50075285974486
 30
0.0
  0
SPLINE
  5
11F
330
1F
100
AcDbEntity
  8
0
  6
Continuous
 62
    18
370
     0
100
AcDbSpline
210
0.0
220
0.0
230
1.0
 70
     8
 71
     3
 72
    13
 73
     9
 74
     0
 42
0.000000001
 43
0.0
 40
0.0000000041250938
 40
0.0000000041250938
 40
0.0000000041250938
 40
0.0000000041250938
 40
0.133384395025243
 40
0.267052460165537
 40
0.534845968623715
 40
1.069857445576208
 40
1.606006938928689
 40
2.14028710316913
 40
2.14028710316913
 40
2.14028710316913
 40
2.14028710316913
 10
-20.87013264612956
 20
35.51693393866849
 30
0.0
 10
-20.87041959021974
 20
35.47734217979486
 30
0.0
 10
-20.87099408854628
 20
35.39807446062806
 30
0.0
 10
-20.85791190475179
 20
35.24619368139753
 30
0.0
 10
-20.80813604229228
 20
34.99672377467095
 30
0.0
 10
-20.65910940017066
 20
34.70236204112874
 30
0.0
 10
-20.38594758805031
 20
34.48121121627619
 30
0.0
 10
-20.1593418621503
 20
34.42618391383641
 30
0.0
 10
-20.04036536914298
 20
34.42340491885508
 30
0.0
  0
SPLINE
  5
120
330
1F
100
AcDbEntity
  8
0
  6
Continuous
 62
    18
370
     0
100
AcDbSpline
210
0.0
220
0.0
230
1.0
 70
     8
 71
     3
 72
    13
 73
     9
 74
     0
 42
0.000000001
 43
0.0
 40
0.0000000020650893
 40
0.0000000020650893
 40
0.0000000020650893
 40
0.0000000020650893
 40
0.133384395025243
 40
0.267052460165537
 40
0.534845968623715
 40
1.069857445576208
 40
1.606006938928689
 40
2.14028710316913
 40
2.14028710316913
 40
2.14028710316913
 40
2.14028710316913
 10
-20.89718124634108
 20
35.48860268510384
 30
0.0
 10
-20.89746568409861
 20
35.44717769022571
 30
0.0
 10
-20.89803516447733
 20
35.36423960084371
 30
0.0
 10
-20.88427203274129
 20
35.20491507808279
 30
0.0
 10
-20.8320579188326
 20
34.94257987433758
 30
0.0
 10
-20.67615296494442
 20
34.63219300618607
 30
0.0
 10
-20.38853104211579
 20
34.39573087886225
 30
0.0
 10
-20.14989322252488
 20
34.33426842860715
 30
0.0
 10
-20.02451447871117
 20
34.3293146110021
 30
0.0
  0
SPLINE
  5
121
330
1F
100
AcDbEntity
  8
0
  6
Continuous
 62
    18
370
     0
100
AcDbSpline
210
0.0
220
0.0
230
1.0
 70
     8
 71
     3
 72
    11
 73
     7
 74
     0
 42
0.000000001
 43
0.0
 40
0.000018168899951
 40
0.000018168899951
 40
0.000018168899951
 40
0.000018168899951
 40
0.085125010797462
 40
0.170257488049695
 40
0.255397431756713
 40
0.3405319268187906
 40
0.3405319268187906
 40
0.3405319268187906
 40
0.3405319268187906
 10
-20.83972565994842
 20
35.16268804971266
 30
0.0
 10
-20.82824951282727
 20
35.15026193422961
 30
0.0
 10
-20.81242756491383
 20
35.12162059407255
 30
0.0
 10
-20.8130788211099
 20
35.07218792167808
 30
0.0
 10
-20.83782122464669
 20
35.02104826729464
 30
0.0
 10
-20.86894916366903
 20
34.98908490248983
 30
0.0
 10
-20.88723636137855
 20
34.97455220107928
 30
0.0
  0
SPLINE
  5
122
330
1F
100
AcDbEntity
  8
0
  6
Continuous
 62
    18
370
     0
100
AcDbSpline
210
0.0
220
0.0
230
1.0
 70
     8
 71
     3
 72
    11
 73
     7
 74
     0
 42
0.000000001
 43
0.0
 40
0.0001065885205859
 40
0.0001065885205859
 40
0.0001065885205859
 40
0.0001065885205859
 40
0.085125010797462
 40
0.170257488049695
 40
0.255397431756713
 40
0.3404973219167622
 40
0.3404973219167622
 40
0.3404973219167622
 40
0.3404973219167622
 10
-20.68731836280515
 20
34.83682236328213
 30
0.0
 10
-20.67224658510264
 20
34.82337596526584
 30
0.0
 10
-20.64885726785029
 20
34.7897165168478
 30
0.0
 10
-20.63904325001617
 20
34.72549947100745
 30
0.0
 10
-20.65530107732228
 20
34.65470087576868
 30
0.0
 10
-20.68249947005331
 20
34.60830552153752
 30
0.0
 10
-20.69924128091277
 20
34.58683613476266
 30
0.0
  0
SPLINE
  5
123
330
1F
100
AcDbEntity
  8
0
  6
Continuous
 62
    18
370
     0
100
AcDbSpline
210
0.0
220
0.0
230
1.0
 70
     8
 71
     3
 72
    11
 73
     7
 74
     0
 42
0.000000001
 43
0.0
 40
0.0000005121780429
 40
0.0000005121780429
 40
0.0000005121780429
 40
0.0000005121780429
 40
0.085125010797462
 40
0.170257488049695
 40
0.255397431756713
 40
0.3405392092862886
 40
0.3405392092862886
 40
0.3405392092862886
 40
0.3405392092862886
 10
-20.44686431275843
 20
34.62834417884911
 30
0.0
 10
-20.42788559475748
 20
34.6157270287006
 30
0.0
 10
-20.3953290482808
 20
34.58068204435847
 30
0.0
 10
-20.37045305661722
 20
34.50638483872243
 30
0.0
 10
-20.37241997068692
 20
34.42003605614871
 30
0.0
 10
-20.3917087364701
 20
34.36169692147162
 30
0.0
 10
-20.4050479628783
 20
34.33458258468062
 30
0.0
  0
SPLINE
  5
124
330
1F
100
AcDbEntity
  8
0
  6
Continuous
 62
    18
370
     0
100
AcDbSpline
210
0.0
220
0.0
230
1.0
 70
     8
 71
     3
 72
    17
 73
    13
 74
     0
 42
0.000000001
 43
0.0
 40
0.0
 40
0.0
 40
0.0
 40
0.0
 40
0.029920556848262
 40
0.059988578489087
 40
0.120617943756052
 40
0.244126988835064
 40
0.500809762411477
 40
0.7701696142400228
 40
0.9777132239368072
 40
1.012615564649967
 40
1.030086774768464
 40
1.047570391860741
 40
1.047570391860741
 40
1.047570391860741
 40
1.047570391860741
 10
-29.27650031089136
 20
39.17914314954271
 30
0.0
 10
-29.2744016305483
 20
39.17776971086886
 30
0.0
 10
-29.27019392642306
 20
39.17501606446783
 30
0.0
 10
-29.2610878059014
 20
39.16900374426791
 30
0.0
 10
-29.2436106865092
 20
39.15745129223697
 30
0.0
 10
-29.20200039626114
 20
39.13034160447668
 30
0.0
 10
-29.12307464466487
 20
39.08251185392896
 30
0.0
 10
-29.01302732418348
 20
39.02008371808844
 30
0.0
 10
-28.93133326834804
 20
38.97537639001251
 30
0.0
 10
-28.8905377180278
 20
38.95366522990122
 30
0.0
 10
-28.87962707809041
 20
38.94789653589778
 30
0.0
 10
-28.874198102624
 20
38.94504389365025
 30
0.0
 10
-28.87148265142595
 20
38.9436170662901
 30
0.0
  0
SPLINE
  5
125
330
1F
100
AcDbEntity
  8
0
  6
Continuous
 62
    18
370
     0
100
AcDbSpline
210
0.0
220
0.0
230
1.0
 70
     8
 71
     3
 72
    17
 73
    13
 74
     0
 42
0.000000001
 43
0.0
 40
0.0
 40
0.0
 40
0.0
 40
0.0
 40
0.029920556848262
 40
0.059988578489087
 40
0.120617943756052
 40
0.244126988835064
 40
0.500809762411477
 40
0.7701696142400228
 40
0.9777132239368072
 40
1.012615564649967
 40
1.030086774768464
 40
1.047570409759319
 40
1.047570409759319
 40
1.047570409759319
 40
1.047570409759319
 10
-29.57195230794518
 20
38.82589279945483
 30
0.0
 10
-29.56751992493803
 20
38.82594559978605
 30
0.0
 10
-29.55863331372721
 20
38.82605146067706
 30
0.0
 10
-29.53961860687387
 20
38.82563256619264
 30
0.0
 10
-29.50359799466393
 20
38.82367181833817
 30
0.0
 10
-29.42012339665114
 20
38.81462187306533
 30
0.0
 10
-29.27048069051629
 20
38.78713395897381
 30
0.0
 10
-29.07413968668446
 20
38.73434759984593
 30
0.0
 10
-28.93261377164082
 20
38.68752427640237
 30
0.0
 10
-28.86247582449759
 20
38.66234594914528
 30
0.0
 10
-28.84374171367498
 20
38.65551279101806
 30
0.0
 10
-28.8344291536872
 20
38.65206885771082
 30
0.0
 10
-28.82977121862795
 20
38.65034627896271
 30
0.0
  0
SPLINE
  5
126
330
1F
100
AcDbEntity
  8
0
  6
Continuous
 62
    18
370
     0
100
AcDbSpline
210
0.0
220
0.0
230
1.0
 70
     8
 71
     3
 72
    17
 73
    13
 74
     0
 42
0.000000001
 43
0.0
 40
0.0
 40
0.0
 40
0.0
 40
0.0
 40
0.029920556848262
 40
0.059988578489087
 40
0.120617943756052
 40
0.244126988835064
 40
0.500809762411477
 40
0.7701696142400228
 40
0.9777132239368072
 40
1.012615564649967
 40
1.030086774768464
 40
1.047570427657897
 40
1.047570427657897
 40
1.047570427657897
 40
1.047570427657897
 10
-29.95294716288895
 20
38.67651076852928
 30
0.0
 10
-29.94421188532418
 20
38.67776372329487
 30
0.0
 10
-29.92669827799158
 20
38.68027580806904
 30
0.0
 10
-29.8897424984297
 20
38.68416871019545
 30
0.0
 10
-29.82082798258249
 20
38.68881285315442
 30
0.0
 10
-29.66621753098876
 20
38.6888554504819
 30
0.0
 10
-29.40770868918416
 20
38.66260977868939
 30
0.0
 10
-29.09464857693216
 20
38.59655336903481
 30
0.0
 10
-28.87810117030374
 20
38.53418328906065
 30
0.0
 10
-28.77197738037493
 20
38.49968111732881
 30
0.0
 10
-28.74368433637187
 20
38.4902616050902
 30
0.0
 10
-28.72964047254725
 20
38.4854884714894
 30
0.0
 10
-28.72261604109027
 20
38.48310105513455
 30
0.0
  0
SPLINE
  5
127
330
1F
100
AcDbEntity
  8
0
  6
Continuous
 62
    18
370
     0
100
AcDbSpline
210
0.0
220
0.0
230
1.0
 70
     8
 71
     3
 72
    11
 73
     7
 74
     0
 42
0.000000001
 43
0.0
 40
0.0000000310152999
 40
0.0000000310152999
 40
0.0000000310152999
 40
0.0000000310152999
 40
0.5329622311897071
 40
1.065948751980716
 40
1.59895956237303
 40
2.131975123843552
 40
2.131975123843552
 40
2.131975123843552
 40
2.131975123843552
 10
-29.04816348172886
 20
39.60051028778366
 30
0.0
 10
-29.08753526840425
 20
39.42860400159776
 30
0.0
 10
-29.19688196395286
 20
39.10909461916452
 30
0.0
 10
-29.42704623086318
 20
38.78254449989416
 30
0.0
 10
-29.69157907066822
 20
38.65055908070853
 30
0.0
 10
-29.86716412480896
 20
38.70602052093773
 30
0.0
 10
-29.94764229430595
 20
38.76686952289818
 30
0.0
  0
SPLINE
  5
128
330
1F
100
AcDbEntity
  8
0
  6
Continuous
 62
    18
370
     0
100
AcDbSpline
210
0.0
220
0.0
230
1.0
 70
     8
 71
     3
 72
    11
 73
     7
 74
     0
 42
0.000000001
 43
0.0
 40
0.0000000620305999
 40
0.0000000620305999
 40
0.0000000620305999
 40
0.0000000620305999
 40
0.5329622311897071
 40
1.065948751980716
 40
1.59895956237303
 40
2.131978809938505
 40
2.131978809938505
 40
2.131978809938505
 40
2.131978809938505
 10
-28.9785836037961
 20
39.50487333352601
 30
0.0
 10
-29.01966232533874
 20
39.34657359884226
 30
0.0
 10
-29.11055273992068
 20
39.05370890065109
 30
0.0
 10
-29.25329122703941
 20
38.75135755524835
 30
0.0
 10
-29.38517195640577
 20
38.62068748165718
 30
0.0
 10
-29.45504567784887
 20
38.66003933118865
 30
0.0
 10
-29.48298601022414
 20
38.70950294245498
 30
0.0
  0
SPLINE
  5
129
330
1F
100
AcDbEntity
  8
0
  6
Continuous
 62
    18
370
     0
100
AcDbSpline
210
0.0
220
0.0
230
1.0
 70
     8
 71
     3
 72
    11
 73
     7
 74
     0
 42
0.000000001
 43
0.0
 40
0.0000000930458998
 40
0.0000000930458998
 40
0.0000000930458998
 40
0.0000000930458998
 40
0.5329622311897071
 40
1.065948751980716
 40
1.59895956237303
 40
2.131991038366635
 40
2.131991038366635
 40
2.131991038366635
 40
2.131991038366635
 10
-28.90901788629687
 20
39.41107760701995
 30
0.0
 10
-28.94281667863913
 20
39.26409190319772
 30
0.0
 10
-29.00149243898124
 20
38.99093328778743
 30
0.0
 10
-29.05081206400506
 20
38.69845514495844
 30
0.0
 10
-29.05652583716561
 20
38.55356487010278
 30
0.0
 10
-29.0305201321362
 20
38.5670170779668
 30
0.0
 10
-29.01099721600227
 20
38.60050709078009
 30
0.0
  0
SPLINE
  5
12A
330
1F
100
AcDbEntity
  8
0
  6
Continuous
 62
    18
370
     0
100
AcDbSpline
210
0.0
220
0.0
230
1.0
 70
     8
 71
     3
 72
    13
 73
     9
 74
     0
 42
0.000000001
 43
0.0
 40
0.000000006184345
 40
0.000000006184345
 40
0.000000006184345
 40
0.000000006184345
 40
0.133384164076718
 40
0.267051997425945
 40
0.534845042952267
 40
1.069855602044933
 40
1.606004168592016
 40
2.140283415133367
 40
2.140283415133367
 40
2.140283415133367
 40
2.140283415133367
 10
-24.26618252647769
 20
34.31242645923627
 30
0.0
 10
-24.26887461726633
 20
34.27352224235337
 30
0.0
 10
-24.27426452442761
 20
34.19563106880288
 30
0.0
 10
-24.29938621715688
 20
34.03639389860484
 30
0.0
 10
-24.36992177000967
 20
33.75483701061677
 30
0.0
 10
-24.5474241096927
 20
33.35714551546832
 30
0.0
 10
-24.8488342678862
 20
32.94252504002898
 30
0.0
 10
-25.08971433951403
 20
32.72480982450233
 30
0.0
 10
-25.21414198862037
 20
32.63648779190859
 30
0.0
  0
SPLINE
  5
12B
330
1F
100
AcDbEntity
  8
0
  6
Continuous
 62
    18
370
     0
100
AcDbSpline
210
0.0
220
0.0
230
1.0
 70
     8
 71
     3
 72
    13
 73
     9
 74
     0
 42
0.000000001
 43
0.0
 40
0.0000000041245909
 40
0.0000000041245909
 40
0.0000000041245909
 40
0.0000000041245909
 40
0.133384164076718
 40
0.267051997425945
 40
0.534845042952267
 40
1.069855602044933
 40
1.606004168592016
 40
2.140283415133367
 40
2.140283415133367
 40
2.140283415133367
 40
2.140283415133367
 10
-24.19147821388199
 20
34.31055923670935
 30
0.0
 10
-24.19400446214304
 20
34.270154196286
 30
0.0
 10
-24.19906233145059
 20
34.1892581844056
 30
0.0
 10
-24.22380075652187
 20
34.02364062451798
 30
0.0
 10
-24.29412331370979
 20
33.73054948234636
 30
0.0
 10
-24.47245933788012
 20
33.31728481103607
 30
0.0
 10
-24.77794266690516
 20
32.88596074353609
 30
0.0
 10
-25.02164185039463
 20
32.66011074821941
 30
0.0
 10
-25.14771253509291
 20
32.56832638349672
 30
0.0
  0
SPLINE
  5
12C
330
1F
100
AcDbEntity
  8
0
  6
Continuous
 62
    18
370
     0
100
AcDbSpline
210
0.0
220
0.0
230
1.0
 70
     8
 71
     3
 72
    13
 73
     9
 74
     0
 42
0.000000001
 43
0.0
 40
0.0000000020648369
 40
0.0000000020648369
 40
0.0000000020648369
 40
0.0000000020648369
 40
0.133384164076718
 40
0.267051997425945
 40
0.534845042952267
 40
1.069855602044933
 40
1.606004168592016
 40
2.140283415133367
 40
2.140283415133367
 40
2.140283415133367
 40
2.140283415133367
 10
-24.12012194084469
 20
34.31797020966076
 30
0.0
 10
-24.12247362938755
 20
34.27579442860265
 30
0.0
 10
-24.12718200792419
 20
34.19135317021254
 30
0.0
 10
-24.15157809302444
 20
34.01816889175038
 30
0.0
 10
-24.22206061716058
 20
33.71126876024613
 30
0.0
 10
-24.40241017963301
 20
33.27874931307616
 30
0.0
 10
-24.71455752641747
 20
32.82444133861637
 30
0.0
 10
-24.96449834567919
 20
32.58551887153328
 30
0.0
 10
-25.09405149170446
 20
32.48796938989003
 30
0.0
  0
ARC
  5
12D
330
1F
100
AcDbEntity
  8
0
  6
Continuous
 62
    18
370
     0
100
AcDbCircle
 10
-24.010389
 20
34.949501
 30
0.0
 40
1.166563305666665
100
AcDbArc
 50
249.086068
 51
263.317891
  0
ARC
  5
12E
330
1F
100
AcDbEntity
  8
0
  6
Continuous
 62
    18
370
     0
100
AcDbCircle
 10
-26.379951
 20
29.861841
 30
0.0
 40
3.949097351886222
100
AcDbArc
 50
59.270621
 51
63.747907
  0
ARC
  5
12F
330
1F
100
AcDbEntity
  8
0
  6
Continuous
 62
    18
370
     0
100
AcDbCircle
 10
-25.311742
 20
32.308818
 30
0.0
 40
0.7910514526283798
100
AcDbArc
 50
36.784159
 51
60.995023
  0
SPLINE
  5
130
330
1F
100
AcDbEntity
  8
0
  6
Continuous
 62
    18
370
     0
100
AcDbSpline
210
0.0
220
0.0
230
1.0
 70
     8
 71
     3
 72
    16
 73
    12
 74
     0
 42
0.000000001
 43
0.0
 40
0.0000000548895842
 40
0.0000000548895842
 40
0.0000000548895842
 40
0.0000000548895842
 40
0.017494160808212
 40
0.03497449310251
 40
0.069891634524622
 40
0.277481516934905
 40
0.546972937644999
 40
0.8036187600554049
 40
0.927053544258267
 40
0.987625306949283
 40
1.047521212526359
 40
1.047521212526359
 40
1.047521212526359
 40
1.047521212526359
 10
-32.40345912167306
 20
37.66073100668233
 30
0.0
 10
-32.40429787706022
 20
37.66284349633549
 30
0.0
 10
-32.4059747271717
 20
37.66706681259092
 30
0.0
 10
-32.40896188729481
 20
37.67572871509554
 30
0.0
 10
-32.41855689377972
 20
37.70882157855377
 30
0.0
 10
-32.42306836744125
 20
37.78164462399661
 30
0.0
 10
-32.39471417977812
 20
37.89433874972653
 30
0.0
 10
-32.34083430240132
 20
37.99063307459923
 30
0.0
 10
-32.29567340339928
 20
38.0489637313558
 30
0.0
 10
-32.26902820269639
 20
38.07908298114731
 30
0.0
 10
-32.25521183574675
 20
38.09286009411974
 30
0.0
 10
-32.24834240910194
 20
38.09971000388876
 30
0.0
  0
SPLINE
  5
131
330
1F
100
AcDbEntity
  8
0
  6
Continuous
 62
    18
370
     0
100
AcDbSpline
210
0.0
220
0.0
230
1.0
 70
     8
 71
     3
 72
    16
 73
    12
 74
     0
 42
0.000000001
 43
0.0
 40
0.0000000368238276
 40
0.0000000368238276
 40
0.0000000368238276
 40
0.0000000368238276
 40
0.017494160808212
 40
0.03497449310251
 40
0.069891634524622
 40
0.277481516934905
 40
0.546972937644999
 40
0.8036187600554049
 40
0.927053544258267
 40
0.987625306949283
 40
1.047521212526359
 40
1.047521212526359
 40
1.047521212526359
 40
1.047521212526359
 10
-32.63995296559965
 20
37.26641223409418
 30
0.0
 10
-32.64161995379958
 20
37.26922650893084
 30
0.0
 10
-32.64495261571066
 20
37.27485284004516
 30
0.0
 10
-32.65104324751159
 20
37.28629779940741
 30
0.0
 10
-32.67131892962043
 20
37.32964611694112
 30
0.0
 10
-32.68864247582682
 20
37.42164705677652
 30
0.0
 10
-32.65661823613401
 20
37.55734231960776
 30
0.0
 10
-32.57661975857052
 20
37.66864278447289
 30
0.0
 10
-32.50316880162073
 20
37.73428050344069
 30
0.0
 10
-32.45831147626511
 20
37.7677886271816
 30
0.0
 10
-32.43441513702832
 20
37.78296294835627
 30
0.0
 10
-32.42253399996353
 20
37.79050754286325
 30
0.0
  0
SPLINE
  5
132
330
1F
100
AcDbEntity
  8
0
  6
Continuous
 62
    18
370
     0
100
AcDbSpline
210
0.0
220
0.0
230
1.0
 70
     8
 71
     3
 72
    16
 73
    12
 74
     0
 42
0.000000001
 43
0.0
 40
0.0000000187580711
 40
0.0000000187580711
 40
0.0000000187580711
 40
0.0000000187580711
 40
0.017494160808212
 40
0.03497449310251
 40
0.069891634524622
 40
0.277481516934905
 40
0.546972937644999
 40
0.8036187600554049
 40
0.927053544258267
 40
0.987625306949283
 40
1.047521212526359
 40
1.047521212526359
 40
1.047521212526359
 40
1.047521212526359
 10
-32.98432317577412
 20
36.93517030331166
 30
0.0
 10
-32.98722469603505
 20
36.93905867107737
 30
0.0
 10
-32.99302544591275
 20
36.94683233722147
 30
0.0
 10
-33.00385804238253
 20
36.96260451260486
 30
0.0
 10
-33.04095828248659
 20
37.02219753265913
 30
0.0
 10
-33.08357495645764
 20
37.14772266782791
 30
0.0
 10
-33.06241349398157
 20
37.33517863703926
 30
0.0
 10
-32.95917679638761
 20
37.4934277816503
 30
0.0
 10
-32.85000129421694
 20
37.5886319885731
 30
0.0
 10
-32.780124212573
 20
37.6374510986679
 30
0.0
 10
-32.74164157619076
 20
37.65956505476649
 30
0.0
 10
-32.72250820714463
 20
37.67056000009467
 30
0.0
  0
SPLINE
  5
133
330
1F
100
AcDbEntity
  8
0
  6
Continuous
 62
    18
370
     0
100
AcDbSpline
210
0.0
220
0.0
230
1.0
 70
     8
 71
     3
 72
    11
 73
     7
 74
     0
 42
0.000000001
 43
0.0
 40
0.0000000934165537
 40
0.0000000934165537
 40
0.0000000934165537
 40
0.0000000934165537
 40
0.5329498864897999
 40
1.065931965390443
 40
1.59894623670193
 40
2.131992700424264
 40
2.131992700424264
 40
2.131992700424264
 40
2.131992700424264
 10
-32.31360446106616
 20
38.17440782879012
 30
0.0
 10
-32.32085130240895
 20
38.03713493263128
 30
0.0
 10
-32.39226813250065
 20
37.75945220915167
 30
0.0
 10
-32.65801879714103
 20
37.38834541632923
 30
0.0
 10
-33.05202575728769
 20
37.10228432094303
 30
0.0
 10
-33.37253433976734
 20
36.98973870086482
 30
0.0
 10
-33.53658556111462
 20
36.95647783953413
 30
0.0
  0
SPLINE
  5
134
330
1F
100
AcDbEntity
  8
0
  6
Continuous
 62
    18
370
     0
100
AcDbSpline
210
0.0
220
0.0
230
1.0
 70
     8
 71
     3
 72
    11
 73
     7
 74
     0
 42
0.000000001
 43
0.0
 40
0.0000000622777025
 40
0.0000000622777025
 40
0.0000000622777025
 40
0.0000000622777025
 40
0.5329498864897999
 40
1.065931965390443
 40
1.59894623670193
 40
2.131992700424264
 40
2.131992700424264
 40
2.131992700424264
 40
2.131992700424264
 10
-32.30727387346853
 20
38.29583742596762
 30
0.0
 10
-32.30486454344212
 20
38.15338981827435
 30
0.0
 10
-32.36265499598585
 20
37.87263090096268
 30
0.0
 10
-32.6267658464058
 20
37.52618107435774
 30
0.0
 10
-33.03437699749388
 20
37.29524707706838
 30
0.0
 10
-33.36983154882601
 20
37.23802450017806
 30
0.0
 10
-33.54107232186242
 20
37.23537995413491
 30
0.0
  0
SPLINE
  5
135
330
1F
100
AcDbEntity
  8
0
  6
Continuous
 62
    18
370
     0
100
AcDbSpline
210
0.0
220
0.0
230
1.0
 70
     8
 71
     3
 72
    11
 73
     7
 74
     0
 42
0.000000001
 43
0.0
 40
0.0000000311388512
 40
0.0000000311388512
 40
0.0000000311388512
 40
0.0000000311388512
 40
0.5329498864897999
 40
1.065931965390443
 40
1.59894623670193
 40
2.131992700424264
 40
2.131992700424264
 40
2.131992700424264
 40
2.131992700424264
 10
-32.27845057968302
 20
38.42731617919505
 30
0.0
 10
-32.26531574514651
 20
38.27451806600212
 30
0.0
 10
-32.30139679998667
 20
37.98168374047732
 30
0.0
 10
-32.53628349293028
 20
37.65352267884307
 30
0.0
 10
-32.91801691056359
 20
37.47899596633135
 30
0.0
 10
-33.2370905986371
 20
37.48227636398684
 30
0.0
 10
-33.39962820323193
 20
37.5132775765436
 30
0.0
  0
ELLIPSE
  5
136
330
1F
100
AcDbEntity
  8
0
  6
Continuous
 62
    18
370
    30
100
AcDbEllipse
 10
-55.339705
 20
39.4042
 30
0.0
 11
-4.843706530841174
 21
-10.2645509908172
 31
0.0
210
0.0
220
0.0
230
-1.0
 40
0.657285
 41
4.127317331281555
 42
7.268909984871343
  0
ELLIPSE
  5
137
330
1F
100
AcDbEntity
  8
0
  6
Continuous
 62
    18
370
    30
100
AcDbEllipse
 10
-55.339705
 20
39.4042
 30
0.0
 11
-4.843706530841174
 21
-10.2645509908172
 31
0.0
210
0.0
220
0.0
230
-1.0
 40
0.657285
 41
0.9857246776917573
 42
4.127317331281555
  0
LINE
  5
138
330
1F
100
AcDbEntity
  8
0
  6
Continuous
 62
    18
370
    30
100
AcDbLine
 10
-47.040152
 20
42.418731
 30
0.0
 11
-46.222271
 21
42.032783
 31
0.0
  0
ELLIPSE
  5
139
330
1F
100
AcDbEntity
  8
0
  6
Continuous
 62
    18
370
    30
100
AcDbEllipse
 10
-54.521823
 20
39.018253
 30
0.0
 11
4.843706530841174
 21
10.2645509908172
 31
0.0
210
0.0
220
0.0
230
1.0
 40
0.657285
 41
5.297460629487829
 42
8.439053283077623
  0
ELLIPSE
  5
13A
330
1F
100
AcDbEntity
  8
0
  6
Continuous
 62
    18
370
    30
100
AcDbEllipse
 10
-54.521823
 20
39.018253
 30
0.0
 11
4.843706530841174
 21
10.2645509908172
 31
0.0
210
0.0
220
0.0
230
1.0
 40
0.657285
 41
2.155867975898036
 42
5.297460629487829
  0
ELLIPSE
  5
13B
330
1F
100
AcDbEntity
  8
0
  6
Continuous
 62
    18
370
    30
100
AcDbEllipse
 10
-54.521823
 20
39.018253
 30
0.0
 11
14.93653996294636
 21
31.65280041221166
 31
0.0
210
0.0
220
0.0
230
1.0
 40
0.657285
 41
5.29746062948783
 42
8.439053283077621
  0
ELLIPSE
  5
13C
330
1F
100
AcDbEntity
  8
0
  6
Continuous
 62
    18
370
    30
100
AcDbEllipse
 10
-54.521823
 20
39.018253
 30
0.0
 11
14.93653996294636
 21
31.65280041221166
 31
0.0
210
0.0
220
0.0
230
1.0
 40
0.657285
 41
2.155867975898035
 42
5.29746062948783
  0
LINE
  5
13D
330
1F
100
AcDbEntity
  8
0
  6
Continuous
 62
    18
370
    30
100
AcDbLine
 10
-28.928489
 20
48.314162
 30
0.0
 11
-33.017895
 21
50.243899
 31
0.0
  0
ELLIPSE
  5
13E
330
1F
100
AcDbEntity
  8
0
  6
Continuous
 62
    18
370
    30
100
AcDbEllipse
 10
-58.61123
 20
40.94799
 30
0.0
 11
14.93653996294636
 21
31.65280041221166
 31
0.0
210
0.0
220
0.0
230
1.0
 40
0.657285
 41
5.29746062948783
 42
8.439053283077621
  0
ELLIPSE
  5
13F
330
1F
100
AcDbEntity
  8
0
  6
Continuous
 62
    18
370
    30
100
AcDbEllipse
 10
-58.61123
 20
40.94799
 30
0.0
 11
14.93653996294636
 21
31.65280041221166
 31
0.0
210
0.0
220
0.0
230
1.0
 40
0.657285
 41
2.155867975898035
 42
5.29746062948783
  0
LINE
  5
140
330
1F
100
AcDbEntity
  8
0
  6
Continuous
 62
    18
370
     0
100
AcDbLine
 10
-54.83394
 20
28.702752
 30
0.0
 11
-55.651821
 21
29.0887
 31
0.0
  0
LINE
  5
141
330
1F
100
AcDbEntity
  8
0
  6
Continuous
 62
    18
370
     0
100
AcDbLine
 10
-62.821376
 20
36.003722
 30
0.0
 11
-63.639257
 21
36.38967
 31
0.0
  0
LINE
  5
142
330
1F
100
AcDbEntity
  8
0
  6
Continuous
 62
    18
370
     0
100
AcDbLine
 10
-54.209707
 20
49.333753
 30
0.0
 11
-55.027588
 21
49.7197
 31
0.0
  0
LINE
  5
143
330
1F
100
AcDbEntity
  8
0
  6
Continuous
 62
    18
370
     0
100
AcDbLine
 10
-55.484297
 20
7.20834
 30
0.0
 11
-59.573703
 21
9.138077
 31
0.0
  0
LINE
  5
144
330
1F
100
AcDbEntity
  8
0
  6
Continuous
 62
    18
370
     0
100
AcDbLine
 10
-80.115158
 20
29.722344
 30
0.0
 11
-84.204564
 21
31.652081
 31
0.0
  0
LINE
  5
145
330
1F
100
AcDbEntity
  8
0
  6
Continuous
 62
    18
370
     0
100
AcDbLine
 10
-53.55935
 20
70.828165
 30
0.0
 11
-57.648756
 21
72.757902
 31
0.0
  0
LINE
  5
146
330
1F
100
AcDbEntity
  8
0
  6
Continuous
 62
    18
370
    30
100
AcDbLine
 10
77.228789
 20
-75.356239
 30
0.0
 11
76.192444
 21
-70.536011
 31
0.0
  0
ELLIPSE
  5
147
330
1F
100
AcDbEntity
  8
0
  6
Continuous
 62
    18
370
    30
100
AcDbEllipse
 10
68.148824
 20
-73.457583
 30
0.0
 11
10.75425190434447
 21
2.312156131817929
 31
0.0
210
0.0
220
0.0
230
-1.0
 40
0.1663
 41
5.592373853960105
 42
8.733966507549919
  0
ELLIPSE
  5
148
330
1F
100
AcDbEntity
  8
0
  6
Continuous
 62
    18
370
    30
100
AcDbEllipse
 10
68.148824
 20
-73.457583
 30
0.0
 11
10.75425190434447
 21
2.312156131817929
 31
0.0
210
0.0
220
0.0
230
-1.0
 40
0.1663
 41
2.450781200370332
 42
5.592373853960105
  0
ELLIPSE
  5
149
330
1F
100
AcDbEntity
  8
0
  6
Continuous
 62
    18
370
    30
100
AcDbEllipse
 10
69.18517
 20
-78.27781
 30
0.0
 11
-10.75425190434447
 21
-2.312156131817929
 31
0.0
210
0.0
220
0.0
230
1.0
 40
0.1663
 41
3.832404106809268
 42
6.973996760399046
  0
ELLIPSE
  5
14A
330
1F
100
AcDbEntity
  8
0
  6
Continuous
 62
    18
370
    30
100
AcDbEllipse
 10
69.18517
 20
-78.27781
 30
0.0
 11
-10.75425190434447
 21
-2.312156131817929
 31
0.0
210
0.0
220
0.0
230
1.0
 40
0.1663
 41
0.6908114532194602
 42
3.832404106809268
  0
SPLINE
  5
14B
330
1F
100
AcDbEntity
  8
0
  6
Continuous
 62
    18
370
    30
100
AcDbSpline
210
0.0
220
0.0
230
1.0
 70
    12
 71
     2
 72
     6
 73
     3
 74
     0
 42
0.000000001
 43
0.0
 40
0.0
 40
0.0
 40
0.0
 40
1.0
 40
1.0
 40
1.0
 10
76.1924435790553
 20
-70.53601110548252
 30
0.0
 41
1.0
 10
63.1306212289569
 20
-9.783138083750686
 30
0.0
 41
0.8191520442889921
 10
20.17912236868536
 20
10.48510898570552
 30
0.0
 41
1.0
  0
SPLINE
  5
14C
330
1F
100
AcDbEntity
  8
0
  6
Continuous
 62
    18
370
    30
100
AcDbSpline
210
0.0
220
0.0
230
1.0
 70
    12
 71
     2
 72
     8
 73
     5
 74
     0
 42
0.000000001
 43
0.0
 40
0.0
 40
0.0
 40
0.0
 40
0.25
 40
0.25
 40
0.5
 40
0.5
 40
0.5
 10
20.17912236868536
 20
10.48510898570552
 30
0.0
 41
1.0
 10
20.48161406565556
 20
20.48251005082429
 30
0.0
 41
0.707106781186548
 10
12.43799470220024
 20
17.56093861807324
 30
0.0
 41
1.0
 10
4.394375338744979
 20
14.6393671853221
 30
0.0
 41
0.707106781186548
 10
4.091883641774771
 20
4.641966120203335
 30
0.0
 41
1.0
  0
SPLINE
  5
14D
330
1F
100
AcDbEntity
  8
0
  6
Continuous
 62
    18
370
    30
100
AcDbSpline
210
0.0
220
0.0
230
1.0
 70
    12
 71
     2
 72
     8
 73
     5
 74
     0
 42
0.000000001
 43
0.0
 40
0.5
 40
0.5
 40
0.5
 40
0.75
 40
0.75
 40
1.0
 40
1.0
 40
1.0
 10
4.091883641774771
 20
4.641966120203335
 30
0.0
 41
1.0
 10
3.789391944804507
 20
-5.355434944915544
 30
0.0
 41
0.707106781186548
 10
11.83301130825988
 20
-2.433863512164407
 30
0.0
 41
1.0
 10
19.87663067171515
 20
0.487707920586729
 30
0.0
 41
0.707106781186548
 10
20.17912236868536
 20
10.48510898570552
 30
0.0
 41
1.0
  0
LINE
  5
14E
330
1F
100
AcDbEntity
  8
0
  6
Continuous
 62
    18
370
    30
100
AcDbLine
 10
20.179122
 20
10.485109
 30
0.0
 11
-14.580833
 21
26.887874
 31
0.0
  0
ELLIPSE
  5
14F
330
1F
100
AcDbEntity
  8
0
  6
Continuous
 62
    18
370
    30
100
AcDbEllipse
 10
-22.624452
 20
23.966303
 30
0.0
 11
4.694341131211714
 21
9.948022986695094
 31
0.0
210
0.0
220
0.0
230
1.0
 40
0.657285
 41
5.297460629487826
 42
8.439053283077616
  0
ELLIPSE
  5
150
330
1F
100
AcDbEntity
  8
0
  6
Continuous
 62
    18
370
    30
100
AcDbEllipse
 10
-22.624452
 20
23.966303
 30
0.0
 11
4.694341131211714
 21
9.948022986695094
 31
0.0
210
0.0
220
0.0
230
1.0
 40
0.657285
 41
2.155867975898029
 42
5.297460629487826
  0
LINE
  5
151
330
1F
100
AcDbEntity
  8
0
  6
Continuous
 62
    18
370
     0
100
AcDbLine
 10
75.297389
 20
-73.362763
 30
0.0
 11
76.333734
 21
-78.18299
 31
0.0
  0
LINE
  5
152
330
1F
100
AcDbEntity
  8
0
  6
Continuous
 62
    18
370
     0
100
AcDbLine
 10
60.105205
 20
-76.379154
 30
0.0
 11
61.14155
 21
-81.199381
 31
0.0
  0
LINE
  5
153
330
1F
100
AcDbEntity
  8
0
  6
Continuous
 62
    18
370
     0
100
AcDbLine
 10
61.00026
 20
-73.552402
 30
0.0
 11
62.036605
 21
-78.37263
 31
0.0
  0
SPLINE
  5
154
330
1F
100
AcDbEntity
  8
0
  6
Continuous
 62
    18
370
     0
100
AcDbSpline
210
0.0
220
0.0
230
1.0
 70
    15
 71
     2
 72
    12
 73
     9
 74
     0
 42
0.000000001
 43
0.0
 40
0.0
 40
0.0
 40
0.0
 40
0.2499999999999999
 40
0.2499999999999999
 40
0.4999999999999998
 40
0.4999999999999998
 40
0.7499999999999999
 40
0.7499999999999999
 40
1.0
 40
1.0
 40
1.0
 10
68.13265549918293
 20
-45.0838894891578
 30
0.0
 41
0.9321820166083721
 10
74.29613457876934
 20
-41.87825490430004
 30
0.0
 41
0.6591522252439312
 10
66.25251521531413
 20
-44.79982633705112
 30
0.0
 41
0.9321820166083721
 10
58.20889585185876
 20
-47.72139776980222
 30
0.0
 41
0.6591522252439312
 10
52.04541677227223
 20
-50.92703235465999
 30
0.0
 41
0.9321820166083721
 10
45.8819376926856
 20
-54.13266693951766
 30
0.0
 41
0.6591522252439312
 10
53.92555705614097
 20
-51.21109550676653
 30
0.0
 41
0.9321820166083721
 10
61.96917641959624
 20
-48.28952407401547
 30
0.0
 41
0.6591522252439312
 10
68.13265549918293
 20
-45.0838894891578
 30
0.0
 41
0.9321820166083721
  0
SPLINE
  5
155
330
1F
100
AcDbEntity
  8
0
  6
Continuous
 62
    18
370
     0
100
AcDbSpline
210
0.0
220
0.0
230
1.0
 70
    15
 71
     2
 72
    12
 73
     9
 74
     0
 42
0.000000001
 43
0.0
 40
0.0
 40
0.0
 40
0.0
 40
0.2499999999999999
 40
0.2499999999999999
 40
0.4999999999999998
 40
0.4999999999999998
 40
0.7499999999999999
 40
0.7499999999999999
 40
1.0
 40
1.0
 40
1.0
 10
54.91534406067183
 20
-20.91047240398314
 30
0.0
 41
0.9095760221444961
 10
59.46337396444027
 20
-14.75030906427071
 30
0.0
 41
0.643167373263059
 10
51.41975460098502
 20
-17.67188049702182
 30
0.0
 41
0.9095760221444961
 10
43.37613523752975
 20
-20.5934519297729
 30
0.0
 41
0.643167373263059
 10
38.82810533376126
 20
-26.75361526948527
 30
0.0
 41
0.9095760221444961
 10
34.28007542999275
 20
-32.91377860919769
 30
0.0
 41
0.643167373263059
 10
42.32369479344794
 20
-29.99220717644664
 30
0.0
 41
0.9095760221444961
 10
50.36731415690331
 20
-27.07063574369551
 30
0.0
 41
0.643167373263059
 10
54.91534406067183
 20
-20.91047240398314
 30
0.0
 41
0.9095760221444961
  0
SPLINE
  5
156
330
1F
100
AcDbEntity
  8
0
  6
Continuous
 62
    18
370
     0
100
AcDbSpline
210
0.0
220
0.0
230
1.0
 70
    15
 71
     2
 72
    12
 73
     9
 74
     0
 42
0.000000001
 43
0.0
 40
0.0
 40
0.0
 40
0.0
 40
0.2499999999999999
 40
0.2499999999999999
 40
0.4999999999999998
 40
0.4999999999999998
 40
0.7499999999999999
 40
0.7499999999999999
 40
1.0
 40
1.0
 40
1.0
 10
38.08845800749147
 20
-1.626110510555861
 30
0.0
 41
0.9321820166083721
 10
40.57986850476027
 20
6.891030393908721
 30
0.0
 41
0.6591522252439312
 10
32.53624914130502
 20
3.969458961157613
 30
0.0
 41
0.9321820166083721
 10
24.49262977784964
 20
1.047887528406534
 30
0.0
 41
0.6591522252439312
 10
22.00121928058094
 20
-7.469253376058077
 30
0.0
 41
0.9321820166083721
 10
19.50980878331218
 20
-15.98639428052266
 30
0.0
 41
0.6591522252439312
 10
27.55342814676756
 20
-13.06482284777152
 30
0.0
 41
0.9321820166083721
 10
35.59704751022277
 20
-10.14325141502042
 30
0.0
 41
0.6591522252439312
 10
38.08845800749147
 20
-1.626110510555861
 30
0.0
 41
0.9321820166083721
  0
SPLINE
  5
157
330
1F
100
AcDbEntity
  8
0
  6
Continuous
 62
    18
370
     0
100
AcDbSpline
210
0.0
220
0.0
230
1.0
 70
    12
 71
     2
 72
     6
 73
     3
 74
     0
 42
0.000000001
 43
0.0
 40
0.0
 40
0.0
 40
0.0
 40
1.0
 40
1.0
 40
1.0
 10
75.29738850494869
 20
-73.36276281759345
 30
0.0
 41
0.9999999999999998
 10
60.63912120094943
 20
-5.18453864876102
 30
0.0
 41
0.8191520442889921
 10
12.4379947022003
 20
17.56093861807321
 30
0.0
 41
0.9999999999999998
  0
SPLINE
  5
158
330
1F
100
AcDbEntity
  8
0
  6
Continuous
 62
    18
370
     0
100
AcDbSpline
210
0.0
220
0.0
230
1.0
 70
    12
 71
     2
 72
     6
 73
     3
 74
     0
 42
0.000000001
 43
0.0
 40
0.0
 40
0.0
 40
0.0
 40
1.0
 40
1.0
 40
1.0
 10
60.10520485214471
 20
-76.37915397098473
 30
0.0
 41
0.9999999999999996
 10
47.04338250204637
 20
-15.62628094925299
 30
0.0
 41
0.8191520442889917
 10
4.091883641774771
 20
4.641966120203278
 30
0.0
 41
0.9999999999999996
  0
SPLINE
  5
159
330
1F
100
AcDbEntity
  8
0
  6
Continuous
 62
    18
370
     0
100
AcDbSpline
210
0.0
220
0.0
230
1.0
 70
    12
 71
     2
 72
     6
 73
     3
 74
     0
 42
0.000000001
 43
0.0
 40
0.0
 40
0.0
 40
0.0
 40
1.0
 40
1.0
 40
1.0
 10
61.0002599262512
 20
-73.55240225887388
 30
0.0
 41
0.9999999999999998
 10
49.53488253005372
 20
-20.2248803842426
 30
0.0
 41
0.8191520442889919
 10
11.83301130825994
 20
-2.433863512164379
 30
0.0
 41
0.9999999999999998
  0
LINE
  5
15A
330
1F
100
AcDbEntity
  8
0
  6
Continuous
 62
    18
370
     0
100
AcDbLine
 10
-22.321961
 20
33.963704
 30
0.0
 11
12.437995
 21
17.560939
 31
0.0
  0
LINE
  5
15B
330
1F
100
AcDbEntity
  8
0
  6
Continuous
 62
    18
370
     0
100
AcDbLine
 10
-30.668072
 20
21.044732
 30
0.0
 11
4.091884
 21
4.641966
 31
0.0
  0
LINE
  5
15C
330
1F
100
AcDbEntity
  8
0
  6
Continuous
 62
    18
370
     0
100
AcDbLine
 10
-22.926944
 20
13.968902
 30
0.0
 11
11.833011
 21
-2.433864
 31
0.0
  0
ENDSEC
  0
SECTION
  2
OBJECTS
  0
DICTIONARY
  5
C
330
0
100
AcDbDictionary
281
     1
  3
ACAD_GROUP
350
D
  3
ACAD_LAYOUT
350
1A
  3
ACAD_MATERIAL
350
43
  3
ACAD_MLEADERSTYLE
350
6B
  3
ACAD_MLINESTYLE
350
17
  3
ACAD_PLOTSETTINGS
350
19
  3
ACAD_PLOTSTYLENAME
350
E
  3
ACAD_SCALELIST
350
47
  3
ACAD_TABLESTYLE
350
69
  3
ACAD_VISUALSTYLE
350
2A
  3
AcDbVariableDictionary
350
15D
  0
DICTIONARY
  5
168
330
8
100
AcDbDictionary
280
     1
281
     1
  3
ACAD_XREC_ROUNDTRIP
360
169
  0
DICTIONARY
  5
D
102
{ACAD_REACTORS
330
C
102
}
330
C
100
AcDbDictionary
281
     1
  0
DICTIONARY
  5
1A
102
{ACAD_REACTORS
330
C
102
}
330
C
100
AcDbDictionary
281
     1
  3
Layout1
350
1E
  3
Layout2
350
26
  3
Model
350
22
  0
DICTIONARY
  5
43
102
{ACAD_REACTORS
330
C
102
}
330
C
100
AcDbDictionary
281
     1
  3
ByBlock
350
45
  3
ByLayer
350
44
  3
Global
350
46
  0
DICTIONARY
  5
6B
102
{ACAD_REACTORS
330
C
102
}
330
C
100
AcDbDictionary
281
     1
  3
Standard
350
6C
  0
DICTIONARY
  5
17
102
{ACAD_REACTORS
330
C
102
}
330
C
100
AcDbDictionary
281
     1
  3
Standard
350
18
  0
DICTIONARY
  5
19
102
{ACAD_REACTORS
330
C
102
}
330
C
100
AcDbDictionary
281
     1
  0
ACDBDICTIONARYWDFLT
  5
E
102
{ACAD_REACTORS
330
C
102
}
330
C
100
AcDbDictionary
281
     1
  3
Normal
350
F
100
AcDbDictionaryWithDefault
340
F
  0
DICTIONARY
  5
47
102
{ACAD_REACTORS
330
C
102
}
330
C
100
AcDbDictionary
281
     1
  3
A0
350
48
  3
A1
350
49
  3
A2
350
4A
  3
A3
350
4B
  3
A4
350
4C
  3
A5
350
4D
  3
A6
350
4E
  3
A7
350
4F
  3
A8
350
50
  3
A9
350
51
  3
B0
350
52
  3
B1
350
53
  3
B2
350
54
  3
B3
350
55
  3
B4
350
56
  3
B5
350
57
  3
B6
350
58
  3
B7
350
59
  3
B8
350
5A
  3
B9
350
5B
  3
C0
350
5C
  3
C1
350
5D
  3
C2
350
5E
  3
C3
350
5F
  3
C4
350
60
  3
C5
350
61
  3
C6
350
62
  3
C7
350
63
  3
C8
350
64
  3
C9
350
65
  3
D0
350
66
  3
D1
350
67
  3
D2
350
68
  0
DICTIONARY
  5
69
102
{ACAD_REACTORS
330
C
102
}
330
C
100
AcDbDictionary
281
     1
  3
Standard
350
6A
  0
DICTIONARY
  5
2A
102
{ACAD_REACTORS
330
C
102
}
330
C
100
AcDbDictionary
281
     1
  3
2dWireframe
350
2F
  3
Basic
350
32
  3
Brighten
350
36
  3
ColorChange
350
3A
  3
Conceptual
350
34
  3
Dim
350
35
  3
EdgeColorOff
350
3D
  3
Facepattern
350
39
  3
Flat
350
2B
  3
FlatWithEdges
350
2C
  3
Gouraud
350
2D
  3
GouraudWithEdges
350
2E
  3
Hidden
350
31
  3
JitterOff
350
3B
  3
Linepattern
350
38
  3
OverhangOff
350
3C
  3
Realistic
350
33
  3
Shaded
350
42
  3
Shaded with edges
350
41
  3
Shades of Gray
350
3E
  3
Sketchy
350
3F
  3
Thicken
350
37
  3
Wireframe
350
30
  3
X-Ray
350
40
  0
DICTIONARY
  5
15D
102
{ACAD_REACTORS
330
C
102
}
330
C
100
AcDbDictionary
281
     1
  3
CANNOSCALE
350
16A
  3
CENTEREXE
350
164
  3
CENTERLTYPEFILE
350
165
  3
CMLEADERSTYLE
350
15F
  3
CTABLESTYLE
350
15E
  3
DIMASSOC
350
166
  3
HIDETEXT
350
167
  3
MSLTSCALE
350
16B
  3
PSOLHEIGHT
350
161
  3
PSOLWIDTH
350
160
  0
XRECORD
  5
169
102
{ACAD_REACTORS
330
168
102
}
330
168
100
AcDbXrecord
280
     1
102
VTR_0.000_0.000_1.000_1.000_VISUALSTYLE
340
2F
102
VTR_0.000_0.000_1.000_1.000_GRIDDISPLAY
 70
     3
102
VTR_0.000_0.000_1.000_1.000_GRIDMAJOR
 70
     5
102
VTR_0.000_0.000_1.000_1.000_DEFAULTLIGHTING
280
     1
102
VTR_0.000_0.000_1.000_1.000_DEFAULTLIGHTINGTYPE
 70
     1
102
VTR_0.000_0.000_1.000_1.000_BRIGHTNESS
141
0.0
102
VTR_0.000_0.000_1.000_1.000_CONTRAST
142
0.0
  0
LAYOUT
  5
1E
102
{ACAD_REACTORS
330
1A
102
}
330
1A
100
AcDbPlotSettings
  1

  2
none_device
  4

  6

 40
0.0
 41
0.0
 42
0.0
 43
0.0
 44
0.0
 45
0.0
 46
0.0
 47
0.0
 48
0.0
 49
0.0
140
0.0
141
0.0
142
1.0
143
1.0
 70
   688
 72
     1
 73
     0
 74
     5
  7

 75
    16
147
1.0
148
0.0
149
0.0
100
AcDbLayout
  1
Layout1
 70
     1
 71
     1
 10
0.0
 20
0.0
 11
420.0
 21
297.0
 12
0.0
 22
0.0
 32
0.0
 14
1.000000E+20
 24
1.000000E+20
 34
1.000000E+20
 15
-1.000000E+20
 25
-1.000000E+20
 35
-1.000000E+20
146
0.0
 13
0.0
 23
0.0
 33
0.0
 16
1.0
 26
0.0
 36
0.0
 17
0.0
 27
1.0
 37
0.0
 76
     0
330
1B
  0
LAYOUT
  5
26
102
{ACAD_REACTORS
330
1A
102
}
330
1A
100
AcDbPlotSettings
  1

  2
none_device
  4

  6

 40
0.0
 41
0.0
 42
0.0
 43
0.0
 44
0.0
 45
0.0
 46
0.0
 47
0.0
 48
0.0
 49
0.0
140
0.0
141
0.0
142
1.0
143
1.0
 70
   688
 72
     1
 73
     0
 74
     5
  7

 75
    16
147
1.0
148
0.0
149
0.0
100
AcDbLayout
  1
Layout2
 70
     1
 71
     2
 10
0.0
 20
0.0
 11
0.0
 21
0.0
 12
0.0
 22
0.0
 32
0.0
 14
0.0
 24
0.0
 34
0.0
 15
0.0
 25
0.0
 35
0.0
146
0.0
 13
0.0
 23
0.0
 33
0.0
 16
1.0
 26
0.0
 36
0.0
 17
0.0
 27
1.0
 37
0.0
 76
     0
330
23
  0
LAYOUT
  5
22
102
{ACAD_REACTORS
330
1A
102
}
330
1A
100
AcDbPlotSettings
  1

  2
none_device
  4
Letter_(8.50_x_11.00_Inches)
  6

 40
6.35
 41
6.35
 42
6.350005
 43
6.350005
 44
215.9
 45
279.4
 46
0.0
 47
0.0
 48
0.0
 49
0.0
140
0.0
141
0.0
142
1.0
143
1.0
 70
  1712
 72
     1
 73
     0
 74
     0
  7

 75
     0
147
1.0
148
0.0
149
0.0
100
AcDbLayout
  1
Model
 70
     1
 71
     0
 10
-60.0
 20
-200.419052
 11
60.0
 21
30.0
 12
0.0
 22
0.0
 32
0.0
 14
-60.0
 24
-200.419052
 34
0.0
 15
60.0
 25
30.0
 35
0.0
146
0.0
 13
0.0
 23
0.0
 33
0.0
 16
1.0
 26
0.0
 36
0.0
 17
0.0
 27
1.0
 37
0.0
 76
     0
330
1F
331
29
  0
MATERIAL
  5
45
102
{ACAD_REACTORS
330
43
102
}
102
{ACAD_XDICTIONARY
360
19E
102
}
330
43
100
AcDbMaterial
  1
ByBlock
  0
MATERIAL
  5
44
102
{ACAD_REACTORS
330
43
102
}
102
{ACAD_XDICTIONARY
360
19C
102
}
330
43
100
AcDbMaterial
  1
ByLayer
  0
MATERIAL
  5
46
102
{ACAD_REACTORS
330
43
102
}
102
{ACAD_XDICTIONARY
360
1A0
102
}
330
43
100
AcDbMaterial
  1
Global
  0
MLEADERSTYLE
  5
6C
102
{ACAD_REACTORS
330
6B
102
}
102
{ACAD_XDICTIONARY
360
1A3
102
}
330
6B
100
AcDbMLeaderStyle
170
     2
171
     1
172
     0
 90
        2
 40
0.0
 41
0.0
173
     1
 91
-1056964608
340
14
 92
       -2
290
     1
 42
2.0
291
     1
 43
8.0
  3
Standard
341
0
 44
4.0
300

342
11
174
     1
178
     6
175
     1
176
     0
 93
-1056964608
 45
4.0
292
     0
297
     0
 46
4.0
343
0
 94
-1056964608
 47
1.0
 49
1.0
140
1.0
293
     1
141
0.0
294
     1
177
     0
142
1.0
295
     0
296
     0
143
3.75
1001
ACAD_MLEADERVER
1070
     2
  0
MLINESTYLE
  5
18
102
{ACAD_REACTORS
330
17
102
}
330
17
100
AcDbMlineStyle
  2
Standard
 70
     0
  3

 62
   256
 51
90.0
 52
90.0
 71
     2
 49
0.5
 62
   256
  6
BYLAYER
 49
-0.5
 62
   256
  6
BYLAYER
  0
ACDBPLACEHOLDER
  5
F
102
{ACAD_REACTORS
330
E
102
}
330
E
  0
SCALE
  5
48
102
{ACAD_REACTORS
330
47
102
}
330
47
100
AcDbScale
 70
     0
300
1:1
140
1.0
141
1.0
290
     1
  0
SCALE
  5
49
102
{ACAD_REACTORS
330
47
102
}
330
47
100
AcDbScale
 70
     0
300
1:2
140
1.0
141
2.0
290
     0
  0
SCALE
  5
4A
102
{ACAD_REACTORS
330
47
102
}
330
47
100
AcDbScale
 70
     0
300
1:4
140
1.0
141
4.0
290
     0
  0
SCALE
  5
4B
102
{ACAD_REACTORS
330
47
102
}
330
47
100
AcDbScale
 70
     0
300
1:5
140
1.0
141
5.0
290
     0
  0
SCALE
  5
4C
102
{ACAD_REACTORS
330
47
102
}
330
47
100
AcDbScale
 70
     0
300
1:8
140
1.0
141
8.0
290
     0
  0
SCALE
  5
4D
102
{ACAD_REACTORS
330
47
102
}
330
47
100
AcDbScale
 70
     0
300
1:10
140
1.0
141
10.0
290
     0
  0
SCALE
  5
4E
102
{ACAD_REACTORS
330
47
102
}
330
47
100
AcDbScale
 70
     0
300
1:16
140
1.0
141
16.0
290
     0
  0
SCALE
  5
4F
102
{ACAD_REACTORS
330
47
102
}
330
47
100
AcDbScale
 70
     0
300
1:20
140
1.0
141
20.0
290
     0
  0
SCALE
  5
50
102
{ACAD_REACTORS
330
47
102
}
330
47
100
AcDbScale
 70
     0
300
1:30
140
1.0
141
30.0
290
     0
  0
SCALE
  5
51
102
{ACAD_REACTORS
330
47
102
}
330
47
100
AcDbScale
 70
     0
300
1:40
140
1.0
141
40.0
290
     0
  0
SCALE
  5
52
102
{ACAD_REACTORS
330
47
102
}
330
47
100
AcDbScale
 70
     0
300
1:50
140
1.0
141
50.0
290
     0
  0
SCALE
  5
53
102
{ACAD_REACTORS
330
47
102
}
330
47
100
AcDbScale
 70
     0
300
1:100
140
1.0
141
100.0
290
     0
  0
SCALE
  5
54
102
{ACAD_REACTORS
330
47
102
}
330
47
100
AcDbScale
 70
     0
300
2:1
140
2.0
141
1.0
290
     0
  0
SCALE
  5
55
102
{ACAD_REACTORS
330
47
102
}
330
47
100
AcDbScale
 70
     0
300
4:1
140
4.0
141
1.0
290
     0
  0
SCALE
  5
56
102
{ACAD_REACTORS
330
47
102
}
330
47
100
AcDbScale
 70
     0
300
8:1
140
8.0
141
1.0
290
     0
  0
SCALE
  5
57
102
{ACAD_REACTORS
330
47
102
}
330
47
100
AcDbScale
 70
     0
300
10:1
140
10.0
141
1.0
290
     0
  0
SCALE
  5
58
102
{ACAD_REACTORS
330
47
102
}
330
47
100
AcDbScale
 70
     0
300
100:1
140
100.0
141
1.0
290
     0
  0
SCALE
  5
59
102
{ACAD_REACTORS
330
47
102
}
330
47
100
AcDbScale
 70
     0
300
1/128" = 1'-0"
140
0.007812
141
12.0
290
     0
  0
SCALE
  5
5A
102
{ACAD_REACTORS
330
47
102
}
330
47
100
AcDbScale
 70
     0
300
1/64" = 1'-0"
140
0.015625
141
12.0
290
     0
  0
SCALE
  5
5B
102
{ACAD_REACTORS
330
47
102
}
330
47
100
AcDbScale
 70
     0
300
1/32" = 1'-0"
140
0.03125
141
12.0
290
     0
  0
SCALE
  5
5C
102
{ACAD_REACTORS
330
47
102
}
330
47
100
AcDbScale
 70
     0
300
1/16" = 1'-0"
140
0.0625
141
12.0
290
     0
  0
SCALE
  5
5D
102
{ACAD_REACTORS
330
47
102
}
330
47
100
AcDbScale
 70
     0
300
3/32" = 1'-0"
140
0.09375
141
12.0
290
     0
  0
SCALE
  5
5E
102
{ACAD_REACTORS
330
47
102
}
330
47
100
AcDbScale
 70
     0
300
1/8" = 1'-0"
140
0.125
141
12.0
290
     0
  0
SCALE
  5
5F
102
{ACAD_REACTORS
330
47
102
}
330
47
100
AcDbScale
 70
     0
300
3/16" = 1'-0"
140
0.1875
141
12.0
290
     0
  0
SCALE
  5
60
102
{ACAD_REACTORS
330
47
102
}
330
47
100
AcDbScale
 70
     0
300
1/4" = 1'-0"
140
0.25
141
12.0
290
     0
  0
SCALE
  5
61
102
{ACAD_REACTORS
330
47
102
}
330
47
100
AcDbScale
 70
     0
300
3/8" = 1'-0"
140
0.375
141
12.0
290
     0
  0
SCALE
  5
62
102
{ACAD_REACTORS
330
47
102
}
330
47
100
AcDbScale
 70
     0
300
1/2" = 1'-0"
140
0.5
141
12.0
290
     0
  0
SCALE
  5
63
102
{ACAD_REACTORS
330
47
102
}
330
47
100
AcDbScale
 70
     0
300
3/4" = 1'-0"
140
0.75
141
12.0
290
     0
  0
SCALE
  5
64
102
{ACAD_REACTORS
330
47
102
}
330
47
100
AcDbScale
 70
     0
300
1" = 1'-0"
140
1.0
141
12.0
290
     0
  0
SCALE
  5
65
102
{ACAD_REACTORS
330
47
102
}
330
47
100
AcDbScale
 70
     0
300
1-1/2" = 1'-0"
140
1.5
141
12.0
290
     0
  0
SCALE
  5
66
102
{ACAD_REACTORS
330
47
102
}
330
47
100
AcDbScale
 70
     0
300
3" = 1'-0"
140
3.0
141
12.0
290
     0
  0
SCALE
  5
67
102
{ACAD_REACTORS
330
47
102
}
330
47
100
AcDbScale
 70
     0
300
6" = 1'-0"
140
6.0
141
12.0
290
     0
  0
SCALE
  5
68
102
{ACAD_REACTORS
330
47
102
}
330
47
100
AcDbScale
 70
     0
300
1'-0" = 1'-0"
140
12.0
141
12.0
290
     0
  0
TABLESTYLE
  5
6A
102
{ACAD_REACTORS
330
69
102
}
330
69
100
AcDbTableStyle
  3
Standard
 70
     0
 71
     0
 40
1.5
 41
1.5
280
     0
281
     0
  7
Standard
140
4.5
170
     2
 62
     0
 63
   257
283
     0
274
    -2
284
     1
 64
     0
275
    -2
285
     1
 65
     0
276
    -2
286
     1
 66
     0
277
    -2
287
     1
 67
     0
278
    -2
288
     1
 68
     0
279
    -2
289
     1
 69
     0
  7
Standard
140
6.0
170
     5
 62
     0
 63
   257
283
     0
274
    -2
284
     1
 64
     0
275
    -2
285
     1
 65
     0
276
    -2
286
     1
 66
     0
277
    -2
287
     1
 67
     0
278
    -2
288
     1
 68
     0
279
    -2
289
     1
 69
     0
  7
Standard
140
4.5
170
     5
 62
     0
 63
   257
283
     0
274
    -2
284
     1
 64
     0
275
    -2
285
     1
 65
     0
276
    -2
286
     1
 66
     0
277
    -2
287
     1
 67
     0
278
    -2
288
     1
 68
     0
279
    -2
289
     1
 69
     0
  0
VISUALSTYLE
  5
2F
102
{ACAD_REACTORS
330
2A
102
}
102
{ACAD_XDICTIONARY
360
174
102
}
330
2A
100
AcDbVisualStyle
  2
2dWireframe
 70
     4
 71
     0
 72
     2
 73
     0
 90
        0
 40
0.6
 41
30.0
 62
     5
 63
     7
 74
     1
 91
        4
 64
     7
 65
   257
 75
     1
175
     1
 42
1.0
 92
        0
 66
   257
 43
1.0
 76
     1
 77
     6
 78
     2
 67
     7
 79
     5
170
     0
171
     0
290
     0
174
     0
 93
        1
 44
0.0
173
     0
291
     0
 45
0.0
1001
ACAD
1000
AcDbSavedByObjectVersion
1070
     0
  0
VISUALSTYLE
  5
32
102
{ACAD_REACTORS
330
2A
102
}
102
{ACAD_XDICTIONARY
360
17A
102
}
330
2A
100
AcDbVisualStyle
  2
Basic
 70
     7
 71
     1
 72
     0
 73
     1
 90
        0
 40
0.6
 41
30.0
 62
     5
 63
     7
 74
     0
 91
        4
 64
     7
 65
   257
 75
     1
175
     1
 42
1.0
 92
        8
 66
     7
 43
1.0
 76
     1
 77
     6
 78
     2
 67
     7
 79
     5
170
     0
171
     0
290
     0
174
     0
 93
        1
 44
0.0
173
     0
291
     1
 45
0.0
1001
ACAD
1000
AcDbSavedByObjectVersion
1070
     0
  0
VISUALSTYLE
  5
36
102
{ACAD_REACTORS
330
2A
102
}
102
{ACAD_XDICTIONARY
360
182
102
}
330
2A
100
AcDbVisualStyle
  2
Brighten
 70
    12
 71
     2
 72
     2
 73
     0
 90
        0
 40
0.6
 41
30.0
 62
     5
 63
     7
 74
     1
 91
        4
 64
     7
 65
   257
 75
     1
175
     1
 42
1.0
 92
        8
 66
     7
 43
1.0
 76
     1
 77
     6
 78
     2
 67
     7
 79
     5
170
     0
171
     0
290
     0
174
     0
 93
        1
 44
50.0
173
     0
291
     1
 45
0.0
1001
ACAD
1000
AcDbSavedByObjectVersion
1070
     0
  0
VISUALSTYLE
  5
3A
102
{ACAD_REACTORS
330
2A
102
}
102
{ACAD_XDICTIONARY
360
18A
102
}
330
2A
100
AcDbVisualStyle
  2
ColorChange
 70
    16
 71
     2
 72
     2
 73
     3
 90
        0
 40
0.6
 41
30.0
 62
     5
 63
     8
 74
     1
 91
        4
 64
     7
 65
   257
 75
     1
175
     1
 42
1.0
 92
        8
 66
     8
 43
1.0
 76
     1
 77
     6
 78
     2
 67
     7
 79
     5
170
     0
171
     0
290
     0
174
     0
 93
        1
 44
0.0
173
     0
291
     1
 45
0.0
1001
ACAD
1000
AcDbSavedByObjectVersion
1070
     0
  0
VISUALSTYLE
  5
34
102
{ACAD_REACTORS
330
2A
102
}
102
{ACAD_XDICTIONARY
360
17E
102
}
330
2A
100
AcDbVisualStyle
  2
Conceptual
 70
     9
 71
     3
 72
     2
 73
     0
 90
        0
 40
0.6
 41
30.0
 62
     5
 63
     7
 74
     2
 91
        2
 64
     7
 65
   257
 75
     1
175
     1
 42
179.0
 92
        8
 66
     7
 43
1.0
 76
     1
 77
     6
 78
     2
 67
     7
 79
     3
170
     0
171
     0
290
     0
174
     0
 93
        1
 44
0.0
173
     0
291
     0
 45
0.0
1001
ACAD
1000
AcDbSavedByObjectVersion
1070
     0
  0
VISUALSTYLE
  5
35
102
{ACAD_REACTORS
330
2A
102
}
102
{ACAD_XDICTIONARY
360
180
102
}
330
2A
100
AcDbVisualStyle
  2
Dim
 70
    11
 71
     2
 72
     2
 73
     0
 90
        0
 40
0.6
 41
30.0
 62
     5
 63
     7
 74
     1
 91
        4
 64
     7
 65
   257
 75
     1
175
     1
 42
1.0
 92
        8
 66
     7
 43
1.0
 76
     1
 77
     6
 78
     2
 67
     7
 79
     5
170
     0
171
     0
290
     0
174
     0
 93
        1
 44
-50.0
173
     0
291
     1
 45
0.0
1001
ACAD
1000
AcDbSavedByObjectVersion
1070
     0
  0
VISUALSTYLE
  5
3D
102
{ACAD_REACTORS
330
2A
102
}
102
{ACAD_XDICTIONARY
360
190
102
}
330
2A
100
AcDbVisualStyle
  2
EdgeColorOff
 70
    22
 71
     2
 72
     2
 73
     0
 90
        0
 40
0.6
 41
30.0
 62
     5
 63
     7
 74
     1
 91
        4
 64
     7
 65
   257
 75
     1
175
     1
 42
1.0
 92
        8
 66
     7
 43
1.0
 76
     1
 77
     6
 78
     2
 67
     7
 79
     5
170
     0
171
     0
290
     0
174
     0
 93
        1
 44
0.0
173
     0
291
     1
 45
0.0
1001
ACAD
1000
AcDbSavedByObjectVersion
1070
     0
  0
VISUALSTYLE
  5
39
102
{ACAD_REACTORS
330
2A
102
}
102
{ACAD_XDICTIONARY
360
188
102
}
330
2A
100
AcDbVisualStyle
  2
Facepattern
 70
    15
 71
     2
 72
     2
 73
     0
 90
        0
 40
0.6
 41
30.0
 62
     5
 63
     7
 74
     1
 91
        4
 64
     7
 65
   257
 75
     1
175
     1
 42
1.0
 92
        8
 66
     7
 43
1.0
 76
     1
 77
     6
 78
     2
 67
     7
 79
     5
170
     0
171
     0
290
     0
174
     0
 93
        1
 44
0.0
173
     0
291
     1
 45
0.0
1001
ACAD
1000
AcDbSavedByObjectVersion
1070
     0
  0
VISUALSTYLE
  5
2B
102
{ACAD_REACTORS
330
2A
102
}
102
{ACAD_XDICTIONARY
360
16C
102
}
330
2A
100
AcDbVisualStyle
  2
Flat
 70
     0
 71
     2
 72
     1
 73
     1
 90
        2
 40
0.6
 41
30.0
 62
     5
 63
     7
 74
     0
 91
        0
 64
     7
 65
   257
 75
     1
175
     1
 42
1.0
 92
        8
 66
     7
 43
1.0
 76
     1
 77
     6
 78
     2
 67
     7
 79
     5
170
     0
171
     0
290
     0
174
     0
 93
       13
 44
0.0
173
     0
291
     1
 45
0.0
1001
ACAD
1000
AcDbSavedByObjectVersion
1070
     0
  0
VISUALSTYLE
  5
2C
102
{ACAD_REACTORS
330
2A
102
}
102
{ACAD_XDICTIONARY
360
16E
102
}
330
2A
100
AcDbVisualStyle
  2
FlatWithEdges
 70
     1
 71
     2
 72
     1
 73
     1
 90
        2
 40
0.6
 41
30.0
 62
     5
 63
     7
 74
     1
 91
        0
 64
     7
 65
   257
 75
     1
175
     1
 42
1.0
 92
        0
 66
   257
 43
1.0
 76
     1
 77
     6
 78
     2
 67
     7
 79
     5
170
     0
171
     0
290
     0
174
     0
 93
       13
 44
0.0
173
     0
291
     1
 45
0.0
1001
ACAD
1000
AcDbSavedByObjectVersion
1070
     0
  0
VISUALSTYLE
  5
2D
102
{ACAD_REACTORS
330
2A
102
}
102
{ACAD_XDICTIONARY
360
170
102
}
330
2A
100
AcDbVisualStyle
  2
Gouraud
 70
     2
 71
     2
 72
     2
 73
     1
 90
        2
 40
0.6
 41
30.0
 62
     5
 63
     7
 74
     0
 91
        0
 64
     7
 65
   257
 75
     1
175
     1
 42
1.0
 92
        0
 66
     7
 43
1.0
 76
     1
 77
     6
 78
     2
 67
     7
 79
     5
170
     0
171
     0
290
     0
174
     0
 93
       13
 44
0.0
173
     0
291
     1
 45
0.0
1001
ACAD
1000
AcDbSavedByObjectVersion
1070
     0
  0
VISUALSTYLE
  5
2E
102
{ACAD_REACTORS
330
2A
102
}
102
{ACAD_XDICTIONARY
360
172
102
}
330
2A
100
AcDbVisualStyle
  2
GouraudWithEdges
 70
     3
 71
     2
 72
     2
 73
     1
 90
        2
 40
0.6
 41
30.0
 62
     5
 63
     7
 74
     1
 91
        0
 64
     7
 65
   257
 75
     1
175
     1
 42
1.0
 92
        0
 66
   257
 43
1.0
 76
     1
 77
     6
 78
     2
 67
     7
 79
     5
170
     0
171
     0
290
     0
174
     0
 93
       13
 44
0.0
173
     0
291
     1
 45
0.0
1001
ACAD
1000
AcDbSavedByObjectVersion
1070
     0
  0
VISUALSTYLE
  5
31
102
{ACAD_REACTORS
330
2A
102
}
102
{ACAD_XDICTIONARY
360
178
102
}
330
2A
100
AcDbVisualStyle
  2
Hidden
 70
     6
 71
     1
 72
     2
 73
     2
 90
        0
 40
0.6
 41
30.0
 62
     5
 63
     7
 74
     2
 91
        2
 64
     7
 65
   257
 75
     2
175
     1
 42
40.0
 92
        0
 66
   257
 43
1.0
 76
     1
 77
     6
 78
     2
 67
     7
 79
     3
170
     0
171
     0
290
     0
174
     0
 93
        1
 44
0.0
173
     0
291
     0
 45
0.0
1001
ACAD
1000
AcDbSavedByObjectVersion
1070
     0
  0
VISUALSTYLE
  5
3B
102
{ACAD_REACTORS
330
2A
102
}
102
{ACAD_XDICTIONARY
360
18C
102
}
330
2A
100
AcDbVisualStyle
  2
JitterOff
 70
    20
 71
     2
 72
     2
 73
     0
 90
        0
 40
0.6
 41
30.0
 62
     5
 63
     7
 74
     1
 91
        4
 64
     7
 65
   257
 75
     1
175
     1
 42
1.0
 92
       10
 66
     7
 43
1.0
 76
     1
 77
     6
 78
     2
 67
     7
 79
     5
170
     0
171
     0
290
     0
174
     0
 93
        1
 44
0.0
173
     0
291
     1
 45
0.0
1001
ACAD
1000
AcDbSavedByObjectVersion
1070
     0
  0
VISUALSTYLE
  5
38
102
{ACAD_REACTORS
330
2A
102
}
102
{ACAD_XDICTIONARY
360
186
102
}
330
2A
100
AcDbVisualStyle
  2
Linepattern
 70
    14
 71
     2
 72
     2
 73
     0
 90
        0
 40
0.6
 41
30.0
 62
     5
 63
     7
 74
     1
 91
        4
 64
     7
 65
   257
 75
     7
175
     7
 42
1.0
 92
        8
 66
     7
 43
1.0
 76
     1
 77
     6
 78
     2
 67
     7
 79
     5
170
     0
171
     0
290
     0
174
     0
 93
        1
 44
0.0
173
     0
291
     1
 45
0.0
1001
ACAD
1000
AcDbSavedByObjectVersion
1070
     0
  0
VISUALSTYLE
  5
3C
102
{ACAD_REACTORS
330
2A
102
}
102
{ACAD_XDICTIONARY
360
18E
102
}
330
2A
100
AcDbVisualStyle
  2
OverhangOff
 70
    21
 71
     2
 72
     2
 73
     0
 90
        0
 40
0.6
 41
30.0
 62
     5
 63
     7
 74
     1
 91
        4
 64
     7
 65
   257
 75
     1
175
     1
 42
1.0
 92
        9
 66
     7
 43
1.0
 76
     1
 77
     6
 78
     2
 67
     7
 79
     5
170
     0
171
     0
290
     0
174
     0
 93
        1
 44
0.0
173
     0
291
     1
 45
0.0
1001
ACAD
1000
AcDbSavedByObjectVersion
1070
     0
  0
VISUALSTYLE
  5
33
102
{ACAD_REACTORS
330
2A
102
}
102
{ACAD_XDICTIONARY
360
17C
102
}
330
2A
100
AcDbVisualStyle
  2
Realistic
 70
     8
 71
     2
 72
     3
 73
     0
 90
        2
 40
0.6
 41
30.0
 62
     5
 63
     7
 74
     0
 91
        0
 64
     7
 65
   257
 75
     1
175
     1
 42
1.0
 92
        8
 66
   257
 43
1.0
 76
     1
 77
     6
 78
     2
 67
     7
 79
     3
170
     0
171
     0
290
     0
174
     0
 93
       13
 44
0.0
173
     0
291
     0
 45
0.0
1001
ACAD
1000
AcDbSavedByObjectVersion
1070
     0
  0
VISUALSTYLE
  5
42
102
{ACAD_REACTORS
330
2A
102
}
102
{ACAD_XDICTIONARY
360
19A
102
}
330
2A
100
AcDbVisualStyle
  2
Shaded
 70
    27
 71
     2
 72
     2
 73
     1
 90
        2
 40
0.6
 41
30.0
 62
     5
 63
     7
 74
     0
 91
        4
 64
     7
 65
   257
 75
     1
175
     1
 42
1.0
 92
        8
 66
   257
 43
1.0
 76
     1
 77
     6
 78
     2
 67
     8
 79
     3
170
     0
171
     0
290
     0
174
     0
 93
        5
 44
0.0
173
     0
291
     0
 45
0.0
1001
ACAD
1000
AcDbSavedByObjectVersion
1070
     0
  0
VISUALSTYLE
  5
41
102
{ACAD_REACTORS
330
2A
102
}
102
{ACAD_XDICTIONARY
360
198
102
}
330
2A
100
AcDbVisualStyle
  2
Shaded with edges
 70
    26
 71
     2
 72
     2
 73
     1
 90
        2
 40
0.6
 41
30.0
 62
     5
 63
     7
 74
     1
 91
       10
 64
     7
 65
   257
 75
     2
175
     1
 42
1.0
 92
        8
 66
   257
 43
1.0
 76
     1
 77
     6
 78
     2
 67
     7
 79
     3
170
     0
171
     0
290
     0
174
     0
 93
        5
 44
0.0
173
     0
291
     0
 45
0.0
1001
ACAD
1000
AcDbSavedByObjectVersion
1070
     0
  0
VISUALSTYLE
  5
3E
102
{ACAD_REACTORS
330
2A
102
}
102
{ACAD_XDICTIONARY
360
192
102
}
330
2A
100
AcDbVisualStyle
  2
Shades of Gray
 70
    23
 71
     2
 72
     2
 73
     3
 90
        0
 40
0.6
 41
30.0
 62
     5
 63
     7
 74
     2
 91
        2
 64
     7
 65
     7
 75
     1
175
     1
 42
40.0
 92
        8
 66
     7
 43
1.0
 76
     1
 77
     6
 78
     2
 67
     7
 79
     3
170
     0
171
     0
290
     0
174
     0
 93
        1
 44
0.0
173
     0
291
     0
 45
0.0
1001
ACAD
1000
AcDbSavedByObjectVersion
1070
     0
  0
VISUALSTYLE
  5
3F
102
{ACAD_REACTORS
330
2A
102
}
102
{ACAD_XDICTIONARY
360
194
102
}
330
2A
100
AcDbVisualStyle
  2
Sketchy
 70
    24
 71
     1
 72
     2
 73
     2
 90
        0
 40
0.6
 41
30.0
 62
     5
 63
     7
 74
     2
 91
        2
 64
     7
 65
     7
 75
     1
175
     1
 42
40.0
 92
       11
 66
     7
 43
1.0
 76
     1
 77
     6
 78
     2
 67
     7
 79
     6
170
     0
171
     0
290
     0
174
     0
 93
        1
 44
0.0
173
     0
291
     0
 45
0.0
1001
ACAD
1000
AcDbSavedByObjectVersion
1070
     0
  0
VISUALSTYLE
  5
37
102
{ACAD_REACTORS
330
2A
102
}
102
{ACAD_XDICTIONARY
360
184
102
}
330
2A
100
AcDbVisualStyle
  2
Thicken
 70
    13
 71
     2
 72
     2
 73
     0
 90
        0
 40
0.6
 41
30.0
 62
     5
 63
     7
 74
     1
 91
        4
 64
     7
 65
   257
 75
     1
175
     1
 42
1.0
 92
       12
 66
     7
 43
1.0
 76
     1
 77
     6
 78
     2
 67
     7
 79
     5
170
     0
171
     0
290
     0
174
     0
 93
        1
 44
0.0
173
     0
291
     1
 45
0.0
1001
ACAD
1000
AcDbSavedByObjectVersion
1070
     0
  0
VISUALSTYLE
  5
30
102
{ACAD_REACTORS
330
2A
102
}
102
{ACAD_XDICTIONARY
360
176
102
}
330
2A
100
AcDbVisualStyle
  2
Wireframe
 70
     5
 71
     0
 72
     2
 73
     0
 90
        0
 40
0.6
 41
30.0
 62
     5
 63
     7
 74
     1
 91
        4
 64
     7
 65
   257
 75
     1
175
     1
 42
1.0
 92
        0
 66
   257
 43
1.0
 76
     1
 77
     6
 78
     2
 67
     7
 79
     3
170
     0
171
     0
290
     0
174
     0
 93
        1
 44
0.0
173
     0
291
     0
 45
0.0
1001
ACAD
1000
AcDbSavedByObjectVersion
1070
     0
  0
VISUALSTYLE
  5
40
102
{ACAD_REACTORS
330
2A
102
}
102
{ACAD_XDICTIONARY
360
196
102
}
330
2A
100
AcDbVisualStyle
  2
X-Ray
 70
    25
 71
     2
 72
     2
 73
     1
 90
        1
 40
0.5
 41
30.0
 62
     5
 63
     7
 74
     1
 91
        0
 64
     7
 65
   257
 75
     1
175
     1
 42
1.0
 92
        8
 66
     7
 43
1.0
 76
     1
 77
     6
 78
     2
 67
     7
 79
     3
170
     0
171
     0
290
     0
174
     0
 93
       13
 44
0.0
173
     0
291
     0
 45
0.0
1001
ACAD
1000
AcDbSavedByObjectVersion
1070
     0
  0
DICTIONARYVAR
  5
16A
102
{ACAD_REACTORS
330
15D
102
}
330
15D
100
DictionaryVariables
280
     0
  1
1:1
  0
DICTIONARYVAR
  5
164
102
{ACAD_REACTORS
330
15D
102
}
330
15D
100
DictionaryVariables
280
     0
  1
3.500000
  0
DICTIONARYVAR
  5
165
102
{ACAD_REACTORS
330
15D
102
}
330
15D
100
DictionaryVariables
280
     0
  1
acadiso.lin
  0
DICTIONARYVAR
  5
15F
102
{ACAD_REACTORS
330
15D
102
}
330
15D
100
DictionaryVariables
280
     0
  1
Standard
  0
DICTIONARYVAR
  5
15E
102
{ACAD_REACTORS
330
15D
102
}
330
15D
100
DictionaryVariables
280
     0
  1
Standard
  0
DICTIONARYVAR
  5
166
102
{ACAD_REACTORS
330
15D
102
}
330
15D
100
DictionaryVariables
280
     0
  1
2
  0
DICTIONARYVAR
  5
167
102
{ACAD_REACTORS
330
15D
102
}
330
15D
100
DictionaryVariables
280
     0
  1
1
  0
DICTIONARYVAR
  5
16B
102
{ACAD_REACTORS
330
15D
102
}
330
15D
100
DictionaryVariables
280
     0
  1
1
  0
DICTIONARYVAR
  5
161
102
{ACAD_REACTORS
330
15D
102
}
330
15D
100
DictionaryVariables
280
     0
  1
80.000000
  0
DICTIONARYVAR
  5
160
102
{ACAD_REACTORS
330
15D
102
}
330
15D
100
DictionaryVariables
280
     0
  1
5.000000
  0
DICTIONARY
  5
19E
330
45
100
AcDbDictionary
280
     1
281
     1
  3
ACAD_XREC_ROUNDTRIP
360
19F
  0
DICTIONARY
  5
19C
330
44
100
AcDbDictionary
280
     1
281
     1
  3
ACAD_XREC_ROUNDTRIP
360
19D
  0
DICTIONARY
  5
1A0
330
46
100
AcDbDictionary
280
     1
281
     1
  3
ACAD_XREC_ROUNDTRIP
360
1A1
  0
DICTIONARY
  5
1A3
330
6C
100
AcDbDictionary
280
     1
281
     1
  3
ACAD_XREC_ROUNDTRIP
360
1A4
  0
DICTIONARY
  5
174
330
2F
100
AcDbDictionary
280
     1
281
     1
  3
ACAD_XREC_ROUNDTRIP
360
175
  0
DICTIONARY
  5
17A
330
32
100
AcDbDictionary
280
     1
281
     1
  3
ACAD_XREC_ROUNDTRIP
360
17B
  0
DICTIONARY
  5
182
330
36
100
AcDbDictionary
280
     1
281
     1
  3
ACAD_XREC_ROUNDTRIP
360
183
  0
DICTIONARY
  5
18A
330
3A
100
AcDbDictionary
280
     1
281
     1
  3
ACAD_XREC_ROUNDTRIP
360
18B
  0
DICTIONARY
  5
17E
330
34
100
AcDbDictionary
280
     1
281
     1
  3
ACAD_XREC_ROUNDTRIP
360
17F
  0
DICTIONARY
  5
180
330
35
100
AcDbDictionary
280
     1
281
     1
  3
ACAD_XREC_ROUNDTRIP
360
181
  0
DICTIONARY
  5
190
330
3D
100
AcDbDictionary
280
     1
281
     1
  3
ACAD_XREC_ROUNDTRIP
360
191
  0
DICTIONARY
  5
188
330
39
100
AcDbDictionary
280
     1
281
     1
  3
ACAD_XREC_ROUNDTRIP
360
189
  0
DICTIONARY
  5
16C
330
2B
100
AcDbDictionary
280
     1
281
     1
  3
ACAD_XREC_ROUNDTRIP
360
16D
  0
DICTIONARY
  5
16E
330
2C
100
AcDbDictionary
280
     1
281
     1
  3
ACAD_XREC_ROUNDTRIP
360
16F
  0
DICTIONARY
  5
170
330
2D
100
AcDbDictionary
280
     1
281
     1
  3
ACAD_XREC_ROUNDTRIP
360
171
  0
DICTIONARY
  5
172
330
2E
100
AcDbDictionary
280
     1
281
     1
  3
ACAD_XREC_ROUNDTRIP
360
173
  0
DICTIONARY
  5
178
330
31
100
AcDbDictionary
280
     1
281
     1
  3
ACAD_XREC_ROUNDTRIP
360
179
  0
DICTIONARY
  5
18C
330
3B
100
AcDbDictionary
280
     1
281
     1
  3
ACAD_XREC_ROUNDTRIP
360
18D
  0
DICTIONARY
  5
186
330
38
100
AcDbDictionary
280
     1
281
     1
  3
ACAD_XREC_ROUNDTRIP
360
187
  0
DICTIONARY
  5
18E
330
3C
100
AcDbDictionary
280
     1
281
     1
  3
ACAD_XREC_ROUNDTRIP
360
18F
  0
DICTIONARY
  5
17C
330
33
100
AcDbDictionary
280
     1
281
     1
  3
ACAD_XREC_ROUNDTRIP
360
17D
  0
DICTIONARY
  5
19A
330
42
100
AcDbDictionary
280
     1
281
     1
  3
ACAD_XREC_ROUNDTRIP
360
19B
  0
DICTIONARY
  5
198
330
41
100
AcDbDictionary
280
     1
281
     1
  3
ACAD_XREC_ROUNDTRIP
360
199
  0
DICTIONARY
  5
192
330
3E
100
AcDbDictionary
280
     1
281
     1
  3
ACAD_XREC_ROUNDTRIP
360
193
  0
DICTIONARY
  5
194
330
3F
100
AcDbDictionary
280
     1
281
     1
  3
ACAD_XREC_ROUNDTRIP
360
195
  0
DICTIONARY
  5
184
330
37
100
AcDbDictionary
280
     1
281
     1
  3
ACAD_XREC_ROUNDTRIP
360
185
  0
DICTIONARY
  5
176
330
30
100
AcDbDictionary
280
     1
281
     1
  3
ACAD_XREC_ROUNDTRIP
360
177
  0
DICTIONARY
  5
196
330
40
100
AcDbDictionary
280
     1
281
     1
  3
ACAD_XREC_ROUNDTRIP
360
197
  0
XRECORD
  5
19F
102
{ACAD_REACTORS
330
19E
102
}
330
19E
100
AcDbXrecord
280
     1
102
MATERIAL
148
0.0
149
0.0
149
0.0
 93
        0
 94
      127
282
     0
 72
     1
 77
     1
171
     1
175
     1
179
     1
273
     0
  0
XRECORD
  5
19D
102
{ACAD_REACTORS
330
19C
102
}
330
19C
100
AcDbXrecord
280
     1
102
MATERIAL
148
0.0
149
0.0
149
0.0
 93
        0
 94
      127
282
     0
 72
     1
 77
     1
171
     1
175
     1
179
     1
273
     0
  0
XRECORD
  5
1A1
102
{ACAD_REACTORS
330
1A0
102
}
330
1A0
100
AcDbXrecord
280
     1
102
MATERIAL
148
0.0
149
0.0
149
0.0
 93
        0
 94
      127
282
     0
 72
     1
 77
     1
171
     1
175
     1
179
     1
273
     0
  0
XRECORD
  5
1A4
102
{ACAD_REACTORS
330
1A3
102
}
330
1A3
100
AcDbXrecord
280
     1
102
ACAD_ROUNDTRIP_2010_MLEADER_STYLE
  0
XRECORD
  5
175
102
{ACAD_REACTORS
330
174
102
}
330
174
100
AcDbXrecord
280
     1
102
RTVSPropertyOp0
 70
     1
102
RTVSPropertyOp1
 70
     1
102
RTVSPropertyOp2
 70
     1
102
RTVSPropertyOp3
 70
     1
102
RTVSPropertyOp4
 70
     1
102
RTVSPropertyOp5
 70
     1
102
RTVSPropertyOp6
 70
     1
102
RTVSPropertyOp7
 70
     1
102
RTVSPropertyOp8
 70
     1
102
RTVSPropertyOp9
 70
     1
102
RTVSPropertyOp10
 70
     1
102
RTVSPropertyOp11
 70
     1
102
RTVSPropertyOp12
 70
     1
102
RTVSPropertyOp13
 70
     1
102
RTVSPropertyOp14
 70
     1
102
RTVSPropertyOp15
 70
     1
102
RTVSPropertyOp16
 70
     1
102
RTVSPropertyOp17
 70
     1
102
RTVSPropertyOp18
 70
     1
102
RTVSPropertyOp19
 70
     1
102
RTVSPropertyOp20
 70
     1
102
RTVSPropertyOp21
 70
     1
102
RTVSPropertyOp22
 70
     1
102
RTVSPropertyOp23
 70
     1
102
RTVSPropertyOp24
 70
     1
102
RTVSPropertyOp25
 70
     1
102
RTVSPropertyOp26
 70
     1
102
RTVSPropertyOp27
 70
     1
102
RTVSPropertyOp28
 70
     1
102
RTVSPropertyOp29
 70
     1
102
RTVSPropertyOp30
 70
     1
102
RTVSPropertyOp31
 70
     1
102
RTVSPropertyOp32
 70
     1
102
RTVSPropertyOp33
 70
     1
102
RTVSPropertyOp34
 70
     1
102
RTVSPropertyOp35
 70
     1
102
RTVSPropertyOp36
 70
     1
102
RTVSPropertyOp37
 70
     1
102
RTVSPropertyOp38
 70
     1
102
RTVSPropertyOp39
 70
     1
102
RTVSPropertyOp40
 70
     1
102
RTVSPropertyOp41
 70
     1
102
RTVSPropertyOp42
 70
     1
102
RTVSPropertyOp43
 70
     1
102
RTVSPropertyOp44
 70
     1
102
RTVSPropertyOp45
 70
     1
102
RTVSPropertyOp46
 70
     1
102
RTVSPropertyOp47
 70
     1
102
RTVSPropertyOp48
 70
     1
102
RTVSPropertyOp49
 70
     1
102
RTVSPropertyOp50
 70
     1
102
RTVSPropertyOp51
 70
     0
102
RTVSPropertyOp52
 70
     0
102
RTVSPropertyOp53
 70
     1
102
RTVSPropertyOp54
 70
     1
102
RTVSPropertyOp55
 70
     1
102
RTVSPropertyOp56
 70
     1
102
RTVSPropertyOp57
 70
     1
102
RTVSPost2010Prop28
280
     1
102
RTVSPost2010PropOp28
 70
     1
102
RTVSPost2010Prop29
280
     1
102
RTVSPost2010PropOp29
 70
     1
102
RTVSPost2010Prop30
280
     0
102
RTVSPost2010PropOp30
 70
     1
102
RTVSPost2010Prop31
280
     0
102
RTVSPost2010PropOp31
 70
     1
102
RTVSPost2010Prop32
280
     0
102
RTVSPost2010PropOp32
 70
     1
102
RTVSPost2010Prop33
280
     0
102
RTVSPost2010PropOp33
 70
     1
102
RTVSPost2010Prop34
280
     0
102
RTVSPost2010PropOp34
 70
     1
102
RTVSPost2010Prop35
280
     0
102
RTVSPost2010PropOp35
 70
     1
102
RTVSPost2010Prop36
280
     0
102
RTVSPost2010PropOp36
 70
     1
102
RTVSPost2010Prop37
 90
       50
102
RTVSPost2010PropOp37
 70
     1
102
RTVSPost2010Prop38
140
0.0
102
RTVSPost2010PropOp38
 70
     1
102
RTVSPost2010Prop39
140
1.0
102
RTVSPost2010PropOp39
 70
     1
102
RTVSPost2010Prop40
 90
        0
102
RTVSPost2010PropOp40
 70
     1
102
RTVSPost2010Prop41ColorIndex
 90
       18
102
RTVSPost2010Prop41ColorRGB
 90
        0
102
RTVSPost2010PropOp41
 70
     1
102
RTVSPost2010Prop42
 90
       50
102
RTVSPost2010PropOp42
 70
     1
102
RTVSPost2010Prop43
 90
        3
102
RTVSPost2010PropOp43
 70
     1
102
RTVSPost2010Prop44ColorIndex
 90
        5
102
RTVSPost2010Prop44ColorRGB
 90
      255
102
RTVSPost2010PropOp44
 70
     1
102
RTVSPost2010Prop45
280
     0
102
RTVSPost2010PropOp45
 70
     1
102
RTVSPost2010Prop46
 90
       50
102
RTVSPost2010PropOp46
 70
     1
102
RTVSPost2010Prop47
 90
       50
102
RTVSPost2010PropOp47
 70
     1
102
RTVSPost2010Prop48
 90
       50
102
RTVSPost2010PropOp48
 70
     1
102
RTVSPost2010Prop49
280
     0
102
RTVSPost2010PropOp49
 70
     1
102
RTVSPost2010Prop50
 90
       50
102
RTVSPost2010PropOp50
 70
     1
102
RTVSPost2010Prop51ColorIndex
 90
      256
102
RTVSPost2010Prop51ColorRGB
 90
-16777216
102
RTVSPost2010PropOp51
 70
     0
102
RTVSPost2010Prop52
140
1.0
102
RTVSPost2010PropOp52
 70
     0
102
RTVSPost2010Prop53
 90
        2
102
RTVSPost2010PropOp53
 70
     1
102
RTVSPost2010Prop54
  1
strokes_ogs.tif
102
RTVSPost2010PropOp54
 70
     1
102
RTVSPost2010Prop55
280
     0
102
RTVSPost2010PropOp55
 70
     1
102
RTVSPost2010Prop56
140
1.0
102
RTVSPost2010PropOp56
 70
     1
102
RTVSPost2010Prop57
140
1.0
102
RTVSPost2010PropOp57
 70
     1
  0
XRECORD
  5
17B
102
{ACAD_REACTORS
330
17A
102
}
330
17A
100
AcDbXrecord
280
     1
102
RTVSPropertyOp0
 70
     1
102
RTVSPropertyOp1
 70
     1
102
RTVSPropertyOp2
 70
     1
102
RTVSPropertyOp3
 70
     1
102
RTVSPropertyOp4
 70
     1
102
RTVSPropertyOp5
 70
     1
102
RTVSPropertyOp6
 70
     1
102
RTVSPropertyOp7
 70
     1
102
RTVSPropertyOp8
 70
     1
102
RTVSPropertyOp9
 70
     1
102
RTVSPropertyOp10
 70
     1
102
RTVSPropertyOp11
 70
     1
102
RTVSPropertyOp12
 70
     1
102
RTVSPropertyOp13
 70
     1
102
RTVSPropertyOp14
 70
     1
102
RTVSPropertyOp15
 70
     1
102
RTVSPropertyOp16
 70
     1
102
RTVSPropertyOp17
 70
     1
102
RTVSPropertyOp18
 70
     1
102
RTVSPropertyOp19
 70
     1
102
RTVSPropertyOp20
 70
     1
102
RTVSPropertyOp21
 70
     1
102
RTVSPropertyOp22
 70
     1
102
RTVSPropertyOp23
 70
     1
102
RTVSPropertyOp24
 70
     1
102
RTVSPropertyOp25
 70
     1
102
RTVSPropertyOp26
 70
     1
102
RTVSPropertyOp27
 70
     1
102
RTVSPropertyOp28
 70
     1
102
RTVSPropertyOp29
 70
     1
102
RTVSPropertyOp30
 70
     1
102
RTVSPropertyOp31
 70
     1
102
RTVSPropertyOp32
 70
     1
102
RTVSPropertyOp33
 70
     1
102
RTVSPropertyOp34
 70
     1
102
RTVSPropertyOp35
 70
     1
102
RTVSPropertyOp36
 70
     1
102
RTVSPropertyOp37
 70
     1
102
RTVSPropertyOp38
 70
     1
102
RTVSPropertyOp39
 70
     1
102
RTVSPropertyOp40
 70
     1
102
RTVSPropertyOp41
 70
     1
102
RTVSPropertyOp42
 70
     1
102
RTVSPropertyOp43
 70
     1
102
RTVSPropertyOp44
 70
     1
102
RTVSPropertyOp45
 70
     1
102
RTVSPropertyOp46
 70
     1
102
RTVSPropertyOp47
 70
     1
102
RTVSPropertyOp48
 70
     1
102
RTVSPropertyOp49
 70
     1
102
RTVSPropertyOp50
 70
     1
102
RTVSPropertyOp51
 70
     0
102
RTVSPropertyOp52
 70
     0
102
RTVSPropertyOp53
 70
     1
102
RTVSPropertyOp54
 70
     1
102
RTVSPropertyOp55
 70
     1
102
RTVSPropertyOp56
 70
     1
102
RTVSPropertyOp57
 70
     1
102
RTVSPost2010Prop28
280
     0
102
RTVSPost2010PropOp28
 70
     1
102
RTVSPost2010Prop29
280
     1
102
RTVSPost2010PropOp29
 70
     1
102
RTVSPost2010Prop30
280
     1
102
RTVSPost2010PropOp30
 70
     1
102
RTVSPost2010Prop31
280
     0
102
RTVSPost2010PropOp31
 70
     1
102
RTVSPost2010Prop32
280
     0
102
RTVSPost2010PropOp32
 70
     1
102
RTVSPost2010Prop33
280
     0
102
RTVSPost2010PropOp33
 70
     1
102
RTVSPost2010Prop34
280
     0
102
RTVSPost2010PropOp34
 70
     1
102
RTVSPost2010Prop35
280
     0
102
RTVSPost2010PropOp35
 70
     1
102
RTVSPost2010Prop36
280
     0
102
RTVSPost2010PropOp36
 70
     1
102
RTVSPost2010Prop37
 90
       50
102
RTVSPost2010PropOp37
 70
     1
102
RTVSPost2010Prop38
140
0.0
102
RTVSPost2010PropOp38
 70
     1
102
RTVSPost2010Prop39
140
1.0
102
RTVSPost2010PropOp39
 70
     1
102
RTVSPost2010Prop40
 90
        0
102
RTVSPost2010PropOp40
 70
     1
102
RTVSPost2010Prop41ColorIndex
 90
       18
102
RTVSPost2010Prop41ColorRGB
 90
        0
102
RTVSPost2010PropOp41
 70
     1
102
RTVSPost2010Prop42
 90
       50
102
RTVSPost2010PropOp42
 70
     1
102
RTVSPost2010Prop43
 90
        3
102
RTVSPost2010PropOp43
 70
     1
102
RTVSPost2010Prop44ColorIndex
 90
        5
102
RTVSPost2010Prop44ColorRGB
 90
      255
102
RTVSPost2010PropOp44
 70
     1
102
RTVSPost2010Prop45
280
     0
102
RTVSPost2010PropOp45
 70
     1
102
RTVSPost2010Prop46
 90
       50
102
RTVSPost2010PropOp46
 70
     1
102
RTVSPost2010Prop47
 90
       50
102
RTVSPost2010PropOp47
 70
     1
102
RTVSPost2010Prop48
 90
       50
102
RTVSPost2010PropOp48
 70
     1
102
RTVSPost2010Prop49
280
     0
102
RTVSPost2010PropOp49
 70
     1
102
RTVSPost2010Prop50
 90
       50
102
RTVSPost2010PropOp50
 70
     1
102
RTVSPost2010Prop51ColorIndex
 90
      256
102
RTVSPost2010Prop51ColorRGB
 90
-16777216
102
RTVSPost2010PropOp51
 70
     0
102
RTVSPost2010Prop52
140
1.0
102
RTVSPost2010PropOp52
 70
     0
102
RTVSPost2010Prop53
 90
        2
102
RTVSPost2010PropOp53
 70
     1
102
RTVSPost2010Prop54
  1
strokes_ogs.tif
102
RTVSPost2010PropOp54
 70
     1
102
RTVSPost2010Prop55
280
     0
102
RTVSPost2010PropOp55
 70
     1
102
RTVSPost2010Prop56
140
1.0
102
RTVSPost2010PropOp56
 70
     1
102
RTVSPost2010Prop57
140
1.0
102
RTVSPost2010PropOp57
 70
     1
  0
XRECORD
  5
183
102
{ACAD_REACTORS
330
182
102
}
330
182
100
AcDbXrecord
280
     1
102
RTVSPropertyOp0
 70
     1
102
RTVSPropertyOp1
 70
     1
102
RTVSPropertyOp2
 70
     1
102
RTVSPropertyOp3
 70
     1
102
RTVSPropertyOp4
 70
     1
102
RTVSPropertyOp5
 70
     1
102
RTVSPropertyOp6
 70
     1
102
RTVSPropertyOp7
 70
     1
102
RTVSPropertyOp8
 70
     1
102
RTVSPropertyOp9
 70
     1
102
RTVSPropertyOp10
 70
     1
102
RTVSPropertyOp11
 70
     1
102
RTVSPropertyOp12
 70
     1
102
RTVSPropertyOp13
 70
     1
102
RTVSPropertyOp14
 70
     1
102
RTVSPropertyOp15
 70
     1
102
RTVSPropertyOp16
 70
     1
102
RTVSPropertyOp17
 70
     1
102
RTVSPropertyOp18
 70
     1
102
RTVSPropertyOp19
 70
     1
102
RTVSPropertyOp20
 70
     1
102
RTVSPropertyOp21
 70
     1
102
RTVSPropertyOp22
 70
     1
102
RTVSPropertyOp23
 70
     1
102
RTVSPropertyOp24
 70
     1
102
RTVSPropertyOp25
 70
     1
102
RTVSPropertyOp26
 70
     1
102
RTVSPropertyOp27
 70
     1
102
RTVSPropertyOp28
 70
     1
102
RTVSPropertyOp29
 70
     1
102
RTVSPropertyOp30
 70
     1
102
RTVSPropertyOp31
 70
     1
102
RTVSPropertyOp32
 70
     1
102
RTVSPropertyOp33
 70
     1
102
RTVSPropertyOp34
 70
     1
102
RTVSPropertyOp35
 70
     1
102
RTVSPropertyOp36
 70
     1
102
RTVSPropertyOp37
 70
     1
102
RTVSPropertyOp38
 70
     1
102
RTVSPropertyOp39
 70
     1
102
RTVSPropertyOp40
 70
     1
102
RTVSPropertyOp41
 70
     1
102
RTVSPropertyOp42
 70
     1
102
RTVSPropertyOp43
 70
     1
102
RTVSPropertyOp44
 70
     1
102
RTVSPropertyOp45
 70
     1
102
RTVSPropertyOp46
 70
     1
102
RTVSPropertyOp47
 70
     1
102
RTVSPropertyOp48
 70
     1
102
RTVSPropertyOp49
 70
     1
102
RTVSPropertyOp50
 70
     1
102
RTVSPropertyOp51
 70
     0
102
RTVSPropertyOp52
 70
     0
102
RTVSPropertyOp53
 70
     1
102
RTVSPropertyOp54
 70
     1
102
RTVSPropertyOp55
 70
     1
102
RTVSPropertyOp56
 70
     1
102
RTVSPropertyOp57
 70
     1
102
RTVSPost2010Prop28
280
     0
102
RTVSPost2010PropOp28
 70
     1
102
RTVSPost2010Prop29
280
     1
102
RTVSPost2010PropOp29
 70
     1
102
RTVSPost2010Prop30
280
     1
102
RTVSPost2010PropOp30
 70
     1
102
RTVSPost2010Prop31
280
     0
102
RTVSPost2010PropOp31
 70
     1
102
RTVSPost2010Prop32
280
     0
102
RTVSPost2010PropOp32
 70
     1
102
RTVSPost2010Prop33
280
     0
102
RTVSPost2010PropOp33
 70
     1
102
RTVSPost2010Prop34
280
     0
102
RTVSPost2010PropOp34
 70
     1
102
RTVSPost2010Prop35
280
     0
102
RTVSPost2010PropOp35
 70
     1
102
RTVSPost2010Prop36
280
     0
102
RTVSPost2010PropOp36
 70
     1
102
RTVSPost2010Prop37
 90
       50
102
RTVSPost2010PropOp37
 70
     1
102
RTVSPost2010Prop38
140
0.0
102
RTVSPost2010PropOp38
 70
     1
102
RTVSPost2010Prop39
140
1.0
102
RTVSPost2010PropOp39
 70
     1
102
RTVSPost2010Prop40
 90
        0
102
RTVSPost2010PropOp40
 70
     1
102
RTVSPost2010Prop41ColorIndex
 90
       18
102
RTVSPost2010Prop41ColorRGB
 90
        0
102
RTVSPost2010PropOp41
 70
     1
102
RTVSPost2010Prop42
 90
       50
102
RTVSPost2010PropOp42
 70
     1
102
RTVSPost2010Prop43
 90
        3
102
RTVSPost2010PropOp43
 70
     1
102
RTVSPost2010Prop44ColorIndex
 90
        5
102
RTVSPost2010Prop44ColorRGB
 90
      255
102
RTVSPost2010PropOp44
 70
     1
102
RTVSPost2010Prop45
280
     0
102
RTVSPost2010PropOp45
 70
     1
102
RTVSPost2010Prop46
 90
       50
102
RTVSPost2010PropOp46
 70
     1
102
RTVSPost2010Prop47
 90
       50
102
RTVSPost2010PropOp47
 70
     1
102
RTVSPost2010Prop48
 90
       50
102
RTVSPost2010PropOp48
 70
     1
102
RTVSPost2010Prop49
280
     0
102
RTVSPost2010PropOp49
 70
     1
102
RTVSPost2010Prop50
 90
       50
102
RTVSPost2010PropOp50
 70
     1
102
RTVSPost2010Prop51ColorIndex
 90
      256
102
RTVSPost2010Prop51ColorRGB
 90
-16777216
102
RTVSPost2010PropOp51
 70
     0
102
RTVSPost2010Prop52
140
1.0
102
RTVSPost2010PropOp52
 70
     0
102
RTVSPost2010Prop53
 90
        2
102
RTVSPost2010PropOp53
 70
     1
102
RTVSPost2010Prop54
  1
strokes_ogs.tif
102
RTVSPost2010PropOp54
 70
     1
102
RTVSPost2010Prop55
280
     0
102
RTVSPost2010PropOp55
 70
     1
102
RTVSPost2010Prop56
140
1.0
102
RTVSPost2010PropOp56
 70
     1
102
RTVSPost2010Prop57
140
1.0
102
RTVSPost2010PropOp57
 70
     1
  0
XRECORD
  5
18B
102
{ACAD_REACTORS
330
18A
102
}
330
18A
100
AcDbXrecord
280
     1
102
RTVSPropertyOp0
 70
     1
102
RTVSPropertyOp1
 70
     1
102
RTVSPropertyOp2
 70
     1
102
RTVSPropertyOp3
 70
     1
102
RTVSPropertyOp4
 70
     1
102
RTVSPropertyOp5
 70
     1
102
RTVSPropertyOp6
 70
     1
102
RTVSPropertyOp7
 70
     1
102
RTVSPropertyOp8
 70
     1
102
RTVSPropertyOp9
 70
     1
102
RTVSPropertyOp10
 70
     1
102
RTVSPropertyOp11
 70
     1
102
RTVSPropertyOp12
 70
     1
102
RTVSPropertyOp13
 70
     1
102
RTVSPropertyOp14
 70
     1
102
RTVSPropertyOp15
 70
     1
102
RTVSPropertyOp16
 70
     1
102
RTVSPropertyOp17
 70
     1
102
RTVSPropertyOp18
 70
     1
102
RTVSPropertyOp19
 70
     1
102
RTVSPropertyOp20
 70
     1
102
RTVSPropertyOp21
 70
     1
102
RTVSPropertyOp22
 70
     1
102
RTVSPropertyOp23
 70
     1
102
RTVSPropertyOp24
 70
     1
102
RTVSPropertyOp25
 70
     1
102
RTVSPropertyOp26
 70
     1
102
RTVSPropertyOp27
 70
     1
102
RTVSPropertyOp28
 70
     1
102
RTVSPropertyOp29
 70
     1
102
RTVSPropertyOp30
 70
     1
102
RTVSPropertyOp31
 70
     1
102
RTVSPropertyOp32
 70
     1
102
RTVSPropertyOp33
 70
     1
102
RTVSPropertyOp34
 70
     1
102
RTVSPropertyOp35
 70
     1
102
RTVSPropertyOp36
 70
     1
102
RTVSPropertyOp37
 70
     1
102
RTVSPropertyOp38
 70
     1
102
RTVSPropertyOp39
 70
     1
102
RTVSPropertyOp40
 70
     1
102
RTVSPropertyOp41
 70
     1
102
RTVSPropertyOp42
 70
     1
102
RTVSPropertyOp43
 70
     1
102
RTVSPropertyOp44
 70
     1
102
RTVSPropertyOp45
 70
     1
102
RTVSPropertyOp46
 70
     1
102
RTVSPropertyOp47
 70
     1
102
RTVSPropertyOp48
 70
     1
102
RTVSPropertyOp49
 70
     1
102
RTVSPropertyOp50
 70
     1
102
RTVSPropertyOp51
 70
     0
102
RTVSPropertyOp52
 70
     0
102
RTVSPropertyOp53
 70
     1
102
RTVSPropertyOp54
 70
     1
102
RTVSPropertyOp55
 70
     1
102
RTVSPropertyOp56
 70
     1
102
RTVSPropertyOp57
 70
     1
102
RTVSPost2010Prop28
280
     0
102
RTVSPost2010PropOp28
 70
     1
102
RTVSPost2010Prop29
280
     1
102
RTVSPost2010PropOp29
 70
     1
102
RTVSPost2010Prop30
280
     1
102
RTVSPost2010PropOp30
 70
     1
102
RTVSPost2010Prop31
280
     0
102
RTVSPost2010PropOp31
 70
     1
102
RTVSPost2010Prop32
280
     0
102
RTVSPost2010PropOp32
 70
     1
102
RTVSPost2010Prop33
280
     0
102
RTVSPost2010PropOp33
 70
     1
102
RTVSPost2010Prop34
280
     0
102
RTVSPost2010PropOp34
 70
     1
102
RTVSPost2010Prop35
280
     0
102
RTVSPost2010PropOp35
 70
     1
102
RTVSPost2010Prop36
280
     0
102
RTVSPost2010PropOp36
 70
     1
102
RTVSPost2010Prop37
 90
       50
102
RTVSPost2010PropOp37
 70
     1
102
RTVSPost2010Prop38
140
0.0
102
RTVSPost2010PropOp38
 70
     1
102
RTVSPost2010Prop39
140
1.0
102
RTVSPost2010PropOp39
 70
     1
102
RTVSPost2010Prop40
 90
        0
102
RTVSPost2010PropOp40
 70
     1
102
RTVSPost2010Prop41ColorIndex
 90
       18
102
RTVSPost2010Prop41ColorRGB
 90
        0
102
RTVSPost2010PropOp41
 70
     1
102
RTVSPost2010Prop42
 90
       50
102
RTVSPost2010PropOp42
 70
     1
102
RTVSPost2010Prop43
 90
        3
102
RTVSPost2010PropOp43
 70
     1
102
RTVSPost2010Prop44ColorIndex
 90
        5
102
RTVSPost2010Prop44ColorRGB
 90
      255
102
RTVSPost2010PropOp44
 70
     1
102
RTVSPost2010Prop45
280
     0
102
RTVSPost2010PropOp45
 70
     1
102
RTVSPost2010Prop46
 90
       50
102
RTVSPost2010PropOp46
 70
     1
102
RTVSPost2010Prop47
 90
       50
102
RTVSPost2010PropOp47
 70
     1
102
RTVSPost2010Prop48
 90
       50
102
RTVSPost2010PropOp48
 70
     1
102
RTVSPost2010Prop49
280
     0
102
RTVSPost2010PropOp49
 70
     1
102
RTVSPost2010Prop50
 90
       50
102
RTVSPost2010PropOp50
 70
     1
102
RTVSPost2010Prop51ColorIndex
 90
      256
102
RTVSPost2010Prop51ColorRGB
 90
-16777216
102
RTVSPost2010PropOp51
 70
     0
102
RTVSPost2010Prop52
140
1.0
102
RTVSPost2010PropOp52
 70
     0
102
RTVSPost2010Prop53
 90
        2
102
RTVSPost2010PropOp53
 70
     1
102
RTVSPost2010Prop54
  1
strokes_ogs.tif
102
RTVSPost2010PropOp54
 70
     1
102
RTVSPost2010Prop55
280
     0
102
RTVSPost2010PropOp55
 70
     1
102
RTVSPost2010Prop56
140
1.0
102
RTVSPost2010PropOp56
 70
     1
102
RTVSPost2010Prop57
140
1.0
102
RTVSPost2010PropOp57
 70
     1
  0
XRECORD
  5
17F
102
{ACAD_REACTORS
330
17E
102
}
330
17E
100
AcDbXrecord
280
     1
102
RTVSPropertyOp0
 70
     1
102
RTVSPropertyOp1
 70
     1
102
RTVSPropertyOp2
 70
     1
102
RTVSPropertyOp3
 70
     1
102
RTVSPropertyOp4
 70
     1
102
RTVSPropertyOp5
 70
     1
102
RTVSPropertyOp6
 70
     1
102
RTVSPropertyOp7
 70
     1
102
RTVSPropertyOp8
 70
     1
102
RTVSPropertyOp9
 70
     1
102
RTVSPropertyOp10
 70
     1
102
RTVSPropertyOp11
 70
     1
102
RTVSPropertyOp12
 70
     1
102
RTVSPropertyOp13
 70
     1
102
RTVSPropertyOp14
 70
     1
102
RTVSPropertyOp15
 70
     1
102
RTVSPropertyOp16
 70
     1
102
RTVSPropertyOp17
 70
     1
102
RTVSPropertyOp18
 70
     1
102
RTVSPropertyOp19
 70
     1
102
RTVSPropertyOp20
 70
     1
102
RTVSPropertyOp21
 70
     1
102
RTVSPropertyOp22
 70
     1
102
RTVSPropertyOp23
 70
     1
102
RTVSPropertyOp24
 70
     1
102
RTVSPropertyOp25
 70
     1
102
RTVSPropertyOp26
 70
     1
102
RTVSPropertyOp27
 70
     1
102
RTVSPropertyOp28
 70
     1
102
RTVSPropertyOp29
 70
     1
102
RTVSPropertyOp30
 70
     1
102
RTVSPropertyOp31
 70
     1
102
RTVSPropertyOp32
 70
     1
102
RTVSPropertyOp33
 70
     1
102
RTVSPropertyOp34
 70
     1
102
RTVSPropertyOp35
 70
     1
102
RTVSPropertyOp36
 70
     1
102
RTVSPropertyOp37
 70
     1
102
RTVSPropertyOp38
 70
     1
102
RTVSPropertyOp39
 70
     1
102
RTVSPropertyOp40
 70
     1
102
RTVSPropertyOp41
 70
     1
102
RTVSPropertyOp42
 70
     1
102
RTVSPropertyOp43
 70
     1
102
RTVSPropertyOp44
 70
     1
102
RTVSPropertyOp45
 70
     1
102
RTVSPropertyOp46
 70
     1
102
RTVSPropertyOp47
 70
     1
102
RTVSPropertyOp48
 70
     1
102
RTVSPropertyOp49
 70
     1
102
RTVSPropertyOp50
 70
     1
102
RTVSPropertyOp51
 70
     0
102
RTVSPropertyOp52
 70
     0
102
RTVSPropertyOp53
 70
     1
102
RTVSPropertyOp54
 70
     1
102
RTVSPropertyOp55
 70
     1
102
RTVSPropertyOp56
 70
     1
102
RTVSPropertyOp57
 70
     1
102
RTVSPost2010Prop28
280
     0
102
RTVSPost2010PropOp28
 70
     1
102
RTVSPost2010Prop29
280
     1
102
RTVSPost2010PropOp29
 70
     1
102
RTVSPost2010Prop30
280
     1
102
RTVSPost2010PropOp30
 70
     1
102
RTVSPost2010Prop31
280
     0
102
RTVSPost2010PropOp31
 70
     1
102
RTVSPost2010Prop32
280
     0
102
RTVSPost2010PropOp32
 70
     1
102
RTVSPost2010Prop33
280
     0
102
RTVSPost2010PropOp33
 70
     1
102
RTVSPost2010Prop34
280
     0
102
RTVSPost2010PropOp34
 70
     1
102
RTVSPost2010Prop35
280
     0
102
RTVSPost2010PropOp35
 70
     1
102
RTVSPost2010Prop36
280
     0
102
RTVSPost2010PropOp36
 70
     1
102
RTVSPost2010Prop37
 90
       50
102
RTVSPost2010PropOp37
 70
     1
102
RTVSPost2010Prop38
140
0.0
102
RTVSPost2010PropOp38
 70
     1
102
RTVSPost2010Prop39
140
1.0
102
RTVSPost2010PropOp39
 70
     1
102
RTVSPost2010Prop40
 90
        0
102
RTVSPost2010PropOp40
 70
     1
102
RTVSPost2010Prop41ColorIndex
 90
       18
102
RTVSPost2010Prop41ColorRGB
 90
        0
102
RTVSPost2010PropOp41
 70
     1
102
RTVSPost2010Prop42
 90
       50
102
RTVSPost2010PropOp42
 70
     1
102
RTVSPost2010Prop43
 90
        3
102
RTVSPost2010PropOp43
 70
     1
102
RTVSPost2010Prop44ColorIndex
 90
        5
102
RTVSPost2010Prop44ColorRGB
 90
      255
102
RTVSPost2010PropOp44
 70
     1
102
RTVSPost2010Prop45
280
     0
102
RTVSPost2010PropOp45
 70
     1
102
RTVSPost2010Prop46
 90
       50
102
RTVSPost2010PropOp46
 70
     1
102
RTVSPost2010Prop47
 90
       50
102
RTVSPost2010PropOp47
 70
     1
102
RTVSPost2010Prop48
 90
       50
102
RTVSPost2010PropOp48
 70
     1
102
RTVSPost2010Prop49
280
     0
102
RTVSPost2010PropOp49
 70
     1
102
RTVSPost2010Prop50
 90
       50
102
RTVSPost2010PropOp50
 70
     1
102
RTVSPost2010Prop51ColorIndex
 90
      256
102
RTVSPost2010Prop51ColorRGB
 90
-16777216
102
RTVSPost2010PropOp51
 70
     0
102
RTVSPost2010Prop52
140
1.0
102
RTVSPost2010PropOp52
 70
     0
102
RTVSPost2010Prop53
 90
        2
102
RTVSPost2010PropOp53
 70
     1
102
RTVSPost2010Prop54
  1
strokes_ogs.tif
102
RTVSPost2010PropOp54
 70
     1
102
RTVSPost2010Prop55
280
     0
102
RTVSPost2010PropOp55
 70
     1
102
RTVSPost2010Prop56
140
1.0
102
RTVSPost2010PropOp56
 70
     1
102
RTVSPost2010Prop57
140
1.0
102
RTVSPost2010PropOp57
 70
     1
  0
XRECORD
  5
181
102
{ACAD_REACTORS
330
180
102
}
330
180
100
AcDbXrecord
280
     1
102
RTVSPropertyOp0
 70
     1
102
RTVSPropertyOp1
 70
     1
102
RTVSPropertyOp2
 70
     1
102
RTVSPropertyOp3
 70
     1
102
RTVSPropertyOp4
 70
     1
102
RTVSPropertyOp5
 70
     1
102
RTVSPropertyOp6
 70
     1
102
RTVSPropertyOp7
 70
     1
102
RTVSPropertyOp8
 70
     1
102
RTVSPropertyOp9
 70
     1
102
RTVSPropertyOp10
 70
     1
102
RTVSPropertyOp11
 70
     1
102
RTVSPropertyOp12
 70
     1
102
RTVSPropertyOp13
 70
     1
102
RTVSPropertyOp14
 70
     1
102
RTVSPropertyOp15
 70
     1
102
RTVSPropertyOp16
 70
     1
102
RTVSPropertyOp17
 70
     1
102
RTVSPropertyOp18
 70
     1
102
RTVSPropertyOp19
 70
     1
102
RTVSPropertyOp20
 70
     1
102
RTVSPropertyOp21
 70
     1
102
RTVSPropertyOp22
 70
     1
102
RTVSPropertyOp23
 70
     1
102
RTVSPropertyOp24
 70
     1
102
RTVSPropertyOp25
 70
     1
102
RTVSPropertyOp26
 70
     1
102
RTVSPropertyOp27
 70
     1
102
RTVSPropertyOp28
 70
     1
102
RTVSPropertyOp29
 70
     1
102
RTVSPropertyOp30
 70
     1
102
RTVSPropertyOp31
 70
     1
102
RTVSPropertyOp32
 70
     1
102
RTVSPropertyOp33
 70
     1
102
RTVSPropertyOp34
 70
     1
102
RTVSPropertyOp35
 70
     1
102
RTVSPropertyOp36
 70
     1
102
RTVSPropertyOp37
 70
     1
102
RTVSPropertyOp38
 70
     1
102
RTVSPropertyOp39
 70
     1
102
RTVSPropertyOp40
 70
     1
102
RTVSPropertyOp41
 70
     1
102
RTVSPropertyOp42
 70
     1
102
RTVSPropertyOp43
 70
     1
102
RTVSPropertyOp44
 70
     1
102
RTVSPropertyOp45
 70
     1
102
RTVSPropertyOp46
 70
     1
102
RTVSPropertyOp47
 70
     1
102
RTVSPropertyOp48
 70
     1
102
RTVSPropertyOp49
 70
     1
102
RTVSPropertyOp50
 70
     1
102
RTVSPropertyOp51
 70
     0
102
RTVSPropertyOp52
 70
     0
102
RTVSPropertyOp53
 70
     1
102
RTVSPropertyOp54
 70
     1
102
RTVSPropertyOp55
 70
     1
102
RTVSPropertyOp56
 70
     1
102
RTVSPropertyOp57
 70
     1
102
RTVSPost2010Prop28
280
     0
102
RTVSPost2010PropOp28
 70
     1
102
RTVSPost2010Prop29
280
     1
102
RTVSPost2010PropOp29
 70
     1
102
RTVSPost2010Prop30
280
     1
102
RTVSPost2010PropOp30
 70
     1
102
RTVSPost2010Prop31
280
     0
102
RTVSPost2010PropOp31
 70
     1
102
RTVSPost2010Prop32
280
     0
102
RTVSPost2010PropOp32
 70
     1
102
RTVSPost2010Prop33
280
     0
102
RTVSPost2010PropOp33
 70
     1
102
RTVSPost2010Prop34
280
     0
102
RTVSPost2010PropOp34
 70
     1
102
RTVSPost2010Prop35
280
     0
102
RTVSPost2010PropOp35
 70
     1
102
RTVSPost2010Prop36
280
     0
102
RTVSPost2010PropOp36
 70
     1
102
RTVSPost2010Prop37
 90
       50
102
RTVSPost2010PropOp37
 70
     1
102
RTVSPost2010Prop38
140
0.0
102
RTVSPost2010PropOp38
 70
     1
102
RTVSPost2010Prop39
140
1.0
102
RTVSPost2010PropOp39
 70
     1
102
RTVSPost2010Prop40
 90
        0
102
RTVSPost2010PropOp40
 70
     1
102
RTVSPost2010Prop41ColorIndex
 90
       18
102
RTVSPost2010Prop41ColorRGB
 90
        0
102
RTVSPost2010PropOp41
 70
     1
102
RTVSPost2010Prop42
 90
       50
102
RTVSPost2010PropOp42
 70
     1
102
RTVSPost2010Prop43
 90
        3
102
RTVSPost2010PropOp43
 70
     1
102
RTVSPost2010Prop44ColorIndex
 90
        5
102
RTVSPost2010Prop44ColorRGB
 90
      255
102
RTVSPost2010PropOp44
 70
     1
102
RTVSPost2010Prop45
280
     0
102
RTVSPost2010PropOp45
 70
     1
102
RTVSPost2010Prop46
 90
       50
102
RTVSPost2010PropOp46
 70
     1
102
RTVSPost2010Prop47
 90
       50
102
RTVSPost2010PropOp47
 70
     1
102
RTVSPost2010Prop48
 90
       50
102
RTVSPost2010PropOp48
 70
     1
102
RTVSPost2010Prop49
280
     0
102
RTVSPost2010PropOp49
 70
     1
102
RTVSPost2010Prop50
 90
       50
102
RTVSPost2010PropOp50
 70
     1
102
RTVSPost2010Prop51ColorIndex
 90
      256
102
RTVSPost2010Prop51ColorRGB
 90
-16777216
102
RTVSPost2010PropOp51
 70
     0
102
RTVSPost2010Prop52
140
1.0
102
RTVSPost2010PropOp52
 70
     0
102
RTVSPost2010Prop53
 90
        2
102
RTVSPost2010PropOp53
 70
     1
102
RTVSPost2010Prop54
  1
strokes_ogs.tif
102
RTVSPost2010PropOp54
 70
     1
102
RTVSPost2010Prop55
280
     0
102
RTVSPost2010PropOp55
 70
     1
102
RTVSPost2010Prop56
140
1.0
102
RTVSPost2010PropOp56
 70
     1
102
RTVSPost2010Prop57
140
1.0
102
RTVSPost2010PropOp57
 70
     1
  0
XRECORD
  5
191
102
{ACAD_REACTORS
330
190
102
}
330
190
100
AcDbXrecord
280
     1
102
RTVSPropertyOp0
 70
     0
102
RTVSPropertyOp1
 70
     0
102
RTVSPropertyOp2
 70
     0
102
RTVSPropertyOp3
 70
     0
102
RTVSPropertyOp4
 70
     0
102
RTVSPropertyOp5
 70
     0
102
RTVSPropertyOp6
 70
     0
102
RTVSPropertyOp7
 70
     0
102
RTVSPropertyOp8
 70
     0
102
RTVSPropertyOp9
 70
     0
102
RTVSPropertyOp10
 70
     0
102
RTVSPropertyOp11
 70
     0
102
RTVSPropertyOp12
 70
     0
102
RTVSPropertyOp13
 70
     0
102
RTVSPropertyOp14
 70
     2
102
RTVSPropertyOp15
 70
     0
102
RTVSPropertyOp16
 70
     0
102
RTVSPropertyOp17
 70
     0
102
RTVSPropertyOp18
 70
     0
102
RTVSPropertyOp19
 70
     0
102
RTVSPropertyOp20
 70
     0
102
RTVSPropertyOp21
 70
     0
102
RTVSPropertyOp22
 70
     0
102
RTVSPropertyOp23
 70
     0
102
RTVSPropertyOp24
 70
     0
102
RTVSPropertyOp25
 70
     0
102
RTVSPropertyOp26
 70
     0
102
RTVSPropertyOp27
 70
     0
102
RTVSPropertyOp28
 70
     0
102
RTVSPropertyOp29
 70
     0
102
RTVSPropertyOp30
 70
     0
102
RTVSPropertyOp31
 70
     0
102
RTVSPropertyOp32
 70
     0
102
RTVSPropertyOp33
 70
     0
102
RTVSPropertyOp34
 70
     0
102
RTVSPropertyOp35
 70
     0
102
RTVSPropertyOp36
 70
     0
102
RTVSPropertyOp37
 70
     0
102
RTVSPropertyOp38
 70
     0
102
RTVSPropertyOp39
 70
     0
102
RTVSPropertyOp40
 70
     0
102
RTVSPropertyOp41
 70
     0
102
RTVSPropertyOp42
 70
     0
102
RTVSPropertyOp43
 70
     0
102
RTVSPropertyOp44
 70
     0
102
RTVSPropertyOp45
 70
     0
102
RTVSPropertyOp46
 70
     0
102
RTVSPropertyOp47
 70
     0
102
RTVSPropertyOp48
 70
     0
102
RTVSPropertyOp49
 70
     0
102
RTVSPropertyOp50
 70
     0
102
RTVSPropertyOp51
 70
     0
102
RTVSPropertyOp52
 70
     0
102
RTVSPropertyOp53
 70
     0
102
RTVSPropertyOp54
 70
     0
102
RTVSPropertyOp55
 70
     0
102
RTVSPropertyOp56
 70
     0
102
RTVSPropertyOp57
 70
     0
102
RTVSPost2010Prop28
280
     0
102
RTVSPost2010PropOp28
 70
     0
102
RTVSPost2010Prop29
280
     1
102
RTVSPost2010PropOp29
 70
     0
102
RTVSPost2010Prop30
280
     1
102
RTVSPost2010PropOp30
 70
     0
102
RTVSPost2010Prop31
280
     0
102
RTVSPost2010PropOp31
 70
     0
102
RTVSPost2010Prop32
280
     0
102
RTVSPost2010PropOp32
 70
     0
102
RTVSPost2010Prop33
280
     0
102
RTVSPost2010PropOp33
 70
     0
102
RTVSPost2010Prop34
280
     0
102
RTVSPost2010PropOp34
 70
     0
102
RTVSPost2010Prop35
280
     0
102
RTVSPost2010PropOp35
 70
     0
102
RTVSPost2010Prop36
280
     0
102
RTVSPost2010PropOp36
 70
     0
102
RTVSPost2010Prop37
 90
       50
102
RTVSPost2010PropOp37
 70
     0
102
RTVSPost2010Prop38
140
0.0
102
RTVSPost2010PropOp38
 70
     0
102
RTVSPost2010Prop39
140
1.0
102
RTVSPost2010PropOp39
 70
     0
102
RTVSPost2010Prop40
 90
        0
102
RTVSPost2010PropOp40
 70
     0
102
RTVSPost2010Prop41ColorIndex
 90
       18
102
RTVSPost2010Prop41ColorRGB
 90
        0
102
RTVSPost2010PropOp41
 70
     0
102
RTVSPost2010Prop42
 90
       50
102
RTVSPost2010PropOp42
 70
     0
102
RTVSPost2010Prop43
 90
        3
102
RTVSPost2010PropOp43
 70
     0
102
RTVSPost2010Prop44ColorIndex
 90
        5
102
RTVSPost2010Prop44ColorRGB
 90
      255
102
RTVSPost2010PropOp44
 70
     0
102
RTVSPost2010Prop45
280
     0
102
RTVSPost2010PropOp45
 70
     0
102
RTVSPost2010Prop46
 90
       50
102
RTVSPost2010PropOp46
 70
     0
102
RTVSPost2010Prop47
 90
       50
102
RTVSPost2010PropOp47
 70
     0
102
RTVSPost2010Prop48
 90
       50
102
RTVSPost2010PropOp48
 70
     0
102
RTVSPost2010Prop49
280
     0
102
RTVSPost2010PropOp49
 70
     0
102
RTVSPost2010Prop50
 90
       50
102
RTVSPost2010PropOp50
 70
     0
102
RTVSPost2010Prop51ColorIndex
 90
      256
102
RTVSPost2010Prop51ColorRGB
 90
-16777216
102
RTVSPost2010PropOp51
 70
     0
102
RTVSPost2010Prop52
140
1.0
102
RTVSPost2010PropOp52
 70
     0
102
RTVSPost2010Prop53
 90
        2
102
RTVSPost2010PropOp53
 70
     0
102
RTVSPost2010Prop54
  1
strokes_ogs.tif
102
RTVSPost2010PropOp54
 70
     0
102
RTVSPost2010Prop55
280
     0
102
RTVSPost2010PropOp55
 70
     0
102
RTVSPost2010Prop56
140
1.0
102
RTVSPost2010PropOp56
 70
     0
102
RTVSPost2010Prop57
140
1.0
102
RTVSPost2010PropOp57
 70
     0
  0
XRECORD
  5
189
102
{ACAD_REACTORS
330
188
102
}
330
188
100
AcDbXrecord
280
     1
102
RTVSPropertyOp0
 70
     1
102
RTVSPropertyOp1
 70
     1
102
RTVSPropertyOp2
 70
     1
102
RTVSPropertyOp3
 70
     1
102
RTVSPropertyOp4
 70
     1
102
RTVSPropertyOp5
 70
     1
102
RTVSPropertyOp6
 70
     1
102
RTVSPropertyOp7
 70
     1
102
RTVSPropertyOp8
 70
     1
102
RTVSPropertyOp9
 70
     1
102
RTVSPropertyOp10
 70
     1
102
RTVSPropertyOp11
 70
     1
102
RTVSPropertyOp12
 70
     1
102
RTVSPropertyOp13
 70
     1
102
RTVSPropertyOp14
 70
     1
102
RTVSPropertyOp15
 70
     1
102
RTVSPropertyOp16
 70
     1
102
RTVSPropertyOp17
 70
     1
102
RTVSPropertyOp18
 70
     1
102
RTVSPropertyOp19
 70
     1
102
RTVSPropertyOp20
 70
     1
102
RTVSPropertyOp21
 70
     1
102
RTVSPropertyOp22
 70
     1
102
RTVSPropertyOp23
 70
     1
102
RTVSPropertyOp24
 70
     1
102
RTVSPropertyOp25
 70
     1
102
RTVSPropertyOp26
 70
     1
102
RTVSPropertyOp27
 70
     1
102
RTVSPropertyOp28
 70
     1
102
RTVSPropertyOp29
 70
     1
102
RTVSPropertyOp30
 70
     1
102
RTVSPropertyOp31
 70
     1
102
RTVSPropertyOp32
 70
     1
102
RTVSPropertyOp33
 70
     1
102
RTVSPropertyOp34
 70
     1
102
RTVSPropertyOp35
 70
     1
102
RTVSPropertyOp36
 70
     1
102
RTVSPropertyOp37
 70
     1
102
RTVSPropertyOp38
 70
     1
102
RTVSPropertyOp39
 70
     1
102
RTVSPropertyOp40
 70
     1
102
RTVSPropertyOp41
 70
     1
102
RTVSPropertyOp42
 70
     1
102
RTVSPropertyOp43
 70
     1
102
RTVSPropertyOp44
 70
     1
102
RTVSPropertyOp45
 70
     1
102
RTVSPropertyOp46
 70
     1
102
RTVSPropertyOp47
 70
     1
102
RTVSPropertyOp48
 70
     1
102
RTVSPropertyOp49
 70
     1
102
RTVSPropertyOp50
 70
     1
102
RTVSPropertyOp51
 70
     0
102
RTVSPropertyOp52
 70
     0
102
RTVSPropertyOp53
 70
     1
102
RTVSPropertyOp54
 70
     1
102
RTVSPropertyOp55
 70
     1
102
RTVSPropertyOp56
 70
     1
102
RTVSPropertyOp57
 70
     1
102
RTVSPost2010Prop28
280
     0
102
RTVSPost2010PropOp28
 70
     1
102
RTVSPost2010Prop29
280
     1
102
RTVSPost2010PropOp29
 70
     1
102
RTVSPost2010Prop30
280
     1
102
RTVSPost2010PropOp30
 70
     1
102
RTVSPost2010Prop31
280
     0
102
RTVSPost2010PropOp31
 70
     1
102
RTVSPost2010Prop32
280
     0
102
RTVSPost2010PropOp32
 70
     1
102
RTVSPost2010Prop33
280
     0
102
RTVSPost2010PropOp33
 70
     1
102
RTVSPost2010Prop34
280
     0
102
RTVSPost2010PropOp34
 70
     1
102
RTVSPost2010Prop35
280
     0
102
RTVSPost2010PropOp35
 70
     1
102
RTVSPost2010Prop36
280
     0
102
RTVSPost2010PropOp36
 70
     1
102
RTVSPost2010Prop37
 90
       50
102
RTVSPost2010PropOp37
 70
     1
102
RTVSPost2010Prop38
140
0.0
102
RTVSPost2010PropOp38
 70
     1
102
RTVSPost2010Prop39
140
1.0
102
RTVSPost2010PropOp39
 70
     1
102
RTVSPost2010Prop40
 90
        0
102
RTVSPost2010PropOp40
 70
     1
102
RTVSPost2010Prop41ColorIndex
 90
       18
102
RTVSPost2010Prop41ColorRGB
 90
        0
102
RTVSPost2010PropOp41
 70
     1
102
RTVSPost2010Prop42
 90
       50
102
RTVSPost2010PropOp42
 70
     1
102
RTVSPost2010Prop43
 90
        3
102
RTVSPost2010PropOp43
 70
     1
102
RTVSPost2010Prop44ColorIndex
 90
        5
102
RTVSPost2010Prop44ColorRGB
 90
      255
102
RTVSPost2010PropOp44
 70
     1
102
RTVSPost2010Prop45
280
     0
102
RTVSPost2010PropOp45
 70
     1
102
RTVSPost2010Prop46
 90
       50
102
RTVSPost2010PropOp46
 70
     1
102
RTVSPost2010Prop47
 90
       50
102
RTVSPost2010PropOp47
 70
     1
102
RTVSPost2010Prop48
 90
       50
102
RTVSPost2010PropOp48
 70
     1
102
RTVSPost2010Prop49
280
     0
102
RTVSPost2010PropOp49
 70
     1
102
RTVSPost2010Prop50
 90
       50
102
RTVSPost2010PropOp50
 70
     1
102
RTVSPost2010Prop51ColorIndex
 90
      256
102
RTVSPost2010Prop51ColorRGB
 90
-16777216
102
RTVSPost2010PropOp51
 70
     0
102
RTVSPost2010Prop52
140
1.0
102
RTVSPost2010PropOp52
 70
     0
102
RTVSPost2010Prop53
 90
        2
102
RTVSPost2010PropOp53
 70
     1
102
RTVSPost2010Prop54
  1
strokes_ogs.tif
102
RTVSPost2010PropOp54
 70
     1
102
RTVSPost2010Prop55
280
     0
102
RTVSPost2010PropOp55
 70
     1
102
RTVSPost2010Prop56
140
1.0
102
RTVSPost2010PropOp56
 70
     1
102
RTVSPost2010Prop57
140
1.0
102
RTVSPost2010PropOp57
 70
     1
  0
XRECORD
  5
16D
102
{ACAD_REACTORS
330
16C
102
}
330
16C
100
AcDbXrecord
280
     1
102
RTVSPropertyOp0
 70
     1
102
RTVSPropertyOp1
 70
     1
102
RTVSPropertyOp2
 70
     1
102
RTVSPropertyOp3
 70
     1
102
RTVSPropertyOp4
 70
     1
102
RTVSPropertyOp5
 70
     1
102
RTVSPropertyOp6
 70
     1
102
RTVSPropertyOp7
 70
     1
102
RTVSPropertyOp8
 70
     1
102
RTVSPropertyOp9
 70
     1
102
RTVSPropertyOp10
 70
     1
102
RTVSPropertyOp11
 70
     1
102
RTVSPropertyOp12
 70
     1
102
RTVSPropertyOp13
 70
     1
102
RTVSPropertyOp14
 70
     1
102
RTVSPropertyOp15
 70
     1
102
RTVSPropertyOp16
 70
     1
102
RTVSPropertyOp17
 70
     1
102
RTVSPropertyOp18
 70
     1
102
RTVSPropertyOp19
 70
     1
102
RTVSPropertyOp20
 70
     1
102
RTVSPropertyOp21
 70
     1
102
RTVSPropertyOp22
 70
     1
102
RTVSPropertyOp23
 70
     1
102
RTVSPropertyOp24
 70
     1
102
RTVSPropertyOp25
 70
     1
102
RTVSPropertyOp26
 70
     1
102
RTVSPropertyOp27
 70
     1
102
RTVSPropertyOp28
 70
     1
102
RTVSPropertyOp29
 70
     1
102
RTVSPropertyOp30
 70
     1
102
RTVSPropertyOp31
 70
     1
102
RTVSPropertyOp32
 70
     1
102
RTVSPropertyOp33
 70
     1
102
RTVSPropertyOp34
 70
     1
102
RTVSPropertyOp35
 70
     1
102
RTVSPropertyOp36
 70
     1
102
RTVSPropertyOp37
 70
     1
102
RTVSPropertyOp38
 70
     1
102
RTVSPropertyOp39
 70
     1
102
RTVSPropertyOp40
 70
     1
102
RTVSPropertyOp41
 70
     1
102
RTVSPropertyOp42
 70
     1
102
RTVSPropertyOp43
 70
     1
102
RTVSPropertyOp44
 70
     1
102
RTVSPropertyOp45
 70
     1
102
RTVSPropertyOp46
 70
     1
102
RTVSPropertyOp47
 70
     1
102
RTVSPropertyOp48
 70
     1
102
RTVSPropertyOp49
 70
     1
102
RTVSPropertyOp50
 70
     1
102
RTVSPropertyOp51
 70
     0
102
RTVSPropertyOp52
 70
     0
102
RTVSPropertyOp53
 70
     1
102
RTVSPropertyOp54
 70
     1
102
RTVSPropertyOp55
 70
     1
102
RTVSPropertyOp56
 70
     1
102
RTVSPropertyOp57
 70
     1
102
RTVSPost2010Prop28
280
     0
102
RTVSPost2010PropOp28
 70
     1
102
RTVSPost2010Prop29
280
     1
102
RTVSPost2010PropOp29
 70
     1
102
RTVSPost2010Prop30
280
     1
102
RTVSPost2010PropOp30
 70
     1
102
RTVSPost2010Prop31
280
     0
102
RTVSPost2010PropOp31
 70
     1
102
RTVSPost2010Prop32
280
     0
102
RTVSPost2010PropOp32
 70
     1
102
RTVSPost2010Prop33
280
     0
102
RTVSPost2010PropOp33
 70
     1
102
RTVSPost2010Prop34
280
     0
102
RTVSPost2010PropOp34
 70
     1
102
RTVSPost2010Prop35
280
     0
102
RTVSPost2010PropOp35
 70
     1
102
RTVSPost2010Prop36
280
     0
102
RTVSPost2010PropOp36
 70
     1
102
RTVSPost2010Prop37
 90
       50
102
RTVSPost2010PropOp37
 70
     1
102
RTVSPost2010Prop38
140
0.0
102
RTVSPost2010PropOp38
 70
     1
102
RTVSPost2010Prop39
140
1.0
102
RTVSPost2010PropOp39
 70
     1
102
RTVSPost2010Prop40
 90
        0
102
RTVSPost2010PropOp40
 70
     1
102
RTVSPost2010Prop41ColorIndex
 90
       18
102
RTVSPost2010Prop41ColorRGB
 90
        0
102
RTVSPost2010PropOp41
 70
     1
102
RTVSPost2010Prop42
 90
       50
102
RTVSPost2010PropOp42
 70
     1
102
RTVSPost2010Prop43
 90
        3
102
RTVSPost2010PropOp43
 70
     1
102
RTVSPost2010Prop44ColorIndex
 90
        5
102
RTVSPost2010Prop44ColorRGB
 90
      255
102
RTVSPost2010PropOp44
 70
     1
102
RTVSPost2010Prop45
280
     0
102
RTVSPost2010PropOp45
 70
     1
102
RTVSPost2010Prop46
 90
       50
102
RTVSPost2010PropOp46
 70
     1
102
RTVSPost2010Prop47
 90
       50
102
RTVSPost2010PropOp47
 70
     1
102
RTVSPost2010Prop48
 90
       50
102
RTVSPost2010PropOp48
 70
     1
102
RTVSPost2010Prop49
280
     0
102
RTVSPost2010PropOp49
 70
     1
102
RTVSPost2010Prop50
 90
       50
102
RTVSPost2010PropOp50
 70
     1
102
RTVSPost2010Prop51ColorIndex
 90
      256
102
RTVSPost2010Prop51ColorRGB
 90
-16777216
102
RTVSPost2010PropOp51
 70
     0
102
RTVSPost2010Prop52
140
1.0
102
RTVSPost2010PropOp52
 70
     0
102
RTVSPost2010Prop53
 90
        2
102
RTVSPost2010PropOp53
 70
     1
102
RTVSPost2010Prop54
  1
strokes_ogs.tif
102
RTVSPost2010PropOp54
 70
     1
102
RTVSPost2010Prop55
280
     0
102
RTVSPost2010PropOp55
 70
     1
102
RTVSPost2010Prop56
140
1.0
102
RTVSPost2010PropOp56
 70
     1
102
RTVSPost2010Prop57
140
1.0
102
RTVSPost2010PropOp57
 70
     1
  0
XRECORD
  5
16F
102
{ACAD_REACTORS
330
16E
102
}
330
16E
100
AcDbXrecord
280
     1
102
RTVSPropertyOp0
 70
     1
102
RTVSPropertyOp1
 70
     1
102
RTVSPropertyOp2
 70
     1
102
RTVSPropertyOp3
 70
     1
102
RTVSPropertyOp4
 70
     1
102
RTVSPropertyOp5
 70
     1
102
RTVSPropertyOp6
 70
     1
102
RTVSPropertyOp7
 70
     1
102
RTVSPropertyOp8
 70
     1
102
RTVSPropertyOp9
 70
     1
102
RTVSPropertyOp10
 70
     1
102
RTVSPropertyOp11
 70
     1
102
RTVSPropertyOp12
 70
     1
102
RTVSPropertyOp13
 70
     1
102
RTVSPropertyOp14
 70
     1
102
RTVSPropertyOp15
 70
     1
102
RTVSPropertyOp16
 70
     1
102
RTVSPropertyOp17
 70
     1
102
RTVSPropertyOp18
 70
     1
102
RTVSPropertyOp19
 70
     1
102
RTVSPropertyOp20
 70
     1
102
RTVSPropertyOp21
 70
     1
102
RTVSPropertyOp22
 70
     1
102
RTVSPropertyOp23
 70
     1
102
RTVSPropertyOp24
 70
     1
102
RTVSPropertyOp25
 70
     1
102
RTVSPropertyOp26
 70
     1
102
RTVSPropertyOp27
 70
     1
102
RTVSPropertyOp28
 70
     1
102
RTVSPropertyOp29
 70
     1
102
RTVSPropertyOp30
 70
     1
102
RTVSPropertyOp31
 70
     1
102
RTVSPropertyOp32
 70
     1
102
RTVSPropertyOp33
 70
     1
102
RTVSPropertyOp34
 70
     1
102
RTVSPropertyOp35
 70
     1
102
RTVSPropertyOp36
 70
     1
102
RTVSPropertyOp37
 70
     1
102
RTVSPropertyOp38
 70
     1
102
RTVSPropertyOp39
 70
     1
102
RTVSPropertyOp40
 70
     1
102
RTVSPropertyOp41
 70
     1
102
RTVSPropertyOp42
 70
     1
102
RTVSPropertyOp43
 70
     1
102
RTVSPropertyOp44
 70
     1
102
RTVSPropertyOp45
 70
     1
102
RTVSPropertyOp46
 70
     1
102
RTVSPropertyOp47
 70
     1
102
RTVSPropertyOp48
 70
     1
102
RTVSPropertyOp49
 70
     1
102
RTVSPropertyOp50
 70
     1
102
RTVSPropertyOp51
 70
     0
102
RTVSPropertyOp52
 70
     0
102
RTVSPropertyOp53
 70
     1
102
RTVSPropertyOp54
 70
     1
102
RTVSPropertyOp55
 70
     1
102
RTVSPropertyOp56
 70
     1
102
RTVSPropertyOp57
 70
     1
102
RTVSPost2010Prop28
280
     0
102
RTVSPost2010PropOp28
 70
     1
102
RTVSPost2010Prop29
280
     1
102
RTVSPost2010PropOp29
 70
     1
102
RTVSPost2010Prop30
280
     1
102
RTVSPost2010PropOp30
 70
     1
102
RTVSPost2010Prop31
280
     0
102
RTVSPost2010PropOp31
 70
     1
102
RTVSPost2010Prop32
280
     0
102
RTVSPost2010PropOp32
 70
     1
102
RTVSPost2010Prop33
280
     0
102
RTVSPost2010PropOp33
 70
     1
102
RTVSPost2010Prop34
280
     0
102
RTVSPost2010PropOp34
 70
     1
102
RTVSPost2010Prop35
280
     0
102
RTVSPost2010PropOp35
 70
     1
102
RTVSPost2010Prop36
280
     0
102
RTVSPost2010PropOp36
 70
     1
102
RTVSPost2010Prop37
 90
       50
102
RTVSPost2010PropOp37
 70
     1
102
RTVSPost2010Prop38
140
0.0
102
RTVSPost2010PropOp38
 70
     1
102
RTVSPost2010Prop39
140
1.0
102
RTVSPost2010PropOp39
 70
     1
102
RTVSPost2010Prop40
 90
        0
102
RTVSPost2010PropOp40
 70
     1
102
RTVSPost2010Prop41ColorIndex
 90
       18
102
RTVSPost2010Prop41ColorRGB
 90
        0
102
RTVSPost2010PropOp41
 70
     1
102
RTVSPost2010Prop42
 90
       50
102
RTVSPost2010PropOp42
 70
     1
102
RTVSPost2010Prop43
 90
        3
102
RTVSPost2010PropOp43
 70
     1
102
RTVSPost2010Prop44ColorIndex
 90
        5
102
RTVSPost2010Prop44ColorRGB
 90
      255
102
RTVSPost2010PropOp44
 70
     1
102
RTVSPost2010Prop45
280
     0
102
RTVSPost2010PropOp45
 70
     1
102
RTVSPost2010Prop46
 90
       50
102
RTVSPost2010PropOp46
 70
     1
102
RTVSPost2010Prop47
 90
       50
102
RTVSPost2010PropOp47
 70
     1
102
RTVSPost2010Prop48
 90
       50
102
RTVSPost2010PropOp48
 70
     1
102
RTVSPost2010Prop49
280
     0
102
RTVSPost2010PropOp49
 70
     1
102
RTVSPost2010Prop50
 90
       50
102
RTVSPost2010PropOp50
 70
     1
102
RTVSPost2010Prop51ColorIndex
 90
      256
102
RTVSPost2010Prop51ColorRGB
 90
-16777216
102
RTVSPost2010PropOp51
 70
     0
102
RTVSPost2010Prop52
140
1.0
102
RTVSPost2010PropOp52
 70
     0
102
RTVSPost2010Prop53
 90
        2
102
RTVSPost2010PropOp53
 70
     1
102
RTVSPost2010Prop54
  1
strokes_ogs.tif
102
RTVSPost2010PropOp54
 70
     1
102
RTVSPost2010Prop55
280
     0
102
RTVSPost2010PropOp55
 70
     1
102
RTVSPost2010Prop56
140
1.0
102
RTVSPost2010PropOp56
 70
     1
102
RTVSPost2010Prop57
140
1.0
102
RTVSPost2010PropOp57
 70
     1
  0
XRECORD
  5
171
102
{ACAD_REACTORS
330
170
102
}
330
170
100
AcDbXrecord
280
     1
102
RTVSPropertyOp0
 70
     1
102
RTVSPropertyOp1
 70
     1
102
RTVSPropertyOp2
 70
     1
102
RTVSPropertyOp3
 70
     1
102
RTVSPropertyOp4
 70
     1
102
RTVSPropertyOp5
 70
     1
102
RTVSPropertyOp6
 70
     1
102
RTVSPropertyOp7
 70
     1
102
RTVSPropertyOp8
 70
     1
102
RTVSPropertyOp9
 70
     1
102
RTVSPropertyOp10
 70
     1
102
RTVSPropertyOp11
 70
     1
102
RTVSPropertyOp12
 70
     1
102
RTVSPropertyOp13
 70
     1
102
RTVSPropertyOp14
 70
     1
102
RTVSPropertyOp15
 70
     1
102
RTVSPropertyOp16
 70
     1
102
RTVSPropertyOp17
 70
     1
102
RTVSPropertyOp18
 70
     1
102
RTVSPropertyOp19
 70
     1
102
RTVSPropertyOp20
 70
     1
102
RTVSPropertyOp21
 70
     1
102
RTVSPropertyOp22
 70
     1
102
RTVSPropertyOp23
 70
     1
102
RTVSPropertyOp24
 70
     1
102
RTVSPropertyOp25
 70
     1
102
RTVSPropertyOp26
 70
     1
102
RTVSPropertyOp27
 70
     1
102
RTVSPropertyOp28
 70
     1
102
RTVSPropertyOp29
 70
     1
102
RTVSPropertyOp30
 70
     1
102
RTVSPropertyOp31
 70
     1
102
RTVSPropertyOp32
 70
     1
102
RTVSPropertyOp33
 70
     1
102
RTVSPropertyOp34
 70
     1
102
RTVSPropertyOp35
 70
     1
102
RTVSPropertyOp36
 70
     1
102
RTVSPropertyOp37
 70
     1
102
RTVSPropertyOp38
 70
     1
102
RTVSPropertyOp39
 70
     1
102
RTVSPropertyOp40
 70
     1
102
RTVSPropertyOp41
 70
     1
102
RTVSPropertyOp42
 70
     1
102
RTVSPropertyOp43
 70
     1
102
RTVSPropertyOp44
 70
     1
102
RTVSPropertyOp45
 70
     1
102
RTVSPropertyOp46
 70
     1
102
RTVSPropertyOp47
 70
     1
102
RTVSPropertyOp48
 70
     1
102
RTVSPropertyOp49
 70
     1
102
RTVSPropertyOp50
 70
     1
102
RTVSPropertyOp51
 70
     0
102
RTVSPropertyOp52
 70
     0
102
RTVSPropertyOp53
 70
     1
102
RTVSPropertyOp54
 70
     1
102
RTVSPropertyOp55
 70
     1
102
RTVSPropertyOp56
 70
     1
102
RTVSPropertyOp57
 70
     1
102
RTVSPost2010Prop28
280
     0
102
RTVSPost2010PropOp28
 70
     1
102
RTVSPost2010Prop29
280
     1
102
RTVSPost2010PropOp29
 70
     1
102
RTVSPost2010Prop30
280
     1
102
RTVSPost2010PropOp30
 70
     1
102
RTVSPost2010Prop31
280
     0
102
RTVSPost2010PropOp31
 70
     1
102
RTVSPost2010Prop32
280
     0
102
RTVSPost2010PropOp32
 70
     1
102
RTVSPost2010Prop33
280
     0
102
RTVSPost2010PropOp33
 70
     1
102
RTVSPost2010Prop34
280
     0
102
RTVSPost2010PropOp34
 70
     1
102
RTVSPost2010Prop35
280
     0
102
RTVSPost2010PropOp35
 70
     1
102
RTVSPost2010Prop36
280
     0
102
RTVSPost2010PropOp36
 70
     1
102
RTVSPost2010Prop37
 90
       50
102
RTVSPost2010PropOp37
 70
     1
102
RTVSPost2010Prop38
140
0.0
102
RTVSPost2010PropOp38
 70
     1
102
RTVSPost2010Prop39
140
1.0
102
RTVSPost2010PropOp39
 70
     1
102
RTVSPost2010Prop40
 90
        0
102
RTVSPost2010PropOp40
 70
     1
102
RTVSPost2010Prop41ColorIndex
 90
       18
102
RTVSPost2010Prop41ColorRGB
 90
        0
102
RTVSPost2010PropOp41
 70
     1
102
RTVSPost2010Prop42
 90
       50
102
RTVSPost2010PropOp42
 70
     1
102
RTVSPost2010Prop43
 90
        3
102
RTVSPost2010PropOp43
 70
     1
102
RTVSPost2010Prop44ColorIndex
 90
        5
102
RTVSPost2010Prop44ColorRGB
 90
      255
102
RTVSPost2010PropOp44
 70
     1
102
RTVSPost2010Prop45
280
     0
102
RTVSPost2010PropOp45
 70
     1
102
RTVSPost2010Prop46
 90
       50
102
RTVSPost2010PropOp46
 70
     1
102
RTVSPost2010Prop47
 90
       50
102
RTVSPost2010PropOp47
 70
     1
102
RTVSPost2010Prop48
 90
       50
102
RTVSPost2010PropOp48
 70
     1
102
RTVSPost2010Prop49
280
     0
102
RTVSPost2010PropOp49
 70
     1
102
RTVSPost2010Prop50
 90
       50
102
RTVSPost2010PropOp50
 70
     1
102
RTVSPost2010Prop51ColorIndex
 90
      256
102
RTVSPost2010Prop51ColorRGB
 90
-16777216
102
RTVSPost2010PropOp51
 70
     0
102
RTVSPost2010Prop52
140
1.0
102
RTVSPost2010PropOp52
 70
     0
102
RTVSPost2010Prop53
 90
        2
102
RTVSPost2010PropOp53
 70
     1
102
RTVSPost2010Prop54
  1
strokes_ogs.tif
102
RTVSPost2010PropOp54
 70
     1
102
RTVSPost2010Prop55
280
     0
102
RTVSPost2010PropOp55
 70
     1
102
RTVSPost2010Prop56
140
1.0
102
RTVSPost2010PropOp56
 70
     1
102
RTVSPost2010Prop57
140
1.0
102
RTVSPost2010PropOp57
 70
     1
  0
XRECORD
  5
173
102
{ACAD_REACTORS
330
172
102
}
330
172
100
AcDbXrecord
280
     1
102
RTVSPropertyOp0
 70
     1
102
RTVSPropertyOp1
 70
     1
102
RTVSPropertyOp2
 70
     1
102
RTVSPropertyOp3
 70
     1
102
RTVSPropertyOp4
 70
     1
102
RTVSPropertyOp5
 70
     1
102
RTVSPropertyOp6
 70
     1
102
RTVSPropertyOp7
 70
     1
102
RTVSPropertyOp8
 70
     1
102
RTVSPropertyOp9
 70
     1
102
RTVSPropertyOp10
 70
     1
102
RTVSPropertyOp11
 70
     1
102
RTVSPropertyOp12
 70
     1
102
RTVSPropertyOp13
 70
     1
102
RTVSPropertyOp14
 70
     1
102
RTVSPropertyOp15
 70
     1
102
RTVSPropertyOp16
 70
     1
102
RTVSPropertyOp17
 70
     1
102
RTVSPropertyOp18
 70
     1
102
RTVSPropertyOp19
 70
     1
102
RTVSPropertyOp20
 70
     1
102
RTVSPropertyOp21
 70
     1
102
RTVSPropertyOp22
 70
     1
102
RTVSPropertyOp23
 70
     1
102
RTVSPropertyOp24
 70
     1
102
RTVSPropertyOp25
 70
     1
102
RTVSPropertyOp26
 70
     1
102
RTVSPropertyOp27
 70
     1
102
RTVSPropertyOp28
 70
     1
102
RTVSPropertyOp29
 70
     1
102
RTVSPropertyOp30
 70
     1
102
RTVSPropertyOp31
 70
     1
102
RTVSPropertyOp32
 70
     1
102
RTVSPropertyOp33
 70
     1
102
RTVSPropertyOp34
 70
     1
102
RTVSPropertyOp35
 70
     1
102
RTVSPropertyOp36
 70
     1
102
RTVSPropertyOp37
 70
     1
102
RTVSPropertyOp38
 70
     1
102
RTVSPropertyOp39
 70
     1
102
RTVSPropertyOp40
 70
     1
102
RTVSPropertyOp41
 70
     1
102
RTVSPropertyOp42
 70
     1
102
RTVSPropertyOp43
 70
     1
102
RTVSPropertyOp44
 70
     1
102
RTVSPropertyOp45
 70
     1
102
RTVSPropertyOp46
 70
     1
102
RTVSPropertyOp47
 70
     1
102
RTVSPropertyOp48
 70
     1
102
RTVSPropertyOp49
 70
     1
102
RTVSPropertyOp50
 70
     1
102
RTVSPropertyOp51
 70
     0
102
RTVSPropertyOp52
 70
     0
102
RTVSPropertyOp53
 70
     1
102
RTVSPropertyOp54
 70
     1
102
RTVSPropertyOp55
 70
     1
102
RTVSPropertyOp56
 70
     1
102
RTVSPropertyOp57
 70
     1
102
RTVSPost2010Prop28
280
     0
102
RTVSPost2010PropOp28
 70
     1
102
RTVSPost2010Prop29
280
     1
102
RTVSPost2010PropOp29
 70
     1
102
RTVSPost2010Prop30
280
     1
102
RTVSPost2010PropOp30
 70
     1
102
RTVSPost2010Prop31
280
     0
102
RTVSPost2010PropOp31
 70
     1
102
RTVSPost2010Prop32
280
     0
102
RTVSPost2010PropOp32
 70
     1
102
RTVSPost2010Prop33
280
     0
102
RTVSPost2010PropOp33
 70
     1
102
RTVSPost2010Prop34
280
     0
102
RTVSPost2010PropOp34
 70
     1
102
RTVSPost2010Prop35
280
     0
102
RTVSPost2010PropOp35
 70
     1
102
RTVSPost2010Prop36
280
     0
102
RTVSPost2010PropOp36
 70
     1
102
RTVSPost2010Prop37
 90
       50
102
RTVSPost2010PropOp37
 70
     1
102
RTVSPost2010Prop38
140
0.0
102
RTVSPost2010PropOp38
 70
     1
102
RTVSPost2010Prop39
140
1.0
102
RTVSPost2010PropOp39
 70
     1
102
RTVSPost2010Prop40
 90
        0
102
RTVSPost2010PropOp40
 70
     1
102
RTVSPost2010Prop41ColorIndex
 90
       18
102
RTVSPost2010Prop41ColorRGB
 90
        0
102
RTVSPost2010PropOp41
 70
     1
102
RTVSPost2010Prop42
 90
       50
102
RTVSPost2010PropOp42
 70
     1
102
RTVSPost2010Prop43
 90
        3
102
RTVSPost2010PropOp43
 70
     1
102
RTVSPost2010Prop44ColorIndex
 90
        5
102
RTVSPost2010Prop44ColorRGB
 90
      255
102
RTVSPost2010PropOp44
 70
     1
102
RTVSPost2010Prop45
280
     0
102
RTVSPost2010PropOp45
 70
     1
102
RTVSPost2010Prop46
 90
       50
102
RTVSPost2010PropOp46
 70
     1
102
RTVSPost2010Prop47
 90
       50
102
RTVSPost2010PropOp47
 70
     1
102
RTVSPost2010Prop48
 90
       50
102
RTVSPost2010PropOp48
 70
     1
102
RTVSPost2010Prop49
280
     0
102
RTVSPost2010PropOp49
 70
     1
102
RTVSPost2010Prop50
 90
       50
102
RTVSPost2010PropOp50
 70
     1
102
RTVSPost2010Prop51ColorIndex
 90
      256
102
RTVSPost2010Prop51ColorRGB
 90
-16777216
102
RTVSPost2010PropOp51
 70
     0
102
RTVSPost2010Prop52
140
1.0
102
RTVSPost2010PropOp52
 70
     0
102
RTVSPost2010Prop53
 90
        2
102
RTVSPost2010PropOp53
 70
     1
102
RTVSPost2010Prop54
  1
strokes_ogs.tif
102
RTVSPost2010PropOp54
 70
     1
102
RTVSPost2010Prop55
280
     0
102
RTVSPost2010PropOp55
 70
     1
102
RTVSPost2010Prop56
140
1.0
102
RTVSPost2010PropOp56
 70
     1
102
RTVSPost2010Prop57
140
1.0
102
RTVSPost2010PropOp57
 70
     1
  0
XRECORD
  5
179
102
{ACAD_REACTORS
330
178
102
}
330
178
100
AcDbXrecord
280
     1
102
RTVSPropertyOp0
 70
     1
102
RTVSPropertyOp1
 70
     1
102
RTVSPropertyOp2
 70
     1
102
RTVSPropertyOp3
 70
     1
102
RTVSPropertyOp4
 70
     1
102
RTVSPropertyOp5
 70
     1
102
RTVSPropertyOp6
 70
     1
102
RTVSPropertyOp7
 70
     1
102
RTVSPropertyOp8
 70
     1
102
RTVSPropertyOp9
 70
     1
102
RTVSPropertyOp10
 70
     1
102
RTVSPropertyOp11
 70
     1
102
RTVSPropertyOp12
 70
     1
102
RTVSPropertyOp13
 70
     1
102
RTVSPropertyOp14
 70
     1
102
RTVSPropertyOp15
 70
     1
102
RTVSPropertyOp16
 70
     1
102
RTVSPropertyOp17
 70
     1
102
RTVSPropertyOp18
 70
     1
102
RTVSPropertyOp19
 70
     1
102
RTVSPropertyOp20
 70
     1
102
RTVSPropertyOp21
 70
     1
102
RTVSPropertyOp22
 70
     1
102
RTVSPropertyOp23
 70
     1
102
RTVSPropertyOp24
 70
     1
102
RTVSPropertyOp25
 70
     1
102
RTVSPropertyOp26
 70
     1
102
RTVSPropertyOp27
 70
     1
102
RTVSPropertyOp28
 70
     1
102
RTVSPropertyOp29
 70
     1
102
RTVSPropertyOp30
 70
     1
102
RTVSPropertyOp31
 70
     1
102
RTVSPropertyOp32
 70
     1
102
RTVSPropertyOp33
 70
     1
102
RTVSPropertyOp34
 70
     1
102
RTVSPropertyOp35
 70
     1
102
RTVSPropertyOp36
 70
     1
102
RTVSPropertyOp37
 70
     1
102
RTVSPropertyOp38
 70
     1
102
RTVSPropertyOp39
 70
     1
102
RTVSPropertyOp40
 70
     1
102
RTVSPropertyOp41
 70
     1
102
RTVSPropertyOp42
 70
     1
102
RTVSPropertyOp43
 70
     1
102
RTVSPropertyOp44
 70
     1
102
RTVSPropertyOp45
 70
     1
102
RTVSPropertyOp46
 70
     1
102
RTVSPropertyOp47
 70
     1
102
RTVSPropertyOp48
 70
     1
102
RTVSPropertyOp49
 70
     1
102
RTVSPropertyOp50
 70
     1
102
RTVSPropertyOp51
 70
     0
102
RTVSPropertyOp52
 70
     0
102
RTVSPropertyOp53
 70
     1
102
RTVSPropertyOp54
 70
     1
102
RTVSPropertyOp55
 70
     1
102
RTVSPropertyOp56
 70
     1
102
RTVSPropertyOp57
 70
     1
102
RTVSPost2010Prop28
280
     0
102
RTVSPost2010PropOp28
 70
     1
102
RTVSPost2010Prop29
280
     1
102
RTVSPost2010PropOp29
 70
     1
102
RTVSPost2010Prop30
280
     1
102
RTVSPost2010PropOp30
 70
     1
102
RTVSPost2010Prop31
280
     0
102
RTVSPost2010PropOp31
 70
     1
102
RTVSPost2010Prop32
280
     0
102
RTVSPost2010PropOp32
 70
     1
102
RTVSPost2010Prop33
280
     0
102
RTVSPost2010PropOp33
 70
     1
102
RTVSPost2010Prop34
280
     0
102
RTVSPost2010PropOp34
 70
     1
102
RTVSPost2010Prop35
280
     0
102
RTVSPost2010PropOp35
 70
     1
102
RTVSPost2010Prop36
280
     0
102
RTVSPost2010PropOp36
 70
     1
102
RTVSPost2010Prop37
 90
       50
102
RTVSPost2010PropOp37
 70
     1
102
RTVSPost2010Prop38
140
0.0
102
RTVSPost2010PropOp38
 70
     1
102
RTVSPost2010Prop39
140
1.0
102
RTVSPost2010PropOp39
 70
     1
102
RTVSPost2010Prop40
 90
        0
102
RTVSPost2010PropOp40
 70
     1
102
RTVSPost2010Prop41ColorIndex
 90
       18
102
RTVSPost2010Prop41ColorRGB
 90
        0
102
RTVSPost2010PropOp41
 70
     1
102
RTVSPost2010Prop42
 90
       50
102
RTVSPost2010PropOp42
 70
     1
102
RTVSPost2010Prop43
 90
        3
102
RTVSPost2010PropOp43
 70
     1
102
RTVSPost2010Prop44ColorIndex
 90
        5
102
RTVSPost2010Prop44ColorRGB
 90
      255
102
RTVSPost2010PropOp44
 70
     1
102
RTVSPost2010Prop45
280
     0
102
RTVSPost2010PropOp45
 70
     1
102
RTVSPost2010Prop46
 90
       50
102
RTVSPost2010PropOp46
 70
     1
102
RTVSPost2010Prop47
 90
       50
102
RTVSPost2010PropOp47
 70
     1
102
RTVSPost2010Prop48
 90
       50
102
RTVSPost2010PropOp48
 70
     1
102
RTVSPost2010Prop49
280
     0
102
RTVSPost2010PropOp49
 70
     1
102
RTVSPost2010Prop50
 90
       50
102
RTVSPost2010PropOp50
 70
     1
102
RTVSPost2010Prop51ColorIndex
 90
      256
102
RTVSPost2010Prop51ColorRGB
 90
-16777216
102
RTVSPost2010PropOp51
 70
     0
102
RTVSPost2010Prop52
140
1.0
102
RTVSPost2010PropOp52
 70
     0
102
RTVSPost2010Prop53
 90
        2
102
RTVSPost2010PropOp53
 70
     1
102
RTVSPost2010Prop54
  1
strokes_ogs.tif
102
RTVSPost2010PropOp54
 70
     1
102
RTVSPost2010Prop55
280
     0
102
RTVSPost2010PropOp55
 70
     1
102
RTVSPost2010Prop56
140
1.0
102
RTVSPost2010PropOp56
 70
     1
102
RTVSPost2010Prop57
140
1.0
102
RTVSPost2010PropOp57
 70
     1
  0
XRECORD
  5
18D
102
{ACAD_REACTORS
330
18C
102
}
330
18C
100
AcDbXrecord
280
     1
102
RTVSPropertyOp0
 70
     0
102
RTVSPropertyOp1
 70
     0
102
RTVSPropertyOp2
 70
     0
102
RTVSPropertyOp3
 70
     0
102
RTVSPropertyOp4
 70
     0
102
RTVSPropertyOp5
 70
     0
102
RTVSPropertyOp6
 70
     0
102
RTVSPropertyOp7
 70
     0
102
RTVSPropertyOp8
 70
     0
102
RTVSPropertyOp9
 70
     0
102
RTVSPropertyOp10
 70
     0
102
RTVSPropertyOp11
 70
     0
102
RTVSPropertyOp12
 70
     0
102
RTVSPropertyOp13
 70
     0
102
RTVSPropertyOp14
 70
     2
102
RTVSPropertyOp15
 70
     0
102
RTVSPropertyOp16
 70
     0
102
RTVSPropertyOp17
 70
     0
102
RTVSPropertyOp18
 70
     0
102
RTVSPropertyOp19
 70
     0
102
RTVSPropertyOp20
 70
     0
102
RTVSPropertyOp21
 70
     0
102
RTVSPropertyOp22
 70
     0
102
RTVSPropertyOp23
 70
     0
102
RTVSPropertyOp24
 70
     0
102
RTVSPropertyOp25
 70
     0
102
RTVSPropertyOp26
 70
     0
102
RTVSPropertyOp27
 70
     0
102
RTVSPropertyOp28
 70
     0
102
RTVSPropertyOp29
 70
     0
102
RTVSPropertyOp30
 70
     0
102
RTVSPropertyOp31
 70
     0
102
RTVSPropertyOp32
 70
     0
102
RTVSPropertyOp33
 70
     0
102
RTVSPropertyOp34
 70
     0
102
RTVSPropertyOp35
 70
     0
102
RTVSPropertyOp36
 70
     0
102
RTVSPropertyOp37
 70
     0
102
RTVSPropertyOp38
 70
     0
102
RTVSPropertyOp39
 70
     0
102
RTVSPropertyOp40
 70
     0
102
RTVSPropertyOp41
 70
     0
102
RTVSPropertyOp42
 70
     0
102
RTVSPropertyOp43
 70
     0
102
RTVSPropertyOp44
 70
     0
102
RTVSPropertyOp45
 70
     0
102
RTVSPropertyOp46
 70
     0
102
RTVSPropertyOp47
 70
     0
102
RTVSPropertyOp48
 70
     0
102
RTVSPropertyOp49
 70
     0
102
RTVSPropertyOp50
 70
     0
102
RTVSPropertyOp51
 70
     0
102
RTVSPropertyOp52
 70
     0
102
RTVSPropertyOp53
 70
     0
102
RTVSPropertyOp54
 70
     0
102
RTVSPropertyOp55
 70
     0
102
RTVSPropertyOp56
 70
     0
102
RTVSPropertyOp57
 70
     0
102
RTVSPost2010Prop28
280
     0
102
RTVSPost2010PropOp28
 70
     0
102
RTVSPost2010Prop29
280
     1
102
RTVSPost2010PropOp29
 70
     0
102
RTVSPost2010Prop30
280
     1
102
RTVSPost2010PropOp30
 70
     0
102
RTVSPost2010Prop31
280
     0
102
RTVSPost2010PropOp31
 70
     0
102
RTVSPost2010Prop32
280
     0
102
RTVSPost2010PropOp32
 70
     0
102
RTVSPost2010Prop33
280
     0
102
RTVSPost2010PropOp33
 70
     0
102
RTVSPost2010Prop34
280
     0
102
RTVSPost2010PropOp34
 70
     0
102
RTVSPost2010Prop35
280
     0
102
RTVSPost2010PropOp35
 70
     0
102
RTVSPost2010Prop36
280
     0
102
RTVSPost2010PropOp36
 70
     0
102
RTVSPost2010Prop37
 90
       50
102
RTVSPost2010PropOp37
 70
     0
102
RTVSPost2010Prop38
140
0.0
102
RTVSPost2010PropOp38
 70
     0
102
RTVSPost2010Prop39
140
1.0
102
RTVSPost2010PropOp39
 70
     0
102
RTVSPost2010Prop40
 90
        0
102
RTVSPost2010PropOp40
 70
     0
102
RTVSPost2010Prop41ColorIndex
 90
       18
102
RTVSPost2010Prop41ColorRGB
 90
        0
102
RTVSPost2010PropOp41
 70
     0
102
RTVSPost2010Prop42
 90
       50
102
RTVSPost2010PropOp42
 70
     0
102
RTVSPost2010Prop43
 90
        3
102
RTVSPost2010PropOp43
 70
     0
102
RTVSPost2010Prop44ColorIndex
 90
        5
102
RTVSPost2010Prop44ColorRGB
 90
      255
102
RTVSPost2010PropOp44
 70
     0
102
RTVSPost2010Prop45
280
     0
102
RTVSPost2010PropOp45
 70
     0
102
RTVSPost2010Prop46
 90
       50
102
RTVSPost2010PropOp46
 70
     0
102
RTVSPost2010Prop47
 90
       50
102
RTVSPost2010PropOp47
 70
     0
102
RTVSPost2010Prop48
 90
       50
102
RTVSPost2010PropOp48
 70
     0
102
RTVSPost2010Prop49
280
     0
102
RTVSPost2010PropOp49
 70
     0
102
RTVSPost2010Prop50
 90
       50
102
RTVSPost2010PropOp50
 70
     0
102
RTVSPost2010Prop51ColorIndex
 90
      256
102
RTVSPost2010Prop51ColorRGB
 90
-16777216
102
RTVSPost2010PropOp51
 70
     0
102
RTVSPost2010Prop52
140
1.0
102
RTVSPost2010PropOp52
 70
     0
102
RTVSPost2010Prop53
 90
        2
102
RTVSPost2010PropOp53
 70
     0
102
RTVSPost2010Prop54
  1
strokes_ogs.tif
102
RTVSPost2010PropOp54
 70
     0
102
RTVSPost2010Prop55
280
     0
102
RTVSPost2010PropOp55
 70
     0
102
RTVSPost2010Prop56
140
1.0
102
RTVSPost2010PropOp56
 70
     0
102
RTVSPost2010Prop57
140
1.0
102
RTVSPost2010PropOp57
 70
     0
  0
XRECORD
  5
187
102
{ACAD_REACTORS
330
186
102
}
330
186
100
AcDbXrecord
280
     1
102
RTVSPropertyOp0
 70
     1
102
RTVSPropertyOp1
 70
     1
102
RTVSPropertyOp2
 70
     1
102
RTVSPropertyOp3
 70
     1
102
RTVSPropertyOp4
 70
     1
102
RTVSPropertyOp5
 70
     1
102
RTVSPropertyOp6
 70
     1
102
RTVSPropertyOp7
 70
     1
102
RTVSPropertyOp8
 70
     1
102
RTVSPropertyOp9
 70
     1
102
RTVSPropertyOp10
 70
     1
102
RTVSPropertyOp11
 70
     1
102
RTVSPropertyOp12
 70
     1
102
RTVSPropertyOp13
 70
     1
102
RTVSPropertyOp14
 70
     1
102
RTVSPropertyOp15
 70
     1
102
RTVSPropertyOp16
 70
     1
102
RTVSPropertyOp17
 70
     1
102
RTVSPropertyOp18
 70
     1
102
RTVSPropertyOp19
 70
     1
102
RTVSPropertyOp20
 70
     1
102
RTVSPropertyOp21
 70
     1
102
RTVSPropertyOp22
 70
     1
102
RTVSPropertyOp23
 70
     1
102
RTVSPropertyOp24
 70
     1
102
RTVSPropertyOp25
 70
     1
102
RTVSPropertyOp26
 70
     1
102
RTVSPropertyOp27
 70
     1
102
RTVSPropertyOp28
 70
     1
102
RTVSPropertyOp29
 70
     1
102
RTVSPropertyOp30
 70
     1
102
RTVSPropertyOp31
 70
     1
102
RTVSPropertyOp32
 70
     1
102
RTVSPropertyOp33
 70
     1
102
RTVSPropertyOp34
 70
     1
102
RTVSPropertyOp35
 70
     1
102
RTVSPropertyOp36
 70
     1
102
RTVSPropertyOp37
 70
     1
102
RTVSPropertyOp38
 70
     1
102
RTVSPropertyOp39
 70
     1
102
RTVSPropertyOp40
 70
     1
102
RTVSPropertyOp41
 70
     1
102
RTVSPropertyOp42
 70
     1
102
RTVSPropertyOp43
 70
     1
102
RTVSPropertyOp44
 70
     1
102
RTVSPropertyOp45
 70
     1
102
RTVSPropertyOp46
 70
     1
102
RTVSPropertyOp47
 70
     1
102
RTVSPropertyOp48
 70
     1
102
RTVSPropertyOp49
 70
     1
102
RTVSPropertyOp50
 70
     1
102
RTVSPropertyOp51
 70
     0
102
RTVSPropertyOp52
 70
     0
102
RTVSPropertyOp53
 70
     1
102
RTVSPropertyOp54
 70
     1
102
RTVSPropertyOp55
 70
     1
102
RTVSPropertyOp56
 70
     1
102
RTVSPropertyOp57
 70
     1
102
RTVSPost2010Prop28
280
     0
102
RTVSPost2010PropOp28
 70
     1
102
RTVSPost2010Prop29
280
     1
102
RTVSPost2010PropOp29
 70
     1
102
RTVSPost2010Prop30
280
     1
102
RTVSPost2010PropOp30
 70
     1
102
RTVSPost2010Prop31
280
     0
102
RTVSPost2010PropOp31
 70
     1
102
RTVSPost2010Prop32
280
     0
102
RTVSPost2010PropOp32
 70
     1
102
RTVSPost2010Prop33
280
     0
102
RTVSPost2010PropOp33
 70
     1
102
RTVSPost2010Prop34
280
     0
102
RTVSPost2010PropOp34
 70
     1
102
RTVSPost2010Prop35
280
     0
102
RTVSPost2010PropOp35
 70
     1
102
RTVSPost2010Prop36
280
     0
102
RTVSPost2010PropOp36
 70
     1
102
RTVSPost2010Prop37
 90
       50
102
RTVSPost2010PropOp37
 70
     1
102
RTVSPost2010Prop38
140
0.0
102
RTVSPost2010PropOp38
 70
     1
102
RTVSPost2010Prop39
140
1.0
102
RTVSPost2010PropOp39
 70
     1
102
RTVSPost2010Prop40
 90
        0
102
RTVSPost2010PropOp40
 70
     1
102
RTVSPost2010Prop41ColorIndex
 90
       18
102
RTVSPost2010Prop41ColorRGB
 90
        0
102
RTVSPost2010PropOp41
 70
     1
102
RTVSPost2010Prop42
 90
       50
102
RTVSPost2010PropOp42
 70
     1
102
RTVSPost2010Prop43
 90
        3
102
RTVSPost2010PropOp43
 70
     1
102
RTVSPost2010Prop44ColorIndex
 90
        5
102
RTVSPost2010Prop44ColorRGB
 90
      255
102
RTVSPost2010PropOp44
 70
     1
102
RTVSPost2010Prop45
280
     0
102
RTVSPost2010PropOp45
 70
     1
102
RTVSPost2010Prop46
 90
       50
102
RTVSPost2010PropOp46
 70
     1
102
RTVSPost2010Prop47
 90
       50
102
RTVSPost2010PropOp47
 70
     1
102
RTVSPost2010Prop48
 90
       50
102
RTVSPost2010PropOp48
 70
     1
102
RTVSPost2010Prop49
280
     0
102
RTVSPost2010PropOp49
 70
     1
102
RTVSPost2010Prop50
 90
       50
102
RTVSPost2010PropOp50
 70
     1
102
RTVSPost2010Prop51ColorIndex
 90
      256
102
RTVSPost2010Prop51ColorRGB
 90
-16777216
102
RTVSPost2010PropOp51
 70
     0
102
RTVSPost2010Prop52
140
1.0
102
RTVSPost2010PropOp52
 70
     0
102
RTVSPost2010Prop53
 90
        2
102
RTVSPost2010PropOp53
 70
     1
102
RTVSPost2010Prop54
  1
strokes_ogs.tif
102
RTVSPost2010PropOp54
 70
     1
102
RTVSPost2010Prop55
280
     0
102
RTVSPost2010PropOp55
 70
     1
102
RTVSPost2010Prop56
140
1.0
102
RTVSPost2010PropOp56
 70
     1
102
RTVSPost2010Prop57
140
1.0
102
RTVSPost2010PropOp57
 70
     1
  0
XRECORD
  5
18F
102
{ACAD_REACTORS
330
18E
102
}
330
18E
100
AcDbXrecord
280
     1
102
RTVSPropertyOp0
 70
     0
102
RTVSPropertyOp1
 70
     0
102
RTVSPropertyOp2
 70
     0
102
RTVSPropertyOp3
 70
     0
102
RTVSPropertyOp4
 70
     0
102
RTVSPropertyOp5
 70
     0
102
RTVSPropertyOp6
 70
     0
102
RTVSPropertyOp7
 70
     0
102
RTVSPropertyOp8
 70
     0
102
RTVSPropertyOp9
 70
     0
102
RTVSPropertyOp10
 70
     0
102
RTVSPropertyOp11
 70
     0
102
RTVSPropertyOp12
 70
     0
102
RTVSPropertyOp13
 70
     0
102
RTVSPropertyOp14
 70
     2
102
RTVSPropertyOp15
 70
     0
102
RTVSPropertyOp16
 70
     0
102
RTVSPropertyOp17
 70
     0
102
RTVSPropertyOp18
 70
     0
102
RTVSPropertyOp19
 70
     0
102
RTVSPropertyOp20
 70
     0
102
RTVSPropertyOp21
 70
     0
102
RTVSPropertyOp22
 70
     0
102
RTVSPropertyOp23
 70
     0
102
RTVSPropertyOp24
 70
     0
102
RTVSPropertyOp25
 70
     0
102
RTVSPropertyOp26
 70
     0
102
RTVSPropertyOp27
 70
     0
102
RTVSPropertyOp28
 70
     0
102
RTVSPropertyOp29
 70
     0
102
RTVSPropertyOp30
 70
     0
102
RTVSPropertyOp31
 70
     0
102
RTVSPropertyOp32
 70
     0
102
RTVSPropertyOp33
 70
     0
102
RTVSPropertyOp34
 70
     0
102
RTVSPropertyOp35
 70
     0
102
RTVSPropertyOp36
 70
     0
102
RTVSPropertyOp37
 70
     0
102
RTVSPropertyOp38
 70
     0
102
RTVSPropertyOp39
 70
     0
102
RTVSPropertyOp40
 70
     0
102
RTVSPropertyOp41
 70
     0
102
RTVSPropertyOp42
 70
     0
102
RTVSPropertyOp43
 70
     0
102
RTVSPropertyOp44
 70
     0
102
RTVSPropertyOp45
 70
     0
102
RTVSPropertyOp46
 70
     0
102
RTVSPropertyOp47
 70
     0
102
RTVSPropertyOp48
 70
     0
102
RTVSPropertyOp49
 70
     0
102
RTVSPropertyOp50
 70
     0
102
RTVSPropertyOp51
 70
     0
102
RTVSPropertyOp52
 70
     0
102
RTVSPropertyOp53
 70
     0
102
RTVSPropertyOp54
 70
     0
102
RTVSPropertyOp55
 70
     0
102
RTVSPropertyOp56
 70
     0
102
RTVSPropertyOp57
 70
     0
102
RTVSPost2010Prop28
280
     0
102
RTVSPost2010PropOp28
 70
     0
102
RTVSPost2010Prop29
280
     1
102
RTVSPost2010PropOp29
 70
     0
102
RTVSPost2010Prop30
280
     1
102
RTVSPost2010PropOp30
 70
     0
102
RTVSPost2010Prop31
280
     0
102
RTVSPost2010PropOp31
 70
     0
102
RTVSPost2010Prop32
280
     0
102
RTVSPost2010PropOp32
 70
     0
102
RTVSPost2010Prop33
280
     0
102
RTVSPost2010PropOp33
 70
     0
102
RTVSPost2010Prop34
280
     0
102
RTVSPost2010PropOp34
 70
     0
102
RTVSPost2010Prop35
280
     0
102
RTVSPost2010PropOp35
 70
     0
102
RTVSPost2010Prop36
280
     0
102
RTVSPost2010PropOp36
 70
     0
102
RTVSPost2010Prop37
 90
       50
102
RTVSPost2010PropOp37
 70
     0
102
RTVSPost2010Prop38
140
0.0
102
RTVSPost2010PropOp38
 70
     0
102
RTVSPost2010Prop39
140
1.0
102
RTVSPost2010PropOp39
 70
     0
102
RTVSPost2010Prop40
 90
        0
102
RTVSPost2010PropOp40
 70
     0
102
RTVSPost2010Prop41ColorIndex
 90
       18
102
RTVSPost2010Prop41ColorRGB
 90
        0
102
RTVSPost2010PropOp41
 70
     0
102
RTVSPost2010Prop42
 90
       50
102
RTVSPost2010PropOp42
 70
     0
102
RTVSPost2010Prop43
 90
        3
102
RTVSPost2010PropOp43
 70
     0
102
RTVSPost2010Prop44ColorIndex
 90
        5
102
RTVSPost2010Prop44ColorRGB
 90
      255
102
RTVSPost2010PropOp44
 70
     0
102
RTVSPost2010Prop45
280
     0
102
RTVSPost2010PropOp45
 70
     0
102
RTVSPost2010Prop46
 90
       50
102
RTVSPost2010PropOp46
 70
     0
102
RTVSPost2010Prop47
 90
       50
102
RTVSPost2010PropOp47
 70
     0
102
RTVSPost2010Prop48
 90
       50
102
RTVSPost2010PropOp48
 70
     0
102
RTVSPost2010Prop49
280
     0
102
RTVSPost2010PropOp49
 70
     0
102
RTVSPost2010Prop50
 90
       50
102
RTVSPost2010PropOp50
 70
     0
102
RTVSPost2010Prop51ColorIndex
 90
      256
102
RTVSPost2010Prop51ColorRGB
 90
-16777216
102
RTVSPost2010PropOp51
 70
     0
102
RTVSPost2010Prop52
140
1.0
102
RTVSPost2010PropOp52
 70
     0
102
RTVSPost2010Prop53
 90
        2
102
RTVSPost2010PropOp53
 70
     0
102
RTVSPost2010Prop54
  1
strokes_ogs.tif
102
RTVSPost2010PropOp54
 70
     0
102
RTVSPost2010Prop55
280
     0
102
RTVSPost2010PropOp55
 70
     0
102
RTVSPost2010Prop56
140
1.0
102
RTVSPost2010PropOp56
 70
     0
102
RTVSPost2010Prop57
140
1.0
102
RTVSPost2010PropOp57
 70
     0
  0
XRECORD
  5
17D
102
{ACAD_REACTORS
330
17C
102
}
330
17C
100
AcDbXrecord
280
     1
102
RTVSPropertyOp0
 70
     1
102
RTVSPropertyOp1
 70
     1
102
RTVSPropertyOp2
 70
     1
102
RTVSPropertyOp3
 70
     1
102
RTVSPropertyOp4
 70
     1
102
RTVSPropertyOp5
 70
     1
102
RTVSPropertyOp6
 70
     1
102
RTVSPropertyOp7
 70
     1
102
RTVSPropertyOp8
 70
     1
102
RTVSPropertyOp9
 70
     1
102
RTVSPropertyOp10
 70
     1
102
RTVSPropertyOp11
 70
     1
102
RTVSPropertyOp12
 70
     1
102
RTVSPropertyOp13
 70
     1
102
RTVSPropertyOp14
 70
     1
102
RTVSPropertyOp15
 70
     1
102
RTVSPropertyOp16
 70
     1
102
RTVSPropertyOp17
 70
     1
102
RTVSPropertyOp18
 70
     1
102
RTVSPropertyOp19
 70
     1
102
RTVSPropertyOp20
 70
     1
102
RTVSPropertyOp21
 70
     1
102
RTVSPropertyOp22
 70
     1
102
RTVSPropertyOp23
 70
     1
102
RTVSPropertyOp24
 70
     1
102
RTVSPropertyOp25
 70
     1
102
RTVSPropertyOp26
 70
     1
102
RTVSPropertyOp27
 70
     1
102
RTVSPropertyOp28
 70
     1
102
RTVSPropertyOp29
 70
     1
102
RTVSPropertyOp30
 70
     1
102
RTVSPropertyOp31
 70
     1
102
RTVSPropertyOp32
 70
     1
102
RTVSPropertyOp33
 70
     1
102
RTVSPropertyOp34
 70
     1
102
RTVSPropertyOp35
 70
     1
102
RTVSPropertyOp36
 70
     1
102
RTVSPropertyOp37
 70
     1
102
RTVSPropertyOp38
 70
     1
102
RTVSPropertyOp39
 70
     1
102
RTVSPropertyOp40
 70
     1
102
RTVSPropertyOp41
 70
     1
102
RTVSPropertyOp42
 70
     1
102
RTVSPropertyOp43
 70
     1
102
RTVSPropertyOp44
 70
     1
102
RTVSPropertyOp45
 70
     1
102
RTVSPropertyOp46
 70
     1
102
RTVSPropertyOp47
 70
     1
102
RTVSPropertyOp48
 70
     1
102
RTVSPropertyOp49
 70
     1
102
RTVSPropertyOp50
 70
     1
102
RTVSPropertyOp51
 70
     0
102
RTVSPropertyOp52
 70
     0
102
RTVSPropertyOp53
 70
     1
102
RTVSPropertyOp54
 70
     1
102
RTVSPropertyOp55
 70
     1
102
RTVSPropertyOp56
 70
     1
102
RTVSPropertyOp57
 70
     1
102
RTVSPost2010Prop28
280
     0
102
RTVSPost2010PropOp28
 70
     1
102
RTVSPost2010Prop29
280
     1
102
RTVSPost2010PropOp29
 70
     1
102
RTVSPost2010Prop30
280
     1
102
RTVSPost2010PropOp30
 70
     1
102
RTVSPost2010Prop31
280
     0
102
RTVSPost2010PropOp31
 70
     1
102
RTVSPost2010Prop32
280
     0
102
RTVSPost2010PropOp32
 70
     1
102
RTVSPost2010Prop33
280
     0
102
RTVSPost2010PropOp33
 70
     1
102
RTVSPost2010Prop34
280
     0
102
RTVSPost2010PropOp34
 70
     1
102
RTVSPost2010Prop35
280
     0
102
RTVSPost2010PropOp35
 70
     1
102
RTVSPost2010Prop36
280
     0
102
RTVSPost2010PropOp36
 70
     1
102
RTVSPost2010Prop37
 90
       50
102
RTVSPost2010PropOp37
 70
     1
102
RTVSPost2010Prop38
140
0.0
102
RTVSPost2010PropOp38
 70
     1
102
RTVSPost2010Prop39
140
1.0
102
RTVSPost2010PropOp39
 70
     1
102
RTVSPost2010Prop40
 90
        0
102
RTVSPost2010PropOp40
 70
     1
102
RTVSPost2010Prop41ColorIndex
 90
       18
102
RTVSPost2010Prop41ColorRGB
 90
        0
102
RTVSPost2010PropOp41
 70
     1
102
RTVSPost2010Prop42
 90
       50
102
RTVSPost2010PropOp42
 70
     1
102
RTVSPost2010Prop43
 90
        3
102
RTVSPost2010PropOp43
 70
     1
102
RTVSPost2010Prop44ColorIndex
 90
        5
102
RTVSPost2010Prop44ColorRGB
 90
      255
102
RTVSPost2010PropOp44
 70
     1
102
RTVSPost2010Prop45
280
     0
102
RTVSPost2010PropOp45
 70
     1
102
RTVSPost2010Prop46
 90
       50
102
RTVSPost2010PropOp46
 70
     1
102
RTVSPost2010Prop47
 90
       50
102
RTVSPost2010PropOp47
 70
     1
102
RTVSPost2010Prop48
 90
       50
102
RTVSPost2010PropOp48
 70
     1
102
RTVSPost2010Prop49
280
     0
102
RTVSPost2010PropOp49
 70
     1
102
RTVSPost2010Prop50
 90
       50
102
RTVSPost2010PropOp50
 70
     1
102
RTVSPost2010Prop51ColorIndex
 90
      256
102
RTVSPost2010Prop51ColorRGB
 90
-16777216
102
RTVSPost2010PropOp51
 70
     0
102
RTVSPost2010Prop52
140
1.0
102
RTVSPost2010PropOp52
 70
     0
102
RTVSPost2010Prop53
 90
        2
102
RTVSPost2010PropOp53
 70
     1
102
RTVSPost2010Prop54
  1
strokes_ogs.tif
102
RTVSPost2010PropOp54
 70
     1
102
RTVSPost2010Prop55
280
     0
102
RTVSPost2010PropOp55
 70
     1
102
RTVSPost2010Prop56
140
1.0
102
RTVSPost2010PropOp56
 70
     1
102
RTVSPost2010Prop57
140
1.0
102
RTVSPost2010PropOp57
 70
     1
  0
XRECORD
  5
19B
102
{ACAD_REACTORS
330
19A
102
}
330
19A
100
AcDbXrecord
280
     1
102
RTVSPropertyOp0
 70
     1
102
RTVSPropertyOp1
 70
     1
102
RTVSPropertyOp2
 70
     1
102
RTVSPropertyOp3
 70
     1
102
RTVSPropertyOp4
 70
     1
102
RTVSPropertyOp5
 70
     1
102
RTVSPropertyOp6
 70
     1
102
RTVSPropertyOp7
 70
     1
102
RTVSPropertyOp8
 70
     1
102
RTVSPropertyOp9
 70
     1
102
RTVSPropertyOp10
 70
     1
102
RTVSPropertyOp11
 70
     1
102
RTVSPropertyOp12
 70
     1
102
RTVSPropertyOp13
 70
     1
102
RTVSPropertyOp14
 70
     1
102
RTVSPropertyOp15
 70
     1
102
RTVSPropertyOp16
 70
     1
102
RTVSPropertyOp17
 70
     1
102
RTVSPropertyOp18
 70
     1
102
RTVSPropertyOp19
 70
     1
102
RTVSPropertyOp20
 70
     1
102
RTVSPropertyOp21
 70
     1
102
RTVSPropertyOp22
 70
     1
102
RTVSPropertyOp23
 70
     1
102
RTVSPropertyOp24
 70
     1
102
RTVSPropertyOp25
 70
     1
102
RTVSPropertyOp26
 70
     1
102
RTVSPropertyOp27
 70
     1
102
RTVSPropertyOp28
 70
     1
102
RTVSPropertyOp29
 70
     1
102
RTVSPropertyOp30
 70
     1
102
RTVSPropertyOp31
 70
     1
102
RTVSPropertyOp32
 70
     1
102
RTVSPropertyOp33
 70
     1
102
RTVSPropertyOp34
 70
     1
102
RTVSPropertyOp35
 70
     1
102
RTVSPropertyOp36
 70
     1
102
RTVSPropertyOp37
 70
     1
102
RTVSPropertyOp38
 70
     1
102
RTVSPropertyOp39
 70
     1
102
RTVSPropertyOp40
 70
     1
102
RTVSPropertyOp41
 70
     1
102
RTVSPropertyOp42
 70
     1
102
RTVSPropertyOp43
 70
     1
102
RTVSPropertyOp44
 70
     1
102
RTVSPropertyOp45
 70
     1
102
RTVSPropertyOp46
 70
     1
102
RTVSPropertyOp47
 70
     1
102
RTVSPropertyOp48
 70
     1
102
RTVSPropertyOp49
 70
     1
102
RTVSPropertyOp50
 70
     1
102
RTVSPropertyOp51
 70
     0
102
RTVSPropertyOp52
 70
     0
102
RTVSPropertyOp53
 70
     1
102
RTVSPropertyOp54
 70
     1
102
RTVSPropertyOp55
 70
     1
102
RTVSPropertyOp56
 70
     1
102
RTVSPropertyOp57
 70
     1
102
RTVSPost2010Prop28
280
     0
102
RTVSPost2010PropOp28
 70
     1
102
RTVSPost2010Prop29
280
     1
102
RTVSPost2010PropOp29
 70
     1
102
RTVSPost2010Prop30
280
     1
102
RTVSPost2010PropOp30
 70
     1
102
RTVSPost2010Prop31
280
     0
102
RTVSPost2010PropOp31
 70
     1
102
RTVSPost2010Prop32
280
     0
102
RTVSPost2010PropOp32
 70
     1
102
RTVSPost2010Prop33
280
     0
102
RTVSPost2010PropOp33
 70
     1
102
RTVSPost2010Prop34
280
     0
102
RTVSPost2010PropOp34
 70
     1
102
RTVSPost2010Prop35
280
     0
102
RTVSPost2010PropOp35
 70
     1
102
RTVSPost2010Prop36
280
     0
102
RTVSPost2010PropOp36
 70
     1
102
RTVSPost2010Prop37
 90
       50
102
RTVSPost2010PropOp37
 70
     1
102
RTVSPost2010Prop38
140
0.0
102
RTVSPost2010PropOp38
 70
     1
102
RTVSPost2010Prop39
140
1.0
102
RTVSPost2010PropOp39
 70
     1
102
RTVSPost2010Prop40
 90
        0
102
RTVSPost2010PropOp40
 70
     1
102
RTVSPost2010Prop41ColorIndex
 90
       18
102
RTVSPost2010Prop41ColorRGB
 90
        0
102
RTVSPost2010PropOp41
 70
     1
102
RTVSPost2010Prop42
 90
       50
102
RTVSPost2010PropOp42
 70
     1
102
RTVSPost2010Prop43
 90
        3
102
RTVSPost2010PropOp43
 70
     1
102
RTVSPost2010Prop44ColorIndex
 90
        5
102
RTVSPost2010Prop44ColorRGB
 90
      255
102
RTVSPost2010PropOp44
 70
     1
102
RTVSPost2010Prop45
280
     0
102
RTVSPost2010PropOp45
 70
     1
102
RTVSPost2010Prop46
 90
       50
102
RTVSPost2010PropOp46
 70
     1
102
RTVSPost2010Prop47
 90
       50
102
RTVSPost2010PropOp47
 70
     1
102
RTVSPost2010Prop48
 90
       50
102
RTVSPost2010PropOp48
 70
     1
102
RTVSPost2010Prop49
280
     0
102
RTVSPost2010PropOp49
 70
     1
102
RTVSPost2010Prop50
 90
       50
102
RTVSPost2010PropOp50
 70
     1
102
RTVSPost2010Prop51ColorIndex
 90
      256
102
RTVSPost2010Prop51ColorRGB
 90
-16777216
102
RTVSPost2010PropOp51
 70
     0
102
RTVSPost2010Prop52
140
1.0
102
RTVSPost2010PropOp52
 70
     0
102
RTVSPost2010Prop53
 90
        2
102
RTVSPost2010PropOp53
 70
     1
102
RTVSPost2010Prop54
  1
strokes_ogs.tif
102
RTVSPost2010PropOp54
 70
     1
102
RTVSPost2010Prop55
280
     0
102
RTVSPost2010PropOp55
 70
     1
102
RTVSPost2010Prop56
140
1.0
102
RTVSPost2010PropOp56
 70
     1
102
RTVSPost2010Prop57
140
1.0
102
RTVSPost2010PropOp57
 70
     1
  0
XRECORD
  5
199
102
{ACAD_REACTORS
330
198
102
}
330
198
100
AcDbXrecord
280
     1
102
RTVSPropertyOp0
 70
     1
102
RTVSPropertyOp1
 70
     1
102
RTVSPropertyOp2
 70
     1
102
RTVSPropertyOp3
 70
     1
102
RTVSPropertyOp4
 70
     1
102
RTVSPropertyOp5
 70
     1
102
RTVSPropertyOp6
 70
     1
102
RTVSPropertyOp7
 70
     1
102
RTVSPropertyOp8
 70
     1
102
RTVSPropertyOp9
 70
     1
102
RTVSPropertyOp10
 70
     1
102
RTVSPropertyOp11
 70
     1
102
RTVSPropertyOp12
 70
     1
102
RTVSPropertyOp13
 70
     1
102
RTVSPropertyOp14
 70
     1
102
RTVSPropertyOp15
 70
     1
102
RTVSPropertyOp16
 70
     1
102
RTVSPropertyOp17
 70
     1
102
RTVSPropertyOp18
 70
     1
102
RTVSPropertyOp19
 70
     1
102
RTVSPropertyOp20
 70
     1
102
RTVSPropertyOp21
 70
     1
102
RTVSPropertyOp22
 70
     1
102
RTVSPropertyOp23
 70
     1
102
RTVSPropertyOp24
 70
     1
102
RTVSPropertyOp25
 70
     1
102
RTVSPropertyOp26
 70
     1
102
RTVSPropertyOp27
 70
     1
102
RTVSPropertyOp28
 70
     1
102
RTVSPropertyOp29
 70
     1
102
RTVSPropertyOp30
 70
     1
102
RTVSPropertyOp31
 70
     1
102
RTVSPropertyOp32
 70
     1
102
RTVSPropertyOp33
 70
     1
102
RTVSPropertyOp34
 70
     1
102
RTVSPropertyOp35
 70
     1
102
RTVSPropertyOp36
 70
     1
102
RTVSPropertyOp37
 70
     1
102
RTVSPropertyOp38
 70
     1
102
RTVSPropertyOp39
 70
     1
102
RTVSPropertyOp40
 70
     1
102
RTVSPropertyOp41
 70
     1
102
RTVSPropertyOp42
 70
     1
102
RTVSPropertyOp43
 70
     1
102
RTVSPropertyOp44
 70
     1
102
RTVSPropertyOp45
 70
     1
102
RTVSPropertyOp46
 70
     1
102
RTVSPropertyOp47
 70
     1
102
RTVSPropertyOp48
 70
     1
102
RTVSPropertyOp49
 70
     1
102
RTVSPropertyOp50
 70
     1
102
RTVSPropertyOp51
 70
     0
102
RTVSPropertyOp52
 70
     0
102
RTVSPropertyOp53
 70
     1
102
RTVSPropertyOp54
 70
     1
102
RTVSPropertyOp55
 70
     1
102
RTVSPropertyOp56
 70
     1
102
RTVSPropertyOp57
 70
     1
102
RTVSPost2010Prop28
280
     0
102
RTVSPost2010PropOp28
 70
     1
102
RTVSPost2010Prop29
280
     1
102
RTVSPost2010PropOp29
 70
     1
102
RTVSPost2010Prop30
280
     1
102
RTVSPost2010PropOp30
 70
     1
102
RTVSPost2010Prop31
280
     0
102
RTVSPost2010PropOp31
 70
     1
102
RTVSPost2010Prop32
280
     0
102
RTVSPost2010PropOp32
 70
     1
102
RTVSPost2010Prop33
280
     0
102
RTVSPost2010PropOp33
 70
     1
102
RTVSPost2010Prop34
280
     0
102
RTVSPost2010PropOp34
 70
     1
102
RTVSPost2010Prop35
280
     0
102
RTVSPost2010PropOp35
 70
     1
102
RTVSPost2010Prop36
280
     0
102
RTVSPost2010PropOp36
 70
     1
102
RTVSPost2010Prop37
 90
       50
102
RTVSPost2010PropOp37
 70
     1
102
RTVSPost2010Prop38
140
0.0
102
RTVSPost2010PropOp38
 70
     1
102
RTVSPost2010Prop39
140
1.0
102
RTVSPost2010PropOp39
 70
     1
102
RTVSPost2010Prop40
 90
        0
102
RTVSPost2010PropOp40
 70
     1
102
RTVSPost2010Prop41ColorIndex
 90
       18
102
RTVSPost2010Prop41ColorRGB
 90
        0
102
RTVSPost2010PropOp41
 70
     1
102
RTVSPost2010Prop42
 90
       50
102
RTVSPost2010PropOp42
 70
     1
102
RTVSPost2010Prop43
 90
        3
102
RTVSPost2010PropOp43
 70
     1
102
RTVSPost2010Prop44ColorIndex
 90
        5
102
RTVSPost2010Prop44ColorRGB
 90
      255
102
RTVSPost2010PropOp44
 70
     1
102
RTVSPost2010Prop45
280
     0
102
RTVSPost2010PropOp45
 70
     1
102
RTVSPost2010Prop46
 90
       50
102
RTVSPost2010PropOp46
 70
     1
102
RTVSPost2010Prop47
 90
       50
102
RTVSPost2010PropOp47
 70
     1
102
RTVSPost2010Prop48
 90
       50
102
RTVSPost2010PropOp48
 70
     1
102
RTVSPost2010Prop49
280
     0
102
RTVSPost2010PropOp49
 70
     1
102
RTVSPost2010Prop50
 90
       50
102
RTVSPost2010PropOp50
 70
     1
102
RTVSPost2010Prop51ColorIndex
 90
      256
102
RTVSPost2010Prop51ColorRGB
 90
-16777216
102
RTVSPost2010PropOp51
 70
     0
102
RTVSPost2010Prop52
140
1.0
102
RTVSPost2010PropOp52
 70
     0
102
RTVSPost2010Prop53
 90
        2
102
RTVSPost2010PropOp53
 70
     1
102
RTVSPost2010Prop54
  1
strokes_ogs.tif
102
RTVSPost2010PropOp54
 70
     1
102
RTVSPost2010Prop55
280
     0
102
RTVSPost2010PropOp55
 70
     1
102
RTVSPost2010Prop56
140
1.0
102
RTVSPost2010PropOp56
 70
     1
102
RTVSPost2010Prop57
140
1.0
102
RTVSPost2010PropOp57
 70
     1
  0
XRECORD
  5
193
102
{ACAD_REACTORS
330
192
102
}
330
192
100
AcDbXrecord
280
     1
102
RTVSPropertyOp0
 70
     1
102
RTVSPropertyOp1
 70
     1
102
RTVSPropertyOp2
 70
     1
102
RTVSPropertyOp3
 70
     1
102
RTVSPropertyOp4
 70
     1
102
RTVSPropertyOp5
 70
     1
102
RTVSPropertyOp6
 70
     1
102
RTVSPropertyOp7
 70
     1
102
RTVSPropertyOp8
 70
     1
102
RTVSPropertyOp9
 70
     1
102
RTVSPropertyOp10
 70
     1
102
RTVSPropertyOp11
 70
     1
102
RTVSPropertyOp12
 70
     1
102
RTVSPropertyOp13
 70
     1
102
RTVSPropertyOp14
 70
     1
102
RTVSPropertyOp15
 70
     1
102
RTVSPropertyOp16
 70
     1
102
RTVSPropertyOp17
 70
     1
102
RTVSPropertyOp18
 70
     1
102
RTVSPropertyOp19
 70
     1
102
RTVSPropertyOp20
 70
     1
102
RTVSPropertyOp21
 70
     1
102
RTVSPropertyOp22
 70
     1
102
RTVSPropertyOp23
 70
     1
102
RTVSPropertyOp24
 70
     1
102
RTVSPropertyOp25
 70
     1
102
RTVSPropertyOp26
 70
     1
102
RTVSPropertyOp27
 70
     1
102
RTVSPropertyOp28
 70
     1
102
RTVSPropertyOp29
 70
     1
102
RTVSPropertyOp30
 70
     1
102
RTVSPropertyOp31
 70
     1
102
RTVSPropertyOp32
 70
     1
102
RTVSPropertyOp33
 70
     1
102
RTVSPropertyOp34
 70
     1
102
RTVSPropertyOp35
 70
     1
102
RTVSPropertyOp36
 70
     1
102
RTVSPropertyOp37
 70
     1
102
RTVSPropertyOp38
 70
     1
102
RTVSPropertyOp39
 70
     1
102
RTVSPropertyOp40
 70
     1
102
RTVSPropertyOp41
 70
     1
102
RTVSPropertyOp42
 70
     1
102
RTVSPropertyOp43
 70
     1
102
RTVSPropertyOp44
 70
     1
102
RTVSPropertyOp45
 70
     1
102
RTVSPropertyOp46
 70
     1
102
RTVSPropertyOp47
 70
     1
102
RTVSPropertyOp48
 70
     1
102
RTVSPropertyOp49
 70
     1
102
RTVSPropertyOp50
 70
     1
102
RTVSPropertyOp51
 70
     0
102
RTVSPropertyOp52
 70
     0
102
RTVSPropertyOp53
 70
     1
102
RTVSPropertyOp54
 70
     1
102
RTVSPropertyOp55
 70
     1
102
RTVSPropertyOp56
 70
     1
102
RTVSPropertyOp57
 70
     1
102
RTVSPost2010Prop28
280
     0
102
RTVSPost2010PropOp28
 70
     1
102
RTVSPost2010Prop29
280
     1
102
RTVSPost2010PropOp29
 70
     1
102
RTVSPost2010Prop30
280
     1
102
RTVSPost2010PropOp30
 70
     1
102
RTVSPost2010Prop31
280
     0
102
RTVSPost2010PropOp31
 70
     1
102
RTVSPost2010Prop32
280
     0
102
RTVSPost2010PropOp32
 70
     1
102
RTVSPost2010Prop33
280
     0
102
RTVSPost2010PropOp33
 70
     1
102
RTVSPost2010Prop34
280
     0
102
RTVSPost2010PropOp34
 70
     1
102
RTVSPost2010Prop35
280
     0
102
RTVSPost2010PropOp35
 70
     1
102
RTVSPost2010Prop36
280
     0
102
RTVSPost2010PropOp36
 70
     1
102
RTVSPost2010Prop37
 90
       50
102
RTVSPost2010PropOp37
 70
     1
102
RTVSPost2010Prop38
140
0.0
102
RTVSPost2010PropOp38
 70
     1
102
RTVSPost2010Prop39
140
1.0
102
RTVSPost2010PropOp39
 70
     1
102
RTVSPost2010Prop40
 90
        0
102
RTVSPost2010PropOp40
 70
     1
102
RTVSPost2010Prop41ColorIndex
 90
       18
102
RTVSPost2010Prop41ColorRGB
 90
        0
102
RTVSPost2010PropOp41
 70
     1
102
RTVSPost2010Prop42
 90
       50
102
RTVSPost2010PropOp42
 70
     1
102
RTVSPost2010Prop43
 90
        3
102
RTVSPost2010PropOp43
 70
     1
102
RTVSPost2010Prop44ColorIndex
 90
        5
102
RTVSPost2010Prop44ColorRGB
 90
      255
102
RTVSPost2010PropOp44
 70
     1
102
RTVSPost2010Prop45
280
     0
102
RTVSPost2010PropOp45
 70
     1
102
RTVSPost2010Prop46
 90
       50
102
RTVSPost2010PropOp46
 70
     1
102
RTVSPost2010Prop47
 90
       50
102
RTVSPost2010PropOp47
 70
     1
102
RTVSPost2010Prop48
 90
       50
102
RTVSPost2010PropOp48
 70
     1
102
RTVSPost2010Prop49
280
     0
102
RTVSPost2010PropOp49
 70
     1
102
RTVSPost2010Prop50
 90
       50
102
RTVSPost2010PropOp50
 70
     1
102
RTVSPost2010Prop51ColorIndex
 90
      256
102
RTVSPost2010Prop51ColorRGB
 90
-16777216
102
RTVSPost2010PropOp51
 70
     0
102
RTVSPost2010Prop52
140
1.0
102
RTVSPost2010PropOp52
 70
     0
102
RTVSPost2010Prop53
 90
        2
102
RTVSPost2010PropOp53
 70
     1
102
RTVSPost2010Prop54
  1
strokes_ogs.tif
102
RTVSPost2010PropOp54
 70
     1
102
RTVSPost2010Prop55
280
     0
102
RTVSPost2010PropOp55
 70
     1
102
RTVSPost2010Prop56
140
1.0
102
RTVSPost2010PropOp56
 70
     1
102
RTVSPost2010Prop57
140
1.0
102
RTVSPost2010PropOp57
 70
     1
  0
XRECORD
  5
195
102
{ACAD_REACTORS
330
194
102
}
330
194
100
AcDbXrecord
280
     1
102
RTVSPropertyOp0
 70
     1
102
RTVSPropertyOp1
 70
     1
102
RTVSPropertyOp2
 70
     1
102
RTVSPropertyOp3
 70
     1
102
RTVSPropertyOp4
 70
     1
102
RTVSPropertyOp5
 70
     1
102
RTVSPropertyOp6
 70
     1
102
RTVSPropertyOp7
 70
     1
102
RTVSPropertyOp8
 70
     1
102
RTVSPropertyOp9
 70
     1
102
RTVSPropertyOp10
 70
     1
102
RTVSPropertyOp11
 70
     1
102
RTVSPropertyOp12
 70
     1
102
RTVSPropertyOp13
 70
     1
102
RTVSPropertyOp14
 70
     1
102
RTVSPropertyOp15
 70
     1
102
RTVSPropertyOp16
 70
     1
102
RTVSPropertyOp17
 70
     1
102
RTVSPropertyOp18
 70
     1
102
RTVSPropertyOp19
 70
     1
102
RTVSPropertyOp20
 70
     1
102
RTVSPropertyOp21
 70
     1
102
RTVSPropertyOp22
 70
     1
102
RTVSPropertyOp23
 70
     1
102
RTVSPropertyOp24
 70
     1
102
RTVSPropertyOp25
 70
     1
102
RTVSPropertyOp26
 70
     1
102
RTVSPropertyOp27
 70
     1
102
RTVSPropertyOp28
 70
     1
102
RTVSPropertyOp29
 70
     1
102
RTVSPropertyOp30
 70
     1
102
RTVSPropertyOp31
 70
     1
102
RTVSPropertyOp32
 70
     1
102
RTVSPropertyOp33
 70
     1
102
RTVSPropertyOp34
 70
     1
102
RTVSPropertyOp35
 70
     1
102
RTVSPropertyOp36
 70
     1
102
RTVSPropertyOp37
 70
     1
102
RTVSPropertyOp38
 70
     1
102
RTVSPropertyOp39
 70
     1
102
RTVSPropertyOp40
 70
     1
102
RTVSPropertyOp41
 70
     1
102
RTVSPropertyOp42
 70
     1
102
RTVSPropertyOp43
 70
     1
102
RTVSPropertyOp44
 70
     1
102
RTVSPropertyOp45
 70
     1
102
RTVSPropertyOp46
 70
     1
102
RTVSPropertyOp47
 70
     1
102
RTVSPropertyOp48
 70
     1
102
RTVSPropertyOp49
 70
     1
102
RTVSPropertyOp50
 70
     1
102
RTVSPropertyOp51
 70
     0
102
RTVSPropertyOp52
 70
     0
102
RTVSPropertyOp53
 70
     1
102
RTVSPropertyOp54
 70
     1
102
RTVSPropertyOp55
 70
     1
102
RTVSPropertyOp56
 70
     1
102
RTVSPropertyOp57
 70
     1
102
RTVSPost2010Prop28
280
     0
102
RTVSPost2010PropOp28
 70
     1
102
RTVSPost2010Prop29
280
     1
102
RTVSPost2010PropOp29
 70
     1
102
RTVSPost2010Prop30
280
     1
102
RTVSPost2010PropOp30
 70
     1
102
RTVSPost2010Prop31
280
     0
102
RTVSPost2010PropOp31
 70
     1
102
RTVSPost2010Prop32
280
     0
102
RTVSPost2010PropOp32
 70
     1
102
RTVSPost2010Prop33
280
     0
102
RTVSPost2010PropOp33
 70
     1
102
RTVSPost2010Prop34
280
     0
102
RTVSPost2010PropOp34
 70
     1
102
RTVSPost2010Prop35
280
     0
102
RTVSPost2010PropOp35
 70
     1
102
RTVSPost2010Prop36
280
     0
102
RTVSPost2010PropOp36
 70
     1
102
RTVSPost2010Prop37
 90
       50
102
RTVSPost2010PropOp37
 70
     1
102
RTVSPost2010Prop38
140
0.0
102
RTVSPost2010PropOp38
 70
     1
102
RTVSPost2010Prop39
140
1.0
102
RTVSPost2010PropOp39
 70
     1
102
RTVSPost2010Prop40
 90
        0
102
RTVSPost2010PropOp40
 70
     1
102
RTVSPost2010Prop41ColorIndex
 90
       18
102
RTVSPost2010Prop41ColorRGB
 90
        0
102
RTVSPost2010PropOp41
 70
     1
102
RTVSPost2010Prop42
 90
       50
102
RTVSPost2010PropOp42
 70
     1
102
RTVSPost2010Prop43
 90
        3
102
RTVSPost2010PropOp43
 70
     1
102
RTVSPost2010Prop44ColorIndex
 90
        5
102
RTVSPost2010Prop44ColorRGB
 90
      255
102
RTVSPost2010PropOp44
 70
     1
102
RTVSPost2010Prop45
280
     0
102
RTVSPost2010PropOp45
 70
     1
102
RTVSPost2010Prop46
 90
       50
102
RTVSPost2010PropOp46
 70
     1
102
RTVSPost2010Prop47
 90
       50
102
RTVSPost2010PropOp47
 70
     1
102
RTVSPost2010Prop48
 90
       50
102
RTVSPost2010PropOp48
 70
     1
102
RTVSPost2010Prop49
280
     0
102
RTVSPost2010PropOp49
 70
     1
102
RTVSPost2010Prop50
 90
       50
102
RTVSPost2010PropOp50
 70
     1
102
RTVSPost2010Prop51ColorIndex
 90
      256
102
RTVSPost2010Prop51ColorRGB
 90
-16777216
102
RTVSPost2010PropOp51
 70
     0
102
RTVSPost2010Prop52
140
1.0
102
RTVSPost2010PropOp52
 70
     0
102
RTVSPost2010Prop53
 90
        2
102
RTVSPost2010PropOp53
 70
     1
102
RTVSPost2010Prop54
  1
strokes_ogs.tif
102
RTVSPost2010PropOp54
 70
     1
102
RTVSPost2010Prop55
280
     0
102
RTVSPost2010PropOp55
 70
     1
102
RTVSPost2010Prop56
140
1.0
102
RTVSPost2010PropOp56
 70
     1
102
RTVSPost2010Prop57
140
1.0
102
RTVSPost2010PropOp57
 70
     1
  0
XRECORD
  5
185
102
{ACAD_REACTORS
330
184
102
}
330
184
100
AcDbXrecord
280
     1
102
RTVSPropertyOp0
 70
     1
102
RTVSPropertyOp1
 70
     1
102
RTVSPropertyOp2
 70
     1
102
RTVSPropertyOp3
 70
     1
102
RTVSPropertyOp4
 70
     1
102
RTVSPropertyOp5
 70
     1
102
RTVSPropertyOp6
 70
     1
102
RTVSPropertyOp7
 70
     1
102
RTVSPropertyOp8
 70
     1
102
RTVSPropertyOp9
 70
     1
102
RTVSPropertyOp10
 70
     1
102
RTVSPropertyOp11
 70
     1
102
RTVSPropertyOp12
 70
     1
102
RTVSPropertyOp13
 70
     1
102
RTVSPropertyOp14
 70
     1
102
RTVSPropertyOp15
 70
     1
102
RTVSPropertyOp16
 70
     1
102
RTVSPropertyOp17
 70
     1
102
RTVSPropertyOp18
 70
     1
102
RTVSPropertyOp19
 70
     1
102
RTVSPropertyOp20
 70
     1
102
RTVSPropertyOp21
 70
     1
102
RTVSPropertyOp22
 70
     1
102
RTVSPropertyOp23
 70
     1
102
RTVSPropertyOp24
 70
     1
102
RTVSPropertyOp25
 70
     1
102
RTVSPropertyOp26
 70
     1
102
RTVSPropertyOp27
 70
     1
102
RTVSPropertyOp28
 70
     1
102
RTVSPropertyOp29
 70
     1
102
RTVSPropertyOp30
 70
     1
102
RTVSPropertyOp31
 70
     1
102
RTVSPropertyOp32
 70
     1
102
RTVSPropertyOp33
 70
     1
102
RTVSPropertyOp34
 70
     1
102
RTVSPropertyOp35
 70
     1
102
RTVSPropertyOp36
 70
     1
102
RTVSPropertyOp37
 70
     1
102
RTVSPropertyOp38
 70
     1
102
RTVSPropertyOp39
 70
     1
102
RTVSPropertyOp40
 70
     1
102
RTVSPropertyOp41
 70
     1
102
RTVSPropertyOp42
 70
     1
102
RTVSPropertyOp43
 70
     1
102
RTVSPropertyOp44
 70
     1
102
RTVSPropertyOp45
 70
     1
102
RTVSPropertyOp46
 70
     1
102
RTVSPropertyOp47
 70
     1
102
RTVSPropertyOp48
 70
     1
102
RTVSPropertyOp49
 70
     1
102
RTVSPropertyOp50
 70
     1
102
RTVSPropertyOp51
 70
     0
102
RTVSPropertyOp52
 70
     0
102
RTVSPropertyOp53
 70
     1
102
RTVSPropertyOp54
 70
     1
102
RTVSPropertyOp55
 70
     1
102
RTVSPropertyOp56
 70
     1
102
RTVSPropertyOp57
 70
     1
102
RTVSPost2010Prop28
280
     0
102
RTVSPost2010PropOp28
 70
     1
102
RTVSPost2010Prop29
280
     1
102
RTVSPost2010PropOp29
 70
     1
102
RTVSPost2010Prop30
280
     1
102
RTVSPost2010PropOp30
 70
     1
102
RTVSPost2010Prop31
280
     0
102
RTVSPost2010PropOp31
 70
     1
102
RTVSPost2010Prop32
280
     0
102
RTVSPost2010PropOp32
 70
     1
102
RTVSPost2010Prop33
280
     0
102
RTVSPost2010PropOp33
 70
     1
102
RTVSPost2010Prop34
280
     0
102
RTVSPost2010PropOp34
 70
     1
102
RTVSPost2010Prop35
280
     0
102
RTVSPost2010PropOp35
 70
     1
102
RTVSPost2010Prop36
280
     0
102
RTVSPost2010PropOp36
 70
     1
102
RTVSPost2010Prop37
 90
       50
102
RTVSPost2010PropOp37
 70
     1
102
RTVSPost2010Prop38
140
0.0
102
RTVSPost2010PropOp38
 70
     1
102
RTVSPost2010Prop39
140
1.0
102
RTVSPost2010PropOp39
 70
     1
102
RTVSPost2010Prop40
 90
        0
102
RTVSPost2010PropOp40
 70
     1
102
RTVSPost2010Prop41ColorIndex
 90
       18
102
RTVSPost2010Prop41ColorRGB
 90
        0
102
RTVSPost2010PropOp41
 70
     1
102
RTVSPost2010Prop42
 90
       50
102
RTVSPost2010PropOp42
 70
     1
102
RTVSPost2010Prop43
 90
        3
102
RTVSPost2010PropOp43
 70
     1
102
RTVSPost2010Prop44ColorIndex
 90
        5
102
RTVSPost2010Prop44ColorRGB
 90
      255
102
RTVSPost2010PropOp44
 70
     1
102
RTVSPost2010Prop45
280
     0
102
RTVSPost2010PropOp45
 70
     1
102
RTVSPost2010Prop46
 90
       50
102
RTVSPost2010PropOp46
 70
     1
102
RTVSPost2010Prop47
 90
       50
102
RTVSPost2010PropOp47
 70
     1
102
RTVSPost2010Prop48
 90
       50
102
RTVSPost2010PropOp48
 70
     1
102
RTVSPost2010Prop49
280
     0
102
RTVSPost2010PropOp49
 70
     1
102
RTVSPost2010Prop50
 90
       50
102
RTVSPost2010PropOp50
 70
     1
102
RTVSPost2010Prop51ColorIndex
 90
      256
102
RTVSPost2010Prop51ColorRGB
 90
-16777216
102
RTVSPost2010PropOp51
 70
     0
102
RTVSPost2010Prop52
140
1.0
102
RTVSPost2010PropOp52
 70
     0
102
RTVSPost2010Prop53
 90
        2
102
RTVSPost2010PropOp53
 70
     1
102
RTVSPost2010Prop54
  1
strokes_ogs.tif
102
RTVSPost2010PropOp54
 70
     1
102
RTVSPost2010Prop55
280
     0
102
RTVSPost2010PropOp55
 70
     1
102
RTVSPost2010Prop56
140
1.0
102
RTVSPost2010PropOp56
 70
     1
102
RTVSPost2010Prop57
140
1.0
102
RTVSPost2010PropOp57
 70
     1
  0
XRECORD
  5
177
102
{ACAD_REACTORS
330
176
102
}
330
176
100
AcDbXrecord
280
     1
102
RTVSPropertyOp0
 70
     1
102
RTVSPropertyOp1
 70
     1
102
RTVSPropertyOp2
 70
     1
102
RTVSPropertyOp3
 70
     1
102
RTVSPropertyOp4
 70
     1
102
RTVSPropertyOp5
 70
     1
102
RTVSPropertyOp6
 70
     1
102
RTVSPropertyOp7
 70
     1
102
RTVSPropertyOp8
 70
     1
102
RTVSPropertyOp9
 70
     1
102
RTVSPropertyOp10
 70
     1
102
RTVSPropertyOp11
 70
     1
102
RTVSPropertyOp12
 70
     1
102
RTVSPropertyOp13
 70
     1
102
RTVSPropertyOp14
 70
     1
102
RTVSPropertyOp15
 70
     1
102
RTVSPropertyOp16
 70
     1
102
RTVSPropertyOp17
 70
     1
102
RTVSPropertyOp18
 70
     1
102
RTVSPropertyOp19
 70
     1
102
RTVSPropertyOp20
 70
     1
102
RTVSPropertyOp21
 70
     1
102
RTVSPropertyOp22
 70
     1
102
RTVSPropertyOp23
 70
     1
102
RTVSPropertyOp24
 70
     1
102
RTVSPropertyOp25
 70
     1
102
RTVSPropertyOp26
 70
     1
102
RTVSPropertyOp27
 70
     1
102
RTVSPropertyOp28
 70
     1
102
RTVSPropertyOp29
 70
     1
102
RTVSPropertyOp30
 70
     1
102
RTVSPropertyOp31
 70
     1
102
RTVSPropertyOp32
 70
     1
102
RTVSPropertyOp33
 70
     1
102
RTVSPropertyOp34
 70
     1
102
RTVSPropertyOp35
 70
     1
102
RTVSPropertyOp36
 70
     1
102
RTVSPropertyOp37
 70
     1
102
RTVSPropertyOp38
 70
     1
102
RTVSPropertyOp39
 70
     1
102
RTVSPropertyOp40
 70
     1
102
RTVSPropertyOp41
 70
     1
102
RTVSPropertyOp42
 70
     1
102
RTVSPropertyOp43
 70
     1
102
RTVSPropertyOp44
 70
     1
102
RTVSPropertyOp45
 70
     1
102
RTVSPropertyOp46
 70
     1
102
RTVSPropertyOp47
 70
     1
102
RTVSPropertyOp48
 70
     1
102
RTVSPropertyOp49
 70
     1
102
RTVSPropertyOp50
 70
     1
102
RTVSPropertyOp51
 70
     0
102
RTVSPropertyOp52
 70
     0
102
RTVSPropertyOp53
 70
     1
102
RTVSPropertyOp54
 70
     1
102
RTVSPropertyOp55
 70
     1
102
RTVSPropertyOp56
 70
     1
102
RTVSPropertyOp57
 70
     1
102
RTVSPost2010Prop28
280
     0
102
RTVSPost2010PropOp28
 70
     1
102
RTVSPost2010Prop29
280
     1
102
RTVSPost2010PropOp29
 70
     1
102
RTVSPost2010Prop30
280
     1
102
RTVSPost2010PropOp30
 70
     1
102
RTVSPost2010Prop31
280
     0
102
RTVSPost2010PropOp31
 70
     1
102
RTVSPost2010Prop32
280
     0
102
RTVSPost2010PropOp32
 70
     1
102
RTVSPost2010Prop33
280
     0
102
RTVSPost2010PropOp33
 70
     1
102
RTVSPost2010Prop34
280
     0
102
RTVSPost2010PropOp34
 70
     1
102
RTVSPost2010Prop35
280
     0
102
RTVSPost2010PropOp35
 70
     1
102
RTVSPost2010Prop36
280
     0
102
RTVSPost2010PropOp36
 70
     1
102
RTVSPost2010Prop37
 90
       50
102
RTVSPost2010PropOp37
 70
     1
102
RTVSPost2010Prop38
140
0.0
102
RTVSPost2010PropOp38
 70
     1
102
RTVSPost2010Prop39
140
1.0
102
RTVSPost2010PropOp39
 70
     1
102
RTVSPost2010Prop40
 90
        0
102
RTVSPost2010PropOp40
 70
     1
102
RTVSPost2010Prop41ColorIndex
 90
       18
102
RTVSPost2010Prop41ColorRGB
 90
        0
102
RTVSPost2010PropOp41
 70
     1
102
RTVSPost2010Prop42
 90
       50
102
RTVSPost2010PropOp42
 70
     1
102
RTVSPost2010Prop43
 90
        3
102
RTVSPost2010PropOp43
 70
     1
102
RTVSPost2010Prop44ColorIndex
 90
        5
102
RTVSPost2010Prop44ColorRGB
 90
      255
102
RTVSPost2010PropOp44
 70
     1
102
RTVSPost2010Prop45
280
     0
102
RTVSPost2010PropOp45
 70
     1
102
RTVSPost2010Prop46
 90
       50
102
RTVSPost2010PropOp46
 70
     1
102
RTVSPost2010Prop47
 90
       50
102
RTVSPost2010PropOp47
 70
     1
102
RTVSPost2010Prop48
 90
       50
102
RTVSPost2010PropOp48
 70
     1
102
RTVSPost2010Prop49
280
     0
102
RTVSPost2010PropOp49
 70
     1
102
RTVSPost2010Prop50
 90
       50
102
RTVSPost2010PropOp50
 70
     1
102
RTVSPost2010Prop51ColorIndex
 90
      256
102
RTVSPost2010Prop51ColorRGB
 90
-16777216
102
RTVSPost2010PropOp51
 70
     0
102
RTVSPost2010Prop52
140
1.0
102
RTVSPost2010PropOp52
 70
     0
102
RTVSPost2010Prop53
 90
        2
102
RTVSPost2010PropOp53
 70
     1
102
RTVSPost2010Prop54
  1
strokes_ogs.tif
102
RTVSPost2010PropOp54
 70
     1
102
RTVSPost2010Prop55
280
     0
102
RTVSPost2010PropOp55
 70
     1
102
RTVSPost2010Prop56
140
1.0
102
RTVSPost2010PropOp56
 70
     1
102
RTVSPost2010Prop57
140
1.0
102
RTVSPost2010PropOp57
 70
     1
  0
XRECORD
  5
197
102
{ACAD_REACTORS
330
196
102
}
330
196
100
AcDbXrecord
280
     1
102
RTVSPropertyOp0
 70
     1
102
RTVSPropertyOp1
 70
     1
102
RTVSPropertyOp2
 70
     1
102
RTVSPropertyOp3
 70
     1
102
RTVSPropertyOp4
 70
     1
102
RTVSPropertyOp5
 70
     1
102
RTVSPropertyOp6
 70
     1
102
RTVSPropertyOp7
 70
     1
102
RTVSPropertyOp8
 70
     1
102
RTVSPropertyOp9
 70
     1
102
RTVSPropertyOp10
 70
     1
102
RTVSPropertyOp11
 70
     1
102
RTVSPropertyOp12
 70
     1
102
RTVSPropertyOp13
 70
     1
102
RTVSPropertyOp14
 70
     1
102
RTVSPropertyOp15
 70
     1
102
RTVSPropertyOp16
 70
     1
102
RTVSPropertyOp17
 70
     1
102
RTVSPropertyOp18
 70
     1
102
RTVSPropertyOp19
 70
     1
102
RTVSPropertyOp20
 70
     1
102
RTVSPropertyOp21
 70
     1
102
RTVSPropertyOp22
 70
     1
102
RTVSPropertyOp23
 70
     1
102
RTVSPropertyOp24
 70
     1
102
RTVSPropertyOp25
 70
     1
102
RTVSPropertyOp26
 70
     1
102
RTVSPropertyOp27
 70
     1
102
RTVSPropertyOp28
 70
     1
102
RTVSPropertyOp29
 70
     1
102
RTVSPropertyOp30
 70
     1
102
RTVSPropertyOp31
 70
     1
102
RTVSPropertyOp32
 70
     1
102
RTVSPropertyOp33
 70
     1
102
RTVSPropertyOp34
 70
     1
102
RTVSPropertyOp35
 70
     1
102
RTVSPropertyOp36
 70
     1
102
RTVSPropertyOp37
 70
     1
102
RTVSPropertyOp38
 70
     1
102
RTVSPropertyOp39
 70
     1
102
RTVSPropertyOp40
 70
     1
102
RTVSPropertyOp41
 70
     1
102
RTVSPropertyOp42
 70
     1
102
RTVSPropertyOp43
 70
     1
102
RTVSPropertyOp44
 70
     1
102
RTVSPropertyOp45
 70
     1
102
RTVSPropertyOp46
 70
     1
102
RTVSPropertyOp47
 70
     1
102
RTVSPropertyOp48
 70
     1
102
RTVSPropertyOp49
 70
     1
102
RTVSPropertyOp50
 70
     1
102
RTVSPropertyOp51
 70
     0
102
RTVSPropertyOp52
 70
     0
102
RTVSPropertyOp53
 70
     1
102
RTVSPropertyOp54
 70
     1
102
RTVSPropertyOp55
 70
     1
102
RTVSPropertyOp56
 70
     1
102
RTVSPropertyOp57
 70
     1
102
RTVSPost2010Prop28
280
     0
102
RTVSPost2010PropOp28
 70
     1
102
RTVSPost2010Prop29
280
     1
102
RTVSPost2010PropOp29
 70
     1
102
RTVSPost2010Prop30
280
     1
102
RTVSPost2010PropOp30
 70
     1
102
RTVSPost2010Prop31
280
     0
102
RTVSPost2010PropOp31
 70
     1
102
RTVSPost2010Prop32
280
     0
102
RTVSPost2010PropOp32
 70
     1
102
RTVSPost2010Prop33
280
     0
102
RTVSPost2010PropOp33
 70
     1
102
RTVSPost2010Prop34
280
     0
102
RTVSPost2010PropOp34
 70
     1
102
RTVSPost2010Prop35
280
     0
102
RTVSPost2010PropOp35
 70
     1
102
RTVSPost2010Prop36
280
     0
102
RTVSPost2010PropOp36
 70
     1
102
RTVSPost2010Prop37
 90
       50
102
RTVSPost2010PropOp37
 70
     1
102
RTVSPost2010Prop38
140
0.0
102
RTVSPost2010PropOp38
 70
     1
102
RTVSPost2010Prop39
140
1.0
102
RTVSPost2010PropOp39
 70
     1
102
RTVSPost2010Prop40
 90
        0
102
RTVSPost2010PropOp40
 70
     1
102
RTVSPost2010Prop41ColorIndex
 90
       18
102
RTVSPost2010Prop41ColorRGB
 90
        0
102
RTVSPost2010PropOp41
 70
     1
102
RTVSPost2010Prop42
 90
       50
102
RTVSPost2010PropOp42
 70
     1
102
RTVSPost2010Prop43
 90
        3
102
RTVSPost2010PropOp43
 70
     1
102
RTVSPost2010Prop44ColorIndex
 90
        5
102
RTVSPost2010Prop44ColorRGB
 90
      255
102
RTVSPost2010PropOp44
 70
     1
102
RTVSPost2010Prop45
280
     0
102
RTVSPost2010PropOp45
 70
     1
102
RTVSPost2010Prop46
 90
       50
102
RTVSPost2010PropOp46
 70
     1
102
RTVSPost2010Prop47
 90
       50
102
RTVSPost2010PropOp47
 70
     1
102
RTVSPost2010Prop48
 90
       50
102
RTVSPost2010PropOp48
 70
     1
102
RTVSPost2010Prop49
280
     0
102
RTVSPost2010PropOp49
 70
     1
102
RTVSPost2010Prop50
 90
       50
102
RTVSPost2010PropOp50
 70
     1
102
RTVSPost2010Prop51ColorIndex
 90
      256
102
RTVSPost2010Prop51ColorRGB
 90
-16777216
102
RTVSPost2010PropOp51
 70
     0
102
RTVSPost2010Prop52
140
1.0
102
RTVSPost2010PropOp52
 70
     0
102
RTVSPost2010Prop53
 90
        2
102
RTVSPost2010PropOp53
 70
     1
102
RTVSPost2010Prop54
  1
strokes_ogs.tif
102
RTVSPost2010PropOp54
 70
     1
102
RTVSPost2010Prop55
280
     0
102
RTVSPost2010PropOp55
 70
     1
102
RTVSPost2010Prop56
140
1.0
102
RTVSPost2010PropOp56
 70
     1
102
RTVSPost2010Prop57
140
1.0
102
RTVSPost2010PropOp57
 70
     1
  0
ENDSEC
  0
EOF
