  0
SECTION
  2
HEADER
  9
$ACADVER
  1
AC1015
  9
$ACADMAINTVER
 70
     6
  9
$DWGCODEPAGE
  3
ANSI_1252
  9
$INSBASE
 10
0.0
 20
0.0
 30
0.0
  9
$EXTMIN
 10
-60.0
 20
-188.158142
 30
0.0
  9
$EXTMAX
 10
65.817169
 20
30.0
 30
0.0
  9
$LIMMIN
 10
-60.0
 20
-188.158142
  9
$LIMMAX
 10
65.817169
 20
30.0
  9
$ORTHOMODE
 70
     0
  9
$REGENMODE
 70
     1
  9
$FILLMODE
 70
     1
  9
$QTEXTMODE
 70
     0
  9
$MIRRTEXT
 70
     1
  9
$LTSCALE
 40
1.0
  9
$ATTMODE
 70
     1
  9
$TEXTSIZE
 40
2.5
  9
$TRACEWID
 40
1.0
  9
$TEXTSTYLE
  7
Standard
  9
$CLAYER
  8
0
  9
$CELTYPE
  6
ByLayer
  9
$CECOLOR
 62
   256
  9
$CELTSCALE
 40
1.0
  9
$DISPSILH
 70
     0
  9
$DIMSCALE
 40
1.0
  9
$DIMASZ
 40
2.5
  9
$DIMEXO
 40
0.625
  9
$DIMDLI
 40
3.75
  9
$DIMRND
 40
0.0
  9
$DIMDLE
 40
0.0
  9
$DIMEXE
 40
1.25
  9
$DIMTP
 40
0.0
  9
$DIMTM
 40
0.0
  9
$DIMTXT
 40
2.5
  9
$DIMCEN
 40
2.5
  9
$DIMTSZ
 40
0.0
  9
$DIMTOL
 70
     0
  9
$DIMLIM
 70
     0
  9
$DIMTIH
 70
     0
  9
$DIMTOH
 70
     0
  9
$DIMSE1
 70
     0
  9
$DIMSE2
 70
     0
  9
$DIMTAD
 70
     1
  9
$DIMZIN
 70
     8
  9
$DIMBLK
  1

  9
$DIMASO
 70
     1
  9
$DIMSHO
 70
     1
  9
$DIMPOST
  1

  9
$DIMAPOST
  1

  9
$DIMALT
 70
     0
  9
$DIMALTD
 70
     3
  9
$DIMALTF
 40
0.03937
  9
$DIMLFAC
 40
1.0
  9
$DIMTOFL
 70
     1
  9
$DIMTVP
 40
0.0
  9
$DIMTIX
 70
     0
  9
$DIMSOXD
 70
     0
  9
$DIMSAH
 70
     0
  9
$DIMBLK1
  1

  9
$DIMBLK2
  1

  9
$DIMSTYLE
  2
ISO-25
  9
$DIMCLRD
 70
     0
  9
$DIMCLRE
 70
     0
  9
$DIMCLRT
 70
     0
  9
$DIMTFAC
 40
1.0
  9
$DIMGAP
 40
0.625
  9
$DIMJUST
 70
     0
  9
$DIMSD1
 70
     0
  9
$DIMSD2
 70
     0
  9
$DIMTOLJ
 70
     0
  9
$DIMTZIN
 70
     8
  9
$DIMALTZ
 70
     0
  9
$DIMALTTZ
 70
     0
  9
$DIMUPT
 70
     0
  9
$DIMDEC
 70
     2
  9
$DIMTDEC
 70
     2
  9
$DIMALTU
 70
     2
  9
$DIMALTTD
 70
     3
  9
$DIMTXSTY
  7
Standard
  9
$DIMAUNIT
 70
     0
  9
$DIMADEC
 70
     0
  9
$DIMALTRND
 40
0.0
  9
$DIMAZIN
 70
     0
  9
$DIMDSEP
 70
    44
  9
$DIMATFIT
 70
     3
  9
$DIMFRAC
 70
     0
  9
$DIMLDRBLK
  1

  9
$DIMLUNIT
 70
     2
  9
$DIMLWD
 70
    -2
  9
$DIMLWE
 70
    -2
  9
$DIMTMOVE
 70
     0
  9
$LUNITS
 70
     2
  9
$LUPREC
 70
     4
  9
$SKETCHINC
 40
1.0
  9
$FILLETRAD
 40
10.0
  9
$AUNITS
 70
     0
  9
$AUPREC
 70
     0
  9
$MENU
  1
.
  9
$ELEVATION
 40
0.0
  9
$PELEVATION
 40
0.0
  9
$THICKNESS
 40
0.0
  9
$LIMCHECK
 70
     0
  9
$CHAMFERA
 40
0.0
  9
$CHAMFERB
 40
0.0
  9
$CHAMFERC
 40
0.0
  9
$CHAMFERD
 40
0.0
  9
$SKPOLY
 70
     0
  9
$TDCREATE
 40
2459724.417935313
  9
$TDUCREATE
 40
2459724.334601979
  9
$TDUPDATE
 40
2459724.41793625
  9
$TDUUPDATE
 40
2459724.334602917
  9
$TDINDWG
 40
0.0000000116
  9
$TDUSRTIMER
 40
0.0000000116
  9
$USRTIMER
 70
     1
  9
$ANGBASE
 50
0.0
  9
$ANGDIR
 70
     0
  9
$PDMODE
 70
     0
  9
$PDSIZE
 40
0.0
  9
$PLINEWID
 40
0.0
  9
$SPLFRAME
 70
     0
  9
$SPLINETYPE
 70
     6
  9
$SPLINESEGS
 70
     8
  9
$HANDSEED
  5
1A5
  9
$SURFTAB1
 70
     6
  9
$SURFTAB2
 70
     6
  9
$SURFTYPE
 70
     6
  9
$SURFU
 70
     6
  9
$SURFV
 70
     6
  9
$UCSBASE
  2

  9
$UCSNAME
  2

  9
$UCSORG
 10
0.0
 20
0.0
 30
0.0
  9
$UCSXDIR
 10
1.0
 20
0.0
 30
0.0
  9
$UCSYDIR
 10
0.0
 20
1.0
 30
0.0
  9
$UCSORTHOREF
  2

  9
$UCSORTHOVIEW
 70
     0
  9
$UCSORGTOP
 10
0.0
 20
0.0
 30
0.0
  9
$UCSORGBOTTOM
 10
0.0
 20
0.0
 30
0.0
  9
$UCSORGLEFT
 10
0.0
 20
0.0
 30
0.0
  9
$UCSORGRIGHT
 10
0.0
 20
0.0
 30
0.0
  9
$UCSORGFRONT
 10
0.0
 20
0.0
 30
0.0
  9
$UCSORGBACK
 10
0.0
 20
0.0
 30
0.0
  9
$PUCSBASE
  2

  9
$PUCSNAME
  2

  9
$PUCSORG
 10
0.0
 20
0.0
 30
0.0
  9
$PUCSXDIR
 10
1.0
 20
0.0
 30
0.0
  9
$PUCSYDIR
 10
0.0
 20
1.0
 30
0.0
  9
$PUCSORTHOREF
  2

  9
$PUCSORTHOVIEW
 70
     0
  9
$PUCSORGTOP
 10
0.0
 20
0.0
 30
0.0
  9
$PUCSORGBOTTOM
 10
0.0
 20
0.0
 30
0.0
  9
$PUCSORGLEFT
 10
0.0
 20
0.0
 30
0.0
  9
$PUCSORGRIGHT
 10
0.0
 20
0.0
 30
0.0
  9
$PUCSORGFRONT
 10
0.0
 20
0.0
 30
0.0
  9
$PUCSORGBACK
 10
0.0
 20
0.0
 30
0.0
  9
$USERI1
 70
     0
  9
$USERI2
 70
     0
  9
$USERI3
 70
     0
  9
$USERI4
 70
     0
  9
$USERI5
 70
     0
  9
$USERR1
 40
0.0
  9
$USERR2
 40
0.0
  9
$USERR3
 40
0.0
  9
$USERR4
 40
0.0
  9
$USERR5
 40
0.0
  9
$WORLDVIEW
 70
     1
  9
$SHADEDGE
 70
     3
  9
$SHADEDIF
 70
    70
  9
$TILEMODE
 70
     1
  9
$MAXACTVP
 70
    64
  9
$PINSBASE
 10
0.0
 20
0.0
 30
0.0
  9
$PLIMCHECK
 70
     0
  9
$PEXTMIN
 10
1.000000E+20
 20
1.000000E+20
 30
1.000000E+20
  9
$PEXTMAX
 10
-1.000000E+20
 20
-1.000000E+20
 30
-1.000000E+20
  9
$PLIMMIN
 10
0.0
 20
0.0
  9
$PLIMMAX
 10
420.0
 20
297.0
  9
$UNITMODE
 70
     0
  9
$VISRETAIN
 70
     1
  9
$PLINEGEN
 70
     0
  9
$PSLTSCALE
 70
     1
  9
$TREEDEPTH
 70
  3020
  9
$CMLSTYLE
  2
Standard
  9
$CMLJUST
 70
     0
  9
$CMLSCALE
 40
20.0
  9
$PROXYGRAPHICS
 70
     1
  9
$MEASUREMENT
 70
     1
  9
$CELWEIGHT
370
    -1
  9
$ENDCAPS
280
     0
  9
$JOINSTYLE
280
     0
  9
$LWDISPLAY
290
     0
  9
$INSUNITS
 70
     4
  9
$HYPERLINKBASE
  1

  9
$STYLESHEET
  1

  9
$XEDIT
290
     1
  9
$CEPSNTYPE
380
     0
  9
$PSTYLEMODE
290
     1
  9
$FINGERPRINTGUID
  2
{edef3698-d44a-466a-b0c8-197ee8251929}
  9
$VERSIONGUID
  2
{FAEB1C32-E019-11D5-929B-00C0DF256EC4}
  9
$EXTNAMES
290
     1
  9
$PSVPSCALE
 40
0.0
  9
$OLESTARTUP
290
     0
  0
ENDSEC
  0
SECTION
  2
CLASSES
  0
CLASS
  1
ACDBDICTIONARYWDFLT
  2
AcDbDictionaryWithDefault
  3
ObjectDBX Classes
 90
        0
280
     0
281
     0
  0
CLASS
  1
VISUALSTYLE
  2
AcDbVisualStyle
  3
ObjectDBX Classes
 90
     4095
280
     0
281
     0
  0
CLASS
  1
MATERIAL
  2
AcDbMaterial
  3
ObjectDBX Classes
 90
     1153
280
     0
281
     0
  0
CLASS
  1
SCALE
  2
AcDbScale
  3
ObjectDBX Classes
 90
     1153
280
     0
281
     0
  0
CLASS
  1
TABLESTYLE
  2
AcDbTableStyle
  3
ObjectDBX Classes
 90
     4095
280
     0
281
     0
  0
CLASS
  1
MLEADERSTYLE
  2
AcDbMLeaderStyle
  3
ACDB_MLEADERSTYLE_CLASS
 90
     4095
280
     0
281
     0
  0
CLASS
  1
SUN
  2
AcDbSun
  3
SCENEOE
 90
     1153
280
     0
281
     0
  0
CLASS
  1
DICTIONARYVAR
  2
AcDbDictionaryVar
  3
ObjectDBX Classes
 90
        0
280
     0
281
     0
  0
CLASS
  1
ACDBPLACEHOLDER
  2
AcDbPlaceHolder
  3
ObjectDBX Classes
 90
        0
280
     0
281
     0
  0
CLASS
  1
LAYOUT
  2
AcDbLayout
  3
ObjectDBX Classes
 90
        0
280
     0
281
     0
  0
ENDSEC
  0
SECTION
  2
TABLES
  0
TABLE
  2
VPORT
  5
8
102
{ACAD_XDICTIONARY
360
168
102
}
330
0
100
AcDbSymbolTable
 70
     1
  0
VPORT
  5
29
330
8
100
AcDbSymbolTableRecord
100
AcDbViewportTableRecord
  2
*Active
 70
     0
 10
0.0
 20
0.0
 11
1.0
 21
1.0
 12
344.186916
 22
148.5
 13
0.0
 23
0.0
 14
10.0
 24
10.0
 15
10.0
 25
10.0
 16
0.0
 26
0.0
 36
1.0
 17
0.0
 27
0.0
 37
0.0
 40
297.0
 41
1.972973
 42
50.0
 43
0.0
 44
0.0
 50
0.0
 51
0.0
 71
     0
 72
   100
 73
     1
 74
     3
 75
     0
 76
     0
 77
     0
 78
     0
281
     0
 65
     1
110
0.0
120
0.0
130
0.0
111
1.0
121
0.0
131
0.0
112
0.0
122
1.0
132
0.0
 79
     0
146
0.0
  0
ENDTAB
  0
TABLE
  2
LTYPE
  5
5
330
0
100
AcDbSymbolTable
 70
     1
  0
LTYPE
  5
14
330
5
100
AcDbSymbolTableRecord
100
AcDbLinetypeTableRecord
  2
ByBlock
 70
     0
  3

 72
    65
 73
     0
 40
0.0
  0
LTYPE
  5
15
330
5
100
AcDbSymbolTableRecord
100
AcDbLinetypeTableRecord
  2
ByLayer
 70
     0
  3

 72
    65
 73
     0
 40
0.0
  0
LTYPE
  5
16
330
5
100
AcDbSymbolTableRecord
100
AcDbLinetypeTableRecord
  2
Continuous
 70
     0
  3
Solid line
 72
    65
 73
     0
 40
0.0
  0
ENDTAB
  0
TABLE
  2
LAYER
  5
2
330
0
100
AcDbSymbolTable
 70
     1
  0
LAYER
  5
10
330
2
100
AcDbSymbolTableRecord
100
AcDbLayerTableRecord
  2
0
 70
     0
 62
   106
  6
Continuous
370
     0
390
F
  0
ENDTAB
  0
TABLE
  2
STYLE
  5
3
330
0
100
AcDbSymbolTable
 70
     2
  0
STYLE
  5
11
330
3
100
AcDbSymbolTableRecord
100
AcDbTextStyleTableRecord
  2
Standard
 70
     0
 40
0.0
 41
1.0
 50
0.0
 71
     0
 42
2.5
  3
txt
  4

  0
STYLE
  5
6E
330
3
100
AcDbSymbolTableRecord
100
AcDbTextStyleTableRecord
  2
Default
 70
     0
 40
0.0
 41
1.0
 50
0.0
 71
     0
 42
2.5
  3

  4

1001
ACAD
1000
txt
1071
        0
  0
ENDTAB
  0
TABLE
  2
VIEW
  5
6
330
0
100
AcDbSymbolTable
 70
     0
  0
ENDTAB
  0
TABLE
  2
UCS
  5
7
330
0
100
AcDbSymbolTable
 70
     0
  0
ENDTAB
  0
TABLE
  2
APPID
  5
9
330
0
100
AcDbSymbolTable
 70
     2
  0
APPID
  5
12
330
9
100
AcDbSymbolTableRecord
100
AcDbRegAppTableRecord
  2
ACAD
 70
     0
  0
APPID
  5
1A2
330
9
100
AcDbSymbolTableRecord
100
AcDbRegAppTableRecord
  2
ACAD_MLEADERVER
 70
     0
  0
ENDTAB
  0
TABLE
  2
DIMSTYLE
  5
A
330
0
100
AcDbSymbolTable
 70
     2
100
AcDbDimStyleTable
  0
DIMSTYLE
105
27
330
A
100
AcDbSymbolTableRecord
100
AcDbDimStyleTableRecord
  2
ISO-25
 70
     0
 41
2.5
 42
0.625
 43
3.75
 44
1.25
 73
     0
 74
     0
 77
     1
 78
     8
140
2.5
141
2.5
143
0.03937
147
0.625
171
     3
172
     1
178
     0
271
     2
272
     2
274
     3
278
    44
283
     0
284
     8
340
11
  0
DIMSTYLE
105
6F
330
A
100
AcDbSymbolTableRecord
100
AcDbDimStyleTableRecord
  2
Default
 70
     0
  3
<>
 41
4.375
 42
1.05
 44
2.1
 73
     0
 74
     0
 77
     1
 78
     8
140
3.5
146
0.4
147
1.75
172
     1
271
     2
178
     3
271
     2
272
     3
284
     8
340
6E
341
70
342
70
  0
ENDTAB
  0
TABLE
  2
BLOCK_RECORD
  5
1
330
0
100
AcDbSymbolTable
 70
     2
  0
BLOCK_RECORD
  5
1F
330
1
100
AcDbSymbolTableRecord
100
AcDbBlockTableRecord
  2
*Model_Space
340
22
  0
BLOCK_RECORD
  5
1B
330
1
100
AcDbSymbolTableRecord
100
AcDbBlockTableRecord
  2
*Paper_Space
340
1E
  0
BLOCK_RECORD
  5
23
330
1
100
AcDbSymbolTableRecord
100
AcDbBlockTableRecord
  2
*Paper_Space0
340
26
  0
BLOCK_RECORD
  5
70
330
1
100
AcDbSymbolTableRecord
100
AcDbBlockTableRecord
  2
_Closed
340
0
  0
ENDTAB
  0
ENDSEC
  0
SECTION
  2
BLOCKS
  0
BLOCK
  5
20
330
1F
100
AcDbEntity
  8
0
100
AcDbBlockBegin
  2
*Model_Space
 70
     0
 10
0.0
 20
0.0
 30
0.0
  3
*Model_Space
  1

  0
ENDBLK
  5
21
330
1F
100
AcDbEntity
  8
0
100
AcDbBlockEnd
  0
BLOCK
  5
1C
330
1B
100
AcDbEntity
 67
     1
  8
0
100
AcDbBlockBegin
  2
*Paper_Space
 70
     0
 10
0.0
 20
0.0
 30
0.0
  3
*Paper_Space
  1

  0
ENDBLK
  5
1D
330
1B
100
AcDbEntity
 67
     1
  8
0
100
AcDbBlockEnd
  0
BLOCK
  5
24
330
23
100
AcDbEntity
  8
0
100
AcDbBlockBegin
  2
*Paper_Space0
 70
     0
 10
0.0
 20
0.0
 30
0.0
  3
*Paper_Space0
  1

  0
ENDBLK
  5
25
330
23
100
AcDbEntity
  8
0
100
AcDbBlockEnd
  0
BLOCK
  5
71
330
70
100
AcDbEntity
  8
0
100
AcDbBlockBegin
  2
_Closed
 70
     0
 10
0.0
 20
0.0
 30
0.0
  3
_Closed
  1

  0
LINE
  5
73
330
70
100
AcDbEntity
  8
0
  6
ByBlock
 62
     0
370
    -2
100
AcDbLine
 10
-1.0
 20
0.166667
 30
0.0
 11
0.0
 21
0.0
 31
0.0
  0
LINE
  5
74
330
70
100
AcDbEntity
  8
0
  6
ByBlock
 62
     0
370
    -2
100
AcDbLine
 10
0.0
 20
0.0
 30
0.0
 11
-1.0
 21
-0.166667
 31
0.0
  0
LINE
  5
75
330
70
100
AcDbEntity
  8
0
  6
ByBlock
 62
     0
370
    -2
100
AcDbLine
 10
-1.0
 20
0.166667
 30
0.0
 11
-1.0
 21
-0.166667
 31
0.0
  0
LINE
  5
76
330
70
100
AcDbEntity
  8
0
  6
ByBlock
 62
     0
370
    -2
100
AcDbLine
 10
0.0
 20
0.0
 30
0.0
 11
-1.0
 21
0.0
 31
0.0
  0
ENDBLK
  5
72
330
70
100
AcDbEntity
  8
0
100
AcDbBlockEnd
  0
ENDSEC
  0
SECTION
  2
ENTITIES
  0
SPLINE
  5
77
330
1F
100
AcDbEntity
  8
0
  6
Continuous
 62
    18
370
    30
100
AcDbSpline
210
0.0
220
0.0
230
1.0
 70
     8
 71
     3
 72
    11
 73
     7
 74
     0
 42
0.000000001
 43
0.0
 40
0.0
 40
0.0
 40
0.0
 40
0.0
 40
0.5852709660483841
 40
1.17054193209677
 40
1.755812898145157
 40
2.341083864193541
 40
2.341083864193541
 40
2.341083864193541
 40
2.341083864193541
 10
-22.28951061320303
 20
-95.42205513968682
 30
0.0
 10
-22.45026108466917
 20
-95.45424944031748
 30
0.0
 10
-22.77368189972825
 20
-95.59464559426945
 30
0.0
 10
-23.17766087917122
 20
-95.99896097847662
 30
0.0
 10
-23.44250965975213
 20
-96.5350275083311
 30
0.0
 10
-23.49874703111792
 20
-96.92843648834418
 30
0.0
 10
-23.4947502908664
 20
-97.11664029707228
 30
0.0
  0
ARC
  5
78
330
1F
100
AcDbEntity
  8
0
  6
Continuous
 62
    18
370
    30
100
AcDbCircle
 10
-27.577444
 20
-108.558085
 30
0.0
 40
12.14804706842548
100
AcDbArc
 50
70.361883
 51
76.243161
  0
SPLINE
  5
79
330
1F
100
AcDbEntity
  8
0
  6
Continuous
 62
    18
370
    30
100
AcDbSpline
210
0.0
220
0.0
230
1.0
 70
     8
 71
     3
 72
    11
 73
     7
 74
     0
 42
0.000000001
 43
0.0
 40
0.0
 40
0.0
 40
0.0
 40
0.0
 40
0.5852709660483841
 40
1.170541932096771
 40
1.755812898145157
 40
2.341083864193541
 40
2.341083864193541
 40
2.341083864193541
 40
2.341083864193541
 10
-24.68861647999714
 20
-96.75852055135164
 30
0.0
 10
-24.69261322024855
 20
-96.57031674262359
 30
0.0
 10
-24.6448477582458
 20
-96.17436647443719
 30
0.0
 10
-24.41622982843345
 20
-95.62743190662121
 30
0.0
 10
-24.06636312067022
 20
-95.20688465895168
 30
0.0
 10
-23.78575341420132
 20
-95.05364661077249
 30
0.0
 10
-23.64617673721515
 20
-95.01510088318608
 30
0.0
  0
ARC
  5
7A
330
1F
100
AcDbEntity
  8
0
  6
Continuous
 62
    18
370
    30
100
AcDbCircle
 10
-26.928936
 20
-108.423697
 30
0.0
 40
13.80459894144511
100
AcDbArc
 50
70.361883
 51
76.243161
  0
SPLINE
  5
7B
330
1F
100
AcDbEntity
  8
0
  6
Continuous
 62
    18
370
    30
100
AcDbSpline
210
0.0
220
0.0
230
1.0
 70
     8
 71
     3
 72
    18
 73
    14
 74
     0
 42
0.000000001
 43
0.0
 40
0.0
 40
0.0
 40
0.0
 40
0.0
 40
0.023853387416012
 40
0.071560162248035
 40
0.143445661411604
 40
0.215098752999388
 40
0.286547868508206
 40
0.428867497905898
 40
0.570756272079706
 40
0.712953688997983
 40
0.8560293812334411
 40
0.9520097937444799
 40
1.0
 40
1.0
 40
1.0
 40
1.0
 10
-24.34491785620825
 20
-83.60963833522479
 30
0.0
 10
-24.37285684896907
 20
-83.68990320749927
 30
0.0
 10
-24.456528815182
 20
-83.93077718670634
 30
0.0
 10
-24.60851933504254
 20
-84.42303423318032
 30
0.0
 10
-24.79103853152063
 20
-85.09270896311745
 30
0.0
 10
-24.96543839762129
 20
-85.8653180165617
 30
0.0
 10
-25.14885488204997
 20
-86.91337970984551
 30
0.0
 10
-25.28013258214779
 20
-88.2581306714442
 30
0.0
 10
-25.24247030504163
 20
-89.90867102341949
 30
0.0
 10
-25.01500060613936
 20
-91.5728664149309
 30
0.0
 10
-24.67632017601856
 20
-93.04996820726029
 30
0.0
 10
-24.35112307958608
 20
-94.15042552548613
 30
0.0
 10
-24.17031084691067
 20
-94.6972777886819
 30
0.0
 10
-24.10799528296119
 20
-94.87891645889536
 30
0.0
  0
ARC
  5
7C
330
1F
100
AcDbEntity
  8
0
  6
Continuous
 62
    18
370
    30
100
AcDbCircle
 10
-49.583272
 20
-21.069057
 30
0.0
 40
78.0825533753517
100
AcDbArc
 50
287.724595
 51
289.041978
  0
SPLINE
  5
7D
330
1F
100
AcDbEntity
  8
0
  6
Continuous
 62
    18
370
    30
100
AcDbSpline
210
0.0
220
0.0
230
1.0
 70
     8
 71
     3
 72
    16
 73
    12
 74
     0
 42
0.000000001
 43
0.0
 40
0.0
 40
0.0
 40
0.0
 40
0.0
 40
0.047318756474514
 40
0.141956269423541
 40
0.284595518423884
 40
0.427905354993474
 40
0.5715253681935899
 40
0.7149243111419731
 40
0.8578296908947349
 40
0.9526098969649119
 40
1.0
 40
1.0
 40
1.0
 40
1.0
 10
-25.81166531545015
 20
-95.44510013644424
 30
0.0
 10
-25.86745681536107
 20
-95.25836214114679
 30
0.0
 10
-26.02963702419814
 20
-94.69688756019738
 30
0.0
 10
-26.32426934463448
 20
-93.56461395727646
 30
0.0
 10
-26.6376309436104
 20
-92.04068514070767
 30
0.0
 10
-26.85838390237794
 20
-90.31537603202452
 30
0.0
 10
-26.92716080219478
 20
-88.5963010545378
 30
0.0
 10
-26.83363267121948
 20
-86.90812485837156
 30
0.0
 10
-26.62665846052008
 20
-85.4520094865741
 30
0.0
 10
-26.40243970788155
 20
-84.39512404273393
 30
0.0
 10
-26.27653237018266
 20
-83.87853685795488
 30
0.0
 10
-26.23214127104431
 20
-83.70780942476333
 30
0.0
  0
SPLINE
  5
7E
330
1F
100
AcDbEntity
  8
0
  6
Continuous
 62
    18
370
    30
100
AcDbSpline
210
0.0
220
0.0
230
1.0
 70
     8
 71
     3
 72
    12
 73
     8
 74
     0
 42
0.000000001
 43
0.0
 40
0.0
 40
0.0
 40
0.0
 40
0.0
 40
0.110121513178634
 40
0.330364539535901
 40
0.663707340209824
 40
0.8879024467366079
 40
1.0
 40
1.0
 40
1.0
 40
1.0
 10
-26.23214127104431
 20
-83.70780942476333
 30
0.0
 10
-26.17347256517375
 20
-83.71437006172917
 30
0.0
 10
-25.98912097736085
 20
-83.73106524897858
 30
0.0
 10
-25.57320654735057
 20
-83.74508933883916
 30
0.0
 10
-25.04494088740402
 20
-83.7202535490895
 30
0.0
 10
-24.60301531368797
 20
-83.66176519636775
 30
0.0
 10
-24.40688146289236
 20
-83.62337266310672
 30
0.0
 10
-24.34491785620825
 20
-83.60963833522479
 30
0.0
  0
ELLIPSE
  5
7F
330
1F
100
AcDbEntity
  8
0
  6
Continuous
 62
    18
370
    30
100
AcDbEllipse
 10
-31.872226
 20
-131.249369
 30
0.0
 11
-10.99752046148008
 21
-0.2335459255155626
 31
0.0
210
0.0
220
0.0
230
1.0
 40
0.26255
 41
3.738108922548253
 42
6.879701576138047
  0
LINE
  5
80
330
1F
100
AcDbEntity
  8
0
  6
Continuous
 62
    18
370
    30
100
AcDbLine
 10
-40.936003
 20
-133.064617
 30
0.0
 11
-41.893752
 21
-87.964849
 31
0.0
  0
ELLIPSE
  5
81
330
1F
100
AcDbEntity
  8
0
  6
Continuous
 62
    18
370
    30
100
AcDbEllipse
 10
-32.829975
 20
-86.149601
 30
0.0
 11
10.99752046148008
 21
0.2335459255155626
 31
0.0
210
0.0
220
0.0
230
-1.0
 40
0.26255
 41
2.545076384631332
 42
5.361395323964161
  0
SPLINE
  5
82
330
1F
100
AcDbEntity
  8
0
  6
Continuous
 62
    18
370
    30
100
AcDbSpline
210
0.0
220
0.0
230
1.0
 70
     8
 71
     3
 72
    17
 73
    13
 74
     0
 42
0.000000001
 43
0.0
 40
0.000000167079431
 40
0.000000167079431
 40
0.000000167079431
 40
0.000000167079431
 40
0.029703248310852
 40
0.089109744932557
 40
0.182485356227471
 40
0.281961969585118
 40
0.3905885070989369
 40
0.514447413234971
 40
0.6703123698046909
 40
0.778920218642939
 40
0.926306739547646
 40
1.0
 40
1.0
 40
1.0
 40
1.0
 10
-25.8116590738197
 20
-95.44509847713806
 30
0.0
 10
-25.80609411674337
 20
-95.4637663521471
 30
0.0
 10
-25.78871196464164
 20
-95.51959512804709
 30
0.0
 10
-25.74893398575686
 20
-95.63276344304961
 30
0.0
 10
-25.68457379148803
 20
-95.78536160046747
 30
0.0
 10
-25.5945434704585
 20
-95.96024582522412
 30
0.0
 10
-25.48118623841359
 20
-96.14144465490747
 30
0.0
 10
-25.33217434728866
 20
-96.33482326716774
 30
0.0
 10
-25.16591551020739
 20
-96.49971747354931
 30
0.0
 10
-24.97970805180572
 20
-96.63758908933804
 30
0.0
 10
-24.82453560090736
 20
-96.71854988328221
 30
0.0
 10
-24.72241173398951
 20
-96.74953796147756
 30
0.0
 10
-24.68861647999714
 20
-96.7585205513517
 30
0.0
  0
LINE
  5
83
330
1F
100
AcDbEntity
  8
0
  6
Continuous
 62
    18
370
    30
100
AcDbLine
 10
-23.49475
 20
-97.11664
 30
0.0
 11
-22.808449
 21
-129.434121
 31
0.0
  0
ELLIPSE
  5
84
330
1F
100
AcDbEntity
  8
0
  6
Continuous
 62
    18
370
    30
100
AcDbEllipse
 10
15.487715
 20
-86.935364
 30
0.0
 11
0.04909382756180276
 21
-0.2451322012615468
 31
0.0
210
0.0
220
0.0
230
1.0
 40
0.542056
 41
4.765475691062701
 42
5.965433047476437
  0
LINE
  5
85
330
1F
100
AcDbEntity
  8
0
  6
Continuous
 62
    18
370
    30
100
AcDbLine
 10
15.492837
 20
-87.176539
 30
0.0
 11
-23.646177
 21
-95.015101
 31
0.0
  0
SPLINE
  5
86
330
1F
100
AcDbEntity
  8
0
  6
Continuous
 62
    18
370
    30
100
AcDbSpline
210
0.0
220
0.0
230
1.0
 70
     8
 71
     3
 72
    12
 73
     8
 74
     0
 42
0.000000001
 43
0.0
 40
0.0
 40
0.0
 40
0.0
 40
0.0
 40
0.113508485352724
 40
0.3405254560581709
 40
0.6934375002153319
 40
0.8978125000717772
 40
0.999971150064732
 40
0.999971150064732
 40
0.999971150064732
 40
0.999971150064732
 10
-23.64617673721515
 20
-95.01510088318608
 30
0.0
 10
-23.66488997373975
 20
-95.01503523016083
 30
0.0
 10
-23.72124490327693
 20
-95.01283556398246
 30
0.0
 10
-23.83593623850292
 20
-94.99801187312374
 30
0.0
 10
-23.96025983608676
 20
-94.9653771569489
 30
0.0
 10
-24.05723708856878
 20
-94.91928889431495
 30
0.0
 10
-24.09633607100503
 20
-94.89004229133369
 30
0.0
 10
-24.10800548200852
 20
-94.87893288703847
 30
0.0
  0
LINE
  5
87
330
1F
100
AcDbEntity
  8
0
  6
Continuous
 62
    18
370
    30
100
AcDbLine
 10
-24.107993
 20
-94.878919
 30
0.0
 11
15.357632
 21
-86.974945
 31
0.0
  0
SPLINE
  5
88
330
1F
100
AcDbEntity
  8
0
  6
Continuous
 62
    18
370
    30
100
AcDbSpline
210
0.0
220
0.0
230
1.0
 70
     8
 71
     3
 72
    11
 73
     7
 74
     0
 42
0.000000001
 43
0.0
 40
0.0
 40
0.0
 40
0.0
 40
0.0
 40
0.097545161008065
 40
0.195090322016127
 40
0.292635483024191
 40
0.3901806440322569
 40
0.3901806440322569
 40
0.3901806440322569
 40
0.3901806440322569
 10
-41.69287878382958
 20
-87.6824184448989
 30
0.0
 10
-41.71967052907386
 20
-87.68778416167069
 30
0.0
 10
-41.77357399825022
 20
-87.71118352066264
 30
0.0
 10
-41.84090382815751
 20
-87.77856941803049
 30
0.0
 10
-41.88504529158778
 20
-87.8679138396729
 30
0.0
 10
-41.89441818681522
 20
-87.93348200300855
 30
0.0
 10
-41.8937520634402
 20
-87.96484930446317
 30
0.0
  0
SPLINE
  5
89
330
1F
100
AcDbEntity
  8
0
  6
Continuous
 62
    18
370
    30
100
AcDbSpline
210
0.0
220
0.0
230
1.0
 70
     8
 71
     3
 72
    23
 73
    19
 74
     0
 42
0.000000001
 43
0.0
 40
0.0
 40
0.0
 40
0.0
 40
0.0
 40
0.023787262503618
 40
0.071361787510854
 40
0.142718260954774
 40
0.214078378487705
 40
0.2854410658297269
 40
0.356786763330675
 40
0.4283051158551879
 40
0.500000022274228
 40
0.5716949233646731
 40
0.6432132531833561
 40
0.7145589497060999
 40
0.7859216340021471
 40
0.8572817477322561
 40
0.9286382211600929
 40
0.976212740386698
 40
1.0
 40
1.0
 40
1.0
 40
1.0
 10
-26.387621768772
 20
-83.52231394872217
 30
0.0
 10
-26.57930020793132
 20
-83.48834450027397
 30
0.0
 10
-27.16885746772838
 20
-83.39180913944861
 30
0.0
 10
-28.4307747524114
 20
-83.23150536517682
 30
0.0
 10
-30.24781680692391
 20
-83.09768757013873
 30
0.0
 10
-32.39745375894385
 20
-83.05995728975904
 30
0.0
 10
-34.56411320853298
 20
-83.13717416862437
 30
0.0
 10
-36.6633732074088
 20
-83.3255715764135
 30
0.0
 10
-38.61003985295705
 20
-83.6193060925495
 30
0.0
 10
-40.32791982040411
 20
-84.00555458849644
 30
0.0
 10
-41.73887279250679
 20
-84.46975067759766
 30
0.0
 10
-42.79013606100583
 20
-84.99088011877672
 30
0.0
 10
-43.43552289651135
 20
-85.5485019023603
 30
0.0
 10
-43.65569414168639
 20
-86.12004717764876
 30
0.0
 10
-43.43919140639427
 20
-86.68322020184644
 30
0.0
 10
-42.86846653127365
 20
-87.15579801021704
 30
0.0
 10
-42.21583624812903
 20
-87.48171136204812
 30
0.0
 10
-41.82860454453115
 20
-87.63324057175487
 30
0.0
 10
-41.69287878382958
 20
-87.6824184448989
 30
0.0
  0
SPLINE
  5
8A
330
1F
100
AcDbEntity
  8
0
  6
Continuous
 62
    18
370
    30
100
AcDbSpline
210
0.0
220
0.0
230
1.0
 70
     8
 71
     3
 72
    12
 73
     8
 74
     0
 42
0.000000001
 43
0.0
 40
0.000932392810657
 40
0.000932392810657
 40
0.000932392810657
 40
0.000932392810657
 40
0.111131923221761
 40
0.333395769665283
 40
0.6666042314658449
 40
0.8888680771552819
 40
1.0
 40
1.0
 40
1.0
 40
1.0
 10
-26.23242008628032
 20
-83.70767497605854
 30
0.0
 10
-26.2327302925194
 20
-83.69392137446647
 30
0.0
 10
-26.23593001282897
 20
-83.65326829452056
 30
0.0
 10
-26.25584444325617
 20
-83.57876356651306
 30
0.0
 10
-26.30180188531839
 20
-83.52376945270959
 30
0.0
 10
-26.35302059303766
 20
-83.5132319262649
 30
0.0
 10
-26.37899102364126
 20
-83.51912272900611
 30
0.0
 10
-26.38762176818879
 20
-83.52231394882801
 30
0.0
  0
LINE
  5
8B
330
1F
100
AcDbEntity
  8
0
  6
Continuous
 62
    18
370
    30
100
AcDbLine
 10
15.118324
 20
-75.706082
 30
0.0
 11
-24.344923
 21
-83.60958
 31
0.0
  0
SPLINE
  5
8C
330
1F
100
AcDbEntity
  8
0
  6
Continuous
 62
    18
370
    30
100
AcDbSpline
210
0.0
220
0.0
230
1.0
 70
     8
 71
     3
 72
    12
 73
     8
 74
     0
 42
0.000000001
 43
0.0
 40
0.0
 40
0.0
 40
0.0
 40
0.0
 40
0.111111111111114
 40
0.333333333333343
 40
0.6666666666666681
 40
0.888888888888889
 40
1.0
 40
1.0
 40
1.0
 40
1.0
 10
-24.34492319230473
 20
-83.60957965531446
 30
0.0
 10
-24.34286978612764
 20
-83.60047720503852
 30
0.0
 10
-24.33553613067242
 20
-83.57435579743762
 30
0.0
 10
-24.31386251669384
 20
-83.53006512338547
 30
0.0
 10
-24.27786085619326
 20
-83.50041724127806
 30
0.0
 10
-24.24121876615747
 20
-83.49668375383317
 30
0.0
 10
-24.22251702714872
 20
-83.50136424512104
 30
0.0
 10
-24.21626814118432
 20
-83.50362947556238
 30
0.0
  0
LINE
  5
8D
330
1F
100
AcDbEntity
  8
0
  6
Continuous
 62
    18
370
    30
100
AcDbLine
 10
-24.216268
 20
-83.503629
 30
0.0
 11
15.246997
 21
-75.600128
 31
0.0
  0
ELLIPSE
  5
8E
330
1F
100
AcDbEntity
  8
0
  6
Continuous
 62
    18
370
    30
100
AcDbEllipse
 10
15.252119
 20
-75.841303
 30
0.0
 11
0.04909382647714985
 21
-0.2451322014787745
 31
0.0
210
0.0
220
0.0
230
1.0
 40
0.542056
 41
2.82384039627569
 42
4.023797797640883
  0
SPLINE
  5
8F
330
1F
100
AcDbEntity
  8
0
  6
Continuous
 62
    18
370
    30
100
AcDbSpline
210
0.0
220
0.0
230
1.0
 70
     8
 71
     3
 72
    12
 73
     8
 74
     0
 42
0.000000001
 43
0.0
 40
0.0
 40
0.0
 40
0.0
 40
0.0
 40
0.110121517154552
 40
0.330364551463657
 40
0.6637073520457291
 40
0.88790245068191
 40
1.0
 40
1.0
 40
1.0
 40
1.0
 10
-22.25123098776445
 20
-85.15064437772165
 30
0.0
 10
-22.27138584233482
 20
-85.12863630299788
 30
0.0
 10
-22.31848025587843
 20
-85.06144646767774
 30
0.0
 10
-22.33213209540001
 20
-84.91977890903078
 30
0.0
 10
-22.18106015604193
 20
-84.75823308834345
 30
0.0
 10
-21.90379237045969
 20
-84.64006593742548
 30
0.0
 10
-21.7303038380625
 20
-84.5934656954744
 30
0.0
 10
-21.66896072500678
 20
-84.57950642874687
 30
0.0
  0
SPLINE
  5
90
330
1F
100
AcDbEntity
  8
0
  6
Continuous
 62
    18
370
    30
100
AcDbSpline
210
0.0
220
0.0
230
1.0
 70
     8
 71
     3
 72
    16
 73
    12
 74
     0
 42
0.000000001
 43
0.0
 40
0.0
 40
0.0
 40
0.0
 40
0.0
 40
0.047318757231042
 40
0.141956271693126
 40
0.284595521917504
 40
0.427905357447891
 40
0.571525368924264
 40
0.714924310592056
 40
0.8578296898097391
 40
0.952609896603246
 40
1.0
 40
1.0
 40
1.0
 40
1.0
 10
-22.06352983045432
 20
-96.80356857741702
 30
0.0
 10
-22.04815231113461
 20
-96.6426249515776
 30
0.0
 10
-22.00541295280747
 20
-96.15542104356621
 30
0.0
 10
-21.94149367230333
 20
-95.15310022112737
 30
0.0
 10
-21.8977041500954
 20
-93.75861661102306
 30
0.0
 10
-21.89119233813577
 20
-92.11567697583914
 30
0.0
 10
-21.92057073809989
 20
-90.4108816029071
 30
0.0
 10
-21.98534795888796
 20
-88.66532957314195
 30
0.0
 10
-22.07800868054111
 20
-87.10061504943332
 30
0.0
 10
-22.17287252486896
 20
-85.92808182311788
 30
0.0
 10
-22.23088166891572
 20
-85.34483622997888
 30
0.0
 10
-22.25123098776445
 20
-85.15064437772165
 30
0.0
  0
SPLINE
  5
91
330
1F
100
AcDbEntity
  8
0
  6
Continuous
 62
    18
370
    30
100
AcDbSpline
210
0.0
220
0.0
230
1.0
 70
     8
 71
     3
 72
    12
 73
     8
 74
     0
 42
0.000000001
 43
0.0
 40
0.0
 40
0.0
 40
0.0
 40
0.0
 40
0.111143531605723
 40
0.333430594817168
 40
0.6666706729866111
 40
0.888890224328871
 40
1.0
 40
1.0
 40
1.0
 40
1.0
 10
-21.43202673300861
 20
-95.84878868597212
 30
0.0
 10
-21.49161079938487
 20
-95.86706362567924
 30
0.0
 10
-21.66214315932385
 20
-95.93019746403846
 30
0.0
 10
-21.94873790655871
 20
-96.10430857632429
 30
0.0
 10
-22.12753584437466
 20
-96.37470123809456
 30
0.0
 10
-22.12779043602647
 20
-96.63428564369175
 30
0.0
 10
-22.0832634914099
 20
-96.76161443636303
 30
0.0
 10
-22.06352983045432
 20
-96.80356857741702
 30
0.0
  0
SPLINE
  5
92
330
1F
100
AcDbEntity
  8
0
  6
Continuous
 62
    18
370
    30
100
AcDbSpline
210
0.0
220
0.0
230
1.0
 70
     8
 71
     3
 72
    18
 73
    14
 74
     0
 42
0.000000001
 43
0.0
 40
0.0
 40
0.0
 40
0.0
 40
0.0
 40
0.023853387358442
 40
0.071560162075325
 40
0.143445660406623
 40
0.215098751809124
 40
0.286547867518459
 40
0.428867497809072
 40
0.570756273848432
 40
0.7129536922235981
 40
0.856029383394608
 40
0.9520097944648691
 40
1.0
 40
1.0
 40
1.0
 40
1.0
 10
-21.66896072499984
 20
-84.5795064287517
 30
0.0
 10
-21.65831566002013
 20
-84.67375564598225
 30
0.0
 10
-21.62639508050464
 20
-84.95652480482042
 30
0.0
 10
-21.56566012409727
 20
-85.52588172607184
 30
0.0
 10
-21.49457845648411
 20
-86.28747113163726
 30
0.0
 10
-21.43161482531267
 20
-87.14610979313406
 30
0.0
 10
-21.36401962476706
 20
-88.28514769594332
 30
0.0
 10
-21.30772501123116
 20
-89.69788195465924
 30
0.0
 10
-21.26959556965964
 20
-91.34859150397762
 30
0.0
 10
-21.26653803518551
 20
-92.93145132974186
 30
0.0
 10
-21.3074008741858
 20
-94.27099218508053
 30
0.0
 10
-21.37193601053165
 20
-95.23019570061808
 30
0.0
 10
-21.41606583579713
 20
-95.69552038879223
 30
0.0
 10
-21.43202673300861
 20
-95.84878868597212
 30
0.0
  0
ARC
  5
93
330
1F
100
AcDbEntity
  8
0
  6
Continuous
 62
    18
370
    30
100
AcDbCircle
 10
-24.775501
 20
-102.462588
 30
0.0
 40
7.466542090151064
100
AcDbArc
 50
61.68599
 51
70.552028
  0
SPLINE
  5
94
330
1F
100
AcDbEntity
  8
0
  6
Continuous
 62
    18
370
    30
100
AcDbSpline
210
0.0
220
0.0
230
1.0
 70
     8
 71
     3
 72
    11
 73
     7
 74
     0
 42
0.000000001
 43
0.0
 40
0.0
 40
0.0
 40
0.0
 40
0.0
 40
0.5852709660483841
 40
1.17054193209677
 40
1.755812898145157
 40
2.341083864193541
 40
2.341083864193541
 40
2.341083864193541
 40
2.341083864193541
 10
-21.23409442533583
 20
-95.88933235653178
 30
0.0
 10
-21.41131701551823
 20
-95.91423375614607
 30
0.0
 10
-21.76804266234573
 20
-96.03988445775872
 30
0.0
 10
-22.2141181948629
 20
-96.4255619241612
 30
0.0
 10
-22.50715270642392
 20
-96.94914944329113
 30
0.0
 10
-22.56998078579458
 20
-97.3396404391678
 30
0.0
 10
-22.56598404554317
 20
-97.52784424789584
 30
0.0
  0
ARC
  5
95
330
1F
100
AcDbEntity
  8
0
  6
Continuous
 62
    18
370
    30
100
AcDbCircle
 10
-25.682422
 20
-103.312309
 30
0.0
 40
6.570557039317155
100
AcDbArc
 50
61.68599
 51
70.552028
  0
ELLIPSE
  5
96
330
1F
100
AcDbEntity
  8
0
  6
Continuous
 62
    18
370
    30
100
AcDbEllipse
 10
-31.872226
 20
-131.249369
 30
0.0
 11
-10.99752046148027
 21
-0.2335459255155669
 31
0.0
210
0.0
220
0.0
230
1.0
 40
0.26255
 41
0.5965162689584611
 42
3.738108922548249
  0
SPLINE
  5
97
330
1F
100
AcDbEntity
  8
0
  6
Continuous
 62
    18
370
    30
100
AcDbSpline
210
0.0
220
0.0
230
1.0
 70
     8
 71
     3
 72
    17
 73
    13
 74
     0
 42
0.000000001
 43
0.0
 40
0.0
 40
0.0
 40
0.0
 40
0.0
 40
0.07355312535411
 40
0.220659376062329
 40
0.329342156962089
 40
0.485652569956135
 40
0.6096243588455811
 40
0.7181857826803482
 40
0.8175843682744028
 40
0.910909232993478
 40
0.970303077664493
 40
0.999999832941637
 40
0.999999832941637
 40
0.999999832941637
 40
0.999999832941637
 10
-22.56598404554317
 20
-97.52784424789584
 30
0.0
 10
-22.54583407803231
 20
-97.53839820680301
 30
0.0
 10
-22.4863627488725
 20
-97.56593843843063
 30
0.0
 10
-22.4028472976477
 20
-97.57132985015335
 30
0.0
 10
-22.31108958563235
 20
-97.53416197798958
 30
0.0
 10
-22.23641762381809
 20
-97.45701964600062
 30
0.0
 10
-22.1758349174385
 20
-97.33961915520811
 30
0.0
 10
-22.13351014625713
 20
-97.21472047595185
 30
0.0
 10
-22.10241239212306
 20
-97.08368032461885
 30
0.0
 10
-22.08184679725051
 20
-96.96184094484101
 30
0.0
 10
-22.07000304118643
 20
-96.86738947853013
 30
0.0
 10
-22.06507844113427
 20
-96.81965117593217
 30
0.0
 10
-22.06353107021395
 20
-96.80356420656815
 30
0.0
  0
ELLIPSE
  5
98
330
1F
100
AcDbEntity
  8
0
  6
Continuous
 62
    18
370
    30
100
AcDbEllipse
 10
-32.829975
 20
-86.149601
 30
0.0
 11
10.99752046148027
 21
0.2335459255155669
 31
0.0
210
0.0
220
0.0
230
-1.0
 40
0.26255
 41
6.011940137206368
 42
8.828261691810923
  0
ELLIPSE
  5
99
330
1F
100
AcDbEntity
  8
0
  6
Continuous
 62
    18
370
    30
100
AcDbEllipse
 10
17.899779
 20
-87.809591
 30
0.0
 11
0.04909387367511107
 21
-0.245132192026205
 31
0.0
210
0.0
220
0.0
230
1.0
 40
0.542056
 41
5.965432945495269
 42
7.165390346890348
  0
LINE
  5
9A
330
1F
100
AcDbEntity
  8
0
  6
Continuous
 62
    18
370
    30
100
AcDbLine
 10
18.033575
 20
-87.944812
 30
0.0
 11
-21.432029
 21
-95.84879
 31
0.0
  0
SPLINE
  5
9B
330
1F
100
AcDbEntity
  8
0
  6
Continuous
 62
    18
370
    30
100
AcDbSpline
210
0.0
220
0.0
230
1.0
 70
     8
 71
     3
 72
    12
 73
     8
 74
     0
 42
0.000000001
 43
0.0
 40
0.000028851425765
 40
0.000028851425765
 40
0.000028851425765
 40
0.000028851425765
 40
0.102180890778029
 40
0.306542672334087
 40
0.659229943808417
 40
0.886409981269472
 40
1.0
 40
1.0
 40
1.0
 40
1.0
 10
-21.4320453786202
 20
-95.84880205284011
 30
0.0
 10
-21.42579564090878
 20
-95.85794633190184
 30
0.0
 10
-21.40502820808596
 20
-95.88055426618055
 30
0.0
 10
-21.3559278908463
 20
-95.90927722447034
 30
0.0
 10
-21.29954772299951
 20
-95.91739744690068
 30
0.0
 10
-21.25661311823175
 20
-95.90614232660175
 30
0.0
 10
-21.23925787763668
 20
-95.89418253106695
 30
0.0
 10
-21.23409442533583
 20
-95.88933235653178
 30
0.0
  0
LINE
  5
9C
330
1F
100
AcDbEntity
  8
0
  6
Continuous
 62
    18
370
    30
100
AcDbLine
 10
-21.234094
 20
-95.889332
 30
0.0
 11
17.904901
 21
-88.050766
 31
0.0
  0
ARC
  5
9D
330
1F
100
AcDbEntity
  8
0
  6
Continuous
 62
    18
370
    30
100
AcDbCircle
 10
-22.47164
 20
-85.152091
 30
0.0
 40
0.2208103014424821
100
AcDbArc
 50
0.346772
 51
96.421044
  0
SPLINE
  5
9E
330
1F
100
AcDbEntity
  8
0
  6
Continuous
 62
    18
370
    30
100
AcDbSpline
210
0.0
220
0.0
230
1.0
 70
     8
 71
     3
 72
    23
 73
    19
 74
     0
 42
0.000000001
 43
0.0
 40
0.0
 40
0.0
 40
0.0
 40
0.0
 40
0.023787259572025
 40
0.071361778716074
 40
0.142718253181606
 40
0.2140783706627651
 40
0.28544105756521
 40
0.356786753958766
 40
0.4283050839526781
 40
0.4999999855269429
 40
0.571694892429777
 40
0.6432132451294519
 40
0.7145589424574351
 40
0.785921626945911
 40
0.857281740473872
 40
0.928638212613005
 40
0.976212737537668
 40
1.0
 40
1.0
 40
1.0
 40
1.0
 10
-41.69287878382958
 20
-87.6824184448989
 30
0.0
 10
-41.55720445689784
 20
-87.73160668948896
 30
0.0
 10
-41.13023228121839
 20
-87.87517712281618
 30
0.0
 10
-40.15994669615967
 20
-88.13747243447511
 30
0.0
 10
-38.64478199920578
 20
-88.42090308436474
 30
0.0
 10
-36.70554261947658
 20
-88.63905569829782
 30
0.0
 10
-34.61070417878867
 20
-88.74696221368649
 30
0.0
 10
-32.44281313004175
 20
-88.74115500093663
 30
0.0
 10
-30.28765567718111
 20
-88.62011908582417
 30
0.0
 10
-28.23119807849006
 20
-88.3898781561673
 30
0.0
 10
-26.36332904796135
 20
-88.0579905758787
 30
0.0
 10
-24.75834495084784
 20
-87.64041611104315
 30
0.0
 10
-23.48377463477372
 20
-87.15311819124966
 30
0.0
 10
-22.58494120589209
 20
-86.61639167709777
 30
0.0
 10
-22.09955751405122
 20
-86.0509313260007
 30
0.0
 10
-22.05153706075695
 20
-85.54358686705157
 30
0.0
 10
-22.25762988889714
 20
-85.1718270007901
 30
0.0
 10
-22.43083777280439
 20
-84.99190682726035
 30
0.0
 10
-22.49633426632082
 20
-84.93266615900961
 30
0.0
  0
LINE
  5
9F
330
1F
100
AcDbEntity
  8
0
  6
Continuous
 62
    18
370
    30
100
AcDbLine
 10
17.659062
 20
-76.474355
 30
0.0
 11
-21.804181
 21
-84.37786
 31
0.0
  0
SPLINE
  5
A0
330
1F
100
AcDbEntity
  8
0
  6
Continuous
 62
    18
370
    30
100
AcDbSpline
210
0.0
220
0.0
230
1.0
 70
     8
 71
     3
 72
    12
 73
     8
 74
     0
 42
0.000000001
 43
0.0
 40
0.0
 40
0.0
 40
0.0
 40
0.0
 40
0.111111111111112
 40
0.333333333333335
 40
0.6666666666666581
 40
0.8888888888888861
 40
1.0
 40
1.0
 40
1.0
 40
1.0
 10
-21.80418144050535
 20
-84.37786049662324
 30
0.0
 10
-21.79793117833837
 20
-84.38012545144562
 30
0.0
 10
-21.77913547295353
 20
-84.38903551594873
 30
0.0
 10
-21.74175667710293
 20
-84.41959709783166
 30
0.0
 10
-21.70391777130695
 20
-84.47600771943681
 30
0.0
 10
-21.68000374510158
 20
-84.53682115598266
 30
0.0
 10
-21.67143410586826
 20
-84.56870654610572
 30
0.0
 10
-21.6689578530708
 20
-84.57945072381511
 30
0.0
  0
LINE
  5
A1
330
1F
100
AcDbEntity
  8
0
  6
Continuous
 62
    18
370
    30
100
AcDbLine
 10
-21.668958
 20
-84.579451
 30
0.0
 11
17.794266
 21
-76.675949
 31
0.0
  0
ELLIPSE
  5
A2
330
1F
100
AcDbEntity
  8
0
  6
Continuous
 62
    18
370
    30
100
AcDbEllipse
 10
17.664183
 20
-76.715531
 30
0.0
 11
0.04909387475976396
 21
-0.2451321918089751
 31
0.0
210
0.0
220
0.0
230
1.0
 40
0.542056
 41
1.623882843029172
 42
2.823840289506331
  0
SPLINE
  5
A3
330
1F
100
AcDbEntity
  8
0
  6
Continuous
 62
    18
370
    30
100
AcDbSpline
210
0.0
220
0.0
230
1.0
 70
     8
 71
     3
 72
     8
 73
     4
 74
     0
 42
0.000000001
 43
0.0
 40
0.142733265228682
 40
0.142733265228682
 40
0.142733265228682
 40
0.142733265228682
 40
5.099019513591432
 40
5.099019513591432
 40
5.099019513591432
 40
5.099019513591432
 10
15.11832355105204
 20
-75.7060819576117
 30
0.0
 10
14.74904782984035
 20
-77.34250472153695
 30
0.0
 10
14.55319394165448
 20
-79.18192012781856
 30
0.0
 10
14.59407833814984
 20
-81.10713884453045
 30
0.0
  0
SPLINE
  5
A4
330
1F
100
AcDbEntity
  8
0
  6
Continuous
 62
    18
370
    30
100
AcDbSpline
210
0.0
220
0.0
230
1.0
 70
     8
 71
     3
 72
     8
 73
     4
 74
     0
 42
0.000000001
 43
0.0
 40
5.099019513591429
 40
5.099019513591429
 40
5.099019513591429
 40
5.099019513591429
 40
10.05530576196185
 40
10.05530576196185
 40
10.05530576196185
 40
10.05530576196185
 10
14.5940783381503
 20
-81.10713884453034
 30
0.0
 10
14.63496273464588
 20
-83.03235756124556
 30
0.0
 10
14.91258541582326
 20
-85.04337958839142
 30
0.0
 10
15.35763176820555
 20
-86.97494485436664
 30
0.0
  0
LINE
  5
A5
330
1F
100
AcDbEntity
  8
0
  6
Continuous
 62
    18
370
    30
100
AcDbLine
 10
15.492837
 20
-87.176539
 30
0.0
 11
17.904901
 21
-88.050766
 31
0.0
  0
SPLINE
  5
A6
330
1F
100
AcDbEntity
  8
0
  6
Continuous
 62
    18
370
    30
100
AcDbSpline
210
0.0
220
0.0
230
1.0
 70
     8
 71
     3
 72
     8
 73
     4
 74
     0
 42
0.000000001
 43
0.0
 40
0.142733265234975
 40
0.142733265234975
 40
0.142733265234975
 40
0.142733265234975
 40
5.099019513594174
 40
5.099019513594174
 40
5.099019513594174
 40
5.099019513594174
 10
18.03357469157149
 20
-87.94481232491717
 30
0.0
 10
18.40285041278182
 20
-86.3083895609928
 30
0.0
 10
18.59870430096643
 20
-84.4689741547131
 30
0.0
 10
18.55781990447096
 20
-82.54375543800214
 30
0.0
  0
SPLINE
  5
A7
330
1F
100
AcDbEntity
  8
0
  6
Continuous
 62
    18
370
    30
100
AcDbSpline
210
0.0
220
0.0
230
1.0
 70
     8
 71
     3
 72
     8
 73
     4
 74
     0
 42
0.000000001
 43
0.0
 40
5.099019513594174
 40
5.099019513594174
 40
5.099019513594174
 40
5.099019513594174
 40
10.0553057619568
 40
10.0553057619568
 40
10.0553057619568
 40
10.0553057619568
 10
18.5578199044713
 20
-82.54375543800208
 30
0.0
 10
18.51693550797606
 20
-80.61853672129016
 30
0.0
 10
18.23931282679959
 20
-78.60751469414694
 30
0.0
 10
17.79426647441866
 20
-76.67594942817428
 30
0.0
  0
ELLIPSE
  5
A8
330
1F
100
AcDbEntity
  8
0
  6
Continuous
 62
    18
370
    30
100
AcDbEllipse
 10
17.781981
 20
-82.262561
 30
0.0
 11
-2.044494403211153
 21
-5.640925689568531
 31
0.0
210
0.0
220
0.0
230
-1.0
 40
0.798275
 41
4.261332080127934
 42
5.832128406922332
  0
ELLIPSE
  5
A9
330
1F
100
AcDbEntity
  8
0
  6
Continuous
 62
    18
370
    30
100
AcDbEllipse
 10
15.369917
 20
-81.388333
 30
0.0
 11
2.044494403211153
 21
5.640925689568531
 31
0.0
210
0.0
220
0.0
230
1.0
 40
0.798275
 41
3.592649544020611
 42
5.163445880641423
  0
LINE
  5
AA
330
1F
100
AcDbEntity
  8
0
  6
Continuous
 62
    18
370
    30
100
AcDbLine
 10
20.313795
 20
-80.398198
 30
0.0
 11
22.72586
 21
-81.272426
 31
0.0
  0
SPLINE
  5
AB
330
1F
100
AcDbEntity
  8
0
  6
Continuous
 62
    18
370
    30
100
AcDbSpline
210
0.0
220
0.0
230
1.0
 70
     8
 71
     3
 72
    16
 73
    12
 74
     0
 42
0.000000001
 43
0.0
 40
0.0
 40
0.0
 40
0.0
 40
0.0
 40
0.044592532255573
 40
0.133777596766719
 40
0.276347266837105
 40
0.424764279721691
 40
0.5752363116615958
 40
0.7236525411072481
 40
0.8662224579329401
 40
0.955407485977647
 40
1.0
 40
1.0
 40
1.0
 40
1.0
 10
15.11832355104806
 20
-75.7060819576171
 30
0.0
 10
15.23044889028753
 20
-75.6836338856595
 30
0.0
 10
15.56711508465762
 20
-75.63005939037828
 30
0.0
 10
16.26184899901941
 20
-75.60541655262381
 30
0.0
 10
17.18321117821537
 20
-75.77962672243632
 30
0.0
 10
18.15258449180939
 20
-76.27460407188786
 30
0.0
 10
18.97508887589137
 20
-77.0537831173965
 30
0.0
 10
19.58520058576605
 20
-78.05408933910718
 30
0.0
 10
19.91297862722215
 20
-79.06292499843008
 30
0.0
 10
20.0275510160611
 20
-79.85393754196005
 30
0.0
 10
20.04770807259101
 20
-80.2454077926028
 30
0.0
 10
20.05051316509284
 20
-80.37668285889399
 30
0.0
  0
SPLINE
  5
AC
330
1F
100
AcDbEntity
  8
0
  6
Continuous
 62
    18
370
    30
100
AcDbSpline
210
0.0
220
0.0
230
1.0
 70
     8
 71
     3
 72
    16
 73
    12
 74
     0
 42
0.000000001
 43
0.0
 40
0.0
 40
0.0
 40
0.0
 40
0.0
 40
0.04459253225554
 40
0.13377759676662
 40
0.276347266837078
 40
0.424764279721811
 40
0.57523631166175
 40
0.723652541107336
 40
0.8662224579329862
 40
0.955407485977662
 40
1.0
 40
1.0
 40
1.0
 40
1.0
 10
20.0505131651108
 20
-80.37668285889228
 30
0.0
 10
20.05329130746756
 20
-80.50796017936847
 30
0.0
 10
20.04986282869251
 20
-80.90414620063524
 30
0.0
 10
19.96972280519046
 20
-81.73418023451856
 30
0.0
 10
19.6872815171225
 20
-82.86515036314017
 30
0.0
 10
19.12490844941098
 20
-84.10040160618962
 30
0.0
 10
18.34199211855466
 20
-85.20082814572424
 30
0.0
 10
17.40197908534182
 20
-86.07848377220407
 30
0.0
 10
16.49571855038548
 20
-86.61865182392685
 30
0.0
 10
15.8058343169416
 20
-86.8713029369469
 30
0.0
 10
15.4697549300997
 20
-86.95247131057295
 30
0.0
 10
15.35763176820601
 20
-86.97494485436656
 30
0.0
  0
ELLIPSE
  5
AD
330
1F
100
AcDbEntity
  8
0
  6
Continuous
 62
    18
370
    30
100
AcDbEllipse
 10
17.781981
 20
-82.262561
 30
0.0
 11
-2.04449440315876
 21
-5.640925689586795
 31
0.0
210
0.0
220
0.0
230
-1.0
 40
0.798275
 41
2.6905357430524
 42
4.261332080136127
  0
ELLIPSE
  5
AE
330
1F
100
AcDbEntity
  8
0
  6
Continuous
 62
    18
370
    30
100
AcDbEllipse
 10
15.369917
 20
-81.388333
 30
0.0
 11
2.04449440315876
 21
5.640925689586795
 31
0.0
210
0.0
220
0.0
230
1.0
 40
0.798275
 41
5.163445880634859
 42
6.734242207426384
  0
LINE
  5
AF
330
1F
100
AcDbEntity
  8
0
  6
Continuous
 62
    18
370
    30
100
AcDbLine
 10
15.246997
 20
-75.600128
 30
0.0
 11
17.659062
 21
-76.474355
 31
0.0
  0
SPLINE
  5
B0
330
1F
100
AcDbEntity
  8
0
  6
Continuous
 62
    18
370
    30
100
AcDbSpline
210
0.0
220
0.0
230
1.0
 70
     8
 71
     3
 72
    16
 73
    12
 74
     0
 42
0.000000001
 43
0.0
 40
0.0
 40
0.0
 40
0.0
 40
0.0
 40
0.044592532255553
 40
0.13377759676666
 40
0.276347266837119
 40
0.424764279721824
 40
0.5752363116617191
 40
0.7236525411072771
 40
0.8662224579329341
 40
0.9554074859776451
 40
1.0
 40
1.0
 40
1.0
 40
1.0
 10
18.03357469157228
 20
-87.944812324917
 30
0.0
 10
18.1457037320765
 20
-87.92234785103219
 30
0.0
 10
18.48179907481412
 20
-87.84118502964867
 30
0.0
 10
19.1716547940002
 20
-87.58852917880958
 30
0.0
 10
20.07791454205719
 20
-87.04829202873606
 30
0.0
 10
21.01815462400199
 20
-86.17086685389754
 30
0.0
 10
21.80082852254813
 20
-85.07021073994878
 30
0.0
 10
22.36332452473332
 20
-83.83506046640218
 30
0.0
 10
22.64563905077361
 20
-82.7040386520271
 30
0.0
 10
22.72582043268889
 20
-81.87402151890464
 30
0.0
 10
22.72923391717583
 20
-81.47783085600219
 30
0.0
 10
22.72645608846548
 20
-81.34655032945528
 30
0.0
  0
SPLINE
  5
B1
330
1F
100
AcDbEntity
  8
0
  6
Continuous
 62
    18
370
    30
100
AcDbSpline
210
0.0
220
0.0
230
1.0
 70
     8
 71
     3
 72
    16
 73
    12
 74
     0
 42
0.000000001
 43
0.0
 40
0.0
 40
0.0
 40
0.0
 40
0.0
 40
0.044592532255528
 40
0.133777596766583
 40
0.276347266837087
 40
0.424764279721934
 40
0.575236311661859
 40
0.7236525411073169
 40
0.8662224579329129
 40
0.955407485977638
 40
1.0
 40
1.0
 40
1.0
 40
1.0
 10
22.72645608847606
 20
-81.34655032945074
 30
0.0
 10
22.72366267339314
 20
-81.21527606771983
 30
0.0
 10
22.70352197017141
 20
-80.82381046416239
 30
0.0
 10
22.58892130609942
 20
-80.03277796531768
 30
0.0
 10
22.26110976112872
 20
-79.02402629771595
 30
0.0
 10
21.65126956893798
 20
-78.0235400410703
 30
0.0
 10
20.82853458200734
 20
-77.24468532535704
 30
0.0
 10
19.85922249216171
 20
-76.74941978566144
 30
0.0
 10
18.93777322320383
 20
-76.57529631483351
 30
0.0
 10
18.24307821763304
 20
-76.59994180850188
 30
0.0
 10
17.90639759926316
 20
-76.6535104447353
 30
0.0
 10
17.79426647441377
 20
-76.67594942815495
 30
0.0
  0
SPLINE
  5
B2
330
1F
100
AcDbEntity
  8
0
  6
Continuous
 62
    18
370
    30
100
AcDbSpline
210
0.0
220
0.0
230
1.0
 70
     8
 71
     3
 72
    11
 73
     7
 74
     0
 42
0.000000001
 43
0.0
 40
0.0000000000081531
 40
0.0000000000081531
 40
0.0000000000081531
 40
0.0000000000081531
 40
0.074728338354657
 40
0.149447765313237
 40
0.224158280875756
 40
0.298859885042214
 40
0.298859885042214
 40
0.298859885042214
 40
0.298859885042214
 10
22.72585966452138
 20
-81.27242560870738
 30
0.0
 10
22.73996236137722
 20
-81.27753698339669
 30
0.0
 10
22.76212345741666
 20
-81.28907036618492
 30
0.0
 10
22.77357577908285
 20
-81.3085230058675
 30
0.0
 10
22.76244359954066
 20
-81.32843433236337
 30
0.0
 10
22.74047193192993
 20
-81.34086739545245
 30
0.0
 10
22.72645608847606
 20
-81.34655032945074
 30
0.0
  0
SPLINE
  5
B3
330
1F
100
AcDbEntity
  8
0
  6
Continuous
 62
    18
370
    30
100
AcDbSpline
210
0.0
220
0.0
230
1.0
 70
     8
 71
     3
 72
    11
 73
     7
 74
     0
 42
0.000000001
 43
0.0
 40
0.0
 40
0.0
 40
0.0
 40
0.0
 40
0.074728338353977
 40
0.149447765311876
 40
0.224158280873711
 40
0.29885988503949
 40
0.29885988503949
 40
0.29885988503949
 40
0.29885988503949
 10
20.31379537535108
 20
-80.3981981838563
 30
0.0
 10
20.29969267849319
 20
-80.39308680916665
 30
0.0
 10
20.26508717011004
 20
-80.38404573105643
 30
0.0
 10
20.19924895594599
 20
-80.37548522597896
 30
0.0
 10
20.12527201729833
 20
-80.37261912810641
 30
0.0
 10
20.07475057152348
 20
-80.37470462328159
 30
0.0
 10
20.05051316509284
 20
-80.37668285889399
 30
0.0
  0
SPLINE
  5
B4
330
1F
100
AcDbEntity
  8
0
  6
Continuous
 62
    18
370
    30
100
AcDbSpline
210
0.0
220
0.0
230
1.0
 70
     8
 71
     3
 72
    16
 73
    12
 74
     0
 42
0.000000001
 43
0.0
 40
0.000000002807287
 40
0.000000002807287
 40
0.000000002807287
 40
0.000000002807287
 40
0.047599620279615
 40
0.142798860838844
 40
0.285772078867519
 40
0.428695799851689
 40
0.571584324702741
 40
0.714494477924885
 40
0.857434593082553
 40
0.9524781976941841
 40
0.999999930846433
 40
0.999999930846433
 40
0.999999930846433
 40
0.999999930846433
 10
-21.8041815894732
 20
-84.37786044565394
 30
0.0
 10
-21.83391565528817
 20
-84.38411632046677
 30
0.0
 10
-21.923088688052
 20
-84.40289392662706
 30
0.0
 10
-22.0875261762441
 20
-84.44524734809255
 30
0.0
 10
-22.27304352588093
 20
-84.50938739541112
 30
0.0
 10
-22.43007665730924
 20
-84.58958839922866
 30
0.0
 10
-22.53206706036364
 20
-84.67475721998127
 30
0.0
 10
-22.57790183122317
 20
-84.76217420213871
 30
0.0
 10
-22.56984618415792
 20
-84.839520963779
 30
0.0
 10
-22.53363151226646
 20
-84.8961255819811
 30
0.0
 10
-22.50661594863553
 20
-84.92362122758794
 30
0.0
 10
-22.4966133844736
 20
-84.93269245812303
 30
0.0
  0
SPLINE
  5
B5
330
1F
100
AcDbEntity
  8
0
  6
Continuous
 62
    18
370
    30
100
AcDbSpline
210
0.0
220
0.0
230
1.0
 70
     8
 71
     3
 72
    16
 73
    12
 74
     0
 42
0.000000001
 43
0.0
 40
0.000000002807128
 40
0.000000002807128
 40
0.000000002807128
 40
0.000000002807128
 40
0.0475996205758
 40
0.142798861727399
 40
0.285772080049584
 40
0.428695800376455
 40
0.5715843226964219
 40
0.714494472552899
 40
0.857434588455324
 40
0.952478196151775
 40
0.9999999305324151
 40
0.9999999305324151
 40
0.9999999305324151
 40
0.9999999305324151
 10
-24.21626800296682
 20
-83.50362952868002
 30
0.0
 10
-24.24707141864489
 20
-83.50949779910866
 30
0.0
 10
-24.3395087338619
 20
-83.52709221110908
 30
0.0
 10
-24.53742859801824
 20
-83.5573101193807
 30
0.0
 10
-24.81885787810794
 20
-83.58668768342943
 30
0.0
 10
-25.14916176402031
 20
-83.6040883464805
 30
0.0
 10
-25.48126011345463
 20
-83.60585687033546
 30
0.0
 10
-25.80516586481318
 20
-83.59248996065986
 30
0.0
 10
-26.07775001648717
 20
-83.56812187995055
 30
0.0
 10
-26.26849765088904
 20
-83.5424665332225
 30
0.0
 10
-26.35843726787099
 20
-83.5275730899348
 30
0.0
 10
-26.3877956776826
 20
-83.52237838018817
 30
0.0
  0
SPLINE
  5
B6
330
1F
100
AcDbEntity
  8
0
  6
Continuous
 62
    18
370
    30
100
AcDbSpline
210
0.0
220
0.0
230
1.0
 70
    12
 71
     2
 72
     8
 73
     5
 74
     0
 42
0.000000001
 43
0.0
 40
0.0
 40
0.0
 40
0.0
 40
0.5
 40
0.5
 40
1.0
 40
1.0
 40
1.0
 10
-24.71889627205477
 20
-84.28295410181252
 30
0.0
 41
1.0
 10
-19.14134563269514
 20
-86.3044788822159
 30
0.0
 41
0.707106781186548
 10
-27.2575460135968
 20
-87.9299509113687
 30
0.0
 41
1.0
 10
-35.37374639449835
 20
-89.55542294052154
 30
0.0
 41
0.707106781186548
 10
-40.95129703385798
 20
-87.53389816011827
 30
0.0
 41
1.0
  0
SPLINE
  5
B7
330
1F
100
AcDbEntity
  8
0
  6
Continuous
 62
    18
370
    30
100
AcDbSpline
210
0.0
220
0.0
230
1.0
 70
    12
 71
     2
 72
     8
 73
     5
 74
     0
 42
0.000000001
 43
0.0
 40
0.0
 40
0.0
 40
0.0
 40
0.5
 40
0.5
 40
1.0
 40
1.0
 40
1.0
 10
-40.95129703385798
 20
-87.53389816011827
 30
0.0
 41
1.0
 10
-46.52884767321772
 20
-85.51237337971483
 30
0.0
 41
0.707106781186548
 10
-38.41264729231617
 20
-83.88690135056197
 30
0.0
 41
1.0
 10
-30.29644691141462
 20
-82.26142932140911
 30
0.0
 41
0.707106781186548
 10
-24.71889627205477
 20
-84.28295410181252
 30
0.0
 41
1.0
  0
ARC
  5
B8
330
1F
100
AcDbEntity
  8
0
  6
Continuous
 62
    18
370
     0
100
AcDbCircle
 10
-27.18653
 20
-108.031513
 30
0.0
 40
13.17066398476804
100
AcDbArc
 50
70.361883
 51
76.243161
  0
ARC
  5
B9
330
1F
100
AcDbEntity
  8
0
  6
Continuous
 62
    18
370
     0
100
AcDbCircle
 10
-27.400229
 20
-107.919335
 30
0.0
 40
12.63323987867848
100
AcDbArc
 50
70.361883
 51
76.243161
  0
ARC
  5
BA
330
1F
100
AcDbEntity
  8
0
  6
Continuous
 62
    18
370
     0
100
AcDbCircle
 10
-27.5375
 20
-108.104243
 30
0.0
 40
12.27414457147648
100
AcDbArc
 50
70.361883
 51
76.243161
  0
SPLINE
  5
BB
330
1F
100
AcDbEntity
  8
0
  6
Continuous
 62
    18
370
     0
100
AcDbSpline
210
0.0
220
0.0
230
1.0
 70
     8
 71
     3
 72
    11
 73
     7
 74
     0
 42
0.000000001
 43
0.0
 40
0.0
 40
0.0
 40
0.0
 40
0.0
 40
0.5852709660483841
 40
1.17054193209677
 40
1.755812898145157
 40
2.341083864193541
 40
2.341083864193541
 40
2.341083864193541
 40
2.341083864193541
 10
-22.60184363218085
 20
-95.31416265806001
 30
0.0
 10
-22.75771945170712
 20
-95.3480408610094
 30
0.0
 10
-23.07128425093791
 20
-95.49184168222999
 30
0.0
 10
-23.46280544959169
 20
-95.90046048875658
 30
0.0
 10
-23.71931312781832
 20
-96.43940837337607
 30
0.0
 10
-23.77360008781822
 20
-96.83349110451266
 30
0.0
 10
-23.76960334756669
 20
-97.02169491324076
 30
0.0
  0
SPLINE
  5
BC
330
1F
100
AcDbEntity
  8
0
  6
Continuous
 62
    18
370
     0
100
AcDbSpline
210
0.0
220
0.0
230
1.0
 70
     8
 71
     3
 72
    11
 73
     7
 74
     0
 42
0.000000001
 43
0.0
 40
0.0
 40
0.0
 40
0.0
 40
0.0
 40
0.5852709660483841
 40
1.17054193209677
 40
1.755812898145157
 40
2.341083864193541
 40
2.341083864193541
 40
2.341083864193541
 40
2.341083864193541
 10
-22.93247490154071
 20
-95.21024713605371
 30
0.0
 10
-23.08319048420234
 20
-95.24574717201503
 30
0.0
 10
-23.3863218459608
 20
-95.39282716311996
 30
0.0
 10
-23.76465541594386
 20
-95.80559076611402
 30
0.0
 10
-24.01233332244741
 20
-96.34731379762027
 30
0.0
 10
-24.06455560485487
 20
-96.74204544514706
 30
0.0
 10
-24.06055886460346
 20
-96.9302492538751
 30
0.0
  0
SPLINE
  5
BD
330
1F
100
AcDbEntity
  8
0
  6
Continuous
 62
    18
370
     0
100
AcDbSpline
210
0.0
220
0.0
230
1.0
 70
     8
 71
     3
 72
    11
 73
     7
 74
     0
 42
0.000000001
 43
0.0
 40
0.0
 40
0.0
 40
0.0
 40
0.0
 40
0.5852709660483841
 40
1.17054193209677
 40
1.755812898145157
 40
2.341083864193541
 40
2.341083864193541
 40
2.341083864193541
 40
2.341083864193541
 10
-23.2807986614769
 20
-95.11049896051944
 30
0.0
 10
-23.42607787657906
 20
-95.14755578877566
 30
0.0
 10
-23.71821749464542
 20
-95.29778344451134
 30
0.0
 10
-24.08265774954035
 20
-95.71452562431125
 30
0.0
 10
-24.32103339225049
 20
-96.25891251039306
 30
0.0
 10
-24.37108051359886
 20
-96.65426705067696
 30
0.0
 10
-24.36708377334734
 20
-96.8424708594049
 30
0.0
  0
SPLINE
  5
BE
330
1F
100
AcDbEntity
  8
0
  6
Continuous
 62
    18
370
     0
100
AcDbSpline
210
0.0
220
0.0
230
1.0
 70
     8
 71
     3
 72
    19
 73
    15
 74
     0
 42
0.000000001
 43
0.0
 40
0.0102767174658045
 40
0.0102767174658045
 40
0.0102767174658045
 40
0.0102767174658045
 40
0.7789572452960518
 40
1.55888044428416
 40
3.119370864347344
 40
4.680034998686098
 40
6.239872142834051
 40
7.798763126876506
 40
9.3592426135663
 40
10.9210039484179
 40
11.70107763625192
 40
12.09152347847426
 40
12.28877452038433
 40
12.36969272938818
 40
12.36969272938818
 40
12.36969272938818
 40
12.36969272938818
 10
-24.52421863182953
 20
-95.0212788001757
 30
0.0
 10
-24.6028083266782
 20
-94.78295677264423
 30
0.0
 10
-24.75449948392072
 20
-94.30051443653518
 30
0.0
 10
-25.03199011323958
 20
-93.32724241534194
 30
0.0
 10
-25.3221676575719
 20
-92.0970547254802
 30
0.0
 10
-25.55924608472791
 20
-90.61677208931076
 30
0.0
 10
-25.66761459049943
 20
-89.14296002644542
 30
0.0
 10
-25.6252886556421
 20
-87.68869598274034
 30
0.0
 10
-25.44888444187158
 20
-86.26944178805957
 30
0.0
 10
-25.20682449001735
 20
-85.12560394475275
 30
0.0
 10
-24.99842846913388
 20
-84.3494582771254
 30
0.0
 10
-24.88368263197928
 20
-83.96747025104185
 30
0.0
 10
-24.82449243631395
 20
-83.78356852286693
 30
0.0
 10
-24.79931613804541
 20
-83.70760969565863
 30
0.0
 10
-24.79196486340282
 20
-83.68554122508334
 30
0.0
  0
SPLINE
  5
BF
330
1F
100
AcDbEntity
  8
0
  6
Continuous
 62
    18
370
     0
100
AcDbSpline
210
0.0
220
0.0
230
1.0
 70
     8
 71
     3
 72
    18
 73
    14
 74
     0
 42
0.000000001
 43
0.0
 40
0.0102698520650475
 40
0.0102698520650475
 40
0.0102698520650475
 40
0.0102698520650475
 40
0.7789572452960518
 40
1.55888044428416
 40
3.119370864347344
 40
4.680034998686098
 40
6.239872142834051
 40
7.798763126876506
 40
9.3592426135663
 40
10.9210039484179
 40
11.70107763625192
 40
12.09152347847426
 40
12.21068047843126
 40
12.21068047843126
 40
12.21068047843126
 40
12.21068047843126
 10
-24.97776305928404
 20
-95.17339865633575
 30
0.0
 10
-25.05425975930724
 20
-94.93054194352489
 30
0.0
 10
-25.2018534584686
 20
-94.43938463202834
 30
0.0
 10
-25.47254249840265
 20
-93.44727297392205
 30
0.0
 10
-25.75601311393158
 20
-92.19220111199914
 30
0.0
 10
-25.98763407809967
 20
-90.67881969968889
 30
0.0
 10
-26.09392032114105
 20
-89.16984197773965
 30
0.0
 10
-26.05449454835426
 20
-87.68227765890967
 30
0.0
 10
-25.88462922642876
 20
-86.23231357782765
 30
0.0
 10
-25.65088321755119
 20
-85.0648588769024
 30
0.0
 10
-25.44912864779841
 20
-84.27324286386877
 30
0.0
 10
-25.3450026283234
 20
-83.90639570587074
 30
0.0
 10
-25.30117835777971
 20
-83.7625068564294
 30
0.0
 10
-25.29081141361568
 20
-83.72892366934943
 30
0.0
  0
SPLINE
  5
C0
330
1F
100
AcDbEntity
  8
0
  6
Continuous
 62
    18
370
     0
100
AcDbSpline
210
0.0
220
0.0
230
1.0
 70
     8
 71
     3
 72
    17
 73
    13
 74
     0
 42
0.000000001
 43
0.0
 40
0.0102629866642907
 40
0.0102629866642907
 40
0.0102629866642907
 40
0.0102629866642907
 40
0.7789572452960518
 40
1.55888044428416
 40
3.119370864347344
 40
4.680034998686098
 40
6.239872142834051
 40
7.798763126876506
 40
9.3592426135663
 40
10.9210039484179
 40
11.70107763625192
 40
12.02176096320636
 40
12.02176096320636
 40
12.02176096320636
 40
12.02176096320636
 10
-25.42209958874751
 20
-95.3196716463587
 30
0.0
 10
-25.49754934789663
 20
-95.07103108604632
 30
0.0
 10
-25.64305102146804
 20
-94.56857375135411
 30
0.0
 10
-25.9102243886886
 20
-93.55298276098077
 30
0.0
 10
-26.19025914792693
 20
-92.26750868040389
 30
0.0
 10
-26.41862968874833
 20
-90.71468304878252
 30
0.0
 10
-26.52315201078674
 20
-89.1640840294904
 30
0.0
 10
-26.48616403246505
 20
-87.63547466752897
 30
0.0
 10
-26.32129419002812
 20
-86.14543389127516
 30
0.0
 10
-26.09305538672655
 20
-84.94525671807301
 30
0.0
 10
-25.90020669475686
 20
-84.15221281229147
 30
0.0
 10
-25.8139811711917
 20
-83.83004463978912
 30
0.0
 10
-25.78773120198401
 20
-83.73642263334445
 30
0.0
  0
ARC
  5
C1
330
1F
100
AcDbEntity
  8
0
  6
Continuous
 62
    18
370
     0
100
AcDbCircle
 10
-27.528586
 20
-82.954817
 30
0.0
 40
9.40086095601821
100
AcDbArc
 50
275.855944
 51
286.176007
  0
SPLINE
  5
C2
330
1F
100
AcDbEntity
  8
0
  6
Continuous
 62
    18
370
     0
100
AcDbSpline
210
0.0
220
0.0
230
1.0
 70
     8
 71
     3
 72
    11
 73
     7
 74
     0
 42
0.000000001
 43
0.0
 40
0.0000047049574785
 40
0.0000047049574785
 40
0.0000047049574785
 40
0.0000047049574785
 40
0.457605257120869
 40
0.915261454814751
 40
1.372968593081654
 40
1.830506997067252
 40
1.830506997067252
 40
1.830506997067252
 40
1.830506997067252
 10
-25.25389825323098
 20
-89.08490006180715
 30
0.0
 10
-25.37286857703145
 20
-89.10868766429478
 30
0.0
 10
-25.63621543623797
 20
-89.1478357700703
 30
0.0
 10
-26.0691692253594
 20
-89.17527117499932
 30
0.0
 10
-26.50494121610806
 20
-89.16948155789834
 30
0.0
 10
-26.77381928758895
 20
-89.14360955075108
 30
0.0
 10
-26.89634082108298
 20
-89.12585170758292
 30
0.0
  0
SPLINE
  5
C3
330
1F
100
AcDbEntity
  8
0
  6
Continuous
 62
    18
370
     0
100
AcDbSpline
210
0.0
220
0.0
230
1.0
 70
     8
 71
     3
 72
    11
 73
     7
 74
     0
 42
0.000000001
 43
0.0
 40
0.0001942218882086
 40
0.0001942218882086
 40
0.0001942218882086
 40
0.0001942218882086
 40
0.457605257120869
 40
0.915261454814751
 40
1.372968593081654
 40
1.830722814891552
 40
1.830722814891552
 40
1.830722814891552
 40
1.830722814891552
 10
-25.03295277374859
 20
-86.26056618095431
 30
0.0
 10
-25.15419209385966
 20
-86.27484827891001
 30
0.0
 10
-25.42339269795509
 20
-86.28610171628708
 30
0.0
 10
-25.86597612673828
 20
-86.24877455159125
 30
0.0
 10
-26.30928663808454
 20
-86.16084815481994
 30
0.0
 10
-26.57985342734159
 20
-86.07322396097695
 30
0.0
 10
-26.70192807136711
 20
-86.0244976265069
 30
0.0
  0
LINE
  5
C4
330
1F
100
AcDbEntity
  8
0
  6
Continuous
 62
    18
370
     0
100
AcDbLine
 10
-29.867549
 20
-128.369472
 30
0.0
 11
-30.825299
 21
-83.269705
 31
0.0
  0
LINE
  5
C5
330
1F
100
AcDbEntity
  8
0
  6
Continuous
 62
    18
370
     0
100
AcDbLine
 10
-38.100963
 20
-128.991828
 30
0.0
 11
-39.058712
 21
-83.892061
 31
0.0
  0
LINE
  5
C6
330
1F
100
AcDbEntity
  8
0
  6
Continuous
 62
    18
370
     0
100
AcDbLine
 10
-42.685666
 20
-130.936621
 30
0.0
 11
-43.643415
 21
-85.836853
 31
0.0
  0
LINE
  5
C7
330
1F
100
AcDbEntity
  8
0
  6
Continuous
 62
    18
370
     0
100
AcDbLine
 10
15.380012
 20
-87.045097
 30
0.0
 11
-24.020323
 21
-94.935995
 31
0.0
  0
LINE
  5
C8
330
1F
100
AcDbEntity
  8
0
  6
Continuous
 62
    18
370
     0
100
AcDbLine
 10
15.412013
 20
-87.105447
 30
0.0
 11
-23.902006
 21
-94.979059
 31
0.0
  0
LINE
  5
C9
330
1F
100
AcDbEntity
  8
0
  6
Continuous
 62
    18
370
     0
100
AcDbLine
 10
15.450775
 20
-87.150606
 30
0.0
 11
-23.77138
 21
-95.005819
 31
0.0
  0
SPLINE
  5
CA
330
1F
100
AcDbEntity
  8
0
  6
Continuous
 62
    18
370
     0
100
AcDbSpline
210
0.0
220
0.0
230
1.0
 70
     8
 71
     3
 72
    21
 73
    17
 74
     0
 42
0.000000001
 43
0.0
 40
0.0000451958507943
 40
0.0000451958507943
 40
0.0000451958507943
 40
0.0000451958507943
 40
1.916228057630582
 40
3.832456115261163
 40
5.748684172891748
 40
7.664912230522335
 40
9.581140288152913
 40
11.4973683457835
 40
15.31499192676657
 40
19.13261550774964
 40
21.04884356538022
 40
22.9650716230108
 40
24.88129968064139
 40
26.79752773827197
 40
28.71375579590255
 40
30.62998385353313
 40
30.62998385353313
 40
30.62998385353313
 40
30.62998385353313
 10
-26.24582275159466
 20
-83.61994785717602
 30
0.0
 10
-26.76050815795994
 20
-83.52875970720311
 30
0.0
 10
-27.86037683855605
 20
-83.37121074818963
 30
0.0
 10
-29.66197122964824
 20
-83.21821314522231
 30
0.0
 10
-31.56206157536375
 20
-83.15286956915264
 30
0.0
 10
-33.50114338483653
 20
-83.17727054218119
 30
0.0
 10
-35.42002258529286
 20
-83.29078288803785
 30
0.0
 10
-37.86493967596883
 20
-83.55502047697831
 30
0.0
 10
-40.59289844637696
 20
-84.08630361540165
 30
0.0
 10
-42.52130840328849
 20
-84.82064322954182
 30
0.0
 10
-43.44349336935208
 20
-85.47159969475996
 30
0.0
 10
-43.81017618681214
 20
-85.97931377268239
 30
0.0
 10
-43.83719776648176
 20
-86.48930887713632
 30
0.0
 10
-43.52415815955423
 20
-86.98602025118501
 30
0.0
 10
-42.88102372234224
 20
-87.45389772920024
 30
0.0
 10
-42.24438280288613
 20
-87.73735986997434
 30
0.0
 10
-41.88003160482291
 20
-87.86941514356641
 30
0.0
  0
SPLINE
  5
CB
330
1F
100
AcDbEntity
  8
0
  6
Continuous
 62
    18
370
     0
100
AcDbSpline
210
0.0
220
0.0
230
1.0
 70
     8
 71
     3
 72
    21
 73
    17
 74
     0
 42
0.000000001
 43
0.0
 40
0.0000905579519483
 40
0.0000905579519483
 40
0.0000905579519483
 40
0.0000905579519483
 40
1.916228057630582
 40
3.832456115261163
 40
5.748684172891748
 40
7.664912230522335
 40
9.581140288152913
 40
11.4973683457835
 40
15.31499192676657
 40
19.13261550774964
 40
21.04884356538022
 40
22.9650716230108
 40
24.88129968064139
 40
26.79752773827197
 40
28.71375579590255
 40
30.62998385353313
 40
30.62998385353313
 40
30.62998385353313
 40
30.62998385353313
 10
-26.28002443218723
 20
-83.5537273758234
 30
0.0
 10
-26.79215930379794
 20
-83.46299198975107
 30
0.0
 10
-27.88658815948869
 20
-83.30622307488917
 30
0.0
 10
-29.67927719139133
 20
-83.1539817457072
 30
0.0
 10
-31.56999022762549
 20
-83.08896065269045
 30
0.0
 10
-33.49950229728112
 20
-83.11324120224734
 30
0.0
 10
-35.40891146166192
 20
-83.22619334295408
 30
0.0
 10
-37.84176241860511
 20
-83.48912686882517
 30
0.0
 10
-40.55625819042442
 20
-84.01778802328735
 30
0.0
 10
-42.47515107515361
 20
-84.74850353089911
 30
0.0
 10
-43.39278488192864
 20
-85.39624740138609
 30
0.0
 10
-43.75765804951144
 20
-85.90145581317145
 30
0.0
 10
-43.78454627251418
 20
-86.40893399418565
 30
0.0
 10
-43.47305157595398
 20
-86.90319400254648
 30
0.0
 10
-42.83309113026818
 20
-87.3687624156687
 30
0.0
 10
-42.1995921555853
 20
-87.65082561653105
 30
0.0
 10
-41.83703910041132
 20
-87.78222917207626
 30
0.0
  0
SPLINE
  5
CC
330
1F
100
AcDbEntity
  8
0
  6
Continuous
 62
    18
370
     0
100
AcDbSpline
210
0.0
220
0.0
230
1.0
 70
     8
 71
     3
 72
    21
 73
    17
 74
     0
 42
0.000000001
 43
0.0
 40
0.0001359200531019
 40
0.0001359200531019
 40
0.0001359200531019
 40
0.0001359200531019
 40
1.916228057630582
 40
3.832456115261163
 40
5.748684172891748
 40
7.664912230522335
 40
9.581140288152913
 40
11.4973683457835
 40
15.31499192676657
 40
19.13261550774964
 40
21.04884356538022
 40
22.9650716230108
 40
24.88129968064139
 40
26.79752773827197
 40
28.71375579590255
 40
30.62998385353313
 40
30.62998385353313
 40
30.62998385353313
 40
30.62998385353313
 10
-26.32981576060859
 20
-83.51944323682366
 30
0.0
 10
-26.83813883882928
 20
-83.4293840620285
 30
0.0
 10
-27.92443243712477
 20
-83.27378128203853
 30
0.0
 10
-29.70380089218137
 20
-83.12267118213748
 30
0.0
 10
-31.58047979300697
 20
-83.05813271911595
 30
0.0
 10
-33.49566973490509
 20
-83.08223304221136
 30
0.0
 10
-35.39090598872307
 20
-83.19434677666237
 30
0.0
 10
-37.8056987003885
 20
-83.45532863422912
 30
0.0
 10
-40.50004567093701
 20
-83.98006571238528
 30
0.0
 10
-42.40469525059408
 20
-84.7053573612823
 30
0.0
 10
-43.31551776615121
 20
-85.34829324398154
 30
0.0
 10
-43.67768260129939
 20
-85.84975166138662
 30
0.0
 10
-43.70437124194601
 20
-86.353463000277
 30
0.0
 10
-43.39518866714449
 20
-86.84405428062277
 30
0.0
 10
-42.75997843546717
 20
-87.30616693391985
 30
0.0
 10
-42.13118171343789
 20
-87.58613647324879
 30
0.0
 10
-41.77131976927402
 20
-87.7165646638093
 30
0.0
  0
SPLINE
  5
CD
330
1F
100
AcDbEntity
  8
0
  6
Continuous
 62
    18
370
     0
100
AcDbSpline
210
0.0
220
0.0
230
1.0
 70
     8
 71
     3
 72
    11
 73
     7
 74
     0
 42
0.000000001
 43
0.0
 40
0.0
 40
0.0
 40
0.0
 40
0.0
 40
0.097545161008066
 40
0.19509032201613
 40
0.2926354830241921
 40
0.3901616614477004
 40
0.3901616614477004
 40
0.3901616614477004
 40
0.3901616614477004
 10
-33.48949150896343
 20
-83.27918413643104
 30
0.0
 10
-33.49015763233869
 20
-83.2478168349763
 30
0.0
 10
-33.49072445150674
 20
-83.1877904052916
 30
0.0
 10
-33.48909103360999
 20
-83.1221456853689
 30
0.0
 10
-33.48524897420555
 20
-83.090158346215
 30
0.0
 10
-33.48157434028503
 20
-83.09476006485144
 30
0.0
 10
-33.47962528915357
 20
-83.10324071430284
 30
0.0
  0
SPLINE
  5
CE
330
1F
100
AcDbEntity
  8
0
  6
Continuous
 62
    18
370
     0
100
AcDbSpline
210
0.0
220
0.0
230
1.0
 70
     8
 71
     3
 72
    11
 73
     7
 74
     0
 42
0.000000001
 43
0.0
 40
0.0
 40
0.0
 40
0.0
 40
0.0
 40
0.097545161008066
 40
0.19509032201613
 40
0.2926354830241921
 40
0.3897363615598455
 40
0.3897363615598455
 40
0.3897363615598455
 40
0.3897363615598455
 10
-40.44432578176819
 20
-84.21583169840792
 30
0.0
 10
-40.44499190514345
 20
-84.18446439695325
 30
0.0
 10
-40.43733324559233
 20
-84.12333019470529
 30
0.0
 10
-40.40052285882022
 20
-84.05294798991349
 30
0.0
 10
-40.34422789222396
 20
-84.0139422553939
 30
0.0
 10
-40.2991073905323
 20
-84.01289438135404
 30
0.0
 10
-40.27670155382351
 20
-84.01852806744695
 30
0.0
  0
ARC
  5
CF
330
1F
100
AcDbEntity
  8
0
  6
Continuous
 62
    18
370
     0
100
AcDbCircle
 10
-43.534462
 20
-86.071125
 30
0.0
 40
0.2368471792344665
100
AcDbArc
 50
88.380359
 51
180.653325
  0
LINE
  5
D0
330
1F
100
AcDbEntity
  8
0
  6
Continuous
 62
    18
370
     0
100
AcDbLine
 10
-24.325203
 20
-83.554689
 30
0.0
 11
15.138049
 21
-75.651191
 31
0.0
  0
LINE
  5
D1
330
1F
100
AcDbEntity
  8
0
  6
Continuous
 62
    18
370
     0
100
AcDbLine
 10
-24.295294
 20
-83.51678
 30
0.0
 11
15.167962
 21
-75.61328
 31
0.0
  0
LINE
  5
D2
330
1F
100
AcDbEntity
  8
0
  6
Continuous
 62
    18
370
     0
100
AcDbLine
 10
-24.257868
 20
-83.499238
 30
0.0
 11
15.205393
 21
-75.595737
 31
0.0
  0
SPLINE
  5
D3
330
1F
100
AcDbEntity
  8
0
  6
Continuous
 62
    18
370
     0
100
AcDbSpline
210
0.0
220
0.0
230
1.0
 70
     8
 71
     3
 72
    19
 73
    15
 74
     0
 42
0.000000001
 43
0.0
 40
0.0102767176017894
 40
0.0102767176017894
 40
0.0102767176017894
 40
0.0102767176017894
 40
0.7789571841928791
 40
1.558880320254069
 40
3.119370615985988
 40
4.680034628457181
 40
6.239871668358804
 40
7.798762556643865
 40
9.359241931935944
 40
10.92100314127455
 40
11.70107676862516
 40
12.09152257861108
 40
12.28877360494659
 40
12.36969213718369
 40
12.36969213718369
 40
12.36969213718369
 40
12.36969213718369
 10
-21.78913634405576
 20
-96.01257635764897
 30
0.0
 10
-21.76566592954573
 20
-95.81124481698288
 30
0.0
 10
-21.72288094565811
 20
-95.3992880729585
 30
0.0
 10
-21.65632993348246
 20
-94.55070990231172
 30
0.0
 10
-21.60484453859866
 20
-93.44435394638515
 30
0.0
 10
-21.58563940238859
 20
-92.05695833350006
 30
0.0
 10
-21.60311828392359
 20
-90.6160882643153
 30
0.0
 10
-21.65011693785758
 20
-89.12944973226132
 30
0.0
 10
-21.73042315902902
 20
-87.61715396999747
 30
0.0
 10
-21.83083145395555
 20
-86.34919258110702
 30
0.0
 10
-21.92453516436493
 20
-85.46355442196821
 30
0.0
 10
-21.97707690048347
 20
-85.02093497320459
 30
0.0
 10
-22.00279416750191
 20
-84.80625942499302
 30
0.0
 10
-22.01369161671724
 20
-84.71722598812865
 30
0.0
 10
-22.01687156937004
 20
-84.6913404963629
 30
0.0
  0
SPLINE
  5
D4
330
1F
100
AcDbEntity
  8
0
  6
Continuous
 62
    18
370
     0
100
AcDbSpline
210
0.0
220
0.0
230
1.0
 70
     8
 71
     3
 72
    18
 73
    14
 74
     0
 42
0.000000001
 43
0.0
 40
0.0102698521300902
 40
0.0102698521300902
 40
0.0102698521300902
 40
0.0102698521300902
 40
0.7789571841928791
 40
1.558880320254069
 40
3.119370615985988
 40
4.680034628457181
 40
6.239871668358804
 40
7.798762556643865
 40
9.359241931935944
 40
10.92100314127455
 40
11.70107676862516
 40
12.09152257861108
 40
12.21067996004696
 40
12.21067996004696
 40
12.21067996004696
 40
12.21067996004696
 10
-22.0272227929332
 20
-96.24278694451206
 30
0.0
 10
-22.0025393837505
 20
-96.03660177648294
 30
0.0
 10
-21.95746784597661
 20
-95.61527372349575
 30
0.0
 10
-21.88681007422841
 20
-94.74687921972631
 30
0.0
 10
-21.83105277556482
 20
-93.6147565599866
 30
0.0
 10
-21.8076939210437
 20
-92.19378966820634
 30
0.0
 10
-21.8228983557506
 20
-90.71782361151352
 30
0.0
 10
-21.87225493931263
 20
-89.19808133695756
 30
0.0
 10
-21.95816846737174
 20
-87.6554133365959
 30
0.0
 10
-22.06483650640465
 20
-86.36457961756616
 30
0.0
 10
-22.16262899105303
 20
-85.46439629799909
 30
0.0
 10
-22.21468136750199
 20
-85.04094398809495
 30
0.0
 10
-22.2353521734597
 20
-84.87367952950244
 30
0.0
 10
-22.24021168032968
 20
-84.83457757061768
 30
0.0
  0
SPLINE
  5
D5
330
1F
100
AcDbEntity
  8
0
  6
Continuous
 62
    18
370
     0
100
AcDbSpline
210
0.0
220
0.0
230
1.0
 70
     8
 71
     3
 72
    17
 73
    13
 74
     0
 42
0.000000001
 43
0.0
 40
0.0102629866583911
 40
0.0102629866583911
 40
0.0102629866583911
 40
0.0102629866583911
 40
0.7789571841928791
 40
1.558880320254069
 40
3.119370615985988
 40
4.680034628457181
 40
6.239871668358804
 40
7.798762556643865
 40
9.359241931935944
 40
10.92100314127455
 40
11.70107676862516
 40
12.02176032871849
 40
12.02176032871849
 40
12.02176032871849
 40
12.02176032871849
 10
-22.12190726269133
 20
-96.51578782689833
 30
0.0
 10
-22.09802563580217
 20
-96.303148760658
 30
0.0
 10
-22.05451018605359
 20
-95.86919846297815
 30
0.0
 10
-21.98656990638919
 20
-94.97506547637025
 30
0.0
 10
-21.93364661370632
 20
-93.81026814255469
 30
0.0
 10
-21.91218100691814
 20
-92.34799275351438
 30
0.0
 10
-21.9276223046052
 20
-90.82968021517976
 30
0.0
 10
-21.97748600157858
 20
-89.26959261827588
 30
0.0
 10
-22.06365311402218
 20
-87.68856653674234
 30
0.0
 10
-22.16940859643913
 20
-86.36733708863889
 30
0.0
 10
-22.26301052500242
 20
-85.470472416669
 30
0.0
 10
-22.30648775841432
 20
-85.10129490974144
 30
0.0
 10
-22.31933226563871
 20
-84.99350348225255
 30
0.0
  0
SPLINE
  5
D6
330
1F
100
AcDbEntity
  8
0
  6
Continuous
 62
    18
370
     0
100
AcDbSpline
210
0.0
220
0.0
230
1.0
 70
     8
 71
     3
 72
    11
 73
     7
 74
     0
 42
0.000000001
 43
0.0
 40
0.0000240905173194
 40
0.0000240905173194
 40
0.0000240905173194
 40
0.0000240905173194
 40
0.457606203270548
 40
0.91526334692384
 40
1.372971430959883
 40
1.830685559351971
 40
1.830685559351971
 40
1.830685559351971
 40
1.830685559351971
 10
-21.28157692545166
 20
-93.29843886398751
 30
0.0
 10
-21.40540618985455
 20
-93.3333574382
 30
0.0
 10
-21.62949814828497
 20
-93.4211703924994
 30
0.0
 10
-21.85897168154683
 20
-93.5934814793292
 30
0.0
 10
-21.96303907377873
 20
-93.79126635865903
 30
0.0
 10
-21.94205410092687
 20
-93.92884850192023
 30
0.0
 10
-21.90972262675171
 20
-93.99548022015952
 30
0.0
  0
SPLINE
  5
D7
330
1F
100
AcDbEntity
  8
0
  6
Continuous
 62
    18
370
     0
100
AcDbSpline
210
0.0
220
0.0
230
1.0
 70
     8
 71
     3
 72
    11
 73
     7
 74
     0
 42
0.000000001
 43
0.0
 40
0.0000047050362041
 40
0.0000047050362041
 40
0.0000047050362041
 40
0.0000047050362041
 40
0.457606203270548
 40
0.91526334692384
 40
1.372971430959883
 40
1.830510783423213
 40
1.830510783423213
 40
1.830510783423213
 40
1.830510783423213
 10
-21.29016228881839
 20
-90.52150836067995
 30
0.0
 10
-21.40918462876086
 20
-90.54527726520261
 30
0.0
 10
-21.62473794334753
 20
-90.60174795484976
 30
0.0
 10
-21.84814250479898
 20
-90.70513263065038
 30
0.0
 10
-21.95451970826137
 20
-90.81872883400543
 30
0.0
 10
-21.9410596341337
 20
-90.89518722402092
 30
0.0
 10
-21.91375584673976
 20
-90.93173189280905
 30
0.0
  0
SPLINE
  5
D8
330
1F
100
AcDbEntity
  8
0
  6
Continuous
 62
    18
370
     0
100
AcDbSpline
210
0.0
220
0.0
230
1.0
 70
     8
 71
     3
 72
    11
 73
     7
 74
     0
 42
0.000000001
 43
0.0
 40
0.000194221191648
 40
0.000194221191648
 40
0.000194221191648
 40
0.000194221191648
 40
0.457606203270548
 40
0.91526334692384
 40
1.372971430959883
 40
1.830726598395259
 40
1.830726598395259
 40
1.830726598395259
 40
1.830726598395259
 10
-21.40665843923077
 20
-87.57487288586789
 30
0.0
 10
-21.53038424591434
 20
-87.58825399418538
 30
0.0
 10
-21.75468680856753
 20
-87.61578064830016
 30
0.0
 10
-21.98586866603652
 20
-87.65507412644743
 30
0.0
 10
-22.0928824639204
 20
-87.68903500653997
 30
0.0
 10
-22.07450424967259
 20
-87.70613571420607
 30
0.0
 10
-22.04355930131981
 20
-87.71286958222318
 30
0.0
  0
ARC
  5
D9
330
1F
100
AcDbEntity
  8
0
  6
Continuous
 62
    18
370
     0
100
AcDbCircle
 10
-25.131986
 20
-102.34415
 30
0.0
 40
7.12366345555226
100
AcDbArc
 50
61.68599
 51
70.552028
  0
ARC
  5
DA
330
1F
100
AcDbEntity
  8
0
  6
Continuous
 62
    18
370
     0
100
AcDbCircle
 10
-25.42952
 20
-102.464043
 30
0.0
 40
6.832984984867601
100
AcDbArc
 50
61.68599
 51
70.552028
  0
ARC
  5
DB
330
1F
100
AcDbEntity
  8
0
  6
Continuous
 62
    18
370
     0
100
AcDbCircle
 10
-25.622808
 20
-102.804016
 30
0.0
 40
6.638759840239445
100
AcDbArc
 50
61.68599
 51
70.552028
  0
SPLINE
  5
DC
330
1F
100
AcDbEntity
  8
0
  6
Continuous
 62
    18
370
     0
100
AcDbSpline
210
0.0
220
0.0
230
1.0
 70
     8
 71
     3
 72
    11
 73
     7
 74
     0
 42
0.000000001
 43
0.0
 40
0.0
 40
0.0
 40
0.0
 40
0.0
 40
0.5852709660483841
 40
1.17054193209677
 40
1.755812898145157
 40
2.341083864193541
 40
2.341083864193541
 40
2.341083864193541
 40
2.341083864193541
 10
-21.46786031058881
 20
-95.76757806741983
 30
0.0
 10
-21.64143446382472
 20
-95.79437971371163
 30
0.0
 10
-21.99078336812071
 20
-95.92387250734689
 30
0.0
 10
-22.42753486514474
 20
-96.31440629105114
 30
0.0
 10
-22.71432647231442
 20
-96.84124535556964
 30
0.0
 10
-22.77569476481737
 20
-97.23249666474922
 30
0.0
 10
-22.77169802456584
 20
-97.42070047347732
 30
0.0
  0
SPLINE
  5
DD
330
1F
100
AcDbEntity
  8
0
  6
Continuous
 62
    18
370
     0
100
AcDbSpline
210
0.0
220
0.0
230
1.0
 70
     8
 71
     3
 72
    11
 73
     7
 74
     0
 42
0.000000001
 43
0.0
 40
0.0
 40
0.0
 40
0.0
 40
0.0
 40
0.5852709660483841
 40
1.17054193209677
 40
1.755812898145157
 40
2.341083864193541
 40
2.341083864193541
 40
2.341083864193541
 40
2.341083864193541
 10
-21.72200145378773
 20
-95.64896992907896
 30
0.0
 10
-21.89160916882626
 20
-95.67762271936309
 30
0.0
 10
-22.23293836666236
 20
-95.8108583247338
 30
0.0
 10
-22.65955313635008
 20
-96.20612293770529
 30
0.0
 10
-22.93955770161578
 20
-96.73612952714683
 30
0.0
 10
-22.99933897083228
 20
-97.12812150300931
 30
0.0
 10
-22.99534223058075
 20
-97.31632531173733
 30
0.0
  0
SPLINE
  5
DE
330
1F
100
AcDbEntity
  8
0
  6
Continuous
 62
    18
370
     0
100
AcDbSpline
210
0.0
220
0.0
230
1.0
 70
     8
 71
     3
 72
    11
 73
     7
 74
     0
 42
0.000000001
 43
0.0
 40
0.0
 40
0.0
 40
0.0
 40
0.0
 40
0.5852709660483841
 40
1.17054193209677
 40
1.755812898145157
 40
2.341083864193541
 40
2.341083864193541
 40
2.341083864193541
 40
2.341083864193541
 10
-21.99605224873088
 20
-95.53372524077892
 30
0.0
 10
-22.16138279114299
 20
-95.56417668093101
 30
0.0
 10
-22.49406401131242
 20
-95.70104896063012
 30
0.0
 10
-22.9097479330873
 20
-96.10091024758981
 30
0.0
 10
-23.18243375332137
 20
-96.63399453833887
 30
0.0
 10
-23.24050367038243
 20
-97.02670617730527
 30
0.0
 10
-23.23650693013091
 20
-97.21490998603326
 30
0.0
  0
LINE
  5
DF
330
1F
100
AcDbEntity
  8
0
  6
Continuous
 62
    18
370
     0
100
AcDbLine
 10
-33.876902
 20
-134.129265
 30
0.0
 11
-34.834651
 21
-89.029498
 31
0.0
  0
LINE
  5
E0
330
1F
100
AcDbEntity
  8
0
  6
Continuous
 62
    18
370
     0
100
AcDbLine
 10
-25.643489
 20
-133.506909
 30
0.0
 11
-26.601238
 21
-88.407142
 31
0.0
  0
LINE
  5
E1
330
1F
100
AcDbEntity
  8
0
  6
Continuous
 62
    18
370
     0
100
AcDbLine
 10
-21.058786
 20
-131.562117
 30
0.0
 11
-22.016535
 21
-86.462349
 31
0.0
  0
LINE
  5
E2
330
1F
100
AcDbEntity
  8
0
  6
Continuous
 62
    18
370
     0
100
AcDbLine
 10
17.946505
 20
-88.055157
 30
0.0
 11
-21.275752
 21
-95.910399
 31
0.0
  0
LINE
  5
E3
330
1F
100
AcDbEntity
  8
0
  6
Continuous
 62
    18
370
     0
100
AcDbLine
 10
17.983936
 20
-88.037614
 30
0.0
 11
-21.330155
 21
-95.911247
 31
0.0
  0
LINE
  5
E4
330
1F
100
AcDbEntity
  8
0
  6
Continuous
 62
    18
370
     0
100
AcDbLine
 10
18.01385
 20
-87.999704
 30
0.0
 11
-21.386467
 21
-95.890606
 31
0.0
  0
SPLINE
  5
E5
330
1F
100
AcDbEntity
  8
0
  6
Continuous
 62
    18
370
     0
100
AcDbSpline
210
0.0
220
0.0
230
1.0
 70
     8
 71
     3
 72
    21
 73
    17
 74
     0
 42
0.000000001
 43
0.0
 40
0.0
 40
0.0
 40
0.0
 40
0.0
 40
1.916229832651254
 40
3.832459665302508
 40
5.748689497953767
 40
7.664919330605022
 40
9.581149163256274
 40
11.49737899590753
 40
15.31500608565996
 40
19.13263317541239
 40
21.04886300806364
 40
22.9650928407149
 40
24.88132267336616
 40
26.7975525060174
 40
28.71378233866866
 40
30.62996697563484
 40
30.62996697563484
 40
30.62996697563484
 40
30.62996697563484
 10
-41.88003160482302
 20
-87.86941514356641
 30
0.0
 10
-41.51568006925746
 20
-88.00147053948274
 30
0.0
 10
-40.69166686979933
 20
-88.24740707930098
 30
0.0
 10
-39.21407514402032
 20
-88.54816414265622
 30
0.0
 10
-37.53887412589953
 20
-88.7720690564204
 30
0.0
 10
-35.71846024365929
 20
-88.91206929208892
 30
0.0
 10
-33.80826918285178
 20
-88.96378253720977
 30
0.0
 10
-31.22887961094754
 20
-88.91346098878378
 30
0.0
 10
-28.06315346217722
 20
-88.62757170608373
 30
0.0
 10
-25.38871691555406
 20
-88.0768885695908
 30
0.0
 10
-23.74498302770159
 20
-87.52227001727849
 30
0.0
 10
-22.7885521611361
 20
-87.05992834179108
 30
0.0
 10
-22.14301976038409
 20
-86.56669434275673
 30
0.0
 10
-21.82769490027491
 20
-86.05765712424866
 30
0.0
 10
-21.85229549863989
 20
-85.54877079489424
 30
0.0
 10
-22.09529648149606
 20
-85.21961188384192
 30
0.0
 10
-22.27107582676567
 20
-85.06054897120993
 30
0.0
  0
SPLINE
  5
E6
330
1F
100
AcDbEntity
  8
0
  6
Continuous
 62
    18
370
     0
100
AcDbSpline
210
0.0
220
0.0
230
1.0
 70
     8
 71
     3
 72
    21
 73
    17
 74
     0
 42
0.000000001
 43
0.0
 40
0.0
 40
0.0
 40
0.0
 40
0.0
 40
1.916229832651254
 40
3.832459665302508
 40
5.748689497953767
 40
7.664919330605022
 40
9.581149163256274
 40
11.49737899590753
 40
15.31500608565996
 40
19.13263317541239
 40
21.04886300806364
 40
22.9650928407149
 40
24.88132267336616
 40
26.7975525060174
 40
28.71378233866866
 40
30.62992161370045
 40
30.62992161370045
 40
30.62992161370045
 40
30.62992161370045
 10
-41.83703910041155
 20
-87.78222917207631
 30
0.0
 10
-41.47448570940097
 20
-87.9136328493419
 30
0.0
 10
-40.65453917277572
 20
-88.15835564527066
 30
0.0
 10
-39.18423964493403
 20
-88.45762841496156
 30
0.0
 10
-37.51730606442565
 20
-88.68042831512699
 30
0.0
 10
-35.7058762730716
 20
-88.81973762284017
 30
0.0
 10
-33.80511237070758
 20
-88.87119565319998
 30
0.0
 10
-31.23845257996542
 20
-88.82112245124557
 30
0.0
 10
-28.08834989557298
 20
-88.53664408686694
 30
0.0
 10
-25.42711220512152
 20
-87.98867867703845
 30
0.0
 10
-23.79149045857165
 20
-87.43679727342064
 30
0.0
 10
-22.83977976136706
 20
-86.9767373425814
 30
0.0
 10
-22.19743318655018
 20
-86.48593754772381
 30
0.0
 10
-21.88366451497021
 20
-85.97941252530495
 30
0.0
 10
-21.90814351151198
 20
-85.4730416431225
 30
0.0
 10
-22.14993970709125
 20
-85.1455109521879
 30
0.0
 10
-22.3248448497383
 20
-84.98723653259223
 30
0.0
  0
SPLINE
  5
E7
330
1F
100
AcDbEntity
  8
0
  6
Continuous
 62
    18
370
     0
100
AcDbSpline
210
0.0
220
0.0
230
1.0
 70
     8
 71
     3
 72
    21
 73
    17
 74
     0
 42
0.000000001
 43
0.0
 40
0.0
 40
0.0
 40
0.0
 40
0.0
 40
1.916229832651254
 40
3.832459665302508
 40
5.748689497953767
 40
7.664919330605022
 40
9.581149163256274
 40
11.49737899590753
 40
15.31500608565996
 40
19.13263317541239
 40
21.04886300806364
 40
22.9650928407149
 40
24.88132267336616
 40
26.7975525060174
 40
28.71378233866866
 40
30.62987625176606
 40
30.62987625176606
 40
30.62987625176606
 40
30.62987625176606
 10
-41.77131976927425
 20
-87.71656466380935
 30
0.0
 10
-41.41145749176693
 20
-87.84699297518668
 30
0.0
 10
-40.59759714617204
 20
-88.089899275016
 30
0.0
 10
-39.13821116378612
 20
-88.38695064225539
 30
0.0
 10
-37.48365067805063
 20
-88.60809677270115
 30
0.0
 10
-35.68566652888959
 20
-88.74637203365492
 30
0.0
 10
-33.79901136617767
 20
-88.79744810813233
 30
0.0
 10
-31.25140303928018
 20
-88.74774658293865
 30
0.0
 10
-28.12468252170826
 20
-88.4653798070508
 30
0.0
 10
-25.48319831546409
 20
-87.92148176260935
 30
0.0
 10
-23.8597172463349
 20
-87.37369679150106
 30
0.0
 10
-22.91507078179715
 20
-86.91705173285095
 30
0.0
 10
-22.27749213243332
 20
-86.42989498199191
 30
0.0
 10
-21.96605246157416
 20
-85.92712972671706
 30
0.0
 10
-21.99034956691925
 20
-85.42452143363737
 30
0.0
 10
-22.23034549977682
 20
-85.09942562433466
 30
0.0
 10
-22.40394573151416
 20
-84.94232948448402
 30
0.0
  0
SPLINE
  5
E8
330
1F
100
AcDbEntity
  8
0
  6
Continuous
 62
    18
370
     0
100
AcDbSpline
210
0.0
220
0.0
230
1.0
 70
     8
 71
     3
 72
    11
 73
     7
 74
     0
 42
0.000000001
 43
0.0
 40
0.0
 40
0.0
 40
0.0
 40
0.0
 40
0.097545161008066
 40
0.19509032201613
 40
0.2926354830241921
 40
0.3901616521526479
 40
0.3901616521526479
 40
0.3901616521526479
 40
0.3901616521526479
 10
-35.71374487434461
 20
-88.99419808820511
 30
0.0
 10
-35.71441099771986
 20
-88.96283078675032
 30
0.0
 10
-35.71234719364012
 20
-88.89604521316707
 30
0.0
 10
-35.69946368863342
 20
-88.80149443164501
 30
0.0
 10
-35.67882025018049
 20
-88.72633749877365
 30
0.0
 10
-35.66185378293173
 20
-88.69678707510607
 30
0.0
 10
-35.65333128250086
 20
-88.68837785011974
 30
0.0
  0
SPLINE
  5
E9
330
1F
100
AcDbEntity
  8
0
  6
Continuous
 62
    18
370
     0
100
AcDbSpline
210
0.0
220
0.0
230
1.0
 70
     8
 71
     3
 72
    11
 73
     7
 74
     0
 42
0.000000001
 43
0.0
 40
0.0
 40
0.0
 40
0.0
 40
0.0
 40
0.097545161008066
 40
0.19509032201613
 40
0.2926354830241921
 40
0.3897363598761726
 40
0.3897363598761726
 40
0.3897363598761726
 40
0.3897363598761726
 10
-28.15128092739477
 20
-88.67131040147396
 30
0.0
 10
-28.15194705076991
 20
-88.63994310001931
 30
0.0
 10
-28.15882736869529
 20
-88.57353940552775
 30
0.0
 10
-28.18419417253077
 20
-88.48062176286439
 30
0.0
 10
-28.22062241986724
 20
-88.408009521117
 30
0.0
 10
-28.24877816750032
 20
-88.38040347758522
 30
0.0
 10
-28.26254754967675
 20
-88.37292585388131
 30
0.0
  0
SPLINE
  5
EA
330
1F
100
AcDbEntity
  8
0
  6
Continuous
 62
    18
370
     0
100
AcDbSpline
210
0.0
220
0.0
230
1.0
 70
     8
 71
     3
 72
    11
 73
     7
 74
     0
 42
0.000000001
 43
0.0
 40
0.0
 40
0.0
 40
0.0
 40
0.0
 40
0.097545161008066
 40
0.19509032201613
 40
0.2926354830241921
 40
0.3901619691079353
 40
0.3901619691079353
 40
0.3901619691079353
 40
0.3901619691079353
 10
-22.81799008960619
 20
-87.14694941718815
 30
0.0
 10
-22.81865621298156
 20
-87.11558211573342
 30
0.0
 10
-22.83184421108562
 20
-87.05098128215056
 30
0.0
 10
-22.88418635300153
 20
-86.96577372959072
 30
0.0
 10
-22.96095387237978
 20
-86.90457032304523
 30
0.0
 10
-23.02105078211721
 20
-86.88605881064014
 30
0.0
 10
-23.05063985725439
 20
-86.88310888533722
 30
0.0
  0
LINE
  5
EB
330
1F
100
AcDbEntity
  8
0
  6
Continuous
 62
    18
370
     0
100
AcDbLine
 10
17.771886
 20
-76.605797
 30
0.0
 11
-21.691343
 21
-84.5093
 31
0.0
  0
LINE
  5
EC
330
1F
100
AcDbEntity
  8
0
  6
Continuous
 62
    18
370
     0
100
AcDbLine
 10
17.739886
 20
-76.545447
 30
0.0
 11
-21.723348
 21
-84.44895
 31
0.0
  0
LINE
  5
ED
330
1F
100
AcDbEntity
  8
0
  6
Continuous
 62
    18
370
     0
100
AcDbLine
 10
17.701123
 20
-76.500288
 30
0.0
 11
-21.762115
 21
-84.403792
 31
0.0
  0
LINE
  5
EE
330
1F
100
AcDbEntity
  8
0
  6
Continuous
 62
    18
370
     0
100
AcDbLine
 10
14.702391
 20
-78.298312
 30
0.0
 11
-25.03212
 21
-86.256137
 31
0.0
  0
LINE
  5
EF
330
1F
100
AcDbEntity
  8
0
  6
Continuous
 62
    18
370
     0
100
AcDbLine
 10
14.594078
 20
-81.107139
 30
0.0
 11
-25.253508
 21
-89.08761
 31
0.0
  0
LINE
  5
F0
330
1F
100
AcDbEntity
  8
0
  6
Continuous
 62
    18
370
     0
100
AcDbLine
 10
14.824294
 20
-84.038662
 30
0.0
 11
-24.907034
 21
-91.99585
 31
0.0
  0
LINE
  5
F1
330
1F
100
AcDbEntity
  8
0
  6
Continuous
 62
    18
370
     0
100
AcDbLine
 10
18.327604
 20
-79.612233
 30
0.0
 11
-21.406882
 21
-87.57006
 31
0.0
  0
LINE
  5
F2
330
1F
100
AcDbEntity
  8
0
  6
Continuous
 62
    18
370
     0
100
AcDbLine
 10
18.55782
 20
-82.543756
 30
0.0
 11
-21.289741
 21
-90.524229
 31
0.0
  0
LINE
  5
F3
330
1F
100
AcDbEntity
  8
0
  6
Continuous
 62
    18
370
     0
100
AcDbLine
 10
18.449507
 20
-85.352583
 30
0.0
 11
-21.281797
 21
-93.309773
 31
0.0
  0
LINE
  5
F4
330
1F
100
AcDbEntity
  8
0
  6
Continuous
 62
    18
370
     0
100
AcDbLine
 10
22.396569
 20
-83.562845
 30
0.0
 11
19.984504
 21
-82.688618
 31
0.0
  0
LINE
  5
F5
330
1F
100
AcDbEntity
  8
0
  6
Continuous
 62
    18
370
     0
100
AcDbLine
 10
21.364749
 20
-85.655309
 30
0.0
 11
18.952684
 21
-84.781081
 31
0.0
  0
LINE
  5
F6
330
1F
100
AcDbEntity
  8
0
  6
Continuous
 62
    18
370
     0
100
AcDbLine
 10
19.787485
 20
-87.231257
 30
0.0
 11
17.37542
 21
-86.35703
 31
0.0
  0
SPLINE
  5
F7
330
1F
100
AcDbEntity
  8
0
  6
Continuous
 62
    18
370
     0
100
AcDbSpline
210
0.0
220
0.0
230
1.0
 70
    12
 71
     2
 72
     8
 73
     5
 74
     0
 42
0.000000001
 43
0.0
 40
-0.00000002
 40
-0.00000002
 40
-0.00000002
 40
7.853981633976113
 40
7.853981633976113
 40
15.7079632879518
 40
15.7079632879518
 40
15.7079632879518
 10
14.60681414460814
 20
-79.68114402608583
 30
0.0
 41
1.000000001491693
 10
15.83821931418569
 20
-79.43452435085834
 30
0.0
 41
0.7071067804407014
 10
15.86883575072019
 20
-80.8762317431219
 30
0.0
 41
1.0
 10
15.89945218725549
 20
-82.31793913538547
 30
0.0
 41
0.7071067804407014
 10
14.66804701745784
 20
-82.5645588002289
 30
0.0
 41
1.000000001491693
  0
SPLINE
  5
F8
330
1F
100
AcDbEntity
  8
0
  6
Continuous
 62
    18
370
     0
100
AcDbSpline
210
0.0
220
0.0
230
1.0
 70
    12
 71
     2
 72
     8
 73
     5
 74
     0
 42
0.000000001
 43
0.0
 40
-0.00000002
 40
-0.00000002
 40
-0.00000002
 40
7.853981633976113
 40
7.853981633976113
 40
15.7079632879518
 40
15.7079632879518
 40
15.7079632879518
 10
14.70239089108699
 20
-78.29831192601813
 30
0.0
 41
1.000000001491693
 10
17.15389272957916
 20
-77.80733738557822
 30
0.0
 41
0.7071067804407011
 10
17.21484443930703
 20
-80.6775123775468
 30
0.0
 41
1.0
 10
17.27579614903524
 20
-83.54768736951524
 30
0.0
 41
0.7071067804407011
 10
14.82429431010448
 20
-84.03866188928268
 30
0.0
 41
1.000000001491693
  0
SPLINE
  5
F9
330
1F
100
AcDbEntity
  8
0
  6
Continuous
 62
    18
370
     0
100
AcDbSpline
210
0.0
220
0.0
230
1.0
 70
    12
 71
     2
 72
     8
 73
     5
 74
     0
 42
0.000000001
 43
0.0
 40
-0.00000002
 40
-0.00000002
 40
-0.00000002
 40
7.853981633976113
 40
7.853981633976113
 40
15.7079632879518
 40
15.7079632879518
 40
15.7079632879518
 10
14.87487266067248
 20
-76.96962906769303
 30
0.0
 41
1.000000001491693
 10
18.52385412675821
 20
-76.23882929008076
 30
0.0
 41
0.707106780440701
 10
18.61457878200108
 20
-80.51099224981132
 30
0.0
 41
1.0
 10
18.70530343724394
 20
-84.7831552095416
 30
0.0
 41
0.707106780440701
 10
15.05632197050497
 20
-85.5139549563834
 30
0.0
 41
1.000000001491693
  0
SPLINE
  5
FA
330
1F
100
AcDbEntity
  8
0
  6
Continuous
 62
    18
370
     0
100
AcDbSpline
210
0.0
220
0.0
230
1.0
 70
     8
 71
     3
 72
     8
 73
     4
 74
     0
 42
0.000000001
 43
0.0
 40
5.099019493591889
 40
5.099019493591889
 40
5.099019493591889
 40
5.099019493591889
 40
10.05530577196187
 40
10.05530577196187
 40
10.05530577196187
 40
10.05530577196187
 10
14.59407832442443
 20
-81.10713886382965
 30
0.0
 10
15.72792559074693
 20
-79.51293250383085
 30
0.0
 10
17.09851114521902
 20
-78.00452945492694
 30
0.0
 10
18.55634592015187
 20
-76.6748375899218
 30
0.0
  0
SPLINE
  5
FB
330
1F
100
AcDbEntity
  8
0
  6
Continuous
 62
    18
370
     0
100
AcDbSpline
210
0.0
220
0.0
230
1.0
 70
     8
 71
     3
 72
     8
 73
     4
 74
     0
 42
0.000000001
 43
0.0
 40
5.099019493591889
 40
5.099019493591889
 40
5.099019493591889
 40
5.099019493591889
 40
10.05530577196187
 40
10.05530577196187
 40
10.05530577196187
 40
10.05530577196187
 10
14.59407831824407
 20
-81.10713884851734
 30
0.0
 10
16.23846490102616
 20
-80.77780932500747
 30
0.0
 10
18.11958977211097
 20
-80.53428311296642
 30
0.0
 10
20.05051317679974
 20
-80.3766828579347
 30
0.0
  0
SPLINE
  5
FC
330
1F
100
AcDbEntity
  8
0
  6
Continuous
 62
    18
370
     0
100
AcDbSpline
210
0.0
220
0.0
230
1.0
 70
     8
 71
     3
 72
     8
 73
     4
 74
     0
 42
0.000000001
 43
0.0
 40
5.099019493591889
 40
5.099019493591889
 40
5.099019493591889
 40
5.099019493591889
 40
10.05530577196187
 40
10.05530577196187
 40
10.05530577196187
 40
10.05530577196187
 10
14.59407832372457
 20
-81.10713883086947
 30
0.0
 10
15.78574485853241
 20
-82.23560291280768
 30
0.0
 10
17.2141496815087
 20
-83.44987030664558
 30
0.0
 10
18.72556238397689
 20
-84.6431269925649
 30
0.0
  0
LINE
  5
FD
330
1F
100
AcDbEntity
  8
0
  6
Continuous
 62
    18
370
     0
100
AcDbLine
 10
19.890426
 20
-78.258517
 30
0.0
 11
22.30249
 21
-79.132745
 31
0.0
  0
LINE
  5
FE
330
1F
100
AcDbEntity
  8
0
  6
Continuous
 62
    18
370
     0
100
AcDbLine
 10
18.77885
 20
-76.595323
 30
0.0
 11
21.190914
 21
-77.46955
 31
0.0
  0
LINE
  5
FF
330
1F
100
AcDbEntity
  8
0
  6
Continuous
 62
    18
370
     0
100
AcDbLine
 10
17.148294
 20
-75.661821
 30
0.0
 11
19.560359
 21
-76.536048
 31
0.0
  0
SPLINE
  5
100
330
1F
100
AcDbEntity
  8
0
  6
Continuous
 62
    18
370
     0
100
AcDbSpline
210
0.0
220
0.0
230
1.0
 70
     8
 71
     3
 72
     8
 73
     4
 74
     0
 42
0.000000001
 43
0.0
 40
5.099019493591889
 40
5.099019493591889
 40
5.099019493591889
 40
5.099019493591889
 40
10.0553057719714
 40
10.0553057719714
 40
10.0553057719714
 40
10.0553057719714
 10
18.55781989074544
 20
-82.54375545730139
 30
0.0
 10
19.69166716089055
 20
-80.94954909868429
 30
0.0
 10
20.5887761435558
 20
-79.2695394280286
 30
0.0
 10
21.23228883858971
 20
-77.6447050586873
 30
0.0
  0
SPLINE
  5
101
330
1F
100
AcDbEntity
  8
0
  6
Continuous
 62
    18
370
     0
100
AcDbSpline
210
0.0
220
0.0
230
1.0
 70
     8
 71
     3
 72
     8
 73
     4
 74
     0
 42
0.000000001
 43
0.0
 40
5.099019493591889
 40
5.099019493591889
 40
5.099019493591889
 40
5.099019493591889
 40
10.0553057719714
 40
10.0553057719714
 40
10.0553057719714
 40
10.0553057719714
 10
18.55781988456485
 20
-82.54375544198899
 30
0.0
 10
20.20220647117091
 20
-82.21442591986323
 30
0.0
 10
21.60985477044832
 20
-81.79929308607251
 30
0.0
 10
22.72645609523883
 20
-81.34655032670653
 30
0.0
  0
SPLINE
  5
102
330
1F
100
AcDbEntity
  8
0
  6
Continuous
 62
    18
370
     0
100
AcDbSpline
210
0.0
220
0.0
230
1.0
 70
     8
 71
     3
 72
     8
 73
     4
 74
     0
 42
0.000000001
 43
0.0
 40
5.099019493591889
 40
5.099019493591889
 40
5.099019493591889
 40
5.099019493591889
 40
10.0553057719714
 40
10.0553057719714
 40
10.0553057719714
 40
10.0553057719714
 10
18.55781989004547
 20
-82.54375542434119
 30
0.0
 10
19.74948642867648
 20
-83.67221950766611
 30
0.0
 10
20.70441467984469
 20
-84.71488027975744
 30
0.0
 10
21.40150530241394
 20
-85.6129944613447
 30
0.0
  0
SPLINE
  5
103
330
1F
100
AcDbEntity
  8
0
  6
Continuous
 62
    18
370
     0
100
AcDbSpline
210
0.0
220
0.0
230
1.0
 70
    12
 71
     2
 72
     8
 73
     5
 74
     0
 42
0.000000001
 43
0.0
 40
-0.00000002
 40
-0.00000002
 40
-0.00000002
 40
7.853981633975665
 40
7.853981633975665
 40
15.7079632879518
 40
15.7079632879518
 40
15.7079632879518
 10
18.48385121629494
 20
-81.08633548407718
 30
0.0
 41
1.000000001491693
 10
19.71525638587352
 20
-80.83971580884881
 30
0.0
 41
0.7071067804407011
 10
19.74587282240836
 20
-82.28142320111502
 30
0.0
 41
1.0
 10
19.77648925894377
 20
-83.72313059338123
 30
0.0
 41
0.707106780440702
 10
18.54508408914418
 20
-83.96975025822553
 30
0.0
 41
1.000000001491693
  0
SPLINE
  5
104
330
1F
100
AcDbEntity
  8
0
  6
Continuous
 62
    18
370
     0
100
AcDbSpline
210
0.0
220
0.0
230
1.0
 70
    12
 71
     2
 72
     8
 73
     5
 74
     0
 42
0.000000001
 43
0.0
 40
-0.00000002
 40
-0.00000002
 40
-0.00000002
 40
7.853981633975665
 40
7.853981633975665
 40
15.7079632879518
 40
15.7079632879518
 40
15.7079632879518
 10
18.32760391485996
 20
-79.61223239678046
 30
0.0
 41
1.000000001491693
 10
20.77910575335486
 20
-79.12125785633896
 30
0.0
 41
0.7071067804407014
 10
20.8400574630825
 20
-81.99143284831266
 30
0.0
 41
1.0
 10
20.90100917281106
 20
-84.86160784028647
 30
0.0
 41
0.707106780440702
 10
18.44950733387677
 20
-85.35258236005555
 30
0.0
 41
1.000000001491693
  0
SPLINE
  5
105
330
1F
100
AcDbEntity
  8
0
  6
Continuous
 62
    18
370
     0
100
AcDbSpline
210
0.0
220
0.0
230
1.0
 70
    12
 71
     2
 72
     8
 73
     5
 74
     0
 42
0.000000001
 43
0.0
 40
-0.00000002
 40
-0.00000002
 40
-0.00000002
 40
7.853981633975665
 40
7.853981633975665
 40
15.7079632879518
 40
15.7079632879518
 40
15.7079632879518
 10
18.09557624583371
 20
-78.1369393314042
 30
0.0
 41
1.000000001491694
 10
21.74455771192422
 20
-77.40613955378981
 30
0.0
 41
0.7071067804407019
 10
21.8352823671664
 20
-81.67830251352783
 30
0.0
 41
1.0
 10
21.92600702240949
 20
-85.95046547326615
 30
0.0
 41
0.707106780440702
 10
18.27702555566552
 20
-86.6812652201101
 30
0.0
 41
1.000000001491694
  0
SPLINE
  5
106
330
1F
100
AcDbEntity
  8
0
  6
Continuous
 62
    18
370
     0
100
AcDbSpline
210
0.0
220
0.0
230
1.0
 70
     8
 71
     3
 72
    11
 73
     7
 74
     0
 42
0.000000001
 43
0.0
 40
0.0
 40
0.0
 40
0.0
 40
0.0
 40
2.319113045898096
 40
4.63382755517508
 40
6.948645772378891
 40
9.26790437129863
 40
9.26790437129863
 40
9.26790437129863
 40
9.26790437129863
 10
22.75848890798861
 20
-81.28942676360398
 30
0.0
 10
22.74252084313238
 20
-80.53766396908796
 30
0.0
 10
22.45376820310557
 20
-79.0710250098609
 30
0.0
 10
21.31453216146915
 20
-77.36972342068597
 30
0.0
 10
19.64622605159227
 20
-76.41249041871964
 30
0.0
 10
18.34324854084454
 20
-76.3717441702099
 30
0.0
 10
17.70111601673531
 20
-76.50028193496658
 30
0.0
  0
SPLINE
  5
107
330
1F
100
AcDbEntity
  8
0
  6
Continuous
 62
    18
370
     0
100
AcDbSpline
210
0.0
220
0.0
230
1.0
 70
     8
 71
     3
 72
    11
 73
     7
 74
     0
 42
0.000000001
 43
0.0
 40
0.0
 40
0.0
 40
0.0
 40
0.0
 40
2.319113045898096
 40
4.63382755517508
 40
6.948645772378891
 40
9.26790437129863
 40
9.26790437129863
 40
9.26790437129863
 40
9.26790437129863
 10
22.76981166653533
 20
-81.30859593241613
 30
0.0
 10
22.75391869676955
 20
-80.56051938308383
 30
0.0
 10
22.46607676489154
 20
-79.1005275985006
 30
0.0
 10
21.33351363755
 20
-77.41052827876453
 30
0.0
 10
19.6760382506977
 20
-76.45857629362874
 30
0.0
 10
18.37887193027561
 20
-76.41754168344136
 30
0.0
 10
17.73987706428679
 20
-76.54543414729164
 30
0.0
  0
SPLINE
  5
108
330
1F
100
AcDbEntity
  8
0
  6
Continuous
 62
    18
370
     0
100
AcDbSpline
210
0.0
220
0.0
230
1.0
 70
     8
 71
     3
 72
    11
 73
     7
 74
     0
 42
0.000000001
 43
0.0
 40
0.0
 40
0.0
 40
0.0
 40
0.0
 40
2.319113045898096
 40
4.63382755517508
 40
6.948645772378891
 40
9.26790437129863
 40
9.26790437129863
 40
9.26790437129863
 40
9.26790437129863
 10
22.75880900286731
 20
-81.3282215584984
 30
0.0
 10
22.74304427358445
 20
-80.58620002997162
 30
0.0
 10
22.45709825965784
 20
-79.13754350484572
 30
0.0
 10
21.33463707845041
 20
-77.46383215320353
 30
0.0
 10
19.69291034877537
 20
-76.51996350743954
 30
0.0
 10
18.40571483507605
 20
-76.47889772315332
 30
0.0
 10
17.77188115831606
 20
-76.60578558016121
 30
0.0
  0
SPLINE
  5
109
330
1F
100
AcDbEntity
  8
0
  6
Continuous
 62
    18
370
     0
100
AcDbSpline
210
0.0
220
0.0
230
1.0
 70
     8
 71
     3
 72
    11
 73
     7
 74
     0
 42
0.000000001
 43
0.0
 40
0.0000000000022209
 40
0.0000000000022209
 40
0.0000000000022209
 40
0.0000000000022209
 40
0.074728338354657
 40
0.149447765313237
 40
0.224158280875756
 40
0.2987168876652964
 40
0.2987168876652964
 40
0.2987168876652964
 40
0.2987168876652964
 10
22.30328181676063
 20
-79.13471347089356
 30
0.0
 10
22.31723772967901
 20
-79.1394686151555
 30
0.0
 10
22.33963003872042
 20
-79.15296161982597
 30
0.0
 10
22.35298100606551
 20
-79.18313372505773
 30
0.0
 10
22.34513109412039
 20
-79.2205309271984
 30
0.0
 10
22.32611578183668
 20
-79.2481648757486
 30
0.0
 10
22.31370356865243
 20
-79.26192061627587
 30
0.0
  0
SPLINE
  5
10A
330
1F
100
AcDbEntity
  8
0
  6
Continuous
 62
    18
370
     0
100
AcDbSpline
210
0.0
220
0.0
230
1.0
 70
     8
 71
     3
 72
    11
 73
     7
 74
     0
 42
0.000000001
 43
0.0
 40
0.0
 40
0.0
 40
0.0
 40
0.0
 40
0.074728338354657
 40
0.149447765313237
 40
0.224158280875756
 40
0.2988598834319308
 40
0.2988598834319308
 40
0.2988598834319308
 40
0.2988598834319308
 10
21.19083778618321
 20
-77.46949182022755
 30
0.0
 10
21.20495245381173
 20
-77.47461705230899
 30
0.0
 10
21.2290711514963
 20
-77.49096516275978
 30
0.0
 10
21.24900580887774
 20
-77.5313746385242
 30
0.0
 10
21.25112461618174
 20
-77.58405332423294
 30
0.0
 10
21.2404305144975
 20
-77.6243842234363
 30
0.0
 10
21.23236371043372
 20
-77.6447866928344
 30
0.0
  0
SPLINE
  5
10B
330
1F
100
AcDbEntity
  8
0
  6
Continuous
 62
    18
370
     0
100
AcDbSpline
210
0.0
220
0.0
230
1.0
 70
     8
 71
     3
 72
    11
 73
     7
 74
     0
 42
0.000000001
 43
0.0
 40
0.0
 40
0.0
 40
0.0
 40
0.0
 40
0.074728338354657
 40
0.149447765313237
 40
0.224158280875756
 40
0.298709113101273
 40
0.298709113101273
 40
0.298709113101273
 40
0.298709113101273
 10
19.55842718096457
 20
-76.53550601665262
 30
0.0
 10
19.57287821049576
 20
-76.54075955580609
 30
0.0
 10
19.59974006891875
 20
-76.55852993981844
 30
0.0
 10
19.62960952925684
 20
-76.60435227830914
 30
0.0
 10
19.64660105940346
 20
-76.66520109888704
 30
0.0
 10
19.64832066250629
 20
-76.71235441771249
 30
0.0
 10
19.64676237134439
 20
-76.73633072561368
 30
0.0
  0
SPLINE
  5
10C
330
1F
100
AcDbEntity
  8
0
  6
Continuous
 62
    18
370
     0
100
AcDbSpline
210
0.0
220
0.0
230
1.0
 70
     8
 71
     3
 72
    11
 73
     7
 74
     0
 42
0.000000001
 43
0.0
 40
0.0000000149699965
 40
0.0000000149699965
 40
0.0000000149699965
 40
0.0000000149699965
 40
2.319113045888732
 40
4.633827555156133
 40
6.948645772350434
 40
9.26790437126061
 40
9.26790437126061
 40
9.26790437126061
 40
9.26790437126061
 10
17.94649809774516
 20
-88.05515840495109
 30
0.0
 10
18.58860205239274
 20
-87.92655678791027
 30
0.0
 10
19.87880634161317
 20
-87.3665587549631
 30
0.0
 10
21.49251948975572
 20
-85.75187770560848
 30
0.0
 10
22.55005718110178
 20
-83.61064501644495
 30
0.0
 10
22.77440740112419
 20
-82.04122832260154
 30
0.0
 10
22.75848890797803
 20
-81.28942676360867
 30
0.0
  0
SPLINE
  5
10D
330
1F
100
AcDbEntity
  8
0
  6
Continuous
 62
    18
370
     0
100
AcDbSpline
210
0.0
220
0.0
230
1.0
 70
     8
 71
     3
 72
    11
 73
     7
 74
     0
 42
0.000000001
 43
0.0
 40
0.0000000299399533
 40
0.0000000299399533
 40
0.0000000299399533
 40
0.0000000299399533
 40
2.319113045888732
 40
4.633827555156133
 40
6.948645772350434
 40
9.26790437126061
 40
9.26790437126061
 40
9.26790437126061
 40
9.26790437126061
 10
17.98392786085476
 20
-88.037620746595
 30
0.0
 10
18.62288235682248
 20
-87.9096467257155
 30
0.0
 10
19.90729285879307
 20
-87.3517117466284
 30
0.0
 10
21.51042887761875
 20
-85.74667521211614
 30
0.0
 10
22.56185826204987
 20
-83.61923032291267
 30
0.0
 10
22.78562530068231
 20
-82.0567340665211
 30
0.0
 10
22.76981166652476
 20
-81.30859593242087
 30
0.0
  0
SPLINE
  5
10E
330
1F
100
AcDbEntity
  8
0
  6
Continuous
 62
    18
370
     0
100
AcDbSpline
210
0.0
220
0.0
230
1.0
 70
     8
 71
     3
 72
    11
 73
     7
 74
     0
 42
0.000000001
 43
0.0
 40
0.0000000449099101
 40
0.0000000449099101
 40
0.0000000449099101
 40
0.0000000449099101
 40
2.319113045888732
 40
4.633827555156133
 40
6.948645772350434
 40
9.26790437126061
 40
9.26790437126061
 40
9.26790437126061
 40
9.26790437126061
 10
18.01384529322412
 20
-87.99971211528037
 30
0.0
 10
18.64762714128486
 20
-87.87277401959295
 30
0.0
 10
19.9221116924422
 20
-87.31876615729058
 30
0.0
 10
21.50992575674101
 20
-85.72821617367003
 30
0.0
 10
22.55215183716663
 20
-83.62086468803844
 30
0.0
 10
22.77450850616557
 20
-82.07031928233917
 30
0.0
 10
22.75880900285662
 20
-81.32822155850309
 30
0.0
  0
SPLINE
  5
10F
330
1F
100
AcDbEntity
  8
0
  6
Continuous
 62
    18
370
     0
100
AcDbSpline
210
0.0
220
0.0
230
1.0
 70
     8
 71
     3
 72
    11
 73
     7
 74
     0
 42
0.000000001
 43
0.0
 40
0.0
 40
0.0
 40
0.0
 40
0.0
 40
0.074728338354114
 40
0.14944776531215
 40
0.224158280874122
 40
0.2987170171232708
 40
0.2987170171232708
 40
0.2987170171232708
 40
0.2987170171232708
 10
19.78569397227668
 20
-87.23249370103483
 30
0.0
 10
19.80012192541253
 20
-87.23737664249614
 30
0.0
 10
19.8266501171249
 20
-87.24094115358207
 30
0.0
 10
19.85521679469591
 20
-87.2269515790785
 30
0.0
 10
19.87019096692528
 20
-87.19502134221472
 30
0.0
 10
19.8701885187601
 20
-87.16352427177456
 30
0.0
 10
19.86771944587102
 20
-87.14608330805453
 30
0.0
  0
SPLINE
  5
110
330
1F
100
AcDbEntity
  8
0
  6
Continuous
 62
    18
370
     0
100
AcDbSpline
210
0.0
220
0.0
230
1.0
 70
     8
 71
     3
 72
    11
 73
     7
 74
     0
 42
0.000000001
 43
0.0
 40
0.0
 40
0.0
 40
0.0
 40
0.0
 40
0.074728338354114
 40
0.14944776531215
 40
0.224158280874122
 40
0.2988598833160051
 40
0.2988598833160051
 40
0.2988598833160051
 40
0.2988598833160051
 10
21.36480933522282
 20
-85.6552089965825
 30
0.0
 10
21.37889884465775
 20
-85.66033653945846
 30
0.0
 10
21.40274543220013
 20
-85.66638854317017
 30
0.0
 10
21.42164325817257
 20
-85.66178811544052
 30
0.0
 10
21.42219135106537
 20
-85.64402585606982
 30
0.0
 10
21.41018166208717
 20
-85.62435620623071
 30
0.0
 10
21.40142494602784
 20
-85.6130961655668
 30
0.0
  0
SPLINE
  5
111
330
1F
100
AcDbEntity
  8
0
  6
Continuous
 62
    18
370
     0
100
AcDbSpline
210
0.0
220
0.0
230
1.0
 70
     8
 71
     3
 72
    11
 73
     7
 74
     0
 42
0.000000001
 43
0.0
 40
0.0
 40
0.0
 40
0.0
 40
0.0
 40
0.074728338354114
 40
0.14944776531215
 40
0.224158280874122
 40
0.2987091110374689
 40
0.2987091110374689
 40
0.2987091110374689
 40
0.2987091110374689
 10
22.39731109764463
 20
-83.56044893943641
 30
0.0
 10
22.41125071846565
 20
-83.5659937093775
 30
0.0
 10
22.43349993323076
 20
-83.57553680762089
 30
0.0
 10
22.44631764350376
 20
-83.58366222067667
 30
0.0
 10
22.43769732896812
 20
-83.58496641637923
 30
0.0
 10
22.41807094600543
 20
-83.58118771446716
 30
0.0
 10
22.40534026519819
 20
-83.57824857175223
 30
0.0
  0
SPLINE
  5
112
330
1F
100
AcDbEntity
  8
0
  6
Continuous
 62
    18
370
     0
100
AcDbSpline
210
0.0
220
0.0
230
1.0
 70
     8
 71
     3
 72
    11
 73
     7
 74
     0
 42
0.000000001
 43
0.0
 40
0.0000000470227564
 40
0.0000000470227564
 40
0.0000000470227564
 40
0.0000000470227564
 40
2.31911304588724
 40
4.633827555153279
 40
6.948645772346363
 40
9.267904371254838
 40
9.267904371254838
 40
9.267904371254838
 40
9.267904371254838
 10
15.13805302476697
 20
-75.6511821521625
 30
0.0
 10
15.77183765627811
 20
-75.52425837175947
 30
0.0
 10
17.05896452302299
 20
-75.5652395081294
 30
0.0
 10
18.70057716367168
 20
-76.50901605887773
 30
0.0
 10
19.82315867814381
 20
-78.18281070400926
 30
0.0
 10
20.10918148318339
 20
-79.63154041067804
 30
0.0
 10
20.12498083075056
 20
-80.3736181382049
 30
0.0
  0
SPLINE
  5
113
330
1F
100
AcDbEntity
  8
0
  6
Continuous
 62
    18
370
     0
100
AcDbSpline
210
0.0
220
0.0
230
1.0
 70
     8
 71
     3
 72
    11
 73
     7
 74
     0
 42
0.000000001
 43
0.0
 40
0.0000000313485449
 40
0.0000000313485449
 40
0.0000000313485449
 40
0.0000000313485449
 40
2.31911304588724
 40
4.633827555153279
 40
6.948645772346363
 40
9.267904371254838
 40
9.267904371254838
 40
9.267904371254838
 40
9.267904371254838
 10
15.1679704324222
 20
-75.61327352579744
 30
0.0
 10
15.80692645936587
 20
-75.48531401721968
 30
0.0
 10
17.10405693890925
 20
-75.52623087699024
 30
0.0
 10
18.7614885090662
 20
-76.47825723821504
 30
0.0
 10
19.89400249336492
 20
-78.16831286981903
 30
0.0
 10
20.18194904764968
 20
-79.62832568652286
 30
0.0
 10
20.19790500874362
 20
-80.37643531609538
 30
0.0
  0
SPLINE
  5
114
330
1F
100
AcDbEntity
  8
0
  6
Continuous
 62
    18
370
     0
100
AcDbSpline
210
0.0
220
0.0
230
1.0
 70
     8
 71
     3
 72
    11
 73
     7
 74
     0
 42
0.000000001
 43
0.0
 40
0.0000000156743333
 40
0.0000000156743333
 40
0.0000000156743333
 40
0.0000000156743333
 40
2.31911304588724
 40
4.633827555153279
 40
6.948645772346363
 40
9.267904371254838
 40
9.267904371254838
 40
9.267904371254838
 40
9.267904371254838
 10
15.20540017032764
 20
-75.59573587248902
 30
0.0
 10
15.84750363744967
 20
-75.46714284856432
 30
0.0
 10
17.15046036950747
 20
-75.50779555869585
 30
0.0
 10
18.81880500024269
 20
-76.46516248711691
 30
0.0
 10
19.95790806460181
 20
-78.16646294950746
 30
0.0
 10
20.24674918874743
 20
-79.63310024703182
 30
0.0
 10
20.26277304854565
 20
-80.38488070371812
 30
0.0
  0
SPLINE
  5
115
330
1F
100
AcDbEntity
  8
0
  6
Continuous
 62
    18
370
     0
100
AcDbSpline
210
0.0
220
0.0
230
1.0
 70
     8
 71
     3
 72
    11
 73
     7
 74
     0
 42
0.000000001
 43
0.0
 40
0.0001428645858008
 40
0.0001428645858008
 40
0.0001428645858008
 40
0.0001428645858008
 40
0.074701604165779
 40
0.149412119727614
 40
0.224131546685513
 40
0.29885988503949
 40
0.29885988503949
 40
0.29885988503949
 40
0.29885988503949
 10
16.97077115800636
 20
-75.76647869270539
 30
0.0
 10
16.98258084973013
 20
-75.74617804840807
 30
0.0
 10
17.00944873039487
 20
-75.70929952189303
 30
0.0
 10
17.05530555248546
 20
-75.67118426190623
 30
0.0
 10
17.10275537261882
 20
-75.65341286603092
 30
0.0
 10
17.13269506260971
 20
-75.6562941392998
 30
0.0
 10
17.14646657836201
 20
-75.66130854875792
 30
0.0
  0
SPLINE
  5
116
330
1F
100
AcDbEntity
  8
0
  6
Continuous
 62
    18
370
     0
100
AcDbSpline
210
0.0
220
0.0
230
1.0
 70
     8
 71
     3
 72
    11
 73
     7
 74
     0
 42
0.000000001
 43
0.0
 40
0.0000000019280342
 40
0.0000000019280342
 40
0.0000000019280342
 40
0.0000000019280342
 40
0.074701604165779
 40
0.149412119727614
 40
0.224131546685513
 40
0.29885988503949
 40
0.29885988503949
 40
0.29885988503949
 40
0.29885988503949
 10
18.55626193903306
 20
-76.67476879828793
 30
0.0
 10
18.57456954413878
 20
-76.65808845075608
 30
0.0
 10
18.61385638725691
 20
-76.628145388009
 30
0.0
 10
18.67465742731164
 20
-76.59831596967737
 30
0.0
 10
18.73209399391973
 20
-76.5859971956769
 30
0.0
 10
18.76479713181513
 20
-76.59027545376884
 30
0.0
 10
18.77891406175738
 20
-76.59539750500255
 30
0.0
  0
SPLINE
  5
117
330
1F
100
AcDbEntity
  8
0
  6
Continuous
 62
    18
370
     0
100
AcDbSpline
210
0.0
220
0.0
230
1.0
 70
     8
 71
     3
 72
    11
 73
     7
 74
     0
 42
0.000000001
 43
0.0
 40
0.0001510132414358
 40
0.0001510132414358
 40
0.0001510132414358
 40
0.0001510132414358
 40
0.074701604165779
 40
0.149412119727614
 40
0.224131546685513
 40
0.29885988503949
 40
0.29885988503949
 40
0.29885988503949
 40
0.29885988503949
 10
19.63779451057266
 20
-78.29195326360271
 30
0.0
 10
19.66041466559866
 20
-78.28193426037868
 30
0.0
 10
19.70792108122849
 20
-78.26471056150855
 30
0.0
 10
19.77855099212886
 20
-78.25014291878355
 30
0.0
 10
19.84251732414904
 20
-78.2480245416321
 30
0.0
 10
19.87696878098868
 20
-78.25512383584712
 30
0.0
 10
19.89126321921785
 20
-78.26059754473187
 30
0.0
  0
SPLINE
  5
118
330
1F
100
AcDbEntity
  8
0
  6
Continuous
 62
    18
370
     0
100
AcDbSpline
210
0.0
220
0.0
230
1.0
 70
     8
 71
     3
 72
    11
 73
     7
 74
     0
 42
0.000000001
 43
0.0
 40
0.0
 40
0.0
 40
0.0
 40
0.0
 40
2.319113045894505
 40
4.633827555167685
 40
6.94864577236776
 40
9.26790437128378
 40
9.26790437128378
 40
9.26790437128378
 40
9.26790437128378
 10
20.12498083076898
 20
-80.37361813820328
 30
0.0
 10
20.1407341168177
 20
-81.11564195852259
 30
0.0
 10
19.91848451317068
 20
-82.66607736082182
 30
0.0
 10
18.87629545544277
 20
-84.7733140384945
 30
0.0
 10
17.28845093251991
 20
-86.36398506602288
 30
0.0
 10
16.01386787681005
 20
-86.91811105262579
 30
0.0
 10
15.38001708430542
 20
-87.04510870236788
 30
0.0
  0
SPLINE
  5
119
330
1F
100
AcDbEntity
  8
0
  6
Continuous
 62
    18
370
     0
100
AcDbSpline
210
0.0
220
0.0
230
1.0
 70
     8
 71
     3
 72
    11
 73
     7
 74
     0
 42
0.000000001
 43
0.0
 40
0.0
 40
0.0
 40
0.0
 40
0.0
 40
2.319113045894505
 40
4.633827555167685
 40
6.94864577236776
 40
9.26790437128378
 40
9.26790437128378
 40
9.26790437128378
 40
9.26790437128378
 10
20.19790500876226
 20
-80.37643531609396
 30
0.0
 10
20.2137859715676
 20
-81.12451427011905
 30
0.0
 10
19.99013155430825
 20
-82.68694598588849
 30
0.0
 10
18.93862905611306
 20
-84.81435904820168
 30
0.0
 10
17.33546845189173
 20
-86.41933490559163
 30
0.0
 10
16.05101761841067
 20
-86.97740289060008
 30
0.0
 10
15.41202117833413
 20
-87.10546013523748
 30
0.0
  0
SPLINE
  5
11A
330
1F
100
AcDbEntity
  8
0
  6
Continuous
 62
    18
370
     0
100
AcDbSpline
210
0.0
220
0.0
230
1.0
 70
     8
 71
     3
 72
    11
 73
     7
 74
     0
 42
0.000000001
 43
0.0
 40
0.0
 40
0.0
 40
0.0
 40
0.0
 40
2.319113045894505
 40
4.633827555167685
 40
6.94864577236776
 40
9.26790437128378
 40
9.26790437128378
 40
9.26790437128378
 40
9.26790437128378
 10
20.26277304856464
 20
-80.38488070371687
 30
0.0
 10
20.27873356824918
 20
-81.13664500934081
 30
0.0
 10
20.05445157032349
 20
-82.7060319805459
 30
0.0
 10
18.99682831012055
 20
-84.8473095658162
 30
0.0
 10
17.38310145819989
 20
-86.46185171834287
 30
0.0
 10
16.09290010532445
 20
-87.02194686308482
 30
0.0
 10
15.45078222588572
 20
-87.15061234756266
 30
0.0
  0
ARC
  5
11B
330
1F
100
AcDbEntity
  8
0
  6
Continuous
 62
    18
370
     0
100
AcDbCircle
 10
17.396964
 20
-90.705666
 30
0.0
 40
8.426649226716396
100
AcDbArc
 50
72.112463
 51
73.930559
  0
ARC
  5
11C
330
1F
100
AcDbEntity
  8
0
  6
Continuous
 62
    18
370
     0
100
AcDbCircle
 10
19.332684
 20
-83.901199
 30
0.0
 40
0.9585420479411588
100
AcDbArc
 50
230.705515
 51
246.639742
  0
SPLINE
  5
11D
330
1F
100
AcDbEntity
  8
0
  6
Continuous
 62
    18
370
     0
100
AcDbSpline
210
0.0
220
0.0
230
1.0
 70
     8
 71
     3
 72
    11
 73
     7
 74
     0
 42
0.000000001
 43
0.0
 40
0.0001507740025843
 40
0.0001507740025843
 40
0.0001507740025843
 40
0.0001507740025843
 40
0.074701604166292
 40
0.149412119728633
 40
0.22413154668704
 40
0.298859885041525
 40
0.298859885041525
 40
0.298859885041525
 40
0.298859885041525
 10
17.19194442887997
 20
-86.17618797597166
 30
0.0
 10
17.20462521560795
 20
-86.19731255190105
 30
0.0
 10
17.23312057291446
 20
-86.2391033558395
 30
0.0
 10
17.28087394758174
 20
-86.29379134742248
 30
0.0
 10
17.32952726122195
 20
-86.33585174969798
 30
0.0
 10
17.35975309745263
 20
-86.352948413056
 30
0.0
 10
17.37352814177413
 20
-86.35833733514716
 30
0.0
  0
SPLINE
  5
11E
330
1F
100
AcDbEntity
  8
0
  6
Continuous
 62
    18
370
     0
100
AcDbSpline
210
0.0
220
0.0
230
1.0
 70
     8
 71
     3
 72
    13
 73
     9
 74
     0
 42
0.000000001
 43
0.0
 40
0.0000000061851037
 40
0.0000000061851037
 40
0.0000000061851037
 40
0.0000000061851037
 40
0.133384395025243
 40
0.267052460165537
 40
0.534845968623715
 40
1.069857445576208
 40
1.606006938928689
 40
2.14028710316913
 40
2.14028710316913
 40
2.14028710316913
 40
2.14028710316913
 10
-21.69133041688371
 20
-84.50932552907544
 30
0.0
 10
-21.72551833501477
 20
-84.51722695992257
 30
0.0
 10
-21.79396688055952
 20
-84.53304662609632
 30
0.0
 10
-21.91880472798156
 20
-84.56898742567367
 30
0.0
 10
-22.11139454089633
 20
-84.63904427920195
 30
0.0
 10
-22.29979038330763
 20
-84.75764116151035
 30
0.0
 10
-22.37186729932947
 20
-84.91115423551011
 30
0.0
 10
-22.32084940495171
 20
-85.01248099932826
 30
0.0
 10
-22.27147251575244
 20
-85.06032685671624
 30
0.0
  0
SPLINE
  5
11F
330
1F
100
AcDbEntity
  8
0
  6
Continuous
 62
    18
370
     0
100
AcDbSpline
210
0.0
220
0.0
230
1.0
 70
     8
 71
     3
 72
    13
 73
     9
 74
     0
 42
0.000000001
 43
0.0
 40
0.0000000041250958
 40
0.0000000041250958
 40
0.0000000041250958
 40
0.0000000041250958
 40
0.133384395025243
 40
0.267052460165537
 40
0.534845968623715
 40
1.069857445576208
 40
1.606006938928689
 40
2.14028710316913
 40
2.14028710316913
 40
2.14028710316913
 40
2.14028710316913
 10
-21.7233398677806
 20
-84.44895908668083
 30
0.0
 10
-21.75881296237048
 20
-84.45682653744015
 30
0.0
 10
-21.82983459358822
 20
-84.47257817103156
 30
0.0
 10
-21.95951715872858
 20
-84.50822679147396
 30
0.0
 10
-22.15977347905702
 20
-84.57739394110993
 30
0.0
 10
-22.35534430492707
 20
-84.69342116487539
 30
0.0
 10
-22.42953938853683
 20
-84.8431682154266
 30
0.0
 10
-22.37645305477751
 20
-84.94102704854643
 30
0.0
 10
-22.32527053669268
 20
-84.98713241223541
 30
0.0
  0
SPLINE
  5
120
330
1F
100
AcDbEntity
  8
0
  6
Continuous
 62
    18
370
     0
100
AcDbSpline
210
0.0
220
0.0
230
1.0
 70
     8
 71
     3
 72
    13
 73
     9
 74
     0
 42
0.000000001
 43
0.0
 40
0.000000002065088
 40
0.000000002065088
 40
0.000000002065088
 40
0.000000002065088
 40
0.133384395025243
 40
0.267052460165537
 40
0.534845968623715
 40
1.069857445576208
 40
1.606006938928689
 40
2.14028710316913
 40
2.14028710316913
 40
2.14028710316913
 40
2.14028710316913
 10
-21.76211205656882
 20
-84.40379378362566
 30
0.0
 10
-21.799229374477
 20
-84.41175256463555
 30
0.0
 10
-21.87354294864332
 20
-84.42768705282488
 30
0.0
 10
-22.00960905637297
 20
-84.46365264332024
 30
0.0
 10
-22.22034604527952
 20
-84.53332295125466
 30
0.0
 10
-22.4273035097107
 20
-84.64941117398624
 30
0.0
 10
-22.50892326582565
 20
-84.79897292495608
 30
0.0
 10
-22.45635341378946
 20
-84.89644556435701
 30
0.0
 10
-22.40432328637841
 20
-84.94232054133494
 30
0.0
  0
SPLINE
  5
121
330
1F
100
AcDbEntity
  8
0
  6
Continuous
 62
    18
370
     0
100
AcDbSpline
210
0.0
220
0.0
230
1.0
 70
     8
 71
     3
 72
    11
 73
     7
 74
     0
 42
0.000000001
 43
0.0
 40
0.000018168895153
 40
0.000018168895153
 40
0.000018168895153
 40
0.000018168895153
 40
0.085125010797462
 40
0.170257488049695
 40
0.255397431756713
 40
0.340531926819473
 40
0.340531926819473
 40
0.340531926819473
 40
0.340531926819473
 10
-22.0207730618091
 20
-84.69295244270187
 30
0.0
 10
-22.02770343977161
 20
-84.66777687283701
 30
0.0
 10
-22.0480697681386
 20
-84.6184036786491
 30
0.0
 10
-22.09477311092659
 20
-84.5559534116563
 30
0.0
 10
-22.15303449193895
 20
-84.51094332798213
 30
0.0
 10
-22.19592129644498
 20
-84.49556421127122
 30
0.0
 10
-22.21712886146772
 20
-84.49193800152898
 30
0.0
  0
ARC
  5
122
330
1F
100
AcDbEntity
  8
0
  6
Continuous
 62
    18
370
     0
100
AcDbCircle
 10
-22.50153
 20
-84.897643
 30
0.0
 40
0.2662855714275258
100
AcDbArc
 50
13.225731
 51
85.093949
  0
ARC
  5
123
330
1F
100
AcDbEntity
  8
0
  6
Continuous
 62
    18
370
     0
100
AcDbCircle
 10
-22.564208
 20
-85.031657
 30
0.0
 40
0.247853583002427
100
AcDbArc
 50
8.729994
 51
91.714922
  0
SPLINE
  5
124
330
1F
100
AcDbEntity
  8
0
  6
Continuous
 62
    18
370
     0
100
AcDbSpline
210
0.0
220
0.0
230
1.0
 70
     8
 71
     3
 72
    17
 73
    13
 74
     0
 42
0.000000001
 43
0.0
 40
0.0
 40
0.0
 40
0.0
 40
0.0
 40
0.029920556848262
 40
0.059988578489087
 40
0.120617943756052
 40
0.244126988835064
 40
0.500809762411477
 40
0.7701696142400228
 40
0.9777132239368072
 40
1.012615564649967
 40
1.030086774768464
 40
1.047570391860724
 40
1.047570391860724
 40
1.047570391860724
 40
1.047570391860724
 10
-21.75324070918274
 20
-96.07277098527464
 30
0.0
 10
-21.75348758046167
 20
-96.07488276883316
 30
0.0
 10
-21.75398253973564
 20
-96.07911674396937
 30
0.0
 10
-21.75514149943857
 20
-96.08700992889655
 30
0.0
 10
-21.75745369768757
 20
-96.09975489962417
 30
0.0
 10
-21.76291627437823
 20
-96.12020795332049
 30
0.0
 10
-21.77094964246957
 20
-96.13049696431693
 30
0.0
 10
-21.77968932353273
 20
-96.10149729303251
 30
0.0
 10
-21.78545363382299
 20
-96.05631592202184
 30
0.0
 10
-21.78798900031317
 20
-96.0271361424675
 30
0.0
 10
-21.7886450426629
 20
-96.01895153060175
 30
0.0
 10
-21.78896093435167
 20
-96.01470699871598
 30
0.0
 10
-21.78911893624815
 20
-96.01258397937342
 30
0.0
  0
SPLINE
  5
125
330
1F
100
AcDbEntity
  8
0
  6
Continuous
 62
    18
370
     0
100
AcDbSpline
210
0.0
220
0.0
230
1.0
 70
     8
 71
     3
 72
    17
 73
    13
 74
     0
 42
0.000000001
 43
0.0
 40
0.0
 40
0.0
 40
0.0
 40
0.0
 40
0.029920556848262
 40
0.059988578489087
 40
0.120617943756052
 40
0.244126988835064
 40
0.500809762411477
 40
0.7701696142400228
 40
0.9777132239368072
 40
1.012615564649967
 40
1.030086774768464
 40
1.047570409759308
 40
1.047570409759308
 40
1.047570409759308
 40
1.047570409759308
 10
-22.18864503974763
 20
-96.44858837025279
 30
0.0
 10
-22.18656130785295
 20
-96.45145797364944
 30
0.0
 10
-22.18238357429872
 20
-96.45721132341012
 30
0.0
 10
-22.17409190201662
 20
-96.4673967234009
 30
0.0
 10
-22.15955991713785
 20
-96.48270583786896
 30
0.0
 10
-22.13044420879979
 20
-96.50206137716077
 30
0.0
 10
-22.08976561711146
 20
-96.49281773391056
 30
0.0
 10
-22.05346237612029
 20
-96.41624916396552
 30
0.0
 10
-22.03631537529888
 20
-96.3252280376802
 30
0.0
 10
-22.02991257455293
 20
-96.26997338131466
 30
0.0
 10
-22.02831796733139
 20
-96.25462726121049
 30
0.0
 10
-22.02757615396765
 20
-96.24673348562509
 30
0.0
 10
-22.02720511547439
 20
-96.24278519477937
 30
0.0
  0
SPLINE
  5
126
330
1F
100
AcDbEntity
  8
0
  6
Continuous
 62
    18
370
     0
100
AcDbSpline
210
0.0
220
0.0
230
1.0
 70
     8
 71
     3
 72
    17
 73
    13
 74
     0
 42
0.000000001
 43
0.0
 40
0.0
 40
0.0
 40
0.0
 40
0.0
 40
0.029920556848262
 40
0.059988578489087
 40
0.120617943756052
 40
0.244126988835064
 40
0.500809762411477
 40
0.7701696142400228
 40
0.9777132239368072
 40
1.012615564649967
 40
1.030086774768464
 40
1.047570427657893
 40
1.047570427657893
 40
1.047570427657893
 40
1.047570427657893
 10
-22.47403387657611
 20
-96.95954551916864
 30
0.0
 10
-22.46896066011838
 20
-96.96310295641763
 30
0.0
 10
-22.45878922362991
 20
-96.9702353639029
 30
0.0
 10
-22.43869801300483
 20
-96.98193446365991
 30
0.0
 10
-22.40378278536517
 20
-96.99744855223574
 30
0.0
 10
-22.33558270839573
 20
-97.00684021075523
 30
0.0
 10
-22.24731305428944
 20
-96.95610004091768
 30
0.0
 10
-22.17408131623873
 20
-96.80443752481685
 30
0.0
 10
-22.14000282070155
 20
-96.64948164488635
 30
0.0
 10
-22.12728270449501
 20
-96.55956703329034
 30
0.0
 10
-22.12411592059949
 20
-96.53478309727629
 30
0.0
 10
-22.12264328738192
 20
-96.52211535319272
 30
0.0
 10
-22.12190670869858
 20
-96.51577922643172
 30
0.0
  0
SPLINE
  5
127
330
1F
100
AcDbEntity
  8
0
  6
Continuous
 62
    18
370
     0
100
AcDbSpline
210
0.0
220
0.0
230
1.0
 70
     8
 71
     3
 72
    11
 73
     7
 74
     0
 42
0.000000001
 43
0.0
 40
0.0000000310153012
 40
0.0000000310153012
 40
0.0000000310153012
 40
0.0000000310153012
 40
0.5329622311897071
 40
1.065948751980716
 40
1.59895956237303
 40
2.131975123844497
 40
2.131975123844497
 40
2.131975123844497
 40
2.131975123844497
 10
-21.27928606397383
 20
-95.91107419109437
 30
0.0
 10
-21.45004097137938
 20
-95.94533830303772
 30
0.0
 10
-21.78089954233913
 20
-96.08454054938036
 30
0.0
 10
-22.16320867029382
 20
-96.47403457791475
 30
0.0
 10
-22.3816927263921
 20
-96.98954705702907
 30
0.0
 10
-22.39682362916332
 20
-97.37162028566142
 30
0.0
 10
-22.37159354529684
 20
-97.55662239758189
 30
0.0
  0
SPLINE
  5
128
330
1F
100
AcDbEntity
  8
0
  6
Continuous
 62
    18
370
     0
100
AcDbSpline
210
0.0
220
0.0
230
1.0
 70
     8
 71
     3
 72
    11
 73
     7
 74
     0
 42
0.000000001
 43
0.0
 40
0.0000000620306023
 40
0.0000000620306023
 40
0.0000000620306023
 40
0.0000000620306023
 40
0.5329622311897071
 40
1.065948751980716
 40
1.59895956237303
 40
2.131978809926686
 40
2.131978809926686
 40
2.131978809926686
 40
2.131978809926686
 10
-21.33475221058008
 20
-95.91034114807242
 30
0.0
 10
-21.49374306679965
 20
-95.95346461095465
 30
0.0
 10
-21.79237138301067
 20
-96.09815753096808
 30
0.0
 10
-22.11540084575453
 20
-96.4607110860496
 30
0.0
 10
-22.27614643581876
 20
-96.92337037237287
 30
0.0
 10
-22.26074103342115
 20
-97.2617500559253
 30
0.0
 10
-22.22334156125628
 20
-97.42601861821474
 30
0.0
  0
SPLINE
  5
129
330
1F
100
AcDbEntity
  8
0
  6
Continuous
 62
    18
370
     0
100
AcDbSpline
210
0.0
220
0.0
230
1.0
 70
     8
 71
     3
 72
    11
 73
     7
 74
     0
 42
0.000000001
 43
0.0
 40
0.0000000930459035
 40
0.0000000930459035
 40
0.0000000930459035
 40
0.0000000930459035
 40
0.5329622311897071
 40
1.065948751980716
 40
1.59895956237303
 40
2.131991038364382
 40
2.131991038364382
 40
2.131991038364382
 40
2.131991038364382
 10
-21.38922257484097
 20
-95.88893665891821
 30
0.0
 10
-21.53475086516469
 20
-95.93506502247561
 30
0.0
 10
-21.80180218416174
 20
-96.07088302728074
 30
0.0
 10
-22.07664179661678
 20
-96.37989857455219
 30
0.0
 10
-22.19741102917008
 20
-96.75971487125528
 30
0.0
 10
-22.16526229423296
 20
-97.03303390334959
 30
0.0
 10
-22.12238882175679
 20
-97.1657233481397
 30
0.0
  0
SPLINE
  5
12A
330
1F
100
AcDbEntity
  8
0
  6
Continuous
 62
    18
370
     0
100
AcDbSpline
210
0.0
220
0.0
230
1.0
 70
     8
 71
     3
 72
    13
 73
     9
 74
     0
 42
0.000000001
 43
0.0
 40
0.0000000061848571
 40
0.0000000061848571
 40
0.0000000061848571
 40
0.0000000061848571
 40
0.133384164076718
 40
0.267051997425945
 40
0.534845042952267
 40
1.069855602044933
 40
1.606004168592016
 40
2.140283415133367
 40
2.140283415133367
 40
2.140283415133367
 40
2.140283415133367
 10
-24.32521109265478
 20
-83.55470760605303
 30
0.0
 10
-24.36114063555249
 20
-83.5619777723405
 30
0.0
 10
-24.43307613479964
 20
-83.57653356673885
 30
0.0
 10
-24.58645967769636
 20
-83.60212815409389
 30
0.0
 10
-24.86938088678395
 20
-83.63944513639214
 30
0.0
 10
-25.3039182713815
 20
-83.66883039162414
 30
0.0
 10
-25.8091025488142
 20
-83.66536825511847
 30
0.0
 10
-26.11142142129055
 20
-83.63863200261085
 30
0.0
 10
-26.24604124687963
 20
-83.61979032717281
 30
0.0
  0
SPLINE
  5
12B
330
1F
100
AcDbEntity
  8
0
  6
Continuous
 62
    18
370
     0
100
AcDbSpline
210
0.0
220
0.0
230
1.0
 70
     8
 71
     3
 72
    13
 73
     9
 74
     0
 42
0.000000001
 43
0.0
 40
0.0000000041249297
 40
0.0000000041249297
 40
0.0000000041249297
 40
0.0000000041249297
 40
0.133384164076718
 40
0.267051997425945
 40
0.534845042952267
 40
1.069855602044933
 40
1.606004168592016
 40
2.140283415133367
 40
2.140283415133367
 40
2.140283415133367
 40
2.140283415133367
 10
-24.29529774934651
 20
-83.51678443152058
 30
0.0
 10
-24.33250483147248
 20
-83.52402338266708
 30
0.0
 10
-24.40699812558143
 20
-83.53851668029473
 30
0.0
 10
-24.56596759025937
 20
-83.56355043630109
 30
0.0
 10
-24.8592241236278
 20
-83.59901041564808
 30
0.0
 10
-25.30829436348305
 20
-83.62315921670714
 30
0.0
 10
-25.83057487936052
 20
-83.61050241398536
 30
0.0
 10
-26.14167888285355
 20
-83.57636448319747
 30
0.0
 10
-26.2802537995938
 20
-83.55369440974007
 30
0.0
  0
SPLINE
  5
12C
330
1F
100
AcDbEntity
  8
0
  6
Continuous
 62
    18
370
     0
100
AcDbSpline
210
0.0
220
0.0
230
1.0
 70
     8
 71
     3
 72
    13
 73
     9
 74
     0
 42
0.000000001
 43
0.0
 40
0.0000000020650024
 40
0.0000000020650024
 40
0.0000000020650024
 40
0.0000000020650024
 40
0.133384164076718
 40
0.267051997425945
 40
0.534845042952267
 40
1.069855602044933
 40
1.606004168592016
 40
2.140283415133367
 40
2.140283415133367
 40
2.140283415133367
 40
2.140283415133367
 10
-24.25786816611332
 20
-83.49923766213254
 30
0.0
 10
-24.29658623611822
 20
-83.5066162304349
 30
0.0
 10
-24.37410471882843
 20
-83.52138905920329
 30
0.0
 10
-24.53971992261192
 20
-83.5466447444924
 30
0.0
 10
-24.84546908696829
 20
-83.58187865161048
 30
0.0
 10
-25.3128115276542
 20
-83.60359283788313
 30
0.0
 10
-25.85887458955987
 20
-83.58482199369712
 30
0.0
 10
-26.18464571196754
 20
-83.54516913143564
 30
0.0
 10
-26.33002745043374
 20
-83.5194944101134
 30
0.0
  0
SPLINE
  5
12D
330
1F
100
AcDbEntity
  8
0
  6
Continuous
 62
    18
370
     0
100
AcDbSpline
210
0.0
220
0.0
230
1.0
 70
     8
 71
     3
 72
    11
 73
     7
 74
     0
 42
0.000000001
 43
0.0
 40
0.0000181687522367
 40
0.0000181687522367
 40
0.0000181687522367
 40
0.0000181687522367
 40
0.085125017178235
 40
0.170257500651715
 40
0.2553974504204549
 40
0.3405319515187624
 40
0.3405319515187624
 40
0.3405319515187624
 40
0.3405319515187624
 10
-24.79851131230591
 20
-83.68619451888776
 30
0.0
 10
-24.79697977831181
 20
-83.66408587310609
 30
0.0
 10
-24.79178758358088
 20
-83.62397608045703
 30
0.0
 10
-24.77845453832064
 20
-83.58328534295146
 30
0.0
 10
-24.76089761109344
 20
-83.5657547802221
 30
0.0
 10
-24.74747496475498
 20
-83.57078441595164
 30
0.0
 10
-24.74072566300673
 20
-83.57729087172527
 30
0.0
  0
SPLINE
  5
12E
330
1F
100
AcDbEntity
  8
0
  6
Continuous
 62
    18
370
     0
100
AcDbSpline
210
0.0
220
0.0
230
1.0
 70
     8
 71
     3
 72
    11
 73
     7
 74
     0
 42
0.000000001
 43
0.0
 40
0.0001065894829412
 40
0.0001065894829412
 40
0.0001065894829412
 40
0.0001065894829412
 40
0.085125017178235
 40
0.170257500651715
 40
0.2553974504204549
 40
0.3404973472846615
 40
0.3404973472846615
 40
0.3404973472846615
 40
0.3404973472846615
 10
-25.29787080192999
 20
-83.72926719149491
 30
0.0
 10
-25.29876000380606
 20
-83.70442014667374
 30
0.0
 10
-25.30102079863858
 20
-83.65876367810866
 30
0.0
 10
-25.30541881717571
 20
-83.61181445656388
 30
0.0
 10
-25.31033353174694
 20
-83.59129057356014
 30
0.0
 10
-25.3135945167724
 20
-83.59692679478638
 30
0.0
 10
-25.31511365543725
 20
-83.60432911962675
 30
0.0
  0
SPLINE
  5
12F
330
1F
100
AcDbEntity
  8
0
  6
Continuous
 62
    18
370
     0
100
AcDbSpline
210
0.0
220
0.0
230
1.0
 70
     8
 71
     3
 72
    11
 73
     7
 74
     0
 42
0.000000001
 43
0.0
 40
0.0000005121891624
 40
0.0000005121891624
 40
0.0000005121891624
 40
0.0000005121891624
 40
0.085125017178235
 40
0.170257500651715
 40
0.2553974504204549
 40
0.3405392339085708
 40
0.3405392339085708
 40
0.3405392339085708
 40
0.3405392339085708
 10
-25.78942318650468
 20
-83.73630561017902
 30
0.0
 10
-25.79119556566074
 20
-83.70820689665442
 30
0.0
 10
-25.79863465334422
 20
-83.65548139961996
 30
0.0
 10
-25.8199162933137
 20
-83.59915178988533
 30
0.0
 10
-25.8485043146861
 20
-83.57247091593871
 30
0.0
 10
-25.87006090506233
 20
-83.57700417840019
 30
0.0
 10
-25.88062583894851
 20
-83.58460577292274
 30
0.0
  0
SPLINE
  5
130
330
1F
100
AcDbEntity
  8
0
  6
Continuous
 62
    18
370
     0
100
AcDbSpline
210
0.0
220
0.0
230
1.0
 70
     8
 71
     3
 72
    16
 73
    12
 74
     0
 42
0.000000001
 43
0.0
 40
0.0000000548896276
 40
0.0000000548896276
 40
0.0000000548896276
 40
0.0000000548896276
 40
0.017494160808212
 40
0.03497449310251
 40
0.069891634524622
 40
0.277481516934905
 40
0.546972937644999
 40
0.8036187600554049
 40
0.927053544258267
 40
0.987625306949283
 40
1.047521212526359
 40
1.047521212526359
 40
1.047521212526359
 40
1.047521212526359
 10
-24.52418905403558
 20
-95.02129773822078
 30
0.0
 10
-24.52257397479141
 20
-95.02395410788282
 30
0.0
 10
-24.51934508762477
 20
-95.02926475562455
 30
0.0
 10
-24.51253896203495
 20
-95.03969365242793
 30
0.0
 10
-24.48579708419519
 20
-95.07767914408277
 30
0.0
 10
-24.42019574377233
 20
-95.14438504397617
 30
0.0
 10
-24.30428865675234
 20
-95.21212534211634
 30
0.0
 10
-24.19319038919267
 20
-95.2397340797416
 30
0.0
 10
-24.12081288918959
 20
-95.24324835448198
 30
0.0
 10
-24.08208269653725
 20
-95.24182952052766
 30
0.0
 10
-24.06369767034395
 20
-95.23973647275363
 30
0.0
 10
-24.05455672980182
 20
-95.23869582015664
 30
0.0
  0
SPLINE
  5
131
330
1F
100
AcDbEntity
  8
0
  6
Continuous
 62
    18
370
     0
100
AcDbSpline
210
0.0
220
0.0
230
1.0
 70
     8
 71
     3
 72
    16
 73
    12
 74
     0
 42
0.000000001
 43
0.0
 40
0.0000000368238589
 40
0.0000000368238589
 40
0.0000000368238589
 40
0.0000000368238589
 40
0.017494160808212
 40
0.03497449310251
 40
0.069891634524622
 40
0.277481516934905
 40
0.546972937644999
 40
0.8036187600554049
 40
0.927053544258267
 40
0.987625306949283
 40
1.047521212526359
 40
1.047521212526359
 40
1.047521212526359
 40
1.047521212526359
 10
-24.97770838240949
 20
-95.17341972184343
 30
0.0
 10
-24.9757582504556
 20
-95.17821611228747
 30
0.0
 10
-24.97185952373311
 20
-95.18780511175983
 30
0.0
 10
-24.96364506720298
 20
-95.20672552702666
 30
0.0
 10
-24.9313810728427
 20
-95.27602898254506
 30
0.0
 10
-24.85229749442093
 20
-95.40169611593552
 30
0.0
 10
-24.71179912055167
 20
-95.54222277127158
 30
0.0
 10
-24.57425605315999
 20
-95.6169284520557
 30
0.0
 10
-24.48224304926092
 20
-95.6409515139704
 30
0.0
 10
-24.43221167945425
 20
-95.64776720036119
 30
0.0
 10
-24.40806315818819
 20
-95.64829331445998
 30
0.0
 10
-24.39605663751426
 20
-95.64855489568615
 30
0.0
  0
SPLINE
  5
132
330
1F
100
AcDbEntity
  8
0
  6
Continuous
 62
    18
370
     0
100
AcDbSpline
210
0.0
220
0.0
230
1.0
 70
     8
 71
     3
 72
    16
 73
    12
 74
     0
 42
0.000000001
 43
0.0
 40
0.0000000187580902
 40
0.0000000187580902
 40
0.0000000187580902
 40
0.0000000187580902
 40
0.017494160808212
 40
0.03497449310251
 40
0.069891634524622
 40
0.277481516934905
 40
0.546972937644999
 40
0.8036187600554049
 40
0.927053544258267
 40
0.987625306949283
 40
1.047521212526359
 40
1.047521212526359
 40
1.047521212526359
 40
1.047521212526359
 10
-25.42205360783287
 20
-95.31968600950731
 30
0.0
 10
-25.41959425793653
 20
-95.32718478125767
 30
0.0
 10
-25.41467749939363
 20
-95.34217640520913
 30
0.0
 10
-25.40431336268094
 20
-95.37187385058516
 30
0.0
 10
-25.36356532745928
 20
-95.48116268433262
 30
0.0
 10
-25.26298240216048
 20
-95.68468488732049
 30
0.0
 10
-25.07740156336607
 20
-95.93005642237884
 30
0.0
 10
-24.88495814261572
 20
-96.08353525562225
 30
0.0
 10
-24.74942589916456
 20
-96.14729016862609
 30
0.0
 10
-24.67409080386066
 20
-96.1716911427751
 30
0.0
 10
-24.63709423813683
 20
-96.1787435406977
 30
0.0
 10
-24.61869973578511
 20
-96.18224995670249
 30
0.0
  0
SPLINE
  5
133
330
1F
100
AcDbEntity
  8
0
  6
Continuous
 62
    18
370
     0
100
AcDbSpline
210
0.0
220
0.0
230
1.0
 70
     8
 71
     3
 72
    11
 73
     7
 74
     0
 42
0.000000001
 43
0.0
 40
0.0000000934165613
 40
0.0000000934165613
 40
0.0000000934165613
 40
0.0000000934165613
 40
0.5329498864897999
 40
1.065931965390443
 40
1.59894623670193
 40
2.131992700424264
 40
2.131992700424264
 40
2.131992700424264
 40
2.131992700424264
 10
-24.0256962359426
 20
-94.93333746990493
 30
0.0
 10
-24.15060096410825
 20
-94.98694175389204
 30
0.0
 10
-24.4274252129687
 20
-95.11918951515634
 30
0.0
 10
-24.86988045559409
 20
-95.36738898782482
 30
0.0
 10
-25.29145968135746
 20
-95.63807734310967
 30
0.0
 10
-25.52776956927827
 20
-95.81401451006377
 30
0.0
 10
-25.62711932854339
 20
-95.89509975482557
 30
0.0
  0
SPLINE
  5
134
330
1F
100
AcDbEntity
  8
0
  6
Continuous
 62
    18
370
     0
100
AcDbSpline
210
0.0
220
0.0
230
1.0
 70
     8
 71
     3
 72
    11
 73
     7
 74
     0
 42
0.000000001
 43
0.0
 40
0.0000000622777076
 40
0.0000000622777076
 40
0.0000000622777076
 40
0.0000000622777076
 40
0.5329498864897999
 40
1.065931965390443
 40
1.59894623670193
 40
2.131992700424264
 40
2.131992700424264
 40
2.131992700424264
 40
2.131992700424264
 10
-23.91239368381454
 20
-94.97604416230736
 30
0.0
 10
-24.03765733447672
 20
-95.03138911725901
 30
0.0
 10
-24.31057915817776
 20
-95.18537022659137
 30
0.0
 10
-24.72761054646723
 20
-95.51379116247745
 30
0.0
 10
-25.10197981248817
 20
-95.89894794332164
 30
0.0
 10
-25.29233498856528
 20
-96.16270091157548
 30
0.0
 10
-25.36595794581891
 20
-96.28669638484374
 30
0.0
  0
SPLINE
  5
135
330
1F
100
AcDbEntity
  8
0
  6
Continuous
 62
    18
370
     0
100
AcDbSpline
210
0.0
220
0.0
230
1.0
 70
     8
 71
     3
 72
    11
 73
     7
 74
     0
 42
0.000000001
 43
0.0
 40
0.0000000311388538
 40
0.0000000311388538
 40
0.0000000311388538
 40
0.0000000311388538
 40
0.5329498864897999
 40
1.065931965390443
 40
1.59894623670193
 40
2.131992700424264
 40
2.131992700424264
 40
2.131992700424264
 40
2.131992700424264
 10
-23.78063424974811
 20
-95.00448240986661
 30
0.0
 10
-23.9106932562208
 20
-95.05358292656146
 30
0.0
 10
-24.18475372555879
 20
-95.21353889699715
 30
0.0
 10
-24.57062133342598
 20
-95.60185415379172
 30
0.0
 10
-24.87983673728551
 20
-96.08448004267663
 30
0.0
 10
-25.00614175983473
 20
-96.42616769796044
 30
0.0
 10
-25.04449581580597
 20
-96.58808872701204
 30
0.0
  0
LINE
  5
136
330
1F
100
AcDbEntity
  8
0
  6
Continuous
 62
    18
370
    30
100
AcDbLine
 10
73.902353
 20
21.506896
 30
0.0
 11
71.879617
 21
30.785693
 31
0.0
  0
ELLIPSE
  5
137
330
1F
100
AcDbEntity
  8
0
  6
Continuous
 62
    18
370
    30
100
AcDbEllipse
 10
62.81584
 20
28.970445
 30
0.0
 11
10.74759014882225
 21
2.342926800593406
 31
0.0
210
0.0
220
0.0
230
1.0
 40
0.02631
 41
5.710079840177988
 42
8.851672493767154
  0
ELLIPSE
  5
138
330
1F
100
AcDbEntity
  8
0
  6
Continuous
 62
    18
370
    30
100
AcDbEllipse
 10
62.81584
 20
28.970445
 30
0.0
 11
10.74759014882225
 21
2.342926800593406
 31
0.0
210
0.0
220
0.0
230
1.0
 40
0.02631
 41
2.568487186587567
 42
5.710079840177674
  0
ELLIPSE
  5
139
330
1F
100
AcDbEntity
  8
0
  6
Continuous
 62
    18
370
    30
100
AcDbEllipse
 10
64.838576
 20
19.691648
 30
0.0
 11
-10.74759014882225
 21
-2.342926800593406
 31
0.0
210
0.0
220
0.0
230
-1.0
 40
0.02631
 41
3.714698120591911
 42
6.856290774181498
  0
ELLIPSE
  5
13A
330
1F
100
AcDbEntity
  8
0
  6
Continuous
 62
    18
370
    30
100
AcDbEllipse
 10
64.838576
 20
19.691648
 30
0.0
 11
-10.74759014882225
 21
-2.342926800593406
 31
0.0
210
0.0
220
0.0
230
-1.0
 40
0.02631
 41
0.573105467001912
 42
3.714698120591911
  0
SPLINE
  5
13B
330
1F
100
AcDbEntity
  8
0
  6
Continuous
 62
    18
370
    30
100
AcDbSpline
210
0.0
220
0.0
230
1.0
 70
    12
 71
     2
 72
     8
 73
     5
 74
     0
 42
0.000000001
 43
0.0
 40
0.0
 40
0.0
 40
0.0
 40
0.5
 40
0.5
 40
1.0
 40
1.0
 40
1.0
 10
71.87961706951339
 20
30.78569287464259
 30
0.0
 41
1.0
 10
55.8001477237402
 20
104.5462330226126
 30
0.0
 41
0.7660444432722662
 10
13.95593855950753
 20
107.1587716124322
 30
0.0
 41
1.0
 10
-27.88827060472526
 20
109.7713102022518
 30
0.0
 41
0.7660444432722662
 10
-26.34114263282621
 20
36.91809518714976
 30
0.0
 41
1.0
  0
SPLINE
  5
13C
330
1F
100
AcDbEntity
  8
0
  6
Continuous
 62
    18
370
    30
100
AcDbSpline
210
0.0
220
0.0
230
1.0
 70
    12
 71
     2
 72
     8
 73
     5
 74
     0
 42
0.000000001
 43
0.0
 40
0.0000000000000001
 40
0.0000000000000001
 40
0.0000000000000001
 40
0.25
 40
0.25
 40
0.5
 40
0.5
 40
0.5
 10
-26.34114263282621
 20
36.91809518714976
 30
0.0
 41
1.0
 10
-32.56987937990292
 20
39.17563554831975
 30
0.0
 41
0.707106781186548
 10
-41.63365644405227
 20
37.36038759917852
 30
0.0
 41
1.0
 10
-50.69743350820151
 20
35.54513965003707
 30
0.0
 41
0.707106781186548
 10
-44.4686967611248
 20
33.28759928886694
 30
0.0
 41
1.0
  0
SPLINE
  5
13D
330
1F
100
AcDbEntity
  8
0
  6
Continuous
 62
    18
370
    30
100
AcDbSpline
210
0.0
220
0.0
230
1.0
 70
    12
 71
     2
 72
     8
 73
     5
 74
     0
 42
0.000000001
 43
0.0
 40
0.5
 40
0.5
 40
0.5
 40
0.75
 40
0.75
 40
1.0
 40
1.0
 40
1.0
 10
-44.4686967611248
 20
33.28759928886694
 30
0.0
 41
1.0
 10
-38.23996001404809
 20
31.03005892769696
 30
0.0
 41
0.707106781186548
 10
-29.17618294989885
 20
32.84530687683835
 30
0.0
 41
1.0
 10
-20.11240588574962
 20
34.66055482597955
 30
0.0
 41
0.707106781186548
 10
-26.34114263282621
 20
36.91809518714976
 30
0.0
 41
1.0
  0
LINE
  5
13E
330
1F
100
AcDbEntity
  8
0
  6
Continuous
 62
    18
370
    30
100
AcDbLine
 10
-26.341143
 20
36.918095
 30
0.0
 11
-23.780316
 21
-83.669517
 31
0.0
  0
ELLIPSE
  5
13F
330
1F
100
AcDbEntity
  8
0
  6
Continuous
 62
    18
370
    30
100
AcDbEllipse
 10
-32.844093
 20
-85.484765
 30
0.0
 11
-10.99752046148017
 21
-0.2335459255155647
 31
0.0
210
0.0
220
0.0
230
1.0
 40
0.26255
 41
3.738108922548253
 42
6.879701576138047
  0
ELLIPSE
  5
140
330
1F
100
AcDbEntity
  8
0
  6
Continuous
 62
    18
370
    30
100
AcDbEllipse
 10
-32.844093
 20
-85.484765
 30
0.0
 11
-10.99752046148017
 21
-0.2335459255155647
 31
0.0
210
0.0
220
0.0
230
1.0
 40
0.26255
 41
0.5965162689584611
 42
3.738108922548254
  0
LINE
  5
141
330
1F
100
AcDbEntity
  8
0
  6
Continuous
 62
    18
370
     0
100
AcDbLine
 10
68.591863
 20
30.478469
 30
0.0
 11
70.614599
 21
21.199673
 31
0.0
  0
LINE
  5
142
330
1F
100
AcDbEntity
  8
0
  6
Continuous
 62
    18
370
     0
100
AcDbLine
 10
53.752063
 20
27.155197
 30
0.0
 11
55.774799
 21
17.8764
 31
0.0
  0
LINE
  5
143
330
1F
100
AcDbEntity
  8
0
  6
Continuous
 62
    18
370
     0
100
AcDbLine
 10
57.039817
 20
27.46242
 30
0.0
 11
59.062554
 21
18.183624
 31
0.0
  0
SPLINE
  5
144
330
1F
100
AcDbEntity
  8
0
  6
Continuous
 62
    18
370
     0
100
AcDbSpline
210
0.0
220
0.0
230
1.0
 70
    15
 71
     2
 72
    12
 73
     9
 74
     0
 42
0.000000001
 43
0.0
 40
0.0
 40
0.0
 40
0.0
 40
0.2499999999999999
 40
0.2499999999999999
 40
0.4999999999999998
 40
0.4999999999999998
 40
0.75
 40
0.75
 40
1.0
 40
1.0
 40
1.0
 10
48.50567109926735
 20
84.40291165004227
 30
0.0
 41
0.8830222216361331
 10
51.42487825277985
 20
92.46415180112155
 30
0.0
 41
0.6243910008573206
 10
42.36110118863061
 20
90.64890385198032
 30
0.0
 41
0.8830222216361331
 10
33.29732412448138
 20
88.83365590283873
 30
0.0
 41
0.6243910008573206
 10
30.37811697096876
 20
80.77241575175955
 30
0.0
 41
0.8830222216361331
 10
27.45890981745626
 20
72.71117560068029
 30
0.0
 41
0.6243910008573206
 10
36.5226868816056
 20
74.52642354982163
 30
0.0
 41
0.8830222216361331
 10
45.58646394575484
 20
76.341671498963
 30
0.0
 41
0.6243910008573206
 10
48.50567109926735
 20
84.40291165004227
 30
0.0
 41
0.8830222216361331
  0
SPLINE
  5
145
330
1F
100
AcDbEntity
  8
0
  6
Continuous
 62
    18
370
     0
100
AcDbSpline
210
0.0
220
0.0
230
1.0
 70
    15
 71
     2
 72
    12
 73
     9
 74
     0
 42
0.000000001
 43
0.0
 40
0.0
 40
0.0
 40
0.0
 40
0.2499999999999999
 40
0.2499999999999999
 40
0.4999999999999998
 40
0.4999999999999998
 40
0.75
 40
0.75
 40
1.0
 40
1.0
 40
1.0
 10
13.95593855950753
 20
107.1587716124321
 30
0.0
 41
1.0
 10
12.65240062482721
 20
118.0012835366924
 30
0.0
 41
0.707106781186548
 10
3.58862356067786
 20
116.186035587551
 30
0.0
 41
1.0
 10
-5.475153503471375
 20
114.3707876384098
 30
0.0
 41
0.707106781186548
 10
-4.171615568790941
 20
103.5282757141496
 30
0.0
 41
1.0
 10
-2.868077634110733
 20
92.68576378988934
 30
0.0
 41
0.707106781186548
 10
6.195699430038616
 20
94.50101173903064
 30
0.0
 41
1.0
 10
15.25947649418785
 20
96.31625968817198
 30
0.0
 41
0.707106781186548
 10
13.95593855950753
 20
107.1587716124321
 30
0.0
 41
1.0
  0
SPLINE
  5
146
330
1F
100
AcDbEntity
  8
0
  6
Continuous
 62
    18
370
     0
100
AcDbSpline
210
0.0
220
0.0
230
1.0
 70
    15
 71
     2
 72
    12
 73
     9
 74
     0
 42
0.000000001
 43
0.0
 40
0.0
 40
0.0
 40
0.0
 40
0.2499999999999999
 40
0.2499999999999999
 40
0.4999999999999998
 40
0.4999999999999998
 40
0.75
 40
0.75
 40
1.0
 40
1.0
 40
1.0
 10
-15.6033767274985
 20
88.4055529891738
 30
0.0
 41
0.8830222216361331
 10
-20.51971986392383
 20
96.95600485948009
 30
0.0
 41
0.6243910008573206
 10
-29.58349692807307
 20
95.14075691033887
 30
0.0
 41
0.8830222216361331
 10
-38.6472739922223
 20
93.32550896119753
 30
0.0
 41
0.6243910008573206
 10
-33.73093085579686
 20
84.77505709089124
 30
0.0
 41
0.8830222216361331
 10
-28.81458771937154
 20
76.22460522058464
 30
0.0
 41
0.6243910008573206
 10
-19.75081065522219
 20
78.03985316972614
 30
0.0
 41
0.8830222216361331
 10
-10.68703359107306
 20
79.85510111886728
 30
0.0
 41
0.6243910008573206
 10
-15.6033767274985
 20
88.4055529891738
 30
0.0
 41
0.8830222216361331
  0
SPLINE
  5
147
330
1F
100
AcDbEntity
  8
0
  6
Continuous
 62
    18
370
     0
100
AcDbSpline
210
0.0
220
0.0
230
1.0
 70
    12
 71
     2
 72
     8
 73
     5
 74
     0
 42
0.000000001
 43
0.0
 40
0.0
 40
0.0
 40
0.0
 40
0.5000000000000001
 40
0.5000000000000001
 40
1.0
 40
1.0
 40
1.0
 10
68.5918627774623
 20
30.47846944847609
 30
0.0
 41
0.9999999999999998
 10
50.54712495609462
 20
113.2541867256423
 30
0.0
 41
0.766044443272266
 10
3.58862356067786
 20
116.1860355875511
 30
0.0
 41
0.9999999999999998
 10
-43.36987783473868
 20
119.1178844494598
 30
0.0
 41
0.766044443272266
 10
-41.63365644405227
 20
37.36038759917841
 30
0.0
 41
0.9999999999999998
  0
SPLINE
  5
148
330
1F
100
AcDbEntity
  8
0
  6
Continuous
 62
    18
370
     0
100
AcDbSpline
210
0.0
220
0.0
230
1.0
 70
    12
 71
     2
 72
     8
 73
     5
 74
     0
 42
0.000000001
 43
0.0
 40
0.0
 40
0.0
 40
0.0
 40
0.5000000000000001
 40
0.5000000000000001
 40
1.0
 40
1.0
 40
1.0
 10
53.75206294121492
 20
27.15519697635986
 30
0.0
 41
0.9999999999999996
 10
37.67259359544173
 20
100.9157371243299
 30
0.0
 41
0.7660444432722657
 10
-4.171615568790941
 20
103.5282757141495
 30
0.0
 41
0.9999999999999996
 10
-46.01582473302373
 20
106.1408143039694
 30
0.0
 41
0.7660444432722657
 10
-44.4686967611248
 20
33.28759928886706
 30
0.0
 41
0.9999999999999996
  0
SPLINE
  5
149
330
1F
100
AcDbEntity
  8
0
  6
Continuous
 62
    18
370
     0
100
AcDbSpline
210
0.0
220
0.0
230
1.0
 70
    12
 71
     2
 72
     8
 73
     5
 74
     0
 42
0.000000001
 43
0.0
 40
0.0
 40
0.0
 40
0.0
 40
0.5000000000000001
 40
0.5000000000000001
 40
1.0
 40
1.0
 40
1.0
 10
57.03981723326601
 20
27.46242040252639
 30
0.0
 41
1.0
 10
42.92561636308729
 20
92.20778342129998
 30
0.0
 41
0.7660444432722662
 10
6.195699430038616
 20
94.50101173903064
 30
0.0
 41
1.0
 10
-30.53421750301008
 20
96.79424005676128
 30
0.0
 41
0.7660444432722662
 10
-29.17618294989885
 20
32.84530687683835
 30
0.0
 41
1.0
  0
LINE
  5
14A
330
1F
100
AcDbEntity
  8
0
  6
Continuous
 62
    18
370
     0
100
AcDbLine
 10
-39.07283
 20
-83.227225
 30
0.0
 11
-41.633656
 21
37.360388
 31
0.0
  0
LINE
  5
14B
330
1F
100
AcDbEntity
  8
0
  6
Continuous
 62
    18
370
     0
100
AcDbLine
 10
-41.90787
 20
-87.300013
 30
0.0
 11
-44.468697
 21
33.287599
 31
0.0
  0
LINE
  5
14C
330
1F
100
AcDbEntity
  8
0
  6
Continuous
 62
    18
370
     0
100
AcDbLine
 10
-26.615356
 20
-87.742305
 30
0.0
 11
-29.176183
 21
32.845307
 31
0.0
  0
SPLINE
  5
14D
330
1F
100
AcDbEntity
  8
0
  6
Continuous
 62
    18
370
    30
100
AcDbSpline
210
0.0
220
0.0
230
1.0
 70
    12
 71
     2
 72
     8
 73
     5
 74
     0
 42
0.000000001
 43
0.0
 40
0.0
 40
0.0
 40
0.0
 40
0.5
 40
0.5
 40
1.0
 40
1.0
 40
1.0
 10
-10.26429085868236
 20
-124.8785508982844
 30
0.0
 41
1.0
 10
-31.05555812288245
 20
-119.611395910543
 30
0.0
 41
0.707106781186548
 10
-52.67373632358673
 20
-125.4998634279339
 30
0.0
 41
1.0
 10
-74.291914524291
 20
-131.3883309453248
 30
0.0
 41
0.707106781186548
 10
-53.50064726009092
 20
-136.6554859330661
 30
0.0
 41
1.0
  0
SPLINE
  5
14E
330
1F
100
AcDbEntity
  8
0
  6
Continuous
 62
    18
370
    30
100
AcDbSpline
210
0.0
220
0.0
230
1.0
 70
    12
 71
     2
 72
     8
 73
     5
 74
     0
 42
0.000000001
 43
0.0
 40
0.0
 40
0.0
 40
0.0
 40
0.5
 40
0.5
 40
1.0
 40
1.0
 40
1.0
 10
-53.50064726009092
 20
-136.6554859330661
 30
0.0
 41
1.0
 10
-32.70937999589038
 20
-141.9226409208074
 30
0.0
 41
0.707106781186548
 10
-11.09120179518632
 20
-136.0341734034165
 30
0.0
 41
1.0
 10
10.52697640551784
 20
-130.1457058860257
 30
0.0
 41
0.707106781186548
 10
-10.26429085868236
 20
-124.8785508982844
 30
0.0
 41
1.0
  0
SPLINE
  5
14F
330
1F
100
AcDbEntity
  8
0
  6
Continuous
 62
    18
370
    30
100
AcDbSpline
210
0.0
220
0.0
230
1.0
 70
    12
 71
     2
 72
     8
 73
     5
 74
     0
 42
0.000000001
 43
0.0
 40
0.0
 40
0.0
 40
0.0
 40
0.5
 40
0.5
 40
1.0
 40
1.0
 40
1.0
 10
-23.70359234203082
 20
-128.5392150627857
 30
0.0
 41
1.0
 10
-15.83756356880409
 20
-130.5319551954643
 30
0.0
 41
0.7071067811865471
 10
-24.01644028615969
 20
-132.7597585483538
 30
0.0
 41
1.0
 10
-32.19531700351528
 20
-134.9875619012434
 30
0.0
 41
0.7071067811865471
 10
-40.06134577674201
 20
-132.9948217685648
 30
0.0
 41
1.0
  0
SPLINE
  5
150
330
1F
100
AcDbEntity
  8
0
  6
Continuous
 62
    18
370
    30
100
AcDbSpline
210
0.0
220
0.0
230
1.0
 70
    12
 71
     2
 72
     8
 73
     5
 74
     0
 42
0.000000001
 43
0.0
 40
0.0
 40
0.0
 40
0.0
 40
0.5
 40
0.5
 40
1.0
 40
1.0
 40
1.0
 10
-40.06134577674201
 20
-132.9948217685648
 30
0.0
 41
1.0
 10
-47.92737454996886
 20
-131.0020816358862
 30
0.0
 41
0.7071067811865471
 10
-39.74849783261337
 20
-128.7742782829967
 30
0.0
 41
1.0
 10
-31.56962111525767
 20
-126.5464749301071
 30
0.0
 41
0.7071067811865471
 10
-23.70359234203082
 20
-128.5392150627857
 30
0.0
 41
1.0
  0
LINE
  5
151
330
1F
100
AcDbEntity
  8
0
  6
Continuous
 62
    18
370
    30
100
AcDbLine
 10
-10.264291
 20
-124.878551
 30
0.0
 11
-10.141371
 21
-130.666756
 31
0.0
  0
ELLIPSE
  5
152
330
1F
100
AcDbEntity
  8
0
  6
Continuous
 62
    18
370
    30
100
AcDbEllipse
 10
-31.759549
 20
-136.555224
 30
0.0
 11
-29.99324019623699
 21
-0.6369434878867249
 31
0.0
210
0.0
220
0.0
230
1.0
 40
0.26255
 41
3.901919499986581
 42
7.043512153576367
  0
ELLIPSE
  5
153
330
1F
100
AcDbEntity
  8
0
  6
Continuous
 62
    18
370
    30
100
AcDbEllipse
 10
-31.759549
 20
-136.555224
 30
0.0
 11
-29.99324019623699
 21
-0.6369434878867249
 31
0.0
210
0.0
220
0.0
230
1.0
 40
0.26255
 41
0.7603268463967812
 42
3.901919499986581
  0
ELLIPSE
  5
154
330
1F
100
AcDbEntity
  8
0
  6
Continuous
 62
    18
370
    30
100
AcDbEllipse
 10
-31.855837
 20
-132.021127
 30
0.0
 11
-11.34744156707272
 21
-0.2409769322365145
 31
0.0
210
0.0
220
0.0
230
1.0
 40
0.26255
 41
0.7603268463968025
 42
3.901919499986587
  0
ELLIPSE
  5
155
330
1F
100
AcDbEntity
  8
0
  6
Continuous
 62
    18
370
    30
100
AcDbEllipse
 10
-31.855837
 20
-132.021127
 30
0.0
 11
-11.34744156707272
 21
-0.2409769322365145
 31
0.0
210
0.0
220
0.0
230
1.0
 40
0.26255
 41
3.901919499986587
 42
7.043512153576389
  0
LINE
  5
156
330
1F
100
AcDbEntity
  8
0
  6
Continuous
 62
    18
370
    30
100
AcDbLine
 10
-23.67696
 20
-129.793324
 30
0.0
 11
-23.703592
 21
-128.539215
 31
0.0
  0
LINE
  5
157
330
1F
100
AcDbEntity
  8
0
  6
Continuous
 62
    18
370
     0
100
AcDbLine
 10
-11.091202
 20
-136.034173
 30
0.0
 11
-10.968282
 21
-141.822379
 31
0.0
  0
LINE
  5
158
330
1F
100
AcDbEntity
  8
0
  6
Continuous
 62
    18
370
     0
100
AcDbLine
 10
-53.500647
 20
-136.655486
 30
0.0
 11
-53.377728
 21
-142.443691
 31
0.0
  0
LINE
  5
159
330
1F
100
AcDbEntity
  8
0
  6
Continuous
 62
    18
370
     0
100
AcDbLine
 10
-52.673736
 20
-125.499863
 30
0.0
 11
-52.550817
 21
-131.288069
 31
0.0
  0
LINE
  5
15A
330
1F
100
AcDbEntity
  8
0
  6
Continuous
 62
    18
370
     0
100
AcDbLine
 10
-24.01644
 20
-132.759759
 30
0.0
 11
-23.989808
 21
-134.013868
 31
0.0
  0
LINE
  5
15B
330
1F
100
AcDbEntity
  8
0
  6
Continuous
 62
    18
370
     0
100
AcDbLine
 10
-40.061346
 20
-132.994822
 30
0.0
 11
-40.034713
 21
-134.248931
 31
0.0
  0
LINE
  5
15C
330
1F
100
AcDbEntity
  8
0
  6
Continuous
 62
    18
370
     0
100
AcDbLine
 10
-39.748498
 20
-128.774278
 30
0.0
 11
-39.721865
 21
-130.028387
 31
0.0
  0
ENDSEC
  0
SECTION
  2
OBJECTS
  0
DICTIONARY
  5
C
330
0
100
AcDbDictionary
281
     1
  3
ACAD_GROUP
350
D
  3
ACAD_LAYOUT
350
1A
  3
ACAD_MATERIAL
350
43
  3
ACAD_MLEADERSTYLE
350
6B
  3
ACAD_MLINESTYLE
350
17
  3
ACAD_PLOTSETTINGS
350
19
  3
ACAD_PLOTSTYLENAME
350
E
  3
ACAD_SCALELIST
350
47
  3
ACAD_TABLESTYLE
350
69
  3
ACAD_VISUALSTYLE
350
2A
  3
AcDbVariableDictionary
350
15D
  0
DICTIONARY
  5
168
330
8
100
AcDbDictionary
280
     1
281
     1
  3
ACAD_XREC_ROUNDTRIP
360
169
  0
DICTIONARY
  5
D
102
{ACAD_REACTORS
330
C
102
}
330
C
100
AcDbDictionary
281
     1
  0
DICTIONARY
  5
1A
102
{ACAD_REACTORS
330
C
102
}
330
C
100
AcDbDictionary
281
     1
  3
Layout1
350
1E
  3
Layout2
350
26
  3
Model
350
22
  0
DICTIONARY
  5
43
102
{ACAD_REACTORS
330
C
102
}
330
C
100
AcDbDictionary
281
     1
  3
ByBlock
350
45
  3
ByLayer
350
44
  3
Global
350
46
  0
DICTIONARY
  5
6B
102
{ACAD_REACTORS
330
C
102
}
330
C
100
AcDbDictionary
281
     1
  3
Standard
350
6C
  0
DICTIONARY
  5
17
102
{ACAD_REACTORS
330
C
102
}
330
C
100
AcDbDictionary
281
     1
  3
Standard
350
18
  0
DICTIONARY
  5
19
102
{ACAD_REACTORS
330
C
102
}
330
C
100
AcDbDictionary
281
     1
  0
ACDBDICTIONARYWDFLT
  5
E
102
{ACAD_REACTORS
330
C
102
}
330
C
100
AcDbDictionary
281
     1
  3
Normal
350
F
100
AcDbDictionaryWithDefault
340
F
  0
DICTIONARY
  5
47
102
{ACAD_REACTORS
330
C
102
}
330
C
100
AcDbDictionary
281
     1
  3
A0
350
48
  3
A1
350
49
  3
A2
350
4A
  3
A3
350
4B
  3
A4
350
4C
  3
A5
350
4D
  3
A6
350
4E
  3
A7
350
4F
  3
A8
350
50
  3
A9
350
51
  3
B0
350
52
  3
B1
350
53
  3
B2
350
54
  3
B3
350
55
  3
B4
350
56
  3
B5
350
57
  3
B6
350
58
  3
B7
350
59
  3
B8
350
5A
  3
B9
350
5B
  3
C0
350
5C
  3
C1
350
5D
  3
C2
350
5E
  3
C3
350
5F
  3
C4
350
60
  3
C5
350
61
  3
C6
350
62
  3
C7
350
63
  3
C8
350
64
  3
C9
350
65
  3
D0
350
66
  3
D1
350
67
  3
D2
350
68
  0
DICTIONARY
  5
69
102
{ACAD_REACTORS
330
C
102
}
330
C
100
AcDbDictionary
281
     1
  3
Standard
350
6A
  0
DICTIONARY
  5
2A
102
{ACAD_REACTORS
330
C
102
}
330
C
100
AcDbDictionary
281
     1
  3
2dWireframe
350
2F
  3
Basic
350
32
  3
Brighten
350
36
  3
ColorChange
350
3A
  3
Conceptual
350
34
  3
Dim
350
35
  3
EdgeColorOff
350
3D
  3
Facepattern
350
39
  3
Flat
350
2B
  3
FlatWithEdges
350
2C
  3
Gouraud
350
2D
  3
GouraudWithEdges
350
2E
  3
Hidden
350
31
  3
JitterOff
350
3B
  3
Linepattern
350
38
  3
OverhangOff
350
3C
  3
Realistic
350
33
  3
Shaded
350
42
  3
Shaded with edges
350
41
  3
Shades of Gray
350
3E
  3
Sketchy
350
3F
  3
Thicken
350
37
  3
Wireframe
350
30
  3
X-Ray
350
40
  0
DICTIONARY
  5
15D
102
{ACAD_REACTORS
330
C
102
}
330
C
100
AcDbDictionary
281
     1
  3
CANNOSCALE
350
16A
  3
CENTEREXE
350
164
  3
CENTERLTYPEFILE
350
165
  3
CMLEADERSTYLE
350
15F
  3
CTABLESTYLE
350
15E
  3
DIMASSOC
350
166
  3
HIDETEXT
350
167
  3
MSLTSCALE
350
16B
  3
PSOLHEIGHT
350
161
  3
PSOLWIDTH
350
160
  0
XRECORD
  5
169
102
{ACAD_REACTORS
330
168
102
}
330
168
100
AcDbXrecord
280
     1
102
VTR_0.000_0.000_1.000_1.000_VISUALSTYLE
340
2F
102
VTR_0.000_0.000_1.000_1.000_GRIDDISPLAY
 70
     3
102
VTR_0.000_0.000_1.000_1.000_GRIDMAJOR
 70
     5
102
VTR_0.000_0.000_1.000_1.000_DEFAULTLIGHTING
280
     1
102
VTR_0.000_0.000_1.000_1.000_DEFAULTLIGHTINGTYPE
 70
     1
102
VTR_0.000_0.000_1.000_1.000_BRIGHTNESS
141
0.0
102
VTR_0.000_0.000_1.000_1.000_CONTRAST
142
0.0
  0
LAYOUT
  5
1E
102
{ACAD_REACTORS
330
1A
102
}
330
1A
100
AcDbPlotSettings
  1

  2
none_device
  4

  6

 40
0.0
 41
0.0
 42
0.0
 43
0.0
 44
0.0
 45
0.0
 46
0.0
 47
0.0
 48
0.0
 49
0.0
140
0.0
141
0.0
142
1.0
143
1.0
 70
   688
 72
     1
 73
     0
 74
     5
  7

 75
    16
147
1.0
148
0.0
149
0.0
100
AcDbLayout
  1
Layout1
 70
     1
 71
     1
 10
0.0
 20
0.0
 11
420.0
 21
297.0
 12
0.0
 22
0.0
 32
0.0
 14
1.000000E+20
 24
1.000000E+20
 34
1.000000E+20
 15
-1.000000E+20
 25
-1.000000E+20
 35
-1.000000E+20
146
0.0
 13
0.0
 23
0.0
 33
0.0
 16
1.0
 26
0.0
 36
0.0
 17
0.0
 27
1.0
 37
0.0
 76
     0
330
1B
  0
LAYOUT
  5
26
102
{ACAD_REACTORS
330
1A
102
}
330
1A
100
AcDbPlotSettings
  1

  2
none_device
  4

  6

 40
0.0
 41
0.0
 42
0.0
 43
0.0
 44
0.0
 45
0.0
 46
0.0
 47
0.0
 48
0.0
 49
0.0
140
0.0
141
0.0
142
1.0
143
1.0
 70
   688
 72
     1
 73
     0
 74
     5
  7

 75
    16
147
1.0
148
0.0
149
0.0
100
AcDbLayout
  1
Layout2
 70
     1
 71
     2
 10
0.0
 20
0.0
 11
0.0
 21
0.0
 12
0.0
 22
0.0
 32
0.0
 14
0.0
 24
0.0
 34
0.0
 15
0.0
 25
0.0
 35
0.0
146
0.0
 13
0.0
 23
0.0
 33
0.0
 16
1.0
 26
0.0
 36
0.0
 17
0.0
 27
1.0
 37
0.0
 76
     0
330
23
  0
LAYOUT
  5
22
102
{ACAD_REACTORS
330
1A
102
}
330
1A
100
AcDbPlotSettings
  1

  2
none_device
  4
Letter_(8.50_x_11.00_Inches)
  6

 40
6.35
 41
6.35
 42
6.350005
 43
6.350005
 44
215.9
 45
279.4
 46
0.0
 47
0.0
 48
0.0
 49
0.0
140
0.0
141
0.0
142
1.0
143
1.0
 70
  1712
 72
     1
 73
     0
 74
     0
  7

 75
     0
147
1.0
148
0.0
149
0.0
100
AcDbLayout
  1
Model
 70
     1
 71
     0
 10
-60.0
 20
-188.158142
 11
65.817169
 21
30.0
 12
0.0
 22
0.0
 32
0.0
 14
-60.0
 24
-188.158142
 34
0.0
 15
65.817169
 25
30.0
 35
0.0
146
0.0
 13
0.0
 23
0.0
 33
0.0
 16
1.0
 26
0.0
 36
0.0
 17
0.0
 27
1.0
 37
0.0
 76
     0
330
1F
331
29
  0
MATERIAL
  5
45
102
{ACAD_REACTORS
330
43
102
}
102
{ACAD_XDICTIONARY
360
19E
102
}
330
43
100
AcDbMaterial
  1
ByBlock
  0
MATERIAL
  5
44
102
{ACAD_REACTORS
330
43
102
}
102
{ACAD_XDICTIONARY
360
19C
102
}
330
43
100
AcDbMaterial
  1
ByLayer
  0
MATERIAL
  5
46
102
{ACAD_REACTORS
330
43
102
}
102
{ACAD_XDICTIONARY
360
1A0
102
}
330
43
100
AcDbMaterial
  1
Global
  0
MLEADERSTYLE
  5
6C
102
{ACAD_REACTORS
330
6B
102
}
102
{ACAD_XDICTIONARY
360
1A3
102
}
330
6B
100
AcDbMLeaderStyle
170
     2
171
     1
172
     0
 90
        2
 40
0.0
 41
0.0
173
     1
 91
-1056964608
340
14
 92
       -2
290
     1
 42
2.0
291
     1
 43
8.0
  3
Standard
341
0
 44
4.0
300

342
11
174
     1
178
     6
175
     1
176
     0
 93
-1056964608
 45
4.0
292
     0
297
     0
 46
4.0
343
0
 94
-1056964608
 47
1.0
 49
1.0
140
1.0
293
     1
141
0.0
294
     1
177
     0
142
1.0
295
     0
296
     0
143
3.75
1001
ACAD_MLEADERVER
1070
     2
  0
MLINESTYLE
  5
18
102
{ACAD_REACTORS
330
17
102
}
330
17
100
AcDbMlineStyle
  2
Standard
 70
     0
  3

 62
   256
 51
90.0
 52
90.0
 71
     2
 49
0.5
 62
   256
  6
BYLAYER
 49
-0.5
 62
   256
  6
BYLAYER
  0
ACDBPLACEHOLDER
  5
F
102
{ACAD_REACTORS
330
E
102
}
330
E
  0
SCALE
  5
48
102
{ACAD_REACTORS
330
47
102
}
330
47
100
AcDbScale
 70
     0
300
1:1
140
1.0
141
1.0
290
     1
  0
SCALE
  5
49
102
{ACAD_REACTORS
330
47
102
}
330
47
100
AcDbScale
 70
     0
300
1:2
140
1.0
141
2.0
290
     0
  0
SCALE
  5
4A
102
{ACAD_REACTORS
330
47
102
}
330
47
100
AcDbScale
 70
     0
300
1:4
140
1.0
141
4.0
290
     0
  0
SCALE
  5
4B
102
{ACAD_REACTORS
330
47
102
}
330
47
100
AcDbScale
 70
     0
300
1:5
140
1.0
141
5.0
290
     0
  0
SCALE
  5
4C
102
{ACAD_REACTORS
330
47
102
}
330
47
100
AcDbScale
 70
     0
300
1:8
140
1.0
141
8.0
290
     0
  0
SCALE
  5
4D
102
{ACAD_REACTORS
330
47
102
}
330
47
100
AcDbScale
 70
     0
300
1:10
140
1.0
141
10.0
290
     0
  0
SCALE
  5
4E
102
{ACAD_REACTORS
330
47
102
}
330
47
100
AcDbScale
 70
     0
300
1:16
140
1.0
141
16.0
290
     0
  0
SCALE
  5
4F
102
{ACAD_REACTORS
330
47
102
}
330
47
100
AcDbScale
 70
     0
300
1:20
140
1.0
141
20.0
290
     0
  0
SCALE
  5
50
102
{ACAD_REACTORS
330
47
102
}
330
47
100
AcDbScale
 70
     0
300
1:30
140
1.0
141
30.0
290
     0
  0
SCALE
  5
51
102
{ACAD_REACTORS
330
47
102
}
330
47
100
AcDbScale
 70
     0
300
1:40
140
1.0
141
40.0
290
     0
  0
SCALE
  5
52
102
{ACAD_REACTORS
330
47
102
}
330
47
100
AcDbScale
 70
     0
300
1:50
140
1.0
141
50.0
290
     0
  0
SCALE
  5
53
102
{ACAD_REACTORS
330
47
102
}
330
47
100
AcDbScale
 70
     0
300
1:100
140
1.0
141
100.0
290
     0
  0
SCALE
  5
54
102
{ACAD_REACTORS
330
47
102
}
330
47
100
AcDbScale
 70
     0
300
2:1
140
2.0
141
1.0
290
     0
  0
SCALE
  5
55
102
{ACAD_REACTORS
330
47
102
}
330
47
100
AcDbScale
 70
     0
300
4:1
140
4.0
141
1.0
290
     0
  0
SCALE
  5
56
102
{ACAD_REACTORS
330
47
102
}
330
47
100
AcDbScale
 70
     0
300
8:1
140
8.0
141
1.0
290
     0
  0
SCALE
  5
57
102
{ACAD_REACTORS
330
47
102
}
330
47
100
AcDbScale
 70
     0
300
10:1
140
10.0
141
1.0
290
     0
  0
SCALE
  5
58
102
{ACAD_REACTORS
330
47
102
}
330
47
100
AcDbScale
 70
     0
300
100:1
140
100.0
141
1.0
290
     0
  0
SCALE
  5
59
102
{ACAD_REACTORS
330
47
102
}
330
47
100
AcDbScale
 70
     0
300
1/128" = 1'-0"
140
0.007812
141
12.0
290
     0
  0
SCALE
  5
5A
102
{ACAD_REACTORS
330
47
102
}
330
47
100
AcDbScale
 70
     0
300
1/64" = 1'-0"
140
0.015625
141
12.0
290
     0
  0
SCALE
  5
5B
102
{ACAD_REACTORS
330
47
102
}
330
47
100
AcDbScale
 70
     0
300
1/32" = 1'-0"
140
0.03125
141
12.0
290
     0
  0
SCALE
  5
5C
102
{ACAD_REACTORS
330
47
102
}
330
47
100
AcDbScale
 70
     0
300
1/16" = 1'-0"
140
0.0625
141
12.0
290
     0
  0
SCALE
  5
5D
102
{ACAD_REACTORS
330
47
102
}
330
47
100
AcDbScale
 70
     0
300
3/32" = 1'-0"
140
0.09375
141
12.0
290
     0
  0
SCALE
  5
5E
102
{ACAD_REACTORS
330
47
102
}
330
47
100
AcDbScale
 70
     0
300
1/8" = 1'-0"
140
0.125
141
12.0
290
     0
  0
SCALE
  5
5F
102
{ACAD_REACTORS
330
47
102
}
330
47
100
AcDbScale
 70
     0
300
3/16" = 1'-0"
140
0.1875
141
12.0
290
     0
  0
SCALE
  5
60
102
{ACAD_REACTORS
330
47
102
}
330
47
100
AcDbScale
 70
     0
300
1/4" = 1'-0"
140
0.25
141
12.0
290
     0
  0
SCALE
  5
61
102
{ACAD_REACTORS
330
47
102
}
330
47
100
AcDbScale
 70
     0
300
3/8" = 1'-0"
140
0.375
141
12.0
290
     0
  0
SCALE
  5
62
102
{ACAD_REACTORS
330
47
102
}
330
47
100
AcDbScale
 70
     0
300
1/2" = 1'-0"
140
0.5
141
12.0
290
     0
  0
SCALE
  5
63
102
{ACAD_REACTORS
330
47
102
}
330
47
100
AcDbScale
 70
     0
300
3/4" = 1'-0"
140
0.75
141
12.0
290
     0
  0
SCALE
  5
64
102
{ACAD_REACTORS
330
47
102
}
330
47
100
AcDbScale
 70
     0
300
1" = 1'-0"
140
1.0
141
12.0
290
     0
  0
SCALE
  5
65
102
{ACAD_REACTORS
330
47
102
}
330
47
100
AcDbScale
 70
     0
300
1-1/2" = 1'-0"
140
1.5
141
12.0
290
     0
  0
SCALE
  5
66
102
{ACAD_REACTORS
330
47
102
}
330
47
100
AcDbScale
 70
     0
300
3" = 1'-0"
140
3.0
141
12.0
290
     0
  0
SCALE
  5
67
102
{ACAD_REACTORS
330
47
102
}
330
47
100
AcDbScale
 70
     0
300
6" = 1'-0"
140
6.0
141
12.0
290
     0
  0
SCALE
  5
68
102
{ACAD_REACTORS
330
47
102
}
330
47
100
AcDbScale
 70
     0
300
1'-0" = 1'-0"
140
12.0
141
12.0
290
     0
  0
TABLESTYLE
  5
6A
102
{ACAD_REACTORS
330
69
102
}
330
69
100
AcDbTableStyle
  3
Standard
 70
     0
 71
     0
 40
1.5
 41
1.5
280
     0
281
     0
  7
Standard
140
4.5
170
     2
 62
     0
 63
   257
283
     0
274
    -2
284
     1
 64
     0
275
    -2
285
     1
 65
     0
276
    -2
286
     1
 66
     0
277
    -2
287
     1
 67
     0
278
    -2
288
     1
 68
     0
279
    -2
289
     1
 69
     0
  7
Standard
140
6.0
170
     5
 62
     0
 63
   257
283
     0
274
    -2
284
     1
 64
     0
275
    -2
285
     1
 65
     0
276
    -2
286
     1
 66
     0
277
    -2
287
     1
 67
     0
278
    -2
288
     1
 68
     0
279
    -2
289
     1
 69
     0
  7
Standard
140
4.5
170
     5
 62
     0
 63
   257
283
     0
274
    -2
284
     1
 64
     0
275
    -2
285
     1
 65
     0
276
    -2
286
     1
 66
     0
277
    -2
287
     1
 67
     0
278
    -2
288
     1
 68
     0
279
    -2
289
     1
 69
     0
  0
VISUALSTYLE
  5
2F
102
{ACAD_REACTORS
330
2A
102
}
102
{ACAD_XDICTIONARY
360
174
102
}
330
2A
100
AcDbVisualStyle
  2
2dWireframe
 70
     4
 71
     0
 72
     2
 73
     0
 90
        0
 40
0.6
 41
30.0
 62
     5
 63
     7
 74
     1
 91
        4
 64
     7
 65
   257
 75
     1
175
     1
 42
1.0
 92
        0
 66
   257
 43
1.0
 76
     1
 77
     6
 78
     2
 67
     7
 79
     5
170
     0
171
     0
290
     0
174
     0
 93
        1
 44
0.0
173
     0
291
     0
 45
0.0
1001
ACAD
1000
AcDbSavedByObjectVersion
1070
     0
  0
VISUALSTYLE
  5
32
102
{ACAD_REACTORS
330
2A
102
}
102
{ACAD_XDICTIONARY
360
17A
102
}
330
2A
100
AcDbVisualStyle
  2
Basic
 70
     7
 71
     1
 72
     0
 73
     1
 90
        0
 40
0.6
 41
30.0
 62
     5
 63
     7
 74
     0
 91
        4
 64
     7
 65
   257
 75
     1
175
     1
 42
1.0
 92
        8
 66
     7
 43
1.0
 76
     1
 77
     6
 78
     2
 67
     7
 79
     5
170
     0
171
     0
290
     0
174
     0
 93
        1
 44
0.0
173
     0
291
     1
 45
0.0
1001
ACAD
1000
AcDbSavedByObjectVersion
1070
     0
  0
VISUALSTYLE
  5
36
102
{ACAD_REACTORS
330
2A
102
}
102
{ACAD_XDICTIONARY
360
182
102
}
330
2A
100
AcDbVisualStyle
  2
Brighten
 70
    12
 71
     2
 72
     2
 73
     0
 90
        0
 40
0.6
 41
30.0
 62
     5
 63
     7
 74
     1
 91
        4
 64
     7
 65
   257
 75
     1
175
     1
 42
1.0
 92
        8
 66
     7
 43
1.0
 76
     1
 77
     6
 78
     2
 67
     7
 79
     5
170
     0
171
     0
290
     0
174
     0
 93
        1
 44
50.0
173
     0
291
     1
 45
0.0
1001
ACAD
1000
AcDbSavedByObjectVersion
1070
     0
  0
VISUALSTYLE
  5
3A
102
{ACAD_REACTORS
330
2A
102
}
102
{ACAD_XDICTIONARY
360
18A
102
}
330
2A
100
AcDbVisualStyle
  2
ColorChange
 70
    16
 71
     2
 72
     2
 73
     3
 90
        0
 40
0.6
 41
30.0
 62
     5
 63
     8
 74
     1
 91
        4
 64
     7
 65
   257
 75
     1
175
     1
 42
1.0
 92
        8
 66
     8
 43
1.0
 76
     1
 77
     6
 78
     2
 67
     7
 79
     5
170
     0
171
     0
290
     0
174
     0
 93
        1
 44
0.0
173
     0
291
     1
 45
0.0
1001
ACAD
1000
AcDbSavedByObjectVersion
1070
     0
  0
VISUALSTYLE
  5
34
102
{ACAD_REACTORS
330
2A
102
}
102
{ACAD_XDICTIONARY
360
17E
102
}
330
2A
100
AcDbVisualStyle
  2
Conceptual
 70
     9
 71
     3
 72
     2
 73
     0
 90
        0
 40
0.6
 41
30.0
 62
     5
 63
     7
 74
     2
 91
        2
 64
     7
 65
   257
 75
     1
175
     1
 42
179.0
 92
        8
 66
     7
 43
1.0
 76
     1
 77
     6
 78
     2
 67
     7
 79
     3
170
     0
171
     0
290
     0
174
     0
 93
        1
 44
0.0
173
     0
291
     0
 45
0.0
1001
ACAD
1000
AcDbSavedByObjectVersion
1070
     0
  0
VISUALSTYLE
  5
35
102
{ACAD_REACTORS
330
2A
102
}
102
{ACAD_XDICTIONARY
360
180
102
}
330
2A
100
AcDbVisualStyle
  2
Dim
 70
    11
 71
     2
 72
     2
 73
     0
 90
        0
 40
0.6
 41
30.0
 62
     5
 63
     7
 74
     1
 91
        4
 64
     7
 65
   257
 75
     1
175
     1
 42
1.0
 92
        8
 66
     7
 43
1.0
 76
     1
 77
     6
 78
     2
 67
     7
 79
     5
170
     0
171
     0
290
     0
174
     0
 93
        1
 44
-50.0
173
     0
291
     1
 45
0.0
1001
ACAD
1000
AcDbSavedByObjectVersion
1070
     0
  0
VISUALSTYLE
  5
3D
102
{ACAD_REACTORS
330
2A
102
}
102
{ACAD_XDICTIONARY
360
190
102
}
330
2A
100
AcDbVisualStyle
  2
EdgeColorOff
 70
    22
 71
     2
 72
     2
 73
     0
 90
        0
 40
0.6
 41
30.0
 62
     5
 63
     7
 74
     1
 91
        4
 64
     7
 65
   257
 75
     1
175
     1
 42
1.0
 92
        8
 66
     7
 43
1.0
 76
     1
 77
     6
 78
     2
 67
     7
 79
     5
170
     0
171
     0
290
     0
174
     0
 93
        1
 44
0.0
173
     0
291
     1
 45
0.0
1001
ACAD
1000
AcDbSavedByObjectVersion
1070
     0
  0
VISUALSTYLE
  5
39
102
{ACAD_REACTORS
330
2A
102
}
102
{ACAD_XDICTIONARY
360
188
102
}
330
2A
100
AcDbVisualStyle
  2
Facepattern
 70
    15
 71
     2
 72
     2
 73
     0
 90
        0
 40
0.6
 41
30.0
 62
     5
 63
     7
 74
     1
 91
        4
 64
     7
 65
   257
 75
     1
175
     1
 42
1.0
 92
        8
 66
     7
 43
1.0
 76
     1
 77
     6
 78
     2
 67
     7
 79
     5
170
     0
171
     0
290
     0
174
     0
 93
        1
 44
0.0
173
     0
291
     1
 45
0.0
1001
ACAD
1000
AcDbSavedByObjectVersion
1070
     0
  0
VISUALSTYLE
  5
2B
102
{ACAD_REACTORS
330
2A
102
}
102
{ACAD_XDICTIONARY
360
16C
102
}
330
2A
100
AcDbVisualStyle
  2
Flat
 70
     0
 71
     2
 72
     1
 73
     1
 90
        2
 40
0.6
 41
30.0
 62
     5
 63
     7
 74
     0
 91
        0
 64
     7
 65
   257
 75
     1
175
     1
 42
1.0
 92
        8
 66
     7
 43
1.0
 76
     1
 77
     6
 78
     2
 67
     7
 79
     5
170
     0
171
     0
290
     0
174
     0
 93
       13
 44
0.0
173
     0
291
     1
 45
0.0
1001
ACAD
1000
AcDbSavedByObjectVersion
1070
     0
  0
VISUALSTYLE
  5
2C
102
{ACAD_REACTORS
330
2A
102
}
102
{ACAD_XDICTIONARY
360
16E
102
}
330
2A
100
AcDbVisualStyle
  2
FlatWithEdges
 70
     1
 71
     2
 72
     1
 73
     1
 90
        2
 40
0.6
 41
30.0
 62
     5
 63
     7
 74
     1
 91
        0
 64
     7
 65
   257
 75
     1
175
     1
 42
1.0
 92
        0
 66
   257
 43
1.0
 76
     1
 77
     6
 78
     2
 67
     7
 79
     5
170
     0
171
     0
290
     0
174
     0
 93
       13
 44
0.0
173
     0
291
     1
 45
0.0
1001
ACAD
1000
AcDbSavedByObjectVersion
1070
     0
  0
VISUALSTYLE
  5
2D
102
{ACAD_REACTORS
330
2A
102
}
102
{ACAD_XDICTIONARY
360
170
102
}
330
2A
100
AcDbVisualStyle
  2
Gouraud
 70
     2
 71
     2
 72
     2
 73
     1
 90
        2
 40
0.6
 41
30.0
 62
     5
 63
     7
 74
     0
 91
        0
 64
     7
 65
   257
 75
     1
175
     1
 42
1.0
 92
        0
 66
     7
 43
1.0
 76
     1
 77
     6
 78
     2
 67
     7
 79
     5
170
     0
171
     0
290
     0
174
     0
 93
       13
 44
0.0
173
     0
291
     1
 45
0.0
1001
ACAD
1000
AcDbSavedByObjectVersion
1070
     0
  0
VISUALSTYLE
  5
2E
102
{ACAD_REACTORS
330
2A
102
}
102
{ACAD_XDICTIONARY
360
172
102
}
330
2A
100
AcDbVisualStyle
  2
GouraudWithEdges
 70
     3
 71
     2
 72
     2
 73
     1
 90
        2
 40
0.6
 41
30.0
 62
     5
 63
     7
 74
     1
 91
        0
 64
     7
 65
   257
 75
     1
175
     1
 42
1.0
 92
        0
 66
   257
 43
1.0
 76
     1
 77
     6
 78
     2
 67
     7
 79
     5
170
     0
171
     0
290
     0
174
     0
 93
       13
 44
0.0
173
     0
291
     1
 45
0.0
1001
ACAD
1000
AcDbSavedByObjectVersion
1070
     0
  0
VISUALSTYLE
  5
31
102
{ACAD_REACTORS
330
2A
102
}
102
{ACAD_XDICTIONARY
360
178
102
}
330
2A
100
AcDbVisualStyle
  2
Hidden
 70
     6
 71
     1
 72
     2
 73
     2
 90
        0
 40
0.6
 41
30.0
 62
     5
 63
     7
 74
     2
 91
        2
 64
     7
 65
   257
 75
     2
175
     1
 42
40.0
 92
        0
 66
   257
 43
1.0
 76
     1
 77
     6
 78
     2
 67
     7
 79
     3
170
     0
171
     0
290
     0
174
     0
 93
        1
 44
0.0
173
     0
291
     0
 45
0.0
1001
ACAD
1000
AcDbSavedByObjectVersion
1070
     0
  0
VISUALSTYLE
  5
3B
102
{ACAD_REACTORS
330
2A
102
}
102
{ACAD_XDICTIONARY
360
18C
102
}
330
2A
100
AcDbVisualStyle
  2
JitterOff
 70
    20
 71
     2
 72
     2
 73
     0
 90
        0
 40
0.6
 41
30.0
 62
     5
 63
     7
 74
     1
 91
        4
 64
     7
 65
   257
 75
     1
175
     1
 42
1.0
 92
       10
 66
     7
 43
1.0
 76
     1
 77
     6
 78
     2
 67
     7
 79
     5
170
     0
171
     0
290
     0
174
     0
 93
        1
 44
0.0
173
     0
291
     1
 45
0.0
1001
ACAD
1000
AcDbSavedByObjectVersion
1070
     0
  0
VISUALSTYLE
  5
38
102
{ACAD_REACTORS
330
2A
102
}
102
{ACAD_XDICTIONARY
360
186
102
}
330
2A
100
AcDbVisualStyle
  2
Linepattern
 70
    14
 71
     2
 72
     2
 73
     0
 90
        0
 40
0.6
 41
30.0
 62
     5
 63
     7
 74
     1
 91
        4
 64
     7
 65
   257
 75
     7
175
     7
 42
1.0
 92
        8
 66
     7
 43
1.0
 76
     1
 77
     6
 78
     2
 67
     7
 79
     5
170
     0
171
     0
290
     0
174
     0
 93
        1
 44
0.0
173
     0
291
     1
 45
0.0
1001
ACAD
1000
AcDbSavedByObjectVersion
1070
     0
  0
VISUALSTYLE
  5
3C
102
{ACAD_REACTORS
330
2A
102
}
102
{ACAD_XDICTIONARY
360
18E
102
}
330
2A
100
AcDbVisualStyle
  2
OverhangOff
 70
    21
 71
     2
 72
     2
 73
     0
 90
        0
 40
0.6
 41
30.0
 62
     5
 63
     7
 74
     1
 91
        4
 64
     7
 65
   257
 75
     1
175
     1
 42
1.0
 92
        9
 66
     7
 43
1.0
 76
     1
 77
     6
 78
     2
 67
     7
 79
     5
170
     0
171
     0
290
     0
174
     0
 93
        1
 44
0.0
173
     0
291
     1
 45
0.0
1001
ACAD
1000
AcDbSavedByObjectVersion
1070
     0
  0
VISUALSTYLE
  5
33
102
{ACAD_REACTORS
330
2A
102
}
102
{ACAD_XDICTIONARY
360
17C
102
}
330
2A
100
AcDbVisualStyle
  2
Realistic
 70
     8
 71
     2
 72
     3
 73
     0
 90
        2
 40
0.6
 41
30.0
 62
     5
 63
     7
 74
     0
 91
        0
 64
     7
 65
   257
 75
     1
175
     1
 42
1.0
 92
        8
 66
   257
 43
1.0
 76
     1
 77
     6
 78
     2
 67
     7
 79
     3
170
     0
171
     0
290
     0
174
     0
 93
       13
 44
0.0
173
     0
291
     0
 45
0.0
1001
ACAD
1000
AcDbSavedByObjectVersion
1070
     0
  0
VISUALSTYLE
  5
42
102
{ACAD_REACTORS
330
2A
102
}
102
{ACAD_XDICTIONARY
360
19A
102
}
330
2A
100
AcDbVisualStyle
  2
Shaded
 70
    27
 71
     2
 72
     2
 73
     1
 90
        2
 40
0.6
 41
30.0
 62
     5
 63
     7
 74
     0
 91
        4
 64
     7
 65
   257
 75
     1
175
     1
 42
1.0
 92
        8
 66
   257
 43
1.0
 76
     1
 77
     6
 78
     2
 67
     8
 79
     3
170
     0
171
     0
290
     0
174
     0
 93
        5
 44
0.0
173
     0
291
     0
 45
0.0
1001
ACAD
1000
AcDbSavedByObjectVersion
1070
     0
  0
VISUALSTYLE
  5
41
102
{ACAD_REACTORS
330
2A
102
}
102
{ACAD_XDICTIONARY
360
198
102
}
330
2A
100
AcDbVisualStyle
  2
Shaded with edges
 70
    26
 71
     2
 72
     2
 73
     1
 90
        2
 40
0.6
 41
30.0
 62
     5
 63
     7
 74
     1
 91
       10
 64
     7
 65
   257
 75
     2
175
     1
 42
1.0
 92
        8
 66
   257
 43
1.0
 76
     1
 77
     6
 78
     2
 67
     7
 79
     3
170
     0
171
     0
290
     0
174
     0
 93
        5
 44
0.0
173
     0
291
     0
 45
0.0
1001
ACAD
1000
AcDbSavedByObjectVersion
1070
     0
  0
VISUALSTYLE
  5
3E
102
{ACAD_REACTORS
330
2A
102
}
102
{ACAD_XDICTIONARY
360
192
102
}
330
2A
100
AcDbVisualStyle
  2
Shades of Gray
 70
    23
 71
     2
 72
     2
 73
     3
 90
        0
 40
0.6
 41
30.0
 62
     5
 63
     7
 74
     2
 91
        2
 64
     7
 65
     7
 75
     1
175
     1
 42
40.0
 92
        8
 66
     7
 43
1.0
 76
     1
 77
     6
 78
     2
 67
     7
 79
     3
170
     0
171
     0
290
     0
174
     0
 93
        1
 44
0.0
173
     0
291
     0
 45
0.0
1001
ACAD
1000
AcDbSavedByObjectVersion
1070
     0
  0
VISUALSTYLE
  5
3F
102
{ACAD_REACTORS
330
2A
102
}
102
{ACAD_XDICTIONARY
360
194
102
}
330
2A
100
AcDbVisualStyle
  2
Sketchy
 70
    24
 71
     1
 72
     2
 73
     2
 90
        0
 40
0.6
 41
30.0
 62
     5
 63
     7
 74
     2
 91
        2
 64
     7
 65
     7
 75
     1
175
     1
 42
40.0
 92
       11
 66
     7
 43
1.0
 76
     1
 77
     6
 78
     2
 67
     7
 79
     6
170
     0
171
     0
290
     0
174
     0
 93
        1
 44
0.0
173
     0
291
     0
 45
0.0
1001
ACAD
1000
AcDbSavedByObjectVersion
1070
     0
  0
VISUALSTYLE
  5
37
102
{ACAD_REACTORS
330
2A
102
}
102
{ACAD_XDICTIONARY
360
184
102
}
330
2A
100
AcDbVisualStyle
  2
Thicken
 70
    13
 71
     2
 72
     2
 73
     0
 90
        0
 40
0.6
 41
30.0
 62
     5
 63
     7
 74
     1
 91
        4
 64
     7
 65
   257
 75
     1
175
     1
 42
1.0
 92
       12
 66
     7
 43
1.0
 76
     1
 77
     6
 78
     2
 67
     7
 79
     5
170
     0
171
     0
290
     0
174
     0
 93
        1
 44
0.0
173
     0
291
     1
 45
0.0
1001
ACAD
1000
AcDbSavedByObjectVersion
1070
     0
  0
VISUALSTYLE
  5
30
102
{ACAD_REACTORS
330
2A
102
}
102
{ACAD_XDICTIONARY
360
176
102
}
330
2A
100
AcDbVisualStyle
  2
Wireframe
 70
     5
 71
     0
 72
     2
 73
     0
 90
        0
 40
0.6
 41
30.0
 62
     5
 63
     7
 74
     1
 91
        4
 64
     7
 65
   257
 75
     1
175
     1
 42
1.0
 92
        0
 66
   257
 43
1.0
 76
     1
 77
     6
 78
     2
 67
     7
 79
     3
170
     0
171
     0
290
     0
174
     0
 93
        1
 44
0.0
173
     0
291
     0
 45
0.0
1001
ACAD
1000
AcDbSavedByObjectVersion
1070
     0
  0
VISUALSTYLE
  5
40
102
{ACAD_REACTORS
330
2A
102
}
102
{ACAD_XDICTIONARY
360
196
102
}
330
2A
100
AcDbVisualStyle
  2
X-Ray
 70
    25
 71
     2
 72
     2
 73
     1
 90
        1
 40
0.5
 41
30.0
 62
     5
 63
     7
 74
     1
 91
        0
 64
     7
 65
   257
 75
     1
175
     1
 42
1.0
 92
        8
 66
     7
 43
1.0
 76
     1
 77
     6
 78
     2
 67
     7
 79
     3
170
     0
171
     0
290
     0
174
     0
 93
       13
 44
0.0
173
     0
291
     0
 45
0.0
1001
ACAD
1000
AcDbSavedByObjectVersion
1070
     0
  0
DICTIONARYVAR
  5
16A
102
{ACAD_REACTORS
330
15D
102
}
330
15D
100
DictionaryVariables
280
     0
  1
1:1
  0
DICTIONARYVAR
  5
164
102
{ACAD_REACTORS
330
15D
102
}
330
15D
100
DictionaryVariables
280
     0
  1
3.500000
  0
DICTIONARYVAR
  5
165
102
{ACAD_REACTORS
330
15D
102
}
330
15D
100
DictionaryVariables
280
     0
  1
acadiso.lin
  0
DICTIONARYVAR
  5
15F
102
{ACAD_REACTORS
330
15D
102
}
330
15D
100
DictionaryVariables
280
     0
  1
Standard
  0
DICTIONARYVAR
  5
15E
102
{ACAD_REACTORS
330
15D
102
}
330
15D
100
DictionaryVariables
280
     0
  1
Standard
  0
DICTIONARYVAR
  5
166
102
{ACAD_REACTORS
330
15D
102
}
330
15D
100
DictionaryVariables
280
     0
  1
2
  0
DICTIONARYVAR
  5
167
102
{ACAD_REACTORS
330
15D
102
}
330
15D
100
DictionaryVariables
280
     0
  1
1
  0
DICTIONARYVAR
  5
16B
102
{ACAD_REACTORS
330
15D
102
}
330
15D
100
DictionaryVariables
280
     0
  1
1
  0
DICTIONARYVAR
  5
161
102
{ACAD_REACTORS
330
15D
102
}
330
15D
100
DictionaryVariables
280
     0
  1
80.000000
  0
DICTIONARYVAR
  5
160
102
{ACAD_REACTORS
330
15D
102
}
330
15D
100
DictionaryVariables
280
     0
  1
5.000000
  0
DICTIONARY
  5
19E
330
45
100
AcDbDictionary
280
     1
281
     1
  3
ACAD_XREC_ROUNDTRIP
360
19F
  0
DICTIONARY
  5
19C
330
44
100
AcDbDictionary
280
     1
281
     1
  3
ACAD_XREC_ROUNDTRIP
360
19D
  0
DICTIONARY
  5
1A0
330
46
100
AcDbDictionary
280
     1
281
     1
  3
ACAD_XREC_ROUNDTRIP
360
1A1
  0
DICTIONARY
  5
1A3
330
6C
100
AcDbDictionary
280
     1
281
     1
  3
ACAD_XREC_ROUNDTRIP
360
1A4
  0
DICTIONARY
  5
174
330
2F
100
AcDbDictionary
280
     1
281
     1
  3
ACAD_XREC_ROUNDTRIP
360
175
  0
DICTIONARY
  5
17A
330
32
100
AcDbDictionary
280
     1
281
     1
  3
ACAD_XREC_ROUNDTRIP
360
17B
  0
DICTIONARY
  5
182
330
36
100
AcDbDictionary
280
     1
281
     1
  3
ACAD_XREC_ROUNDTRIP
360
183
  0
DICTIONARY
  5
18A
330
3A
100
AcDbDictionary
280
     1
281
     1
  3
ACAD_XREC_ROUNDTRIP
360
18B
  0
DICTIONARY
  5
17E
330
34
100
AcDbDictionary
280
     1
281
     1
  3
ACAD_XREC_ROUNDTRIP
360
17F
  0
DICTIONARY
  5
180
330
35
100
AcDbDictionary
280
     1
281
     1
  3
ACAD_XREC_ROUNDTRIP
360
181
  0
DICTIONARY
  5
190
330
3D
100
AcDbDictionary
280
     1
281
     1
  3
ACAD_XREC_ROUNDTRIP
360
191
  0
DICTIONARY
  5
188
330
39
100
AcDbDictionary
280
     1
281
     1
  3
ACAD_XREC_ROUNDTRIP
360
189
  0
DICTIONARY
  5
16C
330
2B
100
AcDbDictionary
280
     1
281
     1
  3
ACAD_XREC_ROUNDTRIP
360
16D
  0
DICTIONARY
  5
16E
330
2C
100
AcDbDictionary
280
     1
281
     1
  3
ACAD_XREC_ROUNDTRIP
360
16F
  0
DICTIONARY
  5
170
330
2D
100
AcDbDictionary
280
     1
281
     1
  3
ACAD_XREC_ROUNDTRIP
360
171
  0
DICTIONARY
  5
172
330
2E
100
AcDbDictionary
280
     1
281
     1
  3
ACAD_XREC_ROUNDTRIP
360
173
  0
DICTIONARY
  5
178
330
31
100
AcDbDictionary
280
     1
281
     1
  3
ACAD_XREC_ROUNDTRIP
360
179
  0
DICTIONARY
  5
18C
330
3B
100
AcDbDictionary
280
     1
281
     1
  3
ACAD_XREC_ROUNDTRIP
360
18D
  0
DICTIONARY
  5
186
330
38
100
AcDbDictionary
280
     1
281
     1
  3
ACAD_XREC_ROUNDTRIP
360
187
  0
DICTIONARY
  5
18E
330
3C
100
AcDbDictionary
280
     1
281
     1
  3
ACAD_XREC_ROUNDTRIP
360
18F
  0
DICTIONARY
  5
17C
330
33
100
AcDbDictionary
280
     1
281
     1
  3
ACAD_XREC_ROUNDTRIP
360
17D
  0
DICTIONARY
  5
19A
330
42
100
AcDbDictionary
280
     1
281
     1
  3
ACAD_XREC_ROUNDTRIP
360
19B
  0
DICTIONARY
  5
198
330
41
100
AcDbDictionary
280
     1
281
     1
  3
ACAD_XREC_ROUNDTRIP
360
199
  0
DICTIONARY
  5
192
330
3E
100
AcDbDictionary
280
     1
281
     1
  3
ACAD_XREC_ROUNDTRIP
360
193
  0
DICTIONARY
  5
194
330
3F
100
AcDbDictionary
280
     1
281
     1
  3
ACAD_XREC_ROUNDTRIP
360
195
  0
DICTIONARY
  5
184
330
37
100
AcDbDictionary
280
     1
281
     1
  3
ACAD_XREC_ROUNDTRIP
360
185
  0
DICTIONARY
  5
176
330
30
100
AcDbDictionary
280
     1
281
     1
  3
ACAD_XREC_ROUNDTRIP
360
177
  0
DICTIONARY
  5
196
330
40
100
AcDbDictionary
280
     1
281
     1
  3
ACAD_XREC_ROUNDTRIP
360
197
  0
XRECORD
  5
19F
102
{ACAD_REACTORS
330
19E
102
}
330
19E
100
AcDbXrecord
280
     1
102
MATERIAL
148
0.0
149
0.0
149
0.0
 93
        0
 94
      127
282
     0
 72
     1
 77
     1
171
     1
175
     1
179
     1
273
     0
  0
XRECORD
  5
19D
102
{ACAD_REACTORS
330
19C
102
}
330
19C
100
AcDbXrecord
280
     1
102
MATERIAL
148
0.0
149
0.0
149
0.0
 93
        0
 94
      127
282
     0
 72
     1
 77
     1
171
     1
175
     1
179
     1
273
     0
  0
XRECORD
  5
1A1
102
{ACAD_REACTORS
330
1A0
102
}
330
1A0
100
AcDbXrecord
280
     1
102
MATERIAL
148
0.0
149
0.0
149
0.0
 93
        0
 94
      127
282
     0
 72
     1
 77
     1
171
     1
175
     1
179
     1
273
     0
  0
XRECORD
  5
1A4
102
{ACAD_REACTORS
330
1A3
102
}
330
1A3
100
AcDbXrecord
280
     1
102
ACAD_ROUNDTRIP_2010_MLEADER_STYLE
  0
XRECORD
  5
175
102
{ACAD_REACTORS
330
174
102
}
330
174
100
AcDbXrecord
280
     1
102
RTVSPropertyOp0
 70
     1
102
RTVSPropertyOp1
 70
     1
102
RTVSPropertyOp2
 70
     1
102
RTVSPropertyOp3
 70
     1
102
RTVSPropertyOp4
 70
     1
102
RTVSPropertyOp5
 70
     1
102
RTVSPropertyOp6
 70
     1
102
RTVSPropertyOp7
 70
     1
102
RTVSPropertyOp8
 70
     1
102
RTVSPropertyOp9
 70
     1
102
RTVSPropertyOp10
 70
     1
102
RTVSPropertyOp11
 70
     1
102
RTVSPropertyOp12
 70
     1
102
RTVSPropertyOp13
 70
     1
102
RTVSPropertyOp14
 70
     1
102
RTVSPropertyOp15
 70
     1
102
RTVSPropertyOp16
 70
     1
102
RTVSPropertyOp17
 70
     1
102
RTVSPropertyOp18
 70
     1
102
RTVSPropertyOp19
 70
     1
102
RTVSPropertyOp20
 70
     1
102
RTVSPropertyOp21
 70
     1
102
RTVSPropertyOp22
 70
     1
102
RTVSPropertyOp23
 70
     1
102
RTVSPropertyOp24
 70
     1
102
RTVSPropertyOp25
 70
     1
102
RTVSPropertyOp26
 70
     1
102
RTVSPropertyOp27
 70
     1
102
RTVSPropertyOp28
 70
     1
102
RTVSPropertyOp29
 70
     1
102
RTVSPropertyOp30
 70
     1
102
RTVSPropertyOp31
 70
     1
102
RTVSPropertyOp32
 70
     1
102
RTVSPropertyOp33
 70
     1
102
RTVSPropertyOp34
 70
     1
102
RTVSPropertyOp35
 70
     1
102
RTVSPropertyOp36
 70
     1
102
RTVSPropertyOp37
 70
     1
102
RTVSPropertyOp38
 70
     1
102
RTVSPropertyOp39
 70
     1
102
RTVSPropertyOp40
 70
     1
102
RTVSPropertyOp41
 70
     1
102
RTVSPropertyOp42
 70
     1
102
RTVSPropertyOp43
 70
     1
102
RTVSPropertyOp44
 70
     1
102
RTVSPropertyOp45
 70
     1
102
RTVSPropertyOp46
 70
     1
102
RTVSPropertyOp47
 70
     1
102
RTVSPropertyOp48
 70
     1
102
RTVSPropertyOp49
 70
     1
102
RTVSPropertyOp50
 70
     1
102
RTVSPropertyOp51
 70
     0
102
RTVSPropertyOp52
 70
     0
102
RTVSPropertyOp53
 70
     1
102
RTVSPropertyOp54
 70
     1
102
RTVSPropertyOp55
 70
     1
102
RTVSPropertyOp56
 70
     1
102
RTVSPropertyOp57
 70
     1
102
RTVSPost2010Prop28
280
     1
102
RTVSPost2010PropOp28
 70
     1
102
RTVSPost2010Prop29
280
     1
102
RTVSPost2010PropOp29
 70
     1
102
RTVSPost2010Prop30
280
     0
102
RTVSPost2010PropOp30
 70
     1
102
RTVSPost2010Prop31
280
     0
102
RTVSPost2010PropOp31
 70
     1
102
RTVSPost2010Prop32
280
     0
102
RTVSPost2010PropOp32
 70
     1
102
RTVSPost2010Prop33
280
     0
102
RTVSPost2010PropOp33
 70
     1
102
RTVSPost2010Prop34
280
     0
102
RTVSPost2010PropOp34
 70
     1
102
RTVSPost2010Prop35
280
     0
102
RTVSPost2010PropOp35
 70
     1
102
RTVSPost2010Prop36
280
     0
102
RTVSPost2010PropOp36
 70
     1
102
RTVSPost2010Prop37
 90
       50
102
RTVSPost2010PropOp37
 70
     1
102
RTVSPost2010Prop38
140
0.0
102
RTVSPost2010PropOp38
 70
     1
102
RTVSPost2010Prop39
140
1.0
102
RTVSPost2010PropOp39
 70
     1
102
RTVSPost2010Prop40
 90
        0
102
RTVSPost2010PropOp40
 70
     1
102
RTVSPost2010Prop41ColorIndex
 90
       18
102
RTVSPost2010Prop41ColorRGB
 90
        0
102
RTVSPost2010PropOp41
 70
     1
102
RTVSPost2010Prop42
 90
       50
102
RTVSPost2010PropOp42
 70
     1
102
RTVSPost2010Prop43
 90
        3
102
RTVSPost2010PropOp43
 70
     1
102
RTVSPost2010Prop44ColorIndex
 90
        5
102
RTVSPost2010Prop44ColorRGB
 90
      255
102
RTVSPost2010PropOp44
 70
     1
102
RTVSPost2010Prop45
280
     0
102
RTVSPost2010PropOp45
 70
     1
102
RTVSPost2010Prop46
 90
       50
102
RTVSPost2010PropOp46
 70
     1
102
RTVSPost2010Prop47
 90
       50
102
RTVSPost2010PropOp47
 70
     1
102
RTVSPost2010Prop48
 90
       50
102
RTVSPost2010PropOp48
 70
     1
102
RTVSPost2010Prop49
280
     0
102
RTVSPost2010PropOp49
 70
     1
102
RTVSPost2010Prop50
 90
       50
102
RTVSPost2010PropOp50
 70
     1
102
RTVSPost2010Prop51ColorIndex
 90
      256
102
RTVSPost2010Prop51ColorRGB
 90
-16777216
102
RTVSPost2010PropOp51
 70
     0
102
RTVSPost2010Prop52
140
1.0
102
RTVSPost2010PropOp52
 70
     0
102
RTVSPost2010Prop53
 90
        2
102
RTVSPost2010PropOp53
 70
     1
102
RTVSPost2010Prop54
  1
strokes_ogs.tif
102
RTVSPost2010PropOp54
 70
     1
102
RTVSPost2010Prop55
280
     0
102
RTVSPost2010PropOp55
 70
     1
102
RTVSPost2010Prop56
140
1.0
102
RTVSPost2010PropOp56
 70
     1
102
RTVSPost2010Prop57
140
1.0
102
RTVSPost2010PropOp57
 70
     1
  0
XRECORD
  5
17B
102
{ACAD_REACTORS
330
17A
102
}
330
17A
100
AcDbXrecord
280
     1
102
RTVSPropertyOp0
 70
     1
102
RTVSPropertyOp1
 70
     1
102
RTVSPropertyOp2
 70
     1
102
RTVSPropertyOp3
 70
     1
102
RTVSPropertyOp4
 70
     1
102
RTVSPropertyOp5
 70
     1
102
RTVSPropertyOp6
 70
     1
102
RTVSPropertyOp7
 70
     1
102
RTVSPropertyOp8
 70
     1
102
RTVSPropertyOp9
 70
     1
102
RTVSPropertyOp10
 70
     1
102
RTVSPropertyOp11
 70
     1
102
RTVSPropertyOp12
 70
     1
102
RTVSPropertyOp13
 70
     1
102
RTVSPropertyOp14
 70
     1
102
RTVSPropertyOp15
 70
     1
102
RTVSPropertyOp16
 70
     1
102
RTVSPropertyOp17
 70
     1
102
RTVSPropertyOp18
 70
     1
102
RTVSPropertyOp19
 70
     1
102
RTVSPropertyOp20
 70
     1
102
RTVSPropertyOp21
 70
     1
102
RTVSPropertyOp22
 70
     1
102
RTVSPropertyOp23
 70
     1
102
RTVSPropertyOp24
 70
     1
102
RTVSPropertyOp25
 70
     1
102
RTVSPropertyOp26
 70
     1
102
RTVSPropertyOp27
 70
     1
102
RTVSPropertyOp28
 70
     1
102
RTVSPropertyOp29
 70
     1
102
RTVSPropertyOp30
 70
     1
102
RTVSPropertyOp31
 70
     1
102
RTVSPropertyOp32
 70
     1
102
RTVSPropertyOp33
 70
     1
102
RTVSPropertyOp34
 70
     1
102
RTVSPropertyOp35
 70
     1
102
RTVSPropertyOp36
 70
     1
102
RTVSPropertyOp37
 70
     1
102
RTVSPropertyOp38
 70
     1
102
RTVSPropertyOp39
 70
     1
102
RTVSPropertyOp40
 70
     1
102
RTVSPropertyOp41
 70
     1
102
RTVSPropertyOp42
 70
     1
102
RTVSPropertyOp43
 70
     1
102
RTVSPropertyOp44
 70
     1
102
RTVSPropertyOp45
 70
     1
102
RTVSPropertyOp46
 70
     1
102
RTVSPropertyOp47
 70
     1
102
RTVSPropertyOp48
 70
     1
102
RTVSPropertyOp49
 70
     1
102
RTVSPropertyOp50
 70
     1
102
RTVSPropertyOp51
 70
     0
102
RTVSPropertyOp52
 70
     0
102
RTVSPropertyOp53
 70
     1
102
RTVSPropertyOp54
 70
     1
102
RTVSPropertyOp55
 70
     1
102
RTVSPropertyOp56
 70
     1
102
RTVSPropertyOp57
 70
     1
102
RTVSPost2010Prop28
280
     0
102
RTVSPost2010PropOp28
 70
     1
102
RTVSPost2010Prop29
280
     1
102
RTVSPost2010PropOp29
 70
     1
102
RTVSPost2010Prop30
280
     1
102
RTVSPost2010PropOp30
 70
     1
102
RTVSPost2010Prop31
280
     0
102
RTVSPost2010PropOp31
 70
     1
102
RTVSPost2010Prop32
280
     0
102
RTVSPost2010PropOp32
 70
     1
102
RTVSPost2010Prop33
280
     0
102
RTVSPost2010PropOp33
 70
     1
102
RTVSPost2010Prop34
280
     0
102
RTVSPost2010PropOp34
 70
     1
102
RTVSPost2010Prop35
280
     0
102
RTVSPost2010PropOp35
 70
     1
102
RTVSPost2010Prop36
280
     0
102
RTVSPost2010PropOp36
 70
     1
102
RTVSPost2010Prop37
 90
       50
102
RTVSPost2010PropOp37
 70
     1
102
RTVSPost2010Prop38
140
0.0
102
RTVSPost2010PropOp38
 70
     1
102
RTVSPost2010Prop39
140
1.0
102
RTVSPost2010PropOp39
 70
     1
102
RTVSPost2010Prop40
 90
        0
102
RTVSPost2010PropOp40
 70
     1
102
RTVSPost2010Prop41ColorIndex
 90
       18
102
RTVSPost2010Prop41ColorRGB
 90
        0
102
RTVSPost2010PropOp41
 70
     1
102
RTVSPost2010Prop42
 90
       50
102
RTVSPost2010PropOp42
 70
     1
102
RTVSPost2010Prop43
 90
        3
102
RTVSPost2010PropOp43
 70
     1
102
RTVSPost2010Prop44ColorIndex
 90
        5
102
RTVSPost2010Prop44ColorRGB
 90
      255
102
RTVSPost2010PropOp44
 70
     1
102
RTVSPost2010Prop45
280
     0
102
RTVSPost2010PropOp45
 70
     1
102
RTVSPost2010Prop46
 90
       50
102
RTVSPost2010PropOp46
 70
     1
102
RTVSPost2010Prop47
 90
       50
102
RTVSPost2010PropOp47
 70
     1
102
RTVSPost2010Prop48
 90
       50
102
RTVSPost2010PropOp48
 70
     1
102
RTVSPost2010Prop49
280
     0
102
RTVSPost2010PropOp49
 70
     1
102
RTVSPost2010Prop50
 90
       50
102
RTVSPost2010PropOp50
 70
     1
102
RTVSPost2010Prop51ColorIndex
 90
      256
102
RTVSPost2010Prop51ColorRGB
 90
-16777216
102
RTVSPost2010PropOp51
 70
     0
102
RTVSPost2010Prop52
140
1.0
102
RTVSPost2010PropOp52
 70
     0
102
RTVSPost2010Prop53
 90
        2
102
RTVSPost2010PropOp53
 70
     1
102
RTVSPost2010Prop54
  1
strokes_ogs.tif
102
RTVSPost2010PropOp54
 70
     1
102
RTVSPost2010Prop55
280
     0
102
RTVSPost2010PropOp55
 70
     1
102
RTVSPost2010Prop56
140
1.0
102
RTVSPost2010PropOp56
 70
     1
102
RTVSPost2010Prop57
140
1.0
102
RTVSPost2010PropOp57
 70
     1
  0
XRECORD
  5
183
102
{ACAD_REACTORS
330
182
102
}
330
182
100
AcDbXrecord
280
     1
102
RTVSPropertyOp0
 70
     1
102
RTVSPropertyOp1
 70
     1
102
RTVSPropertyOp2
 70
     1
102
RTVSPropertyOp3
 70
     1
102
RTVSPropertyOp4
 70
     1
102
RTVSPropertyOp5
 70
     1
102
RTVSPropertyOp6
 70
     1
102
RTVSPropertyOp7
 70
     1
102
RTVSPropertyOp8
 70
     1
102
RTVSPropertyOp9
 70
     1
102
RTVSPropertyOp10
 70
     1
102
RTVSPropertyOp11
 70
     1
102
RTVSPropertyOp12
 70
     1
102
RTVSPropertyOp13
 70
     1
102
RTVSPropertyOp14
 70
     1
102
RTVSPropertyOp15
 70
     1
102
RTVSPropertyOp16
 70
     1
102
RTVSPropertyOp17
 70
     1
102
RTVSPropertyOp18
 70
     1
102
RTVSPropertyOp19
 70
     1
102
RTVSPropertyOp20
 70
     1
102
RTVSPropertyOp21
 70
     1
102
RTVSPropertyOp22
 70
     1
102
RTVSPropertyOp23
 70
     1
102
RTVSPropertyOp24
 70
     1
102
RTVSPropertyOp25
 70
     1
102
RTVSPropertyOp26
 70
     1
102
RTVSPropertyOp27
 70
     1
102
RTVSPropertyOp28
 70
     1
102
RTVSPropertyOp29
 70
     1
102
RTVSPropertyOp30
 70
     1
102
RTVSPropertyOp31
 70
     1
102
RTVSPropertyOp32
 70
     1
102
RTVSPropertyOp33
 70
     1
102
RTVSPropertyOp34
 70
     1
102
RTVSPropertyOp35
 70
     1
102
RTVSPropertyOp36
 70
     1
102
RTVSPropertyOp37
 70
     1
102
RTVSPropertyOp38
 70
     1
102
RTVSPropertyOp39
 70
     1
102
RTVSPropertyOp40
 70
     1
102
RTVSPropertyOp41
 70
     1
102
RTVSPropertyOp42
 70
     1
102
RTVSPropertyOp43
 70
     1
102
RTVSPropertyOp44
 70
     1
102
RTVSPropertyOp45
 70
     1
102
RTVSPropertyOp46
 70
     1
102
RTVSPropertyOp47
 70
     1
102
RTVSPropertyOp48
 70
     1
102
RTVSPropertyOp49
 70
     1
102
RTVSPropertyOp50
 70
     1
102
RTVSPropertyOp51
 70
     0
102
RTVSPropertyOp52
 70
     0
102
RTVSPropertyOp53
 70
     1
102
RTVSPropertyOp54
 70
     1
102
RTVSPropertyOp55
 70
     1
102
RTVSPropertyOp56
 70
     1
102
RTVSPropertyOp57
 70
     1
102
RTVSPost2010Prop28
280
     0
102
RTVSPost2010PropOp28
 70
     1
102
RTVSPost2010Prop29
280
     1
102
RTVSPost2010PropOp29
 70
     1
102
RTVSPost2010Prop30
280
     1
102
RTVSPost2010PropOp30
 70
     1
102
RTVSPost2010Prop31
280
     0
102
RTVSPost2010PropOp31
 70
     1
102
RTVSPost2010Prop32
280
     0
102
RTVSPost2010PropOp32
 70
     1
102
RTVSPost2010Prop33
280
     0
102
RTVSPost2010PropOp33
 70
     1
102
RTVSPost2010Prop34
280
     0
102
RTVSPost2010PropOp34
 70
     1
102
RTVSPost2010Prop35
280
     0
102
RTVSPost2010PropOp35
 70
     1
102
RTVSPost2010Prop36
280
     0
102
RTVSPost2010PropOp36
 70
     1
102
RTVSPost2010Prop37
 90
       50
102
RTVSPost2010PropOp37
 70
     1
102
RTVSPost2010Prop38
140
0.0
102
RTVSPost2010PropOp38
 70
     1
102
RTVSPost2010Prop39
140
1.0
102
RTVSPost2010PropOp39
 70
     1
102
RTVSPost2010Prop40
 90
        0
102
RTVSPost2010PropOp40
 70
     1
102
RTVSPost2010Prop41ColorIndex
 90
       18
102
RTVSPost2010Prop41ColorRGB
 90
        0
102
RTVSPost2010PropOp41
 70
     1
102
RTVSPost2010Prop42
 90
       50
102
RTVSPost2010PropOp42
 70
     1
102
RTVSPost2010Prop43
 90
        3
102
RTVSPost2010PropOp43
 70
     1
102
RTVSPost2010Prop44ColorIndex
 90
        5
102
RTVSPost2010Prop44ColorRGB
 90
      255
102
RTVSPost2010PropOp44
 70
     1
102
RTVSPost2010Prop45
280
     0
102
RTVSPost2010PropOp45
 70
     1
102
RTVSPost2010Prop46
 90
       50
102
RTVSPost2010PropOp46
 70
     1
102
RTVSPost2010Prop47
 90
       50
102
RTVSPost2010PropOp47
 70
     1
102
RTVSPost2010Prop48
 90
       50
102
RTVSPost2010PropOp48
 70
     1
102
RTVSPost2010Prop49
280
     0
102
RTVSPost2010PropOp49
 70
     1
102
RTVSPost2010Prop50
 90
       50
102
RTVSPost2010PropOp50
 70
     1
102
RTVSPost2010Prop51ColorIndex
 90
      256
102
RTVSPost2010Prop51ColorRGB
 90
-16777216
102
RTVSPost2010PropOp51
 70
     0
102
RTVSPost2010Prop52
140
1.0
102
RTVSPost2010PropOp52
 70
     0
102
RTVSPost2010Prop53
 90
        2
102
RTVSPost2010PropOp53
 70
     1
102
RTVSPost2010Prop54
  1
strokes_ogs.tif
102
RTVSPost2010PropOp54
 70
     1
102
RTVSPost2010Prop55
280
     0
102
RTVSPost2010PropOp55
 70
     1
102
RTVSPost2010Prop56
140
1.0
102
RTVSPost2010PropOp56
 70
     1
102
RTVSPost2010Prop57
140
1.0
102
RTVSPost2010PropOp57
 70
     1
  0
XRECORD
  5
18B
102
{ACAD_REACTORS
330
18A
102
}
330
18A
100
AcDbXrecord
280
     1
102
RTVSPropertyOp0
 70
     1
102
RTVSPropertyOp1
 70
     1
102
RTVSPropertyOp2
 70
     1
102
RTVSPropertyOp3
 70
     1
102
RTVSPropertyOp4
 70
     1
102
RTVSPropertyOp5
 70
     1
102
RTVSPropertyOp6
 70
     1
102
RTVSPropertyOp7
 70
     1
102
RTVSPropertyOp8
 70
     1
102
RTVSPropertyOp9
 70
     1
102
RTVSPropertyOp10
 70
     1
102
RTVSPropertyOp11
 70
     1
102
RTVSPropertyOp12
 70
     1
102
RTVSPropertyOp13
 70
     1
102
RTVSPropertyOp14
 70
     1
102
RTVSPropertyOp15
 70
     1
102
RTVSPropertyOp16
 70
     1
102
RTVSPropertyOp17
 70
     1
102
RTVSPropertyOp18
 70
     1
102
RTVSPropertyOp19
 70
     1
102
RTVSPropertyOp20
 70
     1
102
RTVSPropertyOp21
 70
     1
102
RTVSPropertyOp22
 70
     1
102
RTVSPropertyOp23
 70
     1
102
RTVSPropertyOp24
 70
     1
102
RTVSPropertyOp25
 70
     1
102
RTVSPropertyOp26
 70
     1
102
RTVSPropertyOp27
 70
     1
102
RTVSPropertyOp28
 70
     1
102
RTVSPropertyOp29
 70
     1
102
RTVSPropertyOp30
 70
     1
102
RTVSPropertyOp31
 70
     1
102
RTVSPropertyOp32
 70
     1
102
RTVSPropertyOp33
 70
     1
102
RTVSPropertyOp34
 70
     1
102
RTVSPropertyOp35
 70
     1
102
RTVSPropertyOp36
 70
     1
102
RTVSPropertyOp37
 70
     1
102
RTVSPropertyOp38
 70
     1
102
RTVSPropertyOp39
 70
     1
102
RTVSPropertyOp40
 70
     1
102
RTVSPropertyOp41
 70
     1
102
RTVSPropertyOp42
 70
     1
102
RTVSPropertyOp43
 70
     1
102
RTVSPropertyOp44
 70
     1
102
RTVSPropertyOp45
 70
     1
102
RTVSPropertyOp46
 70
     1
102
RTVSPropertyOp47
 70
     1
102
RTVSPropertyOp48
 70
     1
102
RTVSPropertyOp49
 70
     1
102
RTVSPropertyOp50
 70
     1
102
RTVSPropertyOp51
 70
     0
102
RTVSPropertyOp52
 70
     0
102
RTVSPropertyOp53
 70
     1
102
RTVSPropertyOp54
 70
     1
102
RTVSPropertyOp55
 70
     1
102
RTVSPropertyOp56
 70
     1
102
RTVSPropertyOp57
 70
     1
102
RTVSPost2010Prop28
280
     0
102
RTVSPost2010PropOp28
 70
     1
102
RTVSPost2010Prop29
280
     1
102
RTVSPost2010PropOp29
 70
     1
102
RTVSPost2010Prop30
280
     1
102
RTVSPost2010PropOp30
 70
     1
102
RTVSPost2010Prop31
280
     0
102
RTVSPost2010PropOp31
 70
     1
102
RTVSPost2010Prop32
280
     0
102
RTVSPost2010PropOp32
 70
     1
102
RTVSPost2010Prop33
280
     0
102
RTVSPost2010PropOp33
 70
     1
102
RTVSPost2010Prop34
280
     0
102
RTVSPost2010PropOp34
 70
     1
102
RTVSPost2010Prop35
280
     0
102
RTVSPost2010PropOp35
 70
     1
102
RTVSPost2010Prop36
280
     0
102
RTVSPost2010PropOp36
 70
     1
102
RTVSPost2010Prop37
 90
       50
102
RTVSPost2010PropOp37
 70
     1
102
RTVSPost2010Prop38
140
0.0
102
RTVSPost2010PropOp38
 70
     1
102
RTVSPost2010Prop39
140
1.0
102
RTVSPost2010PropOp39
 70
     1
102
RTVSPost2010Prop40
 90
        0
102
RTVSPost2010PropOp40
 70
     1
102
RTVSPost2010Prop41ColorIndex
 90
       18
102
RTVSPost2010Prop41ColorRGB
 90
        0
102
RTVSPost2010PropOp41
 70
     1
102
RTVSPost2010Prop42
 90
       50
102
RTVSPost2010PropOp42
 70
     1
102
RTVSPost2010Prop43
 90
        3
102
RTVSPost2010PropOp43
 70
     1
102
RTVSPost2010Prop44ColorIndex
 90
        5
102
RTVSPost2010Prop44ColorRGB
 90
      255
102
RTVSPost2010PropOp44
 70
     1
102
RTVSPost2010Prop45
280
     0
102
RTVSPost2010PropOp45
 70
     1
102
RTVSPost2010Prop46
 90
       50
102
RTVSPost2010PropOp46
 70
     1
102
RTVSPost2010Prop47
 90
       50
102
RTVSPost2010PropOp47
 70
     1
102
RTVSPost2010Prop48
 90
       50
102
RTVSPost2010PropOp48
 70
     1
102
RTVSPost2010Prop49
280
     0
102
RTVSPost2010PropOp49
 70
     1
102
RTVSPost2010Prop50
 90
       50
102
RTVSPost2010PropOp50
 70
     1
102
RTVSPost2010Prop51ColorIndex
 90
      256
102
RTVSPost2010Prop51ColorRGB
 90
-16777216
102
RTVSPost2010PropOp51
 70
     0
102
RTVSPost2010Prop52
140
1.0
102
RTVSPost2010PropOp52
 70
     0
102
RTVSPost2010Prop53
 90
        2
102
RTVSPost2010PropOp53
 70
     1
102
RTVSPost2010Prop54
  1
strokes_ogs.tif
102
RTVSPost2010PropOp54
 70
     1
102
RTVSPost2010Prop55
280
     0
102
RTVSPost2010PropOp55
 70
     1
102
RTVSPost2010Prop56
140
1.0
102
RTVSPost2010PropOp56
 70
     1
102
RTVSPost2010Prop57
140
1.0
102
RTVSPost2010PropOp57
 70
     1
  0
XRECORD
  5
17F
102
{ACAD_REACTORS
330
17E
102
}
330
17E
100
AcDbXrecord
280
     1
102
RTVSPropertyOp0
 70
     1
102
RTVSPropertyOp1
 70
     1
102
RTVSPropertyOp2
 70
     1
102
RTVSPropertyOp3
 70
     1
102
RTVSPropertyOp4
 70
     1
102
RTVSPropertyOp5
 70
     1
102
RTVSPropertyOp6
 70
     1
102
RTVSPropertyOp7
 70
     1
102
RTVSPropertyOp8
 70
     1
102
RTVSPropertyOp9
 70
     1
102
RTVSPropertyOp10
 70
     1
102
RTVSPropertyOp11
 70
     1
102
RTVSPropertyOp12
 70
     1
102
RTVSPropertyOp13
 70
     1
102
RTVSPropertyOp14
 70
     1
102
RTVSPropertyOp15
 70
     1
102
RTVSPropertyOp16
 70
     1
102
RTVSPropertyOp17
 70
     1
102
RTVSPropertyOp18
 70
     1
102
RTVSPropertyOp19
 70
     1
102
RTVSPropertyOp20
 70
     1
102
RTVSPropertyOp21
 70
     1
102
RTVSPropertyOp22
 70
     1
102
RTVSPropertyOp23
 70
     1
102
RTVSPropertyOp24
 70
     1
102
RTVSPropertyOp25
 70
     1
102
RTVSPropertyOp26
 70
     1
102
RTVSPropertyOp27
 70
     1
102
RTVSPropertyOp28
 70
     1
102
RTVSPropertyOp29
 70
     1
102
RTVSPropertyOp30
 70
     1
102
RTVSPropertyOp31
 70
     1
102
RTVSPropertyOp32
 70
     1
102
RTVSPropertyOp33
 70
     1
102
RTVSPropertyOp34
 70
     1
102
RTVSPropertyOp35
 70
     1
102
RTVSPropertyOp36
 70
     1
102
RTVSPropertyOp37
 70
     1
102
RTVSPropertyOp38
 70
     1
102
RTVSPropertyOp39
 70
     1
102
RTVSPropertyOp40
 70
     1
102
RTVSPropertyOp41
 70
     1
102
RTVSPropertyOp42
 70
     1
102
RTVSPropertyOp43
 70
     1
102
RTVSPropertyOp44
 70
     1
102
RTVSPropertyOp45
 70
     1
102
RTVSPropertyOp46
 70
     1
102
RTVSPropertyOp47
 70
     1
102
RTVSPropertyOp48
 70
     1
102
RTVSPropertyOp49
 70
     1
102
RTVSPropertyOp50
 70
     1
102
RTVSPropertyOp51
 70
     0
102
RTVSPropertyOp52
 70
     0
102
RTVSPropertyOp53
 70
     1
102
RTVSPropertyOp54
 70
     1
102
RTVSPropertyOp55
 70
     1
102
RTVSPropertyOp56
 70
     1
102
RTVSPropertyOp57
 70
     1
102
RTVSPost2010Prop28
280
     0
102
RTVSPost2010PropOp28
 70
     1
102
RTVSPost2010Prop29
280
     1
102
RTVSPost2010PropOp29
 70
     1
102
RTVSPost2010Prop30
280
     1
102
RTVSPost2010PropOp30
 70
     1
102
RTVSPost2010Prop31
280
     0
102
RTVSPost2010PropOp31
 70
     1
102
RTVSPost2010Prop32
280
     0
102
RTVSPost2010PropOp32
 70
     1
102
RTVSPost2010Prop33
280
     0
102
RTVSPost2010PropOp33
 70
     1
102
RTVSPost2010Prop34
280
     0
102
RTVSPost2010PropOp34
 70
     1
102
RTVSPost2010Prop35
280
     0
102
RTVSPost2010PropOp35
 70
     1
102
RTVSPost2010Prop36
280
     0
102
RTVSPost2010PropOp36
 70
     1
102
RTVSPost2010Prop37
 90
       50
102
RTVSPost2010PropOp37
 70
     1
102
RTVSPost2010Prop38
140
0.0
102
RTVSPost2010PropOp38
 70
     1
102
RTVSPost2010Prop39
140
1.0
102
RTVSPost2010PropOp39
 70
     1
102
RTVSPost2010Prop40
 90
        0
102
RTVSPost2010PropOp40
 70
     1
102
RTVSPost2010Prop41ColorIndex
 90
       18
102
RTVSPost2010Prop41ColorRGB
 90
        0
102
RTVSPost2010PropOp41
 70
     1
102
RTVSPost2010Prop42
 90
       50
102
RTVSPost2010PropOp42
 70
     1
102
RTVSPost2010Prop43
 90
        3
102
RTVSPost2010PropOp43
 70
     1
102
RTVSPost2010Prop44ColorIndex
 90
        5
102
RTVSPost2010Prop44ColorRGB
 90
      255
102
RTVSPost2010PropOp44
 70
     1
102
RTVSPost2010Prop45
280
     0
102
RTVSPost2010PropOp45
 70
     1
102
RTVSPost2010Prop46
 90
       50
102
RTVSPost2010PropOp46
 70
     1
102
RTVSPost2010Prop47
 90
       50
102
RTVSPost2010PropOp47
 70
     1
102
RTVSPost2010Prop48
 90
       50
102
RTVSPost2010PropOp48
 70
     1
102
RTVSPost2010Prop49
280
     0
102
RTVSPost2010PropOp49
 70
     1
102
RTVSPost2010Prop50
 90
       50
102
RTVSPost2010PropOp50
 70
     1
102
RTVSPost2010Prop51ColorIndex
 90
      256
102
RTVSPost2010Prop51ColorRGB
 90
-16777216
102
RTVSPost2010PropOp51
 70
     0
102
RTVSPost2010Prop52
140
1.0
102
RTVSPost2010PropOp52
 70
     0
102
RTVSPost2010Prop53
 90
        2
102
RTVSPost2010PropOp53
 70
     1
102
RTVSPost2010Prop54
  1
strokes_ogs.tif
102
RTVSPost2010PropOp54
 70
     1
102
RTVSPost2010Prop55
280
     0
102
RTVSPost2010PropOp55
 70
     1
102
RTVSPost2010Prop56
140
1.0
102
RTVSPost2010PropOp56
 70
     1
102
RTVSPost2010Prop57
140
1.0
102
RTVSPost2010PropOp57
 70
     1
  0
XRECORD
  5
181
102
{ACAD_REACTORS
330
180
102
}
330
180
100
AcDbXrecord
280
     1
102
RTVSPropertyOp0
 70
     1
102
RTVSPropertyOp1
 70
     1
102
RTVSPropertyOp2
 70
     1
102
RTVSPropertyOp3
 70
     1
102
RTVSPropertyOp4
 70
     1
102
RTVSPropertyOp5
 70
     1
102
RTVSPropertyOp6
 70
     1
102
RTVSPropertyOp7
 70
     1
102
RTVSPropertyOp8
 70
     1
102
RTVSPropertyOp9
 70
     1
102
RTVSPropertyOp10
 70
     1
102
RTVSPropertyOp11
 70
     1
102
RTVSPropertyOp12
 70
     1
102
RTVSPropertyOp13
 70
     1
102
RTVSPropertyOp14
 70
     1
102
RTVSPropertyOp15
 70
     1
102
RTVSPropertyOp16
 70
     1
102
RTVSPropertyOp17
 70
     1
102
RTVSPropertyOp18
 70
     1
102
RTVSPropertyOp19
 70
     1
102
RTVSPropertyOp20
 70
     1
102
RTVSPropertyOp21
 70
     1
102
RTVSPropertyOp22
 70
     1
102
RTVSPropertyOp23
 70
     1
102
RTVSPropertyOp24
 70
     1
102
RTVSPropertyOp25
 70
     1
102
RTVSPropertyOp26
 70
     1
102
RTVSPropertyOp27
 70
     1
102
RTVSPropertyOp28
 70
     1
102
RTVSPropertyOp29
 70
     1
102
RTVSPropertyOp30
 70
     1
102
RTVSPropertyOp31
 70
     1
102
RTVSPropertyOp32
 70
     1
102
RTVSPropertyOp33
 70
     1
102
RTVSPropertyOp34
 70
     1
102
RTVSPropertyOp35
 70
     1
102
RTVSPropertyOp36
 70
     1
102
RTVSPropertyOp37
 70
     1
102
RTVSPropertyOp38
 70
     1
102
RTVSPropertyOp39
 70
     1
102
RTVSPropertyOp40
 70
     1
102
RTVSPropertyOp41
 70
     1
102
RTVSPropertyOp42
 70
     1
102
RTVSPropertyOp43
 70
     1
102
RTVSPropertyOp44
 70
     1
102
RTVSPropertyOp45
 70
     1
102
RTVSPropertyOp46
 70
     1
102
RTVSPropertyOp47
 70
     1
102
RTVSPropertyOp48
 70
     1
102
RTVSPropertyOp49
 70
     1
102
RTVSPropertyOp50
 70
     1
102
RTVSPropertyOp51
 70
     0
102
RTVSPropertyOp52
 70
     0
102
RTVSPropertyOp53
 70
     1
102
RTVSPropertyOp54
 70
     1
102
RTVSPropertyOp55
 70
     1
102
RTVSPropertyOp56
 70
     1
102
RTVSPropertyOp57
 70
     1
102
RTVSPost2010Prop28
280
     0
102
RTVSPost2010PropOp28
 70
     1
102
RTVSPost2010Prop29
280
     1
102
RTVSPost2010PropOp29
 70
     1
102
RTVSPost2010Prop30
280
     1
102
RTVSPost2010PropOp30
 70
     1
102
RTVSPost2010Prop31
280
     0
102
RTVSPost2010PropOp31
 70
     1
102
RTVSPost2010Prop32
280
     0
102
RTVSPost2010PropOp32
 70
     1
102
RTVSPost2010Prop33
280
     0
102
RTVSPost2010PropOp33
 70
     1
102
RTVSPost2010Prop34
280
     0
102
RTVSPost2010PropOp34
 70
     1
102
RTVSPost2010Prop35
280
     0
102
RTVSPost2010PropOp35
 70
     1
102
RTVSPost2010Prop36
280
     0
102
RTVSPost2010PropOp36
 70
     1
102
RTVSPost2010Prop37
 90
       50
102
RTVSPost2010PropOp37
 70
     1
102
RTVSPost2010Prop38
140
0.0
102
RTVSPost2010PropOp38
 70
     1
102
RTVSPost2010Prop39
140
1.0
102
RTVSPost2010PropOp39
 70
     1
102
RTVSPost2010Prop40
 90
        0
102
RTVSPost2010PropOp40
 70
     1
102
RTVSPost2010Prop41ColorIndex
 90
       18
102
RTVSPost2010Prop41ColorRGB
 90
        0
102
RTVSPost2010PropOp41
 70
     1
102
RTVSPost2010Prop42
 90
       50
102
RTVSPost2010PropOp42
 70
     1
102
RTVSPost2010Prop43
 90
        3
102
RTVSPost2010PropOp43
 70
     1
102
RTVSPost2010Prop44ColorIndex
 90
        5
102
RTVSPost2010Prop44ColorRGB
 90
      255
102
RTVSPost2010PropOp44
 70
     1
102
RTVSPost2010Prop45
280
     0
102
RTVSPost2010PropOp45
 70
     1
102
RTVSPost2010Prop46
 90
       50
102
RTVSPost2010PropOp46
 70
     1
102
RTVSPost2010Prop47
 90
       50
102
RTVSPost2010PropOp47
 70
     1
102
RTVSPost2010Prop48
 90
       50
102
RTVSPost2010PropOp48
 70
     1
102
RTVSPost2010Prop49
280
     0
102
RTVSPost2010PropOp49
 70
     1
102
RTVSPost2010Prop50
 90
       50
102
RTVSPost2010PropOp50
 70
     1
102
RTVSPost2010Prop51ColorIndex
 90
      256
102
RTVSPost2010Prop51ColorRGB
 90
-16777216
102
RTVSPost2010PropOp51
 70
     0
102
RTVSPost2010Prop52
140
1.0
102
RTVSPost2010PropOp52
 70
     0
102
RTVSPost2010Prop53
 90
        2
102
RTVSPost2010PropOp53
 70
     1
102
RTVSPost2010Prop54
  1
strokes_ogs.tif
102
RTVSPost2010PropOp54
 70
     1
102
RTVSPost2010Prop55
280
     0
102
RTVSPost2010PropOp55
 70
     1
102
RTVSPost2010Prop56
140
1.0
102
RTVSPost2010PropOp56
 70
     1
102
RTVSPost2010Prop57
140
1.0
102
RTVSPost2010PropOp57
 70
     1
  0
XRECORD
  5
191
102
{ACAD_REACTORS
330
190
102
}
330
190
100
AcDbXrecord
280
     1
102
RTVSPropertyOp0
 70
     0
102
RTVSPropertyOp1
 70
     0
102
RTVSPropertyOp2
 70
     0
102
RTVSPropertyOp3
 70
     0
102
RTVSPropertyOp4
 70
     0
102
RTVSPropertyOp5
 70
     0
102
RTVSPropertyOp6
 70
     0
102
RTVSPropertyOp7
 70
     0
102
RTVSPropertyOp8
 70
     0
102
RTVSPropertyOp9
 70
     0
102
RTVSPropertyOp10
 70
     0
102
RTVSPropertyOp11
 70
     0
102
RTVSPropertyOp12
 70
     0
102
RTVSPropertyOp13
 70
     0
102
RTVSPropertyOp14
 70
     2
102
RTVSPropertyOp15
 70
     0
102
RTVSPropertyOp16
 70
     0
102
RTVSPropertyOp17
 70
     0
102
RTVSPropertyOp18
 70
     0
102
RTVSPropertyOp19
 70
     0
102
RTVSPropertyOp20
 70
     0
102
RTVSPropertyOp21
 70
     0
102
RTVSPropertyOp22
 70
     0
102
RTVSPropertyOp23
 70
     0
102
RTVSPropertyOp24
 70
     0
102
RTVSPropertyOp25
 70
     0
102
RTVSPropertyOp26
 70
     0
102
RTVSPropertyOp27
 70
     0
102
RTVSPropertyOp28
 70
     0
102
RTVSPropertyOp29
 70
     0
102
RTVSPropertyOp30
 70
     0
102
RTVSPropertyOp31
 70
     0
102
RTVSPropertyOp32
 70
     0
102
RTVSPropertyOp33
 70
     0
102
RTVSPropertyOp34
 70
     0
102
RTVSPropertyOp35
 70
     0
102
RTVSPropertyOp36
 70
     0
102
RTVSPropertyOp37
 70
     0
102
RTVSPropertyOp38
 70
     0
102
RTVSPropertyOp39
 70
     0
102
RTVSPropertyOp40
 70
     0
102
RTVSPropertyOp41
 70
     0
102
RTVSPropertyOp42
 70
     0
102
RTVSPropertyOp43
 70
     0
102
RTVSPropertyOp44
 70
     0
102
RTVSPropertyOp45
 70
     0
102
RTVSPropertyOp46
 70
     0
102
RTVSPropertyOp47
 70
     0
102
RTVSPropertyOp48
 70
     0
102
RTVSPropertyOp49
 70
     0
102
RTVSPropertyOp50
 70
     0
102
RTVSPropertyOp51
 70
     0
102
RTVSPropertyOp52
 70
     0
102
RTVSPropertyOp53
 70
     0
102
RTVSPropertyOp54
 70
     0
102
RTVSPropertyOp55
 70
     0
102
RTVSPropertyOp56
 70
     0
102
RTVSPropertyOp57
 70
     0
102
RTVSPost2010Prop28
280
     0
102
RTVSPost2010PropOp28
 70
     0
102
RTVSPost2010Prop29
280
     1
102
RTVSPost2010PropOp29
 70
     0
102
RTVSPost2010Prop30
280
     1
102
RTVSPost2010PropOp30
 70
     0
102
RTVSPost2010Prop31
280
     0
102
RTVSPost2010PropOp31
 70
     0
102
RTVSPost2010Prop32
280
     0
102
RTVSPost2010PropOp32
 70
     0
102
RTVSPost2010Prop33
280
     0
102
RTVSPost2010PropOp33
 70
     0
102
RTVSPost2010Prop34
280
     0
102
RTVSPost2010PropOp34
 70
     0
102
RTVSPost2010Prop35
280
     0
102
RTVSPost2010PropOp35
 70
     0
102
RTVSPost2010Prop36
280
     0
102
RTVSPost2010PropOp36
 70
     0
102
RTVSPost2010Prop37
 90
       50
102
RTVSPost2010PropOp37
 70
     0
102
RTVSPost2010Prop38
140
0.0
102
RTVSPost2010PropOp38
 70
     0
102
RTVSPost2010Prop39
140
1.0
102
RTVSPost2010PropOp39
 70
     0
102
RTVSPost2010Prop40
 90
        0
102
RTVSPost2010PropOp40
 70
     0
102
RTVSPost2010Prop41ColorIndex
 90
       18
102
RTVSPost2010Prop41ColorRGB
 90
        0
102
RTVSPost2010PropOp41
 70
     0
102
RTVSPost2010Prop42
 90
       50
102
RTVSPost2010PropOp42
 70
     0
102
RTVSPost2010Prop43
 90
        3
102
RTVSPost2010PropOp43
 70
     0
102
RTVSPost2010Prop44ColorIndex
 90
        5
102
RTVSPost2010Prop44ColorRGB
 90
      255
102
RTVSPost2010PropOp44
 70
     0
102
RTVSPost2010Prop45
280
     0
102
RTVSPost2010PropOp45
 70
     0
102
RTVSPost2010Prop46
 90
       50
102
RTVSPost2010PropOp46
 70
     0
102
RTVSPost2010Prop47
 90
       50
102
RTVSPost2010PropOp47
 70
     0
102
RTVSPost2010Prop48
 90
       50
102
RTVSPost2010PropOp48
 70
     0
102
RTVSPost2010Prop49
280
     0
102
RTVSPost2010PropOp49
 70
     0
102
RTVSPost2010Prop50
 90
       50
102
RTVSPost2010PropOp50
 70
     0
102
RTVSPost2010Prop51ColorIndex
 90
      256
102
RTVSPost2010Prop51ColorRGB
 90
-16777216
102
RTVSPost2010PropOp51
 70
     0
102
RTVSPost2010Prop52
140
1.0
102
RTVSPost2010PropOp52
 70
     0
102
RTVSPost2010Prop53
 90
        2
102
RTVSPost2010PropOp53
 70
     0
102
RTVSPost2010Prop54
  1
strokes_ogs.tif
102
RTVSPost2010PropOp54
 70
     0
102
RTVSPost2010Prop55
280
     0
102
RTVSPost2010PropOp55
 70
     0
102
RTVSPost2010Prop56
140
1.0
102
RTVSPost2010PropOp56
 70
     0
102
RTVSPost2010Prop57
140
1.0
102
RTVSPost2010PropOp57
 70
     0
  0
XRECORD
  5
189
102
{ACAD_REACTORS
330
188
102
}
330
188
100
AcDbXrecord
280
     1
102
RTVSPropertyOp0
 70
     1
102
RTVSPropertyOp1
 70
     1
102
RTVSPropertyOp2
 70
     1
102
RTVSPropertyOp3
 70
     1
102
RTVSPropertyOp4
 70
     1
102
RTVSPropertyOp5
 70
     1
102
RTVSPropertyOp6
 70
     1
102
RTVSPropertyOp7
 70
     1
102
RTVSPropertyOp8
 70
     1
102
RTVSPropertyOp9
 70
     1
102
RTVSPropertyOp10
 70
     1
102
RTVSPropertyOp11
 70
     1
102
RTVSPropertyOp12
 70
     1
102
RTVSPropertyOp13
 70
     1
102
RTVSPropertyOp14
 70
     1
102
RTVSPropertyOp15
 70
     1
102
RTVSPropertyOp16
 70
     1
102
RTVSPropertyOp17
 70
     1
102
RTVSPropertyOp18
 70
     1
102
RTVSPropertyOp19
 70
     1
102
RTVSPropertyOp20
 70
     1
102
RTVSPropertyOp21
 70
     1
102
RTVSPropertyOp22
 70
     1
102
RTVSPropertyOp23
 70
     1
102
RTVSPropertyOp24
 70
     1
102
RTVSPropertyOp25
 70
     1
102
RTVSPropertyOp26
 70
     1
102
RTVSPropertyOp27
 70
     1
102
RTVSPropertyOp28
 70
     1
102
RTVSPropertyOp29
 70
     1
102
RTVSPropertyOp30
 70
     1
102
RTVSPropertyOp31
 70
     1
102
RTVSPropertyOp32
 70
     1
102
RTVSPropertyOp33
 70
     1
102
RTVSPropertyOp34
 70
     1
102
RTVSPropertyOp35
 70
     1
102
RTVSPropertyOp36
 70
     1
102
RTVSPropertyOp37
 70
     1
102
RTVSPropertyOp38
 70
     1
102
RTVSPropertyOp39
 70
     1
102
RTVSPropertyOp40
 70
     1
102
RTVSPropertyOp41
 70
     1
102
RTVSPropertyOp42
 70
     1
102
RTVSPropertyOp43
 70
     1
102
RTVSPropertyOp44
 70
     1
102
RTVSPropertyOp45
 70
     1
102
RTVSPropertyOp46
 70
     1
102
RTVSPropertyOp47
 70
     1
102
RTVSPropertyOp48
 70
     1
102
RTVSPropertyOp49
 70
     1
102
RTVSPropertyOp50
 70
     1
102
RTVSPropertyOp51
 70
     0
102
RTVSPropertyOp52
 70
     0
102
RTVSPropertyOp53
 70
     1
102
RTVSPropertyOp54
 70
     1
102
RTVSPropertyOp55
 70
     1
102
RTVSPropertyOp56
 70
     1
102
RTVSPropertyOp57
 70
     1
102
RTVSPost2010Prop28
280
     0
102
RTVSPost2010PropOp28
 70
     1
102
RTVSPost2010Prop29
280
     1
102
RTVSPost2010PropOp29
 70
     1
102
RTVSPost2010Prop30
280
     1
102
RTVSPost2010PropOp30
 70
     1
102
RTVSPost2010Prop31
280
     0
102
RTVSPost2010PropOp31
 70
     1
102
RTVSPost2010Prop32
280
     0
102
RTVSPost2010PropOp32
 70
     1
102
RTVSPost2010Prop33
280
     0
102
RTVSPost2010PropOp33
 70
     1
102
RTVSPost2010Prop34
280
     0
102
RTVSPost2010PropOp34
 70
     1
102
RTVSPost2010Prop35
280
     0
102
RTVSPost2010PropOp35
 70
     1
102
RTVSPost2010Prop36
280
     0
102
RTVSPost2010PropOp36
 70
     1
102
RTVSPost2010Prop37
 90
       50
102
RTVSPost2010PropOp37
 70
     1
102
RTVSPost2010Prop38
140
0.0
102
RTVSPost2010PropOp38
 70
     1
102
RTVSPost2010Prop39
140
1.0
102
RTVSPost2010PropOp39
 70
     1
102
RTVSPost2010Prop40
 90
        0
102
RTVSPost2010PropOp40
 70
     1
102
RTVSPost2010Prop41ColorIndex
 90
       18
102
RTVSPost2010Prop41ColorRGB
 90
        0
102
RTVSPost2010PropOp41
 70
     1
102
RTVSPost2010Prop42
 90
       50
102
RTVSPost2010PropOp42
 70
     1
102
RTVSPost2010Prop43
 90
        3
102
RTVSPost2010PropOp43
 70
     1
102
RTVSPost2010Prop44ColorIndex
 90
        5
102
RTVSPost2010Prop44ColorRGB
 90
      255
102
RTVSPost2010PropOp44
 70
     1
102
RTVSPost2010Prop45
280
     0
102
RTVSPost2010PropOp45
 70
     1
102
RTVSPost2010Prop46
 90
       50
102
RTVSPost2010PropOp46
 70
     1
102
RTVSPost2010Prop47
 90
       50
102
RTVSPost2010PropOp47
 70
     1
102
RTVSPost2010Prop48
 90
       50
102
RTVSPost2010PropOp48
 70
     1
102
RTVSPost2010Prop49
280
     0
102
RTVSPost2010PropOp49
 70
     1
102
RTVSPost2010Prop50
 90
       50
102
RTVSPost2010PropOp50
 70
     1
102
RTVSPost2010Prop51ColorIndex
 90
      256
102
RTVSPost2010Prop51ColorRGB
 90
-16777216
102
RTVSPost2010PropOp51
 70
     0
102
RTVSPost2010Prop52
140
1.0
102
RTVSPost2010PropOp52
 70
     0
102
RTVSPost2010Prop53
 90
        2
102
RTVSPost2010PropOp53
 70
     1
102
RTVSPost2010Prop54
  1
strokes_ogs.tif
102
RTVSPost2010PropOp54
 70
     1
102
RTVSPost2010Prop55
280
     0
102
RTVSPost2010PropOp55
 70
     1
102
RTVSPost2010Prop56
140
1.0
102
RTVSPost2010PropOp56
 70
     1
102
RTVSPost2010Prop57
140
1.0
102
RTVSPost2010PropOp57
 70
     1
  0
XRECORD
  5
16D
102
{ACAD_REACTORS
330
16C
102
}
330
16C
100
AcDbXrecord
280
     1
102
RTVSPropertyOp0
 70
     1
102
RTVSPropertyOp1
 70
     1
102
RTVSPropertyOp2
 70
     1
102
RTVSPropertyOp3
 70
     1
102
RTVSPropertyOp4
 70
     1
102
RTVSPropertyOp5
 70
     1
102
RTVSPropertyOp6
 70
     1
102
RTVSPropertyOp7
 70
     1
102
RTVSPropertyOp8
 70
     1
102
RTVSPropertyOp9
 70
     1
102
RTVSPropertyOp10
 70
     1
102
RTVSPropertyOp11
 70
     1
102
RTVSPropertyOp12
 70
     1
102
RTVSPropertyOp13
 70
     1
102
RTVSPropertyOp14
 70
     1
102
RTVSPropertyOp15
 70
     1
102
RTVSPropertyOp16
 70
     1
102
RTVSPropertyOp17
 70
     1
102
RTVSPropertyOp18
 70
     1
102
RTVSPropertyOp19
 70
     1
102
RTVSPropertyOp20
 70
     1
102
RTVSPropertyOp21
 70
     1
102
RTVSPropertyOp22
 70
     1
102
RTVSPropertyOp23
 70
     1
102
RTVSPropertyOp24
 70
     1
102
RTVSPropertyOp25
 70
     1
102
RTVSPropertyOp26
 70
     1
102
RTVSPropertyOp27
 70
     1
102
RTVSPropertyOp28
 70
     1
102
RTVSPropertyOp29
 70
     1
102
RTVSPropertyOp30
 70
     1
102
RTVSPropertyOp31
 70
     1
102
RTVSPropertyOp32
 70
     1
102
RTVSPropertyOp33
 70
     1
102
RTVSPropertyOp34
 70
     1
102
RTVSPropertyOp35
 70
     1
102
RTVSPropertyOp36
 70
     1
102
RTVSPropertyOp37
 70
     1
102
RTVSPropertyOp38
 70
     1
102
RTVSPropertyOp39
 70
     1
102
RTVSPropertyOp40
 70
     1
102
RTVSPropertyOp41
 70
     1
102
RTVSPropertyOp42
 70
     1
102
RTVSPropertyOp43
 70
     1
102
RTVSPropertyOp44
 70
     1
102
RTVSPropertyOp45
 70
     1
102
RTVSPropertyOp46
 70
     1
102
RTVSPropertyOp47
 70
     1
102
RTVSPropertyOp48
 70
     1
102
RTVSPropertyOp49
 70
     1
102
RTVSPropertyOp50
 70
     1
102
RTVSPropertyOp51
 70
     0
102
RTVSPropertyOp52
 70
     0
102
RTVSPropertyOp53
 70
     1
102
RTVSPropertyOp54
 70
     1
102
RTVSPropertyOp55
 70
     1
102
RTVSPropertyOp56
 70
     1
102
RTVSPropertyOp57
 70
     1
102
RTVSPost2010Prop28
280
     0
102
RTVSPost2010PropOp28
 70
     1
102
RTVSPost2010Prop29
280
     1
102
RTVSPost2010PropOp29
 70
     1
102
RTVSPost2010Prop30
280
     1
102
RTVSPost2010PropOp30
 70
     1
102
RTVSPost2010Prop31
280
     0
102
RTVSPost2010PropOp31
 70
     1
102
RTVSPost2010Prop32
280
     0
102
RTVSPost2010PropOp32
 70
     1
102
RTVSPost2010Prop33
280
     0
102
RTVSPost2010PropOp33
 70
     1
102
RTVSPost2010Prop34
280
     0
102
RTVSPost2010PropOp34
 70
     1
102
RTVSPost2010Prop35
280
     0
102
RTVSPost2010PropOp35
 70
     1
102
RTVSPost2010Prop36
280
     0
102
RTVSPost2010PropOp36
 70
     1
102
RTVSPost2010Prop37
 90
       50
102
RTVSPost2010PropOp37
 70
     1
102
RTVSPost2010Prop38
140
0.0
102
RTVSPost2010PropOp38
 70
     1
102
RTVSPost2010Prop39
140
1.0
102
RTVSPost2010PropOp39
 70
     1
102
RTVSPost2010Prop40
 90
        0
102
RTVSPost2010PropOp40
 70
     1
102
RTVSPost2010Prop41ColorIndex
 90
       18
102
RTVSPost2010Prop41ColorRGB
 90
        0
102
RTVSPost2010PropOp41
 70
     1
102
RTVSPost2010Prop42
 90
       50
102
RTVSPost2010PropOp42
 70
     1
102
RTVSPost2010Prop43
 90
        3
102
RTVSPost2010PropOp43
 70
     1
102
RTVSPost2010Prop44ColorIndex
 90
        5
102
RTVSPost2010Prop44ColorRGB
 90
      255
102
RTVSPost2010PropOp44
 70
     1
102
RTVSPost2010Prop45
280
     0
102
RTVSPost2010PropOp45
 70
     1
102
RTVSPost2010Prop46
 90
       50
102
RTVSPost2010PropOp46
 70
     1
102
RTVSPost2010Prop47
 90
       50
102
RTVSPost2010PropOp47
 70
     1
102
RTVSPost2010Prop48
 90
       50
102
RTVSPost2010PropOp48
 70
     1
102
RTVSPost2010Prop49
280
     0
102
RTVSPost2010PropOp49
 70
     1
102
RTVSPost2010Prop50
 90
       50
102
RTVSPost2010PropOp50
 70
     1
102
RTVSPost2010Prop51ColorIndex
 90
      256
102
RTVSPost2010Prop51ColorRGB
 90
-16777216
102
RTVSPost2010PropOp51
 70
     0
102
RTVSPost2010Prop52
140
1.0
102
RTVSPost2010PropOp52
 70
     0
102
RTVSPost2010Prop53
 90
        2
102
RTVSPost2010PropOp53
 70
     1
102
RTVSPost2010Prop54
  1
strokes_ogs.tif
102
RTVSPost2010PropOp54
 70
     1
102
RTVSPost2010Prop55
280
     0
102
RTVSPost2010PropOp55
 70
     1
102
RTVSPost2010Prop56
140
1.0
102
RTVSPost2010PropOp56
 70
     1
102
RTVSPost2010Prop57
140
1.0
102
RTVSPost2010PropOp57
 70
     1
  0
XRECORD
  5
16F
102
{ACAD_REACTORS
330
16E
102
}
330
16E
100
AcDbXrecord
280
     1
102
RTVSPropertyOp0
 70
     1
102
RTVSPropertyOp1
 70
     1
102
RTVSPropertyOp2
 70
     1
102
RTVSPropertyOp3
 70
     1
102
RTVSPropertyOp4
 70
     1
102
RTVSPropertyOp5
 70
     1
102
RTVSPropertyOp6
 70
     1
102
RTVSPropertyOp7
 70
     1
102
RTVSPropertyOp8
 70
     1
102
RTVSPropertyOp9
 70
     1
102
RTVSPropertyOp10
 70
     1
102
RTVSPropertyOp11
 70
     1
102
RTVSPropertyOp12
 70
     1
102
RTVSPropertyOp13
 70
     1
102
RTVSPropertyOp14
 70
     1
102
RTVSPropertyOp15
 70
     1
102
RTVSPropertyOp16
 70
     1
102
RTVSPropertyOp17
 70
     1
102
RTVSPropertyOp18
 70
     1
102
RTVSPropertyOp19
 70
     1
102
RTVSPropertyOp20
 70
     1
102
RTVSPropertyOp21
 70
     1
102
RTVSPropertyOp22
 70
     1
102
RTVSPropertyOp23
 70
     1
102
RTVSPropertyOp24
 70
     1
102
RTVSPropertyOp25
 70
     1
102
RTVSPropertyOp26
 70
     1
102
RTVSPropertyOp27
 70
     1
102
RTVSPropertyOp28
 70
     1
102
RTVSPropertyOp29
 70
     1
102
RTVSPropertyOp30
 70
     1
102
RTVSPropertyOp31
 70
     1
102
RTVSPropertyOp32
 70
     1
102
RTVSPropertyOp33
 70
     1
102
RTVSPropertyOp34
 70
     1
102
RTVSPropertyOp35
 70
     1
102
RTVSPropertyOp36
 70
     1
102
RTVSPropertyOp37
 70
     1
102
RTVSPropertyOp38
 70
     1
102
RTVSPropertyOp39
 70
     1
102
RTVSPropertyOp40
 70
     1
102
RTVSPropertyOp41
 70
     1
102
RTVSPropertyOp42
 70
     1
102
RTVSPropertyOp43
 70
     1
102
RTVSPropertyOp44
 70
     1
102
RTVSPropertyOp45
 70
     1
102
RTVSPropertyOp46
 70
     1
102
RTVSPropertyOp47
 70
     1
102
RTVSPropertyOp48
 70
     1
102
RTVSPropertyOp49
 70
     1
102
RTVSPropertyOp50
 70
     1
102
RTVSPropertyOp51
 70
     0
102
RTVSPropertyOp52
 70
     0
102
RTVSPropertyOp53
 70
     1
102
RTVSPropertyOp54
 70
     1
102
RTVSPropertyOp55
 70
     1
102
RTVSPropertyOp56
 70
     1
102
RTVSPropertyOp57
 70
     1
102
RTVSPost2010Prop28
280
     0
102
RTVSPost2010PropOp28
 70
     1
102
RTVSPost2010Prop29
280
     1
102
RTVSPost2010PropOp29
 70
     1
102
RTVSPost2010Prop30
280
     1
102
RTVSPost2010PropOp30
 70
     1
102
RTVSPost2010Prop31
280
     0
102
RTVSPost2010PropOp31
 70
     1
102
RTVSPost2010Prop32
280
     0
102
RTVSPost2010PropOp32
 70
     1
102
RTVSPost2010Prop33
280
     0
102
RTVSPost2010PropOp33
 70
     1
102
RTVSPost2010Prop34
280
     0
102
RTVSPost2010PropOp34
 70
     1
102
RTVSPost2010Prop35
280
     0
102
RTVSPost2010PropOp35
 70
     1
102
RTVSPost2010Prop36
280
     0
102
RTVSPost2010PropOp36
 70
     1
102
RTVSPost2010Prop37
 90
       50
102
RTVSPost2010PropOp37
 70
     1
102
RTVSPost2010Prop38
140
0.0
102
RTVSPost2010PropOp38
 70
     1
102
RTVSPost2010Prop39
140
1.0
102
RTVSPost2010PropOp39
 70
     1
102
RTVSPost2010Prop40
 90
        0
102
RTVSPost2010PropOp40
 70
     1
102
RTVSPost2010Prop41ColorIndex
 90
       18
102
RTVSPost2010Prop41ColorRGB
 90
        0
102
RTVSPost2010PropOp41
 70
     1
102
RTVSPost2010Prop42
 90
       50
102
RTVSPost2010PropOp42
 70
     1
102
RTVSPost2010Prop43
 90
        3
102
RTVSPost2010PropOp43
 70
     1
102
RTVSPost2010Prop44ColorIndex
 90
        5
102
RTVSPost2010Prop44ColorRGB
 90
      255
102
RTVSPost2010PropOp44
 70
     1
102
RTVSPost2010Prop45
280
     0
102
RTVSPost2010PropOp45
 70
     1
102
RTVSPost2010Prop46
 90
       50
102
RTVSPost2010PropOp46
 70
     1
102
RTVSPost2010Prop47
 90
       50
102
RTVSPost2010PropOp47
 70
     1
102
RTVSPost2010Prop48
 90
       50
102
RTVSPost2010PropOp48
 70
     1
102
RTVSPost2010Prop49
280
     0
102
RTVSPost2010PropOp49
 70
     1
102
RTVSPost2010Prop50
 90
       50
102
RTVSPost2010PropOp50
 70
     1
102
RTVSPost2010Prop51ColorIndex
 90
      256
102
RTVSPost2010Prop51ColorRGB
 90
-16777216
102
RTVSPost2010PropOp51
 70
     0
102
RTVSPost2010Prop52
140
1.0
102
RTVSPost2010PropOp52
 70
     0
102
RTVSPost2010Prop53
 90
        2
102
RTVSPost2010PropOp53
 70
     1
102
RTVSPost2010Prop54
  1
strokes_ogs.tif
102
RTVSPost2010PropOp54
 70
     1
102
RTVSPost2010Prop55
280
     0
102
RTVSPost2010PropOp55
 70
     1
102
RTVSPost2010Prop56
140
1.0
102
RTVSPost2010PropOp56
 70
     1
102
RTVSPost2010Prop57
140
1.0
102
RTVSPost2010PropOp57
 70
     1
  0
XRECORD
  5
171
102
{ACAD_REACTORS
330
170
102
}
330
170
100
AcDbXrecord
280
     1
102
RTVSPropertyOp0
 70
     1
102
RTVSPropertyOp1
 70
     1
102
RTVSPropertyOp2
 70
     1
102
RTVSPropertyOp3
 70
     1
102
RTVSPropertyOp4
 70
     1
102
RTVSPropertyOp5
 70
     1
102
RTVSPropertyOp6
 70
     1
102
RTVSPropertyOp7
 70
     1
102
RTVSPropertyOp8
 70
     1
102
RTVSPropertyOp9
 70
     1
102
RTVSPropertyOp10
 70
     1
102
RTVSPropertyOp11
 70
     1
102
RTVSPropertyOp12
 70
     1
102
RTVSPropertyOp13
 70
     1
102
RTVSPropertyOp14
 70
     1
102
RTVSPropertyOp15
 70
     1
102
RTVSPropertyOp16
 70
     1
102
RTVSPropertyOp17
 70
     1
102
RTVSPropertyOp18
 70
     1
102
RTVSPropertyOp19
 70
     1
102
RTVSPropertyOp20
 70
     1
102
RTVSPropertyOp21
 70
     1
102
RTVSPropertyOp22
 70
     1
102
RTVSPropertyOp23
 70
     1
102
RTVSPropertyOp24
 70
     1
102
RTVSPropertyOp25
 70
     1
102
RTVSPropertyOp26
 70
     1
102
RTVSPropertyOp27
 70
     1
102
RTVSPropertyOp28
 70
     1
102
RTVSPropertyOp29
 70
     1
102
RTVSPropertyOp30
 70
     1
102
RTVSPropertyOp31
 70
     1
102
RTVSPropertyOp32
 70
     1
102
RTVSPropertyOp33
 70
     1
102
RTVSPropertyOp34
 70
     1
102
RTVSPropertyOp35
 70
     1
102
RTVSPropertyOp36
 70
     1
102
RTVSPropertyOp37
 70
     1
102
RTVSPropertyOp38
 70
     1
102
RTVSPropertyOp39
 70
     1
102
RTVSPropertyOp40
 70
     1
102
RTVSPropertyOp41
 70
     1
102
RTVSPropertyOp42
 70
     1
102
RTVSPropertyOp43
 70
     1
102
RTVSPropertyOp44
 70
     1
102
RTVSPropertyOp45
 70
     1
102
RTVSPropertyOp46
 70
     1
102
RTVSPropertyOp47
 70
     1
102
RTVSPropertyOp48
 70
     1
102
RTVSPropertyOp49
 70
     1
102
RTVSPropertyOp50
 70
     1
102
RTVSPropertyOp51
 70
     0
102
RTVSPropertyOp52
 70
     0
102
RTVSPropertyOp53
 70
     1
102
RTVSPropertyOp54
 70
     1
102
RTVSPropertyOp55
 70
     1
102
RTVSPropertyOp56
 70
     1
102
RTVSPropertyOp57
 70
     1
102
RTVSPost2010Prop28
280
     0
102
RTVSPost2010PropOp28
 70
     1
102
RTVSPost2010Prop29
280
     1
102
RTVSPost2010PropOp29
 70
     1
102
RTVSPost2010Prop30
280
     1
102
RTVSPost2010PropOp30
 70
     1
102
RTVSPost2010Prop31
280
     0
102
RTVSPost2010PropOp31
 70
     1
102
RTVSPost2010Prop32
280
     0
102
RTVSPost2010PropOp32
 70
     1
102
RTVSPost2010Prop33
280
     0
102
RTVSPost2010PropOp33
 70
     1
102
RTVSPost2010Prop34
280
     0
102
RTVSPost2010PropOp34
 70
     1
102
RTVSPost2010Prop35
280
     0
102
RTVSPost2010PropOp35
 70
     1
102
RTVSPost2010Prop36
280
     0
102
RTVSPost2010PropOp36
 70
     1
102
RTVSPost2010Prop37
 90
       50
102
RTVSPost2010PropOp37
 70
     1
102
RTVSPost2010Prop38
140
0.0
102
RTVSPost2010PropOp38
 70
     1
102
RTVSPost2010Prop39
140
1.0
102
RTVSPost2010PropOp39
 70
     1
102
RTVSPost2010Prop40
 90
        0
102
RTVSPost2010PropOp40
 70
     1
102
RTVSPost2010Prop41ColorIndex
 90
       18
102
RTVSPost2010Prop41ColorRGB
 90
        0
102
RTVSPost2010PropOp41
 70
     1
102
RTVSPost2010Prop42
 90
       50
102
RTVSPost2010PropOp42
 70
     1
102
RTVSPost2010Prop43
 90
        3
102
RTVSPost2010PropOp43
 70
     1
102
RTVSPost2010Prop44ColorIndex
 90
        5
102
RTVSPost2010Prop44ColorRGB
 90
      255
102
RTVSPost2010PropOp44
 70
     1
102
RTVSPost2010Prop45
280
     0
102
RTVSPost2010PropOp45
 70
     1
102
RTVSPost2010Prop46
 90
       50
102
RTVSPost2010PropOp46
 70
     1
102
RTVSPost2010Prop47
 90
       50
102
RTVSPost2010PropOp47
 70
     1
102
RTVSPost2010Prop48
 90
       50
102
RTVSPost2010PropOp48
 70
     1
102
RTVSPost2010Prop49
280
     0
102
RTVSPost2010PropOp49
 70
     1
102
RTVSPost2010Prop50
 90
       50
102
RTVSPost2010PropOp50
 70
     1
102
RTVSPost2010Prop51ColorIndex
 90
      256
102
RTVSPost2010Prop51ColorRGB
 90
-16777216
102
RTVSPost2010PropOp51
 70
     0
102
RTVSPost2010Prop52
140
1.0
102
RTVSPost2010PropOp52
 70
     0
102
RTVSPost2010Prop53
 90
        2
102
RTVSPost2010PropOp53
 70
     1
102
RTVSPost2010Prop54
  1
strokes_ogs.tif
102
RTVSPost2010PropOp54
 70
     1
102
RTVSPost2010Prop55
280
     0
102
RTVSPost2010PropOp55
 70
     1
102
RTVSPost2010Prop56
140
1.0
102
RTVSPost2010PropOp56
 70
     1
102
RTVSPost2010Prop57
140
1.0
102
RTVSPost2010PropOp57
 70
     1
  0
XRECORD
  5
173
102
{ACAD_REACTORS
330
172
102
}
330
172
100
AcDbXrecord
280
     1
102
RTVSPropertyOp0
 70
     1
102
RTVSPropertyOp1
 70
     1
102
RTVSPropertyOp2
 70
     1
102
RTVSPropertyOp3
 70
     1
102
RTVSPropertyOp4
 70
     1
102
RTVSPropertyOp5
 70
     1
102
RTVSPropertyOp6
 70
     1
102
RTVSPropertyOp7
 70
     1
102
RTVSPropertyOp8
 70
     1
102
RTVSPropertyOp9
 70
     1
102
RTVSPropertyOp10
 70
     1
102
RTVSPropertyOp11
 70
     1
102
RTVSPropertyOp12
 70
     1
102
RTVSPropertyOp13
 70
     1
102
RTVSPropertyOp14
 70
     1
102
RTVSPropertyOp15
 70
     1
102
RTVSPropertyOp16
 70
     1
102
RTVSPropertyOp17
 70
     1
102
RTVSPropertyOp18
 70
     1
102
RTVSPropertyOp19
 70
     1
102
RTVSPropertyOp20
 70
     1
102
RTVSPropertyOp21
 70
     1
102
RTVSPropertyOp22
 70
     1
102
RTVSPropertyOp23
 70
     1
102
RTVSPropertyOp24
 70
     1
102
RTVSPropertyOp25
 70
     1
102
RTVSPropertyOp26
 70
     1
102
RTVSPropertyOp27
 70
     1
102
RTVSPropertyOp28
 70
     1
102
RTVSPropertyOp29
 70
     1
102
RTVSPropertyOp30
 70
     1
102
RTVSPropertyOp31
 70
     1
102
RTVSPropertyOp32
 70
     1
102
RTVSPropertyOp33
 70
     1
102
RTVSPropertyOp34
 70
     1
102
RTVSPropertyOp35
 70
     1
102
RTVSPropertyOp36
 70
     1
102
RTVSPropertyOp37
 70
     1
102
RTVSPropertyOp38
 70
     1
102
RTVSPropertyOp39
 70
     1
102
RTVSPropertyOp40
 70
     1
102
RTVSPropertyOp41
 70
     1
102
RTVSPropertyOp42
 70
     1
102
RTVSPropertyOp43
 70
     1
102
RTVSPropertyOp44
 70
     1
102
RTVSPropertyOp45
 70
     1
102
RTVSPropertyOp46
 70
     1
102
RTVSPropertyOp47
 70
     1
102
RTVSPropertyOp48
 70
     1
102
RTVSPropertyOp49
 70
     1
102
RTVSPropertyOp50
 70
     1
102
RTVSPropertyOp51
 70
     0
102
RTVSPropertyOp52
 70
     0
102
RTVSPropertyOp53
 70
     1
102
RTVSPropertyOp54
 70
     1
102
RTVSPropertyOp55
 70
     1
102
RTVSPropertyOp56
 70
     1
102
RTVSPropertyOp57
 70
     1
102
RTVSPost2010Prop28
280
     0
102
RTVSPost2010PropOp28
 70
     1
102
RTVSPost2010Prop29
280
     1
102
RTVSPost2010PropOp29
 70
     1
102
RTVSPost2010Prop30
280
     1
102
RTVSPost2010PropOp30
 70
     1
102
RTVSPost2010Prop31
280
     0
102
RTVSPost2010PropOp31
 70
     1
102
RTVSPost2010Prop32
280
     0
102
RTVSPost2010PropOp32
 70
     1
102
RTVSPost2010Prop33
280
     0
102
RTVSPost2010PropOp33
 70
     1
102
RTVSPost2010Prop34
280
     0
102
RTVSPost2010PropOp34
 70
     1
102
RTVSPost2010Prop35
280
     0
102
RTVSPost2010PropOp35
 70
     1
102
RTVSPost2010Prop36
280
     0
102
RTVSPost2010PropOp36
 70
     1
102
RTVSPost2010Prop37
 90
       50
102
RTVSPost2010PropOp37
 70
     1
102
RTVSPost2010Prop38
140
0.0
102
RTVSPost2010PropOp38
 70
     1
102
RTVSPost2010Prop39
140
1.0
102
RTVSPost2010PropOp39
 70
     1
102
RTVSPost2010Prop40
 90
        0
102
RTVSPost2010PropOp40
 70
     1
102
RTVSPost2010Prop41ColorIndex
 90
       18
102
RTVSPost2010Prop41ColorRGB
 90
        0
102
RTVSPost2010PropOp41
 70
     1
102
RTVSPost2010Prop42
 90
       50
102
RTVSPost2010PropOp42
 70
     1
102
RTVSPost2010Prop43
 90
        3
102
RTVSPost2010PropOp43
 70
     1
102
RTVSPost2010Prop44ColorIndex
 90
        5
102
RTVSPost2010Prop44ColorRGB
 90
      255
102
RTVSPost2010PropOp44
 70
     1
102
RTVSPost2010Prop45
280
     0
102
RTVSPost2010PropOp45
 70
     1
102
RTVSPost2010Prop46
 90
       50
102
RTVSPost2010PropOp46
 70
     1
102
RTVSPost2010Prop47
 90
       50
102
RTVSPost2010PropOp47
 70
     1
102
RTVSPost2010Prop48
 90
       50
102
RTVSPost2010PropOp48
 70
     1
102
RTVSPost2010Prop49
280
     0
102
RTVSPost2010PropOp49
 70
     1
102
RTVSPost2010Prop50
 90
       50
102
RTVSPost2010PropOp50
 70
     1
102
RTVSPost2010Prop51ColorIndex
 90
      256
102
RTVSPost2010Prop51ColorRGB
 90
-16777216
102
RTVSPost2010PropOp51
 70
     0
102
RTVSPost2010Prop52
140
1.0
102
RTVSPost2010PropOp52
 70
     0
102
RTVSPost2010Prop53
 90
        2
102
RTVSPost2010PropOp53
 70
     1
102
RTVSPost2010Prop54
  1
strokes_ogs.tif
102
RTVSPost2010PropOp54
 70
     1
102
RTVSPost2010Prop55
280
     0
102
RTVSPost2010PropOp55
 70
     1
102
RTVSPost2010Prop56
140
1.0
102
RTVSPost2010PropOp56
 70
     1
102
RTVSPost2010Prop57
140
1.0
102
RTVSPost2010PropOp57
 70
     1
  0
XRECORD
  5
179
102
{ACAD_REACTORS
330
178
102
}
330
178
100
AcDbXrecord
280
     1
102
RTVSPropertyOp0
 70
     1
102
RTVSPropertyOp1
 70
     1
102
RTVSPropertyOp2
 70
     1
102
RTVSPropertyOp3
 70
     1
102
RTVSPropertyOp4
 70
     1
102
RTVSPropertyOp5
 70
     1
102
RTVSPropertyOp6
 70
     1
102
RTVSPropertyOp7
 70
     1
102
RTVSPropertyOp8
 70
     1
102
RTVSPropertyOp9
 70
     1
102
RTVSPropertyOp10
 70
     1
102
RTVSPropertyOp11
 70
     1
102
RTVSPropertyOp12
 70
     1
102
RTVSPropertyOp13
 70
     1
102
RTVSPropertyOp14
 70
     1
102
RTVSPropertyOp15
 70
     1
102
RTVSPropertyOp16
 70
     1
102
RTVSPropertyOp17
 70
     1
102
RTVSPropertyOp18
 70
     1
102
RTVSPropertyOp19
 70
     1
102
RTVSPropertyOp20
 70
     1
102
RTVSPropertyOp21
 70
     1
102
RTVSPropertyOp22
 70
     1
102
RTVSPropertyOp23
 70
     1
102
RTVSPropertyOp24
 70
     1
102
RTVSPropertyOp25
 70
     1
102
RTVSPropertyOp26
 70
     1
102
RTVSPropertyOp27
 70
     1
102
RTVSPropertyOp28
 70
     1
102
RTVSPropertyOp29
 70
     1
102
RTVSPropertyOp30
 70
     1
102
RTVSPropertyOp31
 70
     1
102
RTVSPropertyOp32
 70
     1
102
RTVSPropertyOp33
 70
     1
102
RTVSPropertyOp34
 70
     1
102
RTVSPropertyOp35
 70
     1
102
RTVSPropertyOp36
 70
     1
102
RTVSPropertyOp37
 70
     1
102
RTVSPropertyOp38
 70
     1
102
RTVSPropertyOp39
 70
     1
102
RTVSPropertyOp40
 70
     1
102
RTVSPropertyOp41
 70
     1
102
RTVSPropertyOp42
 70
     1
102
RTVSPropertyOp43
 70
     1
102
RTVSPropertyOp44
 70
     1
102
RTVSPropertyOp45
 70
     1
102
RTVSPropertyOp46
 70
     1
102
RTVSPropertyOp47
 70
     1
102
RTVSPropertyOp48
 70
     1
102
RTVSPropertyOp49
 70
     1
102
RTVSPropertyOp50
 70
     1
102
RTVSPropertyOp51
 70
     0
102
RTVSPropertyOp52
 70
     0
102
RTVSPropertyOp53
 70
     1
102
RTVSPropertyOp54
 70
     1
102
RTVSPropertyOp55
 70
     1
102
RTVSPropertyOp56
 70
     1
102
RTVSPropertyOp57
 70
     1
102
RTVSPost2010Prop28
280
     0
102
RTVSPost2010PropOp28
 70
     1
102
RTVSPost2010Prop29
280
     1
102
RTVSPost2010PropOp29
 70
     1
102
RTVSPost2010Prop30
280
     1
102
RTVSPost2010PropOp30
 70
     1
102
RTVSPost2010Prop31
280
     0
102
RTVSPost2010PropOp31
 70
     1
102
RTVSPost2010Prop32
280
     0
102
RTVSPost2010PropOp32
 70
     1
102
RTVSPost2010Prop33
280
     0
102
RTVSPost2010PropOp33
 70
     1
102
RTVSPost2010Prop34
280
     0
102
RTVSPost2010PropOp34
 70
     1
102
RTVSPost2010Prop35
280
     0
102
RTVSPost2010PropOp35
 70
     1
102
RTVSPost2010Prop36
280
     0
102
RTVSPost2010PropOp36
 70
     1
102
RTVSPost2010Prop37
 90
       50
102
RTVSPost2010PropOp37
 70
     1
102
RTVSPost2010Prop38
140
0.0
102
RTVSPost2010PropOp38
 70
     1
102
RTVSPost2010Prop39
140
1.0
102
RTVSPost2010PropOp39
 70
     1
102
RTVSPost2010Prop40
 90
        0
102
RTVSPost2010PropOp40
 70
     1
102
RTVSPost2010Prop41ColorIndex
 90
       18
102
RTVSPost2010Prop41ColorRGB
 90
        0
102
RTVSPost2010PropOp41
 70
     1
102
RTVSPost2010Prop42
 90
       50
102
RTVSPost2010PropOp42
 70
     1
102
RTVSPost2010Prop43
 90
        3
102
RTVSPost2010PropOp43
 70
     1
102
RTVSPost2010Prop44ColorIndex
 90
        5
102
RTVSPost2010Prop44ColorRGB
 90
      255
102
RTVSPost2010PropOp44
 70
     1
102
RTVSPost2010Prop45
280
     0
102
RTVSPost2010PropOp45
 70
     1
102
RTVSPost2010Prop46
 90
       50
102
RTVSPost2010PropOp46
 70
     1
102
RTVSPost2010Prop47
 90
       50
102
RTVSPost2010PropOp47
 70
     1
102
RTVSPost2010Prop48
 90
       50
102
RTVSPost2010PropOp48
 70
     1
102
RTVSPost2010Prop49
280
     0
102
RTVSPost2010PropOp49
 70
     1
102
RTVSPost2010Prop50
 90
       50
102
RTVSPost2010PropOp50
 70
     1
102
RTVSPost2010Prop51ColorIndex
 90
      256
102
RTVSPost2010Prop51ColorRGB
 90
-16777216
102
RTVSPost2010PropOp51
 70
     0
102
RTVSPost2010Prop52
140
1.0
102
RTVSPost2010PropOp52
 70
     0
102
RTVSPost2010Prop53
 90
        2
102
RTVSPost2010PropOp53
 70
     1
102
RTVSPost2010Prop54
  1
strokes_ogs.tif
102
RTVSPost2010PropOp54
 70
     1
102
RTVSPost2010Prop55
280
     0
102
RTVSPost2010PropOp55
 70
     1
102
RTVSPost2010Prop56
140
1.0
102
RTVSPost2010PropOp56
 70
     1
102
RTVSPost2010Prop57
140
1.0
102
RTVSPost2010PropOp57
 70
     1
  0
XRECORD
  5
18D
102
{ACAD_REACTORS
330
18C
102
}
330
18C
100
AcDbXrecord
280
     1
102
RTVSPropertyOp0
 70
     0
102
RTVSPropertyOp1
 70
     0
102
RTVSPropertyOp2
 70
     0
102
RTVSPropertyOp3
 70
     0
102
RTVSPropertyOp4
 70
     0
102
RTVSPropertyOp5
 70
     0
102
RTVSPropertyOp6
 70
     0
102
RTVSPropertyOp7
 70
     0
102
RTVSPropertyOp8
 70
     0
102
RTVSPropertyOp9
 70
     0
102
RTVSPropertyOp10
 70
     0
102
RTVSPropertyOp11
 70
     0
102
RTVSPropertyOp12
 70
     0
102
RTVSPropertyOp13
 70
     0
102
RTVSPropertyOp14
 70
     2
102
RTVSPropertyOp15
 70
     0
102
RTVSPropertyOp16
 70
     0
102
RTVSPropertyOp17
 70
     0
102
RTVSPropertyOp18
 70
     0
102
RTVSPropertyOp19
 70
     0
102
RTVSPropertyOp20
 70
     0
102
RTVSPropertyOp21
 70
     0
102
RTVSPropertyOp22
 70
     0
102
RTVSPropertyOp23
 70
     0
102
RTVSPropertyOp24
 70
     0
102
RTVSPropertyOp25
 70
     0
102
RTVSPropertyOp26
 70
     0
102
RTVSPropertyOp27
 70
     0
102
RTVSPropertyOp28
 70
     0
102
RTVSPropertyOp29
 70
     0
102
RTVSPropertyOp30
 70
     0
102
RTVSPropertyOp31
 70
     0
102
RTVSPropertyOp32
 70
     0
102
RTVSPropertyOp33
 70
     0
102
RTVSPropertyOp34
 70
     0
102
RTVSPropertyOp35
 70
     0
102
RTVSPropertyOp36
 70
     0
102
RTVSPropertyOp37
 70
     0
102
RTVSPropertyOp38
 70
     0
102
RTVSPropertyOp39
 70
     0
102
RTVSPropertyOp40
 70
     0
102
RTVSPropertyOp41
 70
     0
102
RTVSPropertyOp42
 70
     0
102
RTVSPropertyOp43
 70
     0
102
RTVSPropertyOp44
 70
     0
102
RTVSPropertyOp45
 70
     0
102
RTVSPropertyOp46
 70
     0
102
RTVSPropertyOp47
 70
     0
102
RTVSPropertyOp48
 70
     0
102
RTVSPropertyOp49
 70
     0
102
RTVSPropertyOp50
 70
     0
102
RTVSPropertyOp51
 70
     0
102
RTVSPropertyOp52
 70
     0
102
RTVSPropertyOp53
 70
     0
102
RTVSPropertyOp54
 70
     0
102
RTVSPropertyOp55
 70
     0
102
RTVSPropertyOp56
 70
     0
102
RTVSPropertyOp57
 70
     0
102
RTVSPost2010Prop28
280
     0
102
RTVSPost2010PropOp28
 70
     0
102
RTVSPost2010Prop29
280
     1
102
RTVSPost2010PropOp29
 70
     0
102
RTVSPost2010Prop30
280
     1
102
RTVSPost2010PropOp30
 70
     0
102
RTVSPost2010Prop31
280
     0
102
RTVSPost2010PropOp31
 70
     0
102
RTVSPost2010Prop32
280
     0
102
RTVSPost2010PropOp32
 70
     0
102
RTVSPost2010Prop33
280
     0
102
RTVSPost2010PropOp33
 70
     0
102
RTVSPost2010Prop34
280
     0
102
RTVSPost2010PropOp34
 70
     0
102
RTVSPost2010Prop35
280
     0
102
RTVSPost2010PropOp35
 70
     0
102
RTVSPost2010Prop36
280
     0
102
RTVSPost2010PropOp36
 70
     0
102
RTVSPost2010Prop37
 90
       50
102
RTVSPost2010PropOp37
 70
     0
102
RTVSPost2010Prop38
140
0.0
102
RTVSPost2010PropOp38
 70
     0
102
RTVSPost2010Prop39
140
1.0
102
RTVSPost2010PropOp39
 70
     0
102
RTVSPost2010Prop40
 90
        0
102
RTVSPost2010PropOp40
 70
     0
102
RTVSPost2010Prop41ColorIndex
 90
       18
102
RTVSPost2010Prop41ColorRGB
 90
        0
102
RTVSPost2010PropOp41
 70
     0
102
RTVSPost2010Prop42
 90
       50
102
RTVSPost2010PropOp42
 70
     0
102
RTVSPost2010Prop43
 90
        3
102
RTVSPost2010PropOp43
 70
     0
102
RTVSPost2010Prop44ColorIndex
 90
        5
102
RTVSPost2010Prop44ColorRGB
 90
      255
102
RTVSPost2010PropOp44
 70
     0
102
RTVSPost2010Prop45
280
     0
102
RTVSPost2010PropOp45
 70
     0
102
RTVSPost2010Prop46
 90
       50
102
RTVSPost2010PropOp46
 70
     0
102
RTVSPost2010Prop47
 90
       50
102
RTVSPost2010PropOp47
 70
     0
102
RTVSPost2010Prop48
 90
       50
102
RTVSPost2010PropOp48
 70
     0
102
RTVSPost2010Prop49
280
     0
102
RTVSPost2010PropOp49
 70
     0
102
RTVSPost2010Prop50
 90
       50
102
RTVSPost2010PropOp50
 70
     0
102
RTVSPost2010Prop51ColorIndex
 90
      256
102
RTVSPost2010Prop51ColorRGB
 90
-16777216
102
RTVSPost2010PropOp51
 70
     0
102
RTVSPost2010Prop52
140
1.0
102
RTVSPost2010PropOp52
 70
     0
102
RTVSPost2010Prop53
 90
        2
102
RTVSPost2010PropOp53
 70
     0
102
RTVSPost2010Prop54
  1
strokes_ogs.tif
102
RTVSPost2010PropOp54
 70
     0
102
RTVSPost2010Prop55
280
     0
102
RTVSPost2010PropOp55
 70
     0
102
RTVSPost2010Prop56
140
1.0
102
RTVSPost2010PropOp56
 70
     0
102
RTVSPost2010Prop57
140
1.0
102
RTVSPost2010PropOp57
 70
     0
  0
XRECORD
  5
187
102
{ACAD_REACTORS
330
186
102
}
330
186
100
AcDbXrecord
280
     1
102
RTVSPropertyOp0
 70
     1
102
RTVSPropertyOp1
 70
     1
102
RTVSPropertyOp2
 70
     1
102
RTVSPropertyOp3
 70
     1
102
RTVSPropertyOp4
 70
     1
102
RTVSPropertyOp5
 70
     1
102
RTVSPropertyOp6
 70
     1
102
RTVSPropertyOp7
 70
     1
102
RTVSPropertyOp8
 70
     1
102
RTVSPropertyOp9
 70
     1
102
RTVSPropertyOp10
 70
     1
102
RTVSPropertyOp11
 70
     1
102
RTVSPropertyOp12
 70
     1
102
RTVSPropertyOp13
 70
     1
102
RTVSPropertyOp14
 70
     1
102
RTVSPropertyOp15
 70
     1
102
RTVSPropertyOp16
 70
     1
102
RTVSPropertyOp17
 70
     1
102
RTVSPropertyOp18
 70
     1
102
RTVSPropertyOp19
 70
     1
102
RTVSPropertyOp20
 70
     1
102
RTVSPropertyOp21
 70
     1
102
RTVSPropertyOp22
 70
     1
102
RTVSPropertyOp23
 70
     1
102
RTVSPropertyOp24
 70
     1
102
RTVSPropertyOp25
 70
     1
102
RTVSPropertyOp26
 70
     1
102
RTVSPropertyOp27
 70
     1
102
RTVSPropertyOp28
 70
     1
102
RTVSPropertyOp29
 70
     1
102
RTVSPropertyOp30
 70
     1
102
RTVSPropertyOp31
 70
     1
102
RTVSPropertyOp32
 70
     1
102
RTVSPropertyOp33
 70
     1
102
RTVSPropertyOp34
 70
     1
102
RTVSPropertyOp35
 70
     1
102
RTVSPropertyOp36
 70
     1
102
RTVSPropertyOp37
 70
     1
102
RTVSPropertyOp38
 70
     1
102
RTVSPropertyOp39
 70
     1
102
RTVSPropertyOp40
 70
     1
102
RTVSPropertyOp41
 70
     1
102
RTVSPropertyOp42
 70
     1
102
RTVSPropertyOp43
 70
     1
102
RTVSPropertyOp44
 70
     1
102
RTVSPropertyOp45
 70
     1
102
RTVSPropertyOp46
 70
     1
102
RTVSPropertyOp47
 70
     1
102
RTVSPropertyOp48
 70
     1
102
RTVSPropertyOp49
 70
     1
102
RTVSPropertyOp50
 70
     1
102
RTVSPropertyOp51
 70
     0
102
RTVSPropertyOp52
 70
     0
102
RTVSPropertyOp53
 70
     1
102
RTVSPropertyOp54
 70
     1
102
RTVSPropertyOp55
 70
     1
102
RTVSPropertyOp56
 70
     1
102
RTVSPropertyOp57
 70
     1
102
RTVSPost2010Prop28
280
     0
102
RTVSPost2010PropOp28
 70
     1
102
RTVSPost2010Prop29
280
     1
102
RTVSPost2010PropOp29
 70
     1
102
RTVSPost2010Prop30
280
     1
102
RTVSPost2010PropOp30
 70
     1
102
RTVSPost2010Prop31
280
     0
102
RTVSPost2010PropOp31
 70
     1
102
RTVSPost2010Prop32
280
     0
102
RTVSPost2010PropOp32
 70
     1
102
RTVSPost2010Prop33
280
     0
102
RTVSPost2010PropOp33
 70
     1
102
RTVSPost2010Prop34
280
     0
102
RTVSPost2010PropOp34
 70
     1
102
RTVSPost2010Prop35
280
     0
102
RTVSPost2010PropOp35
 70
     1
102
RTVSPost2010Prop36
280
     0
102
RTVSPost2010PropOp36
 70
     1
102
RTVSPost2010Prop37
 90
       50
102
RTVSPost2010PropOp37
 70
     1
102
RTVSPost2010Prop38
140
0.0
102
RTVSPost2010PropOp38
 70
     1
102
RTVSPost2010Prop39
140
1.0
102
RTVSPost2010PropOp39
 70
     1
102
RTVSPost2010Prop40
 90
        0
102
RTVSPost2010PropOp40
 70
     1
102
RTVSPost2010Prop41ColorIndex
 90
       18
102
RTVSPost2010Prop41ColorRGB
 90
        0
102
RTVSPost2010PropOp41
 70
     1
102
RTVSPost2010Prop42
 90
       50
102
RTVSPost2010PropOp42
 70
     1
102
RTVSPost2010Prop43
 90
        3
102
RTVSPost2010PropOp43
 70
     1
102
RTVSPost2010Prop44ColorIndex
 90
        5
102
RTVSPost2010Prop44ColorRGB
 90
      255
102
RTVSPost2010PropOp44
 70
     1
102
RTVSPost2010Prop45
280
     0
102
RTVSPost2010PropOp45
 70
     1
102
RTVSPost2010Prop46
 90
       50
102
RTVSPost2010PropOp46
 70
     1
102
RTVSPost2010Prop47
 90
       50
102
RTVSPost2010PropOp47
 70
     1
102
RTVSPost2010Prop48
 90
       50
102
RTVSPost2010PropOp48
 70
     1
102
RTVSPost2010Prop49
280
     0
102
RTVSPost2010PropOp49
 70
     1
102
RTVSPost2010Prop50
 90
       50
102
RTVSPost2010PropOp50
 70
     1
102
RTVSPost2010Prop51ColorIndex
 90
      256
102
RTVSPost2010Prop51ColorRGB
 90
-16777216
102
RTVSPost2010PropOp51
 70
     0
102
RTVSPost2010Prop52
140
1.0
102
RTVSPost2010PropOp52
 70
     0
102
RTVSPost2010Prop53
 90
        2
102
RTVSPost2010PropOp53
 70
     1
102
RTVSPost2010Prop54
  1
strokes_ogs.tif
102
RTVSPost2010PropOp54
 70
     1
102
RTVSPost2010Prop55
280
     0
102
RTVSPost2010PropOp55
 70
     1
102
RTVSPost2010Prop56
140
1.0
102
RTVSPost2010PropOp56
 70
     1
102
RTVSPost2010Prop57
140
1.0
102
RTVSPost2010PropOp57
 70
     1
  0
XRECORD
  5
18F
102
{ACAD_REACTORS
330
18E
102
}
330
18E
100
AcDbXrecord
280
     1
102
RTVSPropertyOp0
 70
     0
102
RTVSPropertyOp1
 70
     0
102
RTVSPropertyOp2
 70
     0
102
RTVSPropertyOp3
 70
     0
102
RTVSPropertyOp4
 70
     0
102
RTVSPropertyOp5
 70
     0
102
RTVSPropertyOp6
 70
     0
102
RTVSPropertyOp7
 70
     0
102
RTVSPropertyOp8
 70
     0
102
RTVSPropertyOp9
 70
     0
102
RTVSPropertyOp10
 70
     0
102
RTVSPropertyOp11
 70
     0
102
RTVSPropertyOp12
 70
     0
102
RTVSPropertyOp13
 70
     0
102
RTVSPropertyOp14
 70
     2
102
RTVSPropertyOp15
 70
     0
102
RTVSPropertyOp16
 70
     0
102
RTVSPropertyOp17
 70
     0
102
RTVSPropertyOp18
 70
     0
102
RTVSPropertyOp19
 70
     0
102
RTVSPropertyOp20
 70
     0
102
RTVSPropertyOp21
 70
     0
102
RTVSPropertyOp22
 70
     0
102
RTVSPropertyOp23
 70
     0
102
RTVSPropertyOp24
 70
     0
102
RTVSPropertyOp25
 70
     0
102
RTVSPropertyOp26
 70
     0
102
RTVSPropertyOp27
 70
     0
102
RTVSPropertyOp28
 70
     0
102
RTVSPropertyOp29
 70
     0
102
RTVSPropertyOp30
 70
     0
102
RTVSPropertyOp31
 70
     0
102
RTVSPropertyOp32
 70
     0
102
RTVSPropertyOp33
 70
     0
102
RTVSPropertyOp34
 70
     0
102
RTVSPropertyOp35
 70
     0
102
RTVSPropertyOp36
 70
     0
102
RTVSPropertyOp37
 70
     0
102
RTVSPropertyOp38
 70
     0
102
RTVSPropertyOp39
 70
     0
102
RTVSPropertyOp40
 70
     0
102
RTVSPropertyOp41
 70
     0
102
RTVSPropertyOp42
 70
     0
102
RTVSPropertyOp43
 70
     0
102
RTVSPropertyOp44
 70
     0
102
RTVSPropertyOp45
 70
     0
102
RTVSPropertyOp46
 70
     0
102
RTVSPropertyOp47
 70
     0
102
RTVSPropertyOp48
 70
     0
102
RTVSPropertyOp49
 70
     0
102
RTVSPropertyOp50
 70
     0
102
RTVSPropertyOp51
 70
     0
102
RTVSPropertyOp52
 70
     0
102
RTVSPropertyOp53
 70
     0
102
RTVSPropertyOp54
 70
     0
102
RTVSPropertyOp55
 70
     0
102
RTVSPropertyOp56
 70
     0
102
RTVSPropertyOp57
 70
     0
102
RTVSPost2010Prop28
280
     0
102
RTVSPost2010PropOp28
 70
     0
102
RTVSPost2010Prop29
280
     1
102
RTVSPost2010PropOp29
 70
     0
102
RTVSPost2010Prop30
280
     1
102
RTVSPost2010PropOp30
 70
     0
102
RTVSPost2010Prop31
280
     0
102
RTVSPost2010PropOp31
 70
     0
102
RTVSPost2010Prop32
280
     0
102
RTVSPost2010PropOp32
 70
     0
102
RTVSPost2010Prop33
280
     0
102
RTVSPost2010PropOp33
 70
     0
102
RTVSPost2010Prop34
280
     0
102
RTVSPost2010PropOp34
 70
     0
102
RTVSPost2010Prop35
280
     0
102
RTVSPost2010PropOp35
 70
     0
102
RTVSPost2010Prop36
280
     0
102
RTVSPost2010PropOp36
 70
     0
102
RTVSPost2010Prop37
 90
       50
102
RTVSPost2010PropOp37
 70
     0
102
RTVSPost2010Prop38
140
0.0
102
RTVSPost2010PropOp38
 70
     0
102
RTVSPost2010Prop39
140
1.0
102
RTVSPost2010PropOp39
 70
     0
102
RTVSPost2010Prop40
 90
        0
102
RTVSPost2010PropOp40
 70
     0
102
RTVSPost2010Prop41ColorIndex
 90
       18
102
RTVSPost2010Prop41ColorRGB
 90
        0
102
RTVSPost2010PropOp41
 70
     0
102
RTVSPost2010Prop42
 90
       50
102
RTVSPost2010PropOp42
 70
     0
102
RTVSPost2010Prop43
 90
        3
102
RTVSPost2010PropOp43
 70
     0
102
RTVSPost2010Prop44ColorIndex
 90
        5
102
RTVSPost2010Prop44ColorRGB
 90
      255
102
RTVSPost2010PropOp44
 70
     0
102
RTVSPost2010Prop45
280
     0
102
RTVSPost2010PropOp45
 70
     0
102
RTVSPost2010Prop46
 90
       50
102
RTVSPost2010PropOp46
 70
     0
102
RTVSPost2010Prop47
 90
       50
102
RTVSPost2010PropOp47
 70
     0
102
RTVSPost2010Prop48
 90
       50
102
RTVSPost2010PropOp48
 70
     0
102
RTVSPost2010Prop49
280
     0
102
RTVSPost2010PropOp49
 70
     0
102
RTVSPost2010Prop50
 90
       50
102
RTVSPost2010PropOp50
 70
     0
102
RTVSPost2010Prop51ColorIndex
 90
      256
102
RTVSPost2010Prop51ColorRGB
 90
-16777216
102
RTVSPost2010PropOp51
 70
     0
102
RTVSPost2010Prop52
140
1.0
102
RTVSPost2010PropOp52
 70
     0
102
RTVSPost2010Prop53
 90
        2
102
RTVSPost2010PropOp53
 70
     0
102
RTVSPost2010Prop54
  1
strokes_ogs.tif
102
RTVSPost2010PropOp54
 70
     0
102
RTVSPost2010Prop55
280
     0
102
RTVSPost2010PropOp55
 70
     0
102
RTVSPost2010Prop56
140
1.0
102
RTVSPost2010PropOp56
 70
     0
102
RTVSPost2010Prop57
140
1.0
102
RTVSPost2010PropOp57
 70
     0
  0
XRECORD
  5
17D
102
{ACAD_REACTORS
330
17C
102
}
330
17C
100
AcDbXrecord
280
     1
102
RTVSPropertyOp0
 70
     1
102
RTVSPropertyOp1
 70
     1
102
RTVSPropertyOp2
 70
     1
102
RTVSPropertyOp3
 70
     1
102
RTVSPropertyOp4
 70
     1
102
RTVSPropertyOp5
 70
     1
102
RTVSPropertyOp6
 70
     1
102
RTVSPropertyOp7
 70
     1
102
RTVSPropertyOp8
 70
     1
102
RTVSPropertyOp9
 70
     1
102
RTVSPropertyOp10
 70
     1
102
RTVSPropertyOp11
 70
     1
102
RTVSPropertyOp12
 70
     1
102
RTVSPropertyOp13
 70
     1
102
RTVSPropertyOp14
 70
     1
102
RTVSPropertyOp15
 70
     1
102
RTVSPropertyOp16
 70
     1
102
RTVSPropertyOp17
 70
     1
102
RTVSPropertyOp18
 70
     1
102
RTVSPropertyOp19
 70
     1
102
RTVSPropertyOp20
 70
     1
102
RTVSPropertyOp21
 70
     1
102
RTVSPropertyOp22
 70
     1
102
RTVSPropertyOp23
 70
     1
102
RTVSPropertyOp24
 70
     1
102
RTVSPropertyOp25
 70
     1
102
RTVSPropertyOp26
 70
     1
102
RTVSPropertyOp27
 70
     1
102
RTVSPropertyOp28
 70
     1
102
RTVSPropertyOp29
 70
     1
102
RTVSPropertyOp30
 70
     1
102
RTVSPropertyOp31
 70
     1
102
RTVSPropertyOp32
 70
     1
102
RTVSPropertyOp33
 70
     1
102
RTVSPropertyOp34
 70
     1
102
RTVSPropertyOp35
 70
     1
102
RTVSPropertyOp36
 70
     1
102
RTVSPropertyOp37
 70
     1
102
RTVSPropertyOp38
 70
     1
102
RTVSPropertyOp39
 70
     1
102
RTVSPropertyOp40
 70
     1
102
RTVSPropertyOp41
 70
     1
102
RTVSPropertyOp42
 70
     1
102
RTVSPropertyOp43
 70
     1
102
RTVSPropertyOp44
 70
     1
102
RTVSPropertyOp45
 70
     1
102
RTVSPropertyOp46
 70
     1
102
RTVSPropertyOp47
 70
     1
102
RTVSPropertyOp48
 70
     1
102
RTVSPropertyOp49
 70
     1
102
RTVSPropertyOp50
 70
     1
102
RTVSPropertyOp51
 70
     0
102
RTVSPropertyOp52
 70
     0
102
RTVSPropertyOp53
 70
     1
102
RTVSPropertyOp54
 70
     1
102
RTVSPropertyOp55
 70
     1
102
RTVSPropertyOp56
 70
     1
102
RTVSPropertyOp57
 70
     1
102
RTVSPost2010Prop28
280
     0
102
RTVSPost2010PropOp28
 70
     1
102
RTVSPost2010Prop29
280
     1
102
RTVSPost2010PropOp29
 70
     1
102
RTVSPost2010Prop30
280
     1
102
RTVSPost2010PropOp30
 70
     1
102
RTVSPost2010Prop31
280
     0
102
RTVSPost2010PropOp31
 70
     1
102
RTVSPost2010Prop32
280
     0
102
RTVSPost2010PropOp32
 70
     1
102
RTVSPost2010Prop33
280
     0
102
RTVSPost2010PropOp33
 70
     1
102
RTVSPost2010Prop34
280
     0
102
RTVSPost2010PropOp34
 70
     1
102
RTVSPost2010Prop35
280
     0
102
RTVSPost2010PropOp35
 70
     1
102
RTVSPost2010Prop36
280
     0
102
RTVSPost2010PropOp36
 70
     1
102
RTVSPost2010Prop37
 90
       50
102
RTVSPost2010PropOp37
 70
     1
102
RTVSPost2010Prop38
140
0.0
102
RTVSPost2010PropOp38
 70
     1
102
RTVSPost2010Prop39
140
1.0
102
RTVSPost2010PropOp39
 70
     1
102
RTVSPost2010Prop40
 90
        0
102
RTVSPost2010PropOp40
 70
     1
102
RTVSPost2010Prop41ColorIndex
 90
       18
102
RTVSPost2010Prop41ColorRGB
 90
        0
102
RTVSPost2010PropOp41
 70
     1
102
RTVSPost2010Prop42
 90
       50
102
RTVSPost2010PropOp42
 70
     1
102
RTVSPost2010Prop43
 90
        3
102
RTVSPost2010PropOp43
 70
     1
102
RTVSPost2010Prop44ColorIndex
 90
        5
102
RTVSPost2010Prop44ColorRGB
 90
      255
102
RTVSPost2010PropOp44
 70
     1
102
RTVSPost2010Prop45
280
     0
102
RTVSPost2010PropOp45
 70
     1
102
RTVSPost2010Prop46
 90
       50
102
RTVSPost2010PropOp46
 70
     1
102
RTVSPost2010Prop47
 90
       50
102
RTVSPost2010PropOp47
 70
     1
102
RTVSPost2010Prop48
 90
       50
102
RTVSPost2010PropOp48
 70
     1
102
RTVSPost2010Prop49
280
     0
102
RTVSPost2010PropOp49
 70
     1
102
RTVSPost2010Prop50
 90
       50
102
RTVSPost2010PropOp50
 70
     1
102
RTVSPost2010Prop51ColorIndex
 90
      256
102
RTVSPost2010Prop51ColorRGB
 90
-16777216
102
RTVSPost2010PropOp51
 70
     0
102
RTVSPost2010Prop52
140
1.0
102
RTVSPost2010PropOp52
 70
     0
102
RTVSPost2010Prop53
 90
        2
102
RTVSPost2010PropOp53
 70
     1
102
RTVSPost2010Prop54
  1
strokes_ogs.tif
102
RTVSPost2010PropOp54
 70
     1
102
RTVSPost2010Prop55
280
     0
102
RTVSPost2010PropOp55
 70
     1
102
RTVSPost2010Prop56
140
1.0
102
RTVSPost2010PropOp56
 70
     1
102
RTVSPost2010Prop57
140
1.0
102
RTVSPost2010PropOp57
 70
     1
  0
XRECORD
  5
19B
102
{ACAD_REACTORS
330
19A
102
}
330
19A
100
AcDbXrecord
280
     1
102
RTVSPropertyOp0
 70
     1
102
RTVSPropertyOp1
 70
     1
102
RTVSPropertyOp2
 70
     1
102
RTVSPropertyOp3
 70
     1
102
RTVSPropertyOp4
 70
     1
102
RTVSPropertyOp5
 70
     1
102
RTVSPropertyOp6
 70
     1
102
RTVSPropertyOp7
 70
     1
102
RTVSPropertyOp8
 70
     1
102
RTVSPropertyOp9
 70
     1
102
RTVSPropertyOp10
 70
     1
102
RTVSPropertyOp11
 70
     1
102
RTVSPropertyOp12
 70
     1
102
RTVSPropertyOp13
 70
     1
102
RTVSPropertyOp14
 70
     1
102
RTVSPropertyOp15
 70
     1
102
RTVSPropertyOp16
 70
     1
102
RTVSPropertyOp17
 70
     1
102
RTVSPropertyOp18
 70
     1
102
RTVSPropertyOp19
 70
     1
102
RTVSPropertyOp20
 70
     1
102
RTVSPropertyOp21
 70
     1
102
RTVSPropertyOp22
 70
     1
102
RTVSPropertyOp23
 70
     1
102
RTVSPropertyOp24
 70
     1
102
RTVSPropertyOp25
 70
     1
102
RTVSPropertyOp26
 70
     1
102
RTVSPropertyOp27
 70
     1
102
RTVSPropertyOp28
 70
     1
102
RTVSPropertyOp29
 70
     1
102
RTVSPropertyOp30
 70
     1
102
RTVSPropertyOp31
 70
     1
102
RTVSPropertyOp32
 70
     1
102
RTVSPropertyOp33
 70
     1
102
RTVSPropertyOp34
 70
     1
102
RTVSPropertyOp35
 70
     1
102
RTVSPropertyOp36
 70
     1
102
RTVSPropertyOp37
 70
     1
102
RTVSPropertyOp38
 70
     1
102
RTVSPropertyOp39
 70
     1
102
RTVSPropertyOp40
 70
     1
102
RTVSPropertyOp41
 70
     1
102
RTVSPropertyOp42
 70
     1
102
RTVSPropertyOp43
 70
     1
102
RTVSPropertyOp44
 70
     1
102
RTVSPropertyOp45
 70
     1
102
RTVSPropertyOp46
 70
     1
102
RTVSPropertyOp47
 70
     1
102
RTVSPropertyOp48
 70
     1
102
RTVSPropertyOp49
 70
     1
102
RTVSPropertyOp50
 70
     1
102
RTVSPropertyOp51
 70
     0
102
RTVSPropertyOp52
 70
     0
102
RTVSPropertyOp53
 70
     1
102
RTVSPropertyOp54
 70
     1
102
RTVSPropertyOp55
 70
     1
102
RTVSPropertyOp56
 70
     1
102
RTVSPropertyOp57
 70
     1
102
RTVSPost2010Prop28
280
     0
102
RTVSPost2010PropOp28
 70
     1
102
RTVSPost2010Prop29
280
     1
102
RTVSPost2010PropOp29
 70
     1
102
RTVSPost2010Prop30
280
     1
102
RTVSPost2010PropOp30
 70
     1
102
RTVSPost2010Prop31
280
     0
102
RTVSPost2010PropOp31
 70
     1
102
RTVSPost2010Prop32
280
     0
102
RTVSPost2010PropOp32
 70
     1
102
RTVSPost2010Prop33
280
     0
102
RTVSPost2010PropOp33
 70
     1
102
RTVSPost2010Prop34
280
     0
102
RTVSPost2010PropOp34
 70
     1
102
RTVSPost2010Prop35
280
     0
102
RTVSPost2010PropOp35
 70
     1
102
RTVSPost2010Prop36
280
     0
102
RTVSPost2010PropOp36
 70
     1
102
RTVSPost2010Prop37
 90
       50
102
RTVSPost2010PropOp37
 70
     1
102
RTVSPost2010Prop38
140
0.0
102
RTVSPost2010PropOp38
 70
     1
102
RTVSPost2010Prop39
140
1.0
102
RTVSPost2010PropOp39
 70
     1
102
RTVSPost2010Prop40
 90
        0
102
RTVSPost2010PropOp40
 70
     1
102
RTVSPost2010Prop41ColorIndex
 90
       18
102
RTVSPost2010Prop41ColorRGB
 90
        0
102
RTVSPost2010PropOp41
 70
     1
102
RTVSPost2010Prop42
 90
       50
102
RTVSPost2010PropOp42
 70
     1
102
RTVSPost2010Prop43
 90
        3
102
RTVSPost2010PropOp43
 70
     1
102
RTVSPost2010Prop44ColorIndex
 90
        5
102
RTVSPost2010Prop44ColorRGB
 90
      255
102
RTVSPost2010PropOp44
 70
     1
102
RTVSPost2010Prop45
280
     0
102
RTVSPost2010PropOp45
 70
     1
102
RTVSPost2010Prop46
 90
       50
102
RTVSPost2010PropOp46
 70
     1
102
RTVSPost2010Prop47
 90
       50
102
RTVSPost2010PropOp47
 70
     1
102
RTVSPost2010Prop48
 90
       50
102
RTVSPost2010PropOp48
 70
     1
102
RTVSPost2010Prop49
280
     0
102
RTVSPost2010PropOp49
 70
     1
102
RTVSPost2010Prop50
 90
       50
102
RTVSPost2010PropOp50
 70
     1
102
RTVSPost2010Prop51ColorIndex
 90
      256
102
RTVSPost2010Prop51ColorRGB
 90
-16777216
102
RTVSPost2010PropOp51
 70
     0
102
RTVSPost2010Prop52
140
1.0
102
RTVSPost2010PropOp52
 70
     0
102
RTVSPost2010Prop53
 90
        2
102
RTVSPost2010PropOp53
 70
     1
102
RTVSPost2010Prop54
  1
strokes_ogs.tif
102
RTVSPost2010PropOp54
 70
     1
102
RTVSPost2010Prop55
280
     0
102
RTVSPost2010PropOp55
 70
     1
102
RTVSPost2010Prop56
140
1.0
102
RTVSPost2010PropOp56
 70
     1
102
RTVSPost2010Prop57
140
1.0
102
RTVSPost2010PropOp57
 70
     1
  0
XRECORD
  5
199
102
{ACAD_REACTORS
330
198
102
}
330
198
100
AcDbXrecord
280
     1
102
RTVSPropertyOp0
 70
     1
102
RTVSPropertyOp1
 70
     1
102
RTVSPropertyOp2
 70
     1
102
RTVSPropertyOp3
 70
     1
102
RTVSPropertyOp4
 70
     1
102
RTVSPropertyOp5
 70
     1
102
RTVSPropertyOp6
 70
     1
102
RTVSPropertyOp7
 70
     1
102
RTVSPropertyOp8
 70
     1
102
RTVSPropertyOp9
 70
     1
102
RTVSPropertyOp10
 70
     1
102
RTVSPropertyOp11
 70
     1
102
RTVSPropertyOp12
 70
     1
102
RTVSPropertyOp13
 70
     1
102
RTVSPropertyOp14
 70
     1
102
RTVSPropertyOp15
 70
     1
102
RTVSPropertyOp16
 70
     1
102
RTVSPropertyOp17
 70
     1
102
RTVSPropertyOp18
 70
     1
102
RTVSPropertyOp19
 70
     1
102
RTVSPropertyOp20
 70
     1
102
RTVSPropertyOp21
 70
     1
102
RTVSPropertyOp22
 70
     1
102
RTVSPropertyOp23
 70
     1
102
RTVSPropertyOp24
 70
     1
102
RTVSPropertyOp25
 70
     1
102
RTVSPropertyOp26
 70
     1
102
RTVSPropertyOp27
 70
     1
102
RTVSPropertyOp28
 70
     1
102
RTVSPropertyOp29
 70
     1
102
RTVSPropertyOp30
 70
     1
102
RTVSPropertyOp31
 70
     1
102
RTVSPropertyOp32
 70
     1
102
RTVSPropertyOp33
 70
     1
102
RTVSPropertyOp34
 70
     1
102
RTVSPropertyOp35
 70
     1
102
RTVSPropertyOp36
 70
     1
102
RTVSPropertyOp37
 70
     1
102
RTVSPropertyOp38
 70
     1
102
RTVSPropertyOp39
 70
     1
102
RTVSPropertyOp40
 70
     1
102
RTVSPropertyOp41
 70
     1
102
RTVSPropertyOp42
 70
     1
102
RTVSPropertyOp43
 70
     1
102
RTVSPropertyOp44
 70
     1
102
RTVSPropertyOp45
 70
     1
102
RTVSPropertyOp46
 70
     1
102
RTVSPropertyOp47
 70
     1
102
RTVSPropertyOp48
 70
     1
102
RTVSPropertyOp49
 70
     1
102
RTVSPropertyOp50
 70
     1
102
RTVSPropertyOp51
 70
     0
102
RTVSPropertyOp52
 70
     0
102
RTVSPropertyOp53
 70
     1
102
RTVSPropertyOp54
 70
     1
102
RTVSPropertyOp55
 70
     1
102
RTVSPropertyOp56
 70
     1
102
RTVSPropertyOp57
 70
     1
102
RTVSPost2010Prop28
280
     0
102
RTVSPost2010PropOp28
 70
     1
102
RTVSPost2010Prop29
280
     1
102
RTVSPost2010PropOp29
 70
     1
102
RTVSPost2010Prop30
280
     1
102
RTVSPost2010PropOp30
 70
     1
102
RTVSPost2010Prop31
280
     0
102
RTVSPost2010PropOp31
 70
     1
102
RTVSPost2010Prop32
280
     0
102
RTVSPost2010PropOp32
 70
     1
102
RTVSPost2010Prop33
280
     0
102
RTVSPost2010PropOp33
 70
     1
102
RTVSPost2010Prop34
280
     0
102
RTVSPost2010PropOp34
 70
     1
102
RTVSPost2010Prop35
280
     0
102
RTVSPost2010PropOp35
 70
     1
102
RTVSPost2010Prop36
280
     0
102
RTVSPost2010PropOp36
 70
     1
102
RTVSPost2010Prop37
 90
       50
102
RTVSPost2010PropOp37
 70
     1
102
RTVSPost2010Prop38
140
0.0
102
RTVSPost2010PropOp38
 70
     1
102
RTVSPost2010Prop39
140
1.0
102
RTVSPost2010PropOp39
 70
     1
102
RTVSPost2010Prop40
 90
        0
102
RTVSPost2010PropOp40
 70
     1
102
RTVSPost2010Prop41ColorIndex
 90
       18
102
RTVSPost2010Prop41ColorRGB
 90
        0
102
RTVSPost2010PropOp41
 70
     1
102
RTVSPost2010Prop42
 90
       50
102
RTVSPost2010PropOp42
 70
     1
102
RTVSPost2010Prop43
 90
        3
102
RTVSPost2010PropOp43
 70
     1
102
RTVSPost2010Prop44ColorIndex
 90
        5
102
RTVSPost2010Prop44ColorRGB
 90
      255
102
RTVSPost2010PropOp44
 70
     1
102
RTVSPost2010Prop45
280
     0
102
RTVSPost2010PropOp45
 70
     1
102
RTVSPost2010Prop46
 90
       50
102
RTVSPost2010PropOp46
 70
     1
102
RTVSPost2010Prop47
 90
       50
102
RTVSPost2010PropOp47
 70
     1
102
RTVSPost2010Prop48
 90
       50
102
RTVSPost2010PropOp48
 70
     1
102
RTVSPost2010Prop49
280
     0
102
RTVSPost2010PropOp49
 70
     1
102
RTVSPost2010Prop50
 90
       50
102
RTVSPost2010PropOp50
 70
     1
102
RTVSPost2010Prop51ColorIndex
 90
      256
102
RTVSPost2010Prop51ColorRGB
 90
-16777216
102
RTVSPost2010PropOp51
 70
     0
102
RTVSPost2010Prop52
140
1.0
102
RTVSPost2010PropOp52
 70
     0
102
RTVSPost2010Prop53
 90
        2
102
RTVSPost2010PropOp53
 70
     1
102
RTVSPost2010Prop54
  1
strokes_ogs.tif
102
RTVSPost2010PropOp54
 70
     1
102
RTVSPost2010Prop55
280
     0
102
RTVSPost2010PropOp55
 70
     1
102
RTVSPost2010Prop56
140
1.0
102
RTVSPost2010PropOp56
 70
     1
102
RTVSPost2010Prop57
140
1.0
102
RTVSPost2010PropOp57
 70
     1
  0
XRECORD
  5
193
102
{ACAD_REACTORS
330
192
102
}
330
192
100
AcDbXrecord
280
     1
102
RTVSPropertyOp0
 70
     1
102
RTVSPropertyOp1
 70
     1
102
RTVSPropertyOp2
 70
     1
102
RTVSPropertyOp3
 70
     1
102
RTVSPropertyOp4
 70
     1
102
RTVSPropertyOp5
 70
     1
102
RTVSPropertyOp6
 70
     1
102
RTVSPropertyOp7
 70
     1
102
RTVSPropertyOp8
 70
     1
102
RTVSPropertyOp9
 70
     1
102
RTVSPropertyOp10
 70
     1
102
RTVSPropertyOp11
 70
     1
102
RTVSPropertyOp12
 70
     1
102
RTVSPropertyOp13
 70
     1
102
RTVSPropertyOp14
 70
     1
102
RTVSPropertyOp15
 70
     1
102
RTVSPropertyOp16
 70
     1
102
RTVSPropertyOp17
 70
     1
102
RTVSPropertyOp18
 70
     1
102
RTVSPropertyOp19
 70
     1
102
RTVSPropertyOp20
 70
     1
102
RTVSPropertyOp21
 70
     1
102
RTVSPropertyOp22
 70
     1
102
RTVSPropertyOp23
 70
     1
102
RTVSPropertyOp24
 70
     1
102
RTVSPropertyOp25
 70
     1
102
RTVSPropertyOp26
 70
     1
102
RTVSPropertyOp27
 70
     1
102
RTVSPropertyOp28
 70
     1
102
RTVSPropertyOp29
 70
     1
102
RTVSPropertyOp30
 70
     1
102
RTVSPropertyOp31
 70
     1
102
RTVSPropertyOp32
 70
     1
102
RTVSPropertyOp33
 70
     1
102
RTVSPropertyOp34
 70
     1
102
RTVSPropertyOp35
 70
     1
102
RTVSPropertyOp36
 70
     1
102
RTVSPropertyOp37
 70
     1
102
RTVSPropertyOp38
 70
     1
102
RTVSPropertyOp39
 70
     1
102
RTVSPropertyOp40
 70
     1
102
RTVSPropertyOp41
 70
     1
102
RTVSPropertyOp42
 70
     1
102
RTVSPropertyOp43
 70
     1
102
RTVSPropertyOp44
 70
     1
102
RTVSPropertyOp45
 70
     1
102
RTVSPropertyOp46
 70
     1
102
RTVSPropertyOp47
 70
     1
102
RTVSPropertyOp48
 70
     1
102
RTVSPropertyOp49
 70
     1
102
RTVSPropertyOp50
 70
     1
102
RTVSPropertyOp51
 70
     0
102
RTVSPropertyOp52
 70
     0
102
RTVSPropertyOp53
 70
     1
102
RTVSPropertyOp54
 70
     1
102
RTVSPropertyOp55
 70
     1
102
RTVSPropertyOp56
 70
     1
102
RTVSPropertyOp57
 70
     1
102
RTVSPost2010Prop28
280
     0
102
RTVSPost2010PropOp28
 70
     1
102
RTVSPost2010Prop29
280
     1
102
RTVSPost2010PropOp29
 70
     1
102
RTVSPost2010Prop30
280
     1
102
RTVSPost2010PropOp30
 70
     1
102
RTVSPost2010Prop31
280
     0
102
RTVSPost2010PropOp31
 70
     1
102
RTVSPost2010Prop32
280
     0
102
RTVSPost2010PropOp32
 70
     1
102
RTVSPost2010Prop33
280
     0
102
RTVSPost2010PropOp33
 70
     1
102
RTVSPost2010Prop34
280
     0
102
RTVSPost2010PropOp34
 70
     1
102
RTVSPost2010Prop35
280
     0
102
RTVSPost2010PropOp35
 70
     1
102
RTVSPost2010Prop36
280
     0
102
RTVSPost2010PropOp36
 70
     1
102
RTVSPost2010Prop37
 90
       50
102
RTVSPost2010PropOp37
 70
     1
102
RTVSPost2010Prop38
140
0.0
102
RTVSPost2010PropOp38
 70
     1
102
RTVSPost2010Prop39
140
1.0
102
RTVSPost2010PropOp39
 70
     1
102
RTVSPost2010Prop40
 90
        0
102
RTVSPost2010PropOp40
 70
     1
102
RTVSPost2010Prop41ColorIndex
 90
       18
102
RTVSPost2010Prop41ColorRGB
 90
        0
102
RTVSPost2010PropOp41
 70
     1
102
RTVSPost2010Prop42
 90
       50
102
RTVSPost2010PropOp42
 70
     1
102
RTVSPost2010Prop43
 90
        3
102
RTVSPost2010PropOp43
 70
     1
102
RTVSPost2010Prop44ColorIndex
 90
        5
102
RTVSPost2010Prop44ColorRGB
 90
      255
102
RTVSPost2010PropOp44
 70
     1
102
RTVSPost2010Prop45
280
     0
102
RTVSPost2010PropOp45
 70
     1
102
RTVSPost2010Prop46
 90
       50
102
RTVSPost2010PropOp46
 70
     1
102
RTVSPost2010Prop47
 90
       50
102
RTVSPost2010PropOp47
 70
     1
102
RTVSPost2010Prop48
 90
       50
102
RTVSPost2010PropOp48
 70
     1
102
RTVSPost2010Prop49
280
     0
102
RTVSPost2010PropOp49
 70
     1
102
RTVSPost2010Prop50
 90
       50
102
RTVSPost2010PropOp50
 70
     1
102
RTVSPost2010Prop51ColorIndex
 90
      256
102
RTVSPost2010Prop51ColorRGB
 90
-16777216
102
RTVSPost2010PropOp51
 70
     0
102
RTVSPost2010Prop52
140
1.0
102
RTVSPost2010PropOp52
 70
     0
102
RTVSPost2010Prop53
 90
        2
102
RTVSPost2010PropOp53
 70
     1
102
RTVSPost2010Prop54
  1
strokes_ogs.tif
102
RTVSPost2010PropOp54
 70
     1
102
RTVSPost2010Prop55
280
     0
102
RTVSPost2010PropOp55
 70
     1
102
RTVSPost2010Prop56
140
1.0
102
RTVSPost2010PropOp56
 70
     1
102
RTVSPost2010Prop57
140
1.0
102
RTVSPost2010PropOp57
 70
     1
  0
XRECORD
  5
195
102
{ACAD_REACTORS
330
194
102
}
330
194
100
AcDbXrecord
280
     1
102
RTVSPropertyOp0
 70
     1
102
RTVSPropertyOp1
 70
     1
102
RTVSPropertyOp2
 70
     1
102
RTVSPropertyOp3
 70
     1
102
RTVSPropertyOp4
 70
     1
102
RTVSPropertyOp5
 70
     1
102
RTVSPropertyOp6
 70
     1
102
RTVSPropertyOp7
 70
     1
102
RTVSPropertyOp8
 70
     1
102
RTVSPropertyOp9
 70
     1
102
RTVSPropertyOp10
 70
     1
102
RTVSPropertyOp11
 70
     1
102
RTVSPropertyOp12
 70
     1
102
RTVSPropertyOp13
 70
     1
102
RTVSPropertyOp14
 70
     1
102
RTVSPropertyOp15
 70
     1
102
RTVSPropertyOp16
 70
     1
102
RTVSPropertyOp17
 70
     1
102
RTVSPropertyOp18
 70
     1
102
RTVSPropertyOp19
 70
     1
102
RTVSPropertyOp20
 70
     1
102
RTVSPropertyOp21
 70
     1
102
RTVSPropertyOp22
 70
     1
102
RTVSPropertyOp23
 70
     1
102
RTVSPropertyOp24
 70
     1
102
RTVSPropertyOp25
 70
     1
102
RTVSPropertyOp26
 70
     1
102
RTVSPropertyOp27
 70
     1
102
RTVSPropertyOp28
 70
     1
102
RTVSPropertyOp29
 70
     1
102
RTVSPropertyOp30
 70
     1
102
RTVSPropertyOp31
 70
     1
102
RTVSPropertyOp32
 70
     1
102
RTVSPropertyOp33
 70
     1
102
RTVSPropertyOp34
 70
     1
102
RTVSPropertyOp35
 70
     1
102
RTVSPropertyOp36
 70
     1
102
RTVSPropertyOp37
 70
     1
102
RTVSPropertyOp38
 70
     1
102
RTVSPropertyOp39
 70
     1
102
RTVSPropertyOp40
 70
     1
102
RTVSPropertyOp41
 70
     1
102
RTVSPropertyOp42
 70
     1
102
RTVSPropertyOp43
 70
     1
102
RTVSPropertyOp44
 70
     1
102
RTVSPropertyOp45
 70
     1
102
RTVSPropertyOp46
 70
     1
102
RTVSPropertyOp47
 70
     1
102
RTVSPropertyOp48
 70
     1
102
RTVSPropertyOp49
 70
     1
102
RTVSPropertyOp50
 70
     1
102
RTVSPropertyOp51
 70
     0
102
RTVSPropertyOp52
 70
     0
102
RTVSPropertyOp53
 70
     1
102
RTVSPropertyOp54
 70
     1
102
RTVSPropertyOp55
 70
     1
102
RTVSPropertyOp56
 70
     1
102
RTVSPropertyOp57
 70
     1
102
RTVSPost2010Prop28
280
     0
102
RTVSPost2010PropOp28
 70
     1
102
RTVSPost2010Prop29
280
     1
102
RTVSPost2010PropOp29
 70
     1
102
RTVSPost2010Prop30
280
     1
102
RTVSPost2010PropOp30
 70
     1
102
RTVSPost2010Prop31
280
     0
102
RTVSPost2010PropOp31
 70
     1
102
RTVSPost2010Prop32
280
     0
102
RTVSPost2010PropOp32
 70
     1
102
RTVSPost2010Prop33
280
     0
102
RTVSPost2010PropOp33
 70
     1
102
RTVSPost2010Prop34
280
     0
102
RTVSPost2010PropOp34
 70
     1
102
RTVSPost2010Prop35
280
     0
102
RTVSPost2010PropOp35
 70
     1
102
RTVSPost2010Prop36
280
     0
102
RTVSPost2010PropOp36
 70
     1
102
RTVSPost2010Prop37
 90
       50
102
RTVSPost2010PropOp37
 70
     1
102
RTVSPost2010Prop38
140
0.0
102
RTVSPost2010PropOp38
 70
     1
102
RTVSPost2010Prop39
140
1.0
102
RTVSPost2010PropOp39
 70
     1
102
RTVSPost2010Prop40
 90
        0
102
RTVSPost2010PropOp40
 70
     1
102
RTVSPost2010Prop41ColorIndex
 90
       18
102
RTVSPost2010Prop41ColorRGB
 90
        0
102
RTVSPost2010PropOp41
 70
     1
102
RTVSPost2010Prop42
 90
       50
102
RTVSPost2010PropOp42
 70
     1
102
RTVSPost2010Prop43
 90
        3
102
RTVSPost2010PropOp43
 70
     1
102
RTVSPost2010Prop44ColorIndex
 90
        5
102
RTVSPost2010Prop44ColorRGB
 90
      255
102
RTVSPost2010PropOp44
 70
     1
102
RTVSPost2010Prop45
280
     0
102
RTVSPost2010PropOp45
 70
     1
102
RTVSPost2010Prop46
 90
       50
102
RTVSPost2010PropOp46
 70
     1
102
RTVSPost2010Prop47
 90
       50
102
RTVSPost2010PropOp47
 70
     1
102
RTVSPost2010Prop48
 90
       50
102
RTVSPost2010PropOp48
 70
     1
102
RTVSPost2010Prop49
280
     0
102
RTVSPost2010PropOp49
 70
     1
102
RTVSPost2010Prop50
 90
       50
102
RTVSPost2010PropOp50
 70
     1
102
RTVSPost2010Prop51ColorIndex
 90
      256
102
RTVSPost2010Prop51ColorRGB
 90
-16777216
102
RTVSPost2010PropOp51
 70
     0
102
RTVSPost2010Prop52
140
1.0
102
RTVSPost2010PropOp52
 70
     0
102
RTVSPost2010Prop53
 90
        2
102
RTVSPost2010PropOp53
 70
     1
102
RTVSPost2010Prop54
  1
strokes_ogs.tif
102
RTVSPost2010PropOp54
 70
     1
102
RTVSPost2010Prop55
280
     0
102
RTVSPost2010PropOp55
 70
     1
102
RTVSPost2010Prop56
140
1.0
102
RTVSPost2010PropOp56
 70
     1
102
RTVSPost2010Prop57
140
1.0
102
RTVSPost2010PropOp57
 70
     1
  0
XRECORD
  5
185
102
{ACAD_REACTORS
330
184
102
}
330
184
100
AcDbXrecord
280
     1
102
RTVSPropertyOp0
 70
     1
102
RTVSPropertyOp1
 70
     1
102
RTVSPropertyOp2
 70
     1
102
RTVSPropertyOp3
 70
     1
102
RTVSPropertyOp4
 70
     1
102
RTVSPropertyOp5
 70
     1
102
RTVSPropertyOp6
 70
     1
102
RTVSPropertyOp7
 70
     1
102
RTVSPropertyOp8
 70
     1
102
RTVSPropertyOp9
 70
     1
102
RTVSPropertyOp10
 70
     1
102
RTVSPropertyOp11
 70
     1
102
RTVSPropertyOp12
 70
     1
102
RTVSPropertyOp13
 70
     1
102
RTVSPropertyOp14
 70
     1
102
RTVSPropertyOp15
 70
     1
102
RTVSPropertyOp16
 70
     1
102
RTVSPropertyOp17
 70
     1
102
RTVSPropertyOp18
 70
     1
102
RTVSPropertyOp19
 70
     1
102
RTVSPropertyOp20
 70
     1
102
RTVSPropertyOp21
 70
     1
102
RTVSPropertyOp22
 70
     1
102
RTVSPropertyOp23
 70
     1
102
RTVSPropertyOp24
 70
     1
102
RTVSPropertyOp25
 70
     1
102
RTVSPropertyOp26
 70
     1
102
RTVSPropertyOp27
 70
     1
102
RTVSPropertyOp28
 70
     1
102
RTVSPropertyOp29
 70
     1
102
RTVSPropertyOp30
 70
     1
102
RTVSPropertyOp31
 70
     1
102
RTVSPropertyOp32
 70
     1
102
RTVSPropertyOp33
 70
     1
102
RTVSPropertyOp34
 70
     1
102
RTVSPropertyOp35
 70
     1
102
RTVSPropertyOp36
 70
     1
102
RTVSPropertyOp37
 70
     1
102
RTVSPropertyOp38
 70
     1
102
RTVSPropertyOp39
 70
     1
102
RTVSPropertyOp40
 70
     1
102
RTVSPropertyOp41
 70
     1
102
RTVSPropertyOp42
 70
     1
102
RTVSPropertyOp43
 70
     1
102
RTVSPropertyOp44
 70
     1
102
RTVSPropertyOp45
 70
     1
102
RTVSPropertyOp46
 70
     1
102
RTVSPropertyOp47
 70
     1
102
RTVSPropertyOp48
 70
     1
102
RTVSPropertyOp49
 70
     1
102
RTVSPropertyOp50
 70
     1
102
RTVSPropertyOp51
 70
     0
102
RTVSPropertyOp52
 70
     0
102
RTVSPropertyOp53
 70
     1
102
RTVSPropertyOp54
 70
     1
102
RTVSPropertyOp55
 70
     1
102
RTVSPropertyOp56
 70
     1
102
RTVSPropertyOp57
 70
     1
102
RTVSPost2010Prop28
280
     0
102
RTVSPost2010PropOp28
 70
     1
102
RTVSPost2010Prop29
280
     1
102
RTVSPost2010PropOp29
 70
     1
102
RTVSPost2010Prop30
280
     1
102
RTVSPost2010PropOp30
 70
     1
102
RTVSPost2010Prop31
280
     0
102
RTVSPost2010PropOp31
 70
     1
102
RTVSPost2010Prop32
280
     0
102
RTVSPost2010PropOp32
 70
     1
102
RTVSPost2010Prop33
280
     0
102
RTVSPost2010PropOp33
 70
     1
102
RTVSPost2010Prop34
280
     0
102
RTVSPost2010PropOp34
 70
     1
102
RTVSPost2010Prop35
280
     0
102
RTVSPost2010PropOp35
 70
     1
102
RTVSPost2010Prop36
280
     0
102
RTVSPost2010PropOp36
 70
     1
102
RTVSPost2010Prop37
 90
       50
102
RTVSPost2010PropOp37
 70
     1
102
RTVSPost2010Prop38
140
0.0
102
RTVSPost2010PropOp38
 70
     1
102
RTVSPost2010Prop39
140
1.0
102
RTVSPost2010PropOp39
 70
     1
102
RTVSPost2010Prop40
 90
        0
102
RTVSPost2010PropOp40
 70
     1
102
RTVSPost2010Prop41ColorIndex
 90
       18
102
RTVSPost2010Prop41ColorRGB
 90
        0
102
RTVSPost2010PropOp41
 70
     1
102
RTVSPost2010Prop42
 90
       50
102
RTVSPost2010PropOp42
 70
     1
102
RTVSPost2010Prop43
 90
        3
102
RTVSPost2010PropOp43
 70
     1
102
RTVSPost2010Prop44ColorIndex
 90
        5
102
RTVSPost2010Prop44ColorRGB
 90
      255
102
RTVSPost2010PropOp44
 70
     1
102
RTVSPost2010Prop45
280
     0
102
RTVSPost2010PropOp45
 70
     1
102
RTVSPost2010Prop46
 90
       50
102
RTVSPost2010PropOp46
 70
     1
102
RTVSPost2010Prop47
 90
       50
102
RTVSPost2010PropOp47
 70
     1
102
RTVSPost2010Prop48
 90
       50
102
RTVSPost2010PropOp48
 70
     1
102
RTVSPost2010Prop49
280
     0
102
RTVSPost2010PropOp49
 70
     1
102
RTVSPost2010Prop50
 90
       50
102
RTVSPost2010PropOp50
 70
     1
102
RTVSPost2010Prop51ColorIndex
 90
      256
102
RTVSPost2010Prop51ColorRGB
 90
-16777216
102
RTVSPost2010PropOp51
 70
     0
102
RTVSPost2010Prop52
140
1.0
102
RTVSPost2010PropOp52
 70
     0
102
RTVSPost2010Prop53
 90
        2
102
RTVSPost2010PropOp53
 70
     1
102
RTVSPost2010Prop54
  1
strokes_ogs.tif
102
RTVSPost2010PropOp54
 70
     1
102
RTVSPost2010Prop55
280
     0
102
RTVSPost2010PropOp55
 70
     1
102
RTVSPost2010Prop56
140
1.0
102
RTVSPost2010PropOp56
 70
     1
102
RTVSPost2010Prop57
140
1.0
102
RTVSPost2010PropOp57
 70
     1
  0
XRECORD
  5
177
102
{ACAD_REACTORS
330
176
102
}
330
176
100
AcDbXrecord
280
     1
102
RTVSPropertyOp0
 70
     1
102
RTVSPropertyOp1
 70
     1
102
RTVSPropertyOp2
 70
     1
102
RTVSPropertyOp3
 70
     1
102
RTVSPropertyOp4
 70
     1
102
RTVSPropertyOp5
 70
     1
102
RTVSPropertyOp6
 70
     1
102
RTVSPropertyOp7
 70
     1
102
RTVSPropertyOp8
 70
     1
102
RTVSPropertyOp9
 70
     1
102
RTVSPropertyOp10
 70
     1
102
RTVSPropertyOp11
 70
     1
102
RTVSPropertyOp12
 70
     1
102
RTVSPropertyOp13
 70
     1
102
RTVSPropertyOp14
 70
     1
102
RTVSPropertyOp15
 70
     1
102
RTVSPropertyOp16
 70
     1
102
RTVSPropertyOp17
 70
     1
102
RTVSPropertyOp18
 70
     1
102
RTVSPropertyOp19
 70
     1
102
RTVSPropertyOp20
 70
     1
102
RTVSPropertyOp21
 70
     1
102
RTVSPropertyOp22
 70
     1
102
RTVSPropertyOp23
 70
     1
102
RTVSPropertyOp24
 70
     1
102
RTVSPropertyOp25
 70
     1
102
RTVSPropertyOp26
 70
     1
102
RTVSPropertyOp27
 70
     1
102
RTVSPropertyOp28
 70
     1
102
RTVSPropertyOp29
 70
     1
102
RTVSPropertyOp30
 70
     1
102
RTVSPropertyOp31
 70
     1
102
RTVSPropertyOp32
 70
     1
102
RTVSPropertyOp33
 70
     1
102
RTVSPropertyOp34
 70
     1
102
RTVSPropertyOp35
 70
     1
102
RTVSPropertyOp36
 70
     1
102
RTVSPropertyOp37
 70
     1
102
RTVSPropertyOp38
 70
     1
102
RTVSPropertyOp39
 70
     1
102
RTVSPropertyOp40
 70
     1
102
RTVSPropertyOp41
 70
     1
102
RTVSPropertyOp42
 70
     1
102
RTVSPropertyOp43
 70
     1
102
RTVSPropertyOp44
 70
     1
102
RTVSPropertyOp45
 70
     1
102
RTVSPropertyOp46
 70
     1
102
RTVSPropertyOp47
 70
     1
102
RTVSPropertyOp48
 70
     1
102
RTVSPropertyOp49
 70
     1
102
RTVSPropertyOp50
 70
     1
102
RTVSPropertyOp51
 70
     0
102
RTVSPropertyOp52
 70
     0
102
RTVSPropertyOp53
 70
     1
102
RTVSPropertyOp54
 70
     1
102
RTVSPropertyOp55
 70
     1
102
RTVSPropertyOp56
 70
     1
102
RTVSPropertyOp57
 70
     1
102
RTVSPost2010Prop28
280
     0
102
RTVSPost2010PropOp28
 70
     1
102
RTVSPost2010Prop29
280
     1
102
RTVSPost2010PropOp29
 70
     1
102
RTVSPost2010Prop30
280
     1
102
RTVSPost2010PropOp30
 70
     1
102
RTVSPost2010Prop31
280
     0
102
RTVSPost2010PropOp31
 70
     1
102
RTVSPost2010Prop32
280
     0
102
RTVSPost2010PropOp32
 70
     1
102
RTVSPost2010Prop33
280
     0
102
RTVSPost2010PropOp33
 70
     1
102
RTVSPost2010Prop34
280
     0
102
RTVSPost2010PropOp34
 70
     1
102
RTVSPost2010Prop35
280
     0
102
RTVSPost2010PropOp35
 70
     1
102
RTVSPost2010Prop36
280
     0
102
RTVSPost2010PropOp36
 70
     1
102
RTVSPost2010Prop37
 90
       50
102
RTVSPost2010PropOp37
 70
     1
102
RTVSPost2010Prop38
140
0.0
102
RTVSPost2010PropOp38
 70
     1
102
RTVSPost2010Prop39
140
1.0
102
RTVSPost2010PropOp39
 70
     1
102
RTVSPost2010Prop40
 90
        0
102
RTVSPost2010PropOp40
 70
     1
102
RTVSPost2010Prop41ColorIndex
 90
       18
102
RTVSPost2010Prop41ColorRGB
 90
        0
102
RTVSPost2010PropOp41
 70
     1
102
RTVSPost2010Prop42
 90
       50
102
RTVSPost2010PropOp42
 70
     1
102
RTVSPost2010Prop43
 90
        3
102
RTVSPost2010PropOp43
 70
     1
102
RTVSPost2010Prop44ColorIndex
 90
        5
102
RTVSPost2010Prop44ColorRGB
 90
      255
102
RTVSPost2010PropOp44
 70
     1
102
RTVSPost2010Prop45
280
     0
102
RTVSPost2010PropOp45
 70
     1
102
RTVSPost2010Prop46
 90
       50
102
RTVSPost2010PropOp46
 70
     1
102
RTVSPost2010Prop47
 90
       50
102
RTVSPost2010PropOp47
 70
     1
102
RTVSPost2010Prop48
 90
       50
102
RTVSPost2010PropOp48
 70
     1
102
RTVSPost2010Prop49
280
     0
102
RTVSPost2010PropOp49
 70
     1
102
RTVSPost2010Prop50
 90
       50
102
RTVSPost2010PropOp50
 70
     1
102
RTVSPost2010Prop51ColorIndex
 90
      256
102
RTVSPost2010Prop51ColorRGB
 90
-16777216
102
RTVSPost2010PropOp51
 70
     0
102
RTVSPost2010Prop52
140
1.0
102
RTVSPost2010PropOp52
 70
     0
102
RTVSPost2010Prop53
 90
        2
102
RTVSPost2010PropOp53
 70
     1
102
RTVSPost2010Prop54
  1
strokes_ogs.tif
102
RTVSPost2010PropOp54
 70
     1
102
RTVSPost2010Prop55
280
     0
102
RTVSPost2010PropOp55
 70
     1
102
RTVSPost2010Prop56
140
1.0
102
RTVSPost2010PropOp56
 70
     1
102
RTVSPost2010Prop57
140
1.0
102
RTVSPost2010PropOp57
 70
     1
  0
XRECORD
  5
197
102
{ACAD_REACTORS
330
196
102
}
330
196
100
AcDbXrecord
280
     1
102
RTVSPropertyOp0
 70
     1
102
RTVSPropertyOp1
 70
     1
102
RTVSPropertyOp2
 70
     1
102
RTVSPropertyOp3
 70
     1
102
RTVSPropertyOp4
 70
     1
102
RTVSPropertyOp5
 70
     1
102
RTVSPropertyOp6
 70
     1
102
RTVSPropertyOp7
 70
     1
102
RTVSPropertyOp8
 70
     1
102
RTVSPropertyOp9
 70
     1
102
RTVSPropertyOp10
 70
     1
102
RTVSPropertyOp11
 70
     1
102
RTVSPropertyOp12
 70
     1
102
RTVSPropertyOp13
 70
     1
102
RTVSPropertyOp14
 70
     1
102
RTVSPropertyOp15
 70
     1
102
RTVSPropertyOp16
 70
     1
102
RTVSPropertyOp17
 70
     1
102
RTVSPropertyOp18
 70
     1
102
RTVSPropertyOp19
 70
     1
102
RTVSPropertyOp20
 70
     1
102
RTVSPropertyOp21
 70
     1
102
RTVSPropertyOp22
 70
     1
102
RTVSPropertyOp23
 70
     1
102
RTVSPropertyOp24
 70
     1
102
RTVSPropertyOp25
 70
     1
102
RTVSPropertyOp26
 70
     1
102
RTVSPropertyOp27
 70
     1
102
RTVSPropertyOp28
 70
     1
102
RTVSPropertyOp29
 70
     1
102
RTVSPropertyOp30
 70
     1
102
RTVSPropertyOp31
 70
     1
102
RTVSPropertyOp32
 70
     1
102
RTVSPropertyOp33
 70
     1
102
RTVSPropertyOp34
 70
     1
102
RTVSPropertyOp35
 70
     1
102
RTVSPropertyOp36
 70
     1
102
RTVSPropertyOp37
 70
     1
102
RTVSPropertyOp38
 70
     1
102
RTVSPropertyOp39
 70
     1
102
RTVSPropertyOp40
 70
     1
102
RTVSPropertyOp41
 70
     1
102
RTVSPropertyOp42
 70
     1
102
RTVSPropertyOp43
 70
     1
102
RTVSPropertyOp44
 70
     1
102
RTVSPropertyOp45
 70
     1
102
RTVSPropertyOp46
 70
     1
102
RTVSPropertyOp47
 70
     1
102
RTVSPropertyOp48
 70
     1
102
RTVSPropertyOp49
 70
     1
102
RTVSPropertyOp50
 70
     1
102
RTVSPropertyOp51
 70
     0
102
RTVSPropertyOp52
 70
     0
102
RTVSPropertyOp53
 70
     1
102
RTVSPropertyOp54
 70
     1
102
RTVSPropertyOp55
 70
     1
102
RTVSPropertyOp56
 70
     1
102
RTVSPropertyOp57
 70
     1
102
RTVSPost2010Prop28
280
     0
102
RTVSPost2010PropOp28
 70
     1
102
RTVSPost2010Prop29
280
     1
102
RTVSPost2010PropOp29
 70
     1
102
RTVSPost2010Prop30
280
     1
102
RTVSPost2010PropOp30
 70
     1
102
RTVSPost2010Prop31
280
     0
102
RTVSPost2010PropOp31
 70
     1
102
RTVSPost2010Prop32
280
     0
102
RTVSPost2010PropOp32
 70
     1
102
RTVSPost2010Prop33
280
     0
102
RTVSPost2010PropOp33
 70
     1
102
RTVSPost2010Prop34
280
     0
102
RTVSPost2010PropOp34
 70
     1
102
RTVSPost2010Prop35
280
     0
102
RTVSPost2010PropOp35
 70
     1
102
RTVSPost2010Prop36
280
     0
102
RTVSPost2010PropOp36
 70
     1
102
RTVSPost2010Prop37
 90
       50
102
RTVSPost2010PropOp37
 70
     1
102
RTVSPost2010Prop38
140
0.0
102
RTVSPost2010PropOp38
 70
     1
102
RTVSPost2010Prop39
140
1.0
102
RTVSPost2010PropOp39
 70
     1
102
RTVSPost2010Prop40
 90
        0
102
RTVSPost2010PropOp40
 70
     1
102
RTVSPost2010Prop41ColorIndex
 90
       18
102
RTVSPost2010Prop41ColorRGB
 90
        0
102
RTVSPost2010PropOp41
 70
     1
102
RTVSPost2010Prop42
 90
       50
102
RTVSPost2010PropOp42
 70
     1
102
RTVSPost2010Prop43
 90
        3
102
RTVSPost2010PropOp43
 70
     1
102
RTVSPost2010Prop44ColorIndex
 90
        5
102
RTVSPost2010Prop44ColorRGB
 90
      255
102
RTVSPost2010PropOp44
 70
     1
102
RTVSPost2010Prop45
280
     0
102
RTVSPost2010PropOp45
 70
     1
102
RTVSPost2010Prop46
 90
       50
102
RTVSPost2010PropOp46
 70
     1
102
RTVSPost2010Prop47
 90
       50
102
RTVSPost2010PropOp47
 70
     1
102
RTVSPost2010Prop48
 90
       50
102
RTVSPost2010PropOp48
 70
     1
102
RTVSPost2010Prop49
280
     0
102
RTVSPost2010PropOp49
 70
     1
102
RTVSPost2010Prop50
 90
       50
102
RTVSPost2010PropOp50
 70
     1
102
RTVSPost2010Prop51ColorIndex
 90
      256
102
RTVSPost2010Prop51ColorRGB
 90
-16777216
102
RTVSPost2010PropOp51
 70
     0
102
RTVSPost2010Prop52
140
1.0
102
RTVSPost2010PropOp52
 70
     0
102
RTVSPost2010Prop53
 90
        2
102
RTVSPost2010PropOp53
 70
     1
102
RTVSPost2010Prop54
  1
strokes_ogs.tif
102
RTVSPost2010PropOp54
 70
     1
102
RTVSPost2010Prop55
280
     0
102
RTVSPost2010PropOp55
 70
     1
102
RTVSPost2010Prop56
140
1.0
102
RTVSPost2010PropOp56
 70
     1
102
RTVSPost2010Prop57
140
1.0
102
RTVSPost2010PropOp57
 70
     1
  0
ENDSEC
  0
EOF
