  0
SECTION
  2
HEADER
  9
$ACADVER
  1
AC1015
  9
$ACADMAINTVER
 70
     6
  9
$DWGCODEPAGE
  3
ANSI_1252
  9
$INSBASE
 10
0.0
 20
0.0
 30
0.0
  9
$EXTMIN
 10
122.678596
 20
180.24762
 30
0.0
  9
$EXTMAX
 10
548.389099
 20
743.526306
 30
0.0
  9
$LIMMIN
 10
122.678596
 20
180.24762
  9
$LIMMAX
 10
548.389099
 20
743.526306
  9
$ORTHOMODE
 70
     0
  9
$REGENMODE
 70
     1
  9
$FILLMODE
 70
     1
  9
$QTEXTMODE
 70
     0
  9
$MIRRTEXT
 70
     1
  9
$LTSCALE
 40
1.0
  9
$ATTMODE
 70
     1
  9
$TEXTSIZE
 40
2.5
  9
$TRACEWID
 40
1.0
  9
$TEXTSTYLE
  7
Standard
  9
$CLAYER
  8
0
  9
$CELTYPE
  6
ByLayer
  9
$CECOLOR
 62
   256
  9
$CELTSCALE
 40
1.0
  9
$DISPSILH
 70
     0
  9
$DIMSCALE
 40
1.0
  9
$DIMASZ
 40
2.5
  9
$DIMEXO
 40
0.625
  9
$DIMDLI
 40
3.75
  9
$DIMRND
 40
0.0
  9
$DIMDLE
 40
0.0
  9
$DIMEXE
 40
1.25
  9
$DIMTP
 40
0.0
  9
$DIMTM
 40
0.0
  9
$DIMTXT
 40
2.5
  9
$DIMCEN
 40
2.5
  9
$DIMTSZ
 40
0.0
  9
$DIMTOL
 70
     0
  9
$DIMLIM
 70
     0
  9
$DIMTIH
 70
     0
  9
$DIMTOH
 70
     0
  9
$DIMSE1
 70
     0
  9
$DIMSE2
 70
     0
  9
$DIMTAD
 70
     1
  9
$DIMZIN
 70
     8
  9
$DIMBLK
  1

  9
$DIMASO
 70
     1
  9
$DIMSHO
 70
     1
  9
$DIMPOST
  1

  9
$DIMAPOST
  1

  9
$DIMALT
 70
     0
  9
$DIMALTD
 70
     3
  9
$DIMALTF
 40
0.03937
  9
$DIMLFAC
 40
1.0
  9
$DIMTOFL
 70
     1
  9
$DIMTVP
 40
0.0
  9
$DIMTIX
 70
     0
  9
$DIMSOXD
 70
     0
  9
$DIMSAH
 70
     0
  9
$DIMBLK1
  1

  9
$DIMBLK2
  1

  9
$DIMSTYLE
  2
ISO-25
  9
$DIMCLRD
 70
     0
  9
$DIMCLRE
 70
     0
  9
$DIMCLRT
 70
     0
  9
$DIMTFAC
 40
1.0
  9
$DIMGAP
 40
0.625
  9
$DIMJUST
 70
     0
  9
$DIMSD1
 70
     0
  9
$DIMSD2
 70
     0
  9
$DIMTOLJ
 70
     0
  9
$DIMTZIN
 70
     8
  9
$DIMALTZ
 70
     0
  9
$DIMALTTZ
 70
     0
  9
$DIMUPT
 70
     0
  9
$DIMDEC
 70
     2
  9
$DIMTDEC
 70
     2
  9
$DIMALTU
 70
     2
  9
$DIMALTTD
 70
     3
  9
$DIMTXSTY
  7
Standard
  9
$DIMAUNIT
 70
     0
  9
$DIMADEC
 70
     0
  9
$DIMALTRND
 40
0.0
  9
$DIMAZIN
 70
     0
  9
$DIMDSEP
 70
    44
  9
$DIMATFIT
 70
     3
  9
$DIMFRAC
 70
     0
  9
$DIMLDRBLK
  1

  9
$DIMLUNIT
 70
     2
  9
$DIMLWD
 70
    -2
  9
$DIMLWE
 70
    -2
  9
$DIMTMOVE
 70
     0
  9
$LUNITS
 70
     2
  9
$LUPREC
 70
     4
  9
$SKETCHINC
 40
1.0
  9
$FILLETRAD
 40
10.0
  9
$AUNITS
 70
     0
  9
$AUPREC
 70
     0
  9
$MENU
  1
.
  9
$ELEVATION
 40
0.0
  9
$PELEVATION
 40
0.0
  9
$THICKNESS
 40
0.0
  9
$LIMCHECK
 70
     0
  9
$CHAMFERA
 40
0.0
  9
$CHAMFERB
 40
0.0
  9
$CHAMFERC
 40
0.0
  9
$CHAMFERD
 40
0.0
  9
$SKPOLY
 70
     0
  9
$TDCREATE
 40
2459710.368464595
  9
$TDUCREATE
 40
2459710.285131262
  9
$TDUPDATE
 40
2459710.368465683
  9
$TDUUPDATE
 40
2459710.285132349
  9
$TDINDWG
 40
0.0000000116
  9
$TDUSRTIMER
 40
0.0000000116
  9
$USRTIMER
 70
     1
  9
$ANGBASE
 50
0.0
  9
$ANGDIR
 70
     0
  9
$PDMODE
 70
     0
  9
$PDSIZE
 40
0.0
  9
$PLINEWID
 40
0.0
  9
$SPLFRAME
 70
     0
  9
$SPLINETYPE
 70
     6
  9
$SPLINESEGS
 70
     8
  9
$HANDSEED
  5
28F
  9
$SURFTAB1
 70
     6
  9
$SURFTAB2
 70
     6
  9
$SURFTYPE
 70
     6
  9
$SURFU
 70
     6
  9
$SURFV
 70
     6
  9
$UCSBASE
  2

  9
$UCSNAME
  2

  9
$UCSORG
 10
0.0
 20
0.0
 30
0.0
  9
$UCSXDIR
 10
1.0
 20
0.0
 30
0.0
  9
$UCSYDIR
 10
0.0
 20
1.0
 30
0.0
  9
$UCSORTHOREF
  2

  9
$UCSORTHOVIEW
 70
     0
  9
$UCSORGTOP
 10
0.0
 20
0.0
 30
0.0
  9
$UCSORGBOTTOM
 10
0.0
 20
0.0
 30
0.0
  9
$UCSORGLEFT
 10
0.0
 20
0.0
 30
0.0
  9
$UCSORGRIGHT
 10
0.0
 20
0.0
 30
0.0
  9
$UCSORGFRONT
 10
0.0
 20
0.0
 30
0.0
  9
$UCSORGBACK
 10
0.0
 20
0.0
 30
0.0
  9
$PUCSBASE
  2

  9
$PUCSNAME
  2

  9
$PUCSORG
 10
0.0
 20
0.0
 30
0.0
  9
$PUCSXDIR
 10
1.0
 20
0.0
 30
0.0
  9
$PUCSYDIR
 10
0.0
 20
1.0
 30
0.0
  9
$PUCSORTHOREF
  2

  9
$PUCSORTHOVIEW
 70
     0
  9
$PUCSORGTOP
 10
0.0
 20
0.0
 30
0.0
  9
$PUCSORGBOTTOM
 10
0.0
 20
0.0
 30
0.0
  9
$PUCSORGLEFT
 10
0.0
 20
0.0
 30
0.0
  9
$PUCSORGRIGHT
 10
0.0
 20
0.0
 30
0.0
  9
$PUCSORGFRONT
 10
0.0
 20
0.0
 30
0.0
  9
$PUCSORGBACK
 10
0.0
 20
0.0
 30
0.0
  9
$USERI1
 70
     0
  9
$USERI2
 70
     0
  9
$USERI3
 70
     0
  9
$USERI4
 70
     0
  9
$USERI5
 70
     0
  9
$USERR1
 40
0.0
  9
$USERR2
 40
0.0
  9
$USERR3
 40
0.0
  9
$USERR4
 40
0.0
  9
$USERR5
 40
0.0
  9
$WORLDVIEW
 70
     1
  9
$SHADEDGE
 70
     3
  9
$SHADEDIF
 70
    70
  9
$TILEMODE
 70
     1
  9
$MAXACTVP
 70
    64
  9
$PINSBASE
 10
0.0
 20
0.0
 30
0.0
  9
$PLIMCHECK
 70
     0
  9
$PEXTMIN
 10
1.000000E+20
 20
1.000000E+20
 30
1.000000E+20
  9
$PEXTMAX
 10
-1.000000E+20
 20
-1.000000E+20
 30
-1.000000E+20
  9
$PLIMMIN
 10
0.0
 20
0.0
  9
$PLIMMAX
 10
420.0
 20
297.0
  9
$UNITMODE
 70
     0
  9
$VISRETAIN
 70
     1
  9
$PLINEGEN
 70
     0
  9
$PSLTSCALE
 70
     1
  9
$TREEDEPTH
 70
  3020
  9
$CMLSTYLE
  2
Standard
  9
$CMLJUST
 70
     0
  9
$CMLSCALE
 40
20.0
  9
$PROXYGRAPHICS
 70
     1
  9
$MEASUREMENT
 70
     1
  9
$CELWEIGHT
370
    -1
  9
$ENDCAPS
280
     0
  9
$JOINSTYLE
280
     0
  9
$LWDISPLAY
290
     0
  9
$INSUNITS
 70
     4
  9
$HYPERLINKBASE
  1

  9
$STYLESHEET
  1

  9
$XEDIT
290
     1
  9
$CEPSNTYPE
380
     0
  9
$PSTYLEMODE
290
     1
  9
$FINGERPRINTGUID
  2
{c256fb74-1de5-4286-82b7-1fb9bc2ecd2a}
  9
$VERSIONGUID
  2
{FAEB1C32-E019-11D5-929B-00C0DF256EC4}
  9
$EXTNAMES
290
     1
  9
$PSVPSCALE
 40
0.0
  9
$OLESTARTUP
290
     0
  0
ENDSEC
  0
SECTION
  2
CLASSES
  0
CLASS
  1
ACDBDICTIONARYWDFLT
  2
AcDbDictionaryWithDefault
  3
ObjectDBX Classes
 90
        0
280
     0
281
     0
  0
CLASS
  1
VISUALSTYLE
  2
AcDbVisualStyle
  3
ObjectDBX Classes
 90
     4095
280
     0
281
     0
  0
CLASS
  1
MATERIAL
  2
AcDbMaterial
  3
ObjectDBX Classes
 90
     1153
280
     0
281
     0
  0
CLASS
  1
SCALE
  2
AcDbScale
  3
ObjectDBX Classes
 90
     1153
280
     0
281
     0
  0
CLASS
  1
TABLESTYLE
  2
AcDbTableStyle
  3
ObjectDBX Classes
 90
     4095
280
     0
281
     0
  0
CLASS
  1
MLEADERSTYLE
  2
AcDbMLeaderStyle
  3
ACDB_MLEADERSTYLE_CLASS
 90
     4095
280
     0
281
     0
  0
CLASS
  1
SUN
  2
AcDbSun
  3
SCENEOE
 90
     1153
280
     0
281
     0
  0
CLASS
  1
DICTIONARYVAR
  2
AcDbDictionaryVar
  3
ObjectDBX Classes
 90
        0
280
     0
281
     0
  0
CLASS
  1
ACDBPLACEHOLDER
  2
AcDbPlaceHolder
  3
ObjectDBX Classes
 90
        0
280
     0
281
     0
  0
CLASS
  1
LAYOUT
  2
AcDbLayout
  3
ObjectDBX Classes
 90
        0
280
     0
281
     0
  0
ENDSEC
  0
SECTION
  2
TABLES
  0
TABLE
  2
VPORT
  5
8
102
{ACAD_XDICTIONARY
360
252
102
}
330
0
100
AcDbSymbolTable
 70
     1
  0
VPORT
  5
29
330
8
100
AcDbSymbolTableRecord
100
AcDbViewportTableRecord
  2
*Active
 70
     0
 10
0.0
 20
0.0
 11
1.0
 21
1.0
 12
344.186916
 22
148.5
 13
0.0
 23
0.0
 14
10.0
 24
10.0
 15
10.0
 25
10.0
 16
0.0
 26
0.0
 36
1.0
 17
0.0
 27
0.0
 37
0.0
 40
297.0
 41
1.972973
 42
50.0
 43
0.0
 44
0.0
 50
0.0
 51
0.0
 71
     0
 72
   100
 73
     1
 74
     3
 75
     0
 76
     0
 77
     0
 78
     0
281
     0
 65
     1
110
0.0
120
0.0
130
0.0
111
1.0
121
0.0
131
0.0
112
0.0
122
1.0
132
0.0
 79
     0
146
0.0
  0
ENDTAB
  0
TABLE
  2
LTYPE
  5
5
330
0
100
AcDbSymbolTable
 70
     1
  0
LTYPE
  5
14
330
5
100
AcDbSymbolTableRecord
100
AcDbLinetypeTableRecord
  2
ByBlock
 70
     0
  3

 72
    65
 73
     0
 40
0.0
  0
LTYPE
  5
15
330
5
100
AcDbSymbolTableRecord
100
AcDbLinetypeTableRecord
  2
ByLayer
 70
     0
  3

 72
    65
 73
     0
 40
0.0
  0
LTYPE
  5
16
330
5
100
AcDbSymbolTableRecord
100
AcDbLinetypeTableRecord
  2
Continuous
 70
     0
  3
Solid line
 72
    65
 73
     0
 40
0.0
  0
ENDTAB
  0
TABLE
  2
LAYER
  5
2
330
0
100
AcDbSymbolTable
 70
     1
  0
LAYER
  5
10
330
2
100
AcDbSymbolTableRecord
100
AcDbLayerTableRecord
  2
0
 70
     0
 62
   106
  6
Continuous
370
     0
390
F
  0
ENDTAB
  0
TABLE
  2
STYLE
  5
3
330
0
100
AcDbSymbolTable
 70
     4
  0
STYLE
  5
11
330
3
100
AcDbSymbolTableRecord
100
AcDbTextStyleTableRecord
  2
Standard
 70
     0
 40
0.0
 41
1.0
 50
0.0
 71
     0
 42
2.5
  3
txt
  4

  0
STYLE
  5
6E
330
3
100
AcDbSymbolTableRecord
100
AcDbTextStyleTableRecord
  2
Default
 70
     0
 40
0.0
 41
1.0
 50
0.0
 71
     0
 42
2.5
  3

  4

1001
ACAD
1000
txt
1071
        0
  0
STYLE
  5
6F
330
3
100
AcDbSymbolTableRecord
100
AcDbTextStyleTableRecord
  2
ISO
 70
     0
 40
0.0
 41
1.0
 50
0.0
 71
     0
 42
2.5
  3

  4

1001
ACAD
1000
txt
1071
        0
  0
STYLE
  5
70
330
3
100
AcDbSymbolTableRecord
100
AcDbTextStyleTableRecord
  2
zucchetti
 70
     0
 40
0.0
 41
1.0
 50
0.0
 71
     0
 42
2.5
  3

  4

1001
ACAD
1000
Arial
1071
        0
  0
ENDTAB
  0
TABLE
  2
VIEW
  5
6
330
0
100
AcDbSymbolTable
 70
     0
  0
ENDTAB
  0
TABLE
  2
UCS
  5
7
330
0
100
AcDbSymbolTable
 70
     0
  0
ENDTAB
  0
TABLE
  2
APPID
  5
9
330
0
100
AcDbSymbolTable
 70
     2
  0
APPID
  5
12
330
9
100
AcDbSymbolTableRecord
100
AcDbRegAppTableRecord
  2
ACAD
 70
     0
  0
APPID
  5
28C
330
9
100
AcDbSymbolTableRecord
100
AcDbRegAppTableRecord
  2
ACAD_MLEADERVER
 70
     0
  0
ENDTAB
  0
TABLE
  2
DIMSTYLE
  5
A
330
0
100
AcDbSymbolTable
 70
     4
100
AcDbDimStyleTable
  0
DIMSTYLE
105
27
330
A
100
AcDbSymbolTableRecord
100
AcDbDimStyleTableRecord
  2
ISO-25
 70
     0
 41
2.5
 42
0.625
 43
3.75
 44
1.25
 73
     0
 74
     0
 77
     1
 78
     8
140
2.5
141
2.5
143
0.03937
147
0.625
171
     3
172
     1
178
     0
271
     2
272
     2
274
     3
278
    44
283
     0
284
     8
340
11
  0
DIMSTYLE
105
71
330
A
100
AcDbSymbolTableRecord
100
AcDbDimStyleTableRecord
  2
Default
 70
     0
  3
<>
 41
4.375
 42
1.05
 44
2.1
 73
     0
 74
     0
 77
     1
 78
     8
140
3.5
146
0.4
147
1.75
172
     1
271
     2
178
     3
271
     2
272
     3
284
     8
340
6E
341
72
342
72
  0
DIMSTYLE
105
79
330
A
100
AcDbSymbolTableRecord
100
AcDbDimStyleTableRecord
  2
ISO
 70
     0
  3
<>
 41
4.375
 42
1.05
 44
2.1
 73
     0
 74
     0
 77
     1
 78
     8
140
3.5
146
0.4
147
1.75
172
     1
271
     2
178
     3
271
     2
272
     3
284
     8
340
6F
341
72
342
72
  0
DIMSTYLE
105
7A
330
A
100
AcDbSymbolTableRecord
100
AcDbDimStyleTableRecord
  2
zucchetti
 70
     0
  3
<>
 41
3.0
 42
0.9
 44
1.8
 73
     0
 74
     0
 77
     1
 78
     8
140
3.0
146
0.6
147
1.5
172
     1
176
     3
177
     3
271
     2
178
     3
271
     2
272
     2
284
     8
340
70
  0
ENDTAB
  0
TABLE
  2
BLOCK_RECORD
  5
1
330
0
100
AcDbSymbolTable
 70
     6
  0
BLOCK_RECORD
  5
1F
330
1
100
AcDbSymbolTableRecord
100
AcDbBlockTableRecord
  2
*Model_Space
340
22
  0
BLOCK_RECORD
  5
1B
330
1
100
AcDbSymbolTableRecord
100
AcDbBlockTableRecord
  2
*Paper_Space
340
1E
  0
BLOCK_RECORD
  5
23
330
1
100
AcDbSymbolTableRecord
100
AcDbBlockTableRecord
  2
*Paper_Space0
340
26
  0
BLOCK_RECORD
  5
72
330
1
100
AcDbSymbolTableRecord
100
AcDbBlockTableRecord
  2
_Closed
340
0
  0
BLOCK_RECORD
  5
7B
330
1
100
AcDbSymbolTableRecord
100
AcDbBlockTableRecord
  2
a
340
0
102
{BLKREFS
331
CF
102
}
  0
BLOCK_RECORD
  5
D0
330
1
100
AcDbSymbolTableRecord
100
AcDbBlockTableRecord
  2
b
340
0
102
{BLKREFS
331
14F
102
}
  0
BLOCK_RECORD
  5
150
330
1
100
AcDbSymbolTableRecord
100
AcDbBlockTableRecord
  2
c
340
0
102
{BLKREFS
331
1A3
102
}
  0
BLOCK_RECORD
  5
1A4
330
1
100
AcDbSymbolTableRecord
100
AcDbBlockTableRecord
  2
d
340
0
102
{BLKREFS
331
246
102
}
  0
ENDTAB
  0
ENDSEC
  0
SECTION
  2
BLOCKS
  0
BLOCK
  5
20
330
1F
100
AcDbEntity
  8
0
100
AcDbBlockBegin
  2
*Model_Space
 70
     0
 10
0.0
 20
0.0
 30
0.0
  3
*Model_Space
  1

  0
ENDBLK
  5
21
330
1F
100
AcDbEntity
  8
0
100
AcDbBlockEnd
  0
BLOCK
  5
1C
330
1B
100
AcDbEntity
 67
     1
  8
0
100
AcDbBlockBegin
  2
*Paper_Space
 70
     0
 10
0.0
 20
0.0
 30
0.0
  3
*Paper_Space
  1

  0
ENDBLK
  5
1D
330
1B
100
AcDbEntity
 67
     1
  8
0
100
AcDbBlockEnd
  0
BLOCK
  5
24
330
23
100
AcDbEntity
  8
0
100
AcDbBlockBegin
  2
*Paper_Space0
 70
     0
 10
0.0
 20
0.0
 30
0.0
  3
*Paper_Space0
  1

  0
ENDBLK
  5
25
330
23
100
AcDbEntity
  8
0
100
AcDbBlockEnd
  0
BLOCK
  5
73
330
72
100
AcDbEntity
  8
0
100
AcDbBlockBegin
  2
_Closed
 70
     0
 10
0.0
 20
0.0
 30
0.0
  3
_Closed
  1

  0
LINE
  5
75
330
72
100
AcDbEntity
  8
0
  6
ByBlock
 62
     0
370
    -2
100
AcDbLine
 10
-1.0
 20
0.166667
 30
0.0
 11
0.0
 21
0.0
 31
0.0
  0
LINE
  5
76
330
72
100
AcDbEntity
  8
0
  6
ByBlock
 62
     0
370
    -2
100
AcDbLine
 10
0.0
 20
0.0
 30
0.0
 11
-1.0
 21
-0.166667
 31
0.0
  0
LINE
  5
77
330
72
100
AcDbEntity
  8
0
  6
ByBlock
 62
     0
370
    -2
100
AcDbLine
 10
-1.0
 20
0.166667
 30
0.0
 11
-1.0
 21
-0.166667
 31
0.0
  0
LINE
  5
78
330
72
100
AcDbEntity
  8
0
  6
ByBlock
 62
     0
370
    -2
100
AcDbLine
 10
0.0
 20
0.0
 30
0.0
 11
-1.0
 21
0.0
 31
0.0
  0
ENDBLK
  5
74
330
72
100
AcDbEntity
  8
0
100
AcDbBlockEnd
  0
BLOCK
  5
CD
330
7B
100
AcDbEntity
  8
0
100
AcDbBlockBegin
  2
a
 70
     0
 10
93.207191
 20
158.445023
 30
0.0
  3
a
  1

  0
SPLINE
  5
7C
330
7B
100
AcDbEntity
  8
0
  6
Continuous
 62
     0
370
    30
100
AcDbSpline
210
0.0
220
0.0
230
1.0
 70
     8
 71
     3
 72
    25
 73
    21
 74
     0
 42
0.000000001
 43
0.0
 40
39.34408904650371
 40
39.34408904650371
 40
39.34408904650371
 40
39.34408904650371
 40
41.06449129605188
 40
43.5575653454043
 40
44.56733934952536
 40
47.34019902195494
 40
51.06176097203338
 40
54.28562515978256
 40
56.01022520038088
 40
57.79132282954592
 40
59.62745765910734
 40
61.58075144479919
 40
63.17845203924638
 40
65.13134845294653
 40
68.32735191236736
 40
71.09266139662728
 40
73.36370521712871
 40
74.41436095632339
 40
76.89548593751202
 40
78.68817809300742
 40
78.68817809300742
 40
78.68817809300742
 40
78.68817809300742
 10
153.221336065929
 20
431.4020659447197
 30
0.0
 10
153.2214730913422
 20
431.4021368317795
 30
0.0
 10
153.3207388655146
 20
431.4570355644668
 30
0.0
 10
153.7381267108826
 20
431.6850715826156
 30
0.0
 10
154.5059749791391
 20
432.0874872896792
 30
0.0
 10
155.7485821731547
 20
432.710899643705
 30
0.0
 10
157.9655431241256
 20
433.676580838389
 30
0.0
 10
160.4132063162453
 20
434.4527861722427
 30
0.0
 10
162.5140647415793
 20
434.8777905629384
 30
0.0
 10
164.2630391277221
 20
435.0775991326983
 30
0.0
 10
166.1264120219516
 20
435.1088452035899
 30
0.0
 10
167.9079282827368
 20
434.9543696191236
 30
0.0
 10
169.6531155494466
 20
434.6443088071946
 30
0.0
 10
171.6601431537048
 20
434.1199066557381
 30
0.0
 10
173.7331619708811
 20
433.3577694235795
 30
0.0
 10
175.4763725876046
 20
432.5689426393387
 30
0.0
 10
176.4620626166598
 20
432.0738759195589
 30
0.0
 10
177.1827013601245
 20
431.6968302824204
 30
0.0
 10
177.616780459218
 20
431.4599106722468
 30
0.0
 10
177.7213360166057
 20
431.4020660400375
 30
0.0
 10
177.7213360166057
 20
431.4020660400375
 30
0.0
  0
LINE
  5
7D
330
7B
100
AcDbEntity
  8
0
  6
Continuous
 62
     0
370
    30
100
AcDbLine
 10
127.971336
 20
475.449412
 30
0.0
 11
129.971336
 21
475.802066
 31
0.0
  0
LINE
  5
7E
330
7B
100
AcDbEntity
  8
0
  6
Continuous
 62
     0
370
    30
100
AcDbLine
 10
127.971336
 20
431.75472
 30
0.0
 11
127.971336
 21
475.449412
 31
0.0
  0
LINE
  5
7F
330
7B
100
AcDbEntity
  8
0
  6
Continuous
 62
     0
370
    30
100
AcDbLine
 10
129.971336
 20
431.402066
 30
0.0
 11
129.971336
 21
453.602066
 31
0.0
  0
LINE
  5
80
330
7B
100
AcDbEntity
  8
0
  6
Continuous
 62
     0
370
    30
100
AcDbLine
 10
129.971336
 20
453.602066
 30
0.0
 11
129.971336
 21
475.802066
 31
0.0
  0
LINE
  5
81
330
7B
100
AcDbEntity
  8
0
  6
Continuous
 62
     0
370
    30
100
AcDbLine
 10
350.971336
 20
475.802066
 30
0.0
 11
352.971336
 21
475.449412
 31
0.0
  0
LINE
  5
82
330
7B
100
AcDbEntity
  8
0
  6
Continuous
 62
     0
370
    30
100
AcDbLine
 10
352.971336
 20
475.449412
 30
0.0
 11
352.971336
 21
431.75472
 31
0.0
  0
LINE
  5
83
330
7B
100
AcDbEntity
  8
0
  6
Continuous
 62
     0
370
    30
100
AcDbLine
 10
350.971336
 20
475.802066
 30
0.0
 11
350.971336
 21
453.602066
 31
0.0
  0
LINE
  5
84
330
7B
100
AcDbEntity
  8
0
  6
Continuous
 62
     0
370
    30
100
AcDbLine
 10
350.971336
 20
453.602066
 30
0.0
 11
350.971336
 21
431.402066
 31
0.0
  0
LINE
  5
85
330
7B
100
AcDbEntity
  8
0
  6
Continuous
 62
     0
370
    30
100
AcDbLine
 10
350.971336
 20
431.402066
 30
0.0
 11
352.971336
 21
431.75472
 31
0.0
  0
LINE
  5
86
330
7B
100
AcDbEntity
  8
0
  6
Continuous
 62
     0
370
    30
100
AcDbLine
 10
127.971336
 20
431.75472
 30
0.0
 11
129.971336
 21
431.402066
 31
0.0
  0
LINE
  5
87
330
7B
100
AcDbEntity
  8
0
  6
Continuous
 62
     0
370
    30
100
AcDbLine
 10
350.971336
 20
475.802066
 30
0.0
 11
129.971336
 21
475.802066
 31
0.0
  0
LINE
  5
88
330
7B
100
AcDbEntity
  8
0
  6
Continuous
 62
     0
370
    30
100
AcDbLine
 10
350.971336
 20
431.402066
 30
0.0
 11
177.721336
 21
431.402066
 31
0.0
  0
LINE
  5
89
330
7B
100
AcDbEntity
  8
0
  6
Continuous
 62
     0
370
    30
100
AcDbLine
 10
153.221336
 20
431.402066
 30
0.0
 11
129.971336
 21
431.402066
 31
0.0
  0
SPLINE
  5
8A
330
7B
100
AcDbEntity
  8
0
  6
Continuous
 62
     0
370
     0
100
AcDbSpline
210
0.0
220
0.0
230
1.0
 70
     8
 71
     3
 72
    54
 73
    50
 74
     0
 42
0.000000001
 43
0.0
 40
-4.835227817485801
 40
-4.835227817485801
 40
-4.835227817485801
 40
-4.835227817485801
 40
-4.789397841169539
 40
-4.724676248721301
 40
-4.659954656273064
 40
-4.595233063824827
 40
-4.53051147137659
 40
-4.465789878928353
 40
-4.401068286480116
 40
-4.33634669403188
 40
-4.271625101583642
 40
-4.206903509135405
 40
-4.142181916687168
 40
-4.077460324238931
 40
-4.012738731790694
 40
-3.948017139342457
 40
-3.88329554689422
 40
-3.818573954445983
 40
-3.753852361997746
 40
-3.689130769549509
 40
-3.624409177101272
 40
-3.559687584653035
 40
-3.494965992204798
 40
-3.430244399756561
 40
-3.365522807308324
 40
-3.300801214860087
 40
-3.23607962241185
 40
-3.171358029963613
 40
-3.106636437515376
 40
-3.041914845067139
 40
-2.977193252618902
 40
-2.912471660170665
 40
-2.847750067722428
 40
-2.783028475274191
 40
-2.718306882825954
 40
-2.653585290377717
 40
-2.58886369792948
 40
-2.524142105481244
 40
-2.459420513033006
 40
-2.394698920584768
 40
-2.329977328136532
 40
-2.265255735688296
 40
-2.200534143240058
 40
-2.135812550791821
 40
-2.071090958343584
 40
-2.006369365895347
 40
-1.94164777344711
 40
-1.876926180998873
 40
-1.870110271819398
 40
-1.870110271819398
 40
-1.870110271819398
 40
-1.870110271819398
 10
366.3775373274315
 20
431.730072318519
 30
0.0
 10
366.3917394007032
 20
431.7295897346723
 30
0.0
 10
366.4261353372954
 20
431.72842751224
 30
0.0
 10
366.4811682259271
 20
431.7265929104523
 30
0.0
 10
366.5427334903052
 20
431.7245725894022
 30
0.0
 10
366.6048510375103
 20
431.7225658790156
 30
0.0
 10
366.667471996734
 20
431.7205743580664
 30
0.0
 10
366.7305471011097
 20
431.7185995933783
 30
0.0
 10
366.7940267264736
 20
431.7166431385918
 30
0.0
 10
366.8578609304059
 20
431.7147065329424
 30
0.0
 10
366.9219994915235
 20
431.7127913000492
 30
0.0
 10
366.9863919489906
 20
431.7108989467164
 30
0.0
 10
367.0509876422195
 20
431.7090309617478
 30
0.0
 10
367.1157357507271
 20
431.7071888147752
 30
0.0
 10
367.1805853341184
 20
431.7053739551029
 30
0.0
 10
367.2454853721629
 20
431.7035878105665
 30
0.0
 10
367.3103848049352
 20
431.7018317864105
 30
0.0
 10
367.375232572986
 20
431.7001072641819
 30
0.0
 10
367.4399776575133
 20
431.6984156006438
 30
0.0
 10
367.5045691205008
 20
431.6967581267078
 30
0.0
 10
367.5689561447938
 20
431.695136146387
 30
0.0
 10
367.633088074079
 20
431.69355093577
 30
0.0
 10
367.6969144527384
 20
431.6920037420166
 30
0.0
 10
367.7603850655451
 20
431.6904957823774
 30
0.0
 10
367.8234499771701
 20
431.6890282432355
 30
0.0
 10
367.8860595714686
 20
431.6876022791732
 30
0.0
 10
367.9481645905156
 20
431.6862190120638
 30
0.0
 10
368.0097161733589
 20
431.6848795301888
 30
0.0
 10
368.0706658944612
 20
431.6835848873819
 30
0.0
 10
368.1309658017979
 20
431.6823361021999
 30
0.0
 10
368.1905684545836
 20
431.6811341571208
 30
0.0
 10
368.2494269605963
 20
431.6799799977719
 30
0.0
 10
368.3074950130691
 20
431.6788745321845
 30
0.0
 10
368.3647269271223
 20
431.6778186300809
 30
0.0
 10
368.4210776757058
 20
431.676813122189
 30
0.0
 10
368.4765029250242
 20
431.6758587995894
 30
0.0
 10
368.5309590694158
 20
431.6749564130928
 30
0.0
 10
368.5844032656595
 20
431.6741066726493
 30
0.0
 10
368.636793466682
 20
431.6733102467897
 30
0.0
 10
368.6880884546374
 20
431.6725677621
 30
0.0
 10
368.7382478733359
 20
431.6718798027279
 30
0.0
 10
368.7872322599935
 20
431.6712469099235
 30
0.0
 10
368.8350030762795
 20
431.6706695816135
 30
0.0
 10
368.8815227386364
 20
431.6701482720093
 30
0.0
 10
368.9267546478484
 20
431.6696833912499
 30
0.0
 10
368.9706632178361
 20
431.6692753050789
 30
0.0
 10
369.0132139036536
 20
431.668924334557
 30
0.0
 10
369.0420982997615
 20
431.6687183096808
 30
0.0
 10
369.0569730200502
 20
431.6686218774623
 30
0.0
 10
369.0583876074019
 20
431.6686127961951
 30
0.0
  0
SPLINE
  5
8B
330
7B
100
AcDbEntity
  8
0
  6
Continuous
 62
     0
370
    30
100
AcDbSpline
210
0.0
220
0.0
230
1.0
 70
     8
 71
     3
 72
    13
 73
     9
 74
     0
 42
0.000000001
 43
0.0
 40
1.769652614027026
 40
1.769652614027026
 40
1.769652614027026
 40
1.769652614027026
 40
1.937962088961687
 40
2.203301869400264
 40
2.820110896204275
 40
3.433686478810189
 40
4.397837186216837
 40
4.739998302730172
 40
4.739998302730172
 40
4.739998302730172
 40
4.739998302730172
 10
369.0595290054492
 20
431.6685165361055
 30
0.0
 10
369.0243233696994
 20
431.6687467901244
 30
0.0
 10
368.929564922386
 20
431.6695070750336
 30
0.0
 10
368.6763032995727
 20
431.6723746762985
 30
0.0
 10
368.2542969383493
 20
431.6793472339156
 30
0.0
 10
367.5521831569634
 20
431.6947619283214
 30
0.0
 10
366.898917038908
 20
431.7128901437295
 30
0.0
 10
366.4829152119652
 20
431.726454879131
 30
0.0
 10
366.3770250812678
 20
431.7300531290364
 30
0.0
  0
ARC
  5
8C
330
7B
100
AcDbEntity
  8
0
  6
Continuous
 62
     0
370
     0
100
AcDbCircle
 10
315.471336
 20
453.602066
 30
0.0
 40
30.99999999999993
100
AcDbArc
 50
45.735804
 51
134.264196
  0
ARC
  5
8D
330
7B
100
AcDbEntity
  8
0
  6
Continuous
 62
     0
370
     0
100
AcDbCircle
 10
315.471336
 20
453.602066
 30
0.0
 40
30.99999999999993
100
AcDbArc
 50
225.735804
 51
314.264196
  0
ARC
  5
8E
330
7B
100
AcDbEntity
  8
0
  6
Continuous
 62
     0
370
    30
100
AcDbCircle
 10
315.471336
 20
453.602066
 30
0.0
 40
31.50000000000027
100
AcDbArc
 50
44.810312
 51
135.189688
  0
ARC
  5
8F
330
7B
100
AcDbEntity
  8
0
  6
Continuous
 62
     0
370
    30
100
AcDbCircle
 10
315.471336
 20
453.602066
 30
0.0
 40
31.50000000000027
100
AcDbArc
 50
224.810312
 51
315.189688
  0
ARC
  5
90
330
7B
100
AcDbEntity
  8
0
  6
Continuous
 62
     0
370
     0
100
AcDbCircle
 10
165.471336
 20
453.602066
 30
0.0
 40
30.99999999999993
100
AcDbArc
 50
292.275849
 51
314.264196
  0
ARC
  5
91
330
7B
100
AcDbEntity
  8
0
  6
Continuous
 62
     0
370
     0
100
AcDbCircle
 10
165.471336
 20
453.602066
 30
0.0
 40
30.99999999999993
100
AcDbArc
 50
45.735804
 51
134.264196
  0
ARC
  5
92
330
7B
100
AcDbEntity
  8
0
  6
Continuous
 62
     0
370
     0
100
AcDbCircle
 10
165.471336
 20
453.602066
 30
0.0
 40
30.99999999999993
100
AcDbArc
 50
225.735804
 51
292.275849
  0
ARC
  5
93
330
7B
100
AcDbEntity
  8
0
  6
Continuous
 62
     0
370
    30
100
AcDbCircle
 10
165.471336
 20
453.602066
 30
0.0
 40
31.50000000000027
100
AcDbArc
 50
292.275849
 51
315.189688
  0
ARC
  5
94
330
7B
100
AcDbEntity
  8
0
  6
Continuous
 62
     0
370
    30
100
AcDbCircle
 10
165.471336
 20
453.602066
 30
0.0
 40
31.50000000000027
100
AcDbArc
 50
44.810312
 51
135.189688
  0
ARC
  5
95
330
7B
100
AcDbEntity
  8
0
  6
Continuous
 62
     0
370
    30
100
AcDbCircle
 10
165.471336
 20
453.602066
 30
0.0
 40
31.50000000000027
100
AcDbArc
 50
224.810312
 51
292.275849
  0
LINE
  5
96
330
7B
100
AcDbEntity
  8
0
  6
Continuous
 62
     0
370
    30
100
AcDbLine
 10
352.971336
 20
435.722845
 30
0.0
 11
353.471336
 21
435.760818
 31
0.0
  0
LINE
  5
97
330
7B
100
AcDbEntity
  8
0
  6
Continuous
 62
     0
370
    30
100
AcDbLine
 10
352.971336
 20
436.386522
 30
0.0
 11
353.471336
 21
436.422142
 31
0.0
  0
LINE
  5
98
330
7B
100
AcDbEntity
  8
0
  6
Continuous
 62
     0
370
    30
100
AcDbLine
 10
353.471336
 20
436.422142
 30
0.0
 11
353.471336
 21
434.632131
 31
0.0
  0
LINE
  5
99
330
7B
100
AcDbEntity
  8
0
  6
Continuous
 62
     0
370
    30
100
AcDbLine
 10
353.471336
 20
434.632131
 30
0.0
 11
352.971336
 21
434.596512
 31
0.0
  0
ARC
  5
9A
330
7B
100
AcDbEntity
  8
0
  6
Continuous
 62
     0
370
    30
100
AcDbCircle
 10
351.596733
 20
453.483597
 30
0.0
 40
20.51457391714742
100
AcDbArc
 50
59.898447
 51
86.157951
  0
ARC
  5
9B
330
7B
100
AcDbEntity
  8
0
  6
Continuous
 62
     0
370
    30
100
AcDbCircle
 10
351.59837
 20
453.683494
 30
0.0
 40
20.47750674686194
100
AcDbArc
 50
273.844423
 51
280.902211
  0
LINE
  5
9C
330
7B
100
AcDbEntity
  8
0
  6
Continuous
 62
     0
370
    30
100
AcDbLine
 10
353.271349
 20
436.407895
 30
0.0
 11
353.271349
 21
435.74563
 31
0.0
  0
SPLINE
  5
9D
330
7B
100
AcDbEntity
  8
0
  6
Continuous
 62
     0
370
    30
100
AcDbSpline
210
0.0
220
0.0
230
1.0
 70
     8
 71
     3
 72
    13
 73
     9
 74
     0
 42
0.000000001
 43
0.0
 40
4.755220063048419
 40
4.755220063048419
 40
4.755220063048419
 40
4.755220063048419
 40
4.806847194313733
 40
5.572741596169729
 40
6.231648732919507
 40
6.940003832687824
 40
7.51563537383517
 40
7.898602393297597
 40
7.898602393297597
 40
7.898602393297597
 40
7.898602393297597
 10
366.4114871813856
 20
431.7288873263903
 30
0.0
 10
366.3951562092308
 20
431.72830631956
 30
0.0
 10
366.1374231647353
 20
431.7188546667725
 30
0.0
 10
365.6983887202666
 20
431.6947408970674
 30
0.0
 10
365.1821434836577
 20
431.653585922163
 30
0.0
 10
364.8491527805409
 20
431.6208933870167
 30
0.0
 10
364.6973642904217
 20
431.6046369794741
 30
0.0
 10
364.6722113434662
 20
431.6020035467014
 30
0.0
 10
364.6722113434662
 20
431.6020689316952
 30
0.0
  0
SPLINE
  5
9E
330
7B
100
AcDbEntity
  8
0
  6
Continuous
 62
     0
370
    30
100
AcDbSpline
210
0.0
220
0.0
230
1.0
 70
     8
 71
     3
 72
    10
 73
     6
 74
     0
 42
0.000000001
 43
0.0
 40
0.0
 40
0.0
 40
0.0
 40
0.0
 40
0.4641953150431359
 40
1.2125624977277
 40
1.899613643115353
 40
1.899613643115353
 40
1.899613643115353
 40
1.899613643115353
 10
369.7213492060592
 20
431.6020689316952
 30
0.0
 10
369.7213492060592
 20
431.6019897082846
 30
0.0
 10
369.6840020148756
 20
431.6060734366018
 30
0.0
 10
369.4745232375299
 20
431.6291262959045
 30
0.0
 10
369.1938982398525
 20
431.6557428208916
 30
0.0
 10
369.0365841636682
 20
431.6686741748422
 30
0.0
  0
SPLINE
  5
9F
330
7B
100
AcDbEntity
  8
0
  6
Continuous
 62
     0
370
    30
100
AcDbSpline
210
0.0
220
0.0
230
1.0
 70
     8
 71
     3
 72
    19
 73
    15
 74
     0
 42
0.000000001
 43
0.0
 40
0.0
 40
0.0
 40
0.0
 40
0.0
 40
0.3829670194624183
 40
0.9585985606097757
 40
1.66695366037809
 40
2.325860797127878
 40
3.091755198983883
 40
3.861207100636068
 40
4.52887695797712
 40
5.189495310429077
 40
5.938597097893759
 40
6.686039895569891
 40
7.434407078254457
 40
7.89860239329759
 40
7.89860239329759
 40
7.89860239329759
 40
7.89860239329759
 10
364.6722113434662
 20
431.6020689316952
 30
0.0
 10
364.6722113434662
 20
431.6021343166889
 30
0.0
 10
364.6973642904217
 20
431.6050956521128
 30
0.0
 10
364.8491527805409
 20
431.6219039306452
 30
0.0
 10
365.1821434836577
 20
431.6551729673075
 30
0.0
 10
365.6983887202666
 20
431.6968364450288
 30
0.0
 10
366.3508772961294
 20
431.7330291967668
 30
0.0
 10
367.0800265514631
 20
431.7494139643172
 30
0.0
 10
367.7825238777831
 20
431.7418720413192
 30
0.0
 10
368.4372309555077
 20
431.7151114544588
 30
0.0
 10
369.0209326906478
 20
431.6739287712024
 30
0.0
 10
369.4678635835896
 20
431.6310720710958
 30
0.0
 10
369.6840020148756
 20
431.6066467832937
 30
0.0
 10
369.7213492060592
 20
431.6021481551057
 30
0.0
 10
369.7213492060592
 20
431.6020689316952
 30
0.0
  0
ARC
  5
A0
330
7B
100
AcDbEntity
  8
0
  6
Continuous
 62
     0
370
     0
100
AcDbCircle
 10
377.96161
 20
384.164284
 30
0.0
 40
5.430176576965069
100
AcDbArc
 50
270.000075
 51
359.999918
  0
ARC
  5
A1
330
7B
100
AcDbEntity
  8
0
  6
Continuous
 62
     0
370
    30
100
AcDbCircle
 10
377.961608
 20
384.163894
 30
0.0
 40
6.000009761571174
100
AcDbArc
 50
270.000093
 51
359.999899
  0
ARC
  5
A2
330
7B
100
AcDbEntity
  8
0
  6
Continuous
 62
     0
370
     0
100
AcDbCircle
 10
377.961624
 20
384.164284
 30
0.0
 40
5.430176577718681
100
AcDbArc
 50
180.000082
 51
269.999925
  0
ARC
  5
A3
330
7B
100
AcDbEntity
  8
0
  6
Continuous
 62
     0
370
    30
100
AcDbCircle
 10
377.961627
 20
384.163894
 30
0.0
 40
6.00000976260332
100
AcDbArc
 50
180.000101
 51
269.999907
  0
LINE
  5
A4
330
7B
100
AcDbEntity
  8
0
  6
Continuous
 62
     0
370
     0
100
AcDbLine
 10
383.391787
 20
384.163884
 30
0.0
 11
383.961617
 21
384.163884
 31
0.0
  0
LINE
  5
A5
330
7B
100
AcDbEntity
  8
0
  6
Continuous
 62
     0
370
     0
100
AcDbLine
 10
372.531448
 20
384.163884
 30
0.0
 11
371.961617
 21
384.163884
 31
0.0
  0
LINE
  5
A6
330
7B
100
AcDbEntity
  8
0
  6
Continuous
 62
     0
370
     0
100
AcDbLine
 10
377.961617
 20
378.163884
 30
0.0
 11
377.961617
 21
378.734108
 31
0.0
  0
ARC
  5
A7
330
7B
100
AcDbEntity
  8
0
  6
Continuous
 62
     0
370
    30
100
AcDbCircle
 10
370.461617
 20
430.102069
 30
0.0
 40
1.5
100
AcDbArc
 50
3.017989
 51
90.0
  0
SPLINE
  5
A8
330
7B
100
AcDbEntity
  8
0
  6
Continuous
 62
     0
370
     0
100
AcDbSpline
210
0.0
220
0.0
230
1.0
 70
     8
 71
     3
 72
    11
 73
     7
 74
     0
 42
0.000000001
 43
0.0
 40
0.0
 40
0.0
 40
0.0
 40
0.0
 40
0.5602275525844695
 40
1.120455105168939
 40
1.661776312983914
 40
2.203097520798889
 40
2.203097520798889
 40
2.203097520798889
 40
2.203097520798889
 10
383.1620545969284
 20
431.9762536108354
 30
0.0
 10
383.1865907929062
 20
431.9417638935469
 30
0.0
 10
383.238430195329
 20
431.81206706516
 30
0.0
 10
383.3094986683034
 20
431.46050383585
 30
0.0
 10
383.3648208744625
 20
430.9931348084496
 30
0.0
 10
383.3868127430027
 20
430.6422646348295
 30
0.0
 10
383.3919026562148
 20
430.4668926745657
 30
0.0
  0
LINE
  5
A9
330
7B
100
AcDbEntity
  8
0
  6
Continuous
 62
     0
370
    30
100
AcDbLine
 10
383.961617
 20
432.762669
 30
0.0
 11
383.961617
 21
430.466506
 31
0.0
  0
ARC
  5
AA
330
7B
100
AcDbEntity
  8
0
  6
Continuous
 62
     0
370
     0
100
AcDbCircle
 10
377.750749
 20
321.246928
 30
0.0
 40
110.8614714398453
100
AcDbArc
 50
87.2022
 51
89.891018
  0
ARC
  5
AB
330
7B
100
AcDbEntity
  8
0
  6
Continuous
 62
     0
370
     0
100
AcDbCircle
 10
377.665236
 20
337.130701
 30
0.0
 40
93.51170735846281
100
AcDbArc
 50
86.489003
 51
89.818403
  0
LINE
  5
AC
330
7B
100
AcDbEntity
  8
0
  6
Continuous
 62
     0
370
    30
100
AcDbLine
 10
383.961617
 20
474.802066
 30
0.0
 11
383.961617
 21
432.762739
 31
0.0
  0
LINE
  5
AD
330
7B
100
AcDbEntity
  8
0
  6
Continuous
 62
     0
370
    30
100
AcDbLine
 10
383.961617
 20
384.163884
 30
0.0
 11
383.961617
 21
430.466506
 31
0.0
  0
ELLIPSE
  5
AE
330
7B
100
AcDbEntity
  8
0
  6
Continuous
 62
     0
370
     0
100
AcDbEllipse
 10
383.161617
 20
432.762669
 30
0.0
 11
-0.8000000119209273
 21
-8.247238442661804E-14
 31
0.0
210
0.0
220
0.0
230
1.0
 40
0.983019
 41
1.571342994377019
 42
3.141592653589725
  0
LINE
  5
AF
330
7B
100
AcDbEntity
  8
0
  6
Continuous
 62
     0
370
     0
100
AcDbLine
 10
383.961617
 20
430.466506
 30
0.0
 11
383.391903
 21
430.466506
 31
0.0
  0
LINE
  5
B0
330
7B
100
AcDbEntity
  8
0
  6
Continuous
 62
     0
370
     0
100
AcDbLine
 10
383.391787
 20
384.164276
 30
0.0
 11
383.391787
 21
430.466893
 31
0.0
  0
LINE
  5
B1
330
7B
100
AcDbEntity
  8
0
  6
Continuous
 62
     0
370
     0
100
AcDbLine
 10
383.161617
 20
475.602066
 30
0.0
 11
383.161617
 21
431.976324
 31
0.0
  0
SPLINE
  5
B2
330
7B
100
AcDbEntity
  8
0
  6
Continuous
 62
     0
370
     0
100
AcDbSpline
210
0.0
220
0.0
230
1.0
 70
     8
 71
     3
 72
     9
 73
     5
 74
     0
 42
0.000000001
 43
0.0
 40
0.0
 40
0.0
 40
0.0
 40
0.0
 40
0.5018313499565082
 40
1.063013129751227
 40
1.063013129751227
 40
1.063013129751227
 40
1.063013129751227
 10
372.5314477645088
 20
430.4669021364187
 30
0.0
 10
372.3767413031088
 20
430.4431011936466
 30
0.0
 10
372.0812208929511
 20
430.3413668227891
 30
0.0
 10
371.961617274787
 20
430.2236073792319
 30
0.0
 10
371.961617274787
 20
430.1811530501581
 30
0.0
  0
SPLINE
  5
B3
330
7B
100
AcDbEntity
  8
0
  6
Continuous
 62
     0
370
     0
100
AcDbSpline
210
0.0
220
0.0
230
1.0
 70
     8
 71
     3
 72
    10
 73
     6
 74
     0
 42
0.000000001
 43
0.0
 40
0.0
 40
0.0
 40
0.0
 40
0.0
 40
1.395078978617329
 40
2.175114845490255
 40
2.955150712363182
 40
2.955150712363182
 40
2.955150712363182
 40
2.955150712363182
 10
372.0998799168163
 20
431.9443042672787
 30
0.0
 10
371.6550988446137
 20
431.9219807060966
 30
0.0
 10
371.0297420348115
 20
431.8522594165553
 30
0.0
 10
370.5523820006611
 20
431.7442295801101
 30
0.0
 10
370.4616172747871
 20
431.6960583050371
 30
0.0
 10
370.461617274787
 20
431.6761049431287
 30
0.0
  0
LINE
  5
B4
330
7B
100
AcDbEntity
  8
0
  6
Continuous
 62
     0
370
     0
100
AcDbLine
 10
372.531448
 20
384.164276
 30
0.0
 11
372.531448
 21
430.466902
 31
0.0
  0
LINE
  5
B5
330
7B
100
AcDbEntity
  8
0
  6
Continuous
 62
     0
370
    30
100
AcDbLine
 10
371.961617
 20
384.163884
 30
0.0
 11
371.961617
 21
430.181153
 31
0.0
  0
ARC
  5
B6
330
7B
100
AcDbEntity
  8
0
  6
Continuous
 62
     0
370
     0
100
AcDbCircle
 10
378.279291
 20
315.832094
 30
0.0
 40
116.2765383288935
100
AcDbArc
 50
90.156535
 51
93.046368
  0
LINE
  5
B7
330
7B
100
AcDbEntity
  8
0
  6
Continuous
 62
     0
370
     0
100
AcDbLine
 10
370.461617
 20
431.602069
 30
0.0
 11
370.461617
 21
431.676105
 31
0.0
  0
ELLIPSE
  5
B8
330
7B
100
AcDbEntity
  8
0
  6
Continuous
 62
     0
370
     0
100
AcDbEllipse
 10
372.09988
 20
430.467639
 30
0.0
 11
-0.08030274286482431
 21
1.497848947487165
 31
0.0
210
0.0
220
0.0
230
1.0
 40
0.287309
 41
4.696495275375662
 42
6.098706507928937
  0
ARC
  5
B9
330
7B
100
AcDbEntity
  8
0
  6
Continuous
 62
     0
370
     0
100
AcDbCircle
 10
370.464137
 20
430.178625
 30
0.0
 40
1.497482328092741
100
AcDbArc
 50
0.096737
 51
90.096411
  0
ARC
  5
BA
330
7B
100
AcDbEntity
  8
0
  6
Continuous
 62
     0
370
     0
100
AcDbCircle
 10
378.276209
 20
336.557383
 30
0.0
 40
94.0850819202235
100
AcDbArc
 50
90.19158
 51
93.500614
  0
LINE
  5
BB
330
7B
100
AcDbEntity
  8
0
  6
Continuous
 62
     0
370
    30
100
AcDbLine
 10
355.471349
 20
431.602069
 30
0.0
 11
355.471349
 21
453.613346
 31
0.0
  0
ELLIPSE
  5
BC
330
7B
100
AcDbEntity
  8
0
  6
Continuous
 62
     0
370
    30
100
AcDbEllipse
 10
355.471349
 20
453.602066
 30
0.0
 11
8.007344333210471
 21
21.99999996043116
 31
0.0
210
0.0
220
0.0
230
-1.0
 40
0.000165
 41
4.712841720153463
 42
6.722365513500007
  0
LINE
  5
BD
330
7B
100
AcDbEntity
  8
0
  6
Continuous
 62
     0
370
    30
100
AcDbLine
 10
355.471349
 20
431.602066
 30
0.0
 11
364.672238
 21
431.602066
 31
0.0
  0
LINE
  5
BE
330
7B
100
AcDbEntity
  8
0
  6
Continuous
 62
     0
370
    30
100
AcDbLine
 10
369.721324
 20
431.602066
 30
0.0
 11
370.461617
 21
431.602066
 31
0.0
  0
LINE
  5
BF
330
7B
100
AcDbEntity
  8
0
  6
Continuous
 62
     0
370
    30
100
AcDbLine
 10
363.478693
 20
475.602066
 30
0.0
 11
383.161617
 21
475.602066
 31
0.0
  0
ARC
  5
C0
330
7B
100
AcDbEntity
  8
0
  6
Continuous
 62
     0
370
    30
100
AcDbCircle
 10
383.161617
 20
474.802066
 30
0.0
 40
0.800000011920929
100
AcDbArc
 50
0.0
 51
90.0
  0
LINE
  5
C1
330
7B
100
AcDbEntity
  8
0
  6
Continuous
 62
     0
370
    30
100
AcDbLine
 10
154.971339
 20
427.902066
 30
0.0
 11
175.971339
 21
427.902066
 31
0.0
  0
LINE
  5
C2
330
7B
100
AcDbEntity
  8
0
  6
Continuous
 62
     0
370
    30
100
AcDbLine
 10
156.471339
 20
426.402066
 30
0.0
 11
174.471339
 21
426.402066
 31
0.0
  0
LINE
  5
C3
330
7B
100
AcDbEntity
  8
0
  6
Continuous
 62
     0
370
     0
100
AcDbLine
 10
156.471339
 20
425.902066
 30
0.0
 11
174.471339
 21
425.902066
 31
0.0
  0
LINE
  5
C4
330
7B
100
AcDbEntity
  8
0
  6
Continuous
 62
     0
370
    30
100
AcDbLine
 10
156.971339
 20
425.402066
 30
0.0
 11
173.971339
 21
425.402066
 31
0.0
  0
ARC
  5
C5
330
7B
100
AcDbEntity
  8
0
  6
Continuous
 62
     0
370
    30
100
AcDbCircle
 10
156.971339
 20
425.902066
 30
0.0
 40
0.5
100
AcDbArc
 50
180.0
 51
270.0
  0
ARC
  5
C6
330
7B
100
AcDbEntity
  8
0
  6
Continuous
 62
     0
370
    30
100
AcDbCircle
 10
173.971339
 20
425.902066
 30
0.0
 40
0.5
100
AcDbArc
 50
270.0
 51
0.0
  0
LINE
  5
C7
330
7B
100
AcDbEntity
  8
0
  6
Continuous
 62
     0
370
    30
100
AcDbLine
 10
156.471339
 20
426.402066
 30
0.0
 11
156.471339
 21
425.902066
 31
0.0
  0
LINE
  5
C8
330
7B
100
AcDbEntity
  8
0
  6
Continuous
 62
     0
370
    30
100
AcDbLine
 10
174.471339
 20
426.402066
 30
0.0
 11
174.471339
 21
425.902066
 31
0.0
  0
LINE
  5
C9
330
7B
100
AcDbEntity
  8
0
  6
Continuous
 62
     0
370
    30
100
AcDbLine
 10
154.971339
 20
427.902066
 30
0.0
 11
156.471339
 21
426.402066
 31
0.0
  0
LINE
  5
CA
330
7B
100
AcDbEntity
  8
0
  6
Continuous
 62
     0
370
    30
100
AcDbLine
 10
175.971339
 20
427.902066
 30
0.0
 11
174.471339
 21
426.402066
 31
0.0
  0
LINE
  5
CB
330
7B
100
AcDbEntity
  8
0
  6
Continuous
 62
     0
370
    30
100
AcDbLine
 10
154.971339
 20
432.317663
 30
0.0
 11
154.971339
 21
427.902066
 31
0.0
  0
LINE
  5
CC
330
7B
100
AcDbEntity
  8
0
  6
Continuous
 62
     0
370
    30
100
AcDbLine
 10
175.971339
 20
432.317653
 30
0.0
 11
175.971339
 21
427.902066
 31
0.0
  0
ENDBLK
  5
CE
330
7B
100
AcDbEntity
  8
0
100
AcDbBlockEnd
  0
BLOCK
  5
14D
330
D0
100
AcDbEntity
  8
0
100
AcDbBlockBegin
  2
b
 70
     0
 10
93.207191
 20
158.445023
 30
0.0
  3
b
  1

  0
LINE
  5
D1
330
D0
100
AcDbEntity
  8
0
  6
Continuous
 62
     0
370
    30
100
AcDbLine
 10
331.971344
 20
252.024579
 30
0.0
 11
298.971344
 21
252.024579
 31
0.0
  0
LINE
  5
D2
330
D0
100
AcDbEntity
  8
0
  6
Continuous
 62
     0
370
    30
100
AcDbLine
 10
148.971344
 20
252.024579
 30
0.0
 11
181.971344
 21
252.024579
 31
0.0
  0
SPLINE
  5
D3
330
D0
100
AcDbEntity
  8
0
  6
Continuous
 62
     0
370
     0
100
AcDbSpline
210
0.0
220
0.0
230
1.0
 70
     8
 71
     3
 72
    30
 73
    26
 74
     0
 42
0.000000001
 43
0.0
 40
62.29623304680482
 40
62.29623304680482
 40
62.29623304680482
 40
62.29623304680482
 40
62.56291821765718
 40
65.43760345113539
 40
68.46195271626385
 40
71.74759478744186
 40
75.97145857753928
 40
79.44745372671471
 40
81.46467462067876
 40
83.85493155554545
 40
85.96786556527668
 40
88.2912050972777
 40
90.40089314805026
 40
91.96479861384668
 40
94.35132277640317
 40
96.81756738457862
 40
98.44464659201927
 40
100.9233552416493
 40
103.3563105630023
 40
105.4164741127363
 40
109.5741272356663
 40
114.1613327410895
 40
118.0700090006455
 40
121.3736229468885
 40
124.5924660936097
 40
124.5924660936097
 40
124.5924660936097
 40
124.5924660936097
 10
294.9713696529674
 20
241.9245560373057
 30
0.0
 10
294.9713576383573
 20
241.9245666152077
 30
0.0
 10
294.979362481483
 20
241.9192835174241
 30
0.0
 10
295.1840566487102
 20
241.7833235104242
 30
0.0
 10
295.9922165214962
 20
241.2519725570475
 30
0.0
 10
297.4650512246802
 20
240.3050634638626
 30
0.0
 10
299.56529886009
 20
239.0119123965416
 30
0.0
 10
301.8322526950063
 20
237.7255410706194
 30
0.0
 10
303.8837487262168
 20
236.6662401183961
 30
0.0
 10
305.7183473198132
 20
235.8092251317792
 30
0.0
 10
307.78689704469
 20
234.9780884260594
 30
0.0
 10
309.9117311866233
 20
234.2927662816446
 30
0.0
 10
311.9810608069516
 20
233.8306169906278
 30
0.0
 10
314.1503430775674
 20
233.5542627118911
 30
0.0
 10
316.496620932882
 20
233.5150253200824
 30
0.0
 10
318.8265923572778
 20
233.8004856790457
 30
0.0
 10
321.0876695202048
 20
234.3125680892155
 30
0.0
 10
323.2152950623886
 20
234.9934101339946
 30
0.0
 10
325.3168025580487
 20
235.8506764950067
 30
0.0
 10
327.7375933630037
 20
236.9894098982525
 30
0.0
 10
330.4408658933253
 20
238.4554116045043
 30
0.0
 10
333.0352474281414
 20
240.0240980344195
 30
0.0
 10
334.8068286633292
 20
241.157724015496
 30
0.0
 10
335.7662505523313
 20
241.7882189311632
 30
0.0
 10
335.9713436460002
 20
241.9245788140459
 30
0.0
 10
335.9713436460002
 20
241.9245788574219
 30
0.0
  0
SPLINE
  5
D4
330
D0
100
AcDbEntity
  8
0
  6
Continuous
 62
     0
370
     0
100
AcDbSpline
210
0.0
220
0.0
230
1.0
 70
     8
 71
     3
 72
    30
 73
    26
 74
     0
 42
0.000000001
 43
0.0
 40
56.13122397549503
 40
56.13122397549503
 40
56.13122397549503
 40
56.13122397549503
 40
56.37151723760623
 40
58.9617155980461
 40
61.68676681989935
 40
64.64725258253023
 40
68.4531110244975
 40
71.58511199331222
 40
73.59465310609902
 40
75.55641351633128
 40
77.46024567993186
 40
79.55366104814345
 40
81.61217737234136
 40
82.86370549848017
 40
85.01405256987921
 40
87.23623072912433
 40
88.70228963753542
 40
90.93569836190956
 40
92.89522589103653
 40
94.98416565064632
 40
98.73036581784197
 40
102.863608665015
 40
106.3854714140515
 40
109.3621505048372
 40
112.2624479509901
 40
112.2624479509901
 40
112.2624479509901
 40
112.2624479509901
 10
298.9713653995038
 20
245.9245517737471
 30
0.0
 10
298.9713554265475
 20
245.9245643139679
 30
0.0
 10
298.9777950686168
 20
245.9183299225955
 30
0.0
 10
299.1425529779464
 20
245.7578720126507
 30
0.0
 10
299.7930212672055
 20
245.130781892848
 30
0.0
 10
300.9784750561434
 20
244.0132610772847
 30
0.0
 10
302.6689137727595
 20
242.4870980810663
 30
0.0
 10
304.5335498156713
 20
240.935699210243
 30
0.0
 10
306.1913516864433
 20
239.6847359949964
 30
0.0
 10
307.6733175870972
 20
238.6767272083389
 30
0.0
 10
309.2863149856006
 20
237.7264823178357
 30
0.0
 10
311.0421853084323
 20
236.8960192690053
 30
0.0
 10
312.7118358276054
 20
236.3584452997708
 30
0.0
 10
314.4596079778065
 20
236.0448482376785
 30
0.0
 10
316.2965568922994
 20
235.9997870481636
 30
0.0
 10
318.1719116435401
 20
236.3366833307336
 30
0.0
 10
319.9917995946564
 20
236.9410421735009
 30
0.0
 10
321.6366611529016
 20
237.7127771018113
 30
0.0
 10
323.3351645663321
 20
238.7165456385325
 30
0.0
 10
325.2921857551593
 20
240.0588990337718
 30
0.0
 10
327.519982611985
 20
241.8303165784538
 30
0.0
 10
329.6081444608201
 20
243.6816738455652
 30
0.0
 10
331.0340510553447
 20
245.0195510559751
 30
0.0
 10
331.8062687281879
 20
245.7636498570496
 30
0.0
 10
331.9713436460002
 20
245.924578816219
 30
0.0
 10
331.9713436460002
 20
245.9245788574219
 30
0.0
  0
SPLINE
  5
D5
330
D0
100
AcDbEntity
  8
0
  6
Continuous
 62
     0
370
     0
100
AcDbSpline
210
0.0
220
0.0
230
1.0
 70
     8
 71
     3
 72
    32
 73
    28
 74
     0
 42
0.000000001
 43
0.0
 40
0.0
 40
0.0
 40
0.0
 40
0.0
 40
2.556024133821802
 40
4.902866771508857
 40
8.936091291904233
 40
13.31826392216855
 40
16.68739117974965
 40
18.92879310645204
 40
21.05299780999365
 40
23.56296842245902
 40
25.42054666279431
 40
27.85852028629704
 40
29.9095732894921
 40
31.17805288852612
 40
32.446744647093
 40
33.98906328914635
 40
35.32464025438785
 40
36.68127136908077
 40
39.03326891583083
 40
41.19796124623165
 40
43.49935934402186
 40
47.4197476942717
 40
49.86150305837646
 40
52.31386309874104
 40
55.78308095345879
 40
59.32407926721238
 40
62.29623304680529
 40
62.29623304680529
 40
62.29623304680529
 40
62.29623304680529
 10
185.9713436460002
 20
241.9245788574219
 30
0.0
 10
185.9713436460002
 20
241.9245788229778
 30
0.0
 10
185.849268530172
 20
241.8434817614684
 30
0.0
 10
185.2139003841757
 20
241.4245920224014
 30
0.0
 10
183.8508469380576
 20
240.5394953987973
 30
0.0
 10
181.6592567373754
 20
239.1800758920672
 30
0.0
 10
179.3705358495249
 20
237.868378952372
 30
0.0
 10
177.3839241929171
 20
236.8278560579622
 30
0.0
 10
175.4739304041005
 20
235.9191705154472
 30
0.0
 10
173.5260838566276
 20
235.1152217875389
 30
0.0
 10
171.3399007461077
 20
234.3838281179828
 30
0.0
 10
169.1717249398907
 20
233.8544589653421
 30
0.0
 10
167.108143123352
 20
233.5897956073146
 30
0.0
 10
165.4384859162897
 20
233.5323776516005
 30
0.0
 10
163.9544272444716
 20
233.5885302576854
 30
0.0
 10
162.4658501781547
 20
233.7623569824486
 30
0.0
 10
160.986181984396
 20
234.0468816482683
 30
0.0
 10
159.2804621973961
 20
234.4854470753049
 30
0.0
 10
157.3963049068345
 20
235.1224989755014
 30
0.0
 10
155.3589959257816
 20
235.9692202520568
 30
0.0
 10
153.032928392382
 20
237.0796014865277
 30
0.0
 10
150.8874821958401
 20
238.2508786778272
 30
0.0
 10
148.9972876136778
 20
239.3640893165137
 30
0.0
 10
147.4430545847028
 20
240.3210197070192
 30
0.0
 10
146.0572720636471
 20
241.2087875306711
 30
0.0
 10
145.1600354831779
 20
241.7992236047148
 30
0.0
 10
144.9715035534335
 20
241.9244380685726
 30
0.0
 10
144.9713696529674
 20
241.9245560373097
 30
0.0
  0
SPLINE
  5
D6
330
D0
100
AcDbEntity
  8
0
  6
Continuous
 62
     0
370
     0
100
AcDbSpline
210
0.0
220
0.0
230
1.0
 70
     8
 71
     3
 72
    29
 73
    25
 74
     0
 42
0.000000001
 43
0.0
 40
0.0
 40
0.0
 40
0.0
 40
0.0
 40
2.30307285248703
 40
4.417665393455945
 40
8.051750759863992
 40
12.00025135738498
 40
15.03596037939144
 40
17.05554691638628
 40
18.96953439448456
 40
21.23111131060935
 40
22.90485842437
 40
25.10156337448063
 40
26.94963844864182
 40
29.23572424825489
 40
31.82881527495899
 40
33.05119038861522
 40
35.17042769446055
 40
37.12089603087594
 40
39.19454135043749
 40
42.72695712898752
 40
47.13673721510847
 40
50.26263158943786
 40
53.45320282826045
 40
56.13122397548737
 40
56.13122397548737
 40
56.13122397548737
 40
56.13122397548737
 10
181.9713436460002
 20
245.9245788574219
 30
0.0
 10
181.9713436460002
 20
245.9245788247034
 30
0.0
 10
181.8730880651201
 20
245.8288696941073
 30
0.0
 10
181.3616941907256
 20
245.3345043592505
 30
0.0
 10
180.2646023977501
 20
244.2899308583567
 30
0.0
 10
178.500639532579
 20
242.685571084175
 30
0.0
 10
176.6584983852623
 20
241.1375319599603
 30
0.0
 10
175.0595181417022
 20
239.9095284506443
 30
0.0
 10
173.5222065069655
 20
238.8371124948382
 30
0.0
 10
171.9544258349741
 20
237.888321244567
 30
0.0
 10
170.1948206201437
 20
237.0251030149055
 30
0.0
 10
168.4496793991972
 20
236.4005331230819
 30
0.0
 10
166.4228409332262
 20
236.0187026915648
 30
0.0
 10
164.2230475852238
 20
236.0241281876769
 30
0.0
 10
162.2808498201633
 20
236.4690456557797
 30
0.0
 10
160.4885291894765
 20
237.1451223705735
 30
0.0
 10
158.9718924505343
 20
237.8968821056894
 30
0.0
 10
157.3321550089176
 20
238.8961856792991
 30
0.0
 10
155.4598764257255
 20
240.206640406994
 30
0.0
 10
153.2447295203667
 20
241.9801650022584
 30
0.0
 10
151.2489507452842
 20
243.7616663427852
 30
0.0
 10
149.8452984572919
 20
245.0798314343984
 30
0.0
 10
149.1232357279764
 20
245.7766338575141
 30
0.0
 10
148.9714765461417
 20
245.9244119393687
 30
0.0
 10
148.9713653995039
 20
245.9245517737508
 30
0.0
  0
LINE
  5
D7
330
D0
100
AcDbEntity
  8
0
  6
Continuous
 62
     0
370
    30
100
AcDbLine
 10
331.971344
 20
252.024579
 30
0.0
 11
331.971344
 21
245.924579
 31
0.0
  0
ARC
  5
D8
330
D0
100
AcDbEntity
  8
0
  6
Continuous
 62
     0
370
    30
100
AcDbCircle
 10
335.971344
 20
245.924579
 30
0.0
 40
4.0
100
AcDbArc
 50
180.0
 51
270.0
  0
LINE
  5
D9
330
D0
100
AcDbEntity
  8
0
  6
Continuous
 62
     0
370
    30
100
AcDbLine
 10
181.971344
 20
252.024579
 30
0.0
 11
181.971344
 21
245.924579
 31
0.0
  0
ARC
  5
DA
330
D0
100
AcDbEntity
  8
0
  6
Continuous
 62
     0
370
    30
100
AcDbCircle
 10
185.971344
 20
245.924579
 30
0.0
 40
4.0
100
AcDbArc
 50
180.0
 51
270.0
  0
LINE
  5
DB
330
D0
100
AcDbEntity
  8
0
  6
Continuous
 62
     0
370
    30
100
AcDbLine
 10
127.971344
 20
197.877233
 30
0.0
 11
127.971344
 21
219.724578
 31
0.0
  0
LINE
  5
DC
330
D0
100
AcDbEntity
  8
0
  6
Continuous
 62
     0
370
    30
100
AcDbLine
 10
127.971344
 20
219.724578
 30
0.0
 11
127.971344
 21
241.571925
 31
0.0
  0
LINE
  5
DD
330
D0
100
AcDbEntity
  8
0
  6
Continuous
 62
     0
370
    30
100
AcDbLine
 10
129.971344
 20
219.724578
 30
0.0
 11
129.971344
 21
241.924579
 31
0.0
  0
LINE
  5
DE
330
D0
100
AcDbEntity
  8
0
  6
Continuous
 62
     0
370
    30
100
AcDbLine
 10
129.971344
 20
197.524579
 30
0.0
 11
129.971344
 21
219.724578
 31
0.0
  0
LINE
  5
DF
330
D0
100
AcDbEntity
  8
0
  6
Continuous
 62
     0
370
    30
100
AcDbLine
 10
352.971344
 20
241.571925
 30
0.0
 11
352.971344
 21
219.724578
 31
0.0
  0
LINE
  5
E0
330
D0
100
AcDbEntity
  8
0
  6
Continuous
 62
     0
370
    30
100
AcDbLine
 10
352.971344
 20
219.724578
 30
0.0
 11
352.971344
 21
197.877233
 31
0.0
  0
LINE
  5
E1
330
D0
100
AcDbEntity
  8
0
  6
Continuous
 62
     0
370
    30
100
AcDbLine
 10
350.971344
 20
197.524579
 30
0.0
 11
129.971344
 21
197.524579
 31
0.0
  0
LINE
  5
E2
330
D0
100
AcDbEntity
  8
0
  6
Continuous
 62
     0
370
    30
100
AcDbLine
 10
350.971344
 20
219.724578
 30
0.0
 11
350.971344
 21
197.524579
 31
0.0
  0
LINE
  5
E3
330
D0
100
AcDbEntity
  8
0
  6
Continuous
 62
     0
370
    30
100
AcDbLine
 10
350.971344
 20
241.924579
 30
0.0
 11
350.971344
 21
219.724578
 31
0.0
  0
LINE
  5
E4
330
D0
100
AcDbEntity
  8
0
  6
Continuous
 62
     0
370
    30
100
AcDbLine
 10
350.971344
 20
197.524579
 30
0.0
 11
352.971344
 21
197.877233
 31
0.0
  0
LINE
  5
E5
330
D0
100
AcDbEntity
  8
0
  6
Continuous
 62
     0
370
    30
100
AcDbLine
 10
350.971344
 20
241.924579
 30
0.0
 11
352.971344
 21
241.571925
 31
0.0
  0
LINE
  5
E6
330
D0
100
AcDbEntity
  8
0
  6
Continuous
 62
     0
370
    30
100
AcDbLine
 10
127.971344
 20
241.571925
 30
0.0
 11
129.971344
 21
241.924579
 31
0.0
  0
LINE
  5
E7
330
D0
100
AcDbEntity
  8
0
  6
Continuous
 62
     0
370
    30
100
AcDbLine
 10
127.971344
 20
197.877233
 30
0.0
 11
129.971344
 21
197.524579
 31
0.0
  0
LINE
  5
E8
330
D0
100
AcDbEntity
  8
0
  6
Continuous
 62
     0
370
    30
100
AcDbLine
 10
350.971344
 20
241.924579
 30
0.0
 11
335.971344
 21
241.924579
 31
0.0
  0
LINE
  5
E9
330
D0
100
AcDbEntity
  8
0
  6
Continuous
 62
     0
370
    30
100
AcDbLine
 10
294.97137
 20
241.924579
 30
0.0
 11
185.971344
 21
241.924579
 31
0.0
  0
LINE
  5
EA
330
D0
100
AcDbEntity
  8
0
  6
Continuous
 62
     0
370
    30
100
AcDbLine
 10
144.97137
 20
241.924579
 30
0.0
 11
129.971344
 21
241.924579
 31
0.0
  0
ARC
  5
EB
330
D0
100
AcDbEntity
  8
0
  6
Continuous
 62
     0
370
    30
100
AcDbCircle
 10
144.971352
 20
245.92457
 30
0.0
 40
4.000013635811395
100
AcDbArc
 50
270.000256
 51
359.999744
  0
ARC
  5
EC
330
D0
100
AcDbEntity
  8
0
  6
Continuous
 62
     0
370
    30
100
AcDbCircle
 10
294.971352
 20
245.92457
 30
0.0
 40
4.000013635847446
100
AcDbArc
 50
270.000256
 51
359.999744
  0
LINE
  5
ED
330
D0
100
AcDbEntity
  8
0
  6
Continuous
 62
     0
370
    30
100
AcDbLine
 10
298.971344
 20
252.024579
 30
0.0
 11
298.971344
 21
245.924552
 31
0.0
  0
LINE
  5
EE
330
D0
100
AcDbEntity
  8
0
  6
Continuous
 62
     0
370
    30
100
AcDbLine
 10
148.971344
 20
252.024579
 30
0.0
 11
148.971344
 21
245.924552
 31
0.0
  0
LINE
  5
EF
330
D0
100
AcDbEntity
  8
0
  6
Continuous
 62
     0
370
    30
100
AcDbLine
 10
153.471344
 20
252.324519
 30
0.0
 11
153.471344
 21
252.024579
 31
0.0
  0
LINE
  5
F0
330
D0
100
AcDbEntity
  8
0
  6
Continuous
 62
     0
370
    30
100
AcDbLine
 10
177.471344
 20
252.324519
 30
0.0
 11
177.471344
 21
252.024579
 31
0.0
  0
LINE
  5
F1
330
D0
100
AcDbEntity
  8
0
  6
Continuous
 62
     0
370
    30
100
AcDbLine
 10
303.471344
 20
252.324519
 30
0.0
 11
303.471344
 21
252.024579
 31
0.0
  0
LINE
  5
F2
330
D0
100
AcDbEntity
  8
0
  6
Continuous
 62
     0
370
    30
100
AcDbLine
 10
327.471344
 20
252.324519
 30
0.0
 11
327.471344
 21
252.024579
 31
0.0
  0
LINE
  5
F3
330
D0
100
AcDbEntity
  8
0
  6
Continuous
 62
     0
370
     0
100
AcDbLine
 10
304.266937
 20
253.124519
 30
0.0
 11
331.471344
 21
253.124519
 31
0.0
  0
LINE
  5
F4
330
D0
100
AcDbEntity
  8
0
  6
Continuous
 62
     0
370
    30
100
AcDbLine
 10
304.827157
 20
252.324519
 30
0.0
 11
330.671344
 21
252.324519
 31
0.0
  0
LINE
  5
F5
330
D0
100
AcDbEntity
  8
0
  6
Continuous
 62
     0
370
     0
100
AcDbLine
 10
303.60484
 20
253.124519
 30
0.0
 11
304.266937
 21
253.124519
 31
0.0
  0
LINE
  5
F6
330
D0
100
AcDbEntity
  8
0
  6
Continuous
 62
     0
370
    30
100
AcDbLine
 10
304.341619
 20
252.324519
 30
0.0
 11
304.827157
 21
252.324519
 31
0.0
  0
LINE
  5
F7
330
D0
100
AcDbEntity
  8
0
  6
Continuous
 62
     0
370
     0
100
AcDbLine
 10
299.708612
 20
253.124519
 30
0.0
 11
303.60484
 21
253.124519
 31
0.0
  0
LINE
  5
F8
330
D0
100
AcDbEntity
  8
0
  6
Continuous
 62
     0
370
    30
100
AcDbLine
 10
300.445392
 20
252.324519
 30
0.0
 11
304.341619
 21
252.324519
 31
0.0
  0
LINE
  5
F9
330
D0
100
AcDbEntity
  8
0
  6
Continuous
 62
     0
370
     0
100
AcDbLine
 10
299.708612
 20
253.124519
 30
0.0
 11
299.47158
 21
253.124519
 31
0.0
  0
LINE
  5
FA
330
D0
100
AcDbEntity
  8
0
  6
Continuous
 62
     0
370
    30
100
AcDbLine
 10
300.445392
 20
252.324519
 30
0.0
 11
300.271568
 21
252.324519
 31
0.0
  0
ARC
  5
FB
330
D0
100
AcDbEntity
  8
0
  6
Continuous
 62
     0
370
     0
100
AcDbCircle
 10
300.271574
 20
253.124514
 30
0.0
 40
0.7999941130068396
100
AcDbArc
 50
179.999578
 51
269.999578
  0
ELLIPSE
  5
FC
330
D0
100
AcDbEntity
  8
0
  6
Continuous
 62
     0
370
     0
100
AcDbEllipse
 10
304.827157
 20
253.124519
 30
0.0
 11
3.430290085626277E-8
 21
0.8000000119209302
 31
0.0
210
0.0
220
0.0
230
1.0
 40
0.700275
 41
1.570796388026232
 42
3.141592714821132
  0
ELLIPSE
  5
FD
330
D0
100
AcDbEntity
  8
0
  6
Continuous
 62
     0
370
     0
100
AcDbEllipse
 10
300.445392
 20
253.124519
 30
0.0
 11
8.265842700028389E-8
 21
0.8000000119209247
 31
0.0
210
0.0
220
0.0
230
1.0
 40
0.920975
 41
1.570796438983893
 42
3.14159276577879
  0
ELLIPSE
  5
FE
330
D0
100
AcDbEntity
  8
0
  6
Continuous
 62
     0
370
     0
100
AcDbEllipse
 10
304.341619
 20
253.124519
 30
0.0
 11
-8.265842700028389E-8
 21
-0.8000000119209247
 31
0.0
210
0.0
220
0.0
230
-1.0
 40
0.920975
 41
6.283185194990589
 42
7.853981521785477
  0
LINE
  5
FF
330
D0
100
AcDbEntity
  8
0
  6
Continuous
 62
     0
370
     0
100
AcDbLine
 10
304.266937
 20
267.324519
 30
0.0
 11
331.471344
 21
267.324519
 31
0.0
  0
LINE
  5
100
330
D0
100
AcDbEntity
  8
0
  6
Continuous
 62
     0
370
     0
100
AcDbLine
 10
303.60484
 20
267.324519
 30
0.0
 11
304.266937
 21
267.324519
 31
0.0
  0
LINE
  5
101
330
D0
100
AcDbEntity
  8
0
  6
Continuous
 62
     0
370
     0
100
AcDbLine
 10
299.708612
 20
267.324519
 30
0.0
 11
303.60484
 21
267.324519
 31
0.0
  0
LINE
  5
102
330
D0
100
AcDbEntity
  8
0
  6
Continuous
 62
     0
370
     0
100
AcDbLine
 10
299.708612
 20
267.324519
 30
0.0
 11
299.47158
 21
267.324519
 31
0.0
  0
LINE
  5
103
330
D0
100
AcDbEntity
  8
0
  6
Continuous
 62
     0
370
     0
100
AcDbLine
 10
304.266937
 20
267.324519
 30
0.0
 11
304.266937
 21
253.124519
 31
0.0
  0
ELLIPSE
  5
104
330
D0
100
AcDbEntity
  8
0
  6
Continuous
 62
     0
370
     0
100
AcDbEllipse
 10
304.617075
 20
267.324519
 30
0.0
 11
2.143931271569345E-8
 21
0.4999999999999996
 31
0.0
210
0.0
220
0.0
230
1.0
 40
0.700275
 41
0.0000000612313489
 42
1.570796388026238
  0
LINE
  5
105
330
D0
100
AcDbEntity
  8
0
  6
Continuous
 62
     0
370
     0
100
AcDbLine
 10
303.60484
 20
267.324519
 30
0.0
 11
303.60484
 21
253.124519
 31
0.0
  0
LINE
  5
106
330
D0
100
AcDbEntity
  8
0
  6
Continuous
 62
     0
370
     0
100
AcDbLine
 10
299.708612
 20
267.324519
 30
0.0
 11
299.708612
 21
253.124519
 31
0.0
  0
ELLIPSE
  5
107
330
D0
100
AcDbEntity
  8
0
  6
Continuous
 62
     0
370
     0
100
AcDbEllipse
 10
300.169099
 20
267.324519
 30
0.0
 11
5.166151610536085E-8
 21
0.4999999999999974
 31
0.0
210
0.0
220
0.0
230
1.0
 40
0.920975
 41
0.0000001121889888
 42
1.570796438983906
  0
ELLIPSE
  5
108
330
D0
100
AcDbEntity
  8
0
  6
Continuous
 62
     0
370
     0
100
AcDbEllipse
 10
304.065327
 20
267.324519
 30
0.0
 11
-5.166151610536085E-8
 21
-0.4999999999999974
 31
0.0
210
0.0
220
0.0
230
-1.0
 40
0.920975
 41
1.570796214605888
 42
3.141592541400804
  0
LINE
  5
109
330
D0
100
AcDbEntity
  8
0
  6
Continuous
 62
     0
370
     0
100
AcDbLine
 10
299.47158
 20
267.324519
 30
0.0
 11
299.47158
 21
253.124519
 31
0.0
  0
ARC
  5
10A
330
D0
100
AcDbEntity
  8
0
  6
Continuous
 62
     0
370
     0
100
AcDbCircle
 10
299.971576
 20
267.324523
 30
0.0
 40
0.4999963134666029
100
AcDbArc
 50
90.000422
 51
180.000422
  0
ARC
  5
10B
330
D0
100
AcDbEntity
  8
0
  6
Continuous
 62
     0
370
    30
100
AcDbCircle
 10
330.971344
 20
267.324519
 30
0.0
 40
0.5
100
AcDbArc
 50
0.0
 51
90.0
  0
LINE
  5
10C
330
D0
100
AcDbEntity
  8
0
  6
Continuous
 62
     0
370
    30
100
AcDbLine
 10
331.471344
 20
253.124519
 30
0.0
 11
331.471344
 21
267.324519
 31
0.0
  0
ARC
  5
10D
330
D0
100
AcDbEntity
  8
0
  6
Continuous
 62
     0
370
    30
100
AcDbCircle
 10
330.671344
 20
253.124519
 30
0.0
 40
0.800000011920929
100
AcDbArc
 50
270.0
 51
0.0
  0
LINE
  5
10E
330
D0
100
AcDbEntity
  8
0
  6
Continuous
 62
     0
370
     0
100
AcDbLine
 10
180.128491
 20
253.124519
 30
0.0
 11
181.471344
 21
253.124519
 31
0.0
  0
LINE
  5
10F
330
D0
100
AcDbEntity
  8
0
  6
Continuous
 62
     0
370
    30
100
AcDbLine
 10
179.395634
 20
252.324519
 30
0.0
 11
180.671344
 21
252.324519
 31
0.0
  0
LINE
  5
110
330
D0
100
AcDbEntity
  8
0
  6
Continuous
 62
     0
370
     0
100
AcDbLine
 10
180.128491
 20
253.124519
 30
0.0
 11
179.454381
 21
253.124519
 31
0.0
  0
LINE
  5
111
330
D0
100
AcDbEntity
  8
0
  6
Continuous
 62
     0
370
    30
100
AcDbLine
 10
179.395634
 20
252.324519
 30
0.0
 11
178.901286
 21
252.324519
 31
0.0
  0
LINE
  5
112
330
D0
100
AcDbEntity
  8
0
  6
Continuous
 62
     0
370
     0
100
AcDbLine
 10
179.454381
 20
253.124519
 30
0.0
 11
172.229356
 21
253.124519
 31
0.0
  0
LINE
  5
113
330
D0
100
AcDbEntity
  8
0
  6
Continuous
 62
     0
370
    30
100
AcDbLine
 10
178.901286
 20
252.324519
 30
0.0
 11
171.676261
 21
252.324519
 31
0.0
  0
LINE
  5
114
330
D0
100
AcDbEntity
  8
0
  6
Continuous
 62
     0
370
     0
100
AcDbLine
 10
171.236152
 20
253.124519
 30
0.0
 11
172.229356
 21
253.124519
 31
0.0
  0
LINE
  5
115
330
D0
100
AcDbEntity
  8
0
  6
Continuous
 62
     0
370
    30
100
AcDbLine
 10
170.947912
 20
252.324519
 30
0.0
 11
171.676261
 21
252.324519
 31
0.0
  0
LINE
  5
116
330
D0
100
AcDbEntity
  8
0
  6
Continuous
 62
     0
370
     0
100
AcDbLine
 10
149.471344
 20
253.124519
 30
0.0
 11
171.236152
 21
253.124519
 31
0.0
  0
LINE
  5
117
330
D0
100
AcDbEntity
  8
0
  6
Continuous
 62
     0
370
    30
100
AcDbLine
 10
150.271344
 20
252.324519
 30
0.0
 11
170.947912
 21
252.324519
 31
0.0
  0
ELLIPSE
  5
118
330
D0
100
AcDbEntity
  8
0
  6
Continuous
 62
     0
370
     0
100
AcDbEllipse
 10
179.395634
 20
253.124519
 30
0.0
 11
-7.988306638249766E-8
 21
0.8000000119209257
 31
0.0
210
0.0
220
0.0
230
-1.0
 40
0.916072
 41
1.570796435796908
 42
3.141592762591801
  0
ELLIPSE
  5
119
330
D0
100
AcDbEntity
  8
0
  6
Continuous
 62
     0
370
     0
100
AcDbEllipse
 10
178.901286
 20
253.124519
 30
0.0
 11
-3.346235735562843E-8
 21
0.8000000119209301
 31
0.0
210
0.0
220
0.0
230
-1.0
 40
0.691368
 41
1.570796387294887
 42
3.141592714089775
  0
ELLIPSE
  5
11A
330
D0
100
AcDbEntity
  8
0
  6
Continuous
 62
     0
370
     0
100
AcDbEllipse
 10
171.676261
 20
253.124519
 30
0.0
 11
3.346235735562843E-8
 21
-0.8000000119209301
 31
0.0
210
0.0
220
0.0
230
1.0
 40
0.691368
 41
-0.0000000604999819
 42
1.570796266294907
  0
ELLIPSE
  5
11B
330
D0
100
AcDbEntity
  8
0
  6
Continuous
 62
     0
370
     0
100
AcDbEllipse
 10
170.947912
 20
253.124519
 30
0.0
 11
1.350668124206964E-8
 21
-0.8000000119209304
 31
0.0
210
0.0
220
0.0
230
1.0
 40
0.360301
 41
-0.0000000468585881
 42
1.570796279936309
  0
LINE
  5
11C
330
D0
100
AcDbEntity
  8
0
  6
Continuous
 62
     0
370
     0
100
AcDbLine
 10
149.471344
 20
267.324519
 30
0.0
 11
171.236152
 21
267.324519
 31
0.0
  0
LINE
  5
11D
330
D0
100
AcDbEntity
  8
0
  6
Continuous
 62
     0
370
     0
100
AcDbLine
 10
180.128491
 20
267.324519
 30
0.0
 11
181.471344
 21
267.324519
 31
0.0
  0
LINE
  5
11E
330
D0
100
AcDbEntity
  8
0
  6
Continuous
 62
     0
370
     0
100
AcDbLine
 10
180.128491
 20
267.324519
 30
0.0
 11
179.454381
 21
267.324519
 31
0.0
  0
LINE
  5
11F
330
D0
100
AcDbEntity
  8
0
  6
Continuous
 62
     0
370
     0
100
AcDbLine
 10
179.454381
 20
267.324519
 30
0.0
 11
172.229356
 21
267.324519
 31
0.0
  0
LINE
  5
120
330
D0
100
AcDbEntity
  8
0
  6
Continuous
 62
     0
370
     0
100
AcDbLine
 10
171.236152
 20
267.324519
 30
0.0
 11
172.229356
 21
267.324519
 31
0.0
  0
LINE
  5
121
330
D0
100
AcDbEntity
  8
0
  6
Continuous
 62
     0
370
     0
100
AcDbLine
 10
171.236152
 20
267.324519
 30
0.0
 11
171.236152
 21
253.124519
 31
0.0
  0
ELLIPSE
  5
122
330
D0
100
AcDbEntity
  8
0
  6
Continuous
 62
     0
370
     0
100
AcDbEllipse
 10
171.056002
 20
267.324519
 30
0.0
 11
8.441675650502754E-9
 21
-0.4999999999999999
 31
0.0
210
0.0
220
0.0
230
1.0
 40
0.360301
 41
1.570796279936312
 42
3.141592606731185
  0
LINE
  5
123
330
D0
100
AcDbEntity
  8
0
  6
Continuous
 62
     0
370
     0
100
AcDbLine
 10
180.128491
 20
253.124519
 30
0.0
 11
180.128491
 21
267.324519
 31
0.0
  0
ELLIPSE
  5
124
330
D0
100
AcDbEntity
  8
0
  6
Continuous
 62
     0
370
     0
100
AcDbEllipse
 10
179.670455
 20
267.324519
 30
0.0
 11
-4.992691574509085E-8
 21
0.4999999999999975
 31
0.0
210
0.0
220
0.0
230
-1.0
 40
0.916072
 41
0.0000001090020155
 42
1.570796435796899
  0
LINE
  5
125
330
D0
100
AcDbEntity
  8
0
  6
Continuous
 62
     0
370
     0
100
AcDbLine
 10
179.454381
 20
253.124519
 30
0.0
 11
179.454381
 21
267.324519
 31
0.0
  0
LINE
  5
126
330
D0
100
AcDbEntity
  8
0
  6
Continuous
 62
     0
370
     0
100
AcDbLine
 10
172.229356
 20
267.324519
 30
0.0
 11
172.229356
 21
253.124519
 31
0.0
  0
ELLIPSE
  5
127
330
D0
100
AcDbEntity
  8
0
  6
Continuous
 62
     0
370
     0
100
AcDbEllipse
 10
179.108697
 20
267.324519
 30
0.0
 11
-2.091397057700835E-8
 21
0.4999999999999996
 31
0.0
210
0.0
220
0.0
230
-1.0
 40
0.691368
 41
0.0000000604999848
 42
1.570796387294887
  0
ELLIPSE
  5
128
330
D0
100
AcDbEntity
  8
0
  6
Continuous
 62
     0
370
     0
100
AcDbEllipse
 10
171.883671
 20
267.324519
 30
0.0
 11
2.091397057700835E-8
 21
-0.4999999999999996
 31
0.0
210
0.0
220
0.0
230
1.0
 40
0.691368
 41
1.57079626629492
 42
3.141592593089809
  0
ARC
  5
129
330
D0
100
AcDbEntity
  8
0
  6
Continuous
 62
     0
370
    30
100
AcDbCircle
 10
180.971344
 20
267.324519
 30
0.0
 40
0.5
100
AcDbArc
 50
0.0
 51
90.0
  0
ARC
  5
12A
330
D0
100
AcDbEntity
  8
0
  6
Continuous
 62
     0
370
    30
100
AcDbCircle
 10
149.971344
 20
267.324519
 30
0.0
 40
0.5
100
AcDbArc
 50
90.0
 51
180.0
  0
LINE
  5
12B
330
D0
100
AcDbEntity
  8
0
  6
Continuous
 62
     0
370
    30
100
AcDbLine
 10
149.471344
 20
253.124519
 30
0.0
 11
149.471344
 21
267.324519
 31
0.0
  0
LINE
  5
12C
330
D0
100
AcDbEntity
  8
0
  6
Continuous
 62
     0
370
    30
100
AcDbLine
 10
181.471344
 20
253.124519
 30
0.0
 11
181.471344
 21
267.324519
 31
0.0
  0
ARC
  5
12D
330
D0
100
AcDbEntity
  8
0
  6
Continuous
 62
     0
370
    30
100
AcDbCircle
 10
150.271344
 20
253.124519
 30
0.0
 40
0.8000000119209005
100
AcDbArc
 50
180.0
 51
270.0
  0
ARC
  5
12E
330
D0
100
AcDbEntity
  8
0
  6
Continuous
 62
     0
370
    30
100
AcDbCircle
 10
180.671344
 20
253.124519
 30
0.0
 40
0.800000011920929
100
AcDbArc
 50
270.0
 51
0.0
  0
LINE
  5
12F
330
D0
100
AcDbEntity
  8
0
  6
Continuous
 62
     0
370
    30
100
AcDbLine
 10
284.471344
 20
267.824519
 30
0.0
 11
346.462061
 21
267.824519
 31
0.0
  0
LINE
  5
130
330
D0
100
AcDbEntity
  8
0
  6
Continuous
 62
     0
370
     0
100
AcDbLine
 10
283.971344
 20
268.324519
 30
0.0
 11
346.961911
 21
268.324519
 31
0.0
  0
LINE
  5
131
330
D0
100
AcDbEntity
  8
0
  6
Continuous
 62
     0
370
    30
100
AcDbLine
 10
283.971344
 20
287.824472
 30
0.0
 11
346.961911
 21
287.824472
 31
0.0
  0
LINE
  5
132
330
D0
100
AcDbEntity
  8
0
  6
Continuous
 62
     0
370
    30
100
AcDbLine
 10
346.971344
 20
268.324519
 30
0.0
 11
346.971344
 21
287.824472
 31
0.0
  0
LINE
  5
133
330
D0
100
AcDbEntity
  8
0
  6
Continuous
 62
     0
370
    30
100
AcDbLine
 10
283.971344
 20
268.324519
 30
0.0
 11
283.971344
 21
287.824472
 31
0.0
  0
ARC
  5
134
330
D0
100
AcDbEntity
  8
0
  6
Continuous
 62
     0
370
    30
100
AcDbCircle
 10
346.471344
 20
268.324519
 30
0.0
 40
0.5000000000000001
100
AcDbArc
 50
270.0
 51
360.0
  0
ARC
  5
135
330
D0
100
AcDbEntity
  8
0
  6
Continuous
 62
     0
370
    30
100
AcDbCircle
 10
284.471344
 20
268.324519
 30
0.0
 40
0.5000000000000001
100
AcDbArc
 50
180.0
 51
270.0
  0
LINE
  5
136
330
D0
100
AcDbEntity
  8
0
  6
Continuous
 62
     0
370
    30
100
AcDbLine
 10
134.471344
 20
267.82452
 30
0.0
 11
196.471344
 21
267.82452
 31
0.0
  0
LINE
  5
137
330
D0
100
AcDbEntity
  8
0
  6
Continuous
 62
     0
370
     0
100
AcDbLine
 10
133.971344
 20
268.32452
 30
0.0
 11
196.971344
 21
268.32452
 31
0.0
  0
LINE
  5
138
330
D0
100
AcDbEntity
  8
0
  6
Continuous
 62
     0
370
    30
100
AcDbLine
 10
133.971344
 20
287.824473
 30
0.0
 11
196.971344
 21
287.824473
 31
0.0
  0
LINE
  5
139
330
D0
100
AcDbEntity
  8
0
  6
Continuous
 62
     0
370
    30
100
AcDbLine
 10
133.971344
 20
268.32452
 30
0.0
 11
133.971344
 21
287.824473
 31
0.0
  0
LINE
  5
13A
330
D0
100
AcDbEntity
  8
0
  6
Continuous
 62
     0
370
    30
100
AcDbLine
 10
196.971344
 20
268.32452
 30
0.0
 11
196.971344
 21
287.824473
 31
0.0
  0
ARC
  5
13B
330
D0
100
AcDbEntity
  8
0
  6
Continuous
 62
     0
370
    30
100
AcDbCircle
 10
134.471344
 20
268.32452
 30
0.0
 40
0.5000000000000001
100
AcDbArc
 50
180.0
 51
270.0
  0
ARC
  5
13C
330
D0
100
AcDbEntity
  8
0
  6
Continuous
 62
     0
370
    30
100
AcDbCircle
 10
196.471344
 20
268.32452
 30
0.0
 40
0.5000000000000001
100
AcDbArc
 50
270.0
 51
360.0
  0
ARC
  5
13D
330
D0
100
AcDbEntity
  8
0
  6
Continuous
 62
     0
370
    30
100
AcDbCircle
 10
351.586137
 20
219.901098
 30
0.0
 40
20.57320558644196
100
AcDbArc
 50
273.860682
 51
287.602078
  0
ARC
  5
13E
330
D0
100
AcDbEntity
  8
0
  6
Continuous
 62
     0
370
    30
100
AcDbCircle
 10
351.58612
 20
219.547967
 30
0.0
 40
20.57329872500057
100
AcDbArc
 50
72.375909
 51
86.13929
  0
LINE
  5
13F
330
D0
100
AcDbEntity
  8
0
  6
Continuous
 62
     0
370
    30
100
AcDbLine
 10
383.961625
 20
240.924579
 30
0.0
 11
383.961625
 21
198.524579
 31
0.0
  0
LINE
  5
140
330
D0
100
AcDbEntity
  8
0
  6
Continuous
 62
     0
370
     0
100
AcDbLine
 10
383.161625
 20
241.724579
 30
0.0
 11
383.161625
 21
197.724579
 31
0.0
  0
ELLIPSE
  5
141
330
D0
100
AcDbEntity
  8
0
  6
Continuous
 62
     0
370
    30
100
AcDbEllipse
 10
355.471357
 20
219.724579
 30
0.0
 11
0.004732015437129901
 21
21.99999993258272
 31
0.0
210
0.0
220
0.0
230
1.0
 40
0.36397
 41
3.142183612967921
 42
6.283776266557714
  0
SPLINE
  5
142
330
D0
100
AcDbEntity
  8
0
  6
Continuous
 62
     0
370
    30
100
AcDbSpline
210
0.0
220
0.0
230
1.0
 70
     8
 71
     3
 72
    17
 73
    13
 74
     0
 42
0.000000001
 43
0.0
 40
13.27191555656777
 40
13.27191555656777
 40
13.27191555656777
 40
13.27191555656777
 40
13.93436705867539
 40
18.99872121313802
 40
23.83259596650371
 40
27.74999508382983
 40
31.76225290533457
 40
35.66907232774657
 40
39.93902673924379
 40
43.87685082340847
 40
48.29542226986025
 40
51.41099485854803
 40
51.41099485854803
 40
51.41099485854803
 40
51.41099485854803
 10
359.7427329604795
 20
203.5966268451341
 30
0.0
 10
359.8049219696192
 20
203.7219885415467
 30
0.0
 10
360.3367701746801
 20
204.8302328947412
 30
0.0
 10
361.2209355383077
 20
207.259680043717
 30
0.0
 10
362.0798045202383
 20
211.1623364158579
 30
0.0
 10
362.5767156239743
 20
215.1856348148956
 30
0.0
 10
362.7629254791644
 20
219.1162582106161
 30
0.0
 10
362.6607414756768
 20
223.1903026889536
 30
0.0
 10
362.263608795378
 20
227.0839096703515
 30
0.0
 10
361.5668242160899
 20
230.7902671671257
 30
0.0
 10
360.7068526717146
 20
233.7001731388074
 30
0.0
 10
360.0352213991005
 20
235.2757149997617
 30
0.0
 10
359.7427352107238
 20
235.8645733664967
 30
0.0
  0
LINE
  5
143
330
D0
100
AcDbEntity
  8
0
  6
Continuous
 62
     0
370
    30
100
AcDbLine
 10
355.471357
 20
198.629439
 30
0.0
 11
355.471357
 21
197.724582
 31
0.0
  0
LINE
  5
144
330
D0
100
AcDbEntity
  8
0
  6
Continuous
 62
     0
370
    30
100
AcDbLine
 10
355.471357
 20
241.724576
 30
0.0
 11
355.471357
 21
240.819718
 31
0.0
  0
SPLINE
  5
145
330
D0
100
AcDbEntity
  8
0
  6
Continuous
 62
     0
370
    30
100
AcDbSpline
210
0.0
220
0.0
230
1.0
 70
     8
 71
     3
 72
    11
 73
     7
 74
     0
 42
0.000000001
 43
0.0
 40
0.0
 40
0.0
 40
0.0
 40
0.0
 40
2.93545859311661
 40
7.337050960277801
 40
10.88577784477735
 40
13.62845060249452
 40
13.62845060249452
 40
13.62845060249452
 40
13.62845060249452
 10
355.4713568354537
 20
240.8197184147914
 30
0.0
 10
355.8044180010104
 20
240.730944091452
 30
0.0
 10
356.6331191233753
 20
240.3610197275171
 30
0.0
 10
357.8219229529706
 20
239.2692820723188
 30
0.0
 10
358.909720316457
 20
237.6394344320524
 30
0.0
 10
359.4983431809374
 20
236.433612166313
 30
0.0
 10
359.7427352859529
 20
235.8645736858115
 30
0.0
  0
SPLINE
  5
146
330
D0
100
AcDbEntity
  8
0
  6
Continuous
 62
     0
370
    30
100
AcDbSpline
210
0.0
220
0.0
230
1.0
 70
     8
 71
     3
 72
    11
 73
     7
 74
     0
 42
0.000000001
 43
0.0
 40
0.0
 40
0.0
 40
0.0
 40
0.0
 40
2.742586701259878
 40
6.291400101000666
 40
10.69299246816186
 40
13.62845106127846
 40
13.62845106127846
 40
13.62845106127846
 40
13.62845106127846
 10
359.7427339312093
 20
203.5966227270012
 30
0.0
 10
359.4983495206662
 20
203.026913703968
 30
0.0
 10
358.9097298178752
 20
201.8194210479707
 30
0.0
 10
357.8219320664282
 20
200.186507422899
 30
0.0
 10
356.6331191912061
 20
199.0914105442608
 30
0.0
 10
355.8044180010104
 20
198.7191518939421
 30
0.0
 10
355.4713568354537
 20
198.6294393000555
 30
0.0
  0
LINE
  5
147
330
D0
100
AcDbEntity
  8
0
  6
Continuous
 62
     0
370
    30
100
AcDbLine
 10
355.471357
 20
199.69809
 30
0.0
 11
355.471357
 21
198.629437
 31
0.0
  0
LINE
  5
148
330
D0
100
AcDbEntity
  8
0
  6
Continuous
 62
     0
370
    30
100
AcDbLine
 10
355.471357
 20
240.819718
 30
0.0
 11
355.471357
 21
239.751068
 31
0.0
  0
LINE
  5
149
330
D0
100
AcDbEntity
  8
0
  6
Continuous
 62
     0
370
    30
100
AcDbLine
 10
355.475462
 20
241.724579
 30
0.0
 11
383.161625
 21
241.724579
 31
0.0
  0
LINE
  5
14A
330
D0
100
AcDbEntity
  8
0
  6
Continuous
 62
     0
370
    30
100
AcDbLine
 10
355.471357
 20
197.724579
 30
0.0
 11
383.161625
 21
197.724579
 31
0.0
  0
ARC
  5
14B
330
D0
100
AcDbEntity
  8
0
  6
Continuous
 62
     0
370
    30
100
AcDbCircle
 10
383.161625
 20
240.924579
 30
0.0
 40
0.800000011920929
100
AcDbArc
 50
0.0
 51
90.0
  0
ARC
  5
14C
330
D0
100
AcDbEntity
  8
0
  6
Continuous
 62
     0
370
    30
100
AcDbCircle
 10
383.161625
 20
198.524579
 30
0.0
 40
0.800000011920929
100
AcDbArc
 50
270.0
 51
360.0
  0
ENDBLK
  5
14E
330
D0
100
AcDbEntity
  8
0
100
AcDbBlockEnd
  0
BLOCK
  5
1A1
330
150
100
AcDbEntity
  8
0
100
AcDbBlockBegin
  2
c
 70
     0
 10
93.207191
 20
158.445023
 30
0.0
  3
c
  1

  0
LINE
  5
151
330
150
100
AcDbEntity
  8
0
  6
Continuous
 62
     0
370
    30
100
AcDbLine
 10
493.889065
 20
437.102066
 30
0.0
 11
493.889065
 21
470.102066
 31
0.0
  0
SPLINE
  5
152
330
150
100
AcDbEntity
  8
0
  6
Continuous
 62
     0
370
     0
100
AcDbSpline
210
0.0
220
0.0
230
1.0
 70
     8
 71
     3
 72
    30
 73
    26
 74
     0
 42
0.000000001
 43
0.0
 40
28.06561198774368
 40
28.06561198774368
 40
28.06561198774368
 40
28.06561198774368
 40
29.23572424825489
 40
31.82881527495899
 40
33.05119038861522
 40
35.17042769446055
 40
37.12089603087594
 40
39.19454135043749
 40
42.72695712898752
 40
47.13673721510847
 40
50.26263158943786
 40
53.45320282826045
 40
56.37151723770384
 40
58.96171559813881
 40
61.6867668199942
 40
64.64725258263508
 40
68.45311102462829
 40
71.58511199346897
 40
73.59465310626629
 40
75.55641351651452
 40
77.46024568014367
 40
79.553661048355
 40
81.61217737253733
 40
82.86370549866265
 40
84.19683596323105
 40
84.19683596323105
 40
84.19683596323105
 40
84.19683596323105
 10
509.8732474698774
 20
470.1019073267887
 30
0.0
 10
509.8732430768015
 20
470.10190419399
 30
0.0
 10
509.8081392305533
 20
470.0599032636237
 30
0.0
 10
509.4445972243277
 20
469.8254168116343
 30
0.0
 10
508.768520608318
 20
469.3578192089501
 30
0.0
 10
508.0167609636588
 20
468.805047550369
 30
0.0
 10
507.0174574972726
 20
467.9917977497931
 30
0.0
 10
505.7070029036768
 20
466.7962452710179
 30
0.0
 10
503.9334784896074
 20
464.8661356928843
 30
0.0
 10
502.1519773526453
 20
462.2048943554954
 30
0.0
 10
500.8338124547978
 20
459.1757057419451
 30
0.0
 10
500.1183946830013
 20
456.3050012937749
 30
0.0
 10
499.9179663273005
 20
453.4726852811459
 30
0.0
 10
500.1557720285198
 20
450.802072094924
 30
0.0
 10
500.7828620074076
 20
448.2284543345315
 30
0.0
 10
501.900382652364
 20
445.510467629336
 30
0.0
 10
503.4265454667753
 20
443.0411815337609
 30
0.0
 10
504.9779441746988
 20
441.1787400450925
 30
0.0
 10
506.228907262548
 20
439.9218290426261
 30
0.0
 10
507.2369159453293
 20
439.0272632247544
 30
0.0
 10
508.1871607321995
 20
438.2694849878269
 30
0.0
 10
509.0176236779829
 20
437.6683135528282
 30
0.0
 10
509.5551975584582
 20
437.3080385501811
 30
0.0
 10
509.8218607840117
 20
437.1352205412862
 30
0.0
 10
509.8732539055555
 20
437.1022176633181
 30
0.0
 10
509.8733909156218
 20
437.1021754124229
 30
0.0
  0
CIRCLE
  5
153
330
150
100
AcDbEntity
  8
0
  6
Continuous
 62
     0
370
    30
100
AcDbCircle
 10
526.189066
 20
453.602066
 30
0.0
 40
19.2
  0
CIRCLE
  5
154
330
150
100
AcDbEntity
  8
0
  6
Continuous
 62
     0
370
    30
100
AcDbCircle
 10
526.189066
 20
453.602066
 30
0.0
 40
21.84734603858308
  0
ARC
  5
155
330
150
100
AcDbEntity
  8
0
  6
Continuous
 62
     0
370
    30
100
AcDbCircle
 10
526.189066
 20
453.602066
 30
0.0
 40
22.2
100
AcDbArc
 50
90.0
 51
360.0
  0
ARC
  5
156
330
150
100
AcDbEntity
  8
0
  6
Continuous
 62
     0
370
    30
100
AcDbCircle
 10
526.189066
 20
453.602066
 30
0.0
 40
22.2
100
AcDbArc
 50
360.0
 51
90.0
  0
ARC
  5
157
330
150
100
AcDbEntity
  8
0
  6
Continuous
 62
     0
370
    30
100
AcDbCircle
 10
509.873509
 20
474.101984
 30
0.0
 40
4.000076235876291
100
AcDbArc
 50
269.996261
 51
308.518494
  0
SPLINE
  5
158
330
150
100
AcDbEntity
  8
0
  6
Continuous
 62
     0
370
    30
100
AcDbSpline
210
0.0
220
0.0
230
1.0
 70
     8
 71
     3
 72
    27
 73
    23
 74
     0
 42
0.000000001
 43
0.0
 40
0.0
 40
0.0
 40
0.0
 40
0.0
 40
0.9879006940121742
 40
1.481853079358505
 40
1.811156958662885
 40
1.975809989677595
 40
2.140466956979391
 40
2.305138470166114
 40
2.387501782277832
 40
2.469932059368175
 40
2.511325979149173
 40
2.552721677176117
 40
2.573848740430065
 40
2.594977865097279
 40
2.618338315598604
 40
2.641708707069367
 40
2.662027702391986
 40
2.692824201400398
 40
2.722052343226125
 40
2.751297622956511
 40
2.81398461542819
 40
2.975284854001033
 40
2.975284854001033
 40
2.975284854001033
 40
2.975284854001033
 10
509.8733913045454
 20
437.1021753335752
 30
0.0
 10
510.201878261695
 20
437.1021807535788
 30
0.0
 10
510.6968598734871
 20
437.0408350437309
 30
0.0
 10
511.2729520566716
 20
436.8569910507879
 30
0.0
 10
511.5750450503841
 20
436.7251157998551
 30
0.0
 10
511.7704937462781
 20
436.6249969051248
 30
0.0
 10
511.9138580689148
 20
436.5439477006636
 30
0.0
 10
512.0304944287426
 20
436.4715119577074
 30
0.0
 10
512.1218693125384
 20
436.4107849079465
 30
0.0
 10
512.1784176571424
 20
436.3714920901751
 30
0.0
 10
512.2227152114456
 20
436.3396962028215
 30
0.0
 10
512.2508628059659
 20
436.3190418011856
 30
0.0
 10
512.2723180391911
 20
436.3030488696287
 30
0.0
 10
512.2899915747424
 20
436.2897245654564
 30
0.0
 10
512.3048395285174
 20
436.2784148886968
 30
0.0
 10
512.3217883448733
 20
436.2653620211512
 30
0.0
 10
512.3343871680947
 20
436.2555618170859
 30
0.0
 10
512.3437490393361
 20
436.2482258499654
 30
0.0
 10
512.3475574186202
 20
436.2452294601483
 30
0.0
 10
512.3558645502754
 20
436.2386744442076
 30
0.0
 10
512.359210803403
 20
436.2360093634991
 30
0.0
 10
512.3604932165424
 20
436.2349946051687
 30
0.0
 10
512.3606071725392
 20
436.2349041391775
 30
0.0
  0
LINE
  5
159
330
150
100
AcDbEntity
  8
0
  6
Continuous
 62
     0
370
    30
100
AcDbLine
 10
493.889065
 20
437.102066
 30
0.0
 11
509.873391
 21
437.102066
 31
0.0
  0
LINE
  5
15A
330
150
100
AcDbEntity
  8
0
  6
Continuous
 62
     0
370
    30
100
AcDbLine
 10
493.889065
 20
470.102066
 30
0.0
 11
509.873247
 21
470.102066
 31
0.0
  0
CIRCLE
  5
15B
330
150
100
AcDbEntity
  8
0
  6
Continuous
 62
     0
370
    30
100
AcDbCircle
 10
526.189066
 20
453.602066
 30
0.0
 40
18.94999999999993
  0
LINE
  5
15C
330
150
100
AcDbEntity
  8
0
  6
Continuous
 62
     0
370
    30
100
AcDbLine
 10
493.589124
 20
441.602066
 30
0.0
 11
493.889065
 21
441.602066
 31
0.0
  0
LINE
  5
15D
330
150
100
AcDbEntity
  8
0
  6
Continuous
 62
     0
370
    30
100
AcDbLine
 10
493.589124
 20
465.602066
 30
0.0
 11
493.889065
 21
465.602066
 31
0.0
  0
LINE
  5
15E
330
150
100
AcDbEntity
  8
0
  6
Continuous
 62
     0
370
     0
100
AcDbLine
 10
492.789124
 20
437.602066
 30
0.0
 11
492.789124
 21
438.676685
 31
0.0
  0
LINE
  5
15F
330
150
100
AcDbEntity
  8
0
  6
Continuous
 62
     0
370
    30
100
AcDbLine
 10
493.589124
 20
438.402066
 30
0.0
 11
493.589124
 21
439.422955
 31
0.0
  0
LINE
  5
160
330
150
100
AcDbEntity
  8
0
  6
Continuous
 62
     0
370
     0
100
AcDbLine
 10
492.789124
 20
447.185834
 30
0.0
 11
492.789124
 21
469.602066
 31
0.0
  0
LINE
  5
161
330
150
100
AcDbEntity
  8
0
  6
Continuous
 62
     0
370
    30
100
AcDbLine
 10
493.589124
 20
447.506645
 30
0.0
 11
493.589124
 21
468.802066
 31
0.0
  0
LINE
  5
162
330
150
100
AcDbEntity
  8
0
  6
Continuous
 62
     0
370
     0
100
AcDbLine
 10
492.789125
 20
446.22137
 30
0.0
 11
492.789125
 21
447.185834
 31
0.0
  0
LINE
  5
163
330
150
100
AcDbEntity
  8
0
  6
Continuous
 62
     0
370
    30
100
AcDbLine
 10
493.589125
 20
446.799372
 30
0.0
 11
493.589125
 21
447.506645
 31
0.0
  0
LINE
  5
164
330
150
100
AcDbEntity
  8
0
  6
Continuous
 62
     0
370
     0
100
AcDbLine
 10
492.789124
 20
439.307687
 30
0.0
 11
492.789125
 21
446.22137
 31
0.0
  0
LINE
  5
165
330
150
100
AcDbEntity
  8
0
  6
Continuous
 62
     0
370
    30
100
AcDbLine
 10
493.589124
 20
439.885689
 30
0.0
 11
493.589125
 21
446.799372
 31
0.0
  0
LINE
  5
166
330
150
100
AcDbEntity
  8
0
  6
Continuous
 62
     0
370
     0
100
AcDbLine
 10
492.789124
 20
439.307687
 30
0.0
 11
492.789124
 21
438.676685
 31
0.0
  0
LINE
  5
167
330
150
100
AcDbEntity
  8
0
  6
Continuous
 62
     0
370
    30
100
AcDbLine
 10
493.589124
 20
439.885689
 30
0.0
 11
493.589124
 21
439.422955
 31
0.0
  0
ELLIPSE
  5
168
330
150
100
AcDbEntity
  8
0
  6
Continuous
 62
     0
370
     0
100
AcDbEllipse
 10
492.789124
 20
439.422955
 30
0.0
 11
0.8000000119209238
 21
-9.053716895301554E-8
 31
0.0
210
0.0
220
0.0
230
-1.0
 40
0.932836
 41
6.283185185859842
 42
7.853981512654744
  0
ELLIPSE
  5
169
330
150
100
AcDbEntity
  8
0
  6
Continuous
 62
     0
370
     0
100
AcDbEllipse
 10
492.789125
 20
447.506645
 30
0.0
 11
-0.8000000119209307
 21
1.530794928283508E-8
 31
0.0
210
0.0
220
0.0
230
1.0
 40
0.401015
 41
1.570796374511204
 42
3.141592701306109
  0
ELLIPSE
  5
16A
330
150
100
AcDbEntity
  8
0
  6
Continuous
 62
     0
370
     0
100
AcDbEllipse
 10
492.789124
 20
439.885689
 30
0.0
 11
-0.8000000119209283
 21
3.654401720023655E-8
 31
0.0
210
0.0
220
0.0
230
1.0
 40
0.722503
 41
1.570796390019622
 42
3.141592716814515
  0
ELLIPSE
  5
16B
330
150
100
AcDbEntity
  8
0
  6
Continuous
 62
     0
370
     0
100
AcDbEllipse
 10
492.789125
 20
446.799372
 30
0.0
 11
0.8000000119209283
 21
-3.654401720023655E-8
 31
0.0
210
0.0
220
0.0
230
-1.0
 40
0.722503
 41
-0.0000000632247215
 42
1.570796263570172
  0
LINE
  5
16C
330
150
100
AcDbEntity
  8
0
  6
Continuous
 62
     0
370
     0
100
AcDbLine
 10
478.589124
 20
447.185834
 30
0.0
 11
478.589124
 21
469.602066
 31
0.0
  0
LINE
  5
16D
330
150
100
AcDbEntity
  8
0
  6
Continuous
 62
     0
370
     0
100
AcDbLine
 10
478.589125
 20
446.22137
 30
0.0
 11
478.589125
 21
447.185834
 31
0.0
  0
LINE
  5
16E
330
150
100
AcDbEntity
  8
0
  6
Continuous
 62
     0
370
     0
100
AcDbLine
 10
478.589124
 20
439.307687
 30
0.0
 11
478.589125
 21
446.22137
 31
0.0
  0
LINE
  5
16F
330
150
100
AcDbEntity
  8
0
  6
Continuous
 62
     0
370
     0
100
AcDbLine
 10
478.589124
 20
439.307687
 30
0.0
 11
478.589124
 21
438.676685
 31
0.0
  0
LINE
  5
170
330
150
100
AcDbEntity
  8
0
  6
Continuous
 62
     0
370
     0
100
AcDbLine
 10
478.589124
 20
437.602066
 30
0.0
 11
478.589124
 21
438.676685
 31
0.0
  0
LINE
  5
171
330
150
100
AcDbEntity
  8
0
  6
Continuous
 62
     0
370
     0
100
AcDbLine
 10
478.589125
 20
447.185834
 30
0.0
 11
492.789125
 21
447.185834
 31
0.0
  0
ELLIPSE
  5
172
330
150
100
AcDbEntity
  8
0
  6
Continuous
 62
     0
370
     0
100
AcDbEllipse
 10
478.589125
 20
447.386341
 30
0.0
 11
-0.4999999999999999
 21
9.567468159205466E-9
 31
0.0
210
0.0
220
0.0
230
1.0
 40
0.401015
 41
0.0000000477163171
 42
1.570796374511218
  0
LINE
  5
173
330
150
100
AcDbEntity
  8
0
  6
Continuous
 62
     0
370
     0
100
AcDbLine
 10
478.589125
 20
446.22137
 30
0.0
 11
492.789125
 21
446.22137
 31
0.0
  0
LINE
  5
174
330
150
100
AcDbEntity
  8
0
  6
Continuous
 62
     0
370
     0
100
AcDbLine
 10
478.589124
 20
439.307687
 30
0.0
 11
492.789124
 21
439.307687
 31
0.0
  0
ELLIPSE
  5
175
330
150
100
AcDbEntity
  8
0
  6
Continuous
 62
     0
370
     0
100
AcDbEllipse
 10
478.589124
 20
439.668938
 30
0.0
 11
-0.4999999999999996
 21
2.284001040980517E-8
 31
0.0
210
0.0
220
0.0
230
1.0
 40
0.722503
 41
0.0000000632247161
 42
1.57079639001963
  0
ELLIPSE
  5
176
330
150
100
AcDbEntity
  8
0
  6
Continuous
 62
     0
370
     0
100
AcDbEllipse
 10
478.589125
 20
446.582621
 30
0.0
 11
0.4999999999999996
 21
-2.284001040980517E-8
 31
0.0
210
0.0
220
0.0
230
-1.0
 40
0.722503
 41
1.570796263570177
 42
3.141592590365074
  0
LINE
  5
177
330
150
100
AcDbEntity
  8
0
  6
Continuous
 62
     0
370
     0
100
AcDbLine
 10
478.589124
 20
438.676685
 30
0.0
 11
492.789124
 21
438.676685
 31
0.0
  0
ELLIPSE
  5
178
330
150
100
AcDbEntity
  8
0
  6
Continuous
 62
     0
370
     0
100
AcDbEllipse
 10
478.589124
 20
439.143104
 30
0.0
 11
0.4999999999999968
 21
-5.658572975244143E-8
 31
0.0
210
0.0
220
0.0
230
-1.0
 40
0.932836
 41
1.570796205475145
 42
3.141592532270049
  0
ARC
  5
179
330
150
100
AcDbEntity
  8
0
  6
Continuous
 62
     0
370
    30
100
AcDbCircle
 10
478.589124
 20
438.102066
 30
0.0
 40
0.5
100
AcDbArc
 50
180.0
 51
270.0
  0
ARC
  5
17A
330
150
100
AcDbEntity
  8
0
  6
Continuous
 62
     0
370
    30
100
AcDbCircle
 10
478.589124
 20
469.102066
 30
0.0
 40
0.5
100
AcDbArc
 50
90.0
 51
180.0
  0
LINE
  5
17B
330
150
100
AcDbEntity
  8
0
  6
Continuous
 62
     0
370
    30
100
AcDbLine
 10
492.789124
 20
469.602066
 30
0.0
 11
478.589124
 21
469.602066
 31
0.0
  0
LINE
  5
17C
330
150
100
AcDbEntity
  8
0
  6
Continuous
 62
     0
370
    30
100
AcDbLine
 10
492.789124
 20
437.602066
 30
0.0
 11
478.589124
 21
437.602066
 31
0.0
  0
ARC
  5
17D
330
150
100
AcDbEntity
  8
0
  6
Continuous
 62
     0
370
    30
100
AcDbCircle
 10
492.789124
 20
468.802066
 30
0.0
 40
0.800000011920929
100
AcDbArc
 50
0.0
 51
90.0
  0
ARC
  5
17E
330
150
100
AcDbEntity
  8
0
  6
Continuous
 62
     0
370
    30
100
AcDbCircle
 10
492.789124
 20
438.402066
 30
0.0
 40
0.8000000119209307
100
AcDbArc
 50
270.0
 51
360.0
  0
LINE
  5
17F
330
150
100
AcDbEntity
  8
0
  6
Continuous
 62
     0
370
    30
100
AcDbLine
 10
478.089123
 20
422.602066
 30
0.0
 11
478.089123
 21
484.602066
 31
0.0
  0
LINE
  5
180
330
150
100
AcDbEntity
  8
0
  6
Continuous
 62
     0
370
     0
100
AcDbLine
 10
477.589123
 20
422.102066
 30
0.0
 11
477.589123
 21
485.102066
 31
0.0
  0
LINE
  5
181
330
150
100
AcDbEntity
  8
0
  6
Continuous
 62
     0
370
    30
100
AcDbLine
 10
458.089171
 20
422.102066
 30
0.0
 11
458.089171
 21
485.102066
 31
0.0
  0
LINE
  5
182
330
150
100
AcDbEntity
  8
0
  6
Continuous
 62
     0
370
    30
100
AcDbLine
 10
477.589123
 20
422.102066
 30
0.0
 11
458.089171
 21
422.102066
 31
0.0
  0
LINE
  5
183
330
150
100
AcDbEntity
  8
0
  6
Continuous
 62
     0
370
    30
100
AcDbLine
 10
477.589123
 20
485.102066
 30
0.0
 11
458.089171
 21
485.102066
 31
0.0
  0
ARC
  5
184
330
150
100
AcDbEntity
  8
0
  6
Continuous
 62
     0
370
    30
100
AcDbCircle
 10
477.589123
 20
422.602066
 30
0.0
 40
0.5000000000000001
100
AcDbArc
 50
270.0
 51
0.0
  0
ARC
  5
185
330
150
100
AcDbEntity
  8
0
  6
Continuous
 62
     0
370
    30
100
AcDbCircle
 10
477.589123
 20
484.602066
 30
0.0
 40
0.5000000000000001
100
AcDbArc
 50
360.0
 51
90.0
  0
LINE
  5
186
330
150
100
AcDbEntity
  8
0
  6
Continuous
 62
     0
370
     0
100
AcDbLine
 10
528.905176
 20
384.164276
 30
0.0
 11
528.907959
 21
378.734108
 31
0.0
  0
LINE
  5
187
330
150
100
AcDbEntity
  8
0
  6
Continuous
 62
     0
370
     0
100
AcDbLine
 10
528.139002
 20
384.163884
 30
0.0
 11
528.142078
 21
378.163884
 31
0.0
  0
LINE
  5
188
330
150
100
AcDbEntity
  8
0
  6
Continuous
 62
     0
370
     0
100
AcDbLine
 10
524.310314
 20
384.161921
 30
0.0
 11
524.31339
 21
378.161921
 31
0.0
  0
LINE
  5
189
330
150
100
AcDbEntity
  8
0
  6
Continuous
 62
     0
370
     0
100
AcDbLine
 10
523.544141
 20
384.161528
 30
0.0
 11
523.546925
 21
378.731359
 31
0.0
  0
ARC
  5
18A
330
150
100
AcDbEntity
  8
0
  6
Continuous
 62
     0
370
    30
100
AcDbCircle
 10
528.141668
 20
378.963884
 30
0.0
 40
0.800000011920926
100
AcDbArc
 50
270.029376
 51
343.308356
  0
LINE
  5
18B
330
150
100
AcDbEntity
  8
0
  6
Continuous
 62
     0
370
    30
100
AcDbLine
 10
528.142078
 20
378.163884
 30
0.0
 11
524.31339
 21
378.161921
 31
0.0
  0
ARC
  5
18C
330
150
100
AcDbEntity
  8
0
  6
Continuous
 62
     0
370
    30
100
AcDbCircle
 10
524.31298
 20
378.961921
 30
0.0
 40
0.800000011920929
100
AcDbArc
 50
196.750397
 51
270.029376
  0
LINE
  5
18D
330
150
100
AcDbEntity
  8
0
  6
Continuous
 62
     0
370
    30
100
AcDbLine
 10
529.724657
 20
384.164697
 30
0.0
 11
529.703514
 21
425.402066
 31
0.0
  0
LINE
  5
18E
330
150
100
AcDbEntity
  8
0
  6
Continuous
 62
     0
370
    30
100
AcDbLine
 10
522.724658
 20
384.161108
 30
0.0
 11
522.703513
 21
425.402066
 31
0.0
  0
LINE
  5
18F
330
150
100
AcDbEntity
  8
0
  6
Continuous
 62
     0
370
     0
100
AcDbLine
 10
528.905176
 20
384.164276
 30
0.0
 11
528.884032
 21
425.402066
 31
0.0
  0
LINE
  5
190
330
150
100
AcDbEntity
  8
0
  6
Continuous
 62
     0
370
     0
100
AcDbLine
 10
528.139002
 20
384.163884
 30
0.0
 11
528.117859
 21
425.402066
 31
0.0
  0
LINE
  5
191
330
150
100
AcDbEntity
  8
0
  6
Continuous
 62
     0
370
     0
100
AcDbLine
 10
524.310314
 20
384.161921
 30
0.0
 11
524.28917
 21
425.402066
 31
0.0
  0
LINE
  5
192
330
150
100
AcDbEntity
  8
0
  6
Continuous
 62
     0
370
     0
100
AcDbLine
 10
523.544141
 20
384.161528
 30
0.0
 11
523.522996
 21
425.402066
 31
0.0
  0
ARC
  5
193
330
150
100
AcDbEntity
  8
0
  6
Continuous
 62
     0
370
    30
100
AcDbCircle
 10
510.670869
 20
384.253461
 30
0.0
 40
19.05399563464303
100
AcDbArc
 50
343.161854
 51
359.733082
  0
ARC
  5
194
330
150
100
AcDbEntity
  8
0
  6
Continuous
 62
     0
370
    30
100
AcDbCircle
 10
541.778346
 20
384.269411
 30
0.0
 40
19.05399563466278
100
AcDbArc
 50
180.325671
 51
196.896899
  0
LINE
  5
195
330
150
100
AcDbEntity
  8
0
  6
Continuous
 62
     0
370
    30
100
AcDbLine
 10
515.689057
 20
427.902066
 30
0.0
 11
536.689057
 21
427.902066
 31
0.0
  0
LINE
  5
196
330
150
100
AcDbEntity
  8
0
  6
Continuous
 62
     0
370
    30
100
AcDbLine
 10
517.189057
 20
426.402066
 30
0.0
 11
535.189057
 21
426.402066
 31
0.0
  0
LINE
  5
197
330
150
100
AcDbEntity
  8
0
  6
Continuous
 62
     0
370
     0
100
AcDbLine
 10
517.189057
 20
425.902066
 30
0.0
 11
535.189057
 21
425.902066
 31
0.0
  0
LINE
  5
198
330
150
100
AcDbEntity
  8
0
  6
Continuous
 62
     0
370
    30
100
AcDbLine
 10
517.689057
 20
425.402066
 30
0.0
 11
534.689057
 21
425.402066
 31
0.0
  0
ARC
  5
199
330
150
100
AcDbEntity
  8
0
  6
Continuous
 62
     0
370
    30
100
AcDbCircle
 10
517.689057
 20
425.902066
 30
0.0
 40
0.5
100
AcDbArc
 50
180.0
 51
270.0
  0
ARC
  5
19A
330
150
100
AcDbEntity
  8
0
  6
Continuous
 62
     0
370
    30
100
AcDbCircle
 10
534.689057
 20
425.902066
 30
0.0
 40
0.5
100
AcDbArc
 50
270.0
 51
0.0
  0
LINE
  5
19B
330
150
100
AcDbEntity
  8
0
  6
Continuous
 62
     0
370
    30
100
AcDbLine
 10
517.189057
 20
426.402066
 30
0.0
 11
517.189057
 21
425.902066
 31
0.0
  0
LINE
  5
19C
330
150
100
AcDbEntity
  8
0
  6
Continuous
 62
     0
370
    30
100
AcDbLine
 10
535.189057
 20
426.402066
 30
0.0
 11
535.189057
 21
425.902066
 31
0.0
  0
LINE
  5
19D
330
150
100
AcDbEntity
  8
0
  6
Continuous
 62
     0
370
    30
100
AcDbLine
 10
515.689057
 20
427.902066
 30
0.0
 11
517.189057
 21
426.402066
 31
0.0
  0
LINE
  5
19E
330
150
100
AcDbEntity
  8
0
  6
Continuous
 62
     0
370
    30
100
AcDbLine
 10
536.689057
 20
427.902066
 30
0.0
 11
535.189057
 21
426.402066
 31
0.0
  0
LINE
  5
19F
330
150
100
AcDbEntity
  8
0
  6
Continuous
 62
     0
370
    30
100
AcDbLine
 10
515.689057
 20
434.042162
 30
0.0
 11
515.689057
 21
427.902066
 31
0.0
  0
LINE
  5
1A0
330
150
100
AcDbEntity
  8
0
  6
Continuous
 62
     0
370
    30
100
AcDbLine
 10
536.689057
 20
434.042154
 30
0.0
 11
536.689057
 21
427.902066
 31
0.0
  0
ENDBLK
  5
1A2
330
150
100
AcDbEntity
  8
0
100
AcDbBlockEnd
  0
BLOCK
  5
244
330
1A4
100
AcDbEntity
  8
0
100
AcDbBlockBegin
  2
d
 70
     0
 10
-232.497734
 20
572.678757
 30
0.0
  3
d
  1

  0
ELLIPSE
  5
1A5
330
1A4
100
AcDbEntity
  8
0
  6
Continuous
 62
     0
370
    30
100
AcDbEllipse
 10
276.331095
 20
700.162959
 30
0.0
 11
8.250000000000002
 21
14.28941916244324
 31
0.0
210
0.0
220
0.0
230
1.0
 40
0.57735
 41
-0.0000000228501555
 42
2.411037734013381
  0
ELLIPSE
  5
1A6
330
1A4
100
AcDbEntity
  8
0
  6
Continuous
 62
     0
370
    30
100
AcDbEllipse
 10
170.265078
 20
638.925716
 30
0.0
 11
-8.250000000000002
 21
-14.28941916244324
 31
0.0
210
0.0
220
0.0
230
-1.0
 40
0.57735
 41
0.7305549195764103
 42
3.14159267643995
  0
SPLINE
  5
1A7
330
1A4
100
AcDbEntity
  8
0
  6
Continuous
 62
     0
370
     0
100
AcDbSpline
210
0.0
220
0.0
230
1.0
 70
     8
 71
     3
 72
    16
 73
    12
 74
     0
 42
0.000000001
 43
0.0
 40
84.83036985986546
 40
84.83036985986546
 40
84.83036985986546
 40
84.83036985986546
 40
85.96786556527668
 40
88.2912050972777
 40
90.40089314805026
 40
91.96479861384668
 40
94.35132277640317
 40
96.81756738457862
 40
98.44464659201927
 40
100.9233552416493
 40
102.0584203319065
 40
102.0584203319065
 40
102.0584203319065
 40
102.0584203319065
 10
281.8645291359289
 20
702.6191947788102
 30
0.0
 10
282.2052431626789
 20
702.8159061212534
 30
0.0
 10
283.2471619839342
 20
703.4084351091329
 30
0.0
 10
284.9381402011689
 20
704.3368294295923
 30
0.0
 10
286.7281660938705
 20
705.3084054526141
 30
0.0
 10
288.4574922753573
 20
706.2628868442362
 30
0.0
 10
290.1443062822743
 20
707.2297665741971
 30
0.0
 10
291.5899939278801
 20
708.1118690127487
 30
0.0
 10
292.826719991124
 20
708.8924147618629
 30
0.0
 10
293.6466867575867
 20
709.4122428794152
 30
0.0
 10
294.1316253026641
 20
709.7015863070582
 30
0.0
 10
294.276844153326
 20
709.7854241053269
 30
0.0
  0
SPLINE
  5
1A8
330
1A4
100
AcDbEntity
  8
0
  6
Continuous
 62
     0
370
     0
100
AcDbSpline
210
0.0
220
0.0
230
1.0
 70
     8
 71
     3
 72
    23
 73
    19
 74
     0
 42
0.000000001
 43
0.0
 40
63.03296439108875
 40
63.03296439108875
 40
63.03296439108875
 40
63.03296439108875
 40
64.64725258253023
 40
68.4531110244975
 40
71.58511199331222
 40
73.59465310609902
 40
75.55641351633128
 40
77.46024567993186
 40
79.55366104814345
 40
81.61217737234136
 40
82.86370549848017
 40
85.01405256987921
 40
87.23623072912433
 40
88.70228963753542
 40
90.93569836190956
 40
92.89522589103653
 40
94.98416565064632
 40
98.36660899390472
 40
98.36660899390472
 40
98.36660899390472
 40
98.36660899390472
 10
270.7946977756648
 20
696.2280304830052
 30
0.0
 10
271.0645662005437
 20
696.6109364075295
 30
0.0
 10
272.0572812838396
 20
697.8657501430265
 30
0.0
 10
274.0224275017994
 20
699.6656552198765
 30
0.0
 10
276.4379288965059
 20
701.3142109008049
 30
0.0
 10
278.494736374859
 20
702.5065656448962
 30
0.0
 10
280.25541433359
 20
703.4304677741134
 30
0.0
 10
282.0679003145488
 20
704.3197587055893
 30
0.0
 10
283.8967141614787
 20
705.1884090751539
 30
0.0
 10
285.4574575536972
 20
705.9447407056423
 30
0.0
 10
286.9150656959573
 20
706.6961806273757
 30
0.0
 10
288.2458478018871
 20
707.4508495726377
 30
0.0
 10
289.3337022243335
 20
708.1776551746686
 30
0.0
 10
290.1932111122195
 20
708.8333689620795
 30
0.0
 10
290.8106048902803
 20
709.3655966821352
 30
0.0
 10
291.3018566574996
 20
709.814420841391
 30
0.0
 10
291.716209138989
 20
710.165198862258
 30
0.0
 10
291.9013125924156
 20
710.2260879717686
 30
0.0
 10
291.9881047720866
 20
710.1759872262277
 30
0.0
  0
SPLINE
  5
1A9
330
1A4
100
AcDbEntity
  8
0
  6
Continuous
 62
     0
370
     0
100
AcDbSpline
210
0.0
220
0.0
230
1.0
 70
     8
 71
     3
 72
    18
 73
    14
 74
     0
 42
0.000000001
 43
0.0
 40
22.53404268721051
 40
22.53404268721051
 40
22.53404268721051
 40
22.53404268721051
 40
23.56296842245902
 40
25.42054666279431
 40
27.85852028629704
 40
29.9095732894921
 40
31.17805288852612
 40
32.446744647093
 40
33.98906328914635
 40
35.32464025438785
 40
36.68127136908077
 40
39.03326891583083
 40
39.81478085100924
 40
39.81478085100924
 40
39.81478085100924
 40
39.81478085100924
 10
188.210784203783
 20
648.5481542430484
 30
0.0
 10
188.0791394012438
 20
648.4721552132792
 30
0.0
 10
187.6934923384627
 20
648.2427284812125
 30
0.0
 10
186.8886687756967
 20
647.7380787450336
 30
0.0
 10
185.7298574640987
 20
647.0013760693464
 30
0.0
 10
184.4578300167203
 20
646.2242554087381
 30
0.0
 10
183.3178047077873
 20
645.5564145497785
 30
0.0
 10
182.2287108701003
 20
644.9370699893396
 30
0.0
 10
181.0532138806735
 20
644.2863036419973
 30
0.0
 10
179.8057411536243
 20
643.6060888836646
 30
0.0
 10
178.2895025496321
 20
642.7809978607197
 30
0.0
 10
176.926583434553
 20
642.0285173802217
 30
0.0
 10
175.9850853359075
 20
641.4898406677553
 30
0.0
 10
175.7511163402993
 20
641.3545640615632
 30
0.0
  0
SPLINE
  5
1AA
330
1A4
100
AcDbEntity
  8
0
  6
Continuous
 62
     0
370
     0
100
AcDbSpline
210
0.0
220
0.0
230
1.0
 70
     8
 71
     3
 72
    23
 73
    19
 74
     0
 42
0.000000001
 43
0.0
 40
13.89198158939992
 40
13.89198158939992
 40
13.89198158939992
 40
13.89198158939992
 40
15.03596037939144
 40
17.05554691638628
 40
18.96953439448456
 40
21.23111131060935
 40
22.90485842437
 40
25.10156337448063
 40
26.94963844864182
 40
29.23572424825489
 40
31.82881527495899
 40
33.05119038861522
 40
35.17042769446055
 40
37.12089603087594
 40
39.19454135043749
 40
42.72695712898752
 40
47.13673721510847
 40
49.22957531400281
 40
49.22957531400281
 40
49.22957531400281
 40
49.22957531400281
 10
185.9223983118034
 20
648.9385804491794
 30
0.0
 10
185.8929767409822
 20
648.955567538982
 30
0.0
 10
185.8026918404173
 20
648.9747646755086
 30
0.0
 10
185.6115753828436
 20
648.8884565658642
 30
0.0
 10
185.2828444655332
 20
648.6206667907838
 30
0.0
 10
184.8451528242774
 20
648.2186784417703
 30
0.0
 10
184.2113114888607
 20
647.6666423739833
 30
0.0
 10
183.4189478901271
 20
647.0454652261526
 30
0.0
 10
182.2557515462436
 20
646.2632888279027
 30
0.0
 10
180.6964263476787
 20
645.3645683400345
 30
0.0
 10
179.0084809877052
 20
644.5189929415313
 30
0.0
 10
177.2630605005058
 20
643.6814964189414
 30
0.0
 10
175.659061988365
 20
642.9179005105847
 30
0.0
 10
173.7929782158054
 20
641.9924287826927
 30
0.0
 10
171.5424459459218
 20
640.7869006215699
 30
0.0
 10
168.7220293395626
 20
639.0306811626381
 30
0.0
 10
166.3003851294251
 20
636.9812834526226
 30
0.0
 10
165.078447584401
 20
635.4871133381471
 30
0.0
 10
164.7285768999249
 20
634.9907270434929
 30
0.0
  0
ELLIPSE
  5
1AB
330
1A4
100
AcDbEntity
  8
0
  6
Continuous
 62
     0
370
    30
100
AcDbEllipse
 10
166.588123
 20
610.429985
 30
0.0
 11
9.599999999999996
 21
-16.62768775266122
 31
0.0
210
0.0
220
0.0
230
1.0
 40
0.57735
 41
0.0
 42
6.283185307179586
  0
ELLIPSE
  5
1AC
330
1A4
100
AcDbEntity
  8
0
  6
Continuous
 62
     0
370
    30
100
AcDbEllipse
 10
166.588123
 20
610.429985
 30
0.0
 11
10.92367301929154
 21
-18.92035667468227
 31
0.0
210
0.0
220
0.0
230
1.0
 40
0.57735
 41
0.0
 42
6.283185307179586
  0
ELLIPSE
  5
1AD
330
1A4
100
AcDbEntity
  8
0
  6
Continuous
 62
     0
370
    30
100
AcDbEllipse
 10
168.002337
 20
611.246482
 30
0.0
 11
11.1
 21
-19.22576396401454
 31
0.0
210
0.0
220
0.0
230
1.0
 40
0.57735
 41
6.158178012899898
 42
7.068583470577035
  0
ELLIPSE
  5
1AE
330
1A4
100
AcDbEntity
  8
0
  6
Continuous
 62
     0
370
    30
100
AcDbEllipse
 10
168.002337
 20
611.246482
 30
0.0
 11
11.1
 21
-19.22576396401454
 31
0.0
210
0.0
220
0.0
230
1.0
 40
0.57735
 41
2.356194490192345
 42
3.266600010849153
  0
ELLIPSE
  5
1AF
330
1A4
100
AcDbEntity
  8
0
  6
Continuous
 62
     0
370
    30
100
AcDbEllipse
 10
168.002337
 20
611.246482
 30
0.0
 11
11.1
 21
-19.22576396401454
 31
0.0
210
0.0
220
0.0
230
1.0
 40
0.57735
 41
0.7853981633974483
 42
2.356194490192345
  0
ELLIPSE
  5
1B0
330
1A4
100
AcDbEntity
  8
0
  6
Continuous
 62
     0
370
    30
100
AcDbEllipse
 10
325.687149
 20
702.28585
 30
0.0
 11
-10.92367301929154
 21
18.92035667468225
 31
0.0
210
0.0
220
0.0
230
-1.0
 40
0.57735
 41
0.1250072942796832
 42
0.785398163397448
  0
ELLIPSE
  5
1B1
330
1A4
100
AcDbEntity
  8
0
  6
Continuous
 62
     0
370
    30
100
AcDbEllipse
 10
325.687149
 20
702.28585
 30
0.0
 11
-10.92367301929154
 21
18.92035667468225
 31
0.0
210
0.0
220
0.0
230
-1.0
 40
0.57735
 41
0.7853981633974481
 42
3.016585296330427
  0
ELLIPSE
  5
1B2
330
1A4
100
AcDbEntity
  8
0
  6
Continuous
 62
     0
370
    30
100
AcDbEllipse
 10
324.272935
 20
701.469354
 30
0.0
 11
-11.1
 21
19.22576396401453
 31
0.0
210
0.0
220
0.0
230
-1.0
 40
0.57735
 41
0.7853981633974481
 42
2.356194490192345
  0
ELLIPSE
  5
1B3
330
1A4
100
AcDbEntity
  8
0
  6
Continuous
 62
     0
370
    30
100
AcDbEllipse
 10
324.272935
 20
701.469354
 30
0.0
 11
-11.1
 21
19.22576396401453
 31
0.0
210
0.0
220
0.0
230
-1.0
 40
0.57735
 41
-0.0000000314898418
 42
0.7853981633974477
  0
ELLIPSE
  5
1B4
330
1A4
100
AcDbEntity
  8
0
  6
Continuous
 62
     0
370
    30
100
AcDbEllipse
 10
324.272935
 20
701.469354
 30
0.0
 11
-11.1
 21
19.22576396401453
 31
0.0
210
0.0
220
0.0
230
-1.0
 40
0.57735
 41
2.356194490192345
 42
3.14159262209995
  0
LINE
  5
1B5
330
1A4
100
AcDbEntity
  8
0
  6
Continuous
 62
     0
370
    30
100
AcDbLine
 10
336.67029
 20
683.192649
 30
0.0
 11
337.887567
 21
684.299477
 31
0.0
  0
LINE
  5
1B6
330
1A4
100
AcDbEntity
  8
0
  6
Continuous
 62
     0
370
    30
100
AcDbLine
 10
314.643521
 20
721.34413
 30
0.0
 11
316.210701
 21
721.844909
 31
0.0
  0
LINE
  5
1B7
330
1A4
100
AcDbEntity
  8
0
  6
Continuous
 62
     0
370
    30
100
AcDbLine
 10
177.631751
 20
591.371706
 30
0.0
 11
176.064571
 21
590.870926
 31
0.0
  0
LINE
  5
1B8
330
1A4
100
AcDbEntity
  8
0
  6
Continuous
 62
     0
370
    30
100
AcDbLine
 10
155.604982
 20
629.523186
 30
0.0
 11
154.387704
 21
628.416359
 31
0.0
  0
LINE
  5
1B9
330
1A4
100
AcDbEntity
  8
0
  6
Continuous
 62
     0
370
    30
100
AcDbLine
 10
313.172935
 20
720.695118
 30
0.0
 11
294.276831
 21
709.785447
 31
0.0
  0
LINE
  5
1BA
330
1A4
100
AcDbEntity
  8
0
  6
Continuous
 62
     0
370
    30
100
AcDbLine
 10
281.864574
 20
702.619227
 30
0.0
 11
188.210792
 21
648.54819
 31
0.0
  0
LINE
  5
1BB
330
1A4
100
AcDbEntity
  8
0
  6
Continuous
 62
     0
370
    30
100
AcDbLine
 10
175.798531
 20
641.381969
 30
0.0
 11
156.902336
 21
630.472245
 31
0.0
  0
LINE
  5
1BC
330
1A4
100
AcDbEntity
  8
0
  6
Continuous
 62
     0
370
    30
100
AcDbLine
 10
335.372936
 20
682.24359
 30
0.0
 11
179.102337
 21
592.020718
 31
0.0
  0
SPLINE
  5
1BD
330
1A4
100
AcDbEntity
  8
0
  6
Continuous
 62
     0
370
    30
100
AcDbSpline
210
0.0
220
0.0
230
1.0
 70
     8
 71
     3
 72
    13
 73
     9
 74
     0
 42
0.000000001
 43
0.0
 40
2.70011304389416
 40
2.70011304389416
 40
2.70011304389416
 40
2.70011304389416
 40
3.241293931342372
 40
3.982928021105001
 40
4.868020400825629
 40
5.889262803245647
 40
7.081009764504906
 40
8.260559380879048
 40
8.260559380879048
 40
8.260559380879048
 40
8.260559380879048
 10
188.3745905882192
 20
648.6427598115852
 30
0.0
 10
188.3545238432081
 20
648.6352472029118
 30
0.0
 10
188.2896532448685
 20
648.6123457362937
 30
0.0
 10
188.1051341057303
 20
648.5610598705741
 30
0.0
 10
187.7650352473942
 20
648.5049960911341
 30
0.0
 10
187.2373024230876
 20
648.498502539255
 30
0.0
 10
186.5757300939634
 20
648.6232707925167
 30
0.0
 10
186.1262316949961
 20
648.8208935411077
 30
0.0
 10
185.9223983073466
 20
648.9385804517527
 30
0.0
  0
SPLINE
  5
1BE
330
1A4
100
AcDbEntity
  8
0
  6
Continuous
 62
     0
370
    30
100
AcDbSpline
210
0.0
220
0.0
230
1.0
 70
     8
 71
     3
 72
    13
 73
     9
 74
     0
 42
0.000000001
 43
0.0
 40
2.699420588642199
 40
2.699420588642199
 40
2.699420588642199
 40
2.699420588642199
 40
3.24104197340253
 40
3.98294398906214
 40
4.868435312376195
 40
5.889129866660578
 40
7.078391268774164
 40
8.257519319568226
 40
8.257519319568226
 40
8.257519319568226
 40
8.257519319568226
 10
294.4406398998237
 20
709.8800219335355
 30
0.0
 10
294.4205403227068
 20
709.8724967883819
 30
0.0
 10
294.3555895177977
 20
709.8495622258253
 30
0.0
 10
294.1712870914437
 20
709.7983439919917
 30
0.0
 10
293.8317283460121
 20
709.7423632612921
 30
0.0
 10
293.3043710184033
 20
709.7357281920733
 30
0.0
 10
292.6408732789135
 20
709.8608139246944
 30
0.0
 10
292.1915040885274
 20
710.0585751411962
 30
0.0
 10
291.9881047684413
 20
710.1759872283319
 30
0.0
  0
LINE
  5
1BF
330
1A4
100
AcDbEntity
  8
0
  6
Continuous
 62
     0
370
    30
100
AcDbLine
 10
284.581096
 20
714.452378
 30
0.0
 11
291.984882
 21
710.1778
 31
0.0
  0
LINE
  5
1C0
330
1A4
100
AcDbEntity
  8
0
  6
Continuous
 62
     0
370
    30
100
AcDbLine
 10
178.515078
 20
653.215135
 30
0.0
 11
185.918649
 21
648.940681
 31
0.0
  0
ELLIPSE
  5
1C1
330
1A4
100
AcDbEntity
  8
0
  6
Continuous
 62
     0
370
    30
100
AcDbEllipse
 10
166.588123
 20
610.429985
 30
0.0
 11
9.474999999999968
 21
-16.41118140171506
 31
0.0
210
0.0
220
0.0
230
1.0
 40
0.57735
 41
0.0
 42
6.283185307179586
  0
LINE
  5
1C2
330
1A4
100
AcDbEntity
  8
0
  6
Continuous
 62
     0
370
    30
100
AcDbLine
 10
177.607265
 20
594.910315
 30
0.0
 11
176.063124
 21
594.018804
 31
0.0
  0
LINE
  5
1C3
330
1A4
100
AcDbEntity
  8
0
  6
Continuous
 62
     0
370
    30
100
AcDbLine
 10
158.657265
 20
627.732677
 30
0.0
 11
157.113123
 21
626.841166
 31
0.0
  0
ELLIPSE
  5
1C4
330
1A4
100
AcDbEntity
  8
0
  6
Continuous
 62
     0
370
     0
100
AcDbEllipse
 10
275.55332
 20
700.612008
 30
0.0
 11
-7.999999999997819
 21
-13.85640646055226
 31
0.0
210
0.0
220
0.0
230
-1.0
 40
0.57735
 41
0.6597931129885182
 42
0.7908289847595252
  0
ELLIPSE
  5
1C5
330
1A4
100
AcDbEntity
  8
0
  6
Continuous
 62
     0
370
     0
100
AcDbEllipse
 10
275.55332
 20
700.612008
 30
0.0
 11
-7.999999999997819
 21
-13.85640646055226
 31
0.0
210
0.0
220
0.0
230
-1.0
 40
0.57735
 41
1.580411224159091
 42
2.860047009974351
  0
ELLIPSE
  5
1C6
330
1A4
100
AcDbEntity
  8
0
  6
Continuous
 62
     0
370
     0
100
AcDbEllipse
 10
269.116117
 20
704.472858
 30
0.0
 11
-1.499999999999592
 21
-2.598076211353551
 31
0.0
210
0.0
220
0.0
230
-1.0
 40
0.57735
 41
1.185620104459307
 42
1.580411224159093
  0
LINE
  5
1C7
330
1A4
100
AcDbEntity
  8
0
  6
Continuous
 62
     0
370
     0
100
AcDbLine
 10
266.006086
 20
700.475479
 30
0.0
 11
267.162435
 21
704.299276
 31
0.0
  0
LINE
  5
1C8
330
1A4
100
AcDbEntity
  8
0
  6
Continuous
 62
     0
370
     0
100
AcDbLine
 10
264.407386
 20
695.188922
 30
0.0
 11
265.241694
 21
697.947799
 31
0.0
  0
ELLIPSE
  5
1C9
330
1A4
100
AcDbEntity
  8
0
  6
Continuous
 62
     0
370
     0
100
AcDbEllipse
 10
266.361068
 20
695.362504
 30
0.0
 11
1.499999999999592
 21
2.598076211353551
 31
0.0
210
0.0
220
0.0
230
1.0
 40
0.57735
 41
1.955972549130485
 42
2.350763668830269
  0
ELLIPSE
  5
1CA
330
1A4
100
AcDbEntity
  8
0
  6
Continuous
 62
     0
370
     0
100
AcDbEllipse
 10
264.805456
 20
694.474126
 30
0.0
 11
0.7999912116049237
 21
-0.003752389688280334
 31
0.0
210
0.0
220
0.0
230
-1.0
 40
0.574206
 41
1.731964875833859
 42
2.353493786450379
  0
ELLIPSE
  5
1CB
330
1A4
100
AcDbEntity
  8
0
  6
Continuous
 62
     0
370
     0
100
AcDbEllipse
 10
268.026744
 20
705.126232
 30
0.0
 11
-0.6905891584883622
 21
0.4038398609001162
 31
0.0
210
0.0
220
0.0
230
-1.0
 40
0.00785
 41
0.9552948278309792
 42
1.756240124890443
  0
ELLIPSE
  5
1CC
330
1A4
100
AcDbEntity
  8
0
  6
Continuous
 62
     0
370
     0
100
AcDbEllipse
 10
264.928368
 20
695.23521
 30
0.0
 11
-0.7657515517595792
 21
0.2315698167967557
 31
0.0
210
0.0
220
0.0
230
1.0
 40
0.306776
 41
0.9190201233154225
 42
1.419677219877706
  0
ELLIPSE
  5
1CD
330
1A4
100
AcDbEntity
  8
0
  6
Continuous
 62
     0
370
     0
100
AcDbEllipse
 10
267.683416
 20
704.345564
 30
0.0
 11
0.7657515517595792
 21
-0.2315698167967557
 31
0.0
210
0.0
220
0.0
230
-1.0
 40
0.306776
 41
1.553347775317859
 42
2.222572530274368
  0
ELLIPSE
  5
1CE
330
1A4
100
AcDbEntity
  8
0
  6
Continuous
 62
     0
370
     0
100
AcDbEllipse
 10
265.512404
 20
706.409134
 30
0.0
 11
-7.999999999997819
 21
-13.85640646055226
 31
0.0
210
0.0
220
0.0
230
-1.0
 40
0.57735
 41
1.580411224159091
 42
3.141592676439948
  0
ELLIPSE
  5
1CF
330
1A4
100
AcDbEntity
  8
0
  6
Continuous
 62
     0
370
     0
100
AcDbEllipse
 10
259.0752
 20
710.269983
 30
0.0
 11
-1.499999999999592
 21
-2.598076211353551
 31
0.0
210
0.0
220
0.0
230
-1.0
 40
0.57735
 41
1.185620104459306
 42
1.580411224159091
  0
LINE
  5
1D0
330
1A4
100
AcDbEntity
  8
0
  6
Continuous
 62
     0
370
     0
100
AcDbLine
 10
254.366469
 20
700.986048
 30
0.0
 11
257.121518
 21
710.096401
 31
0.0
  0
ELLIPSE
  5
1D1
330
1A4
100
AcDbEntity
  8
0
  6
Continuous
 62
     0
370
     0
100
AcDbEllipse
 10
256.320151
 20
701.159629
 30
0.0
 11
1.499999999999592
 21
2.598076211353551
 31
0.0
210
0.0
220
0.0
230
1.0
 40
0.57735
 41
1.955972549130487
 42
2.350763668830271
  0
ELLIPSE
  5
1D2
330
1A4
100
AcDbEntity
  8
0
  6
Continuous
 62
     0
370
     0
100
AcDbEllipse
 10
265.512404
 20
706.409134
 30
0.0
 11
-7.999999999997819
 21
-13.85640646055226
 31
0.0
210
0.0
220
0.0
230
-1.0
 40
0.57735
 41
0.0000000228501557
 42
0.7908289847595251
  0
LINE
  5
1D3
330
1A4
100
AcDbEntity
  8
0
  6
Continuous
 62
     0
370
     0
100
AcDbLine
 10
257.589692
 20
711.160949
 30
0.0
 11
267.630608
 21
705.363823
 31
0.0
  0
ELLIPSE
  5
1D4
330
1A4
100
AcDbEntity
  8
0
  6
Continuous
 62
     0
370
     0
100
AcDbEllipse
 10
257.837277
 20
711.012454
 30
0.0
 11
-0.4316182176236126
 21
0.2523999093015208
 31
0.0
210
0.0
220
0.0
230
-1.0
 40
0.00785
 41
6.283160256395908
 42
7.238480135009947
  0
LINE
  5
1D5
330
1A4
100
AcDbEntity
  8
0
  6
Continuous
 62
     0
370
     0
100
AcDbLine
 10
257.121518
 20
710.096401
 30
0.0
 11
267.162435
 21
704.299276
 31
0.0
  0
LINE
  5
1D6
330
1A4
100
AcDbEntity
  8
0
  6
Continuous
 62
     0
370
     0
100
AcDbLine
 10
254.366469
 20
700.986048
 30
0.0
 11
264.407386
 21
695.188922
 31
0.0
  0
ELLIPSE
  5
1D7
330
1A4
100
AcDbEntity
  8
0
  6
Continuous
 62
     0
370
     0
100
AcDbEllipse
 10
254.692083
 20
701.014978
 30
0.0
 11
-0.47859471271812
 21
0.1447311333413104
 31
0.0
210
0.0
220
0.0
230
1.0
 40
0.306776
 41
-0.0000000177814048
 42
0.9190201233154314
  0
ELLIPSE
  5
1D8
330
1A4
100
AcDbEntity
  8
0
  6
Continuous
 62
     0
370
     0
100
AcDbEllipse
 10
257.447132
 20
710.125332
 30
0.0
 11
0.47859471271812
 21
-0.1447311333413104
 31
0.0
210
0.0
220
0.0
230
-1.0
 40
0.306776
 41
2.222572530274344
 42
3.141597779557072
  0
LINE
  5
1D9
330
1A4
100
AcDbEntity
  8
0
  6
Continuous
 62
     0
370
     0
100
AcDbLine
 10
254.198862
 20
699.948205
 30
0.0
 11
264.239779
 21
694.15108
 31
0.0
  0
ELLIPSE
  5
1DA
330
1A4
100
AcDbEntity
  8
0
  6
Continuous
 62
     0
370
     0
100
AcDbEllipse
 10
254.55241
 20
700.150109
 30
0.0
 11
0.4999944998025787
 21
-0.002345243520228829
 31
0.0
210
0.0
220
0.0
230
-1.0
 40
0.574206
 41
2.353493786450361
 42
3.141592662348921
  0
SPLINE
  5
1DB
330
1A4
100
AcDbEntity
  8
0
  6
Continuous
 62
     0
370
    30
100
AcDbSpline
210
0.0
220
0.0
230
1.0
 70
     8
 71
     3
 72
    13
 73
     9
 74
     0
 42
0.000000001
 43
0.0
 40
0.0
 40
0.0
 40
0.0
 40
0.0
 40
0.9880901804733326
 40
2.507932725238144
 40
5.604316763574322
 40
9.956298365640587
 40
11.47627607956091
 40
12.60880008608492
 40
12.60880008608492
 40
12.60880008608492
 40
12.60880008608492
 10
257.5124037882173
 20
692.5527276536257
 30
0.0
 10
257.33762935835
 20
692.6536337264374
 30
0.0
 10
256.9075931402746
 20
692.933544142039
 30
0.0
 10
256.0310243082298
 20
693.688965521648
 30
0.0
 10
254.9022404465494
 20
695.2550861899851
 30
0.0
 10
254.2606164469337
 20
697.3037073280434
 30
0.0
 10
254.0701007129412
 20
699.1202009598153
 30
0.0
 10
254.050950888071
 20
699.840101789306
 30
0.0
 10
254.0524159908634
 20
700.1524545602534
 30
0.0
  0
ARC
  5
1DC
330
1A4
100
AcDbEntity
  8
0
  6
Continuous
 62
     0
370
    30
100
AcDbCircle
 10
257.618175
 20
700.098752
 30
0.0
 40
3.566163139036614
100
AcDbArc
 50
162.692097
 51
179.137155
  0
LINE
  5
1DD
330
1A4
100
AcDbEntity
  8
0
  6
Continuous
 62
     0
370
    30
100
AcDbLine
 10
254.213488
 20
701.159709
 30
0.0
 11
256.968537
 21
710.270063
 31
0.0
  0
ARC
  5
1DE
330
1A4
100
AcDbEntity
  8
0
  6
Continuous
 62
     0
370
    30
100
AcDbCircle
 10
261.417595
 20
708.908536
 30
0.0
 40
4.652727500922726
100
AcDbArc
 50
149.573147
 51
162.98454
  0
SPLINE
  5
1DF
330
1A4
100
AcDbEntity
  8
0
  6
Continuous
 62
     0
370
    30
100
AcDbSpline
210
0.0
220
0.0
230
1.0
 70
     8
 71
     3
 72
    17
 73
    13
 74
     0
 42
0.000000001
 43
0.0
 40
0.0
 40
0.0
 40
0.0
 40
0.0
 40
1.421263907229479
 40
3.411333201789807
 40
5.660139087619231
 40
8.440274738771084
 40
12.84961065669247
 40
15.86957671175503
 40
18.56820436955432
 40
21.10675163118058
 40
23.4064470414067
 40
24.78802462210741
 40
24.78802462210741
 40
24.78802462210741
 40
24.78802462210741
 10
257.4056582862853
 20
711.2648542466357
 30
0.0
 10
257.6447268108631
 20
711.6736750372388
 30
0.0
 10
258.2442226651231
 20
712.6402798296622
 30
0.0
 10
259.3302663699005
 20
714.1678293530049
 30
0.0
 10
260.796359805882
 20
715.9141912309422
 30
0.0
 10
262.9151619513865
 20
717.9744364216319
 30
0.0
 10
265.348549527224
 20
719.6689814244653
 30
0.0
 10
267.7650003662983
 20
720.6946387508148
 30
0.0
 10
269.6776421796047
 20
721.0883986412917
 30
0.0
 10
271.3309551693051
 20
721.0600400662358
 30
0.0
 10
272.5885115103587
 20
720.7340206198483
 30
0.0
 10
273.2680682141329
 20
720.4066077961161
 30
0.0
 10
273.5124041505462
 20
720.2655403655369
 30
0.0
  0
LINE
  5
1E0
330
1A4
100
AcDbEntity
  8
0
  6
Continuous
 62
     0
370
    30
100
AcDbLine
 10
282.315532
 20
715.183052
 30
0.0
 11
273.512404
 21
720.26554
 31
0.0
  0
LINE
  5
1E1
330
1A4
100
AcDbEntity
  8
0
  6
Continuous
 62
     0
370
    30
100
AcDbLine
 10
260.970646
 20
690.556111
 30
0.0
 11
257.512404
 21
692.552728
 31
0.0
  0
ELLIPSE
  5
1E2
330
1A4
100
AcDbEntity
  8
0
  6
Continuous
 62
     0
370
     0
100
AcDbEllipse
 10
172.799325
 20
651.188511
 30
0.0
 11
-1.4999999999996
 21
-2.598076211353549
 31
0.0
210
0.0
220
0.0
230
-1.0
 40
0.57735
 41
2.724784521772118
 42
3.02931978253748
  0
ELLIPSE
  5
1E3
330
1A4
100
AcDbEntity
  8
0
  6
Continuous
 62
     0
370
     0
100
AcDbEllipse
 10
169.487303
 20
639.374765
 30
0.0
 11
-7.999999999997852
 21
-13.85640646055224
 31
0.0
210
0.0
220
0.0
230
-1.0
 40
0.57735
 41
0.6597931129885353
 42
2.724784521772126
  0
ELLIPSE
  5
1E4
330
1A4
100
AcDbEntity
  8
0
  6
Continuous
 62
     0
370
     0
100
AcDbEllipse
 10
173.359821
 20
653.18776
 30
0.0
 11
0.1041901407713571
 21
-0.793186254066177
 31
0.0
210
0.0
220
0.0
230
1.0
 40
0.746593
 41
2.326348163390663
 42
2.621612284417957
  0
ELLIPSE
  5
1E5
330
1A4
100
AcDbEntity
  8
0
  6
Continuous
 62
     0
370
     0
100
AcDbEllipse
 10
159.446387
 20
645.17189
 30
0.0
 11
-7.999999999997852
 21
-13.85640646055224
 31
0.0
210
0.0
220
0.0
230
-1.0
 40
0.57735
 41
0.3727741075817974
 42
2.724784521772125
  0
ELLIPSE
  5
1E6
330
1A4
100
AcDbEntity
  8
0
  6
Continuous
 62
     0
370
     0
100
AcDbEllipse
 10
151.0255
 20
636.053538
 30
0.0
 11
-1.499999999999598
 21
-2.598076211353548
 31
0.0
210
0.0
220
0.0
230
-1.0
 40
0.57735
 41
0.0000000228501529
 42
0.3727741075817947
  0
ELLIPSE
  5
1E7
330
1A4
100
AcDbEntity
  8
0
  6
Continuous
 62
     0
370
     0
100
AcDbEllipse
 10
167.867273
 20
654.290242
 30
0.0
 11
1.499999999999599
 21
2.598076211353549
 31
0.0
210
0.0
220
0.0
230
1.0
 40
0.57735
 41
-0.0000000228501484
 42
0.0220170121179848
  0
LINE
  5
1E8
330
1A4
100
AcDbEntity
  8
0
  6
Continuous
 62
     0
370
     0
100
AcDbLine
 10
169.333887
 20
656.906755
 30
0.0
 11
164.225023
 21
659.602149
 31
0.0
  0
ELLIPSE
  5
1E9
330
1A4
100
AcDbEntity
  8
0
  6
Continuous
 62
     0
370
     0
100
AcDbEllipse
 10
162.758409
 20
656.985637
 30
0.0
 11
-1.4999999999996
 21
-2.598076211353549
 31
0.0
210
0.0
220
0.0
230
-1.0
 40
0.57735
 41
2.724784521772123
 42
3.119575641471808
  0
LINE
  5
1EA
330
1A4
100
AcDbEntity
  8
0
  6
Continuous
 62
     0
370
     0
100
AcDbLine
 10
149.082219
 20
633.949303
 30
0.0
 11
156.071021
 21
629.914316
 31
0.0
  0
LINE
  5
1EB
330
1A4
100
AcDbEntity
  8
0
  6
Continuous
 62
     0
370
     0
100
AcDbLine
 10
163.522722
 20
659.711886
 30
0.0
 11
173.563638
 21
653.91476
 31
0.0
  0
ELLIPSE
  5
1EC
330
1A4
100
AcDbEntity
  8
0
  6
Continuous
 62
     0
370
     0
100
AcDbEllipse
 10
149.406099
 20
634.300009
 30
0.0
 11
-0.4498210319799346
 21
-0.2183140838070386
 31
0.0
210
0.0
220
0.0
230
1.0
 40
0.76042
 41
6.283169386503161
 42
6.758805959973346
  0
ELLIPSE
  5
1ED
330
1A4
100
AcDbEntity
  8
0
  6
Continuous
 62
     0
370
     0
100
AcDbEllipse
 10
163.395336
 20
659.257511
 30
0.0
 11
0.06511883701175145
 21
-0.4957414014042372
 31
0.0
210
0.0
220
0.0
230
1.0
 40
0.746593
 41
2.62161228441795
 42
3.14161195932921
  0
LINE
  5
1EE
330
1A4
100
AcDbEntity
  8
0
  6
Continuous
 62
     0
370
     0
100
AcDbLine
 10
174.499962
 20
653.92412
 30
0.0
 11
169.333887
 21
656.906755
 31
0.0
  0
LINE
  5
1EF
330
1A4
100
AcDbEntity
  8
0
  6
Continuous
 62
     0
370
     0
100
AcDbLine
 10
164.225023
 20
659.602149
 30
0.0
 11
174.149838
 21
653.872054
 31
0.0
  0
ELLIPSE
  5
1F0
330
1A4
100
AcDbEntity
  8
0
  6
Continuous
 62
     0
370
     0
100
AcDbEllipse
 10
169.089451
 20
656.470669
 30
0.0
 11
0.2333149303401891
 21
0.4422263484691439
 31
0.0
210
0.0
220
0.0
230
-1.0
 40
0.816299
 41
-0.0000000335240768
 42
0.0311241875646062
  0
ELLIPSE
  5
1F1
330
1A4
100
AcDbEntity
  8
0
  6
Continuous
 62
     0
370
     0
100
AcDbEllipse
 10
163.980587
 20
659.166064
 30
0.0
 11
-0.2333149303401891
 21
-0.4422263484691439
 31
0.0
210
0.0
220
0.0
230
1.0
 40
0.816299
 41
3.110468466025151
 42
3.203685525508727
  0
SPLINE
  5
1F2
330
1A4
100
AcDbEntity
  8
0
  6
Continuous
 62
     0
370
    30
100
AcDbSpline
210
0.0
220
0.0
230
1.0
 70
     8
 71
     3
 72
     9
 73
     5
 74
     0
 42
0.000000001
 43
0.0
 40
0.0
 40
0.0
 40
0.0
 40
0.0
 40
0.6332810110105652
 40
1.199562055672391
 40
1.199562055672391
 40
1.199562055672391
 40
1.199562055672391
 10
163.3302175354015
 20
659.7532523277972
 30
0.0
 10
163.492786228973
 20
659.7746067777423
 30
0.0
 10
163.8013231766221
 20
659.7714028264986
 30
0.0
 10
164.0890812633129
 20
659.6741442579319
 30
0.0
 10
164.2139019059817
 20
659.6082899368123
 30
0.0
  0
ARC
  5
1F3
330
1A4
100
AcDbEntity
  8
0
  6
Continuous
 62
     0
370
    30
100
AcDbCircle
 10
150.252723
 20
634.688298
 30
0.0
 40
1.431340662520517
100
AcDbArc
 50
205.074751
 51
239.464577
  0
SPLINE
  5
1F4
330
1A4
100
AcDbEntity
  8
0
  6
Continuous
 62
     0
370
    30
100
AcDbSpline
210
0.0
220
0.0
230
1.0
 70
     8
 71
     3
 72
    19
 73
    15
 74
     0
 42
0.000000001
 43
0.0
 40
0.0
 40
0.0
 40
0.0
 40
0.0
 40
2.438642196433711
 40
6.501477052792594
 40
8.778729177227204
 40
12.21207465335366
 40
15.11233111858772
 40
18.7221405214719
 40
22.41752485578791
 40
25.50249242692386
 40
29.0324843881598
 40
31.88798603840576
 40
35.26243631018832
 40
37.2543749269972
 40
37.2543749269972
 40
37.2543749269972
 40
37.2543749269972
 10
148.9562779122406
 20
634.081695085009
 30
0.0
 10
148.7173233027904
 20
634.5740444884287
 30
0.0
 10
148.1948815835452
 20
636.0006334232394
 30
0.0
 10
147.9182575264031
 20
638.2667641931448
 30
0.0
 10
148.076973949176
 20
641.0416219019224
 30
0.0
 10
148.5812401552629
 20
643.6264663877868
 30
0.0
 10
149.6038615164983
 20
646.6687006266718
 30
0.0
 10
151.0785306977842
 20
649.7376576503395
 30
0.0
 10
152.9886748521793
 20
652.6408768053612
 30
0.0
 10
155.1682057960555
 20
655.1775914687721
 30
0.0
 10
157.3462153097196
 20
657.1064260969367
 30
0.0
 10
159.6718329957835
 20
658.6082326156468
 30
0.0
 10
161.6343097539461
 20
659.4293268463813
 30
0.0
 10
162.8777277324474
 20
659.693814899209
 30
0.0
 10
163.3302181191796
 20
659.7532524044798
 30
0.0
  0
LINE
  5
1F5
330
1A4
100
AcDbEntity
  8
0
  6
Continuous
 62
     0
370
    30
100
AcDbLine
 10
149.5255
 20
633.455462
 30
0.0
 11
155.897896
 21
629.776358
 31
0.0
  0
ELLIPSE
  5
1F6
330
1A4
100
AcDbEntity
  8
0
  6
Continuous
 62
     0
370
     0
100
AcDbEllipse
 10
265.158851
 20
706.613258
 30
0.0
 11
-15.49999999999997
 21
-26.84678751731753
 31
0.0
210
0.0
220
0.0
230
-1.0
 40
0.57735
 41
0.2163248211427152
 42
3.902517077706698
  0
ELLIPSE
  5
1F7
330
1A4
100
AcDbEntity
  8
0
  6
Continuous
 62
     0
370
     0
100
AcDbEllipse
 10
265.158851
 20
706.613258
 30
0.0
 11
-15.49999999999997
 21
-26.84678751731753
 31
0.0
210
0.0
220
0.0
230
-1.0
 40
0.57735
 41
3.902517077706698
 42
4.151123405261903
  0
ELLIPSE
  5
1F8
330
1A4
100
AcDbEntity
  8
0
  6
Continuous
 62
     0
370
     0
100
AcDbEllipse
 10
264.805297
 20
706.817382
 30
0.0
 11
-15.75000000000014
 21
-27.27980021921005
 31
0.0
210
0.0
220
0.0
230
-1.0
 40
0.57735
 41
0.2076111939027752
 42
3.14159348368447
  0
ELLIPSE
  5
1F9
330
1A4
100
AcDbEntity
  8
0
  6
Continuous
 62
     0
370
    30
100
AcDbEllipse
 10
251.016749
 20
714.778205
 30
0.0
 11
-15.75000000000003
 21
-27.27980021920986
 31
0.0
210
0.0
220
0.0
230
-1.0
 40
0.57735
 41
0.0000000228501562
 42
3.141592676439949
  0
LINE
  5
1FA
330
1A4
100
AcDbEntity
  8
0
  6
Continuous
 62
     0
370
    30
100
AcDbLine
 10
245.470646
 20
681.607181
 30
0.0
 11
235.266748
 21
687.498405
 31
0.0
  0
LINE
  5
1FB
330
1A4
100
AcDbEntity
  8
0
  6
Continuous
 62
     0
370
    30
100
AcDbLine
 10
280.555298
 20
734.097182
 30
0.0
 11
266.766749
 21
742.058005
 31
0.0
  0
SPLINE
  5
1FC
330
1A4
100
AcDbEntity
  8
0
  6
Continuous
 62
     0
370
    30
100
AcDbSpline
210
0.0
220
0.0
230
1.0
 70
     8
 71
     3
 72
    14
 73
    10
 74
     0
 42
0.000000001
 43
0.0
 40
0.0
 40
0.0
 40
0.0
 40
0.0
 40
1.9459021361967
 40
4.866251502503122
 40
11.23608779948363
 40
15.13020731011415
 40
18.554012563138
 40
21.75432606394572
 40
23.92572298889364
 40
23.92572298889364
 40
23.92572298889364
 40
23.92572298889364
 10
287.2189278845768
 20
720.0994203821164
 30
0.0
 10
287.2076372848796
 20
720.6254995042159
 30
0.0
 10
287.1435667910176
 20
721.9206119017568
 30
0.0
 10
286.7890468319207
 20
724.7764827827167
 30
0.0
 10
285.912395064483
 20
727.7820995110653
 30
0.0
 10
284.4948072945371
 20
730.4037801204797
 30
0.0
 10
283.1406411267856
 20
732.1138248371531
 30
0.0
 10
281.8202918629335
 20
733.2933151285567
 30
0.0
 10
280.9285155287864
 20
733.8817047901387
 30
0.0
 10
280.5552975614189
 20
734.0971823037742
 30
0.0
  0
SPLINE
  5
1FD
330
1A4
100
AcDbEntity
  8
0
  6
Continuous
 62
     0
370
    30
100
AcDbSpline
210
0.0
220
0.0
230
1.0
 70
     8
 71
     3
 72
     9
 73
     5
 74
     0
 42
0.000000001
 43
0.0
 40
66.65016506005864
 40
66.65016506005864
 40
66.65016506005864
 40
66.65016506005864
 40
71.31597253805428
 40
74.64170645440717
 40
74.64170645440717
 40
74.64170645440717
 40
74.64170645440717
 10
286.6375899763974
 20
713.2650600783567
 30
0.0
 10
286.8894158016315
 20
714.6495397317342
 30
0.0
 10
287.1840608427781
 20
716.9805167128106
 30
0.0
 10
287.2382188066425
 20
719.2005707534909
 30
0.0
 10
287.2189278845768
 20
720.0994203821165
 30
0.0
  0
ELLIPSE
  5
1FE
330
1A4
100
AcDbEntity
  8
0
  6
Continuous
 62
     0
370
     0
100
AcDbEllipse
 10
159.092833
 20
645.376015
 30
0.0
 11
-15.49999999999997
 21
-26.84678751731753
 31
0.0
210
0.0
220
0.0
230
-1.0
 40
0.57735
 41
5.86393976257675
 42
10.43430871244148
  0
ELLIPSE
  5
1FF
330
1A4
100
AcDbEntity
  8
0
  6
Continuous
 62
     0
370
     0
100
AcDbEllipse
 10
158.739279
 20
645.580139
 30
0.0
 11
-15.75000000000015
 21
-27.27980021921005
 31
0.0
210
0.0
220
0.0
230
-1.0
 40
0.57735
 41
6.283184527275392
 42
9.42477881900057
  0
ELLIPSE
  5
200
330
1A4
100
AcDbEntity
  8
0
  6
Continuous
 62
     0
370
    30
100
AcDbEllipse
 10
144.950731
 20
653.540961
 30
0.0
 11
-15.75000000000004
 21
-27.27980021920985
 31
0.0
210
0.0
220
0.0
230
-1.0
 40
0.57735
 41
0.000000022850156
 42
3.141592676439949
  0
LINE
  5
201
330
1A4
100
AcDbEntity
  8
0
  6
Continuous
 62
     0
370
    30
100
AcDbLine
 10
142.989279
 20
618.300339
 30
0.0
 11
129.20073
 21
626.261161
 31
0.0
  0
LINE
  5
202
330
1A4
100
AcDbEntity
  8
0
  6
Continuous
 62
     0
370
    30
100
AcDbLine
 10
174.48928
 20
672.859939
 30
0.0
 11
160.700731
 21
680.820761
 31
0.0
  0
SPLINE
  5
203
330
1A4
100
AcDbEntity
  8
0
  6
Continuous
 62
     0
370
    30
100
AcDbSpline
210
0.0
220
0.0
230
1.0
 70
     8
 71
     3
 72
    13
 73
     9
 74
     0
 42
0.000000001
 43
0.0
 40
29.77793392479363
 40
29.77793392479363
 40
29.77793392479363
 40
29.77793392479363
 40
36.45230926898837
 40
43.86184603126569
 40
49.73516735796518
 40
52.49290241930334
 40
58.14435594074715
 40
61.69521735177614
 40
61.69521735177614
 40
61.69521735177614
 40
61.69521735177614
 10
180.5715642588004
 20
652.0278214391267
 30
0.0
 10
180.9317545741903
 20
654.0083331213439
 30
0.0
 10
181.34676244224
 20
658.0859964054213
 30
0.0
 10
180.868915061034
 20
663.2925305155413
 30
0.0
 10
179.6867240114773
 20
666.844165568458
 30
0.0
 10
178.1925684994789
 20
669.559720257486
 30
0.0
 10
176.5928244800858
 20
671.4393444286807
 30
0.0
 10
175.0993863291157
 20
672.5076938648415
 30
0.0
 10
174.4892797896435
 20
672.859939077021
 30
0.0
  0
SPLINE
  5
204
330
1A4
100
AcDbEntity
  8
0
  6
Continuous
 62
     0
370
    30
100
AcDbSpline
210
0.0
220
0.0
230
1.0
 70
     8
 71
     3
 72
    11
 73
     7
 74
     0
 42
0.000000001
 43
0.0
 40
0.0
 40
0.0
 40
0.0
 40
0.0
 40
1.586072262892456
 40
4.561033342163314
 40
11.29791656949202
 40
13.66143250641011
 40
13.66143250641011
 40
13.66143250641011
 40
13.66143250641011
 10
142.989278998634
 20
618.3003390952911
 30
0.0
 10
143.2619203811462
 20
618.1429295057608
 30
0.0
 10
144.0658302734079
 20
617.7243890109272
 30
0.0
 10
146.1886207635351
 20
616.9357904505787
 30
0.0
 10
148.7157845326032
 20
616.6723153959315
 30
0.0
 10
150.7380020990631
 20
616.8831593545506
 30
0.0
 10
151.2696827495406
 20
616.9650807169504
 30
0.0
  0
ELLIPSE
  5
205
330
1A4
100
AcDbEntity
  8
0
  6
Continuous
 62
     0
370
    30
100
AcDbEllipse
 10
332.970349
 20
706.490808
 30
0.0
 11
-8.374999999999972
 21
14.50592551338936
 31
0.0
210
0.0
220
0.0
230
-1.0
 40
0.57735
 41
0.5116342553677521
 42
1.471076112816968
  0
ARC
  5
206
330
1A4
100
AcDbEntity
  8
0
  6
Continuous
 62
     0
370
    30
100
AcDbCircle
 10
324.751721
 20
701.684252
 30
0.0
 40
20.44723673884035
100
AcDbArc
 50
75.79805
 51
90.027565
  0
ARC
  5
207
330
1A4
100
AcDbEntity
  8
0
  6
Continuous
 62
     0
370
    30
100
AcDbCircle
 10
324.696672
 20
701.777361
 30
0.0
 40
20.44918453017306
100
AcDbArc
 50
320.868094
 51
327.386602
  0
ARC
  5
208
330
1A4
100
AcDbEntity
  8
0
  6
Continuous
 62
     0
370
    30
100
AcDbCircle
 10
324.753308
 20
701.651281
 30
0.0
 40
20.4802086785952
100
AcDbArc
 50
90.031965
 51
99.123649
  0
SPLINE
  5
209
330
1A4
100
AcDbEntity
  8
0
  6
Continuous
 62
     0
370
    30
100
AcDbSpline
210
0.0
220
0.0
230
1.0
 70
     8
 71
     3
 72
    11
 73
     7
 74
     0
 42
0.000000001
 43
0.0
 40
5.000003661187558
 40
5.000003661187558
 40
5.000003661187558
 40
5.000003661187558
 40
6.0
 40
6.0
 40
6.0
 40
6.8541179931842
 40
6.8541179931842
 40
6.8541179931842
 40
6.8541179931842
 10
335.82522548143
 20
719.7612945433376
 30
0.0
 10
335.8252254806773
 20
719.7612962389493
 30
0.0
 10
335.8251226859718
 20
719.9928620251746
 30
0.0
 10
335.8251226859718
 20
719.9928620251746
 30
0.0
 10
335.7986915319094
 20
720.0135409967464
 30
0.0
 10
335.7536276837079
 20
720.0495190406713
 30
0.0
 10
335.7092014355637
 20
720.1120591183912
 30
0.0
  0
SPLINE
  5
20A
330
1A4
100
AcDbEntity
  8
0
  6
Continuous
 62
     0
370
    30
100
AcDbSpline
210
0.0
220
0.0
230
1.0
 70
     8
 71
     3
 72
    20
 73
    16
 74
     0
 42
0.000000001
 43
0.0
 40
3.982590526597031
 40
3.982590526597031
 40
3.982590526597031
 40
3.982590526597031
 40
4.0
 40
4.0
 40
4.0
 40
5.0
 40
5.0
 40
5.0
 40
6.0
 40
6.0
 40
6.0
 40
7.0
 40
7.0
 40
7.0
 40
7.965720527614408
 40
7.965720527614408
 40
7.965720527614408
 40
7.965720527614408
 10
335.317575615187
 20
720.486706256236
 30
0.0
 10
335.3173350944404
 20
720.4777987404333
 30
0.0
 10
335.3172154182496
 20
720.4686925098607
 30
0.0
 10
335.3172195503491
 20
720.4593841231842
 30
0.0
 10
335.3173354397321
 20
720.1983199377836
 30
0.0
 10
335.4250156201081
 20
719.8605337667551
 30
0.0
 10
335.6838041251928
 20
719.6796448852356
 30
0.0
 10
335.6838041251928
 20
719.6796448852356
 30
0.0
 10
335.6837013297345
 20
719.9112123670818
 30
0.0
 10
335.6837013297345
 20
719.9112123670818
 30
0.0
 10
335.6527557762239
 20
719.9354232744001
 30
0.0
 10
335.5962691041561
 20
719.9806056750444
 30
0.0
 10
335.545168095461
 20
720.0648354296552
 30
0.0
 10
335.4888554878603
 20
720.1602972715579
 30
0.0
 10
335.4682100517087
 20
720.2568698994719
 30
0.0
 10
335.4668238005331
 20
720.3467146364752
 30
0.0
  0
SPLINE
  5
20B
330
1A4
100
AcDbEntity
  8
0
  6
Continuous
 62
     0
370
    30
100
AcDbSpline
210
0.0
220
0.0
230
1.0
 70
     8
 71
     3
 72
    11
 73
     7
 74
     0
 42
0.000000001
 43
0.0
 40
0.2836552180709465
 40
0.2836552180709465
 40
0.2836552180709465
 40
0.2836552180709465
 40
1.0
 40
1.0
 40
1.0
 40
1.273477328498486
 40
1.273477328498486
 40
1.273477328498486
 40
1.273477328498486
 10
336.2980235005799
 20
719.5023050880491
 30
0.0
 10
336.2980526034348
 20
719.436745043473
 30
0.0
 10
336.2981039031343
 20
719.321182133998
 30
0.0
 10
336.2981039031343
 20
719.321182133998
 30
0.0
 10
336.3798529174812
 20
719.2815117263286
 30
0.0
 10
336.4448227358201
 20
719.2721415548333
 30
0.0
 10
336.4960748719379
 20
719.2838565723448
 30
0.0
  0
LINE
  5
20C
330
1A4
100
AcDbEntity
  8
0
  6
Continuous
 62
     0
370
    30
100
AcDbLine
 10
335.647394
 20
718.39705
 30
0.0
 11
335.479573
 21
718.493843
 31
0.0
  0
LINE
  5
20D
330
1A4
100
AcDbEntity
  8
0
  6
Continuous
 62
     0
370
    30
100
AcDbLine
 10
335.479573
 20
718.493843
 30
0.0
 11
335.418325
 21
718.458482
 31
0.0
  0
LINE
  5
20E
330
1A4
100
AcDbEntity
  8
0
  6
Continuous
 62
     0
370
    30
100
AcDbLine
 10
335.594964
 20
719.753201
 30
0.0
 11
335.478984
 21
719.820093
 31
0.0
  0
LINE
  5
20F
330
1A4
100
AcDbEntity
  8
0
  6
Continuous
 62
     0
370
    30
100
AcDbLine
 10
336.298092
 20
719.347665
 30
0.0
 11
335.70314
 21
719.690809
 31
0.0
  0
LINE
  5
210
330
1A4
100
AcDbEntity
  8
0
  6
Continuous
 62
     0
370
    30
100
AcDbLine
 10
336.587291
 20
719.180867
 30
0.0
 11
336.41032
 21
719.282937
 31
0.0
  0
LINE
  5
211
330
1A4
100
AcDbEntity
  8
0
  6
Continuous
 62
     0
370
    30
100
AcDbLine
 10
335.932174
 20
718.626316
 30
0.0
 11
335.479398
 21
718.887459
 31
0.0
  0
LINE
  5
212
330
1A4
100
AcDbEntity
  8
0
  6
Continuous
 62
     0
370
    30
100
AcDbLine
 10
336.230262
 20
718.752632
 30
0.0
 11
336.230147
 21
719.013176
 31
0.0
  0
LINE
  5
213
330
1A4
100
AcDbEntity
  8
0
  6
Continuous
 62
     0
370
    30
100
AcDbLine
 10
336.627072
 20
718.994708
 30
0.0
 11
335.337562
 21
719.738443
 31
0.0
  0
LINE
  5
214
330
1A4
100
AcDbEntity
  8
0
  6
Continuous
 62
     0
370
    30
100
AcDbLine
 10
335.337562
 20
719.738443
 30
0.0
 11
335.337656
 21
719.527927
 31
0.0
  0
LINE
  5
215
330
1A4
100
AcDbEntity
  8
0
  6
Continuous
 62
     0
370
    30
100
AcDbLine
 10
335.337656
 20
719.527927
 30
0.0
 11
335.931926
 21
719.185177
 31
0.0
  0
LINE
  5
216
330
1A4
100
AcDbEntity
  8
0
  6
Continuous
 62
     0
370
    30
100
AcDbLine
 10
335.931926
 20
719.185177
 30
0.0
 11
335.932199
 21
718.570797
 31
0.0
  0
LINE
  5
217
330
1A4
100
AcDbEntity
  8
0
  6
Continuous
 62
     0
370
    30
100
AcDbLine
 10
335.841443
 20
718.515431
 30
0.0
 11
335.337976
 21
718.805809
 31
0.0
  0
LINE
  5
218
330
1A4
100
AcDbEntity
  8
0
  6
Continuous
 62
     0
370
    30
100
AcDbLine
 10
335.337976
 20
718.805809
 30
0.0
 11
335.33807
 21
718.595354
 31
0.0
  0
LINE
  5
219
330
1A4
100
AcDbEntity
  8
0
  6
Continuous
 62
     0
370
    30
100
AcDbLine
 10
335.33807
 20
718.595354
 30
0.0
 11
335.66416
 21
718.407279
 31
0.0
  0
LINE
  5
21A
330
1A4
100
AcDbEntity
  8
0
  6
Continuous
 62
     0
370
    30
100
AcDbLine
 10
336.088843
 20
718.666358
 30
0.0
 11
336.088653
 21
719.094784
 31
0.0
  0
LINE
  5
21B
330
1A4
100
AcDbEntity
  8
0
  6
Continuous
 62
     0
370
    30
100
AcDbLine
 10
336.088653
 20
719.094784
 30
0.0
 11
336.449739
 21
718.886524
 31
0.0
  0
LINE
  5
21C
330
1A4
100
AcDbEntity
  8
0
  6
Continuous
 62
     0
370
    30
100
AcDbLine
 10
335.478984
 20
719.820093
 30
0.0
 11
335.337562
 21
719.738443
 31
0.0
  0
LINE
  5
21D
330
1A4
100
AcDbEntity
  8
0
  6
Continuous
 62
     0
370
    30
100
AcDbLine
 10
335.479398
 20
718.887459
 30
0.0
 11
335.337976
 21
718.805809
 31
0.0
  0
SPLINE
  5
21E
330
1A4
100
AcDbEntity
  8
0
  6
Continuous
 62
     0
370
     0
100
AcDbSpline
210
0.0
220
0.0
230
1.0
 70
     8
 71
     3
 72
    13
 73
     9
 74
     0
 42
0.000000001
 43
0.0
 40
0.0
 40
0.0
 40
0.0
 40
0.0
 40
1.010011404796304
 40
2.020022809592608
 40
4.040045619185215
 40
6.103201885532513
 40
7.134780018706163
 40
8.166358151879813
 40
8.166358151879813
 40
8.166358151879813
 40
8.166358151879813
 10
349.118242707252
 20
656.9003782322711
 30
0.0
 10
349.1183701681742
 20
656.6132468237843
 30
0.0
 10
349.0700456594042
 20
656.0091721294706
 30
0.0
 10
348.7820981905853
 20
654.7344244484627
 30
0.0
 10
348.0807263209367
 20
653.1016966691498
 30
0.0
 10
347.0220339708442
 20
651.6602135369778
 30
0.0
 10
346.0438119408803
 20
650.747930474226
 30
0.0
 10
345.5344094326401
 20
650.3952636330583
 30
0.0
 10
345.2805017046575
 20
650.2486699379581
 30
0.0
  0
SPLINE
  5
21F
330
1A4
100
AcDbEntity
  8
0
  6
Continuous
 62
     0
370
     0
100
AcDbSpline
210
0.0
220
0.0
230
1.0
 70
     8
 71
     3
 72
    13
 73
     9
 74
     0
 42
0.000000001
 43
0.0
 40
0.0
 40
0.0
 40
0.0
 40
0.0
 40
1.010010848483648
 40
2.020021696967297
 40
4.040043393934593
 40
6.103200772639546
 40
7.134779461992023
 40
8.1663581513445
 40
8.1663581513445
 40
8.1663581513445
 40
8.1663581513445
 10
341.4388233398346
 20
652.4666633932661
 30
0.0
 10
341.4389508006861
 20
652.1795321429308
 30
0.0
 10
341.4877866653273
 20
651.6315533352952
 30
0.0
 10
341.7767177189202
 20
650.6898671887503
 30
0.0
 10
342.4791789386255
 20
649.8676427148715
 30
0.0
 10
343.5386081142424
 20
649.6490571164937
 30
0.0
 10
344.5171390750438
 20
649.8665055477479
 30
0.0
 10
345.0265938397805
 20
650.1020761638225
 30
0.0
 10
345.2805017046584
 20
650.2486699379594
 30
0.0
  0
SPLINE
  5
220
330
1A4
100
AcDbEntity
  8
0
  6
Continuous
 62
     0
370
     0
100
AcDbSpline
210
0.0
220
0.0
230
1.0
 70
     8
 71
     3
 72
    10
 73
     6
 74
     0
 42
0.000000001
 43
0.0
 40
0.0
 40
0.0
 40
0.0
 40
0.0
 40
2.330703939707801
 40
4.661407879415602
 40
4.711888624211713
 40
4.711888624211713
 40
4.711888624211713
 40
4.711888624211713
 10
340.4941258480706
 20
652.5464993538669
 30
0.0
 10
340.4944075207176
 20
651.9119749624085
 30
0.0
 10
340.7111022678748
 20
650.7677814023655
 30
0.0
 10
341.334662378023
 20
650.0356610511712
 30
0.0
 10
341.7302392167769
 20
649.8036057425572
 30
0.0
 10
341.7386611919207
 20
649.7987482666908
 30
0.0
  0
SPLINE
  5
221
330
1A4
100
AcDbEntity
  8
0
  6
Continuous
 62
     0
370
     0
100
AcDbSpline
210
0.0
220
0.0
230
1.0
 70
     8
 71
     3
 72
    10
 73
     6
 74
     0
 42
0.000000001
 43
0.0
 40
0.0
 40
0.0
 40
0.0
 40
0.0
 40
2.330705223303553
 40
4.661410446607107
 40
4.712718907456712
 40
4.712718907456712
 40
4.712718907456712
 40
4.712718907456712
 10
337.7868347218182
 20
654.1079518068623
 30
0.0
 10
337.7871163946205
 20
653.4734270659088
 30
0.0
 10
338.0038113829223
 20
652.3292329459783
 30
0.0
 10
338.6274816880945
 20
651.5969839803606
 30
0.0
 10
339.0232243921814
 20
651.3648961365553
 30
0.0
 10
339.0317856567185
 20
651.3599610891486
 30
0.0
  0
ELLIPSE
  5
222
330
1A4
100
AcDbEntity
  8
0
  6
Continuous
 62
     0
370
     0
100
AcDbEllipse
 10
348.413722
 20
657.11888
 30
0.0
 11
-0.799999933097986
 21
-0.000355129136744317
 31
0.0
210
0.0
220
0.0
230
1.0
 40
0.577054
 41
2.647775120291869
 42
3.141592644965944
  0
ELLIPSE
  5
223
330
1A4
100
AcDbEntity
  8
0
  6
Continuous
 62
     0
370
     0
100
AcDbEllipse
 10
344.738652
 20
650.749119
 30
0.0
 11
0.4000000059608874
 21
-0.6928203333511306
 31
0.0
210
0.0
220
0.0
230
1.0
 40
0.57735
 41
6.283182152566672
 42
6.777259329961359
  0
LINE
  5
224
330
1A4
100
AcDbEntity
  8
0
  6
Continuous
 62
     0
370
     0
100
AcDbLine
 10
349.118243
 20
656.900378
 30
0.0
 11
349.103371
 21
690.4018
 31
0.0
  0
ELLIPSE
  5
225
330
1A4
100
AcDbEntity
  8
0
  6
Continuous
 62
     0
370
     0
100
AcDbEllipse
 10
347.034901
 20
714.610981
 30
0.0
 11
-11.00000000000003
 21
19.05255888325764
 31
0.0
210
0.0
220
0.0
230
-1.0
 40
0.57735
 41
-0.0000000314898427
 42
3.141592622099951
  0
LINE
  5
226
330
1A4
100
AcDbEntity
  8
0
  6
Continuous
 62
     0
370
     0
100
AcDbLine
 10
341.438823
 20
652.466663
 30
0.0
 11
341.423952
 21
685.968085
 31
0.0
  0
LINE
  5
227
330
1A4
100
AcDbEntity
  8
0
  6
Continuous
 62
     0
370
     0
100
AcDbLine
 10
340.494126
 20
652.546499
 30
0.0
 11
340.479532
 21
685.422824
 31
0.0
  0
LINE
  5
228
330
1A4
100
AcDbEntity
  8
0
  6
Continuous
 62
     0
370
     0
100
AcDbLine
 10
337.786835
 20
654.107952
 30
0.0
 11
337.773607
 21
683.906522
 31
0.0
  0
ELLIPSE
  5
229
330
1A4
100
AcDbEntity
  8
0
  6
Continuous
 62
     0
370
     0
100
AcDbEllipse
 10
345.839701
 20
713.920932
 30
0.0
 11
-9.339595875827602
 21
16.1766545790941
 31
0.0
210
0.0
220
0.0
230
-1.0
 40
0.57735
 41
5.419795692107927
 42
5.559846846233137
  0
ELLIPSE
  5
22A
330
1A4
100
AcDbEntity
  8
0
  6
Continuous
 62
     0
370
     0
100
AcDbEllipse
 10
345.14185
 20
713.518028
 30
0.0
 11
-9.839553039614607
 21
17.04260578838122
 31
0.0
210
0.0
220
0.0
230
-1.0
 40
0.57735
 41
5.465053192937196
 42
5.601532631950967
  0
LINE
  5
22B
330
1A4
100
AcDbEntity
  8
0
  6
Continuous
 62
     0
370
     0
100
AcDbLine
 10
336.904973
 20
718.810018
 30
0.0
 11
335.800993
 21
718.136529
 31
0.0
  0
ELLIPSE
  5
22C
330
1A4
100
AcDbEntity
  8
0
  6
Continuous
 62
     0
370
    30
100
AcDbEllipse
 10
327.454925
 20
703.306476
 30
0.0
 11
11.00000000000003
 21
-19.05255888325764
 31
0.0
210
0.0
220
0.0
230
1.0
 40
0.57735
 41
6.175391272860582
 42
7.069096186735936
  0
ELLIPSE
  5
22D
330
1A4
100
AcDbEntity
  8
0
  6
Continuous
 62
     0
370
    30
100
AcDbEllipse
 10
327.454925
 20
703.306476
 30
0.0
 11
-1.733521059937912
 21
23.02073537800522
 31
0.0
210
0.0
220
0.0
230
1.0
 40
0.715049
 41
4.258851623929531
 42
6.848093454255601
  0
SPLINE
  5
22E
330
1A4
100
AcDbEntity
  8
0
  6
Continuous
 62
     0
370
    30
100
AcDbSpline
210
0.0
220
0.0
230
1.0
 70
     8
 71
     3
 72
    17
 73
    13
 74
     0
 42
0.000000001
 43
0.0
 40
13.27191555656777
 40
13.27191555656777
 40
13.27191555656777
 40
13.27191555656777
 40
13.93436705867539
 40
18.99872121313802
 40
23.83259596650371
 40
27.74999508382983
 40
31.76225290533457
 40
35.66907232774657
 40
39.93902673924379
 40
43.87685082340847
 40
48.29542226986025
 40
49.50509795855621
 40
49.50509795855621
 40
49.50509795855621
 40
49.50509795855621
 10
341.8794279755574
 20
708.0548061309319
 30
0.0
 10
341.8347581347218
 20
708.2708298992445
 30
0.0
 10
341.4271844645793
 20
710.1330293462496
 30
0.0
 10
340.3345051602701
 20
713.4682426455529
 30
0.0
 10
338.1822223832884
 20
717.3371996245294
 30
0.0
 10
335.6886899715562
 20
720.2956069401603
 30
0.0
 10
333.0409897497295
 20
722.3923773304024
 30
0.0
 10
330.0879502791888
 20
723.7829470427563
 30
0.0
 10
327.0539392018835
 20
724.3178564851489
 30
0.0
 10
323.9404476406022
 20
723.9818566767815
 30
0.0
 10
321.717609147753
 20
723.0700125126632
 30
0.0
 10
320.5000254513342
 20
722.2990540742672
 30
0.0
 10
320.2428642892181
 20
722.12294161928
 30
0.0
  0
LINE
  5
22F
330
1A4
100
AcDbEntity
  8
0
  6
Continuous
 62
     0
370
    30
100
AcDbLine
 10
342.371441
 20
694.703253
 30
0.0
 11
343.011272
 21
694.334225
 31
0.0
  0
ELLIPSE
  5
230
330
1A4
100
AcDbEntity
  8
0
  6
Continuous
 62
     0
370
    30
100
AcDbEllipse
 10
330.475246
 20
705.050259
 30
0.0
 11
9.975314976572909
 21
-17.27775236092696
 31
0.0
210
0.0
220
0.0
230
1.0
 40
0.57735
 41
6.250663185840292
 42
6.326712679769853
  0
SPLINE
  5
231
330
1A4
100
AcDbEntity
  8
0
  6
Continuous
 62
     0
370
    30
100
AcDbSpline
210
0.0
220
0.0
230
1.0
 70
     8
 71
     3
 72
    11
 73
     7
 74
     0
 42
0.000000001
 43
0.0
 40
0.0
 40
0.0
 40
0.0
 40
0.0
 40
2.742586701259878
 40
6.291400101000666
 40
10.69299246816186
 40
13.62845106127846
 40
13.62845106127846
 40
13.62845106127846
 40
13.62845106127846
 10
341.8794315739267
 20
708.0548070253785
 30
0.0
 10
342.1094708342496
 20
707.1744641919715
 30
0.0
 10
342.5470801461216
 20
705.1212556201227
 30
0.0
 10
342.9325353692448
 20
701.5709499314414
 30
0.0
 10
342.8662682534922
 20
697.9721347518781
 30
0.0
 10
342.5435147086912
 20
695.6229702189777
 30
0.0
 10
342.3714413117536
 20
694.7032529122536
 30
0.0
  0
ELLIPSE
  5
232
330
1A4
100
AcDbEntity
  8
0
  6
Continuous
 62
     0
370
    30
100
AcDbEllipse
 10
327.454925
 20
703.306476
 30
0.0
 11
10.54757116480907
 21
-18.26892915389769
 31
0.0
210
0.0
220
0.0
230
1.0
 40
0.57735
 41
0.1331402425623232
 42
0.7859108795563499
  0
LINE
  5
233
330
1A4
100
AcDbEntity
  8
0
  6
Continuous
 62
     0
370
    30
100
AcDbLine
 10
320.460649
 20
724.671741
 30
0.0
 11
336.034901
 21
733.66354
 31
0.0
  0
LINE
  5
234
330
1A4
100
AcDbEntity
  8
0
  6
Continuous
 62
     0
370
    30
100
AcDbLine
 10
338.454925
 20
684.253918
 30
0.0
 11
358.034902
 21
695.558422
 31
0.0
  0
LINE
  5
235
330
1A4
100
AcDbEntity
  8
0
  6
Continuous
 62
     0
370
    30
100
AcDbLine
 10
336.706947
 20
719.043436
 30
0.0
 11
335.558164
 21
718.342616
 31
0.0
  0
LINE
  5
236
330
1A4
100
AcDbEntity
  8
0
  6
Continuous
 62
     0
370
    30
100
AcDbLine
 10
335.825225
 20
719.761295
 30
0.0
 11
335.683804
 21
719.679645
 31
0.0
  0
SPLINE
  5
237
330
1A4
100
AcDbEntity
  8
0
  6
Continuous
 62
     0
370
    30
100
AcDbSpline
210
0.0
220
0.0
230
1.0
 70
     8
 71
     3
 72
     9
 73
     5
 74
     0
 42
0.000000001
 43
0.0
 40
0.0
 40
0.0
 40
0.0
 40
0.0
 40
2.209541714041806
 40
4.677726631428834
 40
4.677726631428834
 40
4.677726631428834
 40
4.677726631428834
 10
339.031379830551
 20
651.3601950872081
 30
0.0
 10
338.5752838993462
 20
651.6232504626787
 30
0.0
 10
337.7951280028396
 20
652.4924577662787
 30
0.0
 10
337.5528304404447
 20
653.735473456848
 30
0.0
 10
337.5525202222699
 20
654.4341949297384
 30
0.0
  0
SPLINE
  5
238
330
1A4
100
AcDbEntity
  8
0
  6
Continuous
 62
     0
370
    30
100
AcDbSpline
210
0.0
220
0.0
230
1.0
 70
     8
 71
     3
 72
     9
 73
     5
 74
     0
 42
0.000000001
 43
0.0
 40
0.0
 40
0.0
 40
0.0
 40
0.0
 40
2.210482138575548
 40
4.676353411534875
 40
4.676353411534875
 40
4.676353411534875
 40
4.676353411534875
 10
341.7386611919206
 20
649.7987482666908
 30
0.0
 10
342.1949740910663
 20
649.5355642968674
 30
0.0
 10
343.3371977937431
 20
649.2950890470987
 30
0.0
 10
344.5341855318154
 20
649.7073099730057
 30
0.0
 10
345.1386514622374
 20
650.0562984889168
 30
0.0
  0
SPLINE
  5
239
330
1A4
100
AcDbEntity
  8
0
  6
Continuous
 62
     0
370
    30
100
AcDbSpline
210
0.0
220
0.0
230
1.0
 70
     8
 71
     3
 72
    11
 73
     7
 74
     0
 42
0.000000001
 43
0.0
 40
0.0
 40
0.0
 40
0.0
 40
0.0
 40
1.950041468850479
 40
4.619244051916823
 40
7.324181031423072
 40
8.949480199392456
 40
8.949480199392456
 40
8.949480199392456
 40
8.949480199392456
 10
349.2137217220272
 20
657.1192353273557
 30
0.0
 10
349.2139674879993
 20
656.5655970774822
 30
0.0
 10
349.0223335057188
 20
655.1674231871436
 30
0.0
 10
348.0568917335252
 20
652.8929687597993
 30
0.0
 10
346.5864648151204
 20
651.0655556731139
 30
0.0
 10
345.5387154112592
 20
650.2872754223316
 30
0.0
 10
345.1386509041931
 20
650.056298166731
 30
0.0
  0
LINE
  5
23A
330
1A4
100
AcDbEntity
  8
0
  6
Continuous
 62
     0
370
    30
100
AcDbLine
 10
341.739075
 20
649.798505
 30
0.0
 11
339.031783
 21
651.359957
 31
0.0
  0
LINE
  5
23B
330
1A4
100
AcDbEntity
  8
0
  6
Continuous
 62
     0
370
    30
100
AcDbLine
 10
349.213722
 20
657.119235
 30
0.0
 11
349.198923
 21
690.456967
 31
0.0
  0
SPLINE
  5
23C
330
1A4
100
AcDbEntity
  8
0
  6
Continuous
 62
     0
370
    30
100
AcDbSpline
210
0.0
220
0.0
230
1.0
 70
     8
 71
     3
 72
    15
 73
    11
 74
     0
 42
0.000000001
 43
0.0
 40
0.0
 40
0.0
 40
0.0
 40
0.0
 40
5.400294791271111
 40
14.14680865358266
 40
24.48908097469112
 40
33.92928338518237
 40
43.82513486701465
 40
54.28772373385349
 40
62.69429192726511
 40
68.49658869184515
 40
68.49658869184515
 40
68.49658869184515
 40
68.49658869184515
 10
358.0349017432311
 20
695.5584224069166
 30
0.0
 10
358.9964769917678
 20
696.1135882006923
 30
0.0
 10
361.2119881695666
 20
698.1165329164771
 30
0.0
 10
363.2283076009832
 20
703.5842590453667
 30
0.0
 10
362.5442890680615
 20
711.9747823797534
 30
0.0
 10
358.7815311248561
 20
721.1878314770433
 30
0.0
 10
352.7201403374291
 20
729.1930510599626
 30
0.0
 10
345.7379640847447
 20
734.0649851712333
 30
0.0
 10
339.9459322087145
 20
735.1392242916736
 30
0.0
 10
337.0676117185455
 20
734.2597756256766
 30
0.0
 10
336.0349010504953
 20
733.6635397734808
 30
0.0
  0
LINE
  5
23D
330
1A4
100
AcDbEntity
  8
0
  6
Continuous
 62
     0
370
    30
100
AcDbLine
 10
337.55252
 20
654.434195
 30
0.0
 11
337.539481
 21
683.806839
 31
0.0
  0
ELLIPSE
  5
23E
330
1A4
100
AcDbEntity
  8
0
  6
Continuous
 62
     0
370
    30
100
AcDbEllipse
 10
193.104624
 20
604.755338
 30
0.0
 11
-10.5
 21
-1.748601263784622E-15
 31
0.0
210
0.0
220
0.0
230
1.0
 40
0.57735
 41
1.358729011707198
 42
3.141592644950109
  0
ELLIPSE
  5
23F
330
1A4
100
AcDbEntity
  8
0
  6
Continuous
 62
     0
370
    30
100
AcDbEllipse
 10
193.104624
 20
603.530593
 30
0.0
 11
-9.0
 21
-1.498801083243961E-15
 31
0.0
210
0.0
220
0.0
230
1.0
 40
0.57735
 41
1.270357276469372
 42
2.436399046616248
  0
ELLIPSE
  5
240
330
1A4
100
AcDbEntity
  8
0
  6
Continuous
 62
     0
370
     0
100
AcDbEllipse
 10
193.104624
 20
603.122345
 30
0.0
 11
-9.0
 21
-1.498801083243961E-15
 31
0.0
210
0.0
220
0.0
230
1.0
 40
0.57735
 41
1.208528400264873
 42
2.711021969224205
  0
SPLINE
  5
241
330
1A4
100
AcDbEntity
  8
0
  6
Continuous
 62
     0
370
    30
100
AcDbSpline
210
0.0
220
0.0
230
1.0
 70
     8
 71
     3
 72
    15
 73
    11
 74
     0
 42
0.000000001
 43
0.0
 40
10.42059566967098
 40
10.42059566967098
 40
10.42059566967098
 40
10.42059566967098
 40
12.31373936378288
 40
14.34273788872614
 40
16.36582299864913
 40
18.56096911197809
 40
20.25689189710676
 40
22.74019561003445
 40
24.11159803187854
 40
24.57980263345023
 40
24.57980263345023
 40
24.57980263345023
 40
24.57980263345023
 10
189.665175278016
 20
598.1191747635856
 30
0.0
 10
190.2483566054657
 20
597.9763279999792
 30
0.0
 10
191.5090428681815
 20
597.7561522833824
 30
0.0
 10
193.4987253450651
 20
597.6748100551066
 30
0.0
 10
195.5688696983552
 20
597.8673129828701
 30
0.0
 10
197.4052414251503
 20
598.3147336839646
 30
0.0
 10
199.1601421134558
 20
599.0379224411804
 30
0.0
 10
200.4141504954921
 20
599.8705421466368
 30
0.0
 10
201.1377946496793
 20
600.638004377193
 30
0.0
 10
201.3886544198712
 20
600.9856377738749
 30
0.0
 10
201.4486745680139
 20
601.0753554350796
 30
0.0
  0
LINE
  5
242
330
1A4
100
AcDbEntity
  8
0
  6
Continuous
 62
     0
370
    30
100
AcDbLine
 10
200.529244
 20
600.468731
 30
0.0
 11
199.468584
 21
599.856358
 31
0.0
  0
LINE
  5
243
330
1A4
100
AcDbEntity
  8
0
  6
Continuous
 62
     0
370
    30
100
AcDbLine
 10
203.604624
 20
606.167119
 30
0.0
 11
203.604624
 21
604.755338
 31
0.0
  0
ENDBLK
  5
245
330
1A4
100
AcDbEntity
  8
0
100
AcDbBlockEnd
  0
ENDSEC
  0
SECTION
  2
ENTITIES
  0
INSERT
  5
CF
330
1F
100
AcDbEntity
  8
0
  6
Continuous
 62
     7
370
     0
100
AcDbBlockReference
  2
a
 10
93.207191
 20
158.445023
 30
0.0
  0
INSERT
  5
14F
330
1F
100
AcDbEntity
  8
0
  6
Continuous
 62
     7
370
     0
100
AcDbBlockReference
  2
b
 10
93.207191
 20
158.445023
 30
0.0
  0
INSERT
  5
1A3
330
1F
100
AcDbEntity
  8
0
  6
Continuous
 62
     7
370
     0
100
AcDbBlockReference
  2
c
 10
93.207191
 20
158.445023
 30
0.0
  0
INSERT
  5
246
330
1F
100
AcDbEntity
  8
0
  6
Continuous
 62
     7
370
     0
100
AcDbBlockReference
  2
d
 10
-232.497734
 20
572.678757
 30
0.0
  0
ENDSEC
  0
SECTION
  2
OBJECTS
  0
DICTIONARY
  5
C
330
0
100
AcDbDictionary
281
     1
  3
ACAD_GROUP
350
D
  3
ACAD_LAYOUT
350
1A
  3
ACAD_MATERIAL
350
43
  3
ACAD_MLEADERSTYLE
350
6B
  3
ACAD_MLINESTYLE
350
17
  3
ACAD_PLOTSETTINGS
350
19
  3
ACAD_PLOTSTYLENAME
350
E
  3
ACAD_SCALELIST
350
47
  3
ACAD_TABLESTYLE
350
69
  3
ACAD_VISUALSTYLE
350
2A
  3
AcDbVariableDictionary
350
247
  0
DICTIONARY
  5
252
330
8
100
AcDbDictionary
280
     1
281
     1
  3
ACAD_XREC_ROUNDTRIP
360
253
  0
DICTIONARY
  5
D
102
{ACAD_REACTORS
330
C
102
}
330
C
100
AcDbDictionary
281
     1
  0
DICTIONARY
  5
1A
102
{ACAD_REACTORS
330
C
102
}
330
C
100
AcDbDictionary
281
     1
  3
Layout1
350
1E
  3
Layout2
350
26
  3
Model
350
22
  0
DICTIONARY
  5
43
102
{ACAD_REACTORS
330
C
102
}
330
C
100
AcDbDictionary
281
     1
  3
ByBlock
350
45
  3
ByLayer
350
44
  3
Global
350
46
  0
DICTIONARY
  5
6B
102
{ACAD_REACTORS
330
C
102
}
330
C
100
AcDbDictionary
281
     1
  3
Standard
350
6C
  0
DICTIONARY
  5
17
102
{ACAD_REACTORS
330
C
102
}
330
C
100
AcDbDictionary
281
     1
  3
Standard
350
18
  0
DICTIONARY
  5
19
102
{ACAD_REACTORS
330
C
102
}
330
C
100
AcDbDictionary
281
     1
  0
ACDBDICTIONARYWDFLT
  5
E
102
{ACAD_REACTORS
330
C
102
}
330
C
100
AcDbDictionary
281
     1
  3
Normal
350
F
100
AcDbDictionaryWithDefault
340
F
  0
DICTIONARY
  5
47
102
{ACAD_REACTORS
330
C
102
}
330
C
100
AcDbDictionary
281
     1
  3
A0
350
48
  3
A1
350
49
  3
A2
350
4A
  3
A3
350
4B
  3
A4
350
4C
  3
A5
350
4D
  3
A6
350
4E
  3
A7
350
4F
  3
A8
350
50
  3
A9
350
51
  3
B0
350
52
  3
B1
350
53
  3
B2
350
54
  3
B3
350
55
  3
B4
350
56
  3
B5
350
57
  3
B6
350
58
  3
B7
350
59
  3
B8
350
5A
  3
B9
350
5B
  3
C0
350
5C
  3
C1
350
5D
  3
C2
350
5E
  3
C3
350
5F
  3
C4
350
60
  3
C5
350
61
  3
C6
350
62
  3
C7
350
63
  3
C8
350
64
  3
C9
350
65
  3
D0
350
66
  3
D1
350
67
  3
D2
350
68
  0
DICTIONARY
  5
69
102
{ACAD_REACTORS
330
C
102
}
330
C
100
AcDbDictionary
281
     1
  3
Standard
350
6A
  0
DICTIONARY
  5
2A
102
{ACAD_REACTORS
330
C
102
}
330
C
100
AcDbDictionary
281
     1
  3
2dWireframe
350
2F
  3
Basic
350
32
  3
Brighten
350
36
  3
ColorChange
350
3A
  3
Conceptual
350
34
  3
Dim
350
35
  3
EdgeColorOff
350
3D
  3
Facepattern
350
39
  3
Flat
350
2B
  3
FlatWithEdges
350
2C
  3
Gouraud
350
2D
  3
GouraudWithEdges
350
2E
  3
Hidden
350
31
  3
JitterOff
350
3B
  3
Linepattern
350
38
  3
OverhangOff
350
3C
  3
Realistic
350
33
  3
Shaded
350
42
  3
Shaded with edges
350
41
  3
Shades of Gray
350
3E
  3
Sketchy
350
3F
  3
Thicken
350
37
  3
Wireframe
350
30
  3
X-Ray
350
40
  0
DICTIONARY
  5
247
102
{ACAD_REACTORS
330
C
102
}
330
C
100
AcDbDictionary
281
     1
  3
CANNOSCALE
350
254
  3
CENTEREXE
350
24E
  3
CENTERLTYPEFILE
350
24F
  3
CMLEADERSTYLE
350
249
  3
CTABLESTYLE
350
248
  3
DIMASSOC
350
250
  3
HIDETEXT
350
251
  3
MSLTSCALE
350
255
  3
PSOLHEIGHT
350
24B
  3
PSOLWIDTH
350
24A
  0
XRECORD
  5
253
102
{ACAD_REACTORS
330
252
102
}
330
252
100
AcDbXrecord
280
     1
102
VTR_0.000_0.000_1.000_1.000_VISUALSTYLE
340
2F
102
VTR_0.000_0.000_1.000_1.000_GRIDDISPLAY
 70
     3
102
VTR_0.000_0.000_1.000_1.000_GRIDMAJOR
 70
     5
102
VTR_0.000_0.000_1.000_1.000_DEFAULTLIGHTING
280
     1
102
VTR_0.000_0.000_1.000_1.000_DEFAULTLIGHTINGTYPE
 70
     1
102
VTR_0.000_0.000_1.000_1.000_BRIGHTNESS
141
0.0
102
VTR_0.000_0.000_1.000_1.000_CONTRAST
142
0.0
  0
LAYOUT
  5
1E
102
{ACAD_REACTORS
330
1A
102
}
330
1A
100
AcDbPlotSettings
  1

  2
none_device
  4

  6

 40
0.0
 41
0.0
 42
0.0
 43
0.0
 44
0.0
 45
0.0
 46
0.0
 47
0.0
 48
0.0
 49
0.0
140
0.0
141
0.0
142
1.0
143
1.0
 70
   688
 72
     1
 73
     0
 74
     5
  7

 75
    16
147
1.0
148
0.0
149
0.0
100
AcDbLayout
  1
Layout1
 70
     1
 71
     1
 10
0.0
 20
0.0
 11
420.0
 21
297.0
 12
0.0
 22
0.0
 32
0.0
 14
1.000000E+20
 24
1.000000E+20
 34
1.000000E+20
 15
-1.000000E+20
 25
-1.000000E+20
 35
-1.000000E+20
146
0.0
 13
0.0
 23
0.0
 33
0.0
 16
1.0
 26
0.0
 36
0.0
 17
0.0
 27
1.0
 37
0.0
 76
     0
330
1B
  0
LAYOUT
  5
26
102
{ACAD_REACTORS
330
1A
102
}
330
1A
100
AcDbPlotSettings
  1

  2
none_device
  4

  6

 40
0.0
 41
0.0
 42
0.0
 43
0.0
 44
0.0
 45
0.0
 46
0.0
 47
0.0
 48
0.0
 49
0.0
140
0.0
141
0.0
142
1.0
143
1.0
 70
   688
 72
     1
 73
     0
 74
     5
  7

 75
    16
147
1.0
148
0.0
149
0.0
100
AcDbLayout
  1
Layout2
 70
     1
 71
     2
 10
0.0
 20
0.0
 11
0.0
 21
0.0
 12
0.0
 22
0.0
 32
0.0
 14
0.0
 24
0.0
 34
0.0
 15
0.0
 25
0.0
 35
0.0
146
0.0
 13
0.0
 23
0.0
 33
0.0
 16
1.0
 26
0.0
 36
0.0
 17
0.0
 27
1.0
 37
0.0
 76
     0
330
23
  0
LAYOUT
  5
22
102
{ACAD_REACTORS
330
1A
102
}
330
1A
100
AcDbPlotSettings
  1

  2
none_device
  4
Letter_(8.50_x_11.00_Inches)
  6

 40
6.35
 41
6.35
 42
6.350005
 43
6.350005
 44
215.9
 45
279.4
 46
0.0
 47
0.0
 48
0.0
 49
0.0
140
0.0
141
0.0
142
1.0
143
1.0
 70
  1712
 72
     1
 73
     0
 74
     0
  7

 75
     0
147
1.0
148
0.0
149
0.0
100
AcDbLayout
  1
Model
 70
     1
 71
     0
 10
122.678596
 20
180.24762
 11
548.389099
 21
743.526306
 12
0.0
 22
0.0
 32
0.0
 14
122.678596
 24
180.24762
 34
0.0
 15
548.389099
 25
743.526306
 35
0.0
146
0.0
 13
0.0
 23
0.0
 33
0.0
 16
1.0
 26
0.0
 36
0.0
 17
0.0
 27
1.0
 37
0.0
 76
     0
330
1F
331
29
  0
MATERIAL
  5
45
102
{ACAD_REACTORS
330
43
102
}
102
{ACAD_XDICTIONARY
360
288
102
}
330
43
100
AcDbMaterial
  1
ByBlock
  0
MATERIAL
  5
44
102
{ACAD_REACTORS
330
43
102
}
102
{ACAD_XDICTIONARY
360
286
102
}
330
43
100
AcDbMaterial
  1
ByLayer
  0
MATERIAL
  5
46
102
{ACAD_REACTORS
330
43
102
}
102
{ACAD_XDICTIONARY
360
28A
102
}
330
43
100
AcDbMaterial
  1
Global
  0
MLEADERSTYLE
  5
6C
102
{ACAD_REACTORS
330
6B
102
}
102
{ACAD_XDICTIONARY
360
28D
102
}
330
6B
100
AcDbMLeaderStyle
170
     2
171
     1
172
     0
 90
        2
 40
0.0
 41
0.0
173
     1
 91
-1056964608
340
14
 92
       -2
290
     1
 42
2.0
291
     1
 43
8.0
  3
Standard
341
0
 44
4.0
300

342
11
174
     1
178
     6
175
     1
176
     0
 93
-1056964608
 45
4.0
292
     0
297
     0
 46
4.0
343
0
 94
-1056964608
 47
1.0
 49
1.0
140
1.0
293
     1
141
0.0
294
     1
177
     0
142
1.0
295
     0
296
     0
143
3.75
1001
ACAD_MLEADERVER
1070
     2
  0
MLINESTYLE
  5
18
102
{ACAD_REACTORS
330
17
102
}
330
17
100
AcDbMlineStyle
  2
Standard
 70
     0
  3

 62
   256
 51
90.0
 52
90.0
 71
     2
 49
0.5
 62
   256
  6
BYLAYER
 49
-0.5
 62
   256
  6
BYLAYER
  0
ACDBPLACEHOLDER
  5
F
102
{ACAD_REACTORS
330
E
102
}
330
E
  0
SCALE
  5
48
102
{ACAD_REACTORS
330
47
102
}
330
47
100
AcDbScale
 70
     0
300
1:1
140
1.0
141
1.0
290
     1
  0
SCALE
  5
49
102
{ACAD_REACTORS
330
47
102
}
330
47
100
AcDbScale
 70
     0
300
1:2
140
1.0
141
2.0
290
     0
  0
SCALE
  5
4A
102
{ACAD_REACTORS
330
47
102
}
330
47
100
AcDbScale
 70
     0
300
1:4
140
1.0
141
4.0
290
     0
  0
SCALE
  5
4B
102
{ACAD_REACTORS
330
47
102
}
330
47
100
AcDbScale
 70
     0
300
1:5
140
1.0
141
5.0
290
     0
  0
SCALE
  5
4C
102
{ACAD_REACTORS
330
47
102
}
330
47
100
AcDbScale
 70
     0
300
1:8
140
1.0
141
8.0
290
     0
  0
SCALE
  5
4D
102
{ACAD_REACTORS
330
47
102
}
330
47
100
AcDbScale
 70
     0
300
1:10
140
1.0
141
10.0
290
     0
  0
SCALE
  5
4E
102
{ACAD_REACTORS
330
47
102
}
330
47
100
AcDbScale
 70
     0
300
1:16
140
1.0
141
16.0
290
     0
  0
SCALE
  5
4F
102
{ACAD_REACTORS
330
47
102
}
330
47
100
AcDbScale
 70
     0
300
1:20
140
1.0
141
20.0
290
     0
  0
SCALE
  5
50
102
{ACAD_REACTORS
330
47
102
}
330
47
100
AcDbScale
 70
     0
300
1:30
140
1.0
141
30.0
290
     0
  0
SCALE
  5
51
102
{ACAD_REACTORS
330
47
102
}
330
47
100
AcDbScale
 70
     0
300
1:40
140
1.0
141
40.0
290
     0
  0
SCALE
  5
52
102
{ACAD_REACTORS
330
47
102
}
330
47
100
AcDbScale
 70
     0
300
1:50
140
1.0
141
50.0
290
     0
  0
SCALE
  5
53
102
{ACAD_REACTORS
330
47
102
}
330
47
100
AcDbScale
 70
     0
300
1:100
140
1.0
141
100.0
290
     0
  0
SCALE
  5
54
102
{ACAD_REACTORS
330
47
102
}
330
47
100
AcDbScale
 70
     0
300
2:1
140
2.0
141
1.0
290
     0
  0
SCALE
  5
55
102
{ACAD_REACTORS
330
47
102
}
330
47
100
AcDbScale
 70
     0
300
4:1
140
4.0
141
1.0
290
     0
  0
SCALE
  5
56
102
{ACAD_REACTORS
330
47
102
}
330
47
100
AcDbScale
 70
     0
300
8:1
140
8.0
141
1.0
290
     0
  0
SCALE
  5
57
102
{ACAD_REACTORS
330
47
102
}
330
47
100
AcDbScale
 70
     0
300
10:1
140
10.0
141
1.0
290
     0
  0
SCALE
  5
58
102
{ACAD_REACTORS
330
47
102
}
330
47
100
AcDbScale
 70
     0
300
100:1
140
100.0
141
1.0
290
     0
  0
SCALE
  5
59
102
{ACAD_REACTORS
330
47
102
}
330
47
100
AcDbScale
 70
     0
300
1/128" = 1'-0"
140
0.007812
141
12.0
290
     0
  0
SCALE
  5
5A
102
{ACAD_REACTORS
330
47
102
}
330
47
100
AcDbScale
 70
     0
300
1/64" = 1'-0"
140
0.015625
141
12.0
290
     0
  0
SCALE
  5
5B
102
{ACAD_REACTORS
330
47
102
}
330
47
100
AcDbScale
 70
     0
300
1/32" = 1'-0"
140
0.03125
141
12.0
290
     0
  0
SCALE
  5
5C
102
{ACAD_REACTORS
330
47
102
}
330
47
100
AcDbScale
 70
     0
300
1/16" = 1'-0"
140
0.0625
141
12.0
290
     0
  0
SCALE
  5
5D
102
{ACAD_REACTORS
330
47
102
}
330
47
100
AcDbScale
 70
     0
300
3/32" = 1'-0"
140
0.09375
141
12.0
290
     0
  0
SCALE
  5
5E
102
{ACAD_REACTORS
330
47
102
}
330
47
100
AcDbScale
 70
     0
300
1/8" = 1'-0"
140
0.125
141
12.0
290
     0
  0
SCALE
  5
5F
102
{ACAD_REACTORS
330
47
102
}
330
47
100
AcDbScale
 70
     0
300
3/16" = 1'-0"
140
0.1875
141
12.0
290
     0
  0
SCALE
  5
60
102
{ACAD_REACTORS
330
47
102
}
330
47
100
AcDbScale
 70
     0
300
1/4" = 1'-0"
140
0.25
141
12.0
290
     0
  0
SCALE
  5
61
102
{ACAD_REACTORS
330
47
102
}
330
47
100
AcDbScale
 70
     0
300
3/8" = 1'-0"
140
0.375
141
12.0
290
     0
  0
SCALE
  5
62
102
{ACAD_REACTORS
330
47
102
}
330
47
100
AcDbScale
 70
     0
300
1/2" = 1'-0"
140
0.5
141
12.0
290
     0
  0
SCALE
  5
63
102
{ACAD_REACTORS
330
47
102
}
330
47
100
AcDbScale
 70
     0
300
3/4" = 1'-0"
140
0.75
141
12.0
290
     0
  0
SCALE
  5
64
102
{ACAD_REACTORS
330
47
102
}
330
47
100
AcDbScale
 70
     0
300
1" = 1'-0"
140
1.0
141
12.0
290
     0
  0
SCALE
  5
65
102
{ACAD_REACTORS
330
47
102
}
330
47
100
AcDbScale
 70
     0
300
1-1/2" = 1'-0"
140
1.5
141
12.0
290
     0
  0
SCALE
  5
66
102
{ACAD_REACTORS
330
47
102
}
330
47
100
AcDbScale
 70
     0
300
3" = 1'-0"
140
3.0
141
12.0
290
     0
  0
SCALE
  5
67
102
{ACAD_REACTORS
330
47
102
}
330
47
100
AcDbScale
 70
     0
300
6" = 1'-0"
140
6.0
141
12.0
290
     0
  0
SCALE
  5
68
102
{ACAD_REACTORS
330
47
102
}
330
47
100
AcDbScale
 70
     0
300
1'-0" = 1'-0"
140
12.0
141
12.0
290
     0
  0
TABLESTYLE
  5
6A
102
{ACAD_REACTORS
330
69
102
}
330
69
100
AcDbTableStyle
  3
Standard
 70
     0
 71
     0
 40
1.5
 41
1.5
280
     0
281
     0
  7
Standard
140
4.5
170
     2
 62
     0
 63
   257
283
     0
274
    -2
284
     1
 64
     0
275
    -2
285
     1
 65
     0
276
    -2
286
     1
 66
     0
277
    -2
287
     1
 67
     0
278
    -2
288
     1
 68
     0
279
    -2
289
     1
 69
     0
  7
Standard
140
6.0
170
     5
 62
     0
 63
   257
283
     0
274
    -2
284
     1
 64
     0
275
    -2
285
     1
 65
     0
276
    -2
286
     1
 66
     0
277
    -2
287
     1
 67
     0
278
    -2
288
     1
 68
     0
279
    -2
289
     1
 69
     0
  7
Standard
140
4.5
170
     5
 62
     0
 63
   257
283
     0
274
    -2
284
     1
 64
     0
275
    -2
285
     1
 65
     0
276
    -2
286
     1
 66
     0
277
    -2
287
     1
 67
     0
278
    -2
288
     1
 68
     0
279
    -2
289
     1
 69
     0
  0
VISUALSTYLE
  5
2F
102
{ACAD_REACTORS
330
2A
102
}
102
{ACAD_XDICTIONARY
360
25E
102
}
330
2A
100
AcDbVisualStyle
  2
2dWireframe
 70
     4
 71
     0
 72
     2
 73
     0
 90
        0
 40
0.6
 41
30.0
 62
     5
 63
     7
 74
     1
 91
        4
 64
     7
 65
   257
 75
     1
175
     1
 42
1.0
 92
        0
 66
   257
 43
1.0
 76
     1
 77
     6
 78
     2
 67
     7
 79
     5
170
     0
171
     0
290
     0
174
     0
 93
        1
 44
0.0
173
     0
291
     0
 45
0.0
1001
ACAD
1000
AcDbSavedByObjectVersion
1070
     0
  0
VISUALSTYLE
  5
32
102
{ACAD_REACTORS
330
2A
102
}
102
{ACAD_XDICTIONARY
360
264
102
}
330
2A
100
AcDbVisualStyle
  2
Basic
 70
     7
 71
     1
 72
     0
 73
     1
 90
        0
 40
0.6
 41
30.0
 62
     5
 63
     7
 74
     0
 91
        4
 64
     7
 65
   257
 75
     1
175
     1
 42
1.0
 92
        8
 66
     7
 43
1.0
 76
     1
 77
     6
 78
     2
 67
     7
 79
     5
170
     0
171
     0
290
     0
174
     0
 93
        1
 44
0.0
173
     0
291
     1
 45
0.0
1001
ACAD
1000
AcDbSavedByObjectVersion
1070
     0
  0
VISUALSTYLE
  5
36
102
{ACAD_REACTORS
330
2A
102
}
102
{ACAD_XDICTIONARY
360
26C
102
}
330
2A
100
AcDbVisualStyle
  2
Brighten
 70
    12
 71
     2
 72
     2
 73
     0
 90
        0
 40
0.6
 41
30.0
 62
     5
 63
     7
 74
     1
 91
        4
 64
     7
 65
   257
 75
     1
175
     1
 42
1.0
 92
        8
 66
     7
 43
1.0
 76
     1
 77
     6
 78
     2
 67
     7
 79
     5
170
     0
171
     0
290
     0
174
     0
 93
        1
 44
50.0
173
     0
291
     1
 45
0.0
1001
ACAD
1000
AcDbSavedByObjectVersion
1070
     0
  0
VISUALSTYLE
  5
3A
102
{ACAD_REACTORS
330
2A
102
}
102
{ACAD_XDICTIONARY
360
274
102
}
330
2A
100
AcDbVisualStyle
  2
ColorChange
 70
    16
 71
     2
 72
     2
 73
     3
 90
        0
 40
0.6
 41
30.0
 62
     5
 63
     8
 74
     1
 91
        4
 64
     7
 65
   257
 75
     1
175
     1
 42
1.0
 92
        8
 66
     8
 43
1.0
 76
     1
 77
     6
 78
     2
 67
     7
 79
     5
170
     0
171
     0
290
     0
174
     0
 93
        1
 44
0.0
173
     0
291
     1
 45
0.0
1001
ACAD
1000
AcDbSavedByObjectVersion
1070
     0
  0
VISUALSTYLE
  5
34
102
{ACAD_REACTORS
330
2A
102
}
102
{ACAD_XDICTIONARY
360
268
102
}
330
2A
100
AcDbVisualStyle
  2
Conceptual
 70
     9
 71
     3
 72
     2
 73
     0
 90
        0
 40
0.6
 41
30.0
 62
     5
 63
     7
 74
     2
 91
        2
 64
     7
 65
   257
 75
     1
175
     1
 42
179.0
 92
        8
 66
     7
 43
1.0
 76
     1
 77
     6
 78
     2
 67
     7
 79
     3
170
     0
171
     0
290
     0
174
     0
 93
        1
 44
0.0
173
     0
291
     0
 45
0.0
1001
ACAD
1000
AcDbSavedByObjectVersion
1070
     0
  0
VISUALSTYLE
  5
35
102
{ACAD_REACTORS
330
2A
102
}
102
{ACAD_XDICTIONARY
360
26A
102
}
330
2A
100
AcDbVisualStyle
  2
Dim
 70
    11
 71
     2
 72
     2
 73
     0
 90
        0
 40
0.6
 41
30.0
 62
     5
 63
     7
 74
     1
 91
        4
 64
     7
 65
   257
 75
     1
175
     1
 42
1.0
 92
        8
 66
     7
 43
1.0
 76
     1
 77
     6
 78
     2
 67
     7
 79
     5
170
     0
171
     0
290
     0
174
     0
 93
        1
 44
-50.0
173
     0
291
     1
 45
0.0
1001
ACAD
1000
AcDbSavedByObjectVersion
1070
     0
  0
VISUALSTYLE
  5
3D
102
{ACAD_REACTORS
330
2A
102
}
102
{ACAD_XDICTIONARY
360
27A
102
}
330
2A
100
AcDbVisualStyle
  2
EdgeColorOff
 70
    22
 71
     2
 72
     2
 73
     0
 90
        0
 40
0.6
 41
30.0
 62
     5
 63
     7
 74
     1
 91
        4
 64
     7
 65
   257
 75
     1
175
     1
 42
1.0
 92
        8
 66
     7
 43
1.0
 76
     1
 77
     6
 78
     2
 67
     7
 79
     5
170
     0
171
     0
290
     0
174
     0
 93
        1
 44
0.0
173
     0
291
     1
 45
0.0
1001
ACAD
1000
AcDbSavedByObjectVersion
1070
     0
  0
VISUALSTYLE
  5
39
102
{ACAD_REACTORS
330
2A
102
}
102
{ACAD_XDICTIONARY
360
272
102
}
330
2A
100
AcDbVisualStyle
  2
Facepattern
 70
    15
 71
     2
 72
     2
 73
     0
 90
        0
 40
0.6
 41
30.0
 62
     5
 63
     7
 74
     1
 91
        4
 64
     7
 65
   257
 75
     1
175
     1
 42
1.0
 92
        8
 66
     7
 43
1.0
 76
     1
 77
     6
 78
     2
 67
     7
 79
     5
170
     0
171
     0
290
     0
174
     0
 93
        1
 44
0.0
173
     0
291
     1
 45
0.0
1001
ACAD
1000
AcDbSavedByObjectVersion
1070
     0
  0
VISUALSTYLE
  5
2B
102
{ACAD_REACTORS
330
2A
102
}
102
{ACAD_XDICTIONARY
360
256
102
}
330
2A
100
AcDbVisualStyle
  2
Flat
 70
     0
 71
     2
 72
     1
 73
     1
 90
        2
 40
0.6
 41
30.0
 62
     5
 63
     7
 74
     0
 91
        0
 64
     7
 65
   257
 75
     1
175
     1
 42
1.0
 92
        8
 66
     7
 43
1.0
 76
     1
 77
     6
 78
     2
 67
     7
 79
     5
170
     0
171
     0
290
     0
174
     0
 93
       13
 44
0.0
173
     0
291
     1
 45
0.0
1001
ACAD
1000
AcDbSavedByObjectVersion
1070
     0
  0
VISUALSTYLE
  5
2C
102
{ACAD_REACTORS
330
2A
102
}
102
{ACAD_XDICTIONARY
360
258
102
}
330
2A
100
AcDbVisualStyle
  2
FlatWithEdges
 70
     1
 71
     2
 72
     1
 73
     1
 90
        2
 40
0.6
 41
30.0
 62
     5
 63
     7
 74
     1
 91
        0
 64
     7
 65
   257
 75
     1
175
     1
 42
1.0
 92
        0
 66
   257
 43
1.0
 76
     1
 77
     6
 78
     2
 67
     7
 79
     5
170
     0
171
     0
290
     0
174
     0
 93
       13
 44
0.0
173
     0
291
     1
 45
0.0
1001
ACAD
1000
AcDbSavedByObjectVersion
1070
     0
  0
VISUALSTYLE
  5
2D
102
{ACAD_REACTORS
330
2A
102
}
102
{ACAD_XDICTIONARY
360
25A
102
}
330
2A
100
AcDbVisualStyle
  2
Gouraud
 70
     2
 71
     2
 72
     2
 73
     1
 90
        2
 40
0.6
 41
30.0
 62
     5
 63
     7
 74
     0
 91
        0
 64
     7
 65
   257
 75
     1
175
     1
 42
1.0
 92
        0
 66
     7
 43
1.0
 76
     1
 77
     6
 78
     2
 67
     7
 79
     5
170
     0
171
     0
290
     0
174
     0
 93
       13
 44
0.0
173
     0
291
     1
 45
0.0
1001
ACAD
1000
AcDbSavedByObjectVersion
1070
     0
  0
VISUALSTYLE
  5
2E
102
{ACAD_REACTORS
330
2A
102
}
102
{ACAD_XDICTIONARY
360
25C
102
}
330
2A
100
AcDbVisualStyle
  2
GouraudWithEdges
 70
     3
 71
     2
 72
     2
 73
     1
 90
        2
 40
0.6
 41
30.0
 62
     5
 63
     7
 74
     1
 91
        0
 64
     7
 65
   257
 75
     1
175
     1
 42
1.0
 92
        0
 66
   257
 43
1.0
 76
     1
 77
     6
 78
     2
 67
     7
 79
     5
170
     0
171
     0
290
     0
174
     0
 93
       13
 44
0.0
173
     0
291
     1
 45
0.0
1001
ACAD
1000
AcDbSavedByObjectVersion
1070
     0
  0
VISUALSTYLE
  5
31
102
{ACAD_REACTORS
330
2A
102
}
102
{ACAD_XDICTIONARY
360
262
102
}
330
2A
100
AcDbVisualStyle
  2
Hidden
 70
     6
 71
     1
 72
     2
 73
     2
 90
        0
 40
0.6
 41
30.0
 62
     5
 63
     7
 74
     2
 91
        2
 64
     7
 65
   257
 75
     2
175
     1
 42
40.0
 92
        0
 66
   257
 43
1.0
 76
     1
 77
     6
 78
     2
 67
     7
 79
     3
170
     0
171
     0
290
     0
174
     0
 93
        1
 44
0.0
173
     0
291
     0
 45
0.0
1001
ACAD
1000
AcDbSavedByObjectVersion
1070
     0
  0
VISUALSTYLE
  5
3B
102
{ACAD_REACTORS
330
2A
102
}
102
{ACAD_XDICTIONARY
360
276
102
}
330
2A
100
AcDbVisualStyle
  2
JitterOff
 70
    20
 71
     2
 72
     2
 73
     0
 90
        0
 40
0.6
 41
30.0
 62
     5
 63
     7
 74
     1
 91
        4
 64
     7
 65
   257
 75
     1
175
     1
 42
1.0
 92
       10
 66
     7
 43
1.0
 76
     1
 77
     6
 78
     2
 67
     7
 79
     5
170
     0
171
     0
290
     0
174
     0
 93
        1
 44
0.0
173
     0
291
     1
 45
0.0
1001
ACAD
1000
AcDbSavedByObjectVersion
1070
     0
  0
VISUALSTYLE
  5
38
102
{ACAD_REACTORS
330
2A
102
}
102
{ACAD_XDICTIONARY
360
270
102
}
330
2A
100
AcDbVisualStyle
  2
Linepattern
 70
    14
 71
     2
 72
     2
 73
     0
 90
        0
 40
0.6
 41
30.0
 62
     5
 63
     7
 74
     1
 91
        4
 64
     7
 65
   257
 75
     7
175
     7
 42
1.0
 92
        8
 66
     7
 43
1.0
 76
     1
 77
     6
 78
     2
 67
     7
 79
     5
170
     0
171
     0
290
     0
174
     0
 93
        1
 44
0.0
173
     0
291
     1
 45
0.0
1001
ACAD
1000
AcDbSavedByObjectVersion
1070
     0
  0
VISUALSTYLE
  5
3C
102
{ACAD_REACTORS
330
2A
102
}
102
{ACAD_XDICTIONARY
360
278
102
}
330
2A
100
AcDbVisualStyle
  2
OverhangOff
 70
    21
 71
     2
 72
     2
 73
     0
 90
        0
 40
0.6
 41
30.0
 62
     5
 63
     7
 74
     1
 91
        4
 64
     7
 65
   257
 75
     1
175
     1
 42
1.0
 92
        9
 66
     7
 43
1.0
 76
     1
 77
     6
 78
     2
 67
     7
 79
     5
170
     0
171
     0
290
     0
174
     0
 93
        1
 44
0.0
173
     0
291
     1
 45
0.0
1001
ACAD
1000
AcDbSavedByObjectVersion
1070
     0
  0
VISUALSTYLE
  5
33
102
{ACAD_REACTORS
330
2A
102
}
102
{ACAD_XDICTIONARY
360
266
102
}
330
2A
100
AcDbVisualStyle
  2
Realistic
 70
     8
 71
     2
 72
     3
 73
     0
 90
        2
 40
0.6
 41
30.0
 62
     5
 63
     7
 74
     0
 91
        0
 64
     7
 65
   257
 75
     1
175
     1
 42
1.0
 92
        8
 66
   257
 43
1.0
 76
     1
 77
     6
 78
     2
 67
     7
 79
     3
170
     0
171
     0
290
     0
174
     0
 93
       13
 44
0.0
173
     0
291
     0
 45
0.0
1001
ACAD
1000
AcDbSavedByObjectVersion
1070
     0
  0
VISUALSTYLE
  5
42
102
{ACAD_REACTORS
330
2A
102
}
102
{ACAD_XDICTIONARY
360
284
102
}
330
2A
100
AcDbVisualStyle
  2
Shaded
 70
    27
 71
     2
 72
     2
 73
     1
 90
        2
 40
0.6
 41
30.0
 62
     5
 63
     7
 74
     0
 91
        4
 64
     7
 65
   257
 75
     1
175
     1
 42
1.0
 92
        8
 66
   257
 43
1.0
 76
     1
 77
     6
 78
     2
 67
     8
 79
     3
170
     0
171
     0
290
     0
174
     0
 93
        5
 44
0.0
173
     0
291
     0
 45
0.0
1001
ACAD
1000
AcDbSavedByObjectVersion
1070
     0
  0
VISUALSTYLE
  5
41
102
{ACAD_REACTORS
330
2A
102
}
102
{ACAD_XDICTIONARY
360
282
102
}
330
2A
100
AcDbVisualStyle
  2
Shaded with edges
 70
    26
 71
     2
 72
     2
 73
     1
 90
        2
 40
0.6
 41
30.0
 62
     5
 63
     7
 74
     1
 91
       10
 64
     7
 65
   257
 75
     2
175
     1
 42
1.0
 92
        8
 66
   257
 43
1.0
 76
     1
 77
     6
 78
     2
 67
     7
 79
     3
170
     0
171
     0
290
     0
174
     0
 93
        5
 44
0.0
173
     0
291
     0
 45
0.0
1001
ACAD
1000
AcDbSavedByObjectVersion
1070
     0
  0
VISUALSTYLE
  5
3E
102
{ACAD_REACTORS
330
2A
102
}
102
{ACAD_XDICTIONARY
360
27C
102
}
330
2A
100
AcDbVisualStyle
  2
Shades of Gray
 70
    23
 71
     2
 72
     2
 73
     3
 90
        0
 40
0.6
 41
30.0
 62
     5
 63
     7
 74
     2
 91
        2
 64
     7
 65
     7
 75
     1
175
     1
 42
40.0
 92
        8
 66
     7
 43
1.0
 76
     1
 77
     6
 78
     2
 67
     7
 79
     3
170
     0
171
     0
290
     0
174
     0
 93
        1
 44
0.0
173
     0
291
     0
 45
0.0
1001
ACAD
1000
AcDbSavedByObjectVersion
1070
     0
  0
VISUALSTYLE
  5
3F
102
{ACAD_REACTORS
330
2A
102
}
102
{ACAD_XDICTIONARY
360
27E
102
}
330
2A
100
AcDbVisualStyle
  2
Sketchy
 70
    24
 71
     1
 72
     2
 73
     2
 90
        0
 40
0.6
 41
30.0
 62
     5
 63
     7
 74
     2
 91
        2
 64
     7
 65
     7
 75
     1
175
     1
 42
40.0
 92
       11
 66
     7
 43
1.0
 76
     1
 77
     6
 78
     2
 67
     7
 79
     6
170
     0
171
     0
290
     0
174
     0
 93
        1
 44
0.0
173
     0
291
     0
 45
0.0
1001
ACAD
1000
AcDbSavedByObjectVersion
1070
     0
  0
VISUALSTYLE
  5
37
102
{ACAD_REACTORS
330
2A
102
}
102
{ACAD_XDICTIONARY
360
26E
102
}
330
2A
100
AcDbVisualStyle
  2
Thicken
 70
    13
 71
     2
 72
     2
 73
     0
 90
        0
 40
0.6
 41
30.0
 62
     5
 63
     7
 74
     1
 91
        4
 64
     7
 65
   257
 75
     1
175
     1
 42
1.0
 92
       12
 66
     7
 43
1.0
 76
     1
 77
     6
 78
     2
 67
     7
 79
     5
170
     0
171
     0
290
     0
174
     0
 93
        1
 44
0.0
173
     0
291
     1
 45
0.0
1001
ACAD
1000
AcDbSavedByObjectVersion
1070
     0
  0
VISUALSTYLE
  5
30
102
{ACAD_REACTORS
330
2A
102
}
102
{ACAD_XDICTIONARY
360
260
102
}
330
2A
100
AcDbVisualStyle
  2
Wireframe
 70
     5
 71
     0
 72
     2
 73
     0
 90
        0
 40
0.6
 41
30.0
 62
     5
 63
     7
 74
     1
 91
        4
 64
     7
 65
   257
 75
     1
175
     1
 42
1.0
 92
        0
 66
   257
 43
1.0
 76
     1
 77
     6
 78
     2
 67
     7
 79
     3
170
     0
171
     0
290
     0
174
     0
 93
        1
 44
0.0
173
     0
291
     0
 45
0.0
1001
ACAD
1000
AcDbSavedByObjectVersion
1070
     0
  0
VISUALSTYLE
  5
40
102
{ACAD_REACTORS
330
2A
102
}
102
{ACAD_XDICTIONARY
360
280
102
}
330
2A
100
AcDbVisualStyle
  2
X-Ray
 70
    25
 71
     2
 72
     2
 73
     1
 90
        1
 40
0.5
 41
30.0
 62
     5
 63
     7
 74
     1
 91
        0
 64
     7
 65
   257
 75
     1
175
     1
 42
1.0
 92
        8
 66
     7
 43
1.0
 76
     1
 77
     6
 78
     2
 67
     7
 79
     3
170
     0
171
     0
290
     0
174
     0
 93
       13
 44
0.0
173
     0
291
     0
 45
0.0
1001
ACAD
1000
AcDbSavedByObjectVersion
1070
     0
  0
DICTIONARYVAR
  5
254
102
{ACAD_REACTORS
330
247
102
}
330
247
100
DictionaryVariables
280
     0
  1
1:1
  0
DICTIONARYVAR
  5
24E
102
{ACAD_REACTORS
330
247
102
}
330
247
100
DictionaryVariables
280
     0
  1
3.500000
  0
DICTIONARYVAR
  5
24F
102
{ACAD_REACTORS
330
247
102
}
330
247
100
DictionaryVariables
280
     0
  1
acadiso.lin
  0
DICTIONARYVAR
  5
249
102
{ACAD_REACTORS
330
247
102
}
330
247
100
DictionaryVariables
280
     0
  1
Standard
  0
DICTIONARYVAR
  5
248
102
{ACAD_REACTORS
330
247
102
}
330
247
100
DictionaryVariables
280
     0
  1
Standard
  0
DICTIONARYVAR
  5
250
102
{ACAD_REACTORS
330
247
102
}
330
247
100
DictionaryVariables
280
     0
  1
2
  0
DICTIONARYVAR
  5
251
102
{ACAD_REACTORS
330
247
102
}
330
247
100
DictionaryVariables
280
     0
  1
1
  0
DICTIONARYVAR
  5
255
102
{ACAD_REACTORS
330
247
102
}
330
247
100
DictionaryVariables
280
     0
  1
1
  0
DICTIONARYVAR
  5
24B
102
{ACAD_REACTORS
330
247
102
}
330
247
100
DictionaryVariables
280
     0
  1
80.000000
  0
DICTIONARYVAR
  5
24A
102
{ACAD_REACTORS
330
247
102
}
330
247
100
DictionaryVariables
280
     0
  1
5.000000
  0
DICTIONARY
  5
288
330
45
100
AcDbDictionary
280
     1
281
     1
  3
ACAD_XREC_ROUNDTRIP
360
289
  0
DICTIONARY
  5
286
330
44
100
AcDbDictionary
280
     1
281
     1
  3
ACAD_XREC_ROUNDTRIP
360
287
  0
DICTIONARY
  5
28A
330
46
100
AcDbDictionary
280
     1
281
     1
  3
ACAD_XREC_ROUNDTRIP
360
28B
  0
DICTIONARY
  5
28D
330
6C
100
AcDbDictionary
280
     1
281
     1
  3
ACAD_XREC_ROUNDTRIP
360
28E
  0
DICTIONARY
  5
25E
330
2F
100
AcDbDictionary
280
     1
281
     1
  3
ACAD_XREC_ROUNDTRIP
360
25F
  0
DICTIONARY
  5
264
330
32
100
AcDbDictionary
280
     1
281
     1
  3
ACAD_XREC_ROUNDTRIP
360
265
  0
DICTIONARY
  5
26C
330
36
100
AcDbDictionary
280
     1
281
     1
  3
ACAD_XREC_ROUNDTRIP
360
26D
  0
DICTIONARY
  5
274
330
3A
100
AcDbDictionary
280
     1
281
     1
  3
ACAD_XREC_ROUNDTRIP
360
275
  0
DICTIONARY
  5
268
330
34
100
AcDbDictionary
280
     1
281
     1
  3
ACAD_XREC_ROUNDTRIP
360
269
  0
DICTIONARY
  5
26A
330
35
100
AcDbDictionary
280
     1
281
     1
  3
ACAD_XREC_ROUNDTRIP
360
26B
  0
DICTIONARY
  5
27A
330
3D
100
AcDbDictionary
280
     1
281
     1
  3
ACAD_XREC_ROUNDTRIP
360
27B
  0
DICTIONARY
  5
272
330
39
100
AcDbDictionary
280
     1
281
     1
  3
ACAD_XREC_ROUNDTRIP
360
273
  0
DICTIONARY
  5
256
330
2B
100
AcDbDictionary
280
     1
281
     1
  3
ACAD_XREC_ROUNDTRIP
360
257
  0
DICTIONARY
  5
258
330
2C
100
AcDbDictionary
280
     1
281
     1
  3
ACAD_XREC_ROUNDTRIP
360
259
  0
DICTIONARY
  5
25A
330
2D
100
AcDbDictionary
280
     1
281
     1
  3
ACAD_XREC_ROUNDTRIP
360
25B
  0
DICTIONARY
  5
25C
330
2E
100
AcDbDictionary
280
     1
281
     1
  3
ACAD_XREC_ROUNDTRIP
360
25D
  0
DICTIONARY
  5
262
330
31
100
AcDbDictionary
280
     1
281
     1
  3
ACAD_XREC_ROUNDTRIP
360
263
  0
DICTIONARY
  5
276
330
3B
100
AcDbDictionary
280
     1
281
     1
  3
ACAD_XREC_ROUNDTRIP
360
277
  0
DICTIONARY
  5
270
330
38
100
AcDbDictionary
280
     1
281
     1
  3
ACAD_XREC_ROUNDTRIP
360
271
  0
DICTIONARY
  5
278
330
3C
100
AcDbDictionary
280
     1
281
     1
  3
ACAD_XREC_ROUNDTRIP
360
279
  0
DICTIONARY
  5
266
330
33
100
AcDbDictionary
280
     1
281
     1
  3
ACAD_XREC_ROUNDTRIP
360
267
  0
DICTIONARY
  5
284
330
42
100
AcDbDictionary
280
     1
281
     1
  3
ACAD_XREC_ROUNDTRIP
360
285
  0
DICTIONARY
  5
282
330
41
100
AcDbDictionary
280
     1
281
     1
  3
ACAD_XREC_ROUNDTRIP
360
283
  0
DICTIONARY
  5
27C
330
3E
100
AcDbDictionary
280
     1
281
     1
  3
ACAD_XREC_ROUNDTRIP
360
27D
  0
DICTIONARY
  5
27E
330
3F
100
AcDbDictionary
280
     1
281
     1
  3
ACAD_XREC_ROUNDTRIP
360
27F
  0
DICTIONARY
  5
26E
330
37
100
AcDbDictionary
280
     1
281
     1
  3
ACAD_XREC_ROUNDTRIP
360
26F
  0
DICTIONARY
  5
260
330
30
100
AcDbDictionary
280
     1
281
     1
  3
ACAD_XREC_ROUNDTRIP
360
261
  0
DICTIONARY
  5
280
330
40
100
AcDbDictionary
280
     1
281
     1
  3
ACAD_XREC_ROUNDTRIP
360
281
  0
XRECORD
  5
289
102
{ACAD_REACTORS
330
288
102
}
330
288
100
AcDbXrecord
280
     1
102
MATERIAL
148
0.0
149
0.0
149
0.0
 93
        0
 94
      127
282
     0
 72
     1
 77
     1
171
     1
175
     1
179
     1
273
     0
  0
XRECORD
  5
287
102
{ACAD_REACTORS
330
286
102
}
330
286
100
AcDbXrecord
280
     1
102
MATERIAL
148
0.0
149
0.0
149
0.0
 93
        0
 94
      127
282
     0
 72
     1
 77
     1
171
     1
175
     1
179
     1
273
     0
  0
XRECORD
  5
28B
102
{ACAD_REACTORS
330
28A
102
}
330
28A
100
AcDbXrecord
280
     1
102
MATERIAL
148
0.0
149
0.0
149
0.0
 93
        0
 94
      127
282
     0
 72
     1
 77
     1
171
     1
175
     1
179
     1
273
     0
  0
XRECORD
  5
28E
102
{ACAD_REACTORS
330
28D
102
}
330
28D
100
AcDbXrecord
280
     1
102
ACAD_ROUNDTRIP_2010_MLEADER_STYLE
  0
XRECORD
  5
25F
102
{ACAD_REACTORS
330
25E
102
}
330
25E
100
AcDbXrecord
280
     1
102
RTVSPropertyOp0
 70
     1
102
RTVSPropertyOp1
 70
     1
102
RTVSPropertyOp2
 70
     1
102
RTVSPropertyOp3
 70
     1
102
RTVSPropertyOp4
 70
     1
102
RTVSPropertyOp5
 70
     1
102
RTVSPropertyOp6
 70
     1
102
RTVSPropertyOp7
 70
     1
102
RTVSPropertyOp8
 70
     1
102
RTVSPropertyOp9
 70
     1
102
RTVSPropertyOp10
 70
     1
102
RTVSPropertyOp11
 70
     1
102
RTVSPropertyOp12
 70
     1
102
RTVSPropertyOp13
 70
     1
102
RTVSPropertyOp14
 70
     1
102
RTVSPropertyOp15
 70
     1
102
RTVSPropertyOp16
 70
     1
102
RTVSPropertyOp17
 70
     1
102
RTVSPropertyOp18
 70
     1
102
RTVSPropertyOp19
 70
     1
102
RTVSPropertyOp20
 70
     1
102
RTVSPropertyOp21
 70
     1
102
RTVSPropertyOp22
 70
     1
102
RTVSPropertyOp23
 70
     1
102
RTVSPropertyOp24
 70
     1
102
RTVSPropertyOp25
 70
     1
102
RTVSPropertyOp26
 70
     1
102
RTVSPropertyOp27
 70
     1
102
RTVSPropertyOp28
 70
     1
102
RTVSPropertyOp29
 70
     1
102
RTVSPropertyOp30
 70
     1
102
RTVSPropertyOp31
 70
     1
102
RTVSPropertyOp32
 70
     1
102
RTVSPropertyOp33
 70
     1
102
RTVSPropertyOp34
 70
     1
102
RTVSPropertyOp35
 70
     1
102
RTVSPropertyOp36
 70
     1
102
RTVSPropertyOp37
 70
     1
102
RTVSPropertyOp38
 70
     1
102
RTVSPropertyOp39
 70
     1
102
RTVSPropertyOp40
 70
     1
102
RTVSPropertyOp41
 70
     1
102
RTVSPropertyOp42
 70
     1
102
RTVSPropertyOp43
 70
     1
102
RTVSPropertyOp44
 70
     1
102
RTVSPropertyOp45
 70
     1
102
RTVSPropertyOp46
 70
     1
102
RTVSPropertyOp47
 70
     1
102
RTVSPropertyOp48
 70
     1
102
RTVSPropertyOp49
 70
     1
102
RTVSPropertyOp50
 70
     1
102
RTVSPropertyOp51
 70
     0
102
RTVSPropertyOp52
 70
     0
102
RTVSPropertyOp53
 70
     1
102
RTVSPropertyOp54
 70
     1
102
RTVSPropertyOp55
 70
     1
102
RTVSPropertyOp56
 70
     1
102
RTVSPropertyOp57
 70
     1
102
RTVSPost2010Prop28
280
     1
102
RTVSPost2010PropOp28
 70
     1
102
RTVSPost2010Prop29
280
     1
102
RTVSPost2010PropOp29
 70
     1
102
RTVSPost2010Prop30
280
     0
102
RTVSPost2010PropOp30
 70
     1
102
RTVSPost2010Prop31
280
     0
102
RTVSPost2010PropOp31
 70
     1
102
RTVSPost2010Prop32
280
     0
102
RTVSPost2010PropOp32
 70
     1
102
RTVSPost2010Prop33
280
     0
102
RTVSPost2010PropOp33
 70
     1
102
RTVSPost2010Prop34
280
     0
102
RTVSPost2010PropOp34
 70
     1
102
RTVSPost2010Prop35
280
     0
102
RTVSPost2010PropOp35
 70
     1
102
RTVSPost2010Prop36
280
     0
102
RTVSPost2010PropOp36
 70
     1
102
RTVSPost2010Prop37
 90
       50
102
RTVSPost2010PropOp37
 70
     1
102
RTVSPost2010Prop38
140
0.0
102
RTVSPost2010PropOp38
 70
     1
102
RTVSPost2010Prop39
140
1.0
102
RTVSPost2010PropOp39
 70
     1
102
RTVSPost2010Prop40
 90
        0
102
RTVSPost2010PropOp40
 70
     1
102
RTVSPost2010Prop41ColorIndex
 90
       18
102
RTVSPost2010Prop41ColorRGB
 90
        0
102
RTVSPost2010PropOp41
 70
     1
102
RTVSPost2010Prop42
 90
       50
102
RTVSPost2010PropOp42
 70
     1
102
RTVSPost2010Prop43
 90
        3
102
RTVSPost2010PropOp43
 70
     1
102
RTVSPost2010Prop44ColorIndex
 90
        5
102
RTVSPost2010Prop44ColorRGB
 90
      255
102
RTVSPost2010PropOp44
 70
     1
102
RTVSPost2010Prop45
280
     0
102
RTVSPost2010PropOp45
 70
     1
102
RTVSPost2010Prop46
 90
       50
102
RTVSPost2010PropOp46
 70
     1
102
RTVSPost2010Prop47
 90
       50
102
RTVSPost2010PropOp47
 70
     1
102
RTVSPost2010Prop48
 90
       50
102
RTVSPost2010PropOp48
 70
     1
102
RTVSPost2010Prop49
280
     0
102
RTVSPost2010PropOp49
 70
     1
102
RTVSPost2010Prop50
 90
       50
102
RTVSPost2010PropOp50
 70
     1
102
RTVSPost2010Prop51ColorIndex
 90
      256
102
RTVSPost2010Prop51ColorRGB
 90
-16777216
102
RTVSPost2010PropOp51
 70
     0
102
RTVSPost2010Prop52
140
1.0
102
RTVSPost2010PropOp52
 70
     0
102
RTVSPost2010Prop53
 90
        2
102
RTVSPost2010PropOp53
 70
     1
102
RTVSPost2010Prop54
  1
strokes_ogs.tif
102
RTVSPost2010PropOp54
 70
     1
102
RTVSPost2010Prop55
280
     0
102
RTVSPost2010PropOp55
 70
     1
102
RTVSPost2010Prop56
140
1.0
102
RTVSPost2010PropOp56
 70
     1
102
RTVSPost2010Prop57
140
1.0
102
RTVSPost2010PropOp57
 70
     1
  0
XRECORD
  5
265
102
{ACAD_REACTORS
330
264
102
}
330
264
100
AcDbXrecord
280
     1
102
RTVSPropertyOp0
 70
     1
102
RTVSPropertyOp1
 70
     1
102
RTVSPropertyOp2
 70
     1
102
RTVSPropertyOp3
 70
     1
102
RTVSPropertyOp4
 70
     1
102
RTVSPropertyOp5
 70
     1
102
RTVSPropertyOp6
 70
     1
102
RTVSPropertyOp7
 70
     1
102
RTVSPropertyOp8
 70
     1
102
RTVSPropertyOp9
 70
     1
102
RTVSPropertyOp10
 70
     1
102
RTVSPropertyOp11
 70
     1
102
RTVSPropertyOp12
 70
     1
102
RTVSPropertyOp13
 70
     1
102
RTVSPropertyOp14
 70
     1
102
RTVSPropertyOp15
 70
     1
102
RTVSPropertyOp16
 70
     1
102
RTVSPropertyOp17
 70
     1
102
RTVSPropertyOp18
 70
     1
102
RTVSPropertyOp19
 70
     1
102
RTVSPropertyOp20
 70
     1
102
RTVSPropertyOp21
 70
     1
102
RTVSPropertyOp22
 70
     1
102
RTVSPropertyOp23
 70
     1
102
RTVSPropertyOp24
 70
     1
102
RTVSPropertyOp25
 70
     1
102
RTVSPropertyOp26
 70
     1
102
RTVSPropertyOp27
 70
     1
102
RTVSPropertyOp28
 70
     1
102
RTVSPropertyOp29
 70
     1
102
RTVSPropertyOp30
 70
     1
102
RTVSPropertyOp31
 70
     1
102
RTVSPropertyOp32
 70
     1
102
RTVSPropertyOp33
 70
     1
102
RTVSPropertyOp34
 70
     1
102
RTVSPropertyOp35
 70
     1
102
RTVSPropertyOp36
 70
     1
102
RTVSPropertyOp37
 70
     1
102
RTVSPropertyOp38
 70
     1
102
RTVSPropertyOp39
 70
     1
102
RTVSPropertyOp40
 70
     1
102
RTVSPropertyOp41
 70
     1
102
RTVSPropertyOp42
 70
     1
102
RTVSPropertyOp43
 70
     1
102
RTVSPropertyOp44
 70
     1
102
RTVSPropertyOp45
 70
     1
102
RTVSPropertyOp46
 70
     1
102
RTVSPropertyOp47
 70
     1
102
RTVSPropertyOp48
 70
     1
102
RTVSPropertyOp49
 70
     1
102
RTVSPropertyOp50
 70
     1
102
RTVSPropertyOp51
 70
     0
102
RTVSPropertyOp52
 70
     0
102
RTVSPropertyOp53
 70
     1
102
RTVSPropertyOp54
 70
     1
102
RTVSPropertyOp55
 70
     1
102
RTVSPropertyOp56
 70
     1
102
RTVSPropertyOp57
 70
     1
102
RTVSPost2010Prop28
280
     0
102
RTVSPost2010PropOp28
 70
     1
102
RTVSPost2010Prop29
280
     1
102
RTVSPost2010PropOp29
 70
     1
102
RTVSPost2010Prop30
280
     1
102
RTVSPost2010PropOp30
 70
     1
102
RTVSPost2010Prop31
280
     0
102
RTVSPost2010PropOp31
 70
     1
102
RTVSPost2010Prop32
280
     0
102
RTVSPost2010PropOp32
 70
     1
102
RTVSPost2010Prop33
280
     0
102
RTVSPost2010PropOp33
 70
     1
102
RTVSPost2010Prop34
280
     0
102
RTVSPost2010PropOp34
 70
     1
102
RTVSPost2010Prop35
280
     0
102
RTVSPost2010PropOp35
 70
     1
102
RTVSPost2010Prop36
280
     0
102
RTVSPost2010PropOp36
 70
     1
102
RTVSPost2010Prop37
 90
       50
102
RTVSPost2010PropOp37
 70
     1
102
RTVSPost2010Prop38
140
0.0
102
RTVSPost2010PropOp38
 70
     1
102
RTVSPost2010Prop39
140
1.0
102
RTVSPost2010PropOp39
 70
     1
102
RTVSPost2010Prop40
 90
        0
102
RTVSPost2010PropOp40
 70
     1
102
RTVSPost2010Prop41ColorIndex
 90
       18
102
RTVSPost2010Prop41ColorRGB
 90
        0
102
RTVSPost2010PropOp41
 70
     1
102
RTVSPost2010Prop42
 90
       50
102
RTVSPost2010PropOp42
 70
     1
102
RTVSPost2010Prop43
 90
        3
102
RTVSPost2010PropOp43
 70
     1
102
RTVSPost2010Prop44ColorIndex
 90
        5
102
RTVSPost2010Prop44ColorRGB
 90
      255
102
RTVSPost2010PropOp44
 70
     1
102
RTVSPost2010Prop45
280
     0
102
RTVSPost2010PropOp45
 70
     1
102
RTVSPost2010Prop46
 90
       50
102
RTVSPost2010PropOp46
 70
     1
102
RTVSPost2010Prop47
 90
       50
102
RTVSPost2010PropOp47
 70
     1
102
RTVSPost2010Prop48
 90
       50
102
RTVSPost2010PropOp48
 70
     1
102
RTVSPost2010Prop49
280
     0
102
RTVSPost2010PropOp49
 70
     1
102
RTVSPost2010Prop50
 90
       50
102
RTVSPost2010PropOp50
 70
     1
102
RTVSPost2010Prop51ColorIndex
 90
      256
102
RTVSPost2010Prop51ColorRGB
 90
-16777216
102
RTVSPost2010PropOp51
 70
     0
102
RTVSPost2010Prop52
140
1.0
102
RTVSPost2010PropOp52
 70
     0
102
RTVSPost2010Prop53
 90
        2
102
RTVSPost2010PropOp53
 70
     1
102
RTVSPost2010Prop54
  1
strokes_ogs.tif
102
RTVSPost2010PropOp54
 70
     1
102
RTVSPost2010Prop55
280
     0
102
RTVSPost2010PropOp55
 70
     1
102
RTVSPost2010Prop56
140
1.0
102
RTVSPost2010PropOp56
 70
     1
102
RTVSPost2010Prop57
140
1.0
102
RTVSPost2010PropOp57
 70
     1
  0
XRECORD
  5
26D
102
{ACAD_REACTORS
330
26C
102
}
330
26C
100
AcDbXrecord
280
     1
102
RTVSPropertyOp0
 70
     1
102
RTVSPropertyOp1
 70
     1
102
RTVSPropertyOp2
 70
     1
102
RTVSPropertyOp3
 70
     1
102
RTVSPropertyOp4
 70
     1
102
RTVSPropertyOp5
 70
     1
102
RTVSPropertyOp6
 70
     1
102
RTVSPropertyOp7
 70
     1
102
RTVSPropertyOp8
 70
     1
102
RTVSPropertyOp9
 70
     1
102
RTVSPropertyOp10
 70
     1
102
RTVSPropertyOp11
 70
     1
102
RTVSPropertyOp12
 70
     1
102
RTVSPropertyOp13
 70
     1
102
RTVSPropertyOp14
 70
     1
102
RTVSPropertyOp15
 70
     1
102
RTVSPropertyOp16
 70
     1
102
RTVSPropertyOp17
 70
     1
102
RTVSPropertyOp18
 70
     1
102
RTVSPropertyOp19
 70
     1
102
RTVSPropertyOp20
 70
     1
102
RTVSPropertyOp21
 70
     1
102
RTVSPropertyOp22
 70
     1
102
RTVSPropertyOp23
 70
     1
102
RTVSPropertyOp24
 70
     1
102
RTVSPropertyOp25
 70
     1
102
RTVSPropertyOp26
 70
     1
102
RTVSPropertyOp27
 70
     1
102
RTVSPropertyOp28
 70
     1
102
RTVSPropertyOp29
 70
     1
102
RTVSPropertyOp30
 70
     1
102
RTVSPropertyOp31
 70
     1
102
RTVSPropertyOp32
 70
     1
102
RTVSPropertyOp33
 70
     1
102
RTVSPropertyOp34
 70
     1
102
RTVSPropertyOp35
 70
     1
102
RTVSPropertyOp36
 70
     1
102
RTVSPropertyOp37
 70
     1
102
RTVSPropertyOp38
 70
     1
102
RTVSPropertyOp39
 70
     1
102
RTVSPropertyOp40
 70
     1
102
RTVSPropertyOp41
 70
     1
102
RTVSPropertyOp42
 70
     1
102
RTVSPropertyOp43
 70
     1
102
RTVSPropertyOp44
 70
     1
102
RTVSPropertyOp45
 70
     1
102
RTVSPropertyOp46
 70
     1
102
RTVSPropertyOp47
 70
     1
102
RTVSPropertyOp48
 70
     1
102
RTVSPropertyOp49
 70
     1
102
RTVSPropertyOp50
 70
     1
102
RTVSPropertyOp51
 70
     0
102
RTVSPropertyOp52
 70
     0
102
RTVSPropertyOp53
 70
     1
102
RTVSPropertyOp54
 70
     1
102
RTVSPropertyOp55
 70
     1
102
RTVSPropertyOp56
 70
     1
102
RTVSPropertyOp57
 70
     1
102
RTVSPost2010Prop28
280
     0
102
RTVSPost2010PropOp28
 70
     1
102
RTVSPost2010Prop29
280
     1
102
RTVSPost2010PropOp29
 70
     1
102
RTVSPost2010Prop30
280
     1
102
RTVSPost2010PropOp30
 70
     1
102
RTVSPost2010Prop31
280
     0
102
RTVSPost2010PropOp31
 70
     1
102
RTVSPost2010Prop32
280
     0
102
RTVSPost2010PropOp32
 70
     1
102
RTVSPost2010Prop33
280
     0
102
RTVSPost2010PropOp33
 70
     1
102
RTVSPost2010Prop34
280
     0
102
RTVSPost2010PropOp34
 70
     1
102
RTVSPost2010Prop35
280
     0
102
RTVSPost2010PropOp35
 70
     1
102
RTVSPost2010Prop36
280
     0
102
RTVSPost2010PropOp36
 70
     1
102
RTVSPost2010Prop37
 90
       50
102
RTVSPost2010PropOp37
 70
     1
102
RTVSPost2010Prop38
140
0.0
102
RTVSPost2010PropOp38
 70
     1
102
RTVSPost2010Prop39
140
1.0
102
RTVSPost2010PropOp39
 70
     1
102
RTVSPost2010Prop40
 90
        0
102
RTVSPost2010PropOp40
 70
     1
102
RTVSPost2010Prop41ColorIndex
 90
       18
102
RTVSPost2010Prop41ColorRGB
 90
        0
102
RTVSPost2010PropOp41
 70
     1
102
RTVSPost2010Prop42
 90
       50
102
RTVSPost2010PropOp42
 70
     1
102
RTVSPost2010Prop43
 90
        3
102
RTVSPost2010PropOp43
 70
     1
102
RTVSPost2010Prop44ColorIndex
 90
        5
102
RTVSPost2010Prop44ColorRGB
 90
      255
102
RTVSPost2010PropOp44
 70
     1
102
RTVSPost2010Prop45
280
     0
102
RTVSPost2010PropOp45
 70
     1
102
RTVSPost2010Prop46
 90
       50
102
RTVSPost2010PropOp46
 70
     1
102
RTVSPost2010Prop47
 90
       50
102
RTVSPost2010PropOp47
 70
     1
102
RTVSPost2010Prop48
 90
       50
102
RTVSPost2010PropOp48
 70
     1
102
RTVSPost2010Prop49
280
     0
102
RTVSPost2010PropOp49
 70
     1
102
RTVSPost2010Prop50
 90
       50
102
RTVSPost2010PropOp50
 70
     1
102
RTVSPost2010Prop51ColorIndex
 90
      256
102
RTVSPost2010Prop51ColorRGB
 90
-16777216
102
RTVSPost2010PropOp51
 70
     0
102
RTVSPost2010Prop52
140
1.0
102
RTVSPost2010PropOp52
 70
     0
102
RTVSPost2010Prop53
 90
        2
102
RTVSPost2010PropOp53
 70
     1
102
RTVSPost2010Prop54
  1
strokes_ogs.tif
102
RTVSPost2010PropOp54
 70
     1
102
RTVSPost2010Prop55
280
     0
102
RTVSPost2010PropOp55
 70
     1
102
RTVSPost2010Prop56
140
1.0
102
RTVSPost2010PropOp56
 70
     1
102
RTVSPost2010Prop57
140
1.0
102
RTVSPost2010PropOp57
 70
     1
  0
XRECORD
  5
275
102
{ACAD_REACTORS
330
274
102
}
330
274
100
AcDbXrecord
280
     1
102
RTVSPropertyOp0
 70
     1
102
RTVSPropertyOp1
 70
     1
102
RTVSPropertyOp2
 70
     1
102
RTVSPropertyOp3
 70
     1
102
RTVSPropertyOp4
 70
     1
102
RTVSPropertyOp5
 70
     1
102
RTVSPropertyOp6
 70
     1
102
RTVSPropertyOp7
 70
     1
102
RTVSPropertyOp8
 70
     1
102
RTVSPropertyOp9
 70
     1
102
RTVSPropertyOp10
 70
     1
102
RTVSPropertyOp11
 70
     1
102
RTVSPropertyOp12
 70
     1
102
RTVSPropertyOp13
 70
     1
102
RTVSPropertyOp14
 70
     1
102
RTVSPropertyOp15
 70
     1
102
RTVSPropertyOp16
 70
     1
102
RTVSPropertyOp17
 70
     1
102
RTVSPropertyOp18
 70
     1
102
RTVSPropertyOp19
 70
     1
102
RTVSPropertyOp20
 70
     1
102
RTVSPropertyOp21
 70
     1
102
RTVSPropertyOp22
 70
     1
102
RTVSPropertyOp23
 70
     1
102
RTVSPropertyOp24
 70
     1
102
RTVSPropertyOp25
 70
     1
102
RTVSPropertyOp26
 70
     1
102
RTVSPropertyOp27
 70
     1
102
RTVSPropertyOp28
 70
     1
102
RTVSPropertyOp29
 70
     1
102
RTVSPropertyOp30
 70
     1
102
RTVSPropertyOp31
 70
     1
102
RTVSPropertyOp32
 70
     1
102
RTVSPropertyOp33
 70
     1
102
RTVSPropertyOp34
 70
     1
102
RTVSPropertyOp35
 70
     1
102
RTVSPropertyOp36
 70
     1
102
RTVSPropertyOp37
 70
     1
102
RTVSPropertyOp38
 70
     1
102
RTVSPropertyOp39
 70
     1
102
RTVSPropertyOp40
 70
     1
102
RTVSPropertyOp41
 70
     1
102
RTVSPropertyOp42
 70
     1
102
RTVSPropertyOp43
 70
     1
102
RTVSPropertyOp44
 70
     1
102
RTVSPropertyOp45
 70
     1
102
RTVSPropertyOp46
 70
     1
102
RTVSPropertyOp47
 70
     1
102
RTVSPropertyOp48
 70
     1
102
RTVSPropertyOp49
 70
     1
102
RTVSPropertyOp50
 70
     1
102
RTVSPropertyOp51
 70
     0
102
RTVSPropertyOp52
 70
     0
102
RTVSPropertyOp53
 70
     1
102
RTVSPropertyOp54
 70
     1
102
RTVSPropertyOp55
 70
     1
102
RTVSPropertyOp56
 70
     1
102
RTVSPropertyOp57
 70
     1
102
RTVSPost2010Prop28
280
     0
102
RTVSPost2010PropOp28
 70
     1
102
RTVSPost2010Prop29
280
     1
102
RTVSPost2010PropOp29
 70
     1
102
RTVSPost2010Prop30
280
     1
102
RTVSPost2010PropOp30
 70
     1
102
RTVSPost2010Prop31
280
     0
102
RTVSPost2010PropOp31
 70
     1
102
RTVSPost2010Prop32
280
     0
102
RTVSPost2010PropOp32
 70
     1
102
RTVSPost2010Prop33
280
     0
102
RTVSPost2010PropOp33
 70
     1
102
RTVSPost2010Prop34
280
     0
102
RTVSPost2010PropOp34
 70
     1
102
RTVSPost2010Prop35
280
     0
102
RTVSPost2010PropOp35
 70
     1
102
RTVSPost2010Prop36
280
     0
102
RTVSPost2010PropOp36
 70
     1
102
RTVSPost2010Prop37
 90
       50
102
RTVSPost2010PropOp37
 70
     1
102
RTVSPost2010Prop38
140
0.0
102
RTVSPost2010PropOp38
 70
     1
102
RTVSPost2010Prop39
140
1.0
102
RTVSPost2010PropOp39
 70
     1
102
RTVSPost2010Prop40
 90
        0
102
RTVSPost2010PropOp40
 70
     1
102
RTVSPost2010Prop41ColorIndex
 90
       18
102
RTVSPost2010Prop41ColorRGB
 90
        0
102
RTVSPost2010PropOp41
 70
     1
102
RTVSPost2010Prop42
 90
       50
102
RTVSPost2010PropOp42
 70
     1
102
RTVSPost2010Prop43
 90
        3
102
RTVSPost2010PropOp43
 70
     1
102
RTVSPost2010Prop44ColorIndex
 90
        5
102
RTVSPost2010Prop44ColorRGB
 90
      255
102
RTVSPost2010PropOp44
 70
     1
102
RTVSPost2010Prop45
280
     0
102
RTVSPost2010PropOp45
 70
     1
102
RTVSPost2010Prop46
 90
       50
102
RTVSPost2010PropOp46
 70
     1
102
RTVSPost2010Prop47
 90
       50
102
RTVSPost2010PropOp47
 70
     1
102
RTVSPost2010Prop48
 90
       50
102
RTVSPost2010PropOp48
 70
     1
102
RTVSPost2010Prop49
280
     0
102
RTVSPost2010PropOp49
 70
     1
102
RTVSPost2010Prop50
 90
       50
102
RTVSPost2010PropOp50
 70
     1
102
RTVSPost2010Prop51ColorIndex
 90
      256
102
RTVSPost2010Prop51ColorRGB
 90
-16777216
102
RTVSPost2010PropOp51
 70
     0
102
RTVSPost2010Prop52
140
1.0
102
RTVSPost2010PropOp52
 70
     0
102
RTVSPost2010Prop53
 90
        2
102
RTVSPost2010PropOp53
 70
     1
102
RTVSPost2010Prop54
  1
strokes_ogs.tif
102
RTVSPost2010PropOp54
 70
     1
102
RTVSPost2010Prop55
280
     0
102
RTVSPost2010PropOp55
 70
     1
102
RTVSPost2010Prop56
140
1.0
102
RTVSPost2010PropOp56
 70
     1
102
RTVSPost2010Prop57
140
1.0
102
RTVSPost2010PropOp57
 70
     1
  0
XRECORD
  5
269
102
{ACAD_REACTORS
330
268
102
}
330
268
100
AcDbXrecord
280
     1
102
RTVSPropertyOp0
 70
     1
102
RTVSPropertyOp1
 70
     1
102
RTVSPropertyOp2
 70
     1
102
RTVSPropertyOp3
 70
     1
102
RTVSPropertyOp4
 70
     1
102
RTVSPropertyOp5
 70
     1
102
RTVSPropertyOp6
 70
     1
102
RTVSPropertyOp7
 70
     1
102
RTVSPropertyOp8
 70
     1
102
RTVSPropertyOp9
 70
     1
102
RTVSPropertyOp10
 70
     1
102
RTVSPropertyOp11
 70
     1
102
RTVSPropertyOp12
 70
     1
102
RTVSPropertyOp13
 70
     1
102
RTVSPropertyOp14
 70
     1
102
RTVSPropertyOp15
 70
     1
102
RTVSPropertyOp16
 70
     1
102
RTVSPropertyOp17
 70
     1
102
RTVSPropertyOp18
 70
     1
102
RTVSPropertyOp19
 70
     1
102
RTVSPropertyOp20
 70
     1
102
RTVSPropertyOp21
 70
     1
102
RTVSPropertyOp22
 70
     1
102
RTVSPropertyOp23
 70
     1
102
RTVSPropertyOp24
 70
     1
102
RTVSPropertyOp25
 70
     1
102
RTVSPropertyOp26
 70
     1
102
RTVSPropertyOp27
 70
     1
102
RTVSPropertyOp28
 70
     1
102
RTVSPropertyOp29
 70
     1
102
RTVSPropertyOp30
 70
     1
102
RTVSPropertyOp31
 70
     1
102
RTVSPropertyOp32
 70
     1
102
RTVSPropertyOp33
 70
     1
102
RTVSPropertyOp34
 70
     1
102
RTVSPropertyOp35
 70
     1
102
RTVSPropertyOp36
 70
     1
102
RTVSPropertyOp37
 70
     1
102
RTVSPropertyOp38
 70
     1
102
RTVSPropertyOp39
 70
     1
102
RTVSPropertyOp40
 70
     1
102
RTVSPropertyOp41
 70
     1
102
RTVSPropertyOp42
 70
     1
102
RTVSPropertyOp43
 70
     1
102
RTVSPropertyOp44
 70
     1
102
RTVSPropertyOp45
 70
     1
102
RTVSPropertyOp46
 70
     1
102
RTVSPropertyOp47
 70
     1
102
RTVSPropertyOp48
 70
     1
102
RTVSPropertyOp49
 70
     1
102
RTVSPropertyOp50
 70
     1
102
RTVSPropertyOp51
 70
     0
102
RTVSPropertyOp52
 70
     0
102
RTVSPropertyOp53
 70
     1
102
RTVSPropertyOp54
 70
     1
102
RTVSPropertyOp55
 70
     1
102
RTVSPropertyOp56
 70
     1
102
RTVSPropertyOp57
 70
     1
102
RTVSPost2010Prop28
280
     0
102
RTVSPost2010PropOp28
 70
     1
102
RTVSPost2010Prop29
280
     1
102
RTVSPost2010PropOp29
 70
     1
102
RTVSPost2010Prop30
280
     1
102
RTVSPost2010PropOp30
 70
     1
102
RTVSPost2010Prop31
280
     0
102
RTVSPost2010PropOp31
 70
     1
102
RTVSPost2010Prop32
280
     0
102
RTVSPost2010PropOp32
 70
     1
102
RTVSPost2010Prop33
280
     0
102
RTVSPost2010PropOp33
 70
     1
102
RTVSPost2010Prop34
280
     0
102
RTVSPost2010PropOp34
 70
     1
102
RTVSPost2010Prop35
280
     0
102
RTVSPost2010PropOp35
 70
     1
102
RTVSPost2010Prop36
280
     0
102
RTVSPost2010PropOp36
 70
     1
102
RTVSPost2010Prop37
 90
       50
102
RTVSPost2010PropOp37
 70
     1
102
RTVSPost2010Prop38
140
0.0
102
RTVSPost2010PropOp38
 70
     1
102
RTVSPost2010Prop39
140
1.0
102
RTVSPost2010PropOp39
 70
     1
102
RTVSPost2010Prop40
 90
        0
102
RTVSPost2010PropOp40
 70
     1
102
RTVSPost2010Prop41ColorIndex
 90
       18
102
RTVSPost2010Prop41ColorRGB
 90
        0
102
RTVSPost2010PropOp41
 70
     1
102
RTVSPost2010Prop42
 90
       50
102
RTVSPost2010PropOp42
 70
     1
102
RTVSPost2010Prop43
 90
        3
102
RTVSPost2010PropOp43
 70
     1
102
RTVSPost2010Prop44ColorIndex
 90
        5
102
RTVSPost2010Prop44ColorRGB
 90
      255
102
RTVSPost2010PropOp44
 70
     1
102
RTVSPost2010Prop45
280
     0
102
RTVSPost2010PropOp45
 70
     1
102
RTVSPost2010Prop46
 90
       50
102
RTVSPost2010PropOp46
 70
     1
102
RTVSPost2010Prop47
 90
       50
102
RTVSPost2010PropOp47
 70
     1
102
RTVSPost2010Prop48
 90
       50
102
RTVSPost2010PropOp48
 70
     1
102
RTVSPost2010Prop49
280
     0
102
RTVSPost2010PropOp49
 70
     1
102
RTVSPost2010Prop50
 90
       50
102
RTVSPost2010PropOp50
 70
     1
102
RTVSPost2010Prop51ColorIndex
 90
      256
102
RTVSPost2010Prop51ColorRGB
 90
-16777216
102
RTVSPost2010PropOp51
 70
     0
102
RTVSPost2010Prop52
140
1.0
102
RTVSPost2010PropOp52
 70
     0
102
RTVSPost2010Prop53
 90
        2
102
RTVSPost2010PropOp53
 70
     1
102
RTVSPost2010Prop54
  1
strokes_ogs.tif
102
RTVSPost2010PropOp54
 70
     1
102
RTVSPost2010Prop55
280
     0
102
RTVSPost2010PropOp55
 70
     1
102
RTVSPost2010Prop56
140
1.0
102
RTVSPost2010PropOp56
 70
     1
102
RTVSPost2010Prop57
140
1.0
102
RTVSPost2010PropOp57
 70
     1
  0
XRECORD
  5
26B
102
{ACAD_REACTORS
330
26A
102
}
330
26A
100
AcDbXrecord
280
     1
102
RTVSPropertyOp0
 70
     1
102
RTVSPropertyOp1
 70
     1
102
RTVSPropertyOp2
 70
     1
102
RTVSPropertyOp3
 70
     1
102
RTVSPropertyOp4
 70
     1
102
RTVSPropertyOp5
 70
     1
102
RTVSPropertyOp6
 70
     1
102
RTVSPropertyOp7
 70
     1
102
RTVSPropertyOp8
 70
     1
102
RTVSPropertyOp9
 70
     1
102
RTVSPropertyOp10
 70
     1
102
RTVSPropertyOp11
 70
     1
102
RTVSPropertyOp12
 70
     1
102
RTVSPropertyOp13
 70
     1
102
RTVSPropertyOp14
 70
     1
102
RTVSPropertyOp15
 70
     1
102
RTVSPropertyOp16
 70
     1
102
RTVSPropertyOp17
 70
     1
102
RTVSPropertyOp18
 70
     1
102
RTVSPropertyOp19
 70
     1
102
RTVSPropertyOp20
 70
     1
102
RTVSPropertyOp21
 70
     1
102
RTVSPropertyOp22
 70
     1
102
RTVSPropertyOp23
 70
     1
102
RTVSPropertyOp24
 70
     1
102
RTVSPropertyOp25
 70
     1
102
RTVSPropertyOp26
 70
     1
102
RTVSPropertyOp27
 70
     1
102
RTVSPropertyOp28
 70
     1
102
RTVSPropertyOp29
 70
     1
102
RTVSPropertyOp30
 70
     1
102
RTVSPropertyOp31
 70
     1
102
RTVSPropertyOp32
 70
     1
102
RTVSPropertyOp33
 70
     1
102
RTVSPropertyOp34
 70
     1
102
RTVSPropertyOp35
 70
     1
102
RTVSPropertyOp36
 70
     1
102
RTVSPropertyOp37
 70
     1
102
RTVSPropertyOp38
 70
     1
102
RTVSPropertyOp39
 70
     1
102
RTVSPropertyOp40
 70
     1
102
RTVSPropertyOp41
 70
     1
102
RTVSPropertyOp42
 70
     1
102
RTVSPropertyOp43
 70
     1
102
RTVSPropertyOp44
 70
     1
102
RTVSPropertyOp45
 70
     1
102
RTVSPropertyOp46
 70
     1
102
RTVSPropertyOp47
 70
     1
102
RTVSPropertyOp48
 70
     1
102
RTVSPropertyOp49
 70
     1
102
RTVSPropertyOp50
 70
     1
102
RTVSPropertyOp51
 70
     0
102
RTVSPropertyOp52
 70
     0
102
RTVSPropertyOp53
 70
     1
102
RTVSPropertyOp54
 70
     1
102
RTVSPropertyOp55
 70
     1
102
RTVSPropertyOp56
 70
     1
102
RTVSPropertyOp57
 70
     1
102
RTVSPost2010Prop28
280
     0
102
RTVSPost2010PropOp28
 70
     1
102
RTVSPost2010Prop29
280
     1
102
RTVSPost2010PropOp29
 70
     1
102
RTVSPost2010Prop30
280
     1
102
RTVSPost2010PropOp30
 70
     1
102
RTVSPost2010Prop31
280
     0
102
RTVSPost2010PropOp31
 70
     1
102
RTVSPost2010Prop32
280
     0
102
RTVSPost2010PropOp32
 70
     1
102
RTVSPost2010Prop33
280
     0
102
RTVSPost2010PropOp33
 70
     1
102
RTVSPost2010Prop34
280
     0
102
RTVSPost2010PropOp34
 70
     1
102
RTVSPost2010Prop35
280
     0
102
RTVSPost2010PropOp35
 70
     1
102
RTVSPost2010Prop36
280
     0
102
RTVSPost2010PropOp36
 70
     1
102
RTVSPost2010Prop37
 90
       50
102
RTVSPost2010PropOp37
 70
     1
102
RTVSPost2010Prop38
140
0.0
102
RTVSPost2010PropOp38
 70
     1
102
RTVSPost2010Prop39
140
1.0
102
RTVSPost2010PropOp39
 70
     1
102
RTVSPost2010Prop40
 90
        0
102
RTVSPost2010PropOp40
 70
     1
102
RTVSPost2010Prop41ColorIndex
 90
       18
102
RTVSPost2010Prop41ColorRGB
 90
        0
102
RTVSPost2010PropOp41
 70
     1
102
RTVSPost2010Prop42
 90
       50
102
RTVSPost2010PropOp42
 70
     1
102
RTVSPost2010Prop43
 90
        3
102
RTVSPost2010PropOp43
 70
     1
102
RTVSPost2010Prop44ColorIndex
 90
        5
102
RTVSPost2010Prop44ColorRGB
 90
      255
102
RTVSPost2010PropOp44
 70
     1
102
RTVSPost2010Prop45
280
     0
102
RTVSPost2010PropOp45
 70
     1
102
RTVSPost2010Prop46
 90
       50
102
RTVSPost2010PropOp46
 70
     1
102
RTVSPost2010Prop47
 90
       50
102
RTVSPost2010PropOp47
 70
     1
102
RTVSPost2010Prop48
 90
       50
102
RTVSPost2010PropOp48
 70
     1
102
RTVSPost2010Prop49
280
     0
102
RTVSPost2010PropOp49
 70
     1
102
RTVSPost2010Prop50
 90
       50
102
RTVSPost2010PropOp50
 70
     1
102
RTVSPost2010Prop51ColorIndex
 90
      256
102
RTVSPost2010Prop51ColorRGB
 90
-16777216
102
RTVSPost2010PropOp51
 70
     0
102
RTVSPost2010Prop52
140
1.0
102
RTVSPost2010PropOp52
 70
     0
102
RTVSPost2010Prop53
 90
        2
102
RTVSPost2010PropOp53
 70
     1
102
RTVSPost2010Prop54
  1
strokes_ogs.tif
102
RTVSPost2010PropOp54
 70
     1
102
RTVSPost2010Prop55
280
     0
102
RTVSPost2010PropOp55
 70
     1
102
RTVSPost2010Prop56
140
1.0
102
RTVSPost2010PropOp56
 70
     1
102
RTVSPost2010Prop57
140
1.0
102
RTVSPost2010PropOp57
 70
     1
  0
XRECORD
  5
27B
102
{ACAD_REACTORS
330
27A
102
}
330
27A
100
AcDbXrecord
280
     1
102
RTVSPropertyOp0
 70
     0
102
RTVSPropertyOp1
 70
     0
102
RTVSPropertyOp2
 70
     0
102
RTVSPropertyOp3
 70
     0
102
RTVSPropertyOp4
 70
     0
102
RTVSPropertyOp5
 70
     0
102
RTVSPropertyOp6
 70
     0
102
RTVSPropertyOp7
 70
     0
102
RTVSPropertyOp8
 70
     0
102
RTVSPropertyOp9
 70
     0
102
RTVSPropertyOp10
 70
     0
102
RTVSPropertyOp11
 70
     0
102
RTVSPropertyOp12
 70
     0
102
RTVSPropertyOp13
 70
     0
102
RTVSPropertyOp14
 70
     2
102
RTVSPropertyOp15
 70
     0
102
RTVSPropertyOp16
 70
     0
102
RTVSPropertyOp17
 70
     0
102
RTVSPropertyOp18
 70
     0
102
RTVSPropertyOp19
 70
     0
102
RTVSPropertyOp20
 70
     0
102
RTVSPropertyOp21
 70
     0
102
RTVSPropertyOp22
 70
     0
102
RTVSPropertyOp23
 70
     0
102
RTVSPropertyOp24
 70
     0
102
RTVSPropertyOp25
 70
     0
102
RTVSPropertyOp26
 70
     0
102
RTVSPropertyOp27
 70
     0
102
RTVSPropertyOp28
 70
     0
102
RTVSPropertyOp29
 70
     0
102
RTVSPropertyOp30
 70
     0
102
RTVSPropertyOp31
 70
     0
102
RTVSPropertyOp32
 70
     0
102
RTVSPropertyOp33
 70
     0
102
RTVSPropertyOp34
 70
     0
102
RTVSPropertyOp35
 70
     0
102
RTVSPropertyOp36
 70
     0
102
RTVSPropertyOp37
 70
     0
102
RTVSPropertyOp38
 70
     0
102
RTVSPropertyOp39
 70
     0
102
RTVSPropertyOp40
 70
     0
102
RTVSPropertyOp41
 70
     0
102
RTVSPropertyOp42
 70
     0
102
RTVSPropertyOp43
 70
     0
102
RTVSPropertyOp44
 70
     0
102
RTVSPropertyOp45
 70
     0
102
RTVSPropertyOp46
 70
     0
102
RTVSPropertyOp47
 70
     0
102
RTVSPropertyOp48
 70
     0
102
RTVSPropertyOp49
 70
     0
102
RTVSPropertyOp50
 70
     0
102
RTVSPropertyOp51
 70
     0
102
RTVSPropertyOp52
 70
     0
102
RTVSPropertyOp53
 70
     0
102
RTVSPropertyOp54
 70
     0
102
RTVSPropertyOp55
 70
     0
102
RTVSPropertyOp56
 70
     0
102
RTVSPropertyOp57
 70
     0
102
RTVSPost2010Prop28
280
     0
102
RTVSPost2010PropOp28
 70
     0
102
RTVSPost2010Prop29
280
     1
102
RTVSPost2010PropOp29
 70
     0
102
RTVSPost2010Prop30
280
     1
102
RTVSPost2010PropOp30
 70
     0
102
RTVSPost2010Prop31
280
     0
102
RTVSPost2010PropOp31
 70
     0
102
RTVSPost2010Prop32
280
     0
102
RTVSPost2010PropOp32
 70
     0
102
RTVSPost2010Prop33
280
     0
102
RTVSPost2010PropOp33
 70
     0
102
RTVSPost2010Prop34
280
     0
102
RTVSPost2010PropOp34
 70
     0
102
RTVSPost2010Prop35
280
     0
102
RTVSPost2010PropOp35
 70
     0
102
RTVSPost2010Prop36
280
     0
102
RTVSPost2010PropOp36
 70
     0
102
RTVSPost2010Prop37
 90
       50
102
RTVSPost2010PropOp37
 70
     0
102
RTVSPost2010Prop38
140
0.0
102
RTVSPost2010PropOp38
 70
     0
102
RTVSPost2010Prop39
140
1.0
102
RTVSPost2010PropOp39
 70
     0
102
RTVSPost2010Prop40
 90
        0
102
RTVSPost2010PropOp40
 70
     0
102
RTVSPost2010Prop41ColorIndex
 90
       18
102
RTVSPost2010Prop41ColorRGB
 90
        0
102
RTVSPost2010PropOp41
 70
     0
102
RTVSPost2010Prop42
 90
       50
102
RTVSPost2010PropOp42
 70
     0
102
RTVSPost2010Prop43
 90
        3
102
RTVSPost2010PropOp43
 70
     0
102
RTVSPost2010Prop44ColorIndex
 90
        5
102
RTVSPost2010Prop44ColorRGB
 90
      255
102
RTVSPost2010PropOp44
 70
     0
102
RTVSPost2010Prop45
280
     0
102
RTVSPost2010PropOp45
 70
     0
102
RTVSPost2010Prop46
 90
       50
102
RTVSPost2010PropOp46
 70
     0
102
RTVSPost2010Prop47
 90
       50
102
RTVSPost2010PropOp47
 70
     0
102
RTVSPost2010Prop48
 90
       50
102
RTVSPost2010PropOp48
 70
     0
102
RTVSPost2010Prop49
280
     0
102
RTVSPost2010PropOp49
 70
     0
102
RTVSPost2010Prop50
 90
       50
102
RTVSPost2010PropOp50
 70
     0
102
RTVSPost2010Prop51ColorIndex
 90
      256
102
RTVSPost2010Prop51ColorRGB
 90
-16777216
102
RTVSPost2010PropOp51
 70
     0
102
RTVSPost2010Prop52
140
1.0
102
RTVSPost2010PropOp52
 70
     0
102
RTVSPost2010Prop53
 90
        2
102
RTVSPost2010PropOp53
 70
     0
102
RTVSPost2010Prop54
  1
strokes_ogs.tif
102
RTVSPost2010PropOp54
 70
     0
102
RTVSPost2010Prop55
280
     0
102
RTVSPost2010PropOp55
 70
     0
102
RTVSPost2010Prop56
140
1.0
102
RTVSPost2010PropOp56
 70
     0
102
RTVSPost2010Prop57
140
1.0
102
RTVSPost2010PropOp57
 70
     0
  0
XRECORD
  5
273
102
{ACAD_REACTORS
330
272
102
}
330
272
100
AcDbXrecord
280
     1
102
RTVSPropertyOp0
 70
     1
102
RTVSPropertyOp1
 70
     1
102
RTVSPropertyOp2
 70
     1
102
RTVSPropertyOp3
 70
     1
102
RTVSPropertyOp4
 70
     1
102
RTVSPropertyOp5
 70
     1
102
RTVSPropertyOp6
 70
     1
102
RTVSPropertyOp7
 70
     1
102
RTVSPropertyOp8
 70
     1
102
RTVSPropertyOp9
 70
     1
102
RTVSPropertyOp10
 70
     1
102
RTVSPropertyOp11
 70
     1
102
RTVSPropertyOp12
 70
     1
102
RTVSPropertyOp13
 70
     1
102
RTVSPropertyOp14
 70
     1
102
RTVSPropertyOp15
 70
     1
102
RTVSPropertyOp16
 70
     1
102
RTVSPropertyOp17
 70
     1
102
RTVSPropertyOp18
 70
     1
102
RTVSPropertyOp19
 70
     1
102
RTVSPropertyOp20
 70
     1
102
RTVSPropertyOp21
 70
     1
102
RTVSPropertyOp22
 70
     1
102
RTVSPropertyOp23
 70
     1
102
RTVSPropertyOp24
 70
     1
102
RTVSPropertyOp25
 70
     1
102
RTVSPropertyOp26
 70
     1
102
RTVSPropertyOp27
 70
     1
102
RTVSPropertyOp28
 70
     1
102
RTVSPropertyOp29
 70
     1
102
RTVSPropertyOp30
 70
     1
102
RTVSPropertyOp31
 70
     1
102
RTVSPropertyOp32
 70
     1
102
RTVSPropertyOp33
 70
     1
102
RTVSPropertyOp34
 70
     1
102
RTVSPropertyOp35
 70
     1
102
RTVSPropertyOp36
 70
     1
102
RTVSPropertyOp37
 70
     1
102
RTVSPropertyOp38
 70
     1
102
RTVSPropertyOp39
 70
     1
102
RTVSPropertyOp40
 70
     1
102
RTVSPropertyOp41
 70
     1
102
RTVSPropertyOp42
 70
     1
102
RTVSPropertyOp43
 70
     1
102
RTVSPropertyOp44
 70
     1
102
RTVSPropertyOp45
 70
     1
102
RTVSPropertyOp46
 70
     1
102
RTVSPropertyOp47
 70
     1
102
RTVSPropertyOp48
 70
     1
102
RTVSPropertyOp49
 70
     1
102
RTVSPropertyOp50
 70
     1
102
RTVSPropertyOp51
 70
     0
102
RTVSPropertyOp52
 70
     0
102
RTVSPropertyOp53
 70
     1
102
RTVSPropertyOp54
 70
     1
102
RTVSPropertyOp55
 70
     1
102
RTVSPropertyOp56
 70
     1
102
RTVSPropertyOp57
 70
     1
102
RTVSPost2010Prop28
280
     0
102
RTVSPost2010PropOp28
 70
     1
102
RTVSPost2010Prop29
280
     1
102
RTVSPost2010PropOp29
 70
     1
102
RTVSPost2010Prop30
280
     1
102
RTVSPost2010PropOp30
 70
     1
102
RTVSPost2010Prop31
280
     0
102
RTVSPost2010PropOp31
 70
     1
102
RTVSPost2010Prop32
280
     0
102
RTVSPost2010PropOp32
 70
     1
102
RTVSPost2010Prop33
280
     0
102
RTVSPost2010PropOp33
 70
     1
102
RTVSPost2010Prop34
280
     0
102
RTVSPost2010PropOp34
 70
     1
102
RTVSPost2010Prop35
280
     0
102
RTVSPost2010PropOp35
 70
     1
102
RTVSPost2010Prop36
280
     0
102
RTVSPost2010PropOp36
 70
     1
102
RTVSPost2010Prop37
 90
       50
102
RTVSPost2010PropOp37
 70
     1
102
RTVSPost2010Prop38
140
0.0
102
RTVSPost2010PropOp38
 70
     1
102
RTVSPost2010Prop39
140
1.0
102
RTVSPost2010PropOp39
 70
     1
102
RTVSPost2010Prop40
 90
        0
102
RTVSPost2010PropOp40
 70
     1
102
RTVSPost2010Prop41ColorIndex
 90
       18
102
RTVSPost2010Prop41ColorRGB
 90
        0
102
RTVSPost2010PropOp41
 70
     1
102
RTVSPost2010Prop42
 90
       50
102
RTVSPost2010PropOp42
 70
     1
102
RTVSPost2010Prop43
 90
        3
102
RTVSPost2010PropOp43
 70
     1
102
RTVSPost2010Prop44ColorIndex
 90
        5
102
RTVSPost2010Prop44ColorRGB
 90
      255
102
RTVSPost2010PropOp44
 70
     1
102
RTVSPost2010Prop45
280
     0
102
RTVSPost2010PropOp45
 70
     1
102
RTVSPost2010Prop46
 90
       50
102
RTVSPost2010PropOp46
 70
     1
102
RTVSPost2010Prop47
 90
       50
102
RTVSPost2010PropOp47
 70
     1
102
RTVSPost2010Prop48
 90
       50
102
RTVSPost2010PropOp48
 70
     1
102
RTVSPost2010Prop49
280
     0
102
RTVSPost2010PropOp49
 70
     1
102
RTVSPost2010Prop50
 90
       50
102
RTVSPost2010PropOp50
 70
     1
102
RTVSPost2010Prop51ColorIndex
 90
      256
102
RTVSPost2010Prop51ColorRGB
 90
-16777216
102
RTVSPost2010PropOp51
 70
     0
102
RTVSPost2010Prop52
140
1.0
102
RTVSPost2010PropOp52
 70
     0
102
RTVSPost2010Prop53
 90
        2
102
RTVSPost2010PropOp53
 70
     1
102
RTVSPost2010Prop54
  1
strokes_ogs.tif
102
RTVSPost2010PropOp54
 70
     1
102
RTVSPost2010Prop55
280
     0
102
RTVSPost2010PropOp55
 70
     1
102
RTVSPost2010Prop56
140
1.0
102
RTVSPost2010PropOp56
 70
     1
102
RTVSPost2010Prop57
140
1.0
102
RTVSPost2010PropOp57
 70
     1
  0
XRECORD
  5
257
102
{ACAD_REACTORS
330
256
102
}
330
256
100
AcDbXrecord
280
     1
102
RTVSPropertyOp0
 70
     1
102
RTVSPropertyOp1
 70
     1
102
RTVSPropertyOp2
 70
     1
102
RTVSPropertyOp3
 70
     1
102
RTVSPropertyOp4
 70
     1
102
RTVSPropertyOp5
 70
     1
102
RTVSPropertyOp6
 70
     1
102
RTVSPropertyOp7
 70
     1
102
RTVSPropertyOp8
 70
     1
102
RTVSPropertyOp9
 70
     1
102
RTVSPropertyOp10
 70
     1
102
RTVSPropertyOp11
 70
     1
102
RTVSPropertyOp12
 70
     1
102
RTVSPropertyOp13
 70
     1
102
RTVSPropertyOp14
 70
     1
102
RTVSPropertyOp15
 70
     1
102
RTVSPropertyOp16
 70
     1
102
RTVSPropertyOp17
 70
     1
102
RTVSPropertyOp18
 70
     1
102
RTVSPropertyOp19
 70
     1
102
RTVSPropertyOp20
 70
     1
102
RTVSPropertyOp21
 70
     1
102
RTVSPropertyOp22
 70
     1
102
RTVSPropertyOp23
 70
     1
102
RTVSPropertyOp24
 70
     1
102
RTVSPropertyOp25
 70
     1
102
RTVSPropertyOp26
 70
     1
102
RTVSPropertyOp27
 70
     1
102
RTVSPropertyOp28
 70
     1
102
RTVSPropertyOp29
 70
     1
102
RTVSPropertyOp30
 70
     1
102
RTVSPropertyOp31
 70
     1
102
RTVSPropertyOp32
 70
     1
102
RTVSPropertyOp33
 70
     1
102
RTVSPropertyOp34
 70
     1
102
RTVSPropertyOp35
 70
     1
102
RTVSPropertyOp36
 70
     1
102
RTVSPropertyOp37
 70
     1
102
RTVSPropertyOp38
 70
     1
102
RTVSPropertyOp39
 70
     1
102
RTVSPropertyOp40
 70
     1
102
RTVSPropertyOp41
 70
     1
102
RTVSPropertyOp42
 70
     1
102
RTVSPropertyOp43
 70
     1
102
RTVSPropertyOp44
 70
     1
102
RTVSPropertyOp45
 70
     1
102
RTVSPropertyOp46
 70
     1
102
RTVSPropertyOp47
 70
     1
102
RTVSPropertyOp48
 70
     1
102
RTVSPropertyOp49
 70
     1
102
RTVSPropertyOp50
 70
     1
102
RTVSPropertyOp51
 70
     0
102
RTVSPropertyOp52
 70
     0
102
RTVSPropertyOp53
 70
     1
102
RTVSPropertyOp54
 70
     1
102
RTVSPropertyOp55
 70
     1
102
RTVSPropertyOp56
 70
     1
102
RTVSPropertyOp57
 70
     1
102
RTVSPost2010Prop28
280
     0
102
RTVSPost2010PropOp28
 70
     1
102
RTVSPost2010Prop29
280
     1
102
RTVSPost2010PropOp29
 70
     1
102
RTVSPost2010Prop30
280
     1
102
RTVSPost2010PropOp30
 70
     1
102
RTVSPost2010Prop31
280
     0
102
RTVSPost2010PropOp31
 70
     1
102
RTVSPost2010Prop32
280
     0
102
RTVSPost2010PropOp32
 70
     1
102
RTVSPost2010Prop33
280
     0
102
RTVSPost2010PropOp33
 70
     1
102
RTVSPost2010Prop34
280
     0
102
RTVSPost2010PropOp34
 70
     1
102
RTVSPost2010Prop35
280
     0
102
RTVSPost2010PropOp35
 70
     1
102
RTVSPost2010Prop36
280
     0
102
RTVSPost2010PropOp36
 70
     1
102
RTVSPost2010Prop37
 90
       50
102
RTVSPost2010PropOp37
 70
     1
102
RTVSPost2010Prop38
140
0.0
102
RTVSPost2010PropOp38
 70
     1
102
RTVSPost2010Prop39
140
1.0
102
RTVSPost2010PropOp39
 70
     1
102
RTVSPost2010Prop40
 90
        0
102
RTVSPost2010PropOp40
 70
     1
102
RTVSPost2010Prop41ColorIndex
 90
       18
102
RTVSPost2010Prop41ColorRGB
 90
        0
102
RTVSPost2010PropOp41
 70
     1
102
RTVSPost2010Prop42
 90
       50
102
RTVSPost2010PropOp42
 70
     1
102
RTVSPost2010Prop43
 90
        3
102
RTVSPost2010PropOp43
 70
     1
102
RTVSPost2010Prop44ColorIndex
 90
        5
102
RTVSPost2010Prop44ColorRGB
 90
      255
102
RTVSPost2010PropOp44
 70
     1
102
RTVSPost2010Prop45
280
     0
102
RTVSPost2010PropOp45
 70
     1
102
RTVSPost2010Prop46
 90
       50
102
RTVSPost2010PropOp46
 70
     1
102
RTVSPost2010Prop47
 90
       50
102
RTVSPost2010PropOp47
 70
     1
102
RTVSPost2010Prop48
 90
       50
102
RTVSPost2010PropOp48
 70
     1
102
RTVSPost2010Prop49
280
     0
102
RTVSPost2010PropOp49
 70
     1
102
RTVSPost2010Prop50
 90
       50
102
RTVSPost2010PropOp50
 70
     1
102
RTVSPost2010Prop51ColorIndex
 90
      256
102
RTVSPost2010Prop51ColorRGB
 90
-16777216
102
RTVSPost2010PropOp51
 70
     0
102
RTVSPost2010Prop52
140
1.0
102
RTVSPost2010PropOp52
 70
     0
102
RTVSPost2010Prop53
 90
        2
102
RTVSPost2010PropOp53
 70
     1
102
RTVSPost2010Prop54
  1
strokes_ogs.tif
102
RTVSPost2010PropOp54
 70
     1
102
RTVSPost2010Prop55
280
     0
102
RTVSPost2010PropOp55
 70
     1
102
RTVSPost2010Prop56
140
1.0
102
RTVSPost2010PropOp56
 70
     1
102
RTVSPost2010Prop57
140
1.0
102
RTVSPost2010PropOp57
 70
     1
  0
XRECORD
  5
259
102
{ACAD_REACTORS
330
258
102
}
330
258
100
AcDbXrecord
280
     1
102
RTVSPropertyOp0
 70
     1
102
RTVSPropertyOp1
 70
     1
102
RTVSPropertyOp2
 70
     1
102
RTVSPropertyOp3
 70
     1
102
RTVSPropertyOp4
 70
     1
102
RTVSPropertyOp5
 70
     1
102
RTVSPropertyOp6
 70
     1
102
RTVSPropertyOp7
 70
     1
102
RTVSPropertyOp8
 70
     1
102
RTVSPropertyOp9
 70
     1
102
RTVSPropertyOp10
 70
     1
102
RTVSPropertyOp11
 70
     1
102
RTVSPropertyOp12
 70
     1
102
RTVSPropertyOp13
 70
     1
102
RTVSPropertyOp14
 70
     1
102
RTVSPropertyOp15
 70
     1
102
RTVSPropertyOp16
 70
     1
102
RTVSPropertyOp17
 70
     1
102
RTVSPropertyOp18
 70
     1
102
RTVSPropertyOp19
 70
     1
102
RTVSPropertyOp20
 70
     1
102
RTVSPropertyOp21
 70
     1
102
RTVSPropertyOp22
 70
     1
102
RTVSPropertyOp23
 70
     1
102
RTVSPropertyOp24
 70
     1
102
RTVSPropertyOp25
 70
     1
102
RTVSPropertyOp26
 70
     1
102
RTVSPropertyOp27
 70
     1
102
RTVSPropertyOp28
 70
     1
102
RTVSPropertyOp29
 70
     1
102
RTVSPropertyOp30
 70
     1
102
RTVSPropertyOp31
 70
     1
102
RTVSPropertyOp32
 70
     1
102
RTVSPropertyOp33
 70
     1
102
RTVSPropertyOp34
 70
     1
102
RTVSPropertyOp35
 70
     1
102
RTVSPropertyOp36
 70
     1
102
RTVSPropertyOp37
 70
     1
102
RTVSPropertyOp38
 70
     1
102
RTVSPropertyOp39
 70
     1
102
RTVSPropertyOp40
 70
     1
102
RTVSPropertyOp41
 70
     1
102
RTVSPropertyOp42
 70
     1
102
RTVSPropertyOp43
 70
     1
102
RTVSPropertyOp44
 70
     1
102
RTVSPropertyOp45
 70
     1
102
RTVSPropertyOp46
 70
     1
102
RTVSPropertyOp47
 70
     1
102
RTVSPropertyOp48
 70
     1
102
RTVSPropertyOp49
 70
     1
102
RTVSPropertyOp50
 70
     1
102
RTVSPropertyOp51
 70
     0
102
RTVSPropertyOp52
 70
     0
102
RTVSPropertyOp53
 70
     1
102
RTVSPropertyOp54
 70
     1
102
RTVSPropertyOp55
 70
     1
102
RTVSPropertyOp56
 70
     1
102
RTVSPropertyOp57
 70
     1
102
RTVSPost2010Prop28
280
     0
102
RTVSPost2010PropOp28
 70
     1
102
RTVSPost2010Prop29
280
     1
102
RTVSPost2010PropOp29
 70
     1
102
RTVSPost2010Prop30
280
     1
102
RTVSPost2010PropOp30
 70
     1
102
RTVSPost2010Prop31
280
     0
102
RTVSPost2010PropOp31
 70
     1
102
RTVSPost2010Prop32
280
     0
102
RTVSPost2010PropOp32
 70
     1
102
RTVSPost2010Prop33
280
     0
102
RTVSPost2010PropOp33
 70
     1
102
RTVSPost2010Prop34
280
     0
102
RTVSPost2010PropOp34
 70
     1
102
RTVSPost2010Prop35
280
     0
102
RTVSPost2010PropOp35
 70
     1
102
RTVSPost2010Prop36
280
     0
102
RTVSPost2010PropOp36
 70
     1
102
RTVSPost2010Prop37
 90
       50
102
RTVSPost2010PropOp37
 70
     1
102
RTVSPost2010Prop38
140
0.0
102
RTVSPost2010PropOp38
 70
     1
102
RTVSPost2010Prop39
140
1.0
102
RTVSPost2010PropOp39
 70
     1
102
RTVSPost2010Prop40
 90
        0
102
RTVSPost2010PropOp40
 70
     1
102
RTVSPost2010Prop41ColorIndex
 90
       18
102
RTVSPost2010Prop41ColorRGB
 90
        0
102
RTVSPost2010PropOp41
 70
     1
102
RTVSPost2010Prop42
 90
       50
102
RTVSPost2010PropOp42
 70
     1
102
RTVSPost2010Prop43
 90
        3
102
RTVSPost2010PropOp43
 70
     1
102
RTVSPost2010Prop44ColorIndex
 90
        5
102
RTVSPost2010Prop44ColorRGB
 90
      255
102
RTVSPost2010PropOp44
 70
     1
102
RTVSPost2010Prop45
280
     0
102
RTVSPost2010PropOp45
 70
     1
102
RTVSPost2010Prop46
 90
       50
102
RTVSPost2010PropOp46
 70
     1
102
RTVSPost2010Prop47
 90
       50
102
RTVSPost2010PropOp47
 70
     1
102
RTVSPost2010Prop48
 90
       50
102
RTVSPost2010PropOp48
 70
     1
102
RTVSPost2010Prop49
280
     0
102
RTVSPost2010PropOp49
 70
     1
102
RTVSPost2010Prop50
 90
       50
102
RTVSPost2010PropOp50
 70
     1
102
RTVSPost2010Prop51ColorIndex
 90
      256
102
RTVSPost2010Prop51ColorRGB
 90
-16777216
102
RTVSPost2010PropOp51
 70
     0
102
RTVSPost2010Prop52
140
1.0
102
RTVSPost2010PropOp52
 70
     0
102
RTVSPost2010Prop53
 90
        2
102
RTVSPost2010PropOp53
 70
     1
102
RTVSPost2010Prop54
  1
strokes_ogs.tif
102
RTVSPost2010PropOp54
 70
     1
102
RTVSPost2010Prop55
280
     0
102
RTVSPost2010PropOp55
 70
     1
102
RTVSPost2010Prop56
140
1.0
102
RTVSPost2010PropOp56
 70
     1
102
RTVSPost2010Prop57
140
1.0
102
RTVSPost2010PropOp57
 70
     1
  0
XRECORD
  5
25B
102
{ACAD_REACTORS
330
25A
102
}
330
25A
100
AcDbXrecord
280
     1
102
RTVSPropertyOp0
 70
     1
102
RTVSPropertyOp1
 70
     1
102
RTVSPropertyOp2
 70
     1
102
RTVSPropertyOp3
 70
     1
102
RTVSPropertyOp4
 70
     1
102
RTVSPropertyOp5
 70
     1
102
RTVSPropertyOp6
 70
     1
102
RTVSPropertyOp7
 70
     1
102
RTVSPropertyOp8
 70
     1
102
RTVSPropertyOp9
 70
     1
102
RTVSPropertyOp10
 70
     1
102
RTVSPropertyOp11
 70
     1
102
RTVSPropertyOp12
 70
     1
102
RTVSPropertyOp13
 70
     1
102
RTVSPropertyOp14
 70
     1
102
RTVSPropertyOp15
 70
     1
102
RTVSPropertyOp16
 70
     1
102
RTVSPropertyOp17
 70
     1
102
RTVSPropertyOp18
 70
     1
102
RTVSPropertyOp19
 70
     1
102
RTVSPropertyOp20
 70
     1
102
RTVSPropertyOp21
 70
     1
102
RTVSPropertyOp22
 70
     1
102
RTVSPropertyOp23
 70
     1
102
RTVSPropertyOp24
 70
     1
102
RTVSPropertyOp25
 70
     1
102
RTVSPropertyOp26
 70
     1
102
RTVSPropertyOp27
 70
     1
102
RTVSPropertyOp28
 70
     1
102
RTVSPropertyOp29
 70
     1
102
RTVSPropertyOp30
 70
     1
102
RTVSPropertyOp31
 70
     1
102
RTVSPropertyOp32
 70
     1
102
RTVSPropertyOp33
 70
     1
102
RTVSPropertyOp34
 70
     1
102
RTVSPropertyOp35
 70
     1
102
RTVSPropertyOp36
 70
     1
102
RTVSPropertyOp37
 70
     1
102
RTVSPropertyOp38
 70
     1
102
RTVSPropertyOp39
 70
     1
102
RTVSPropertyOp40
 70
     1
102
RTVSPropertyOp41
 70
     1
102
RTVSPropertyOp42
 70
     1
102
RTVSPropertyOp43
 70
     1
102
RTVSPropertyOp44
 70
     1
102
RTVSPropertyOp45
 70
     1
102
RTVSPropertyOp46
 70
     1
102
RTVSPropertyOp47
 70
     1
102
RTVSPropertyOp48
 70
     1
102
RTVSPropertyOp49
 70
     1
102
RTVSPropertyOp50
 70
     1
102
RTVSPropertyOp51
 70
     0
102
RTVSPropertyOp52
 70
     0
102
RTVSPropertyOp53
 70
     1
102
RTVSPropertyOp54
 70
     1
102
RTVSPropertyOp55
 70
     1
102
RTVSPropertyOp56
 70
     1
102
RTVSPropertyOp57
 70
     1
102
RTVSPost2010Prop28
280
     0
102
RTVSPost2010PropOp28
 70
     1
102
RTVSPost2010Prop29
280
     1
102
RTVSPost2010PropOp29
 70
     1
102
RTVSPost2010Prop30
280
     1
102
RTVSPost2010PropOp30
 70
     1
102
RTVSPost2010Prop31
280
     0
102
RTVSPost2010PropOp31
 70
     1
102
RTVSPost2010Prop32
280
     0
102
RTVSPost2010PropOp32
 70
     1
102
RTVSPost2010Prop33
280
     0
102
RTVSPost2010PropOp33
 70
     1
102
RTVSPost2010Prop34
280
     0
102
RTVSPost2010PropOp34
 70
     1
102
RTVSPost2010Prop35
280
     0
102
RTVSPost2010PropOp35
 70
     1
102
RTVSPost2010Prop36
280
     0
102
RTVSPost2010PropOp36
 70
     1
102
RTVSPost2010Prop37
 90
       50
102
RTVSPost2010PropOp37
 70
     1
102
RTVSPost2010Prop38
140
0.0
102
RTVSPost2010PropOp38
 70
     1
102
RTVSPost2010Prop39
140
1.0
102
RTVSPost2010PropOp39
 70
     1
102
RTVSPost2010Prop40
 90
        0
102
RTVSPost2010PropOp40
 70
     1
102
RTVSPost2010Prop41ColorIndex
 90
       18
102
RTVSPost2010Prop41ColorRGB
 90
        0
102
RTVSPost2010PropOp41
 70
     1
102
RTVSPost2010Prop42
 90
       50
102
RTVSPost2010PropOp42
 70
     1
102
RTVSPost2010Prop43
 90
        3
102
RTVSPost2010PropOp43
 70
     1
102
RTVSPost2010Prop44ColorIndex
 90
        5
102
RTVSPost2010Prop44ColorRGB
 90
      255
102
RTVSPost2010PropOp44
 70
     1
102
RTVSPost2010Prop45
280
     0
102
RTVSPost2010PropOp45
 70
     1
102
RTVSPost2010Prop46
 90
       50
102
RTVSPost2010PropOp46
 70
     1
102
RTVSPost2010Prop47
 90
       50
102
RTVSPost2010PropOp47
 70
     1
102
RTVSPost2010Prop48
 90
       50
102
RTVSPost2010PropOp48
 70
     1
102
RTVSPost2010Prop49
280
     0
102
RTVSPost2010PropOp49
 70
     1
102
RTVSPost2010Prop50
 90
       50
102
RTVSPost2010PropOp50
 70
     1
102
RTVSPost2010Prop51ColorIndex
 90
      256
102
RTVSPost2010Prop51ColorRGB
 90
-16777216
102
RTVSPost2010PropOp51
 70
     0
102
RTVSPost2010Prop52
140
1.0
102
RTVSPost2010PropOp52
 70
     0
102
RTVSPost2010Prop53
 90
        2
102
RTVSPost2010PropOp53
 70
     1
102
RTVSPost2010Prop54
  1
strokes_ogs.tif
102
RTVSPost2010PropOp54
 70
     1
102
RTVSPost2010Prop55
280
     0
102
RTVSPost2010PropOp55
 70
     1
102
RTVSPost2010Prop56
140
1.0
102
RTVSPost2010PropOp56
 70
     1
102
RTVSPost2010Prop57
140
1.0
102
RTVSPost2010PropOp57
 70
     1
  0
XRECORD
  5
25D
102
{ACAD_REACTORS
330
25C
102
}
330
25C
100
AcDbXrecord
280
     1
102
RTVSPropertyOp0
 70
     1
102
RTVSPropertyOp1
 70
     1
102
RTVSPropertyOp2
 70
     1
102
RTVSPropertyOp3
 70
     1
102
RTVSPropertyOp4
 70
     1
102
RTVSPropertyOp5
 70
     1
102
RTVSPropertyOp6
 70
     1
102
RTVSPropertyOp7
 70
     1
102
RTVSPropertyOp8
 70
     1
102
RTVSPropertyOp9
 70
     1
102
RTVSPropertyOp10
 70
     1
102
RTVSPropertyOp11
 70
     1
102
RTVSPropertyOp12
 70
     1
102
RTVSPropertyOp13
 70
     1
102
RTVSPropertyOp14
 70
     1
102
RTVSPropertyOp15
 70
     1
102
RTVSPropertyOp16
 70
     1
102
RTVSPropertyOp17
 70
     1
102
RTVSPropertyOp18
 70
     1
102
RTVSPropertyOp19
 70
     1
102
RTVSPropertyOp20
 70
     1
102
RTVSPropertyOp21
 70
     1
102
RTVSPropertyOp22
 70
     1
102
RTVSPropertyOp23
 70
     1
102
RTVSPropertyOp24
 70
     1
102
RTVSPropertyOp25
 70
     1
102
RTVSPropertyOp26
 70
     1
102
RTVSPropertyOp27
 70
     1
102
RTVSPropertyOp28
 70
     1
102
RTVSPropertyOp29
 70
     1
102
RTVSPropertyOp30
 70
     1
102
RTVSPropertyOp31
 70
     1
102
RTVSPropertyOp32
 70
     1
102
RTVSPropertyOp33
 70
     1
102
RTVSPropertyOp34
 70
     1
102
RTVSPropertyOp35
 70
     1
102
RTVSPropertyOp36
 70
     1
102
RTVSPropertyOp37
 70
     1
102
RTVSPropertyOp38
 70
     1
102
RTVSPropertyOp39
 70
     1
102
RTVSPropertyOp40
 70
     1
102
RTVSPropertyOp41
 70
     1
102
RTVSPropertyOp42
 70
     1
102
RTVSPropertyOp43
 70
     1
102
RTVSPropertyOp44
 70
     1
102
RTVSPropertyOp45
 70
     1
102
RTVSPropertyOp46
 70
     1
102
RTVSPropertyOp47
 70
     1
102
RTVSPropertyOp48
 70
     1
102
RTVSPropertyOp49
 70
     1
102
RTVSPropertyOp50
 70
     1
102
RTVSPropertyOp51
 70
     0
102
RTVSPropertyOp52
 70
     0
102
RTVSPropertyOp53
 70
     1
102
RTVSPropertyOp54
 70
     1
102
RTVSPropertyOp55
 70
     1
102
RTVSPropertyOp56
 70
     1
102
RTVSPropertyOp57
 70
     1
102
RTVSPost2010Prop28
280
     0
102
RTVSPost2010PropOp28
 70
     1
102
RTVSPost2010Prop29
280
     1
102
RTVSPost2010PropOp29
 70
     1
102
RTVSPost2010Prop30
280
     1
102
RTVSPost2010PropOp30
 70
     1
102
RTVSPost2010Prop31
280
     0
102
RTVSPost2010PropOp31
 70
     1
102
RTVSPost2010Prop32
280
     0
102
RTVSPost2010PropOp32
 70
     1
102
RTVSPost2010Prop33
280
     0
102
RTVSPost2010PropOp33
 70
     1
102
RTVSPost2010Prop34
280
     0
102
RTVSPost2010PropOp34
 70
     1
102
RTVSPost2010Prop35
280
     0
102
RTVSPost2010PropOp35
 70
     1
102
RTVSPost2010Prop36
280
     0
102
RTVSPost2010PropOp36
 70
     1
102
RTVSPost2010Prop37
 90
       50
102
RTVSPost2010PropOp37
 70
     1
102
RTVSPost2010Prop38
140
0.0
102
RTVSPost2010PropOp38
 70
     1
102
RTVSPost2010Prop39
140
1.0
102
RTVSPost2010PropOp39
 70
     1
102
RTVSPost2010Prop40
 90
        0
102
RTVSPost2010PropOp40
 70
     1
102
RTVSPost2010Prop41ColorIndex
 90
       18
102
RTVSPost2010Prop41ColorRGB
 90
        0
102
RTVSPost2010PropOp41
 70
     1
102
RTVSPost2010Prop42
 90
       50
102
RTVSPost2010PropOp42
 70
     1
102
RTVSPost2010Prop43
 90
        3
102
RTVSPost2010PropOp43
 70
     1
102
RTVSPost2010Prop44ColorIndex
 90
        5
102
RTVSPost2010Prop44ColorRGB
 90
      255
102
RTVSPost2010PropOp44
 70
     1
102
RTVSPost2010Prop45
280
     0
102
RTVSPost2010PropOp45
 70
     1
102
RTVSPost2010Prop46
 90
       50
102
RTVSPost2010PropOp46
 70
     1
102
RTVSPost2010Prop47
 90
       50
102
RTVSPost2010PropOp47
 70
     1
102
RTVSPost2010Prop48
 90
       50
102
RTVSPost2010PropOp48
 70
     1
102
RTVSPost2010Prop49
280
     0
102
RTVSPost2010PropOp49
 70
     1
102
RTVSPost2010Prop50
 90
       50
102
RTVSPost2010PropOp50
 70
     1
102
RTVSPost2010Prop51ColorIndex
 90
      256
102
RTVSPost2010Prop51ColorRGB
 90
-16777216
102
RTVSPost2010PropOp51
 70
     0
102
RTVSPost2010Prop52
140
1.0
102
RTVSPost2010PropOp52
 70
     0
102
RTVSPost2010Prop53
 90
        2
102
RTVSPost2010PropOp53
 70
     1
102
RTVSPost2010Prop54
  1
strokes_ogs.tif
102
RTVSPost2010PropOp54
 70
     1
102
RTVSPost2010Prop55
280
     0
102
RTVSPost2010PropOp55
 70
     1
102
RTVSPost2010Prop56
140
1.0
102
RTVSPost2010PropOp56
 70
     1
102
RTVSPost2010Prop57
140
1.0
102
RTVSPost2010PropOp57
 70
     1
  0
XRECORD
  5
263
102
{ACAD_REACTORS
330
262
102
}
330
262
100
AcDbXrecord
280
     1
102
RTVSPropertyOp0
 70
     1
102
RTVSPropertyOp1
 70
     1
102
RTVSPropertyOp2
 70
     1
102
RTVSPropertyOp3
 70
     1
102
RTVSPropertyOp4
 70
     1
102
RTVSPropertyOp5
 70
     1
102
RTVSPropertyOp6
 70
     1
102
RTVSPropertyOp7
 70
     1
102
RTVSPropertyOp8
 70
     1
102
RTVSPropertyOp9
 70
     1
102
RTVSPropertyOp10
 70
     1
102
RTVSPropertyOp11
 70
     1
102
RTVSPropertyOp12
 70
     1
102
RTVSPropertyOp13
 70
     1
102
RTVSPropertyOp14
 70
     1
102
RTVSPropertyOp15
 70
     1
102
RTVSPropertyOp16
 70
     1
102
RTVSPropertyOp17
 70
     1
102
RTVSPropertyOp18
 70
     1
102
RTVSPropertyOp19
 70
     1
102
RTVSPropertyOp20
 70
     1
102
RTVSPropertyOp21
 70
     1
102
RTVSPropertyOp22
 70
     1
102
RTVSPropertyOp23
 70
     1
102
RTVSPropertyOp24
 70
     1
102
RTVSPropertyOp25
 70
     1
102
RTVSPropertyOp26
 70
     1
102
RTVSPropertyOp27
 70
     1
102
RTVSPropertyOp28
 70
     1
102
RTVSPropertyOp29
 70
     1
102
RTVSPropertyOp30
 70
     1
102
RTVSPropertyOp31
 70
     1
102
RTVSPropertyOp32
 70
     1
102
RTVSPropertyOp33
 70
     1
102
RTVSPropertyOp34
 70
     1
102
RTVSPropertyOp35
 70
     1
102
RTVSPropertyOp36
 70
     1
102
RTVSPropertyOp37
 70
     1
102
RTVSPropertyOp38
 70
     1
102
RTVSPropertyOp39
 70
     1
102
RTVSPropertyOp40
 70
     1
102
RTVSPropertyOp41
 70
     1
102
RTVSPropertyOp42
 70
     1
102
RTVSPropertyOp43
 70
     1
102
RTVSPropertyOp44
 70
     1
102
RTVSPropertyOp45
 70
     1
102
RTVSPropertyOp46
 70
     1
102
RTVSPropertyOp47
 70
     1
102
RTVSPropertyOp48
 70
     1
102
RTVSPropertyOp49
 70
     1
102
RTVSPropertyOp50
 70
     1
102
RTVSPropertyOp51
 70
     0
102
RTVSPropertyOp52
 70
     0
102
RTVSPropertyOp53
 70
     1
102
RTVSPropertyOp54
 70
     1
102
RTVSPropertyOp55
 70
     1
102
RTVSPropertyOp56
 70
     1
102
RTVSPropertyOp57
 70
     1
102
RTVSPost2010Prop28
280
     0
102
RTVSPost2010PropOp28
 70
     1
102
RTVSPost2010Prop29
280
     1
102
RTVSPost2010PropOp29
 70
     1
102
RTVSPost2010Prop30
280
     1
102
RTVSPost2010PropOp30
 70
     1
102
RTVSPost2010Prop31
280
     0
102
RTVSPost2010PropOp31
 70
     1
102
RTVSPost2010Prop32
280
     0
102
RTVSPost2010PropOp32
 70
     1
102
RTVSPost2010Prop33
280
     0
102
RTVSPost2010PropOp33
 70
     1
102
RTVSPost2010Prop34
280
     0
102
RTVSPost2010PropOp34
 70
     1
102
RTVSPost2010Prop35
280
     0
102
RTVSPost2010PropOp35
 70
     1
102
RTVSPost2010Prop36
280
     0
102
RTVSPost2010PropOp36
 70
     1
102
RTVSPost2010Prop37
 90
       50
102
RTVSPost2010PropOp37
 70
     1
102
RTVSPost2010Prop38
140
0.0
102
RTVSPost2010PropOp38
 70
     1
102
RTVSPost2010Prop39
140
1.0
102
RTVSPost2010PropOp39
 70
     1
102
RTVSPost2010Prop40
 90
        0
102
RTVSPost2010PropOp40
 70
     1
102
RTVSPost2010Prop41ColorIndex
 90
       18
102
RTVSPost2010Prop41ColorRGB
 90
        0
102
RTVSPost2010PropOp41
 70
     1
102
RTVSPost2010Prop42
 90
       50
102
RTVSPost2010PropOp42
 70
     1
102
RTVSPost2010Prop43
 90
        3
102
RTVSPost2010PropOp43
 70
     1
102
RTVSPost2010Prop44ColorIndex
 90
        5
102
RTVSPost2010Prop44ColorRGB
 90
      255
102
RTVSPost2010PropOp44
 70
     1
102
RTVSPost2010Prop45
280
     0
102
RTVSPost2010PropOp45
 70
     1
102
RTVSPost2010Prop46
 90
       50
102
RTVSPost2010PropOp46
 70
     1
102
RTVSPost2010Prop47
 90
       50
102
RTVSPost2010PropOp47
 70
     1
102
RTVSPost2010Prop48
 90
       50
102
RTVSPost2010PropOp48
 70
     1
102
RTVSPost2010Prop49
280
     0
102
RTVSPost2010PropOp49
 70
     1
102
RTVSPost2010Prop50
 90
       50
102
RTVSPost2010PropOp50
 70
     1
102
RTVSPost2010Prop51ColorIndex
 90
      256
102
RTVSPost2010Prop51ColorRGB
 90
-16777216
102
RTVSPost2010PropOp51
 70
     0
102
RTVSPost2010Prop52
140
1.0
102
RTVSPost2010PropOp52
 70
     0
102
RTVSPost2010Prop53
 90
        2
102
RTVSPost2010PropOp53
 70
     1
102
RTVSPost2010Prop54
  1
strokes_ogs.tif
102
RTVSPost2010PropOp54
 70
     1
102
RTVSPost2010Prop55
280
     0
102
RTVSPost2010PropOp55
 70
     1
102
RTVSPost2010Prop56
140
1.0
102
RTVSPost2010PropOp56
 70
     1
102
RTVSPost2010Prop57
140
1.0
102
RTVSPost2010PropOp57
 70
     1
  0
XRECORD
  5
277
102
{ACAD_REACTORS
330
276
102
}
330
276
100
AcDbXrecord
280
     1
102
RTVSPropertyOp0
 70
     0
102
RTVSPropertyOp1
 70
     0
102
RTVSPropertyOp2
 70
     0
102
RTVSPropertyOp3
 70
     0
102
RTVSPropertyOp4
 70
     0
102
RTVSPropertyOp5
 70
     0
102
RTVSPropertyOp6
 70
     0
102
RTVSPropertyOp7
 70
     0
102
RTVSPropertyOp8
 70
     0
102
RTVSPropertyOp9
 70
     0
102
RTVSPropertyOp10
 70
     0
102
RTVSPropertyOp11
 70
     0
102
RTVSPropertyOp12
 70
     0
102
RTVSPropertyOp13
 70
     0
102
RTVSPropertyOp14
 70
     2
102
RTVSPropertyOp15
 70
     0
102
RTVSPropertyOp16
 70
     0
102
RTVSPropertyOp17
 70
     0
102
RTVSPropertyOp18
 70
     0
102
RTVSPropertyOp19
 70
     0
102
RTVSPropertyOp20
 70
     0
102
RTVSPropertyOp21
 70
     0
102
RTVSPropertyOp22
 70
     0
102
RTVSPropertyOp23
 70
     0
102
RTVSPropertyOp24
 70
     0
102
RTVSPropertyOp25
 70
     0
102
RTVSPropertyOp26
 70
     0
102
RTVSPropertyOp27
 70
     0
102
RTVSPropertyOp28
 70
     0
102
RTVSPropertyOp29
 70
     0
102
RTVSPropertyOp30
 70
     0
102
RTVSPropertyOp31
 70
     0
102
RTVSPropertyOp32
 70
     0
102
RTVSPropertyOp33
 70
     0
102
RTVSPropertyOp34
 70
     0
102
RTVSPropertyOp35
 70
     0
102
RTVSPropertyOp36
 70
     0
102
RTVSPropertyOp37
 70
     0
102
RTVSPropertyOp38
 70
     0
102
RTVSPropertyOp39
 70
     0
102
RTVSPropertyOp40
 70
     0
102
RTVSPropertyOp41
 70
     0
102
RTVSPropertyOp42
 70
     0
102
RTVSPropertyOp43
 70
     0
102
RTVSPropertyOp44
 70
     0
102
RTVSPropertyOp45
 70
     0
102
RTVSPropertyOp46
 70
     0
102
RTVSPropertyOp47
 70
     0
102
RTVSPropertyOp48
 70
     0
102
RTVSPropertyOp49
 70
     0
102
RTVSPropertyOp50
 70
     0
102
RTVSPropertyOp51
 70
     0
102
RTVSPropertyOp52
 70
     0
102
RTVSPropertyOp53
 70
     0
102
RTVSPropertyOp54
 70
     0
102
RTVSPropertyOp55
 70
     0
102
RTVSPropertyOp56
 70
     0
102
RTVSPropertyOp57
 70
     0
102
RTVSPost2010Prop28
280
     0
102
RTVSPost2010PropOp28
 70
     0
102
RTVSPost2010Prop29
280
     1
102
RTVSPost2010PropOp29
 70
     0
102
RTVSPost2010Prop30
280
     1
102
RTVSPost2010PropOp30
 70
     0
102
RTVSPost2010Prop31
280
     0
102
RTVSPost2010PropOp31
 70
     0
102
RTVSPost2010Prop32
280
     0
102
RTVSPost2010PropOp32
 70
     0
102
RTVSPost2010Prop33
280
     0
102
RTVSPost2010PropOp33
 70
     0
102
RTVSPost2010Prop34
280
     0
102
RTVSPost2010PropOp34
 70
     0
102
RTVSPost2010Prop35
280
     0
102
RTVSPost2010PropOp35
 70
     0
102
RTVSPost2010Prop36
280
     0
102
RTVSPost2010PropOp36
 70
     0
102
RTVSPost2010Prop37
 90
       50
102
RTVSPost2010PropOp37
 70
     0
102
RTVSPost2010Prop38
140
0.0
102
RTVSPost2010PropOp38
 70
     0
102
RTVSPost2010Prop39
140
1.0
102
RTVSPost2010PropOp39
 70
     0
102
RTVSPost2010Prop40
 90
        0
102
RTVSPost2010PropOp40
 70
     0
102
RTVSPost2010Prop41ColorIndex
 90
       18
102
RTVSPost2010Prop41ColorRGB
 90
        0
102
RTVSPost2010PropOp41
 70
     0
102
RTVSPost2010Prop42
 90
       50
102
RTVSPost2010PropOp42
 70
     0
102
RTVSPost2010Prop43
 90
        3
102
RTVSPost2010PropOp43
 70
     0
102
RTVSPost2010Prop44ColorIndex
 90
        5
102
RTVSPost2010Prop44ColorRGB
 90
      255
102
RTVSPost2010PropOp44
 70
     0
102
RTVSPost2010Prop45
280
     0
102
RTVSPost2010PropOp45
 70
     0
102
RTVSPost2010Prop46
 90
       50
102
RTVSPost2010PropOp46
 70
     0
102
RTVSPost2010Prop47
 90
       50
102
RTVSPost2010PropOp47
 70
     0
102
RTVSPost2010Prop48
 90
       50
102
RTVSPost2010PropOp48
 70
     0
102
RTVSPost2010Prop49
280
     0
102
RTVSPost2010PropOp49
 70
     0
102
RTVSPost2010Prop50
 90
       50
102
RTVSPost2010PropOp50
 70
     0
102
RTVSPost2010Prop51ColorIndex
 90
      256
102
RTVSPost2010Prop51ColorRGB
 90
-16777216
102
RTVSPost2010PropOp51
 70
     0
102
RTVSPost2010Prop52
140
1.0
102
RTVSPost2010PropOp52
 70
     0
102
RTVSPost2010Prop53
 90
        2
102
RTVSPost2010PropOp53
 70
     0
102
RTVSPost2010Prop54
  1
strokes_ogs.tif
102
RTVSPost2010PropOp54
 70
     0
102
RTVSPost2010Prop55
280
     0
102
RTVSPost2010PropOp55
 70
     0
102
RTVSPost2010Prop56
140
1.0
102
RTVSPost2010PropOp56
 70
     0
102
RTVSPost2010Prop57
140
1.0
102
RTVSPost2010PropOp57
 70
     0
  0
XRECORD
  5
271
102
{ACAD_REACTORS
330
270
102
}
330
270
100
AcDbXrecord
280
     1
102
RTVSPropertyOp0
 70
     1
102
RTVSPropertyOp1
 70
     1
102
RTVSPropertyOp2
 70
     1
102
RTVSPropertyOp3
 70
     1
102
RTVSPropertyOp4
 70
     1
102
RTVSPropertyOp5
 70
     1
102
RTVSPropertyOp6
 70
     1
102
RTVSPropertyOp7
 70
     1
102
RTVSPropertyOp8
 70
     1
102
RTVSPropertyOp9
 70
     1
102
RTVSPropertyOp10
 70
     1
102
RTVSPropertyOp11
 70
     1
102
RTVSPropertyOp12
 70
     1
102
RTVSPropertyOp13
 70
     1
102
RTVSPropertyOp14
 70
     1
102
RTVSPropertyOp15
 70
     1
102
RTVSPropertyOp16
 70
     1
102
RTVSPropertyOp17
 70
     1
102
RTVSPropertyOp18
 70
     1
102
RTVSPropertyOp19
 70
     1
102
RTVSPropertyOp20
 70
     1
102
RTVSPropertyOp21
 70
     1
102
RTVSPropertyOp22
 70
     1
102
RTVSPropertyOp23
 70
     1
102
RTVSPropertyOp24
 70
     1
102
RTVSPropertyOp25
 70
     1
102
RTVSPropertyOp26
 70
     1
102
RTVSPropertyOp27
 70
     1
102
RTVSPropertyOp28
 70
     1
102
RTVSPropertyOp29
 70
     1
102
RTVSPropertyOp30
 70
     1
102
RTVSPropertyOp31
 70
     1
102
RTVSPropertyOp32
 70
     1
102
RTVSPropertyOp33
 70
     1
102
RTVSPropertyOp34
 70
     1
102
RTVSPropertyOp35
 70
     1
102
RTVSPropertyOp36
 70
     1
102
RTVSPropertyOp37
 70
     1
102
RTVSPropertyOp38
 70
     1
102
RTVSPropertyOp39
 70
     1
102
RTVSPropertyOp40
 70
     1
102
RTVSPropertyOp41
 70
     1
102
RTVSPropertyOp42
 70
     1
102
RTVSPropertyOp43
 70
     1
102
RTVSPropertyOp44
 70
     1
102
RTVSPropertyOp45
 70
     1
102
RTVSPropertyOp46
 70
     1
102
RTVSPropertyOp47
 70
     1
102
RTVSPropertyOp48
 70
     1
102
RTVSPropertyOp49
 70
     1
102
RTVSPropertyOp50
 70
     1
102
RTVSPropertyOp51
 70
     0
102
RTVSPropertyOp52
 70
     0
102
RTVSPropertyOp53
 70
     1
102
RTVSPropertyOp54
 70
     1
102
RTVSPropertyOp55
 70
     1
102
RTVSPropertyOp56
 70
     1
102
RTVSPropertyOp57
 70
     1
102
RTVSPost2010Prop28
280
     0
102
RTVSPost2010PropOp28
 70
     1
102
RTVSPost2010Prop29
280
     1
102
RTVSPost2010PropOp29
 70
     1
102
RTVSPost2010Prop30
280
     1
102
RTVSPost2010PropOp30
 70
     1
102
RTVSPost2010Prop31
280
     0
102
RTVSPost2010PropOp31
 70
     1
102
RTVSPost2010Prop32
280
     0
102
RTVSPost2010PropOp32
 70
     1
102
RTVSPost2010Prop33
280
     0
102
RTVSPost2010PropOp33
 70
     1
102
RTVSPost2010Prop34
280
     0
102
RTVSPost2010PropOp34
 70
     1
102
RTVSPost2010Prop35
280
     0
102
RTVSPost2010PropOp35
 70
     1
102
RTVSPost2010Prop36
280
     0
102
RTVSPost2010PropOp36
 70
     1
102
RTVSPost2010Prop37
 90
       50
102
RTVSPost2010PropOp37
 70
     1
102
RTVSPost2010Prop38
140
0.0
102
RTVSPost2010PropOp38
 70
     1
102
RTVSPost2010Prop39
140
1.0
102
RTVSPost2010PropOp39
 70
     1
102
RTVSPost2010Prop40
 90
        0
102
RTVSPost2010PropOp40
 70
     1
102
RTVSPost2010Prop41ColorIndex
 90
       18
102
RTVSPost2010Prop41ColorRGB
 90
        0
102
RTVSPost2010PropOp41
 70
     1
102
RTVSPost2010Prop42
 90
       50
102
RTVSPost2010PropOp42
 70
     1
102
RTVSPost2010Prop43
 90
        3
102
RTVSPost2010PropOp43
 70
     1
102
RTVSPost2010Prop44ColorIndex
 90
        5
102
RTVSPost2010Prop44ColorRGB
 90
      255
102
RTVSPost2010PropOp44
 70
     1
102
RTVSPost2010Prop45
280
     0
102
RTVSPost2010PropOp45
 70
     1
102
RTVSPost2010Prop46
 90
       50
102
RTVSPost2010PropOp46
 70
     1
102
RTVSPost2010Prop47
 90
       50
102
RTVSPost2010PropOp47
 70
     1
102
RTVSPost2010Prop48
 90
       50
102
RTVSPost2010PropOp48
 70
     1
102
RTVSPost2010Prop49
280
     0
102
RTVSPost2010PropOp49
 70
     1
102
RTVSPost2010Prop50
 90
       50
102
RTVSPost2010PropOp50
 70
     1
102
RTVSPost2010Prop51ColorIndex
 90
      256
102
RTVSPost2010Prop51ColorRGB
 90
-16777216
102
RTVSPost2010PropOp51
 70
     0
102
RTVSPost2010Prop52
140
1.0
102
RTVSPost2010PropOp52
 70
     0
102
RTVSPost2010Prop53
 90
        2
102
RTVSPost2010PropOp53
 70
     1
102
RTVSPost2010Prop54
  1
strokes_ogs.tif
102
RTVSPost2010PropOp54
 70
     1
102
RTVSPost2010Prop55
280
     0
102
RTVSPost2010PropOp55
 70
     1
102
RTVSPost2010Prop56
140
1.0
102
RTVSPost2010PropOp56
 70
     1
102
RTVSPost2010Prop57
140
1.0
102
RTVSPost2010PropOp57
 70
     1
  0
XRECORD
  5
279
102
{ACAD_REACTORS
330
278
102
}
330
278
100
AcDbXrecord
280
     1
102
RTVSPropertyOp0
 70
     0
102
RTVSPropertyOp1
 70
     0
102
RTVSPropertyOp2
 70
     0
102
RTVSPropertyOp3
 70
     0
102
RTVSPropertyOp4
 70
     0
102
RTVSPropertyOp5
 70
     0
102
RTVSPropertyOp6
 70
     0
102
RTVSPropertyOp7
 70
     0
102
RTVSPropertyOp8
 70
     0
102
RTVSPropertyOp9
 70
     0
102
RTVSPropertyOp10
 70
     0
102
RTVSPropertyOp11
 70
     0
102
RTVSPropertyOp12
 70
     0
102
RTVSPropertyOp13
 70
     0
102
RTVSPropertyOp14
 70
     2
102
RTVSPropertyOp15
 70
     0
102
RTVSPropertyOp16
 70
     0
102
RTVSPropertyOp17
 70
     0
102
RTVSPropertyOp18
 70
     0
102
RTVSPropertyOp19
 70
     0
102
RTVSPropertyOp20
 70
     0
102
RTVSPropertyOp21
 70
     0
102
RTVSPropertyOp22
 70
     0
102
RTVSPropertyOp23
 70
     0
102
RTVSPropertyOp24
 70
     0
102
RTVSPropertyOp25
 70
     0
102
RTVSPropertyOp26
 70
     0
102
RTVSPropertyOp27
 70
     0
102
RTVSPropertyOp28
 70
     0
102
RTVSPropertyOp29
 70
     0
102
RTVSPropertyOp30
 70
     0
102
RTVSPropertyOp31
 70
     0
102
RTVSPropertyOp32
 70
     0
102
RTVSPropertyOp33
 70
     0
102
RTVSPropertyOp34
 70
     0
102
RTVSPropertyOp35
 70
     0
102
RTVSPropertyOp36
 70
     0
102
RTVSPropertyOp37
 70
     0
102
RTVSPropertyOp38
 70
     0
102
RTVSPropertyOp39
 70
     0
102
RTVSPropertyOp40
 70
     0
102
RTVSPropertyOp41
 70
     0
102
RTVSPropertyOp42
 70
     0
102
RTVSPropertyOp43
 70
     0
102
RTVSPropertyOp44
 70
     0
102
RTVSPropertyOp45
 70
     0
102
RTVSPropertyOp46
 70
     0
102
RTVSPropertyOp47
 70
     0
102
RTVSPropertyOp48
 70
     0
102
RTVSPropertyOp49
 70
     0
102
RTVSPropertyOp50
 70
     0
102
RTVSPropertyOp51
 70
     0
102
RTVSPropertyOp52
 70
     0
102
RTVSPropertyOp53
 70
     0
102
RTVSPropertyOp54
 70
     0
102
RTVSPropertyOp55
 70
     0
102
RTVSPropertyOp56
 70
     0
102
RTVSPropertyOp57
 70
     0
102
RTVSPost2010Prop28
280
     0
102
RTVSPost2010PropOp28
 70
     0
102
RTVSPost2010Prop29
280
     1
102
RTVSPost2010PropOp29
 70
     0
102
RTVSPost2010Prop30
280
     1
102
RTVSPost2010PropOp30
 70
     0
102
RTVSPost2010Prop31
280
     0
102
RTVSPost2010PropOp31
 70
     0
102
RTVSPost2010Prop32
280
     0
102
RTVSPost2010PropOp32
 70
     0
102
RTVSPost2010Prop33
280
     0
102
RTVSPost2010PropOp33
 70
     0
102
RTVSPost2010Prop34
280
     0
102
RTVSPost2010PropOp34
 70
     0
102
RTVSPost2010Prop35
280
     0
102
RTVSPost2010PropOp35
 70
     0
102
RTVSPost2010Prop36
280
     0
102
RTVSPost2010PropOp36
 70
     0
102
RTVSPost2010Prop37
 90
       50
102
RTVSPost2010PropOp37
 70
     0
102
RTVSPost2010Prop38
140
0.0
102
RTVSPost2010PropOp38
 70
     0
102
RTVSPost2010Prop39
140
1.0
102
RTVSPost2010PropOp39
 70
     0
102
RTVSPost2010Prop40
 90
        0
102
RTVSPost2010PropOp40
 70
     0
102
RTVSPost2010Prop41ColorIndex
 90
       18
102
RTVSPost2010Prop41ColorRGB
 90
        0
102
RTVSPost2010PropOp41
 70
     0
102
RTVSPost2010Prop42
 90
       50
102
RTVSPost2010PropOp42
 70
     0
102
RTVSPost2010Prop43
 90
        3
102
RTVSPost2010PropOp43
 70
     0
102
RTVSPost2010Prop44ColorIndex
 90
        5
102
RTVSPost2010Prop44ColorRGB
 90
      255
102
RTVSPost2010PropOp44
 70
     0
102
RTVSPost2010Prop45
280
     0
102
RTVSPost2010PropOp45
 70
     0
102
RTVSPost2010Prop46
 90
       50
102
RTVSPost2010PropOp46
 70
     0
102
RTVSPost2010Prop47
 90
       50
102
RTVSPost2010PropOp47
 70
     0
102
RTVSPost2010Prop48
 90
       50
102
RTVSPost2010PropOp48
 70
     0
102
RTVSPost2010Prop49
280
     0
102
RTVSPost2010PropOp49
 70
     0
102
RTVSPost2010Prop50
 90
       50
102
RTVSPost2010PropOp50
 70
     0
102
RTVSPost2010Prop51ColorIndex
 90
      256
102
RTVSPost2010Prop51ColorRGB
 90
-16777216
102
RTVSPost2010PropOp51
 70
     0
102
RTVSPost2010Prop52
140
1.0
102
RTVSPost2010PropOp52
 70
     0
102
RTVSPost2010Prop53
 90
        2
102
RTVSPost2010PropOp53
 70
     0
102
RTVSPost2010Prop54
  1
strokes_ogs.tif
102
RTVSPost2010PropOp54
 70
     0
102
RTVSPost2010Prop55
280
     0
102
RTVSPost2010PropOp55
 70
     0
102
RTVSPost2010Prop56
140
1.0
102
RTVSPost2010PropOp56
 70
     0
102
RTVSPost2010Prop57
140
1.0
102
RTVSPost2010PropOp57
 70
     0
  0
XRECORD
  5
267
102
{ACAD_REACTORS
330
266
102
}
330
266
100
AcDbXrecord
280
     1
102
RTVSPropertyOp0
 70
     1
102
RTVSPropertyOp1
 70
     1
102
RTVSPropertyOp2
 70
     1
102
RTVSPropertyOp3
 70
     1
102
RTVSPropertyOp4
 70
     1
102
RTVSPropertyOp5
 70
     1
102
RTVSPropertyOp6
 70
     1
102
RTVSPropertyOp7
 70
     1
102
RTVSPropertyOp8
 70
     1
102
RTVSPropertyOp9
 70
     1
102
RTVSPropertyOp10
 70
     1
102
RTVSPropertyOp11
 70
     1
102
RTVSPropertyOp12
 70
     1
102
RTVSPropertyOp13
 70
     1
102
RTVSPropertyOp14
 70
     1
102
RTVSPropertyOp15
 70
     1
102
RTVSPropertyOp16
 70
     1
102
RTVSPropertyOp17
 70
     1
102
RTVSPropertyOp18
 70
     1
102
RTVSPropertyOp19
 70
     1
102
RTVSPropertyOp20
 70
     1
102
RTVSPropertyOp21
 70
     1
102
RTVSPropertyOp22
 70
     1
102
RTVSPropertyOp23
 70
     1
102
RTVSPropertyOp24
 70
     1
102
RTVSPropertyOp25
 70
     1
102
RTVSPropertyOp26
 70
     1
102
RTVSPropertyOp27
 70
     1
102
RTVSPropertyOp28
 70
     1
102
RTVSPropertyOp29
 70
     1
102
RTVSPropertyOp30
 70
     1
102
RTVSPropertyOp31
 70
     1
102
RTVSPropertyOp32
 70
     1
102
RTVSPropertyOp33
 70
     1
102
RTVSPropertyOp34
 70
     1
102
RTVSPropertyOp35
 70
     1
102
RTVSPropertyOp36
 70
     1
102
RTVSPropertyOp37
 70
     1
102
RTVSPropertyOp38
 70
     1
102
RTVSPropertyOp39
 70
     1
102
RTVSPropertyOp40
 70
     1
102
RTVSPropertyOp41
 70
     1
102
RTVSPropertyOp42
 70
     1
102
RTVSPropertyOp43
 70
     1
102
RTVSPropertyOp44
 70
     1
102
RTVSPropertyOp45
 70
     1
102
RTVSPropertyOp46
 70
     1
102
RTVSPropertyOp47
 70
     1
102
RTVSPropertyOp48
 70
     1
102
RTVSPropertyOp49
 70
     1
102
RTVSPropertyOp50
 70
     1
102
RTVSPropertyOp51
 70
     0
102
RTVSPropertyOp52
 70
     0
102
RTVSPropertyOp53
 70
     1
102
RTVSPropertyOp54
 70
     1
102
RTVSPropertyOp55
 70
     1
102
RTVSPropertyOp56
 70
     1
102
RTVSPropertyOp57
 70
     1
102
RTVSPost2010Prop28
280
     0
102
RTVSPost2010PropOp28
 70
     1
102
RTVSPost2010Prop29
280
     1
102
RTVSPost2010PropOp29
 70
     1
102
RTVSPost2010Prop30
280
     1
102
RTVSPost2010PropOp30
 70
     1
102
RTVSPost2010Prop31
280
     0
102
RTVSPost2010PropOp31
 70
     1
102
RTVSPost2010Prop32
280
     0
102
RTVSPost2010PropOp32
 70
     1
102
RTVSPost2010Prop33
280
     0
102
RTVSPost2010PropOp33
 70
     1
102
RTVSPost2010Prop34
280
     0
102
RTVSPost2010PropOp34
 70
     1
102
RTVSPost2010Prop35
280
     0
102
RTVSPost2010PropOp35
 70
     1
102
RTVSPost2010Prop36
280
     0
102
RTVSPost2010PropOp36
 70
     1
102
RTVSPost2010Prop37
 90
       50
102
RTVSPost2010PropOp37
 70
     1
102
RTVSPost2010Prop38
140
0.0
102
RTVSPost2010PropOp38
 70
     1
102
RTVSPost2010Prop39
140
1.0
102
RTVSPost2010PropOp39
 70
     1
102
RTVSPost2010Prop40
 90
        0
102
RTVSPost2010PropOp40
 70
     1
102
RTVSPost2010Prop41ColorIndex
 90
       18
102
RTVSPost2010Prop41ColorRGB
 90
        0
102
RTVSPost2010PropOp41
 70
     1
102
RTVSPost2010Prop42
 90
       50
102
RTVSPost2010PropOp42
 70
     1
102
RTVSPost2010Prop43
 90
        3
102
RTVSPost2010PropOp43
 70
     1
102
RTVSPost2010Prop44ColorIndex
 90
        5
102
RTVSPost2010Prop44ColorRGB
 90
      255
102
RTVSPost2010PropOp44
 70
     1
102
RTVSPost2010Prop45
280
     0
102
RTVSPost2010PropOp45
 70
     1
102
RTVSPost2010Prop46
 90
       50
102
RTVSPost2010PropOp46
 70
     1
102
RTVSPost2010Prop47
 90
       50
102
RTVSPost2010PropOp47
 70
     1
102
RTVSPost2010Prop48
 90
       50
102
RTVSPost2010PropOp48
 70
     1
102
RTVSPost2010Prop49
280
     0
102
RTVSPost2010PropOp49
 70
     1
102
RTVSPost2010Prop50
 90
       50
102
RTVSPost2010PropOp50
 70
     1
102
RTVSPost2010Prop51ColorIndex
 90
      256
102
RTVSPost2010Prop51ColorRGB
 90
-16777216
102
RTVSPost2010PropOp51
 70
     0
102
RTVSPost2010Prop52
140
1.0
102
RTVSPost2010PropOp52
 70
     0
102
RTVSPost2010Prop53
 90
        2
102
RTVSPost2010PropOp53
 70
     1
102
RTVSPost2010Prop54
  1
strokes_ogs.tif
102
RTVSPost2010PropOp54
 70
     1
102
RTVSPost2010Prop55
280
     0
102
RTVSPost2010PropOp55
 70
     1
102
RTVSPost2010Prop56
140
1.0
102
RTVSPost2010PropOp56
 70
     1
102
RTVSPost2010Prop57
140
1.0
102
RTVSPost2010PropOp57
 70
     1
  0
XRECORD
  5
285
102
{ACAD_REACTORS
330
284
102
}
330
284
100
AcDbXrecord
280
     1
102
RTVSPropertyOp0
 70
     1
102
RTVSPropertyOp1
 70
     1
102
RTVSPropertyOp2
 70
     1
102
RTVSPropertyOp3
 70
     1
102
RTVSPropertyOp4
 70
     1
102
RTVSPropertyOp5
 70
     1
102
RTVSPropertyOp6
 70
     1
102
RTVSPropertyOp7
 70
     1
102
RTVSPropertyOp8
 70
     1
102
RTVSPropertyOp9
 70
     1
102
RTVSPropertyOp10
 70
     1
102
RTVSPropertyOp11
 70
     1
102
RTVSPropertyOp12
 70
     1
102
RTVSPropertyOp13
 70
     1
102
RTVSPropertyOp14
 70
     1
102
RTVSPropertyOp15
 70
     1
102
RTVSPropertyOp16
 70
     1
102
RTVSPropertyOp17
 70
     1
102
RTVSPropertyOp18
 70
     1
102
RTVSPropertyOp19
 70
     1
102
RTVSPropertyOp20
 70
     1
102
RTVSPropertyOp21
 70
     1
102
RTVSPropertyOp22
 70
     1
102
RTVSPropertyOp23
 70
     1
102
RTVSPropertyOp24
 70
     1
102
RTVSPropertyOp25
 70
     1
102
RTVSPropertyOp26
 70
     1
102
RTVSPropertyOp27
 70
     1
102
RTVSPropertyOp28
 70
     1
102
RTVSPropertyOp29
 70
     1
102
RTVSPropertyOp30
 70
     1
102
RTVSPropertyOp31
 70
     1
102
RTVSPropertyOp32
 70
     1
102
RTVSPropertyOp33
 70
     1
102
RTVSPropertyOp34
 70
     1
102
RTVSPropertyOp35
 70
     1
102
RTVSPropertyOp36
 70
     1
102
RTVSPropertyOp37
 70
     1
102
RTVSPropertyOp38
 70
     1
102
RTVSPropertyOp39
 70
     1
102
RTVSPropertyOp40
 70
     1
102
RTVSPropertyOp41
 70
     1
102
RTVSPropertyOp42
 70
     1
102
RTVSPropertyOp43
 70
     1
102
RTVSPropertyOp44
 70
     1
102
RTVSPropertyOp45
 70
     1
102
RTVSPropertyOp46
 70
     1
102
RTVSPropertyOp47
 70
     1
102
RTVSPropertyOp48
 70
     1
102
RTVSPropertyOp49
 70
     1
102
RTVSPropertyOp50
 70
     1
102
RTVSPropertyOp51
 70
     0
102
RTVSPropertyOp52
 70
     0
102
RTVSPropertyOp53
 70
     1
102
RTVSPropertyOp54
 70
     1
102
RTVSPropertyOp55
 70
     1
102
RTVSPropertyOp56
 70
     1
102
RTVSPropertyOp57
 70
     1
102
RTVSPost2010Prop28
280
     0
102
RTVSPost2010PropOp28
 70
     1
102
RTVSPost2010Prop29
280
     1
102
RTVSPost2010PropOp29
 70
     1
102
RTVSPost2010Prop30
280
     1
102
RTVSPost2010PropOp30
 70
     1
102
RTVSPost2010Prop31
280
     0
102
RTVSPost2010PropOp31
 70
     1
102
RTVSPost2010Prop32
280
     0
102
RTVSPost2010PropOp32
 70
     1
102
RTVSPost2010Prop33
280
     0
102
RTVSPost2010PropOp33
 70
     1
102
RTVSPost2010Prop34
280
     0
102
RTVSPost2010PropOp34
 70
     1
102
RTVSPost2010Prop35
280
     0
102
RTVSPost2010PropOp35
 70
     1
102
RTVSPost2010Prop36
280
     0
102
RTVSPost2010PropOp36
 70
     1
102
RTVSPost2010Prop37
 90
       50
102
RTVSPost2010PropOp37
 70
     1
102
RTVSPost2010Prop38
140
0.0
102
RTVSPost2010PropOp38
 70
     1
102
RTVSPost2010Prop39
140
1.0
102
RTVSPost2010PropOp39
 70
     1
102
RTVSPost2010Prop40
 90
        0
102
RTVSPost2010PropOp40
 70
     1
102
RTVSPost2010Prop41ColorIndex
 90
       18
102
RTVSPost2010Prop41ColorRGB
 90
        0
102
RTVSPost2010PropOp41
 70
     1
102
RTVSPost2010Prop42
 90
       50
102
RTVSPost2010PropOp42
 70
     1
102
RTVSPost2010Prop43
 90
        3
102
RTVSPost2010PropOp43
 70
     1
102
RTVSPost2010Prop44ColorIndex
 90
        5
102
RTVSPost2010Prop44ColorRGB
 90
      255
102
RTVSPost2010PropOp44
 70
     1
102
RTVSPost2010Prop45
280
     0
102
RTVSPost2010PropOp45
 70
     1
102
RTVSPost2010Prop46
 90
       50
102
RTVSPost2010PropOp46
 70
     1
102
RTVSPost2010Prop47
 90
       50
102
RTVSPost2010PropOp47
 70
     1
102
RTVSPost2010Prop48
 90
       50
102
RTVSPost2010PropOp48
 70
     1
102
RTVSPost2010Prop49
280
     0
102
RTVSPost2010PropOp49
 70
     1
102
RTVSPost2010Prop50
 90
       50
102
RTVSPost2010PropOp50
 70
     1
102
RTVSPost2010Prop51ColorIndex
 90
      256
102
RTVSPost2010Prop51ColorRGB
 90
-16777216
102
RTVSPost2010PropOp51
 70
     0
102
RTVSPost2010Prop52
140
1.0
102
RTVSPost2010PropOp52
 70
     0
102
RTVSPost2010Prop53
 90
        2
102
RTVSPost2010PropOp53
 70
     1
102
RTVSPost2010Prop54
  1
strokes_ogs.tif
102
RTVSPost2010PropOp54
 70
     1
102
RTVSPost2010Prop55
280
     0
102
RTVSPost2010PropOp55
 70
     1
102
RTVSPost2010Prop56
140
1.0
102
RTVSPost2010PropOp56
 70
     1
102
RTVSPost2010Prop57
140
1.0
102
RTVSPost2010PropOp57
 70
     1
  0
XRECORD
  5
283
102
{ACAD_REACTORS
330
282
102
}
330
282
100
AcDbXrecord
280
     1
102
RTVSPropertyOp0
 70
     1
102
RTVSPropertyOp1
 70
     1
102
RTVSPropertyOp2
 70
     1
102
RTVSPropertyOp3
 70
     1
102
RTVSPropertyOp4
 70
     1
102
RTVSPropertyOp5
 70
     1
102
RTVSPropertyOp6
 70
     1
102
RTVSPropertyOp7
 70
     1
102
RTVSPropertyOp8
 70
     1
102
RTVSPropertyOp9
 70
     1
102
RTVSPropertyOp10
 70
     1
102
RTVSPropertyOp11
 70
     1
102
RTVSPropertyOp12
 70
     1
102
RTVSPropertyOp13
 70
     1
102
RTVSPropertyOp14
 70
     1
102
RTVSPropertyOp15
 70
     1
102
RTVSPropertyOp16
 70
     1
102
RTVSPropertyOp17
 70
     1
102
RTVSPropertyOp18
 70
     1
102
RTVSPropertyOp19
 70
     1
102
RTVSPropertyOp20
 70
     1
102
RTVSPropertyOp21
 70
     1
102
RTVSPropertyOp22
 70
     1
102
RTVSPropertyOp23
 70
     1
102
RTVSPropertyOp24
 70
     1
102
RTVSPropertyOp25
 70
     1
102
RTVSPropertyOp26
 70
     1
102
RTVSPropertyOp27
 70
     1
102
RTVSPropertyOp28
 70
     1
102
RTVSPropertyOp29
 70
     1
102
RTVSPropertyOp30
 70
     1
102
RTVSPropertyOp31
 70
     1
102
RTVSPropertyOp32
 70
     1
102
RTVSPropertyOp33
 70
     1
102
RTVSPropertyOp34
 70
     1
102
RTVSPropertyOp35
 70
     1
102
RTVSPropertyOp36
 70
     1
102
RTVSPropertyOp37
 70
     1
102
RTVSPropertyOp38
 70
     1
102
RTVSPropertyOp39
 70
     1
102
RTVSPropertyOp40
 70
     1
102
RTVSPropertyOp41
 70
     1
102
RTVSPropertyOp42
 70
     1
102
RTVSPropertyOp43
 70
     1
102
RTVSPropertyOp44
 70
     1
102
RTVSPropertyOp45
 70
     1
102
RTVSPropertyOp46
 70
     1
102
RTVSPropertyOp47
 70
     1
102
RTVSPropertyOp48
 70
     1
102
RTVSPropertyOp49
 70
     1
102
RTVSPropertyOp50
 70
     1
102
RTVSPropertyOp51
 70
     0
102
RTVSPropertyOp52
 70
     0
102
RTVSPropertyOp53
 70
     1
102
RTVSPropertyOp54
 70
     1
102
RTVSPropertyOp55
 70
     1
102
RTVSPropertyOp56
 70
     1
102
RTVSPropertyOp57
 70
     1
102
RTVSPost2010Prop28
280
     0
102
RTVSPost2010PropOp28
 70
     1
102
RTVSPost2010Prop29
280
     1
102
RTVSPost2010PropOp29
 70
     1
102
RTVSPost2010Prop30
280
     1
102
RTVSPost2010PropOp30
 70
     1
102
RTVSPost2010Prop31
280
     0
102
RTVSPost2010PropOp31
 70
     1
102
RTVSPost2010Prop32
280
     0
102
RTVSPost2010PropOp32
 70
     1
102
RTVSPost2010Prop33
280
     0
102
RTVSPost2010PropOp33
 70
     1
102
RTVSPost2010Prop34
280
     0
102
RTVSPost2010PropOp34
 70
     1
102
RTVSPost2010Prop35
280
     0
102
RTVSPost2010PropOp35
 70
     1
102
RTVSPost2010Prop36
280
     0
102
RTVSPost2010PropOp36
 70
     1
102
RTVSPost2010Prop37
 90
       50
102
RTVSPost2010PropOp37
 70
     1
102
RTVSPost2010Prop38
140
0.0
102
RTVSPost2010PropOp38
 70
     1
102
RTVSPost2010Prop39
140
1.0
102
RTVSPost2010PropOp39
 70
     1
102
RTVSPost2010Prop40
 90
        0
102
RTVSPost2010PropOp40
 70
     1
102
RTVSPost2010Prop41ColorIndex
 90
       18
102
RTVSPost2010Prop41ColorRGB
 90
        0
102
RTVSPost2010PropOp41
 70
     1
102
RTVSPost2010Prop42
 90
       50
102
RTVSPost2010PropOp42
 70
     1
102
RTVSPost2010Prop43
 90
        3
102
RTVSPost2010PropOp43
 70
     1
102
RTVSPost2010Prop44ColorIndex
 90
        5
102
RTVSPost2010Prop44ColorRGB
 90
      255
102
RTVSPost2010PropOp44
 70
     1
102
RTVSPost2010Prop45
280
     0
102
RTVSPost2010PropOp45
 70
     1
102
RTVSPost2010Prop46
 90
       50
102
RTVSPost2010PropOp46
 70
     1
102
RTVSPost2010Prop47
 90
       50
102
RTVSPost2010PropOp47
 70
     1
102
RTVSPost2010Prop48
 90
       50
102
RTVSPost2010PropOp48
 70
     1
102
RTVSPost2010Prop49
280
     0
102
RTVSPost2010PropOp49
 70
     1
102
RTVSPost2010Prop50
 90
       50
102
RTVSPost2010PropOp50
 70
     1
102
RTVSPost2010Prop51ColorIndex
 90
      256
102
RTVSPost2010Prop51ColorRGB
 90
-16777216
102
RTVSPost2010PropOp51
 70
     0
102
RTVSPost2010Prop52
140
1.0
102
RTVSPost2010PropOp52
 70
     0
102
RTVSPost2010Prop53
 90
        2
102
RTVSPost2010PropOp53
 70
     1
102
RTVSPost2010Prop54
  1
strokes_ogs.tif
102
RTVSPost2010PropOp54
 70
     1
102
RTVSPost2010Prop55
280
     0
102
RTVSPost2010PropOp55
 70
     1
102
RTVSPost2010Prop56
140
1.0
102
RTVSPost2010PropOp56
 70
     1
102
RTVSPost2010Prop57
140
1.0
102
RTVSPost2010PropOp57
 70
     1
  0
XRECORD
  5
27D
102
{ACAD_REACTORS
330
27C
102
}
330
27C
100
AcDbXrecord
280
     1
102
RTVSPropertyOp0
 70
     1
102
RTVSPropertyOp1
 70
     1
102
RTVSPropertyOp2
 70
     1
102
RTVSPropertyOp3
 70
     1
102
RTVSPropertyOp4
 70
     1
102
RTVSPropertyOp5
 70
     1
102
RTVSPropertyOp6
 70
     1
102
RTVSPropertyOp7
 70
     1
102
RTVSPropertyOp8
 70
     1
102
RTVSPropertyOp9
 70
     1
102
RTVSPropertyOp10
 70
     1
102
RTVSPropertyOp11
 70
     1
102
RTVSPropertyOp12
 70
     1
102
RTVSPropertyOp13
 70
     1
102
RTVSPropertyOp14
 70
     1
102
RTVSPropertyOp15
 70
     1
102
RTVSPropertyOp16
 70
     1
102
RTVSPropertyOp17
 70
     1
102
RTVSPropertyOp18
 70
     1
102
RTVSPropertyOp19
 70
     1
102
RTVSPropertyOp20
 70
     1
102
RTVSPropertyOp21
 70
     1
102
RTVSPropertyOp22
 70
     1
102
RTVSPropertyOp23
 70
     1
102
RTVSPropertyOp24
 70
     1
102
RTVSPropertyOp25
 70
     1
102
RTVSPropertyOp26
 70
     1
102
RTVSPropertyOp27
 70
     1
102
RTVSPropertyOp28
 70
     1
102
RTVSPropertyOp29
 70
     1
102
RTVSPropertyOp30
 70
     1
102
RTVSPropertyOp31
 70
     1
102
RTVSPropertyOp32
 70
     1
102
RTVSPropertyOp33
 70
     1
102
RTVSPropertyOp34
 70
     1
102
RTVSPropertyOp35
 70
     1
102
RTVSPropertyOp36
 70
     1
102
RTVSPropertyOp37
 70
     1
102
RTVSPropertyOp38
 70
     1
102
RTVSPropertyOp39
 70
     1
102
RTVSPropertyOp40
 70
     1
102
RTVSPropertyOp41
 70
     1
102
RTVSPropertyOp42
 70
     1
102
RTVSPropertyOp43
 70
     1
102
RTVSPropertyOp44
 70
     1
102
RTVSPropertyOp45
 70
     1
102
RTVSPropertyOp46
 70
     1
102
RTVSPropertyOp47
 70
     1
102
RTVSPropertyOp48
 70
     1
102
RTVSPropertyOp49
 70
     1
102
RTVSPropertyOp50
 70
     1
102
RTVSPropertyOp51
 70
     0
102
RTVSPropertyOp52
 70
     0
102
RTVSPropertyOp53
 70
     1
102
RTVSPropertyOp54
 70
     1
102
RTVSPropertyOp55
 70
     1
102
RTVSPropertyOp56
 70
     1
102
RTVSPropertyOp57
 70
     1
102
RTVSPost2010Prop28
280
     0
102
RTVSPost2010PropOp28
 70
     1
102
RTVSPost2010Prop29
280
     1
102
RTVSPost2010PropOp29
 70
     1
102
RTVSPost2010Prop30
280
     1
102
RTVSPost2010PropOp30
 70
     1
102
RTVSPost2010Prop31
280
     0
102
RTVSPost2010PropOp31
 70
     1
102
RTVSPost2010Prop32
280
     0
102
RTVSPost2010PropOp32
 70
     1
102
RTVSPost2010Prop33
280
     0
102
RTVSPost2010PropOp33
 70
     1
102
RTVSPost2010Prop34
280
     0
102
RTVSPost2010PropOp34
 70
     1
102
RTVSPost2010Prop35
280
     0
102
RTVSPost2010PropOp35
 70
     1
102
RTVSPost2010Prop36
280
     0
102
RTVSPost2010PropOp36
 70
     1
102
RTVSPost2010Prop37
 90
       50
102
RTVSPost2010PropOp37
 70
     1
102
RTVSPost2010Prop38
140
0.0
102
RTVSPost2010PropOp38
 70
     1
102
RTVSPost2010Prop39
140
1.0
102
RTVSPost2010PropOp39
 70
     1
102
RTVSPost2010Prop40
 90
        0
102
RTVSPost2010PropOp40
 70
     1
102
RTVSPost2010Prop41ColorIndex
 90
       18
102
RTVSPost2010Prop41ColorRGB
 90
        0
102
RTVSPost2010PropOp41
 70
     1
102
RTVSPost2010Prop42
 90
       50
102
RTVSPost2010PropOp42
 70
     1
102
RTVSPost2010Prop43
 90
        3
102
RTVSPost2010PropOp43
 70
     1
102
RTVSPost2010Prop44ColorIndex
 90
        5
102
RTVSPost2010Prop44ColorRGB
 90
      255
102
RTVSPost2010PropOp44
 70
     1
102
RTVSPost2010Prop45
280
     0
102
RTVSPost2010PropOp45
 70
     1
102
RTVSPost2010Prop46
 90
       50
102
RTVSPost2010PropOp46
 70
     1
102
RTVSPost2010Prop47
 90
       50
102
RTVSPost2010PropOp47
 70
     1
102
RTVSPost2010Prop48
 90
       50
102
RTVSPost2010PropOp48
 70
     1
102
RTVSPost2010Prop49
280
     0
102
RTVSPost2010PropOp49
 70
     1
102
RTVSPost2010Prop50
 90
       50
102
RTVSPost2010PropOp50
 70
     1
102
RTVSPost2010Prop51ColorIndex
 90
      256
102
RTVSPost2010Prop51ColorRGB
 90
-16777216
102
RTVSPost2010PropOp51
 70
     0
102
RTVSPost2010Prop52
140
1.0
102
RTVSPost2010PropOp52
 70
     0
102
RTVSPost2010Prop53
 90
        2
102
RTVSPost2010PropOp53
 70
     1
102
RTVSPost2010Prop54
  1
strokes_ogs.tif
102
RTVSPost2010PropOp54
 70
     1
102
RTVSPost2010Prop55
280
     0
102
RTVSPost2010PropOp55
 70
     1
102
RTVSPost2010Prop56
140
1.0
102
RTVSPost2010PropOp56
 70
     1
102
RTVSPost2010Prop57
140
1.0
102
RTVSPost2010PropOp57
 70
     1
  0
XRECORD
  5
27F
102
{ACAD_REACTORS
330
27E
102
}
330
27E
100
AcDbXrecord
280
     1
102
RTVSPropertyOp0
 70
     1
102
RTVSPropertyOp1
 70
     1
102
RTVSPropertyOp2
 70
     1
102
RTVSPropertyOp3
 70
     1
102
RTVSPropertyOp4
 70
     1
102
RTVSPropertyOp5
 70
     1
102
RTVSPropertyOp6
 70
     1
102
RTVSPropertyOp7
 70
     1
102
RTVSPropertyOp8
 70
     1
102
RTVSPropertyOp9
 70
     1
102
RTVSPropertyOp10
 70
     1
102
RTVSPropertyOp11
 70
     1
102
RTVSPropertyOp12
 70
     1
102
RTVSPropertyOp13
 70
     1
102
RTVSPropertyOp14
 70
     1
102
RTVSPropertyOp15
 70
     1
102
RTVSPropertyOp16
 70
     1
102
RTVSPropertyOp17
 70
     1
102
RTVSPropertyOp18
 70
     1
102
RTVSPropertyOp19
 70
     1
102
RTVSPropertyOp20
 70
     1
102
RTVSPropertyOp21
 70
     1
102
RTVSPropertyOp22
 70
     1
102
RTVSPropertyOp23
 70
     1
102
RTVSPropertyOp24
 70
     1
102
RTVSPropertyOp25
 70
     1
102
RTVSPropertyOp26
 70
     1
102
RTVSPropertyOp27
 70
     1
102
RTVSPropertyOp28
 70
     1
102
RTVSPropertyOp29
 70
     1
102
RTVSPropertyOp30
 70
     1
102
RTVSPropertyOp31
 70
     1
102
RTVSPropertyOp32
 70
     1
102
RTVSPropertyOp33
 70
     1
102
RTVSPropertyOp34
 70
     1
102
RTVSPropertyOp35
 70
     1
102
RTVSPropertyOp36
 70
     1
102
RTVSPropertyOp37
 70
     1
102
RTVSPropertyOp38
 70
     1
102
RTVSPropertyOp39
 70
     1
102
RTVSPropertyOp40
 70
     1
102
RTVSPropertyOp41
 70
     1
102
RTVSPropertyOp42
 70
     1
102
RTVSPropertyOp43
 70
     1
102
RTVSPropertyOp44
 70
     1
102
RTVSPropertyOp45
 70
     1
102
RTVSPropertyOp46
 70
     1
102
RTVSPropertyOp47
 70
     1
102
RTVSPropertyOp48
 70
     1
102
RTVSPropertyOp49
 70
     1
102
RTVSPropertyOp50
 70
     1
102
RTVSPropertyOp51
 70
     0
102
RTVSPropertyOp52
 70
     0
102
RTVSPropertyOp53
 70
     1
102
RTVSPropertyOp54
 70
     1
102
RTVSPropertyOp55
 70
     1
102
RTVSPropertyOp56
 70
     1
102
RTVSPropertyOp57
 70
     1
102
RTVSPost2010Prop28
280
     0
102
RTVSPost2010PropOp28
 70
     1
102
RTVSPost2010Prop29
280
     1
102
RTVSPost2010PropOp29
 70
     1
102
RTVSPost2010Prop30
280
     1
102
RTVSPost2010PropOp30
 70
     1
102
RTVSPost2010Prop31
280
     0
102
RTVSPost2010PropOp31
 70
     1
102
RTVSPost2010Prop32
280
     0
102
RTVSPost2010PropOp32
 70
     1
102
RTVSPost2010Prop33
280
     0
102
RTVSPost2010PropOp33
 70
     1
102
RTVSPost2010Prop34
280
     0
102
RTVSPost2010PropOp34
 70
     1
102
RTVSPost2010Prop35
280
     0
102
RTVSPost2010PropOp35
 70
     1
102
RTVSPost2010Prop36
280
     0
102
RTVSPost2010PropOp36
 70
     1
102
RTVSPost2010Prop37
 90
       50
102
RTVSPost2010PropOp37
 70
     1
102
RTVSPost2010Prop38
140
0.0
102
RTVSPost2010PropOp38
 70
     1
102
RTVSPost2010Prop39
140
1.0
102
RTVSPost2010PropOp39
 70
     1
102
RTVSPost2010Prop40
 90
        0
102
RTVSPost2010PropOp40
 70
     1
102
RTVSPost2010Prop41ColorIndex
 90
       18
102
RTVSPost2010Prop41ColorRGB
 90
        0
102
RTVSPost2010PropOp41
 70
     1
102
RTVSPost2010Prop42
 90
       50
102
RTVSPost2010PropOp42
 70
     1
102
RTVSPost2010Prop43
 90
        3
102
RTVSPost2010PropOp43
 70
     1
102
RTVSPost2010Prop44ColorIndex
 90
        5
102
RTVSPost2010Prop44ColorRGB
 90
      255
102
RTVSPost2010PropOp44
 70
     1
102
RTVSPost2010Prop45
280
     0
102
RTVSPost2010PropOp45
 70
     1
102
RTVSPost2010Prop46
 90
       50
102
RTVSPost2010PropOp46
 70
     1
102
RTVSPost2010Prop47
 90
       50
102
RTVSPost2010PropOp47
 70
     1
102
RTVSPost2010Prop48
 90
       50
102
RTVSPost2010PropOp48
 70
     1
102
RTVSPost2010Prop49
280
     0
102
RTVSPost2010PropOp49
 70
     1
102
RTVSPost2010Prop50
 90
       50
102
RTVSPost2010PropOp50
 70
     1
102
RTVSPost2010Prop51ColorIndex
 90
      256
102
RTVSPost2010Prop51ColorRGB
 90
-16777216
102
RTVSPost2010PropOp51
 70
     0
102
RTVSPost2010Prop52
140
1.0
102
RTVSPost2010PropOp52
 70
     0
102
RTVSPost2010Prop53
 90
        2
102
RTVSPost2010PropOp53
 70
     1
102
RTVSPost2010Prop54
  1
strokes_ogs.tif
102
RTVSPost2010PropOp54
 70
     1
102
RTVSPost2010Prop55
280
     0
102
RTVSPost2010PropOp55
 70
     1
102
RTVSPost2010Prop56
140
1.0
102
RTVSPost2010PropOp56
 70
     1
102
RTVSPost2010Prop57
140
1.0
102
RTVSPost2010PropOp57
 70
     1
  0
XRECORD
  5
26F
102
{ACAD_REACTORS
330
26E
102
}
330
26E
100
AcDbXrecord
280
     1
102
RTVSPropertyOp0
 70
     1
102
RTVSPropertyOp1
 70
     1
102
RTVSPropertyOp2
 70
     1
102
RTVSPropertyOp3
 70
     1
102
RTVSPropertyOp4
 70
     1
102
RTVSPropertyOp5
 70
     1
102
RTVSPropertyOp6
 70
     1
102
RTVSPropertyOp7
 70
     1
102
RTVSPropertyOp8
 70
     1
102
RTVSPropertyOp9
 70
     1
102
RTVSPropertyOp10
 70
     1
102
RTVSPropertyOp11
 70
     1
102
RTVSPropertyOp12
 70
     1
102
RTVSPropertyOp13
 70
     1
102
RTVSPropertyOp14
 70
     1
102
RTVSPropertyOp15
 70
     1
102
RTVSPropertyOp16
 70
     1
102
RTVSPropertyOp17
 70
     1
102
RTVSPropertyOp18
 70
     1
102
RTVSPropertyOp19
 70
     1
102
RTVSPropertyOp20
 70
     1
102
RTVSPropertyOp21
 70
     1
102
RTVSPropertyOp22
 70
     1
102
RTVSPropertyOp23
 70
     1
102
RTVSPropertyOp24
 70
     1
102
RTVSPropertyOp25
 70
     1
102
RTVSPropertyOp26
 70
     1
102
RTVSPropertyOp27
 70
     1
102
RTVSPropertyOp28
 70
     1
102
RTVSPropertyOp29
 70
     1
102
RTVSPropertyOp30
 70
     1
102
RTVSPropertyOp31
 70
     1
102
RTVSPropertyOp32
 70
     1
102
RTVSPropertyOp33
 70
     1
102
RTVSPropertyOp34
 70
     1
102
RTVSPropertyOp35
 70
     1
102
RTVSPropertyOp36
 70
     1
102
RTVSPropertyOp37
 70
     1
102
RTVSPropertyOp38
 70
     1
102
RTVSPropertyOp39
 70
     1
102
RTVSPropertyOp40
 70
     1
102
RTVSPropertyOp41
 70
     1
102
RTVSPropertyOp42
 70
     1
102
RTVSPropertyOp43
 70
     1
102
RTVSPropertyOp44
 70
     1
102
RTVSPropertyOp45
 70
     1
102
RTVSPropertyOp46
 70
     1
102
RTVSPropertyOp47
 70
     1
102
RTVSPropertyOp48
 70
     1
102
RTVSPropertyOp49
 70
     1
102
RTVSPropertyOp50
 70
     1
102
RTVSPropertyOp51
 70
     0
102
RTVSPropertyOp52
 70
     0
102
RTVSPropertyOp53
 70
     1
102
RTVSPropertyOp54
 70
     1
102
RTVSPropertyOp55
 70
     1
102
RTVSPropertyOp56
 70
     1
102
RTVSPropertyOp57
 70
     1
102
RTVSPost2010Prop28
280
     0
102
RTVSPost2010PropOp28
 70
     1
102
RTVSPost2010Prop29
280
     1
102
RTVSPost2010PropOp29
 70
     1
102
RTVSPost2010Prop30
280
     1
102
RTVSPost2010PropOp30
 70
     1
102
RTVSPost2010Prop31
280
     0
102
RTVSPost2010PropOp31
 70
     1
102
RTVSPost2010Prop32
280
     0
102
RTVSPost2010PropOp32
 70
     1
102
RTVSPost2010Prop33
280
     0
102
RTVSPost2010PropOp33
 70
     1
102
RTVSPost2010Prop34
280
     0
102
RTVSPost2010PropOp34
 70
     1
102
RTVSPost2010Prop35
280
     0
102
RTVSPost2010PropOp35
 70
     1
102
RTVSPost2010Prop36
280
     0
102
RTVSPost2010PropOp36
 70
     1
102
RTVSPost2010Prop37
 90
       50
102
RTVSPost2010PropOp37
 70
     1
102
RTVSPost2010Prop38
140
0.0
102
RTVSPost2010PropOp38
 70
     1
102
RTVSPost2010Prop39
140
1.0
102
RTVSPost2010PropOp39
 70
     1
102
RTVSPost2010Prop40
 90
        0
102
RTVSPost2010PropOp40
 70
     1
102
RTVSPost2010Prop41ColorIndex
 90
       18
102
RTVSPost2010Prop41ColorRGB
 90
        0
102
RTVSPost2010PropOp41
 70
     1
102
RTVSPost2010Prop42
 90
       50
102
RTVSPost2010PropOp42
 70
     1
102
RTVSPost2010Prop43
 90
        3
102
RTVSPost2010PropOp43
 70
     1
102
RTVSPost2010Prop44ColorIndex
 90
        5
102
RTVSPost2010Prop44ColorRGB
 90
      255
102
RTVSPost2010PropOp44
 70
     1
102
RTVSPost2010Prop45
280
     0
102
RTVSPost2010PropOp45
 70
     1
102
RTVSPost2010Prop46
 90
       50
102
RTVSPost2010PropOp46
 70
     1
102
RTVSPost2010Prop47
 90
       50
102
RTVSPost2010PropOp47
 70
     1
102
RTVSPost2010Prop48
 90
       50
102
RTVSPost2010PropOp48
 70
     1
102
RTVSPost2010Prop49
280
     0
102
RTVSPost2010PropOp49
 70
     1
102
RTVSPost2010Prop50
 90
       50
102
RTVSPost2010PropOp50
 70
     1
102
RTVSPost2010Prop51ColorIndex
 90
      256
102
RTVSPost2010Prop51ColorRGB
 90
-16777216
102
RTVSPost2010PropOp51
 70
     0
102
RTVSPost2010Prop52
140
1.0
102
RTVSPost2010PropOp52
 70
     0
102
RTVSPost2010Prop53
 90
        2
102
RTVSPost2010PropOp53
 70
     1
102
RTVSPost2010Prop54
  1
strokes_ogs.tif
102
RTVSPost2010PropOp54
 70
     1
102
RTVSPost2010Prop55
280
     0
102
RTVSPost2010PropOp55
 70
     1
102
RTVSPost2010Prop56
140
1.0
102
RTVSPost2010PropOp56
 70
     1
102
RTVSPost2010Prop57
140
1.0
102
RTVSPost2010PropOp57
 70
     1
  0
XRECORD
  5
261
102
{ACAD_REACTORS
330
260
102
}
330
260
100
AcDbXrecord
280
     1
102
RTVSPropertyOp0
 70
     1
102
RTVSPropertyOp1
 70
     1
102
RTVSPropertyOp2
 70
     1
102
RTVSPropertyOp3
 70
     1
102
RTVSPropertyOp4
 70
     1
102
RTVSPropertyOp5
 70
     1
102
RTVSPropertyOp6
 70
     1
102
RTVSPropertyOp7
 70
     1
102
RTVSPropertyOp8
 70
     1
102
RTVSPropertyOp9
 70
     1
102
RTVSPropertyOp10
 70
     1
102
RTVSPropertyOp11
 70
     1
102
RTVSPropertyOp12
 70
     1
102
RTVSPropertyOp13
 70
     1
102
RTVSPropertyOp14
 70
     1
102
RTVSPropertyOp15
 70
     1
102
RTVSPropertyOp16
 70
     1
102
RTVSPropertyOp17
 70
     1
102
RTVSPropertyOp18
 70
     1
102
RTVSPropertyOp19
 70
     1
102
RTVSPropertyOp20
 70
     1
102
RTVSPropertyOp21
 70
     1
102
RTVSPropertyOp22
 70
     1
102
RTVSPropertyOp23
 70
     1
102
RTVSPropertyOp24
 70
     1
102
RTVSPropertyOp25
 70
     1
102
RTVSPropertyOp26
 70
     1
102
RTVSPropertyOp27
 70
     1
102
RTVSPropertyOp28
 70
     1
102
RTVSPropertyOp29
 70
     1
102
RTVSPropertyOp30
 70
     1
102
RTVSPropertyOp31
 70
     1
102
RTVSPropertyOp32
 70
     1
102
RTVSPropertyOp33
 70
     1
102
RTVSPropertyOp34
 70
     1
102
RTVSPropertyOp35
 70
     1
102
RTVSPropertyOp36
 70
     1
102
RTVSPropertyOp37
 70
     1
102
RTVSPropertyOp38
 70
     1
102
RTVSPropertyOp39
 70
     1
102
RTVSPropertyOp40
 70
     1
102
RTVSPropertyOp41
 70
     1
102
RTVSPropertyOp42
 70
     1
102
RTVSPropertyOp43
 70
     1
102
RTVSPropertyOp44
 70
     1
102
RTVSPropertyOp45
 70
     1
102
RTVSPropertyOp46
 70
     1
102
RTVSPropertyOp47
 70
     1
102
RTVSPropertyOp48
 70
     1
102
RTVSPropertyOp49
 70
     1
102
RTVSPropertyOp50
 70
     1
102
RTVSPropertyOp51
 70
     0
102
RTVSPropertyOp52
 70
     0
102
RTVSPropertyOp53
 70
     1
102
RTVSPropertyOp54
 70
     1
102
RTVSPropertyOp55
 70
     1
102
RTVSPropertyOp56
 70
     1
102
RTVSPropertyOp57
 70
     1
102
RTVSPost2010Prop28
280
     0
102
RTVSPost2010PropOp28
 70
     1
102
RTVSPost2010Prop29
280
     1
102
RTVSPost2010PropOp29
 70
     1
102
RTVSPost2010Prop30
280
     1
102
RTVSPost2010PropOp30
 70
     1
102
RTVSPost2010Prop31
280
     0
102
RTVSPost2010PropOp31
 70
     1
102
RTVSPost2010Prop32
280
     0
102
RTVSPost2010PropOp32
 70
     1
102
RTVSPost2010Prop33
280
     0
102
RTVSPost2010PropOp33
 70
     1
102
RTVSPost2010Prop34
280
     0
102
RTVSPost2010PropOp34
 70
     1
102
RTVSPost2010Prop35
280
     0
102
RTVSPost2010PropOp35
 70
     1
102
RTVSPost2010Prop36
280
     0
102
RTVSPost2010PropOp36
 70
     1
102
RTVSPost2010Prop37
 90
       50
102
RTVSPost2010PropOp37
 70
     1
102
RTVSPost2010Prop38
140
0.0
102
RTVSPost2010PropOp38
 70
     1
102
RTVSPost2010Prop39
140
1.0
102
RTVSPost2010PropOp39
 70
     1
102
RTVSPost2010Prop40
 90
        0
102
RTVSPost2010PropOp40
 70
     1
102
RTVSPost2010Prop41ColorIndex
 90
       18
102
RTVSPost2010Prop41ColorRGB
 90
        0
102
RTVSPost2010PropOp41
 70
     1
102
RTVSPost2010Prop42
 90
       50
102
RTVSPost2010PropOp42
 70
     1
102
RTVSPost2010Prop43
 90
        3
102
RTVSPost2010PropOp43
 70
     1
102
RTVSPost2010Prop44ColorIndex
 90
        5
102
RTVSPost2010Prop44ColorRGB
 90
      255
102
RTVSPost2010PropOp44
 70
     1
102
RTVSPost2010Prop45
280
     0
102
RTVSPost2010PropOp45
 70
     1
102
RTVSPost2010Prop46
 90
       50
102
RTVSPost2010PropOp46
 70
     1
102
RTVSPost2010Prop47
 90
       50
102
RTVSPost2010PropOp47
 70
     1
102
RTVSPost2010Prop48
 90
       50
102
RTVSPost2010PropOp48
 70
     1
102
RTVSPost2010Prop49
280
     0
102
RTVSPost2010PropOp49
 70
     1
102
RTVSPost2010Prop50
 90
       50
102
RTVSPost2010PropOp50
 70
     1
102
RTVSPost2010Prop51ColorIndex
 90
      256
102
RTVSPost2010Prop51ColorRGB
 90
-16777216
102
RTVSPost2010PropOp51
 70
     0
102
RTVSPost2010Prop52
140
1.0
102
RTVSPost2010PropOp52
 70
     0
102
RTVSPost2010Prop53
 90
        2
102
RTVSPost2010PropOp53
 70
     1
102
RTVSPost2010Prop54
  1
strokes_ogs.tif
102
RTVSPost2010PropOp54
 70
     1
102
RTVSPost2010Prop55
280
     0
102
RTVSPost2010PropOp55
 70
     1
102
RTVSPost2010Prop56
140
1.0
102
RTVSPost2010PropOp56
 70
     1
102
RTVSPost2010Prop57
140
1.0
102
RTVSPost2010PropOp57
 70
     1
  0
XRECORD
  5
281
102
{ACAD_REACTORS
330
280
102
}
330
280
100
AcDbXrecord
280
     1
102
RTVSPropertyOp0
 70
     1
102
RTVSPropertyOp1
 70
     1
102
RTVSPropertyOp2
 70
     1
102
RTVSPropertyOp3
 70
     1
102
RTVSPropertyOp4
 70
     1
102
RTVSPropertyOp5
 70
     1
102
RTVSPropertyOp6
 70
     1
102
RTVSPropertyOp7
 70
     1
102
RTVSPropertyOp8
 70
     1
102
RTVSPropertyOp9
 70
     1
102
RTVSPropertyOp10
 70
     1
102
RTVSPropertyOp11
 70
     1
102
RTVSPropertyOp12
 70
     1
102
RTVSPropertyOp13
 70
     1
102
RTVSPropertyOp14
 70
     1
102
RTVSPropertyOp15
 70
     1
102
RTVSPropertyOp16
 70
     1
102
RTVSPropertyOp17
 70
     1
102
RTVSPropertyOp18
 70
     1
102
RTVSPropertyOp19
 70
     1
102
RTVSPropertyOp20
 70
     1
102
RTVSPropertyOp21
 70
     1
102
RTVSPropertyOp22
 70
     1
102
RTVSPropertyOp23
 70
     1
102
RTVSPropertyOp24
 70
     1
102
RTVSPropertyOp25
 70
     1
102
RTVSPropertyOp26
 70
     1
102
RTVSPropertyOp27
 70
     1
102
RTVSPropertyOp28
 70
     1
102
RTVSPropertyOp29
 70
     1
102
RTVSPropertyOp30
 70
     1
102
RTVSPropertyOp31
 70
     1
102
RTVSPropertyOp32
 70
     1
102
RTVSPropertyOp33
 70
     1
102
RTVSPropertyOp34
 70
     1
102
RTVSPropertyOp35
 70
     1
102
RTVSPropertyOp36
 70
     1
102
RTVSPropertyOp37
 70
     1
102
RTVSPropertyOp38
 70
     1
102
RTVSPropertyOp39
 70
     1
102
RTVSPropertyOp40
 70
     1
102
RTVSPropertyOp41
 70
     1
102
RTVSPropertyOp42
 70
     1
102
RTVSPropertyOp43
 70
     1
102
RTVSPropertyOp44
 70
     1
102
RTVSPropertyOp45
 70
     1
102
RTVSPropertyOp46
 70
     1
102
RTVSPropertyOp47
 70
     1
102
RTVSPropertyOp48
 70
     1
102
RTVSPropertyOp49
 70
     1
102
RTVSPropertyOp50
 70
     1
102
RTVSPropertyOp51
 70
     0
102
RTVSPropertyOp52
 70
     0
102
RTVSPropertyOp53
 70
     1
102
RTVSPropertyOp54
 70
     1
102
RTVSPropertyOp55
 70
     1
102
RTVSPropertyOp56
 70
     1
102
RTVSPropertyOp57
 70
     1
102
RTVSPost2010Prop28
280
     0
102
RTVSPost2010PropOp28
 70
     1
102
RTVSPost2010Prop29
280
     1
102
RTVSPost2010PropOp29
 70
     1
102
RTVSPost2010Prop30
280
     1
102
RTVSPost2010PropOp30
 70
     1
102
RTVSPost2010Prop31
280
     0
102
RTVSPost2010PropOp31
 70
     1
102
RTVSPost2010Prop32
280
     0
102
RTVSPost2010PropOp32
 70
     1
102
RTVSPost2010Prop33
280
     0
102
RTVSPost2010PropOp33
 70
     1
102
RTVSPost2010Prop34
280
     0
102
RTVSPost2010PropOp34
 70
     1
102
RTVSPost2010Prop35
280
     0
102
RTVSPost2010PropOp35
 70
     1
102
RTVSPost2010Prop36
280
     0
102
RTVSPost2010PropOp36
 70
     1
102
RTVSPost2010Prop37
 90
       50
102
RTVSPost2010PropOp37
 70
     1
102
RTVSPost2010Prop38
140
0.0
102
RTVSPost2010PropOp38
 70
     1
102
RTVSPost2010Prop39
140
1.0
102
RTVSPost2010PropOp39
 70
     1
102
RTVSPost2010Prop40
 90
        0
102
RTVSPost2010PropOp40
 70
     1
102
RTVSPost2010Prop41ColorIndex
 90
       18
102
RTVSPost2010Prop41ColorRGB
 90
        0
102
RTVSPost2010PropOp41
 70
     1
102
RTVSPost2010Prop42
 90
       50
102
RTVSPost2010PropOp42
 70
     1
102
RTVSPost2010Prop43
 90
        3
102
RTVSPost2010PropOp43
 70
     1
102
RTVSPost2010Prop44ColorIndex
 90
        5
102
RTVSPost2010Prop44ColorRGB
 90
      255
102
RTVSPost2010PropOp44
 70
     1
102
RTVSPost2010Prop45
280
     0
102
RTVSPost2010PropOp45
 70
     1
102
RTVSPost2010Prop46
 90
       50
102
RTVSPost2010PropOp46
 70
     1
102
RTVSPost2010Prop47
 90
       50
102
RTVSPost2010PropOp47
 70
     1
102
RTVSPost2010Prop48
 90
       50
102
RTVSPost2010PropOp48
 70
     1
102
RTVSPost2010Prop49
280
     0
102
RTVSPost2010PropOp49
 70
     1
102
RTVSPost2010Prop50
 90
       50
102
RTVSPost2010PropOp50
 70
     1
102
RTVSPost2010Prop51ColorIndex
 90
      256
102
RTVSPost2010Prop51ColorRGB
 90
-16777216
102
RTVSPost2010PropOp51
 70
     0
102
RTVSPost2010Prop52
140
1.0
102
RTVSPost2010PropOp52
 70
     0
102
RTVSPost2010Prop53
 90
        2
102
RTVSPost2010PropOp53
 70
     1
102
RTVSPost2010Prop54
  1
strokes_ogs.tif
102
RTVSPost2010PropOp54
 70
     1
102
RTVSPost2010Prop55
280
     0
102
RTVSPost2010PropOp55
 70
     1
102
RTVSPost2010Prop56
140
1.0
102
RTVSPost2010PropOp56
 70
     1
102
RTVSPost2010Prop57
140
1.0
102
RTVSPost2010PropOp57
 70
     1
  0
ENDSEC
  0
EOF
