  0
SECTION
  2
HEADER
  9
$ACADVER
  1
AC1015
  9
$ACADMAINTVER
 70
     6
  9
$DWGCODEPAGE
  3
ANSI_1252
  9
$INSBASE
 10
0.0
 20
0.0
 30
0.0
  9
$EXTMIN
 10
-254.36647
 20
77.106239
 30
0.0
  9
$EXTMAX
 10
677.059814
 20
558.278748
 30
0.0
  9
$LIMMIN
 10
-254.36647
 20
77.106239
  9
$LIMMAX
 10
677.059814
 20
558.278748
  9
$ORTHOMODE
 70
     0
  9
$REGENMODE
 70
     1
  9
$FILLMODE
 70
     1
  9
$QTEXTMODE
 70
     0
  9
$MIRRTEXT
 70
     1
  9
$LTSCALE
 40
1.0
  9
$ATTMODE
 70
     1
  9
$TEXTSIZE
 40
2.5
  9
$TRACEWID
 40
1.0
  9
$TEXTSTYLE
  7
Standard
  9
$CLAYER
  8
0
  9
$CELTYPE
  6
ByLayer
  9
$CECOLOR
 62
   256
  9
$CELTSCALE
 40
1.0
  9
$DISPSILH
 70
     0
  9
$DIMSCALE
 40
1.0
  9
$DIMASZ
 40
2.5
  9
$DIMEXO
 40
0.625
  9
$DIMDLI
 40
3.75
  9
$DIMRND
 40
0.0
  9
$DIMDLE
 40
0.0
  9
$DIMEXE
 40
1.25
  9
$DIMTP
 40
0.0
  9
$DIMTM
 40
0.0
  9
$DIMTXT
 40
2.5
  9
$DIMCEN
 40
2.5
  9
$DIMTSZ
 40
0.0
  9
$DIMTOL
 70
     0
  9
$DIMLIM
 70
     0
  9
$DIMTIH
 70
     0
  9
$DIMTOH
 70
     0
  9
$DIMSE1
 70
     0
  9
$DIMSE2
 70
     0
  9
$DIMTAD
 70
     1
  9
$DIMZIN
 70
     8
  9
$DIMBLK
  1

  9
$DIMASO
 70
     1
  9
$DIMSHO
 70
     1
  9
$DIMPOST
  1

  9
$DIMAPOST
  1

  9
$DIMALT
 70
     0
  9
$DIMALTD
 70
     3
  9
$DIMALTF
 40
0.03937
  9
$DIMLFAC
 40
1.0
  9
$DIMTOFL
 70
     1
  9
$DIMTVP
 40
0.0
  9
$DIMTIX
 70
     0
  9
$DIMSOXD
 70
     0
  9
$DIMSAH
 70
     0
  9
$DIMBLK1
  1

  9
$DIMBLK2
  1

  9
$DIMSTYLE
  2
ISO-25
  9
$DIMCLRD
 70
     0
  9
$DIMCLRE
 70
     0
  9
$DIMCLRT
 70
     0
  9
$DIMTFAC
 40
1.0
  9
$DIMGAP
 40
0.625
  9
$DIMJUST
 70
     0
  9
$DIMSD1
 70
     0
  9
$DIMSD2
 70
     0
  9
$DIMTOLJ
 70
     0
  9
$DIMTZIN
 70
     8
  9
$DIMALTZ
 70
     0
  9
$DIMALTTZ
 70
     0
  9
$DIMUPT
 70
     0
  9
$DIMDEC
 70
     2
  9
$DIMTDEC
 70
     2
  9
$DIMALTU
 70
     2
  9
$DIMALTTD
 70
     3
  9
$DIMTXSTY
  7
Standard
  9
$DIMAUNIT
 70
     0
  9
$DIMADEC
 70
     0
  9
$DIMALTRND
 40
0.0
  9
$DIMAZIN
 70
     0
  9
$DIMDSEP
 70
    44
  9
$DIMATFIT
 70
     3
  9
$DIMFRAC
 70
     0
  9
$DIMLDRBLK
  1

  9
$DIMLUNIT
 70
     2
  9
$DIMLWD
 70
    -2
  9
$DIMLWE
 70
    -2
  9
$DIMTMOVE
 70
     0
  9
$LUNITS
 70
     2
  9
$LUPREC
 70
     4
  9
$SKETCHINC
 40
1.0
  9
$FILLETRAD
 40
10.0
  9
$AUNITS
 70
     0
  9
$AUPREC
 70
     0
  9
$MENU
  1
.
  9
$ELEVATION
 40
0.0
  9
$PELEVATION
 40
0.0
  9
$THICKNESS
 40
0.0
  9
$LIMCHECK
 70
     0
  9
$CHAMFERA
 40
10.0
  9
$CHAMFERB
 40
10.0
  9
$CHAMFERC
 40
20.0
  9
$CHAMFERD
 40
0.0
  9
$SKPOLY
 70
     0
  9
$TDCREATE
 40
2455903.625221088
  9
$TDUCREATE
 40
2455903.583554421
  9
$TDUPDATE
 40
2455903.6252211
  9
$TDUUPDATE
 40
2455903.583554433
  9
$TDINDWG
 40
0.0000000116
  9
$TDUSRTIMER
 40
0.0000000116
  9
$USRTIMER
 70
     1
  9
$ANGBASE
 50
0.0
  9
$ANGDIR
 70
     0
  9
$PDMODE
 70
     0
  9
$PDSIZE
 40
0.0
  9
$PLINEWID
 40
0.0
  9
$SPLFRAME
 70
     0
  9
$SPLINETYPE
 70
     6
  9
$SPLINESEGS
 70
     8
  9
$HANDSEED
  5
170
  9
$SURFTAB1
 70
     6
  9
$SURFTAB2
 70
     6
  9
$SURFTYPE
 70
     6
  9
$SURFU
 70
     6
  9
$SURFV
 70
     6
  9
$UCSBASE
  2

  9
$UCSNAME
  2

  9
$UCSORG
 10
0.0
 20
0.0
 30
0.0
  9
$UCSXDIR
 10
1.0
 20
0.0
 30
0.0
  9
$UCSYDIR
 10
0.0
 20
1.0
 30
0.0
  9
$UCSORTHOREF
  2

  9
$UCSORTHOVIEW
 70
     0
  9
$UCSORGTOP
 10
0.0
 20
0.0
 30
0.0
  9
$UCSORGBOTTOM
 10
0.0
 20
0.0
 30
0.0
  9
$UCSORGLEFT
 10
0.0
 20
0.0
 30
0.0
  9
$UCSORGRIGHT
 10
0.0
 20
0.0
 30
0.0
  9
$UCSORGFRONT
 10
0.0
 20
0.0
 30
0.0
  9
$UCSORGBACK
 10
0.0
 20
0.0
 30
0.0
  9
$PUCSBASE
  2

  9
$PUCSNAME
  2

  9
$PUCSORG
 10
0.0
 20
0.0
 30
0.0
  9
$PUCSXDIR
 10
1.0
 20
0.0
 30
0.0
  9
$PUCSYDIR
 10
0.0
 20
1.0
 30
0.0
  9
$PUCSORTHOREF
  2

  9
$PUCSORTHOVIEW
 70
     0
  9
$PUCSORGTOP
 10
0.0
 20
0.0
 30
0.0
  9
$PUCSORGBOTTOM
 10
0.0
 20
0.0
 30
0.0
  9
$PUCSORGLEFT
 10
0.0
 20
0.0
 30
0.0
  9
$PUCSORGRIGHT
 10
0.0
 20
0.0
 30
0.0
  9
$PUCSORGFRONT
 10
0.0
 20
0.0
 30
0.0
  9
$PUCSORGBACK
 10
0.0
 20
0.0
 30
0.0
  9
$USERI1
 70
     0
  9
$USERI2
 70
     0
  9
$USERI3
 70
     0
  9
$USERI4
 70
     0
  9
$USERI5
 70
     0
  9
$USERR1
 40
0.0
  9
$USERR2
 40
0.0
  9
$USERR3
 40
0.0
  9
$USERR4
 40
0.0
  9
$USERR5
 40
0.0
  9
$WORLDVIEW
 70
     1
  9
$SHADEDGE
 70
     3
  9
$SHADEDIF
 70
    70
  9
$TILEMODE
 70
     1
  9
$MAXACTVP
 70
    64
  9
$PINSBASE
 10
0.0
 20
0.0
 30
0.0
  9
$PLIMCHECK
 70
     0
  9
$PEXTMIN
 10
1.000000E+20
 20
1.000000E+20
 30
1.000000E+20
  9
$PEXTMAX
 10
-1.000000E+20
 20
-1.000000E+20
 30
-1.000000E+20
  9
$PLIMMIN
 10
0.0
 20
0.0
  9
$PLIMMAX
 10
420.0
 20
297.0
  9
$UNITMODE
 70
     0
  9
$VISRETAIN
 70
     1
  9
$PLINEGEN
 70
     0
  9
$PSLTSCALE
 70
     1
  9
$TREEDEPTH
 70
  3020
  9
$CMLSTYLE
  2
Standard
  9
$CMLJUST
 70
     0
  9
$CMLSCALE
 40
20.0
  9
$PROXYGRAPHICS
 70
     1
  9
$MEASUREMENT
 70
     1
  9
$CELWEIGHT
370
    -1
  9
$ENDCAPS
280
     0
  9
$JOINSTYLE
280
     0
  9
$LWDISPLAY
290
     0
  9
$INSUNITS
 70
     4
  9
$HYPERLINKBASE
  1

  9
$STYLESHEET
  1

  9
$XEDIT
290
     1
  9
$CEPSNTYPE
380
     0
  9
$PSTYLEMODE
290
     1
  9
$FINGERPRINTGUID
  2
{F397B3B7-3A1A-4702-AAC8-AEF2E7B70229}
  9
$VERSIONGUID
  2
{FAEB1C32-E019-11D5-929B-00C0DF256EC4}
  9
$EXTNAMES
290
     1
  9
$PSVPSCALE
 40
0.0
  9
$OLESTARTUP
290
     0
  0
ENDSEC
  0
SECTION
  2
CLASSES
  0
CLASS
  1
ACDBDICTIONARYWDFLT
  2
AcDbDictionaryWithDefault
  3
ObjectDBX Classes
 90
        0
280
     0
281
     0
  0
CLASS
  1
VISUALSTYLE
  2
AcDbVisualStyle
  3
ObjectDBX Classes
 90
     4095
280
     0
281
     0
  0
CLASS
  1
DICTIONARYVAR
  2
AcDbDictionaryVar
  3
ObjectDBX Classes
 90
        0
280
     0
281
     0
  0
CLASS
  1
ACDBPLACEHOLDER
  2
AcDbPlaceHolder
  3
ObjectDBX Classes
 90
        0
280
     0
281
     0
  0
CLASS
  1
LAYOUT
  2
AcDbLayout
  3
ObjectDBX Classes
 90
        0
280
     0
281
     0
  0
ENDSEC
  0
SECTION
  2
TABLES
  0
TABLE
  2
VPORT
  5
8
330
0
100
AcDbSymbolTable
 70
     1
  0
VPORT
  5
29
330
8
100
AcDbSymbolTableRecord
100
AcDbViewportTableRecord
  2
*Active
 70
     0
 10
0.0
 20
0.0
 11
1.0
 21
1.0
 12
344.186916
 22
148.5
 13
0.0
 23
0.0
 14
10.0
 24
10.0
 15
10.0
 25
10.0
 16
0.0
 26
0.0
 36
1.0
 17
0.0
 27
0.0
 37
0.0
 40
297.0
 41
1.972973
 42
50.0
 43
0.0
 44
0.0
 50
0.0
 51
0.0
 71
     0
 72
   100
 73
     1
 74
     3
 75
     0
 76
     0
 77
     0
 78
     0
281
     0
 65
     1
110
0.0
120
0.0
130
0.0
111
1.0
121
0.0
131
0.0
112
0.0
122
1.0
132
0.0
 79
     0
146
0.0
  0
ENDTAB
  0
TABLE
  2
LTYPE
  5
5
330
0
100
AcDbSymbolTable
 70
     1
  0
LTYPE
  5
14
330
5
100
AcDbSymbolTableRecord
100
AcDbLinetypeTableRecord
  2
ByBlock
 70
     0
  3

 72
    65
 73
     0
 40
0.0
  0
LTYPE
  5
15
330
5
100
AcDbSymbolTableRecord
100
AcDbLinetypeTableRecord
  2
ByLayer
 70
     0
  3

 72
    65
 73
     0
 40
0.0
  0
LTYPE
  5
16
330
5
100
AcDbSymbolTableRecord
100
AcDbLinetypeTableRecord
  2
Continuous
 70
     0
  3
Solid line
 72
    65
 73
     0
 40
0.0
  0
ENDTAB
  0
TABLE
  2
LAYER
  5
2
330
0
100
AcDbSymbolTable
 70
     1
  0
LAYER
  5
10
330
2
100
AcDbSymbolTableRecord
100
AcDbLayerTableRecord
  2
0
 70
     0
 62
   106
  6
Continuous
370
     0
390
F
  0
ENDTAB
  0
TABLE
  2
STYLE
  5
3
330
0
100
AcDbSymbolTable
 70
     4
  0
STYLE
  5
11
330
3
100
AcDbSymbolTableRecord
100
AcDbTextStyleTableRecord
  2
Standard
 70
     0
 40
0.0
 41
1.0
 50
0.0
 71
     0
 42
2.5
  3
txt
  4

  0
STYLE
  5
3B
330
3
100
AcDbSymbolTableRecord
100
AcDbTextStyleTableRecord
  2
Default
 70
     0
 40
0.0
 41
1.0
 50
0.0
 71
     0
 42
0.2
  3

  4

1001
ACAD
1000
txt
1071
        0
  0
STYLE
  5
3C
330
3
100
AcDbSymbolTableRecord
100
AcDbTextStyleTableRecord
  2
ISO
 70
     0
 40
0.0
 41
1.0
 50
0.0
 71
     0
 42
0.2
  3

  4

1001
ACAD
1000
txt
1071
        0
  0
STYLE
  5
3D
330
3
100
AcDbSymbolTableRecord
100
AcDbTextStyleTableRecord
  2
GIANLU
 70
     0
 40
0.0
 41
1.0
 50
0.0
 71
     0
 42
0.2
  3

  4

1001
ACAD
1000
Arial
1071
        0
  0
ENDTAB
  0
TABLE
  2
VIEW
  5
6
330
0
100
AcDbSymbolTable
 70
     0
  0
ENDTAB
  0
TABLE
  2
UCS
  5
7
330
0
100
AcDbSymbolTable
 70
     0
  0
ENDTAB
  0
TABLE
  2
APPID
  5
9
330
0
100
AcDbSymbolTable
 70
     1
  0
APPID
  5
12
330
9
100
AcDbSymbolTableRecord
100
AcDbRegAppTableRecord
  2
ACAD
 70
     0
  0
ENDTAB
  0
TABLE
  2
DIMSTYLE
  5
A
330
0
100
AcDbSymbolTable
 70
     4
100
AcDbDimStyleTable
  0
DIMSTYLE
105
27
330
A
100
AcDbSymbolTableRecord
100
AcDbDimStyleTableRecord
  2
ISO-25
 70
     0
 41
2.5
 42
0.625
 43
3.75
 44
1.25
 73
     0
 74
     0
 77
     1
 78
     8
140
2.5
141
2.5
143
0.03937
147
0.625
171
     3
172
     1
271
     2
272
     2
274
     3
278
    44
283
     0
284
     8
340
11
  0
DIMSTYLE
105
3E
330
A
100
AcDbSymbolTableRecord
100
AcDbDimStyleTableRecord
  2
Default
 70
     0
  3
<>
 41
4.375
 42
1.05
 44
2.1
 73
     0
 74
     0
 77
     1
 78
     8
140
3.5
146
0.4
147
1.75
178
     3
271
     2
272
     3
284
     8
340
3B
341
3F
342
3F
  0
DIMSTYLE
105
46
330
A
100
AcDbSymbolTableRecord
100
AcDbDimStyleTableRecord
  2
ISO
 70
     0
  3
<>
 41
4.375
 42
1.05
 44
2.1
 73
     0
 74
     0
 77
     1
 78
     8
140
3.5
146
0.4
147
1.75
178
     3
271
     2
272
     3
284
     8
340
3C
341
3F
342
3F
  0
DIMSTYLE
105
47
330
A
100
AcDbSymbolTableRecord
100
AcDbDimStyleTableRecord
  2
zucchetti_unico
 70
     0
  3
<>
 41
3.0
 42
0.9
 44
1.8
 73
     0
 74
     0
 77
     1
 78
     8
140
3.0
146
0.6
147
1.5
176
   104
177
     3
178
     3
271
     2
272
     2
284
     8
340
3D
  0
ENDTAB
  0
TABLE
  2
BLOCK_RECORD
  5
1
330
0
100
AcDbSymbolTable
 70
     6
  0
BLOCK_RECORD
  5
1F
330
1
100
AcDbSymbolTableRecord
100
AcDbBlockTableRecord
  2
*Model_Space
340
22
  0
BLOCK_RECORD
  5
1B
330
1
100
AcDbSymbolTableRecord
100
AcDbBlockTableRecord
  2
*Paper_Space
340
1E
  0
BLOCK_RECORD
  5
23
330
1
100
AcDbSymbolTableRecord
100
AcDbBlockTableRecord
  2
*Paper_Space0
340
26
  0
BLOCK_RECORD
  5
3F
330
1
100
AcDbSymbolTableRecord
100
AcDbBlockTableRecord
  2
_CLOSED
340
0
  0
BLOCK_RECORD
  5
48
330
1
100
AcDbSymbolTableRecord
100
AcDbBlockTableRecord
  2
a
340
0
102
{BLKREFS
331
A3
102
}
  0
BLOCK_RECORD
  5
A4
330
1
100
AcDbSymbolTableRecord
100
AcDbBlockTableRecord
  2
b
340
0
102
{BLKREFS
331
DC
102
}
  0
BLOCK_RECORD
  5
DD
330
1
100
AcDbSymbolTableRecord
100
AcDbBlockTableRecord
  2
c
340
0
102
{BLKREFS
331
123
102
}
  0
BLOCK_RECORD
  5
124
330
1
100
AcDbSymbolTableRecord
100
AcDbBlockTableRecord
  2
d
340
0
102
{BLKREFS
331
16A
102
}
  0
ENDTAB
  0
ENDSEC
  0
SECTION
  2
BLOCKS
  0
BLOCK
  5
20
330
1F
100
AcDbEntity
  8
0
100
AcDbBlockBegin
  2
*Model_Space
 70
     0
 10
0.0
 20
0.0
 30
0.0
  3
*Model_Space
  1

  0
ENDBLK
  5
21
330
1F
100
AcDbEntity
  8
0
100
AcDbBlockEnd
  0
BLOCK
  5
1C
330
1B
100
AcDbEntity
 67
     1
  8
0
100
AcDbBlockBegin
  2
*Paper_Space
 70
     0
 10
0.0
 20
0.0
 30
0.0
  3
*Paper_Space
  1

  0
ENDBLK
  5
1D
330
1B
100
AcDbEntity
 67
     1
  8
0
100
AcDbBlockEnd
  0
BLOCK
  5
24
330
23
100
AcDbEntity
  8
0
100
AcDbBlockBegin
  2
*Paper_Space0
 70
     0
 10
0.0
 20
0.0
 30
0.0
  3
*Paper_Space0
  1

  0
ENDBLK
  5
25
330
23
100
AcDbEntity
  8
0
100
AcDbBlockEnd
  0
BLOCK
  5
40
330
3F
100
AcDbEntity
  8
0
100
AcDbBlockBegin
  2
_CLOSED
 70
     0
 10
0.0
 20
0.0
 30
0.0
  3
_CLOSED
  1

  0
LINE
  5
42
330
3F
100
AcDbEntity
  8
0
  6
ByBlock
 62
     0
370
    -2
100
AcDbLine
 10
-1.0
 20
0.166667
 30
0.0
 11
0.0
 21
0.0
 31
0.0
  0
LINE
  5
43
330
3F
100
AcDbEntity
  8
0
  6
ByBlock
 62
     0
370
    -2
100
AcDbLine
 10
0.0
 20
0.0
 30
0.0
 11
-1.0
 21
-0.166667
 31
0.0
  0
LINE
  5
44
330
3F
100
AcDbEntity
  8
0
  6
ByBlock
 62
     0
370
    -2
100
AcDbLine
 10
-1.0
 20
0.166667
 30
0.0
 11
-1.0
 21
-0.166667
 31
0.0
  0
LINE
  5
45
330
3F
100
AcDbEntity
  8
0
  6
ByBlock
 62
     0
370
    -2
100
AcDbLine
 10
0.0
 20
0.0
 30
0.0
 11
-1.0
 21
0.0
 31
0.0
  0
ENDBLK
  5
41
330
3F
100
AcDbEntity
  8
0
100
AcDbBlockEnd
  0
BLOCK
  5
A1
330
48
100
AcDbEntity
  8
0
100
AcDbBlockBegin
  2
a
 70
     0
 10
122.964127
 20
91.382233
 30
0.0
  3
a
  1

  0
LINE
  5
49
330
48
100
AcDbEntity
  8
0
  6
Continuous
 62
     0
370
     0
100
AcDbLine
 10
209.940186
 20
542.440929
 30
0.0
 11
209.940186
 21
523.05933
 31
0.0
  0
LINE
  5
4A
330
48
100
AcDbEntity
  8
0
  6
Continuous
 62
     0
370
    30
100
AcDbLine
 10
209.940186
 20
523.05933
 30
0.0
 11
210.940186
 21
523.05933
 31
0.0
  0
LINE
  5
4B
330
48
100
AcDbEntity
  8
0
  6
Continuous
 62
     0
370
    30
100
AcDbLine
 10
210.940186
 20
523.05933
 30
0.0
 11
210.940186
 21
542.440929
 31
0.0
  0
LINE
  5
4C
330
48
100
AcDbEntity
  8
0
  6
Continuous
 62
     0
370
     0
100
AcDbLine
 10
210.940186
 20
542.440929
 30
0.0
 11
209.940186
 21
542.440929
 31
0.0
  0
LINE
  5
4D
330
48
100
AcDbEntity
  8
0
  6
Continuous
 62
     0
370
     0
100
AcDbLine
 10
175.940186
 20
523.05933
 30
0.0
 11
175.940186
 21
542.440929
 31
0.0
  0
LINE
  5
4E
330
48
100
AcDbEntity
  8
0
  6
Continuous
 62
     0
370
     0
100
AcDbLine
 10
175.940186
 20
542.440929
 30
0.0
 11
174.940186
 21
542.440929
 31
0.0
  0
LINE
  5
4F
330
48
100
AcDbEntity
  8
0
  6
Continuous
 62
     0
370
    30
100
AcDbLine
 10
174.940186
 20
542.440929
 30
0.0
 11
174.940186
 21
523.05933
 31
0.0
  0
LINE
  5
50
330
48
100
AcDbEntity
  8
0
  6
Continuous
 62
     0
370
    30
100
AcDbLine
 10
174.940186
 20
523.05933
 30
0.0
 11
175.940186
 21
523.05933
 31
0.0
  0
LINE
  5
51
330
48
100
AcDbEntity
  8
0
  6
Continuous
 62
     0
370
    30
100
AcDbLine
 10
175.940186
 20
523.05933
 30
0.0
 11
209.940186
 21
523.05933
 31
0.0
  0
LINE
  5
52
330
48
100
AcDbEntity
  8
0
  6
Continuous
 62
     0
370
     0
100
AcDbLine
 10
209.940186
 20
542.440929
 30
0.0
 11
175.940186
 21
542.440929
 31
0.0
  0
LINE
  5
53
330
48
100
AcDbEntity
  8
0
  6
Continuous
 62
     0
370
     0
100
AcDbLine
 10
209.940186
 20
547.379371
 30
0.0
 11
209.940186
 21
542.440929
 31
0.0
  0
LINE
  5
54
330
48
100
AcDbEntity
  8
0
  6
Continuous
 62
     0
370
     0
100
AcDbLine
 10
175.940186
 20
547.379371
 30
0.0
 11
209.940186
 21
547.379371
 31
0.0
  0
LINE
  5
55
330
48
100
AcDbEntity
  8
0
  6
Continuous
 62
     0
370
     0
100
AcDbLine
 10
175.940186
 20
542.440929
 30
0.0
 11
175.940186
 21
547.379371
 31
0.0
  0
LINE
  5
56
330
48
100
AcDbEntity
  8
0
  6
Continuous
 62
     0
370
     0
100
AcDbLine
 10
209.940186
 20
547.379371
 30
0.0
 11
209.940187
 21
553.689996
 31
0.0
  0
LWPOLYLINE
  5
57
330
48
100
AcDbEntity
  8
0
  6
Continuous
 62
     0
370
     0
100
AcDbPolyline
 90
        9
 70
     0
 43
0.0
 10
209.940186
 20
553.690002
 10
209.865143
 20
553.810608
 10
209.637024
 20
553.928955
 10
209.264664
 20
554.037964
 10
208.7733
 20
554.131714
 10
208.175903
 20
554.208862
 10
207.480469
 20
554.267456
 10
206.724777
 20
554.303589
 10
205.940186
 20
554.315735
  0
LINE
  5
58
330
48
100
AcDbEntity
  8
0
  6
Continuous
 62
     0
370
     0
100
AcDbLine
 10
205.940187
 20
554.315734
 30
0.0
 11
179.940187
 21
554.315734
 31
0.0
  0
LWPOLYLINE
  5
59
330
48
100
AcDbEntity
  8
0
  6
Continuous
 62
     0
370
     0
100
AcDbPolyline
 90
        9
 70
     0
 43
0.0
 10
179.940186
 20
554.315735
 10
179.168991
 20
554.304016
 10
178.412643
 20
554.268311
 10
177.715805
 20
554.210083
 10
177.116455
 20
554.133179
 10
176.623322
 20
554.039734
 10
176.248642
 20
553.930969
 10
176.017883
 20
553.812744
 10
175.940186
 20
553.690002
  0
LINE
  5
5A
330
48
100
AcDbEntity
  8
0
  6
Continuous
 62
     0
370
     0
100
AcDbLine
 10
175.940187
 20
553.689996
 30
0.0
 11
175.940186
 21
547.379371
 31
0.0
  0
LINE
  5
5B
330
48
100
AcDbEntity
  8
0
  6
Continuous
 62
     0
370
     0
100
AcDbLine
 10
205.940187
 20
557.435212
 30
0.0
 11
205.940187
 21
555.459856
 31
0.0
  0
ELLIPSE
  5
5C
330
48
100
AcDbEntity
  8
0
  6
Continuous
 62
     0
370
     0
100
AcDbEllipse
 10
205.940187
 20
554.677684
 30
0.0
 11
-5.0
 21
-1.223376296292651E-8
 31
0.0
210
0.0
220
0.0
230
-1.0
 40
0.156434
 41
1.570796342435651
 42
3.141592669230544
  0
LINE
  5
5D
330
48
100
AcDbEntity
  8
0
  6
Continuous
 62
     0
370
    30
100
AcDbLine
 10
210.940187
 20
554.677684
 30
0.0
 11
210.940187
 21
556.65304
 31
0.0
  0
ELLIPSE
  5
5E
330
48
100
AcDbEntity
  8
0
  6
Continuous
 62
     0
370
     0
100
AcDbEllipse
 10
205.940187
 20
556.65304
 30
0.0
 11
5.0
 21
1.223376296292651E-8
 31
0.0
210
0.0
220
0.0
230
1.0
 40
0.156434
 41
6.283185291538834
 42
7.853981618333725
  0
LINE
  5
5F
330
48
100
AcDbEntity
  8
0
  6
Continuous
 62
     0
370
     0
100
AcDbLine
 10
179.940187
 20
557.435212
 30
0.0
 11
179.940187
 21
555.459856
 31
0.0
  0
LINE
  5
60
330
48
100
AcDbEntity
  8
0
  6
Continuous
 62
     0
370
     0
100
AcDbLine
 10
179.940187
 20
555.459856
 30
0.0
 11
205.940187
 21
555.459856
 31
0.0
  0
LINE
  5
61
330
48
100
AcDbEntity
  8
0
  6
Continuous
 62
     0
370
     0
100
AcDbLine
 10
205.940187
 20
557.435212
 30
0.0
 11
179.940187
 21
557.435212
 31
0.0
  0
LINE
  5
62
330
48
100
AcDbEntity
  8
0
  6
Continuous
 62
     0
370
    30
100
AcDbLine
 10
174.940187
 20
556.65304
 30
0.0
 11
174.940187
 21
554.677684
 31
0.0
  0
ELLIPSE
  5
63
330
48
100
AcDbEntity
  8
0
  6
Continuous
 62
     0
370
     0
100
AcDbEllipse
 10
179.940187
 20
554.677684
 30
0.0
 11
-5.0
 21
-1.223376289267263E-8
 31
0.0
210
0.0
220
0.0
230
-1.0
 40
0.156434
 41
0.0000000156407514
 42
1.570796342435645
  0
ELLIPSE
  5
64
330
48
100
AcDbEntity
  8
0
  6
Continuous
 62
     0
370
     0
100
AcDbEllipse
 10
179.940187
 20
556.65304
 30
0.0
 11
5.0
 21
1.223376289267263E-8
 31
0.0
210
0.0
220
0.0
230
1.0
 40
0.156434
 41
1.570796311154144
 42
3.141592637949042
  0
LINE
  5
65
330
48
100
AcDbEntity
  8
0
  6
Continuous
 62
     0
370
     0
100
AcDbLine
 10
179.940187
 20
557.435212
 30
0.0
 11
179.940187
 21
558.278657
 31
0.0
  0
LINE
  5
66
330
48
100
AcDbEntity
  8
0
  6
Continuous
 62
     0
370
     0
100
AcDbLine
 10
205.940187
 20
557.435212
 30
0.0
 11
205.940187
 21
558.278777
 31
0.0
  0
ARC
  5
67
330
48
100
AcDbEntity
  8
0
  6
Continuous
 62
     0
370
     0
100
AcDbCircle
 10
175.934068
 20
548.373253
 30
0.0
 40
0.9939013694127755
100
AcDbArc
 50
180.357081
 51
270.352685
  0
LINE
  5
68
330
48
100
AcDbEntity
  8
0
  6
Continuous
 62
     0
370
    30
100
AcDbLine
 10
174.940186
 20
548.367059
 30
0.0
 11
174.940186
 21
542.440929
 31
0.0
  0
ELLIPSE
  5
69
330
48
100
AcDbEntity
  8
0
  6
Continuous
 62
     0
370
     0
100
AcDbEllipse
 10
175.940187
 20
554.677684
 30
0.0
 11
0.9999999999999941
 21
-9.753601294458970E-8
 31
0.0
210
0.0
220
0.0
230
-1.0
 40
0.987688
 41
1.570796228043005
 42
3.141592554837809
  0
LINE
  5
6A
330
48
100
AcDbEntity
  8
0
  6
Continuous
 62
     0
370
    30
100
AcDbLine
 10
174.940187
 20
554.677684
 30
0.0
 11
174.940186
 21
548.367059
 31
0.0
  0
LINE
  5
6B
330
48
100
AcDbEntity
  8
0
  6
Continuous
 62
     0
370
     0
100
AcDbLine
 10
179.940187
 20
555.459856
 30
0.0
 11
179.940187
 21
554.315734
 31
0.0
  0
LINE
  5
6C
330
48
100
AcDbEntity
  8
0
  6
Continuous
 62
     0
370
     0
100
AcDbLine
 10
205.940187
 20
554.315734
 30
0.0
 11
205.940187
 21
555.459856
 31
0.0
  0
ARC
  5
6D
330
48
100
AcDbEntity
  8
0
  6
Continuous
 62
     0
370
     0
100
AcDbCircle
 10
209.946305
 20
554.683878
 30
0.0
 40
0.9939013635410965
100
AcDbArc
 50
269.647315
 51
359.642919
  0
ELLIPSE
  5
6E
330
48
100
AcDbEntity
  8
0
  6
Continuous
 62
     0
370
     0
100
AcDbEllipse
 10
209.940186
 20
548.367059
 30
0.0
 11
-0.9999999999999941
 21
9.753601294458973E-8
 31
0.0
210
0.0
220
0.0
230
1.0
 40
0.987688
 41
1.570796425546742
 42
3.141592752341662
  0
LINE
  5
6F
330
48
100
AcDbEntity
  8
0
  6
Continuous
 62
     0
370
    30
100
AcDbLine
 10
210.940186
 20
548.367059
 30
0.0
 11
210.940187
 21
554.677684
 31
0.0
  0
LINE
  5
70
330
48
100
AcDbEntity
  8
0
  6
Continuous
 62
     0
370
    30
100
AcDbLine
 10
210.940186
 20
548.367059
 30
0.0
 11
210.940186
 21
542.440929
 31
0.0
  0
ARC
  5
71
330
48
100
AcDbEntity
  8
0
  6
Continuous
 62
     0
370
     0
100
AcDbCircle
 10
171.773002
 20
519.780007
 30
0.0
 40
30.60509782808935
100
AcDbArc
 50
1.833703
 51
6.151027
  0
LINE
  5
72
330
48
100
AcDbEntity
  8
0
  6
Continuous
 62
     0
370
    30
100
AcDbLine
 10
222.940186
 20
370.759299
 30
0.0
 11
170.176149
 21
370.759299
 31
0.0
  0
LINE
  5
73
330
48
100
AcDbEntity
  8
0
  6
Continuous
 62
     0
370
     0
100
AcDbLine
 10
170.176149
 20
370.759299
 30
0.0
 11
170.176149
 21
367.759299
 31
0.0
  0
LINE
  5
74
330
48
100
AcDbEntity
  8
0
  6
Continuous
 62
     0
370
    30
100
AcDbLine
 10
170.176149
 20
367.759299
 30
0.0
 11
222.940186
 21
367.759299
 31
0.0
  0
LINE
  5
75
330
48
100
AcDbEntity
  8
0
  6
Continuous
 62
     0
370
    30
100
AcDbLine
 10
162.940186
 20
367.759299
 30
0.0
 11
170.176149
 21
367.759299
 31
0.0
  0
LINE
  5
76
330
48
100
AcDbEntity
  8
0
  6
Continuous
 62
     0
370
    30
100
AcDbLine
 10
170.176149
 20
370.759299
 30
0.0
 11
162.940186
 21
370.759299
 31
0.0
  0
LINE
  5
77
330
48
100
AcDbEntity
  8
0
  6
Continuous
 62
     0
370
     0
100
AcDbLine
 10
175.940186
 20
490.017896
 30
0.0
 11
174.940186
 21
490.017896
 31
0.0
  0
LINE
  5
78
330
48
100
AcDbEntity
  8
0
  6
Continuous
 62
     0
370
    30
100
AcDbLine
 10
174.940186
 20
490.017896
 30
0.0
 11
174.940186
 21
370.759328
 31
0.0
  0
LINE
  5
79
330
48
100
AcDbEntity
  8
0
  6
Continuous
 62
     0
370
     0
100
AcDbLine
 10
175.940186
 20
370.759328
 30
0.0
 11
175.940186
 21
490.017896
 31
0.0
  0
LINE
  5
7A
330
48
100
AcDbEntity
  8
0
  6
Continuous
 62
     0
370
     0
100
AcDbLine
 10
210.940186
 20
490.017896
 30
0.0
 11
209.940186
 21
490.017896
 31
0.0
  0
LINE
  5
7B
330
48
100
AcDbEntity
  8
0
  6
Continuous
 62
     0
370
     0
100
AcDbLine
 10
209.940186
 20
490.017896
 30
0.0
 11
209.940186
 21
370.759328
 31
0.0
  0
LINE
  5
7C
330
48
100
AcDbEntity
  8
0
  6
Continuous
 62
     0
370
    30
100
AcDbLine
 10
210.940186
 20
370.759328
 30
0.0
 11
210.940186
 21
490.017896
 31
0.0
  0
LINE
  5
7D
330
48
100
AcDbEntity
  8
0
  6
Continuous
 62
     0
370
    30
100
AcDbLine
 10
174.940186
 20
505.767896
 30
0.0
 11
174.940186
 21
519.759328
 31
0.0
  0
LINE
  5
7E
330
48
100
AcDbEntity
  8
0
  6
Continuous
 62
     0
370
    30
100
AcDbLine
 10
174.940186
 20
490.017896
 30
0.0
 11
174.940186
 21
505.767896
 31
0.0
  0
LINE
  5
7F
330
48
100
AcDbEntity
  8
0
  6
Continuous
 62
     0
370
     0
100
AcDbLine
 10
179.940186
 20
505.767896
 30
0.0
 11
179.940186
 21
519.759328
 31
0.0
  0
LINE
  5
80
330
48
100
AcDbEntity
  8
0
  6
Continuous
 62
     0
370
     0
100
AcDbLine
 10
179.940186
 20
519.759328
 30
0.0
 11
174.940186
 21
519.759328
 31
0.0
  0
LINE
  5
81
330
48
100
AcDbEntity
  8
0
  6
Continuous
 62
     0
370
     0
100
AcDbLine
 10
174.940186
 20
505.767896
 30
0.0
 11
179.940186
 21
505.767896
 31
0.0
  0
LINE
  5
82
330
48
100
AcDbEntity
  8
0
  6
Continuous
 62
     0
370
     0
100
AcDbLine
 10
205.940186
 20
505.767896
 30
0.0
 11
205.940186
 21
519.759328
 31
0.0
  0
LINE
  5
83
330
48
100
AcDbEntity
  8
0
  6
Continuous
 62
     0
370
     0
100
AcDbLine
 10
205.940186
 20
519.759328
 30
0.0
 11
179.940186
 21
519.759328
 31
0.0
  0
LINE
  5
84
330
48
100
AcDbEntity
  8
0
  6
Continuous
 62
     0
370
     0
100
AcDbLine
 10
179.940186
 20
505.767896
 30
0.0
 11
205.940186
 21
505.767896
 31
0.0
  0
LINE
  5
85
330
48
100
AcDbEntity
  8
0
  6
Continuous
 62
     0
370
    30
100
AcDbLine
 10
210.940186
 20
505.767896
 30
0.0
 11
210.940186
 21
519.759328
 31
0.0
  0
LINE
  5
86
330
48
100
AcDbEntity
  8
0
  6
Continuous
 62
     0
370
     0
100
AcDbLine
 10
210.940186
 20
519.759328
 30
0.0
 11
205.940186
 21
519.759328
 31
0.0
  0
LINE
  5
87
330
48
100
AcDbEntity
  8
0
  6
Continuous
 62
     0
370
     0
100
AcDbLine
 10
205.940186
 20
505.767896
 30
0.0
 11
210.940186
 21
505.767896
 31
0.0
  0
LINE
  5
88
330
48
100
AcDbEntity
  8
0
  6
Continuous
 62
     0
370
    30
100
AcDbLine
 10
210.940186
 20
505.767896
 30
0.0
 11
210.940186
 21
490.017896
 31
0.0
  0
LINE
  5
89
330
48
100
AcDbEntity
  8
0
  6
Continuous
 62
     0
370
     0
100
AcDbLine
 10
175.940186
 20
490.017896
 30
0.0
 11
209.940186
 21
490.017896
 31
0.0
  0
LINE
  5
8A
330
48
100
AcDbEntity
  8
0
  6
Continuous
 62
     0
370
     0
100
AcDbLine
 10
209.940186
 20
504.767896
 30
0.0
 11
209.940186
 21
490.017896
 31
0.0
  0
LINE
  5
8B
330
48
100
AcDbEntity
  8
0
  6
Continuous
 62
     0
370
     0
100
AcDbLine
 10
175.940186
 20
490.017896
 30
0.0
 11
175.940186
 21
504.767896
 31
0.0
  0
ARC
  5
8C
330
48
100
AcDbEntity
  8
0
  6
Continuous
 62
     0
370
    30
100
AcDbCircle
 10
209.940186
 20
505.767896
 30
0.0
 40
1.0
100
AcDbArc
 50
270.0
 51
0.0
  0
LINE
  5
8D
330
48
100
AcDbEntity
  8
0
  6
Continuous
 62
     0
370
     0
100
AcDbLine
 10
205.940186
 20
504.767896
 30
0.0
 11
205.940186
 21
505.767896
 31
0.0
  0
LINE
  5
8E
330
48
100
AcDbEntity
  8
0
  6
Continuous
 62
     0
370
    30
100
AcDbLine
 10
209.940186
 20
504.767896
 30
0.0
 11
205.940186
 21
504.767896
 31
0.0
  0
LINE
  5
8F
330
48
100
AcDbEntity
  8
0
  6
Continuous
 62
     0
370
     0
100
AcDbLine
 10
179.940186
 20
505.767896
 30
0.0
 11
179.940186
 21
504.767896
 31
0.0
  0
LINE
  5
90
330
48
100
AcDbEntity
  8
0
  6
Continuous
 62
     0
370
    30
100
AcDbLine
 10
179.940186
 20
504.767896
 30
0.0
 11
205.940186
 21
504.767896
 31
0.0
  0
ARC
  5
91
330
48
100
AcDbEntity
  8
0
  6
Continuous
 62
     0
370
    30
100
AcDbCircle
 10
175.940186
 20
505.767896
 30
0.0
 40
1.00000000000591
100
AcDbArc
 50
180.0
 51
270.0
  0
LINE
  5
92
330
48
100
AcDbEntity
  8
0
  6
Continuous
 62
     0
370
    30
100
AcDbLine
 10
179.940186
 20
504.767896
 30
0.0
 11
175.940186
 21
504.767896
 31
0.0
  0
ARC
  5
93
330
48
100
AcDbEntity
  8
0
  6
Continuous
 62
     0
370
    30
100
AcDbCircle
 10
209.940186
 20
519.759328
 30
0.0
 40
0.9999999999999961
100
AcDbArc
 50
0.0
 51
90.0
  0
LINE
  5
94
330
48
100
AcDbEntity
  8
0
  6
Continuous
 62
     0
370
    30
100
AcDbLine
 10
209.940186
 20
520.759328
 30
0.0
 11
205.940186
 21
520.759328
 31
0.0
  0
LINE
  5
95
330
48
100
AcDbEntity
  8
0
  6
Continuous
 62
     0
370
     0
100
AcDbLine
 10
205.940186
 20
520.759328
 30
0.0
 11
205.940186
 21
519.759328
 31
0.0
  0
LINE
  5
96
330
48
100
AcDbEntity
  8
0
  6
Continuous
 62
     0
370
    30
100
AcDbLine
 10
205.940186
 20
520.759328
 30
0.0
 11
179.940186
 21
520.759328
 31
0.0
  0
LINE
  5
97
330
48
100
AcDbEntity
  8
0
  6
Continuous
 62
     0
370
     0
100
AcDbLine
 10
179.940186
 20
520.759328
 30
0.0
 11
179.940186
 21
519.759328
 31
0.0
  0
LINE
  5
98
330
48
100
AcDbEntity
  8
0
  6
Continuous
 62
     0
370
    30
100
AcDbLine
 10
179.940186
 20
520.759328
 30
0.0
 11
175.940186
 21
520.759328
 31
0.0
  0
ARC
  5
99
330
48
100
AcDbEntity
  8
0
  6
Continuous
 62
     0
370
    30
100
AcDbCircle
 10
175.940186
 20
519.759328
 30
0.0
 40
0.9999999999963602
100
AcDbArc
 50
90.0
 51
180.0
  0
LINE
  5
9A
330
48
100
AcDbEntity
  8
0
  6
Continuous
 62
     0
370
    30
100
AcDbLine
 10
162.940186
 20
367.759299
 30
0.0
 11
162.940186
 21
370.759299
 31
0.0
  0
LINE
  5
9B
330
48
100
AcDbEntity
  8
0
  6
Continuous
 62
     0
370
    30
100
AcDbLine
 10
222.940186
 20
367.759299
 30
0.0
 11
222.940186
 21
370.759299
 31
0.0
  0
ARC
  5
9C
330
48
100
AcDbEntity
  8
0
  6
Continuous
 62
     0
370
    30
100
AcDbCircle
 10
192.218586
 20
519.759306
 30
0.0
 40
17.50019539710188
100
AcDbArc
 50
3.275872
 51
10.869385
  0
ARC
  5
9D
330
48
100
AcDbEntity
  8
0
  6
Continuous
 62
     0
370
    30
100
AcDbCircle
 10
193.819772
 20
519.744978
 30
0.0
 40
17.65874347807815
100
AcDbArc
 50
169.182051
 51
176.707007
  0
LWPOLYLINE
  5
9E
330
48
100
AcDbEntity
  8
0
  6
Continuous
 62
     0
370
    30
100
AcDbPolyline
 90
       16
 70
     0
 43
0.0
 10
205.940186
 20
558.278687
 10
206.419846
 20
558.274231
 10
206.893631
 20
558.26123
 10
207.355774
 20
558.239807
 10
207.800766
 20
558.210022
 10
208.223343
 20
558.172241
 10
208.619598
 20
558.126587
 10
208.98613
 20
558.073303
 10
209.320862
 20
558.012146
 10
209.624207
 20
557.942078
 10
209.900223
 20
557.859863
 10
210.157471
 20
557.757141
 10
210.410294
 20
557.61322
 10
210.659439
 20
557.391602
 10
210.860641
 20
557.063477
 10
210.940186
 20
556.653015
  0
LINE
  5
9F
330
48
100
AcDbEntity
  8
0
  6
Continuous
 62
     0
370
    30
100
AcDbLine
 10
179.940187
 20
558.278777
 30
0.0
 11
205.940187
 21
558.278777
 31
0.0
  0
LWPOLYLINE
  5
A0
330
48
100
AcDbEntity
  8
0
  6
Continuous
 62
     0
370
    30
100
AcDbPolyline
 90
       16
 70
     0
 43
0.0
 10
179.940186
 20
558.278687
 10
179.460526
 20
558.274231
 10
178.98674
 20
558.26123
 10
178.524597
 20
558.239807
 10
178.079605
 20
558.210022
 10
177.657028
 20
558.172241
 10
177.260773
 20
558.126587
 10
176.894241
 20
558.073303
 10
176.559509
 20
558.012146
 10
176.256165
 20
557.942078
 10
175.980148
 20
557.859863
 10
175.7229
 20
557.757141
 10
175.470078
 20
557.61322
 10
175.220932
 20
557.391602
 10
175.01973
 20
557.063477
 10
174.940186
 20
556.653015
  0
ENDBLK
  5
A2
330
48
100
AcDbEntity
  8
0
100
AcDbBlockEnd
  0
BLOCK
  5
DA
330
A4
100
AcDbEntity
  8
0
100
AcDbBlockBegin
  2
b
 70
     0
 10
45.204514
 20
91.382233
 30
0.0
  3
b
  1

  0
LINE
  5
A5
330
A4
100
AcDbEntity
  8
0
  6
Continuous
 62
     0
370
     0
100
AcDbLine
 10
205.940187
 20
214.031967
 30
0.0
 11
205.940187
 21
213.719102
 31
0.0
  0
ELLIPSE
  5
A6
330
A4
100
AcDbEntity
  8
0
  6
Continuous
 62
     0
370
     0
100
AcDbEllipse
 10
205.940187
 20
218.657543
 30
0.0
 11
-4.999999999999999
 21
-7.724096075452764E-8
 31
0.0
210
0.0
220
0.0
230
1.0
 40
0.987688
 41
1.570796326794895
 42
3.141592653589779
  0
LINE
  5
A7
330
A4
100
AcDbEntity
  8
0
  6
Continuous
 62
     0
370
    30
100
AcDbLine
 10
210.940187
 20
218.657544
 30
0.0
 11
210.940187
 21
218.970409
 31
0.0
  0
ELLIPSE
  5
A8
330
A4
100
AcDbEntity
  8
0
  6
Continuous
 62
     0
370
     0
100
AcDbEllipse
 10
205.940187
 20
218.970409
 30
0.0
 11
4.999999999999999
 21
7.724096075452764E-8
 31
0.0
210
0.0
220
0.0
230
-1.0
 40
0.987688
 41
0.0000000000000055
 42
1.570796326794894
  0
LINE
  5
A9
330
A4
100
AcDbEntity
  8
0
  6
Continuous
 62
     0
370
     0
100
AcDbLine
 10
179.940187
 20
214.031967
 30
0.0
 11
179.940187
 21
213.719101
 31
0.0
  0
LINE
  5
AA
330
A4
100
AcDbEntity
  8
0
  6
Continuous
 62
     0
370
     0
100
AcDbLine
 10
179.940187
 20
213.719101
 30
0.0
 11
205.940187
 21
213.719102
 31
0.0
  0
LINE
  5
AB
330
A4
100
AcDbEntity
  8
0
  6
Continuous
 62
     0
370
     0
100
AcDbLine
 10
205.940187
 20
214.031967
 30
0.0
 11
179.940187
 21
214.031967
 31
0.0
  0
LINE
  5
AC
330
A4
100
AcDbEntity
  8
0
  6
Continuous
 62
     0
370
    30
100
AcDbLine
 10
174.940187
 20
218.970408
 30
0.0
 11
174.940187
 21
218.657543
 31
0.0
  0
ELLIPSE
  5
AD
330
A4
100
AcDbEntity
  8
0
  6
Continuous
 62
     0
370
     0
100
AcDbEllipse
 10
179.940187
 20
218.657543
 30
0.0
 11
-4.999999999999999
 21
-7.724096031096197E-8
 31
0.0
210
0.0
220
0.0
230
1.0
 40
0.987688
 41
6.283185307179584
 42
7.853981633974476
  0
ELLIPSE
  5
AE
330
A4
100
AcDbEntity
  8
0
  6
Continuous
 62
     0
370
     0
100
AcDbEllipse
 10
179.940187
 20
218.970409
 30
0.0
 11
4.999999999999999
 21
7.724096031096197E-8
 31
0.0
210
0.0
220
0.0
230
-1.0
 40
0.987688
 41
1.5707963267949
 42
3.141592653589783
  0
LWPOLYLINE
  5
AF
330
A4
100
AcDbEntity
  8
0
  6
Continuous
 62
     0
370
    30
100
AcDbPolyline
 90
       10
 70
     0
 43
0.0
 10
174.940186
 20
293.562653
 10
175.014526
 20
294.418732
 10
175.237625
 20
295.257935
 10
175.60199
 20
296.049164
 10
176.097
 20
296.762817
 10
176.709061
 20
297.379883
 10
177.424133
 20
297.882874
 10
178.221924
 20
298.255707
 10
179.068069
 20
298.485321
 10
179.940186
 20
298.562653
  0
LWPOLYLINE
  5
B0
330
A4
100
AcDbEntity
  8
0
  6
Continuous
 62
     0
370
     0
100
AcDbPolyline
 90
        9
 70
     0
 43
0.0
 10
175.940186
 20
219.126846
 10
176.015427
 20
218.364197
 10
176.24411
 20
217.616272
 10
176.617355
 20
216.927414
 10
177.109787
 20
216.33519
 10
177.708572
 20
215.848083
 10
178.405441
 20
215.47847
 10
179.162399
 20
215.251495
 10
179.940186
 20
215.176086
  0
LINE
  5
B1
330
A4
100
AcDbEntity
  8
0
  6
Continuous
 62
     0
370
     0
100
AcDbLine
 10
179.940187
 20
215.17609
 30
0.0
 11
205.940187
 21
215.17609
 31
0.0
  0
LWPOLYLINE
  5
B2
330
A4
100
AcDbEntity
  8
0
  6
Continuous
 62
     0
370
     0
100
AcDbPolyline
 90
        9
 70
     0
 43
0.0
 10
205.940186
 20
215.176086
 10
206.712341
 20
215.250397
 10
207.469589
 20
215.476273
 10
208.167038
 20
215.844925
 10
208.766647
 20
216.331299
 10
209.259811
 20
216.922714
 10
209.634033
 20
217.610992
 10
209.863846
 20
218.358627
 10
209.940186
 20
219.126846
  0
LINE
  5
B3
330
A4
100
AcDbEntity
  8
0
  6
Continuous
 62
     0
370
     0
100
AcDbLine
 10
209.940187
 20
219.126843
 30
0.0
 11
209.940186
 21
293.719099
 31
0.0
  0
ARC
  5
B4
330
A4
100
AcDbEntity
  8
0
  6
Continuous
 62
     0
370
     0
100
AcDbCircle
 10
205.940121
 20
293.719034
 30
0.0
 40
4.000064720528728
100
AcDbArc
 50
0.000928
 51
89.999074
  0
LINE
  5
B5
330
A4
100
AcDbEntity
  8
0
  6
Continuous
 62
     0
370
     0
100
AcDbLine
 10
205.940185
 20
297.719099
 30
0.0
 11
179.940185
 21
297.719098
 31
0.0
  0
ARC
  5
B6
330
A4
100
AcDbEntity
  8
0
  6
Continuous
 62
     0
370
     0
100
AcDbCircle
 10
179.94025
 20
293.719034
 30
0.0
 40
4.000064720528704
100
AcDbArc
 50
90.000928
 51
179.999074
  0
LINE
  5
B7
330
A4
100
AcDbEntity
  8
0
  6
Continuous
 62
     0
370
     0
100
AcDbLine
 10
175.940186
 20
293.719098
 30
0.0
 11
175.940187
 21
219.126843
 31
0.0
  0
LWPOLYLINE
  5
B8
330
A4
100
AcDbEntity
  8
0
  6
Continuous
 62
     0
370
    30
100
AcDbPolyline
 90
       10
 70
     0
 43
0.0
 10
205.940186
 20
298.562653
 10
206.803009
 20
298.487
 10
207.64949
 20
298.258972
 10
208.447998
 20
297.887634
 10
209.164093
 20
297.385956
 10
209.777344
 20
296.77005
 10
210.273697
 20
296.057343
 10
210.639542
 20
295.266815
 10
210.864227
 20
294.427948
 10
210.940186
 20
293.562653
  0
ELLIPSE
  5
B9
330
A4
100
AcDbEntity
  8
0
  6
Continuous
 62
     0
370
     0
100
AcDbEllipse
 10
175.940186
 20
293.562664
 30
0.0
 11
0.9999999999999919
 21
1.544818668666420E-8
 31
0.0
210
0.0
220
0.0
230
1.0
 40
0.156434
 41
1.570796326794935
 42
3.141592653589737
  0
LINE
  5
BA
330
A4
100
AcDbEntity
  8
0
  6
Continuous
 62
     0
370
    30
100
AcDbLine
 10
174.940186
 20
293.562664
 30
0.0
 11
174.940187
 21
218.970408
 31
0.0
  0
ELLIPSE
  5
BB
330
A4
100
AcDbEntity
  8
0
  6
Continuous
 62
     0
370
     0
100
AcDbEllipse
 10
175.940187
 20
218.970408
 30
0.0
 11
-0.9999999999999919
 21
-1.544818668666420E-8
 31
0.0
210
0.0
220
0.0
230
-1.0
 40
0.156434
 41
0.0
 42
1.570796326794841
  0
LINE
  5
BC
330
A4
100
AcDbEntity
  8
0
  6
Continuous
 62
     0
370
     0
100
AcDbLine
 10
179.940187
 20
214.031967
 30
0.0
 11
179.940187
 21
215.17609
 31
0.0
  0
LINE
  5
BD
330
A4
100
AcDbEntity
  8
0
  6
Continuous
 62
     0
370
     0
100
AcDbLine
 10
205.940187
 20
214.031967
 30
0.0
 11
205.940187
 21
215.17609
 31
0.0
  0
LWPOLYLINE
  5
BE
330
A4
100
AcDbEntity
  8
0
  6
Continuous
 62
     0
370
     0
100
AcDbPolyline
 90
        5
 70
     0
 43
0.0
 10
209.940186
 20
219.126846
 10
210.320801
 20
219.115067
 10
210.644119
 20
219.081512
 10
210.861481
 20
219.03125
 10
210.940186
 20
218.970413
  0
LINE
  5
BF
330
A4
100
AcDbEntity
  8
0
  6
Continuous
 62
     0
370
    30
100
AcDbLine
 10
210.940187
 20
218.970409
 30
0.0
 11
210.940186
 21
293.562664
 31
0.0
  0
ELLIPSE
  5
C0
330
A4
100
AcDbEntity
  8
0
  6
Continuous
 62
     0
370
     0
100
AcDbEllipse
 10
209.940186
 20
293.562664
 30
0.0
 11
0.9999999999999988
 21
1.544818671476585E-8
 31
0.0
210
0.0
220
0.0
230
1.0
 40
0.156434
 41
6.283185307179507
 42
7.853981633974482
  0
LINE
  5
C1
330
A4
100
AcDbEntity
  8
0
  6
Continuous
 62
     0
370
     0
100
AcDbLine
 10
205.940185
 20
297.719099
 30
0.0
 11
205.940185
 21
298.562664
 31
0.0
  0
LINE
  5
C2
330
A4
100
AcDbEntity
  8
0
  6
Continuous
 62
     0
370
    30
100
AcDbLine
 10
205.940185
 20
298.562664
 30
0.0
 11
179.940185
 21
298.562664
 31
0.0
  0
LINE
  5
C3
330
A4
100
AcDbEntity
  8
0
  6
Continuous
 62
     0
370
     0
100
AcDbLine
 10
179.940185
 20
298.562664
 30
0.0
 11
179.940185
 21
297.719098
 31
0.0
  0
LINE
  5
C4
330
A4
100
AcDbEntity
  8
0
  6
Continuous
 62
     0
370
     0
100
AcDbLine
 10
179.940187
 20
213.719101
 30
0.0
 11
179.940187
 21
213.70691
 31
0.0
  0
LINE
  5
C5
330
A4
100
AcDbEntity
  8
0
  6
Continuous
 62
     0
370
     0
100
AcDbLine
 10
205.940187
 20
213.70679
 30
0.0
 11
205.940187
 21
213.719102
 31
0.0
  0
ARC
  5
C6
330
A4
100
AcDbEntity
  8
0
  6
Continuous
 62
     0
370
    30
100
AcDbCircle
 10
192.940186
 20
280.562661
 30
0.0
 40
30.0
100
AcDbArc
 50
220.641371
 51
233.130104
  0
ARC
  5
C7
330
A4
100
AcDbEntity
  8
0
  6
Continuous
 62
     0
370
    30
100
AcDbCircle
 10
192.940186
 20
280.562661
 30
0.0
 40
30.0
100
AcDbArc
 50
306.869899
 51
40.641371
  0
ARC
  5
C8
330
A4
100
AcDbEntity
  8
0
  6
Continuous
 62
     0
370
    30
100
AcDbCircle
 10
192.940186
 20
280.562661
 30
0.0
 40
30.0
100
AcDbArc
 50
40.641371
 51
220.641371
  0
LINE
  5
C9
330
A4
100
AcDbEntity
  8
0
  6
Continuous
 62
     0
370
    30
100
AcDbLine
 10
174.940186
 20
93.721222
 30
0.0
 11
174.940186
 21
218.657544
 31
0.0
  0
ARC
  5
CA
330
A4
100
AcDbEntity
  8
0
  6
Continuous
 62
     0
370
    30
100
AcDbCircle
 10
179.940186
 20
93.721222
 30
0.0
 40
5.0
100
AcDbArc
 50
180.0
 51
270.0
  0
LINE
  5
CB
330
A4
100
AcDbEntity
  8
0
  6
Continuous
 62
     0
370
    30
100
AcDbLine
 10
205.940186
 20
88.721222
 30
0.0
 11
179.940186
 21
88.721222
 31
0.0
  0
ARC
  5
CC
330
A4
100
AcDbEntity
  8
0
  6
Continuous
 62
     0
370
    30
100
AcDbCircle
 10
205.940186
 20
93.721222
 30
0.0
 40
5.0
100
AcDbArc
 50
270.0
 51
0.0
  0
LINE
  5
CD
330
A4
100
AcDbEntity
  8
0
  6
Continuous
 62
     0
370
    30
100
AcDbLine
 10
210.940186
 20
218.657545
 30
0.0
 11
210.940186
 21
93.721222
 31
0.0
  0
LINE
  5
CE
330
A4
100
AcDbEntity
  8
0
  6
Continuous
 62
     0
370
     0
100
AcDbLine
 10
209.940186
 20
215.687332
 30
0.0
 11
209.940186
 21
93.721222
 31
0.0
  0
LINE
  5
CF
330
A4
100
AcDbEntity
  8
0
  6
Continuous
 62
     0
370
     0
100
AcDbLine
 10
209.940186
 20
93.721222
 30
0.0
 11
210.940186
 21
93.721222
 31
0.0
  0
LWPOLYLINE
  5
D0
330
A4
100
AcDbEntity
  8
0
  6
Continuous
 62
     0
370
     0
100
AcDbPolyline
 90
        9
 70
     0
 43
0.0
 10
209.940186
 20
93.721222
 10
209.863312
 20
92.947884
 10
209.635834
 20
92.195084
 10
209.267303
 20
91.499725
 10
208.771286
 20
90.893791
 10
208.166016
 20
90.396996
 10
207.471176
 20
90.027557
 10
206.718613
 20
89.79911
 10
205.940186
 20
89.721222
  0
LINE
  5
D1
330
A4
100
AcDbEntity
  8
0
  6
Continuous
 62
     0
370
     0
100
AcDbLine
 10
205.940186
 20
89.721222
 30
0.0
 11
205.940186
 21
88.721222
 31
0.0
  0
LINE
  5
D2
330
A4
100
AcDbEntity
  8
0
  6
Continuous
 62
     0
370
     0
100
AcDbLine
 10
205.940186
 20
89.721222
 30
0.0
 11
179.940186
 21
89.721222
 31
0.0
  0
LINE
  5
D3
330
A4
100
AcDbEntity
  8
0
  6
Continuous
 62
     0
370
     0
100
AcDbLine
 10
179.940186
 20
89.721222
 30
0.0
 11
179.940186
 21
88.721222
 31
0.0
  0
LWPOLYLINE
  5
D4
330
A4
100
AcDbEntity
  8
0
  6
Continuous
 62
     0
370
     0
100
AcDbPolyline
 90
        9
 70
     0
 43
0.0
 10
179.940186
 20
89.721222
 10
179.16684
 20
89.798096
 10
178.414047
 20
90.025574
 10
177.718689
 20
90.394104
 10
177.112762
 20
90.890121
 10
176.615952
 20
91.495384
 10
176.246521
 20
92.190239
 10
176.018082
 20
92.942787
 10
175.940186
 20
93.721222
  0
LINE
  5
D5
330
A4
100
AcDbEntity
  8
0
  6
Continuous
 62
     0
370
     0
100
AcDbLine
 10
175.940186
 20
93.721222
 30
0.0
 11
174.940186
 21
93.721222
 31
0.0
  0
LINE
  5
D6
330
A4
100
AcDbEntity
  8
0
  6
Continuous
 62
     0
370
     0
100
AcDbLine
 10
175.940186
 20
93.721222
 30
0.0
 11
175.940186
 21
215.687335
 31
0.0
  0
LWPOLYLINE
  5
D7
330
A4
100
AcDbEntity
  8
0
  6
Continuous
 62
     0
370
    30
100
AcDbPolyline
 90
        9
 70
     0
 43
0.0
 10
210.819946
 20
217.581009
 10
210.570267
 20
216.789307
 10
210.19046
 20
216.050186
 10
209.691406
 20
215.384476
 10
209.087387
 20
214.810745
 10
208.395416
 20
214.344894
 10
207.634766
 20
214.000229
 10
206.826935
 20
213.78598
 10
205.940186
 20
213.706909
  0
LINE
  5
D8
330
A4
100
AcDbEntity
  8
0
  6
Continuous
 62
     0
370
    30
100
AcDbLine
 10
179.940187
 20
213.70679
 30
0.0
 11
205.940187
 21
213.70679
 31
0.0
  0
LWPOLYLINE
  5
D9
330
A4
100
AcDbEntity
  8
0
  6
Continuous
 62
     0
370
    30
100
AcDbPolyline
 90
        9
 70
     0
 43
0.0
 10
175.060425
 20
217.581009
 10
175.310104
 20
216.789307
 10
175.689911
 20
216.050186
 10
176.188965
 20
215.384476
 10
176.792984
 20
214.810745
 10
177.48497
 20
214.344894
 10
178.245605
 20
214.000229
 10
179.053436
 20
213.78598
 10
179.940186
 20
213.706909
  0
ENDBLK
  5
DB
330
A4
100
AcDbEntity
  8
0
100
AcDbBlockEnd
  0
BLOCK
  5
121
330
DD
100
AcDbEntity
  8
0
100
AcDbBlockBegin
  2
c
 70
     0
 10
122.964127
 20
-8.594452
 30
0.0
  3
c
  1

  0
LINE
  5
DE
330
DD
100
AcDbEntity
  8
0
  6
Continuous
 62
     0
370
    30
100
AcDbLine
 10
503.218381
 20
523.05933
 30
0.0
 11
503.218381
 21
542.440929
 31
0.0
  0
LINE
  5
DF
330
DD
100
AcDbEntity
  8
0
  6
Continuous
 62
     0
370
     0
100
AcDbLine
 10
503.218381
 20
542.440929
 30
0.0
 11
502.218381
 21
542.440929
 31
0.0
  0
LINE
  5
E0
330
DD
100
AcDbEntity
  8
0
  6
Continuous
 62
     0
370
     0
100
AcDbLine
 10
502.218381
 20
542.440929
 30
0.0
 11
502.218381
 21
523.05933
 31
0.0
  0
LINE
  5
E1
330
DD
100
AcDbEntity
  8
0
  6
Continuous
 62
     0
370
    30
100
AcDbLine
 10
502.218381
 20
523.05933
 30
0.0
 11
503.218381
 21
523.05933
 31
0.0
  0
ARC
  5
E2
330
DD
100
AcDbEntity
  8
0
  6
Continuous
 62
     0
370
    30
100
AcDbCircle
 10
508.218381
 20
542.440929
 30
0.0
 40
5.0
100
AcDbArc
 50
99.0
 51
180.0
  0
LWPOLYLINE
  5
E3
330
DD
100
AcDbEntity
  8
0
  6
Continuous
 62
     0
370
    30
100
AcDbPolyline
 90
        9
 70
     0
 43
0.0
 10
551.230652
 20
554.315735
 10
551.156555
 20
554.304016
 10
550.931274
 20
554.268311
 10
550.563477
 20
554.210083
 10
550.078186
 20
554.133179
 10
549.488159
 20
554.039734
 10
548.80127
 20
553.930969
 10
548.054871
 20
553.812744
 10
547.279907
 20
553.690002
  0
LINE
  5
E4
330
DD
100
AcDbEntity
  8
0
  6
Continuous
 62
     0
370
    30
100
AcDbLine
 10
547.279925
 20
553.689996
 30
0.0
 11
507.436209
 21
547.379371
 31
0.0
  0
LINE
  5
E5
330
DD
100
AcDbEntity
  8
0
  6
Continuous
 62
     0
370
    30
100
AcDbLine
 10
551.749067
 20
557.435212
 30
0.0
 11
552.061932
 21
555.459856
 31
0.0
  0
LINE
  5
E6
330
DD
100
AcDbEntity
  8
0
  6
Continuous
 62
     0
370
     0
100
AcDbLine
 10
546.810625
 20
556.65304
 30
0.0
 11
547.123491
 21
554.677684
 31
0.0
  0
LINE
  5
E7
330
DD
100
AcDbEntity
  8
0
  6
Continuous
 62
     0
370
     0
100
AcDbLine
 10
547.123491
 20
554.677684
 30
0.0
 11
552.061932
 21
555.459856
 31
0.0
  0
LINE
  5
E8
330
DD
100
AcDbEntity
  8
0
  6
Continuous
 62
     0
370
     0
100
AcDbLine
 10
551.749067
 20
557.435212
 30
0.0
 11
546.810625
 21
556.65304
 31
0.0
  0
LWPOLYLINE
  5
E9
330
DD
100
AcDbEntity
  8
0
  6
Continuous
 62
     0
370
    30
100
AcDbPolyline
 90
       11
 70
     0
 43
0.0
 10
467.218384
 20
530.331787
 10
467.283417
 20
530.30481
 10
467.481415
 20
530.223755
 10
467.805023
 20
530.093445
 10
468.236359
 20
529.920227
 10
468.757294
 20
529.710388
 10
469.352325
 20
529.469971
 10
470.00766
 20
529.204956
 10
470.70929
 20
528.921326
 10
471.439941
 20
528.62616
 10
472.218384
 20
528.311646
  0
LINE
  5
EA
330
DD
100
AcDbEntity
  8
0
  6
Continuous
 62
     0
370
     0
100
AcDbLine
 10
472.218371
 20
528.311675
 30
0.0
 11
472.218371
 21
544.838787
 31
0.0
  0
LINE
  5
EB
330
DD
100
AcDbEntity
  8
0
  6
Continuous
 62
     0
370
     0
100
AcDbLine
 10
472.218371
 20
544.838787
 30
0.0
 11
467.21837
 21
544.205249
 31
0.0
  0
LINE
  5
EC
330
DD
100
AcDbEntity
  8
0
  6
Continuous
 62
     0
370
    30
100
AcDbLine
 10
467.21837
 20
544.205249
 30
0.0
 11
467.21837
 21
530.331806
 31
0.0
  0
LINE
  5
ED
330
DD
100
AcDbEntity
  8
0
  6
Continuous
 62
     0
370
    30
100
AcDbLine
 10
546.654191
 20
557.640728
 30
0.0
 11
550.604944
 21
558.266466
 31
0.0
  0
LINE
  5
EE
330
DD
100
AcDbEntity
  8
0
  6
Continuous
 62
     0
370
    30
100
AcDbLine
 10
468.061936
 20
545.192938
 30
0.0
 11
472.061936
 21
545.826475
 31
0.0
  0
LINE
  5
EF
330
DD
100
AcDbEntity
  8
0
  6
Continuous
 62
     0
370
    30
100
AcDbLine
 10
472.061936
 20
545.826475
 30
0.0
 11
546.654191
 21
557.640728
 31
0.0
  0
LINE
  5
F0
330
DD
100
AcDbEntity
  8
0
  6
Continuous
 62
     0
370
     0
100
AcDbLine
 10
472.061936
 20
545.826475
 30
0.0
 11
472.21837
 21
544.838787
 31
0.0
  0
LINE
  5
F1
330
DD
100
AcDbEntity
  8
0
  6
Continuous
 62
     0
370
     0
100
AcDbLine
 10
472.218371
 20
544.838787
 30
0.0
 11
546.810625
 21
556.65304
 31
0.0
  0
LINE
  5
F2
330
DD
100
AcDbEntity
  8
0
  6
Continuous
 62
     0
370
     0
100
AcDbLine
 10
546.810625
 20
556.65304
 30
0.0
 11
546.654191
 21
557.640728
 31
0.0
  0
ARC
  5
F3
330
DD
100
AcDbEntity
  8
0
  6
Continuous
 62
     0
370
    30
100
AcDbCircle
 10
550.761379
 20
557.278777
 30
0.0
 40
1.000000000012003
100
AcDbArc
 50
9.0
 51
99.0
  0
ARC
  5
F4
330
DD
100
AcDbEntity
  8
0
  6
Continuous
 62
     0
370
    30
100
AcDbCircle
 10
468.21837
 20
544.205249
 30
0.0
 40
1.0
100
AcDbArc
 50
99.0
 51
180.0
  0
LWPOLYLINE
  5
F5
330
DD
100
AcDbEntity
  8
0
  6
Continuous
 62
     0
370
     0
100
AcDbPolyline
 90
        5
 70
     0
 43
0.0
 10
507.436218
 20
547.379395
 10
507.424438
 20
547.453735
 10
507.390869
 20
547.665527
 10
507.340607
 20
547.982971
 10
507.279785
 20
548.367065
  0
ARC
  5
F6
330
DD
100
AcDbEntity
  8
0
  6
Continuous
 62
     0
370
     0
100
AcDbCircle
 10
508.218381
 20
542.440929
 30
0.0
 40
6.00000000000087
100
AcDbArc
 50
99.0
 51
180.0
  0
LINE
  5
F7
330
DD
100
AcDbEntity
  8
0
  6
Continuous
 62
     0
370
     0
100
AcDbLine
 10
547.279925
 20
553.689996
 30
0.0
 11
547.123491
 21
554.677684
 31
0.0
  0
LINE
  5
F8
330
DD
100
AcDbEntity
  8
0
  6
Continuous
 62
     0
370
     0
100
AcDbLine
 10
547.123491
 20
554.677684
 30
0.0
 11
507.279774
 21
548.367059
 31
0.0
  0
ARC
  5
F9
330
DD
100
AcDbEntity
  8
0
  6
Continuous
 62
     0
370
    30
100
AcDbCircle
 10
551.074244
 20
555.303422
 30
0.0
 40
1.00000000000003
100
AcDbArc
 50
279.0
 51
9.0
  0
LINE
  5
FA
330
DD
100
AcDbEntity
  8
0
  6
Continuous
 62
     0
370
    30
100
AcDbLine
 10
472.218371
 20
528.311675
 30
0.0
 11
484.857928
 21
523.204962
 31
0.0
  0
ARC
  5
FB
330
DD
100
AcDbEntity
  8
0
  6
Continuous
 62
     0
370
    30
100
AcDbCircle
 10
485.607142
 20
525.05933
 30
0.0
 40
1.999999999965731
100
AcDbArc
 50
248.0
 51
270.0
  0
LINE
  5
FC
330
DD
100
AcDbEntity
  8
0
  6
Continuous
 62
     0
370
    30
100
AcDbLine
 10
485.607142
 20
523.05933
 30
0.0
 11
502.218381
 21
523.05933
 31
0.0
  0
LWPOLYLINE
  5
FD
330
DD
100
AcDbEntity
  8
0
  6
Continuous
 62
     0
370
     0
100
AcDbPolyline
 90
        6
 70
     0
 43
0.0
 10
473.041504
 20
527.979126
 10
472.525726
 20
526.680298
 10
472.098511
 20
525.329041
 10
471.764832
 20
523.938843
 10
471.527832
 20
522.523987
 10
471.369781
 20
520.759338
  0
LINE
  5
FE
330
DD
100
AcDbEntity
  8
0
  6
Continuous
 62
     0
370
    30
100
AcDbLine
 10
515.21838
 20
370.759299
 30
0.0
 11
504.75805
 21
370.759299
 31
0.0
  0
LINE
  5
FF
330
DD
100
AcDbEntity
  8
0
  6
Continuous
 62
     0
370
     0
100
AcDbLine
 10
504.75805
 20
370.759299
 30
0.0
 11
504.75805
 21
367.759299
 31
0.0
  0
LINE
  5
100
330
DD
100
AcDbEntity
  8
0
  6
Continuous
 62
     0
370
    30
100
AcDbLine
 10
504.75805
 20
367.759299
 30
0.0
 11
515.21838
 21
367.759299
 31
0.0
  0
LINE
  5
101
330
DD
100
AcDbEntity
  8
0
  6
Continuous
 62
     0
370
    30
100
AcDbLine
 10
455.21838
 20
367.759299
 30
0.0
 11
504.75805
 21
367.759299
 31
0.0
  0
LINE
  5
102
330
DD
100
AcDbEntity
  8
0
  6
Continuous
 62
     0
370
    30
100
AcDbLine
 10
504.75805
 20
370.759299
 30
0.0
 11
455.21838
 21
370.759299
 31
0.0
  0
LINE
  5
103
330
DD
100
AcDbEntity
  8
0
  6
Continuous
 62
     0
370
     0
100
AcDbLine
 10
503.214097
 20
490.017896
 30
0.0
 11
502.214097
 21
490.017896
 31
0.0
  0
LINE
  5
104
330
DD
100
AcDbEntity
  8
0
  6
Continuous
 62
     0
370
     0
100
AcDbLine
 10
502.214097
 20
490.017896
 30
0.0
 11
502.214097
 21
370.759328
 31
0.0
  0
LINE
  5
105
330
DD
100
AcDbEntity
  8
0
  6
Continuous
 62
     0
370
    30
100
AcDbLine
 10
503.214097
 20
370.759328
 30
0.0
 11
503.214097
 21
490.017896
 31
0.0
  0
LINE
  5
106
330
DD
100
AcDbEntity
  8
0
  6
Continuous
 62
     0
370
     0
100
AcDbLine
 10
472.372665
 20
519.759328
 30
0.0
 11
467.372665
 21
519.759328
 31
0.0
  0
LINE
  5
107
330
DD
100
AcDbEntity
  8
0
  6
Continuous
 62
     0
370
    30
100
AcDbLine
 10
467.372665
 20
519.759328
 30
0.0
 11
467.372665
 21
370.759328
 31
0.0
  0
LINE
  5
108
330
DD
100
AcDbEntity
  8
0
  6
Continuous
 62
     0
370
     0
100
AcDbLine
 10
472.372665
 20
370.759328
 30
0.0
 11
472.372665
 21
519.759328
 31
0.0
  0
LINE
  5
109
330
DD
100
AcDbEntity
  8
0
  6
Continuous
 62
     0
370
     0
100
AcDbLine
 10
672.059813
 20
505.767896
 30
0.0
 11
672.059813
 21
519.759328
 31
0.0
  0
LINE
  5
10A
330
DD
100
AcDbEntity
  8
0
  6
Continuous
 62
     0
370
     0
100
AcDbLine
 10
672.059813
 20
519.759328
 30
0.0
 11
472.372665
 21
519.759328
 31
0.0
  0
ARC
  5
10B
330
DD
100
AcDbEntity
  8
0
  6
Continuous
 62
     0
370
     0
100
AcDbCircle
 10
517.964097
 20
490.017896
 30
0.0
 40
15.74999999999991
100
AcDbArc
 50
90.0
 51
180.0
  0
LINE
  5
10C
330
DD
100
AcDbEntity
  8
0
  6
Continuous
 62
     0
370
     0
100
AcDbLine
 10
517.964097
 20
505.767896
 30
0.0
 11
672.059813
 21
505.767896
 31
0.0
  0
LINE
  5
10D
330
DD
100
AcDbEntity
  8
0
  6
Continuous
 62
     0
370
    30
100
AcDbLine
 10
677.059813
 20
505.767896
 30
0.0
 11
677.059813
 21
519.759328
 31
0.0
  0
LINE
  5
10E
330
DD
100
AcDbEntity
  8
0
  6
Continuous
 62
     0
370
     0
100
AcDbLine
 10
677.059813
 20
519.759328
 30
0.0
 11
672.059813
 21
519.759328
 31
0.0
  0
LINE
  5
10F
330
DD
100
AcDbEntity
  8
0
  6
Continuous
 62
     0
370
     0
100
AcDbLine
 10
672.059813
 20
505.767896
 30
0.0
 11
677.059813
 21
505.767896
 31
0.0
  0
ARC
  5
110
330
DD
100
AcDbEntity
  8
0
  6
Continuous
 62
     0
370
    30
100
AcDbCircle
 10
517.964097
 20
490.017896
 30
0.0
 40
14.75
100
AcDbArc
 50
90.0
 51
180.0
  0
ARC
  5
111
330
DD
100
AcDbEntity
  8
0
  6
Continuous
 62
     0
370
    30
100
AcDbCircle
 10
676.059813
 20
505.767896
 30
0.0
 40
0.9999999999999861
100
AcDbArc
 50
270.0
 51
0.0
  0
LINE
  5
112
330
DD
100
AcDbEntity
  8
0
  6
Continuous
 62
     0
370
     0
100
AcDbLine
 10
672.059813
 20
504.767896
 30
0.0
 11
672.059813
 21
505.767896
 31
0.0
  0
LWPOLYLINE
  5
113
330
DD
100
AcDbEntity
  8
0
  6
Continuous
 62
     0
370
    30
100
AcDbPolyline
 90
        9
 70
     0
 43
0.0
 10
676.059814
 20
504.767883
 10
675.983215
 20
504.767883
 10
675.756592
 20
504.767883
 10
675.389343
 20
504.767883
 10
674.89502
 20
504.767883
 10
674.291748
 20
504.767883
 10
673.598938
 20
504.767883
 10
672.848267
 20
504.767883
 10
672.059814
 20
504.767883
  0
LINE
  5
114
330
DD
100
AcDbEntity
  8
0
  6
Continuous
 62
     0
370
     0
100
AcDbLine
 10
517.964097
 20
505.767896
 30
0.0
 11
517.964097
 21
504.767896
 31
0.0
  0
LINE
  5
115
330
DD
100
AcDbEntity
  8
0
  6
Continuous
 62
     0
370
    30
100
AcDbLine
 10
517.964097
 20
504.767896
 30
0.0
 11
672.059813
 21
504.767896
 31
0.0
  0
ARC
  5
116
330
DD
100
AcDbEntity
  8
0
  6
Continuous
 62
     0
370
    30
100
AcDbCircle
 10
676.059813
 20
519.759328
 30
0.0
 40
1.0
100
AcDbArc
 50
0.0
 51
90.0
  0
LWPOLYLINE
  5
117
330
DD
100
AcDbEntity
  8
0
  6
Continuous
 62
     0
370
    30
100
AcDbPolyline
 90
        9
 70
     0
 43
0.0
 10
676.059814
 20
520.759338
 10
675.983215
 20
520.759338
 10
675.756592
 20
520.759338
 10
675.389343
 20
520.759338
 10
674.89502
 20
520.759338
 10
674.291748
 20
520.759338
 10
673.598938
 20
520.759338
 10
672.848267
 20
520.759338
 10
672.059814
 20
520.759338
  0
LINE
  5
118
330
DD
100
AcDbEntity
  8
0
  6
Continuous
 62
     0
370
     0
100
AcDbLine
 10
672.059813
 20
520.759328
 30
0.0
 11
672.059813
 21
519.759328
 31
0.0
  0
LINE
  5
119
330
DD
100
AcDbEntity
  8
0
  6
Continuous
 62
     0
370
    30
100
AcDbLine
 10
672.059813
 20
520.759328
 30
0.0
 11
472.372665
 21
520.759328
 31
0.0
  0
LINE
  5
11A
330
DD
100
AcDbEntity
  8
0
  6
Continuous
 62
     0
370
     0
100
AcDbLine
 10
472.372665
 20
520.759328
 30
0.0
 11
472.372665
 21
519.759328
 31
0.0
  0
LINE
  5
11B
330
DD
100
AcDbEntity
  8
0
  6
Continuous
 62
     0
370
    30
100
AcDbLine
 10
472.372665
 20
520.759328
 30
0.0
 11
468.372665
 21
520.759328
 31
0.0
  0
ARC
  5
11C
330
DD
100
AcDbEntity
  8
0
  6
Continuous
 62
     0
370
    30
100
AcDbCircle
 10
468.372665
 20
519.759328
 30
0.0
 40
0.9999999999948095
100
AcDbArc
 50
90.0
 51
180.0
  0
LINE
  5
11D
330
DD
100
AcDbEntity
  8
0
  6
Continuous
 62
     0
370
    30
100
AcDbLine
 10
455.21838
 20
367.759299
 30
0.0
 11
455.21838
 21
370.759299
 31
0.0
  0
LINE
  5
11E
330
DD
100
AcDbEntity
  8
0
  6
Continuous
 62
     0
370
    30
100
AcDbLine
 10
515.21838
 20
367.759299
 30
0.0
 11
515.21838
 21
370.759299
 31
0.0
  0
ARC
  5
11F
330
DD
100
AcDbEntity
  8
0
  6
Continuous
 62
     0
370
    30
100
AcDbCircle
 10
485.93987
 20
519.759304
 30
0.0
 40
17.50008635759326
100
AcDbArc
 50
148.827762
 51
176.724101
  0
ARC
  5
120
330
DD
100
AcDbEntity
  8
0
  6
Continuous
 62
     0
370
    30
100
AcDbCircle
 10
484.496
 20
519.759209
 30
0.0
 40
17.50097966333348
100
AcDbArc
 50
3.276042
 51
10.869213
  0
ENDBLK
  5
122
330
DD
100
AcDbEntity
  8
0
100
AcDbBlockEnd
  0
BLOCK
  5
168
330
124
100
AcDbEntity
  8
0
100
AcDbBlockBegin
  2
d
 70
     0
 10
15.327759
 20
0.0
 30
0.0
  3
d
  1

  0
LINE
  5
125
330
124
100
AcDbEntity
  8
0
  6
Continuous
 62
     0
370
    30
100
AcDbLine
 10
-80.52504
 20
542.440929
 30
0.0
 11
-80.52504
 21
523.05933
 31
0.0
  0
LINE
  5
126
330
124
100
AcDbEntity
  8
0
  6
Continuous
 62
     0
370
    30
100
AcDbLine
 10
-80.52504
 20
523.05933
 30
0.0
 11
-79.52504
 21
523.05933
 31
0.0
  0
LINE
  5
127
330
124
100
AcDbEntity
  8
0
  6
Continuous
 62
     0
370
     0
100
AcDbLine
 10
-79.52504
 20
523.05933
 30
0.0
 11
-79.52504
 21
542.440929
 31
0.0
  0
LINE
  5
128
330
124
100
AcDbEntity
  8
0
  6
Continuous
 62
     0
370
     0
100
AcDbLine
 10
-79.52504
 20
542.440929
 30
0.0
 11
-80.52504
 21
542.440929
 31
0.0
  0
ARC
  5
129
330
124
100
AcDbEntity
  8
0
  6
Continuous
 62
     0
370
    30
100
AcDbCircle
 10
-85.52504
 20
542.440929
 30
0.0
 40
5.0
100
AcDbArc
 50
0.0
 51
81.0
  0
LINE
  5
12A
330
124
100
AcDbEntity
  8
0
  6
Continuous
 62
     0
370
    30
100
AcDbLine
 10
-84.742868
 20
547.379371
 30
0.0
 11
-124.586585
 21
553.689996
 31
0.0
  0
LINE
  5
12B
330
124
100
AcDbEntity
  8
0
  6
Continuous
 62
     0
370
    30
100
AcDbLine
 10
-124.586585
 20
553.689996
 30
0.0
 11
-128.537338
 21
554.315734
 31
0.0
  0
LINE
  5
12C
330
124
100
AcDbEntity
  8
0
  6
Continuous
 62
     0
370
    30
100
AcDbLine
 10
-129.055726
 20
557.435212
 30
0.0
 11
-129.368592
 21
555.459856
 31
0.0
  0
LINE
  5
12D
330
124
100
AcDbEntity
  8
0
  6
Continuous
 62
     0
370
     0
100
AcDbLine
 10
-129.368592
 20
555.459856
 30
0.0
 11
-124.43015
 21
554.677684
 31
0.0
  0
LINE
  5
12E
330
124
100
AcDbEntity
  8
0
  6
Continuous
 62
     0
370
     0
100
AcDbLine
 10
-124.43015
 20
554.677684
 30
0.0
 11
-124.117285
 21
556.65304
 31
0.0
  0
LINE
  5
12F
330
124
100
AcDbEntity
  8
0
  6
Continuous
 62
     0
370
     0
100
AcDbLine
 10
-124.117285
 20
556.65304
 30
0.0
 11
-129.055726
 21
557.435212
 31
0.0
  0
LWPOLYLINE
  5
130
330
124
100
AcDbEntity
  8
0
  6
Continuous
 62
     0
370
    30
100
AcDbPolyline
 90
        9
 70
     0
 43
0.0
 10
-127.911606
 20
558.266479
 10
-127.837486
 20
558.2547
 10
-127.612175
 20
558.219055
 10
-127.244408
 20
558.160767
 10
-126.759102
 20
558.083923
 10
-126.169067
 20
557.990479
 10
-125.482208
 20
557.881714
 10
-124.735817
 20
557.763489
 10
-123.960854
 20
557.640747
  0
LINE
  5
131
330
124
100
AcDbEntity
  8
0
  6
Continuous
 62
     0
370
    30
100
AcDbLine
 10
-123.96085
 20
557.640728
 30
0.0
 11
-49.368595
 21
545.826475
 31
0.0
  0
LINE
  5
132
330
124
100
AcDbEntity
  8
0
  6
Continuous
 62
     0
370
    30
100
AcDbLine
 10
-49.368595
 20
545.826475
 30
0.0
 11
-45.368595
 21
545.192938
 31
0.0
  0
LINE
  5
133
330
124
100
AcDbEntity
  8
0
  6
Continuous
 62
     0
370
    30
100
AcDbLine
 10
-44.52503
 20
530.331806
 30
0.0
 11
-44.52503
 21
544.205249
 31
0.0
  0
LINE
  5
134
330
124
100
AcDbEntity
  8
0
  6
Continuous
 62
     0
370
     0
100
AcDbLine
 10
-44.52503
 20
544.205249
 30
0.0
 11
-49.52503
 21
544.838787
 31
0.0
  0
LINE
  5
135
330
124
100
AcDbEntity
  8
0
  6
Continuous
 62
     0
370
     0
100
AcDbLine
 10
-49.52503
 20
544.838787
 30
0.0
 11
-49.52503
 21
528.311675
 31
0.0
  0
LWPOLYLINE
  5
136
330
124
100
AcDbEntity
  8
0
  6
Continuous
 62
     0
370
    30
100
AcDbPolyline
 90
       11
 70
     0
 43
0.0
 10
-49.525028
 20
528.311646
 10
-48.783531
 20
528.611267
 10
-48.051929
 20
528.906799
 10
-47.348392
 20
529.191162
 10
-46.690403
 20
529.457275
 10
-46.09203
 20
529.699036
 10
-45.567055
 20
529.910583
 10
-45.13084
 20
530.085754
 10
-44.801411
 20
530.218384
 10
-44.596783
 20
530.302002
 10
-44.525028
 20
530.331787
  0
ARC
  5
137
330
124
100
AcDbEntity
  8
0
  6
Continuous
 62
     0
370
    30
100
AcDbCircle
 10
-128.068038
 20
557.278777
 30
0.0
 40
1.000000000000005
100
AcDbArc
 50
81.0
 51
171.0
  0
LINE
  5
138
330
124
100
AcDbEntity
  8
0
  6
Continuous
 62
     0
370
     0
100
AcDbLine
 10
-123.96085
 20
557.640728
 30
0.0
 11
-124.117285
 21
556.65304
 31
0.0
  0
LINE
  5
139
330
124
100
AcDbEntity
  8
0
  6
Continuous
 62
     0
370
     0
100
AcDbLine
 10
-124.117285
 20
556.65304
 30
0.0
 11
-49.52503
 21
544.838787
 31
0.0
  0
LINE
  5
13A
330
124
100
AcDbEntity
  8
0
  6
Continuous
 62
     0
370
     0
100
AcDbLine
 10
-49.52503
 20
544.838787
 30
0.0
 11
-49.368595
 21
545.826475
 31
0.0
  0
ARC
  5
13B
330
124
100
AcDbEntity
  8
0
  6
Continuous
 62
     0
370
    30
100
AcDbCircle
 10
-45.52503
 20
544.205249
 30
0.0
 40
1.000000000003522
100
AcDbArc
 50
0.0
 51
81.0
  0
ARC
  5
13C
330
124
100
AcDbEntity
  8
0
  6
Continuous
 62
     0
370
    30
100
AcDbCircle
 10
-128.380903
 20
555.303422
 30
0.0
 40
0.999999999999992
100
AcDbArc
 50
171.0
 51
261.0
  0
LWPOLYLINE
  5
13D
330
124
100
AcDbEntity
  8
0
  6
Continuous
 62
     0
370
     0
100
AcDbPolyline
 90
        5
 70
     0
 43
0.0
 10
-124.586586
 20
553.690002
 10
-124.574814
 20
553.764343
 10
-124.54126
 20
553.976135
 10
-124.49099
 20
554.293579
 10
-124.430153
 20
554.677673
  0
LINE
  5
13E
330
124
100
AcDbEntity
  8
0
  6
Continuous
 62
     0
370
     0
100
AcDbLine
 10
-84.742868
 20
547.379371
 30
0.0
 11
-84.586433
 21
548.367059
 31
0.0
  0
LINE
  5
13F
330
124
100
AcDbEntity
  8
0
  6
Continuous
 62
     0
370
     0
100
AcDbLine
 10
-84.586433
 20
548.367059
 30
0.0
 11
-124.43015
 21
554.677684
 31
0.0
  0
ARC
  5
140
330
124
100
AcDbEntity
  8
0
  6
Continuous
 62
     0
370
     0
100
AcDbCircle
 10
-85.52504
 20
542.440929
 30
0.0
 40
5.999999999999445
100
AcDbArc
 50
0.0
 51
81.0
  0
LINE
  5
141
330
124
100
AcDbEntity
  8
0
  6
Continuous
 62
     0
370
    30
100
AcDbLine
 10
-62.913801
 20
523.05933
 30
0.0
 11
-79.52504
 21
523.05933
 31
0.0
  0
ARC
  5
142
330
124
100
AcDbEntity
  8
0
  6
Continuous
 62
     0
370
    30
100
AcDbCircle
 10
-62.913801
 20
525.05933
 30
0.0
 40
1.999999999948833
100
AcDbArc
 50
270.0
 51
292.0
  0
LINE
  5
143
330
124
100
AcDbEntity
  8
0
  6
Continuous
 62
     0
370
    30
100
AcDbLine
 10
-49.52503
 20
528.311675
 30
0.0
 11
-62.164588
 21
523.204962
 31
0.0
  0
ARC
  5
144
330
124
100
AcDbEntity
  8
0
  6
Continuous
 62
     0
370
     0
100
AcDbCircle
 10
-55.389755
 20
519.768901
 30
0.0
 40
21.0072510453706
100
AcDbArc
 50
170.988483
 51
177.297675
  0
LINE
  5
145
330
124
100
AcDbEntity
  8
0
  6
Continuous
 62
     0
370
     0
100
AcDbLine
 10
-42.985372
 20
367.759299
 30
0.0
 11
-42.985372
 21
370.759299
 31
0.0
  0
LINE
  5
146
330
124
100
AcDbEntity
  8
0
  6
Continuous
 62
     0
370
    30
100
AcDbLine
 10
-42.985372
 20
370.759299
 30
0.0
 11
-92.52504
 21
370.759299
 31
0.0
  0
LINE
  5
147
330
124
100
AcDbEntity
  8
0
  6
Continuous
 62
     0
370
    30
100
AcDbLine
 10
-92.52504
 20
367.759299
 30
0.0
 11
-42.985372
 21
367.759299
 31
0.0
  0
LINE
  5
148
330
124
100
AcDbEntity
  8
0
  6
Continuous
 62
     0
370
    30
100
AcDbLine
 10
-42.985372
 20
367.759299
 30
0.0
 11
-32.52504
 21
367.759299
 31
0.0
  0
LINE
  5
149
330
124
100
AcDbEntity
  8
0
  6
Continuous
 62
     0
370
    30
100
AcDbLine
 10
-32.52504
 20
370.759299
 30
0.0
 11
-42.985372
 21
370.759299
 31
0.0
  0
LINE
  5
14A
330
124
100
AcDbEntity
  8
0
  6
Continuous
 62
     0
370
     0
100
AcDbLine
 10
-79.520756
 20
490.017896
 30
0.0
 11
-80.520756
 21
490.017896
 31
0.0
  0
LINE
  5
14B
330
124
100
AcDbEntity
  8
0
  6
Continuous
 62
     0
370
    30
100
AcDbLine
 10
-80.520756
 20
490.017896
 30
0.0
 11
-80.520756
 21
370.759328
 31
0.0
  0
LINE
  5
14C
330
124
100
AcDbEntity
  8
0
  6
Continuous
 62
     0
370
     0
100
AcDbLine
 10
-79.520756
 20
370.759328
 30
0.0
 11
-79.520756
 21
490.017896
 31
0.0
  0
LINE
  5
14D
330
124
100
AcDbEntity
  8
0
  6
Continuous
 62
     0
370
    30
100
AcDbLine
 10
-254.366473
 20
505.767896
 30
0.0
 11
-254.366473
 21
519.759328
 31
0.0
  0
LINE
  5
14E
330
124
100
AcDbEntity
  8
0
  6
Continuous
 62
     0
370
     0
100
AcDbLine
 10
-249.366473
 20
505.767896
 30
0.0
 11
-249.366473
 21
519.759328
 31
0.0
  0
LINE
  5
14F
330
124
100
AcDbEntity
  8
0
  6
Continuous
 62
     0
370
     0
100
AcDbLine
 10
-249.366473
 20
519.759328
 30
0.0
 11
-254.366473
 21
519.759328
 31
0.0
  0
LINE
  5
150
330
124
100
AcDbEntity
  8
0
  6
Continuous
 62
     0
370
     0
100
AcDbLine
 10
-254.366473
 20
505.767896
 30
0.0
 11
-249.366473
 21
505.767896
 31
0.0
  0
LINE
  5
151
330
124
100
AcDbEntity
  8
0
  6
Continuous
 62
     0
370
     0
100
AcDbLine
 10
-49.679324
 20
519.759328
 30
0.0
 11
-249.366473
 21
519.759328
 31
0.0
  0
LINE
  5
152
330
124
100
AcDbEntity
  8
0
  6
Continuous
 62
     0
370
     0
100
AcDbLine
 10
-249.366473
 20
505.767896
 30
0.0
 11
-95.270756
 21
505.767896
 31
0.0
  0
ARC
  5
153
330
124
100
AcDbEntity
  8
0
  6
Continuous
 62
     0
370
     0
100
AcDbCircle
 10
-95.270756
 20
490.017896
 30
0.0
 40
15.74999999999987
100
AcDbArc
 50
0.0
 51
90.0
  0
LINE
  5
154
330
124
100
AcDbEntity
  8
0
  6
Continuous
 62
     0
370
     0
100
AcDbLine
 10
-49.679324
 20
370.759328
 30
0.0
 11
-49.679324
 21
519.759328
 31
0.0
  0
LINE
  5
155
330
124
100
AcDbEntity
  8
0
  6
Continuous
 62
     0
370
     0
100
AcDbLine
 10
-44.679324
 20
519.759328
 30
0.0
 11
-49.679324
 21
519.759328
 31
0.0
  0
LINE
  5
156
330
124
100
AcDbEntity
  8
0
  6
Continuous
 62
     0
370
    30
100
AcDbLine
 10
-44.679324
 20
370.759328
 30
0.0
 11
-44.679324
 21
519.759328
 31
0.0
  0
ARC
  5
157
330
124
100
AcDbEntity
  8
0
  6
Continuous
 62
     0
370
    30
100
AcDbCircle
 10
-95.270756
 20
490.017896
 30
0.0
 40
14.75
100
AcDbArc
 50
0.0
 51
90.0
  0
LINE
  5
158
330
124
100
AcDbEntity
  8
0
  6
Continuous
 62
     0
370
     0
100
AcDbLine
 10
-95.270756
 20
504.767896
 30
0.0
 11
-95.270756
 21
505.767896
 31
0.0
  0
LINE
  5
159
330
124
100
AcDbEntity
  8
0
  6
Continuous
 62
     0
370
     0
100
AcDbLine
 10
-249.366473
 20
505.767896
 30
0.0
 11
-249.366473
 21
504.767896
 31
0.0
  0
LINE
  5
15A
330
124
100
AcDbEntity
  8
0
  6
Continuous
 62
     0
370
    30
100
AcDbLine
 10
-249.366473
 20
504.767896
 30
0.0
 11
-95.270756
 21
504.767896
 31
0.0
  0
ARC
  5
15B
330
124
100
AcDbEntity
  8
0
  6
Continuous
 62
     0
370
    30
100
AcDbCircle
 10
-253.366473
 20
505.767896
 30
0.0
 40
1.000000000002913
100
AcDbArc
 50
180.0
 51
270.0
  0
LINE
  5
15C
330
124
100
AcDbEntity
  8
0
  6
Continuous
 62
     0
370
    30
100
AcDbLine
 10
-249.366473
 20
504.767896
 30
0.0
 11
-253.366473
 21
504.767896
 31
0.0
  0
ARC
  5
15D
330
124
100
AcDbEntity
  8
0
  6
Continuous
 62
     0
370
    30
100
AcDbCircle
 10
-45.679324
 20
519.759328
 30
0.0
 40
0.9999999999977582
100
AcDbArc
 50
360.0
 51
90.0
  0
LINE
  5
15E
330
124
100
AcDbEntity
  8
0
  6
Continuous
 62
     0
370
    30
100
AcDbLine
 10
-45.679324
 20
520.759328
 30
0.0
 11
-49.679324
 21
520.759328
 31
0.0
  0
LINE
  5
15F
330
124
100
AcDbEntity
  8
0
  6
Continuous
 62
     0
370
     0
100
AcDbLine
 10
-49.679324
 20
520.759328
 30
0.0
 11
-49.679324
 21
519.759328
 31
0.0
  0
LINE
  5
160
330
124
100
AcDbEntity
  8
0
  6
Continuous
 62
     0
370
    30
100
AcDbLine
 10
-49.679324
 20
520.759328
 30
0.0
 11
-249.366473
 21
520.759328
 31
0.0
  0
LINE
  5
161
330
124
100
AcDbEntity
  8
0
  6
Continuous
 62
     0
370
     0
100
AcDbLine
 10
-249.366473
 20
520.759328
 30
0.0
 11
-249.366473
 21
519.759328
 31
0.0
  0
LINE
  5
162
330
124
100
AcDbEntity
  8
0
  6
Continuous
 62
     0
370
    30
100
AcDbLine
 10
-249.366473
 20
520.759328
 30
0.0
 11
-253.366473
 21
520.759328
 31
0.0
  0
ARC
  5
163
330
124
100
AcDbEntity
  8
0
  6
Continuous
 62
     0
370
    30
100
AcDbCircle
 10
-253.366473
 20
519.759328
 30
0.0
 40
0.9999999999854055
100
AcDbArc
 50
90.0
 51
180.0
  0
LINE
  5
164
330
124
100
AcDbEntity
  8
0
  6
Continuous
 62
     0
370
    30
100
AcDbLine
 10
-32.52504
 20
367.759299
 30
0.0
 11
-32.52504
 21
370.759299
 31
0.0
  0
LINE
  5
165
330
124
100
AcDbEntity
  8
0
  6
Continuous
 62
     0
370
    30
100
AcDbLine
 10
-92.52504
 20
367.759299
 30
0.0
 11
-92.52504
 21
370.759299
 31
0.0
  0
ARC
  5
166
330
124
100
AcDbEntity
  8
0
  6
Continuous
 62
     0
370
    30
100
AcDbCircle
 10
-63.24653
 20
519.759304
 30
0.0
 40
17.50008635759301
100
AcDbArc
 50
3.275899
 51
31.172238
  0
ARC
  5
167
330
124
100
AcDbEntity
  8
0
  6
Continuous
 62
     0
370
    30
100
AcDbCircle
 10
-61.80266
 20
519.759209
 30
0.0
 40
17.50097966323886
100
AcDbArc
 50
169.130787
 51
176.723958
  0
ENDBLK
  5
169
330
124
100
AcDbEntity
  8
0
100
AcDbBlockEnd
  0
ENDSEC
  0
SECTION
  2
ENTITIES
  0
INSERT
  5
A3
330
1F
100
AcDbEntity
  8
0
  6
Continuous
 62
   250
370
     0
100
AcDbBlockReference
  2
a
 10
122.964127
 20
91.382233
 30
0.0
  0
INSERT
  5
DC
330
1F
100
AcDbEntity
  8
0
  6
Continuous
 62
   250
370
     0
100
AcDbBlockReference
  2
b
 10
45.204514
 20
91.382233
 30
0.0
  0
INSERT
  5
123
330
1F
100
AcDbEntity
  8
0
  6
Continuous
 62
   250
370
     0
100
AcDbBlockReference
  2
c
 10
122.964127
 20
-8.594452
 30
0.0
  0
INSERT
  5
16A
330
1F
100
AcDbEntity
  8
0
  6
Continuous
 62
   250
370
     0
100
AcDbBlockReference
  2
d
 10
15.327759
 20
0.0
 30
0.0
  0
ENDSEC
  0
SECTION
  2
OBJECTS
  0
DICTIONARY
  5
C
330
0
100
AcDbDictionary
281
     1
  3
ACAD_GROUP
350
D
  3
ACAD_LAYOUT
350
1A
  3
ACAD_MLEADERSTYLE
350
16D
  3
ACAD_MLINESTYLE
350
17
  3
ACAD_PLOTSETTINGS
350
19
  3
ACAD_PLOTSTYLENAME
350
E
  3
ACAD_VISUALSTYLE
350
2A
  3
AcDbVariableDictionary
350
16B
  0
DICTIONARY
  5
D
102
{ACAD_REACTORS
330
C
102
}
330
C
100
AcDbDictionary
281
     1
  0
DICTIONARY
  5
1A
102
{ACAD_REACTORS
330
C
102
}
330
C
100
AcDbDictionary
281
     1
  3
Layout1
350
1E
  3
Layout2
350
26
  3
Model
350
22
  0
DICTIONARY
  5
16D
102
{ACAD_REACTORS
330
C
102
}
330
C
100
AcDbDictionary
281
     1
  0
DICTIONARY
  5
17
102
{ACAD_REACTORS
330
C
102
}
330
C
100
AcDbDictionary
281
     1
  3
Standard
350
18
  0
DICTIONARY
  5
19
102
{ACAD_REACTORS
330
C
102
}
330
C
100
AcDbDictionary
281
     1
  0
ACDBDICTIONARYWDFLT
  5
E
102
{ACAD_REACTORS
330
C
102
}
330
C
100
AcDbDictionary
281
     1
  3
Normal
350
F
100
AcDbDictionaryWithDefault
340
F
  0
DICTIONARY
  5
2A
102
{ACAD_REACTORS
330
C
102
}
330
C
100
AcDbDictionary
281
     1
  3
2dWireframe
350
2F
  3
3D Hidden
350
31
  3
3dWireframe
350
30
  3
Basic
350
32
  3
Brighten
350
36
  3
ColorChange
350
3A
  3
Conceptual
350
34
  3
Dim
350
35
  3
Facepattern
350
39
  3
Flat
350
2B
  3
FlatWithEdges
350
2C
  3
Gouraud
350
2D
  3
GouraudWithEdges
350
2E
  3
Linepattern
350
38
  3
Realistic
350
33
  3
Thicken
350
37
  0
DICTIONARY
  5
16B
102
{ACAD_REACTORS
330
C
102
}
330
C
100
AcDbDictionary
281
     1
  3
PSOLHEIGHT
350
16F
  3
PSOLWIDTH
350
16E
  0
LAYOUT
  5
1E
102
{ACAD_REACTORS
330
1A
102
}
330
1A
100
AcDbPlotSettings
  1

  2
none_device
  4

  6

 40
0.0
 41
0.0
 42
0.0
 43
0.0
 44
0.0
 45
0.0
 46
0.0
 47
0.0
 48
0.0
 49
0.0
140
0.0
141
0.0
142
1.0
143
1.0
 70
   688
 72
     0
 73
     0
 74
     5
  7

 75
    16
147
1.0
148
0.0
149
0.0
100
AcDbLayout
  1
Layout1
 70
     1
 71
     1
 10
0.0
 20
0.0
 11
420.0
 21
297.0
 12
0.0
 22
0.0
 32
0.0
 14
1.000000E+20
 24
1.000000E+20
 34
1.000000E+20
 15
-1.000000E+20
 25
-1.000000E+20
 35
-1.000000E+20
146
0.0
 13
0.0
 23
0.0
 33
0.0
 16
1.0
 26
0.0
 36
0.0
 17
0.0
 27
1.0
 37
0.0
 76
     0
330
1B
  0
LAYOUT
  5
26
102
{ACAD_REACTORS
330
1A
102
}
330
1A
100
AcDbPlotSettings
  1

  2
none_device
  4

  6

 40
0.0
 41
0.0
 42
0.0
 43
0.0
 44
0.0
 45
0.0
 46
0.0
 47
0.0
 48
0.0
 49
0.0
140
0.0
141
0.0
142
1.0
143
1.0
 70
   688
 72
     0
 73
     0
 74
     5
  7

 75
    16
147
1.0
148
0.0
149
0.0
100
AcDbLayout
  1
Layout2
 70
     1
 71
     2
 10
0.0
 20
0.0
 11
0.0
 21
0.0
 12
0.0
 22
0.0
 32
0.0
 14
0.0
 24
0.0
 34
0.0
 15
0.0
 25
0.0
 35
0.0
146
0.0
 13
0.0
 23
0.0
 33
0.0
 16
1.0
 26
0.0
 36
0.0
 17
0.0
 27
1.0
 37
0.0
 76
     0
330
23
  0
LAYOUT
  5
22
102
{ACAD_REACTORS
330
1A
102
}
330
1A
100
AcDbPlotSettings
  1

  2
none_device
  4

  6

 40
0.0
 41
0.0
 42
0.0
 43
0.0
 44
0.0
 45
0.0
 46
0.0
 47
0.0
 48
0.0
 49
0.0
140
0.0
141
0.0
142
1.0
143
1.0
 70
  1712
 72
     0
 73
     0
 74
     0
  7

 75
     0
147
1.0
148
0.0
149
0.0
100
AcDbLayout
  1
Model
 70
     1
 71
     0
 10
-254.36647
 20
77.106239
 11
677.059814
 21
558.278748
 12
0.0
 22
0.0
 32
0.0
 14
-254.36647
 24
77.106239
 34
0.0
 15
677.059814
 25
558.278748
 35
0.0
146
0.0
 13
0.0
 23
0.0
 33
0.0
 16
1.0
 26
0.0
 36
0.0
 17
0.0
 27
1.0
 37
0.0
 76
     0
330
1F
331
29
  0
MLINESTYLE
  5
18
102
{ACAD_REACTORS
330
17
102
}
330
17
100
AcDbMlineStyle
  2
Standard
 70
     0
  3

 62
   256
 51
90.0
 52
90.0
 71
     2
 49
0.5
 62
   256
  6
BYLAYER
 49
-0.5
 62
   256
  6
BYLAYER
  0
ACDBPLACEHOLDER
  5
F
102
{ACAD_REACTORS
330
E
102
}
330
E
  0
VISUALSTYLE
  5
2F
102
{ACAD_REACTORS
330
2A
102
}
330
2A
100
AcDbVisualStyle
  2
2dWireframe
 70
     4
 71
     0
 72
     2
 73
     0
 90
        0
 40
-0.6
 41
-30.0
 62
     5
 63
     7
 74
     1
 91
        4
 64
     7
 65
   257
 75
     1
175
     1
 42
1.0
 92
        0
 66
   257
 43
1.0
 76
     1
 77
     6
 78
     2
 67
     7
 79
     5
170
     0
171
     0
290
     0
174
     0
 93
        1
 44
0.0
173
     0
291
     0
 45
0.0
1001
ACAD
1000
AcDbSavedByObjectVersion
1070
     0
  0
VISUALSTYLE
  5
31
102
{ACAD_REACTORS
330
2A
102
}
330
2A
100
AcDbVisualStyle
  2
3D Hidden
 70
     6
 71
     1
 72
     2
 73
     2
 90
        0
 40
-0.6
 41
-30.0
 62
     5
 63
     7
 74
     2
 91
        2
 64
     7
 65
   257
 75
     2
175
     1
 42
40.0
 92
        0
 66
   257
 43
1.0
 76
     1
 77
     6
 78
     2
 67
     7
 79
     3
170
     0
171
     0
290
     0
174
     0
 93
        1
 44
0.0
173
     0
291
     0
 45
0.0
1001
ACAD
1000
AcDbSavedByObjectVersion
1070
     0
  0
VISUALSTYLE
  5
30
102
{ACAD_REACTORS
330
2A
102
}
330
2A
100
AcDbVisualStyle
  2
3dWireframe
 70
     5
 71
     0
 72
     2
 73
     0
 90
        0
 40
-0.6
 41
-30.0
 62
     5
 63
     7
 74
     1
 91
        4
 64
     7
 65
   257
 75
     1
175
     1
 42
1.0
 92
        0
 66
   257
 43
1.0
 76
     1
 77
     6
 78
     2
 67
     7
 79
     5
170
     0
171
     0
290
     0
174
     0
 93
        1
 44
0.0
173
     0
291
     0
 45
0.0
1001
ACAD
1000
AcDbSavedByObjectVersion
1070
     0
  0
VISUALSTYLE
  5
32
102
{ACAD_REACTORS
330
2A
102
}
330
2A
100
AcDbVisualStyle
  2
Basic
 70
     7
 71
     1
 72
     0
 73
     1
 90
        0
 40
-0.6
 41
-30.0
 62
     5
 63
     7
 74
     0
 91
        4
 64
     7
 65
   257
 75
     1
175
     1
 42
1.0
 92
        8
 66
     7
 43
1.0
 76
     1
 77
     6
 78
     2
 67
     7
 79
     5
170
     0
171
     0
290
     0
174
     0
 93
        1
 44
0.0
173
     0
291
     1
 45
0.0
1001
ACAD
1000
AcDbSavedByObjectVersion
1070
     0
  0
VISUALSTYLE
  5
36
102
{ACAD_REACTORS
330
2A
102
}
330
2A
100
AcDbVisualStyle
  2
Brighten
 70
    12
 71
     2
 72
     2
 73
     0
 90
        0
 40
-0.6
 41
-30.0
 62
     5
 63
     7
 74
     1
 91
        4
 64
     7
 65
   257
 75
     1
175
     1
 42
1.0
 92
        8
 66
     7
 43
1.0
 76
     1
 77
     6
 78
     2
 67
     7
 79
     5
170
     0
171
     0
290
     0
174
     0
 93
        1
 44
50.0
173
     0
291
     1
 45
0.0
1001
ACAD
1000
AcDbSavedByObjectVersion
1070
     0
  0
VISUALSTYLE
  5
3A
102
{ACAD_REACTORS
330
2A
102
}
330
2A
100
AcDbVisualStyle
  2
ColorChange
 70
    16
 71
     2
 72
     2
 73
     3
 90
        0
 40
-0.6
 41
-30.0
 62
     5
 63
     8
 74
     1
 91
        4
 64
     7
 65
   257
 75
     1
175
     1
 42
1.0
 92
        8
 66
     8
 43
1.0
 76
     1
 77
     6
 78
     2
 67
     7
 79
     5
170
     0
171
     0
290
     0
174
     0
 93
        1
 44
0.0
173
     0
291
     1
 45
0.0
1001
ACAD
1000
AcDbSavedByObjectVersion
1070
     0
  0
VISUALSTYLE
  5
34
102
{ACAD_REACTORS
330
2A
102
}
330
2A
100
AcDbVisualStyle
  2
Conceptual
 70
     9
 71
     3
 72
     2
 73
     0
 90
        0
 40
-0.6
 41
-30.0
 62
     5
 63
     7
 74
     2
 91
        2
 64
     7
 65
   257
 75
     1
175
     1
 42
40.0
 92
        8
 66
     7
 43
1.0
 76
     1
 77
     6
 78
     2
 67
     7
 79
     3
170
     0
171
     0
290
     0
174
     0
 93
        1
 44
0.0
173
     0
291
     0
 45
0.0
1001
ACAD
1000
AcDbSavedByObjectVersion
1070
     0
  0
VISUALSTYLE
  5
35
102
{ACAD_REACTORS
330
2A
102
}
330
2A
100
AcDbVisualStyle
  2
Dim
 70
    11
 71
     2
 72
     2
 73
     0
 90
        0
 40
-0.6
 41
-30.0
 62
     5
 63
     7
 74
     1
 91
        4
 64
     7
 65
   257
 75
     1
175
     1
 42
1.0
 92
        8
 66
     7
 43
1.0
 76
     1
 77
     6
 78
     2
 67
     7
 79
     5
170
     0
171
     0
290
     0
174
     0
 93
        1
 44
-50.0
173
     0
291
     1
 45
0.0
1001
ACAD
1000
AcDbSavedByObjectVersion
1070
     0
  0
VISUALSTYLE
  5
39
102
{ACAD_REACTORS
330
2A
102
}
330
2A
100
AcDbVisualStyle
  2
Facepattern
 70
    15
 71
     2
 72
     2
 73
     0
 90
        0
 40
-0.6
 41
-30.0
 62
     5
 63
     7
 74
     1
 91
        4
 64
     7
 65
   257
 75
     1
175
     1
 42
1.0
 92
        8
 66
     7
 43
1.0
 76
     1
 77
     6
 78
     2
 67
     7
 79
     5
170
     0
171
     0
290
     0
174
     0
 93
        1
 44
0.0
173
     0
291
     1
 45
0.0
1001
ACAD
1000
AcDbSavedByObjectVersion
1070
     0
  0
VISUALSTYLE
  5
2B
102
{ACAD_REACTORS
330
2A
102
}
330
2A
100
AcDbVisualStyle
  2
Flat
 70
     0
 71
     2
 72
     1
 73
     1
 90
        2
 40
-0.6
 41
30.0
 62
     5
 63
     7
 74
     0
 91
        4
 64
     7
 65
   257
 75
     1
175
     1
 42
1.0
 92
        8
 66
     7
 43
1.0
 76
     1
 77
     6
 78
     2
 67
     7
 79
     5
170
     0
171
     0
290
     0
174
     0
 93
       13
 44
0.0
173
     0
291
     1
 45
0.0
1001
ACAD
1000
AcDbSavedByObjectVersion
1070
     0
  0
VISUALSTYLE
  5
2C
102
{ACAD_REACTORS
330
2A
102
}
330
2A
100
AcDbVisualStyle
  2
FlatWithEdges
 70
     1
 71
     2
 72
     1
 73
     1
 90
        2
 40
-0.6
 41
30.0
 62
     5
 63
     7
 74
     1
 91
        4
 64
     7
 65
   257
 75
     1
175
     1
 42
1.0
 92
        0
 66
   257
 43
1.0
 76
     1
 77
     6
 78
     2
 67
     7
 79
     5
170
     0
171
     0
290
     0
174
     0
 93
       13
 44
0.0
173
     0
291
     1
 45
0.0
1001
ACAD
1000
AcDbSavedByObjectVersion
1070
     0
  0
VISUALSTYLE
  5
2D
102
{ACAD_REACTORS
330
2A
102
}
330
2A
100
AcDbVisualStyle
  2
Gouraud
 70
     2
 71
     2
 72
     2
 73
     1
 90
        2
 40
-0.6
 41
30.0
 62
     5
 63
     7
 74
     0
 91
        4
 64
     7
 65
   257
 75
     1
175
     1
 42
1.0
 92
        0
 66
     7
 43
1.0
 76
     1
 77
     6
 78
     2
 67
     7
 79
     5
170
     0
171
     0
290
     0
174
     0
 93
       13
 44
0.0
173
     0
291
     1
 45
0.0
1001
ACAD
1000
AcDbSavedByObjectVersion
1070
     0
  0
VISUALSTYLE
  5
2E
102
{ACAD_REACTORS
330
2A
102
}
330
2A
100
AcDbVisualStyle
  2
GouraudWithEdges
 70
     3
 71
     2
 72
     2
 73
     1
 90
        2
 40
-0.6
 41
30.0
 62
     5
 63
     7
 74
     1
 91
        4
 64
     7
 65
   257
 75
     1
175
     1
 42
1.0
 92
        0
 66
   257
 43
1.0
 76
     1
 77
     6
 78
     2
 67
     7
 79
     5
170
     0
171
     0
290
     0
174
     0
 93
       13
 44
0.0
173
     0
291
     1
 45
0.0
1001
ACAD
1000
AcDbSavedByObjectVersion
1070
     0
  0
VISUALSTYLE
  5
38
102
{ACAD_REACTORS
330
2A
102
}
330
2A
100
AcDbVisualStyle
  2
Linepattern
 70
    14
 71
     2
 72
     2
 73
     0
 90
        0
 40
-0.6
 41
-30.0
 62
     5
 63
     7
 74
     1
 91
        4
 64
     7
 65
   257
 75
     7
175
     7
 42
1.0
 92
        8
 66
     7
 43
1.0
 76
     1
 77
     6
 78
     2
 67
     7
 79
     5
170
     0
171
     0
290
     0
174
     0
 93
        1
 44
0.0
173
     0
291
     1
 45
0.0
1001
ACAD
1000
AcDbSavedByObjectVersion
1070
     0
  0
VISUALSTYLE
  5
33
102
{ACAD_REACTORS
330
2A
102
}
330
2A
100
AcDbVisualStyle
  2
Realistic
 70
     8
 71
     2
 72
     2
 73
     0
 90
        0
 40
-0.6
 41
-30.0
 62
     5
 63
     7
 74
     1
 91
        0
 64
     7
 65
   257
 75
     1
175
     1
 42
1.0
 92
        8
 66
     8
 43
1.0
 76
     1
 77
     6
 78
     2
 67
     7
 79
     5
170
     0
171
     0
290
     0
174
     0
 93
       13
 44
0.0
173
     0
291
     0
 45
0.0
1001
ACAD
1000
AcDbSavedByObjectVersion
1070
     0
  0
VISUALSTYLE
  5
37
102
{ACAD_REACTORS
330
2A
102
}
330
2A
100
AcDbVisualStyle
  2
Thicken
 70
    13
 71
     2
 72
     2
 73
     0
 90
        0
 40
-0.6
 41
-30.0
 62
     5
 63
     7
 74
     1
 91
        4
 64
     7
 65
   257
 75
     1
175
     1
 42
1.0
 92
       12
 66
     7
 43
1.0
 76
     1
 77
     6
 78
     2
 67
     7
 79
     5
170
     0
171
     0
290
     0
174
     0
 93
        1
 44
0.0
173
     0
291
     1
 45
0.0
1001
ACAD
1000
AcDbSavedByObjectVersion
1070
     0
  0
DICTIONARYVAR
  5
16F
102
{ACAD_REACTORS
330
16B
102
}
330
16B
100
DictionaryVariables
280
     0
  1
80.000000
  0
DICTIONARYVAR
  5
16E
102
{ACAD_REACTORS
330
16B
102
}
330
16B
100
DictionaryVariables
280
     0
  1
5.000000
  0
ENDSEC
  0
EOF
