  0
SECTION
  2
HEADER
  9
$ACADVER
  1
AC1015
  9
$ACADMAINTVER
 70
     6
  9
$DWGCODEPAGE
  3
ANSI_1252
  9
$INSBASE
 10
0.0
 20
0.0
 30
0.0
  9
$EXTMIN
 10
-247.953674
 20
77.106239
 30
0.0
  9
$EXTMAX
 10
638.054688
 20
558.278748
 30
0.0
  9
$LIMMIN
 10
-247.953674
 20
77.106239
  9
$LIMMAX
 10
638.054688
 20
558.278748
  9
$ORTHOMODE
 70
     0
  9
$REGENMODE
 70
     1
  9
$FILLMODE
 70
     1
  9
$QTEXTMODE
 70
     0
  9
$MIRRTEXT
 70
     1
  9
$LTSCALE
 40
1.0
  9
$ATTMODE
 70
     1
  9
$TEXTSIZE
 40
2.5
  9
$TRACEWID
 40
1.0
  9
$TEXTSTYLE
  7
Standard
  9
$CLAYER
  8
0
  9
$CELTYPE
  6
ByLayer
  9
$CECOLOR
 62
   256
  9
$CELTSCALE
 40
1.0
  9
$DISPSILH
 70
     0
  9
$DIMSCALE
 40
1.0
  9
$DIMASZ
 40
2.5
  9
$DIMEXO
 40
0.625
  9
$DIMDLI
 40
3.75
  9
$DIMRND
 40
0.0
  9
$DIMDLE
 40
0.0
  9
$DIMEXE
 40
1.25
  9
$DIMTP
 40
0.0
  9
$DIMTM
 40
0.0
  9
$DIMTXT
 40
2.5
  9
$DIMCEN
 40
2.5
  9
$DIMTSZ
 40
0.0
  9
$DIMTOL
 70
     0
  9
$DIMLIM
 70
     0
  9
$DIMTIH
 70
     0
  9
$DIMTOH
 70
     0
  9
$DIMSE1
 70
     0
  9
$DIMSE2
 70
     0
  9
$DIMTAD
 70
     1
  9
$DIMZIN
 70
     8
  9
$DIMBLK
  1

  9
$DIMASO
 70
     1
  9
$DIMSHO
 70
     1
  9
$DIMPOST
  1

  9
$DIMAPOST
  1

  9
$DIMALT
 70
     0
  9
$DIMALTD
 70
     3
  9
$DIMALTF
 40
0.03937
  9
$DIMLFAC
 40
1.0
  9
$DIMTOFL
 70
     1
  9
$DIMTVP
 40
0.0
  9
$DIMTIX
 70
     0
  9
$DIMSOXD
 70
     0
  9
$DIMSAH
 70
     0
  9
$DIMBLK1
  1

  9
$DIMBLK2
  1

  9
$DIMSTYLE
  2
ISO-25
  9
$DIMCLRD
 70
     0
  9
$DIMCLRE
 70
     0
  9
$DIMCLRT
 70
     0
  9
$DIMTFAC
 40
1.0
  9
$DIMGAP
 40
0.625
  9
$DIMJUST
 70
     0
  9
$DIMSD1
 70
     0
  9
$DIMSD2
 70
     0
  9
$DIMTOLJ
 70
     0
  9
$DIMTZIN
 70
     8
  9
$DIMALTZ
 70
     0
  9
$DIMALTTZ
 70
     0
  9
$DIMUPT
 70
     0
  9
$DIMDEC
 70
     2
  9
$DIMTDEC
 70
     2
  9
$DIMALTU
 70
     2
  9
$DIMALTTD
 70
     3
  9
$DIMTXSTY
  7
Standard
  9
$DIMAUNIT
 70
     0
  9
$DIMADEC
 70
     0
  9
$DIMALTRND
 40
0.0
  9
$DIMAZIN
 70
     0
  9
$DIMDSEP
 70
    44
  9
$DIMATFIT
 70
     3
  9
$DIMFRAC
 70
     0
  9
$DIMLDRBLK
  1

  9
$DIMLUNIT
 70
     2
  9
$DIMLWD
 70
    -2
  9
$DIMLWE
 70
    -2
  9
$DIMTMOVE
 70
     0
  9
$LUNITS
 70
     2
  9
$LUPREC
 70
     4
  9
$SKETCHINC
 40
1.0
  9
$FILLETRAD
 40
10.0
  9
$AUNITS
 70
     0
  9
$AUPREC
 70
     0
  9
$MENU
  1
.
  9
$ELEVATION
 40
0.0
  9
$PELEVATION
 40
0.0
  9
$THICKNESS
 40
0.0
  9
$LIMCHECK
 70
     0
  9
$CHAMFERA
 40
10.0
  9
$CHAMFERB
 40
10.0
  9
$CHAMFERC
 40
20.0
  9
$CHAMFERD
 40
0.0
  9
$SKPOLY
 70
     0
  9
$TDCREATE
 40
2455903.629806609
  9
$TDUCREATE
 40
2455903.588139942
  9
$TDUPDATE
 40
2455903.629806621
  9
$TDUUPDATE
 40
2455903.588139954
  9
$TDINDWG
 40
0.0000000116
  9
$TDUSRTIMER
 40
0.0000000116
  9
$USRTIMER
 70
     1
  9
$ANGBASE
 50
0.0
  9
$ANGDIR
 70
     0
  9
$PDMODE
 70
     0
  9
$PDSIZE
 40
0.0
  9
$PLINEWID
 40
0.0
  9
$SPLFRAME
 70
     0
  9
$SPLINETYPE
 70
     6
  9
$SPLINESEGS
 70
     8
  9
$HANDSEED
  5
1A1
  9
$SURFTAB1
 70
     6
  9
$SURFTAB2
 70
     6
  9
$SURFTYPE
 70
     6
  9
$SURFU
 70
     6
  9
$SURFV
 70
     6
  9
$UCSBASE
  2

  9
$UCSNAME
  2

  9
$UCSORG
 10
0.0
 20
0.0
 30
0.0
  9
$UCSXDIR
 10
1.0
 20
0.0
 30
0.0
  9
$UCSYDIR
 10
0.0
 20
1.0
 30
0.0
  9
$UCSORTHOREF
  2

  9
$UCSORTHOVIEW
 70
     0
  9
$UCSORGTOP
 10
0.0
 20
0.0
 30
0.0
  9
$UCSORGBOTTOM
 10
0.0
 20
0.0
 30
0.0
  9
$UCSORGLEFT
 10
0.0
 20
0.0
 30
0.0
  9
$UCSORGRIGHT
 10
0.0
 20
0.0
 30
0.0
  9
$UCSORGFRONT
 10
0.0
 20
0.0
 30
0.0
  9
$UCSORGBACK
 10
0.0
 20
0.0
 30
0.0
  9
$PUCSBASE
  2

  9
$PUCSNAME
  2

  9
$PUCSORG
 10
0.0
 20
0.0
 30
0.0
  9
$PUCSXDIR
 10
1.0
 20
0.0
 30
0.0
  9
$PUCSYDIR
 10
0.0
 20
1.0
 30
0.0
  9
$PUCSORTHOREF
  2

  9
$PUCSORTHOVIEW
 70
     0
  9
$PUCSORGTOP
 10
0.0
 20
0.0
 30
0.0
  9
$PUCSORGBOTTOM
 10
0.0
 20
0.0
 30
0.0
  9
$PUCSORGLEFT
 10
0.0
 20
0.0
 30
0.0
  9
$PUCSORGRIGHT
 10
0.0
 20
0.0
 30
0.0
  9
$PUCSORGFRONT
 10
0.0
 20
0.0
 30
0.0
  9
$PUCSORGBACK
 10
0.0
 20
0.0
 30
0.0
  9
$USERI1
 70
     0
  9
$USERI2
 70
     0
  9
$USERI3
 70
     0
  9
$USERI4
 70
     0
  9
$USERI5
 70
     0
  9
$USERR1
 40
0.0
  9
$USERR2
 40
0.0
  9
$USERR3
 40
0.0
  9
$USERR4
 40
0.0
  9
$USERR5
 40
0.0
  9
$WORLDVIEW
 70
     1
  9
$SHADEDGE
 70
     3
  9
$SHADEDIF
 70
    70
  9
$TILEMODE
 70
     1
  9
$MAXACTVP
 70
    64
  9
$PINSBASE
 10
0.0
 20
0.0
 30
0.0
  9
$PLIMCHECK
 70
     0
  9
$PEXTMIN
 10
1.000000E+20
 20
1.000000E+20
 30
1.000000E+20
  9
$PEXTMAX
 10
-1.000000E+20
 20
-1.000000E+20
 30
-1.000000E+20
  9
$PLIMMIN
 10
0.0
 20
0.0
  9
$PLIMMAX
 10
420.0
 20
297.0
  9
$UNITMODE
 70
     0
  9
$VISRETAIN
 70
     1
  9
$PLINEGEN
 70
     0
  9
$PSLTSCALE
 70
     1
  9
$TREEDEPTH
 70
  3020
  9
$CMLSTYLE
  2
Standard
  9
$CMLJUST
 70
     0
  9
$CMLSCALE
 40
20.0
  9
$PROXYGRAPHICS
 70
     1
  9
$MEASUREMENT
 70
     1
  9
$CELWEIGHT
370
    -1
  9
$ENDCAPS
280
     0
  9
$JOINSTYLE
280
     0
  9
$LWDISPLAY
290
     0
  9
$INSUNITS
 70
     4
  9
$HYPERLINKBASE
  1

  9
$STYLESHEET
  1

  9
$XEDIT
290
     1
  9
$CEPSNTYPE
380
     0
  9
$PSTYLEMODE
290
     1
  9
$FINGERPRINTGUID
  2
{642E46CF-5AD2-4885-AE96-B4B496E1933D}
  9
$VERSIONGUID
  2
{FAEB1C32-E019-11D5-929B-00C0DF256EC4}
  9
$EXTNAMES
290
     1
  9
$PSVPSCALE
 40
0.0
  9
$OLESTARTUP
290
     0
  0
ENDSEC
  0
SECTION
  2
CLASSES
  0
CLASS
  1
ACDBDICTIONARYWDFLT
  2
AcDbDictionaryWithDefault
  3
ObjectDBX Classes
 90
        0
280
     0
281
     0
  0
CLASS
  1
VISUALSTYLE
  2
AcDbVisualStyle
  3
ObjectDBX Classes
 90
     4095
280
     0
281
     0
  0
CLASS
  1
DICTIONARYVAR
  2
AcDbDictionaryVar
  3
ObjectDBX Classes
 90
        0
280
     0
281
     0
  0
CLASS
  1
ACDBPLACEHOLDER
  2
AcDbPlaceHolder
  3
ObjectDBX Classes
 90
        0
280
     0
281
     0
  0
CLASS
  1
LAYOUT
  2
AcDbLayout
  3
ObjectDBX Classes
 90
        0
280
     0
281
     0
  0
ENDSEC
  0
SECTION
  2
TABLES
  0
TABLE
  2
VPORT
  5
8
330
0
100
AcDbSymbolTable
 70
     1
  0
VPORT
  5
29
330
8
100
AcDbSymbolTableRecord
100
AcDbViewportTableRecord
  2
*Active
 70
     0
 10
0.0
 20
0.0
 11
1.0
 21
1.0
 12
344.186916
 22
148.5
 13
0.0
 23
0.0
 14
10.0
 24
10.0
 15
10.0
 25
10.0
 16
0.0
 26
0.0
 36
1.0
 17
0.0
 27
0.0
 37
0.0
 40
297.0
 41
1.972973
 42
50.0
 43
0.0
 44
0.0
 50
0.0
 51
0.0
 71
     0
 72
   100
 73
     1
 74
     3
 75
     0
 76
     0
 77
     0
 78
     0
281
     0
 65
     1
110
0.0
120
0.0
130
0.0
111
1.0
121
0.0
131
0.0
112
0.0
122
1.0
132
0.0
 79
     0
146
0.0
  0
ENDTAB
  0
TABLE
  2
LTYPE
  5
5
330
0
100
AcDbSymbolTable
 70
     1
  0
LTYPE
  5
14
330
5
100
AcDbSymbolTableRecord
100
AcDbLinetypeTableRecord
  2
ByBlock
 70
     0
  3

 72
    65
 73
     0
 40
0.0
  0
LTYPE
  5
15
330
5
100
AcDbSymbolTableRecord
100
AcDbLinetypeTableRecord
  2
ByLayer
 70
     0
  3

 72
    65
 73
     0
 40
0.0
  0
LTYPE
  5
16
330
5
100
AcDbSymbolTableRecord
100
AcDbLinetypeTableRecord
  2
Continuous
 70
     0
  3
Solid line
 72
    65
 73
     0
 40
0.0
  0
ENDTAB
  0
TABLE
  2
LAYER
  5
2
330
0
100
AcDbSymbolTable
 70
     1
  0
LAYER
  5
10
330
2
100
AcDbSymbolTableRecord
100
AcDbLayerTableRecord
  2
0
 70
     0
 62
   106
  6
Continuous
370
     0
390
F
  0
ENDTAB
  0
TABLE
  2
STYLE
  5
3
330
0
100
AcDbSymbolTable
 70
     4
  0
STYLE
  5
11
330
3
100
AcDbSymbolTableRecord
100
AcDbTextStyleTableRecord
  2
Standard
 70
     0
 40
0.0
 41
1.0
 50
0.0
 71
     0
 42
2.5
  3
txt
  4

  0
STYLE
  5
3B
330
3
100
AcDbSymbolTableRecord
100
AcDbTextStyleTableRecord
  2
Default
 70
     0
 40
0.0
 41
1.0
 50
0.0
 71
     0
 42
0.2
  3

  4

1001
ACAD
1000
txt
1071
        0
  0
STYLE
  5
3C
330
3
100
AcDbSymbolTableRecord
100
AcDbTextStyleTableRecord
  2
ISO
 70
     0
 40
0.0
 41
1.0
 50
0.0
 71
     0
 42
0.2
  3

  4

1001
ACAD
1000
txt
1071
        0
  0
STYLE
  5
3D
330
3
100
AcDbSymbolTableRecord
100
AcDbTextStyleTableRecord
  2
GIANLU
 70
     0
 40
0.0
 41
1.0
 50
0.0
 71
     0
 42
0.2
  3

  4

1001
ACAD
1000
Arial
1071
        0
  0
ENDTAB
  0
TABLE
  2
VIEW
  5
6
330
0
100
AcDbSymbolTable
 70
     0
  0
ENDTAB
  0
TABLE
  2
UCS
  5
7
330
0
100
AcDbSymbolTable
 70
     0
  0
ENDTAB
  0
TABLE
  2
APPID
  5
9
330
0
100
AcDbSymbolTable
 70
     1
  0
APPID
  5
12
330
9
100
AcDbSymbolTableRecord
100
AcDbRegAppTableRecord
  2
ACAD
 70
     0
  0
ENDTAB
  0
TABLE
  2
DIMSTYLE
  5
A
330
0
100
AcDbSymbolTable
 70
     4
100
AcDbDimStyleTable
  0
DIMSTYLE
105
27
330
A
100
AcDbSymbolTableRecord
100
AcDbDimStyleTableRecord
  2
ISO-25
 70
     0
 41
2.5
 42
0.625
 43
3.75
 44
1.25
 73
     0
 74
     0
 77
     1
 78
     8
140
2.5
141
2.5
143
0.03937
147
0.625
171
     3
172
     1
271
     2
272
     2
274
     3
278
    44
283
     0
284
     8
340
11
  0
DIMSTYLE
105
3E
330
A
100
AcDbSymbolTableRecord
100
AcDbDimStyleTableRecord
  2
Default
 70
     0
  3
<>
 41
4.375
 42
1.05
 44
2.1
 73
     0
 74
     0
 77
     1
 78
     8
140
3.5
146
0.4
147
1.75
178
     3
271
     2
272
     3
284
     8
340
3B
341
3F
342
3F
  0
DIMSTYLE
105
46
330
A
100
AcDbSymbolTableRecord
100
AcDbDimStyleTableRecord
  2
ISO
 70
     0
  3
<>
 41
4.375
 42
1.05
 44
2.1
 73
     0
 74
     0
 77
     1
 78
     8
140
3.5
146
0.4
147
1.75
178
     3
271
     2
272
     3
284
     8
340
3C
341
3F
342
3F
  0
DIMSTYLE
105
47
330
A
100
AcDbSymbolTableRecord
100
AcDbDimStyleTableRecord
  2
zucchetti_unico
 70
     0
  3
<>
 41
3.0
 42
0.9
 44
1.8
 73
     0
 74
     0
 77
     1
 78
     8
140
3.0
146
0.6
147
1.5
176
   104
177
     3
178
     3
271
     2
272
     2
284
     8
340
3D
  0
ENDTAB
  0
TABLE
  2
BLOCK_RECORD
  5
1
330
0
100
AcDbSymbolTable
 70
     6
  0
BLOCK_RECORD
  5
1F
330
1
100
AcDbSymbolTableRecord
100
AcDbBlockTableRecord
  2
*Model_Space
340
22
  0
BLOCK_RECORD
  5
1B
330
1
100
AcDbSymbolTableRecord
100
AcDbBlockTableRecord
  2
*Paper_Space
340
1E
  0
BLOCK_RECORD
  5
23
330
1
100
AcDbSymbolTableRecord
100
AcDbBlockTableRecord
  2
*Paper_Space0
340
26
  0
BLOCK_RECORD
  5
3F
330
1
100
AcDbSymbolTableRecord
100
AcDbBlockTableRecord
  2
_CLOSED
340
0
  0
BLOCK_RECORD
  5
48
330
1
100
AcDbSymbolTableRecord
100
AcDbBlockTableRecord
  2
a
340
0
102
{BLKREFS
331
A3
102
}
  0
BLOCK_RECORD
  5
A4
330
1
100
AcDbSymbolTableRecord
100
AcDbBlockTableRecord
  2
b
340
0
102
{BLKREFS
331
E9
102
}
  0
BLOCK_RECORD
  5
EA
330
1
100
AcDbSymbolTableRecord
100
AcDbBlockTableRecord
  2
c
340
0
102
{BLKREFS
331
142
102
}
  0
BLOCK_RECORD
  5
143
330
1
100
AcDbSymbolTableRecord
100
AcDbBlockTableRecord
  2
e
340
0
102
{BLKREFS
331
19B
102
}
  0
ENDTAB
  0
ENDSEC
  0
SECTION
  2
BLOCKS
  0
BLOCK
  5
20
330
1F
100
AcDbEntity
  8
0
100
AcDbBlockBegin
  2
*Model_Space
 70
     0
 10
0.0
 20
0.0
 30
0.0
  3
*Model_Space
  1

  0
ENDBLK
  5
21
330
1F
100
AcDbEntity
  8
0
100
AcDbBlockEnd
  0
BLOCK
  5
1C
330
1B
100
AcDbEntity
 67
     1
  8
0
100
AcDbBlockBegin
  2
*Paper_Space
 70
     0
 10
0.0
 20
0.0
 30
0.0
  3
*Paper_Space
  1

  0
ENDBLK
  5
1D
330
1B
100
AcDbEntity
 67
     1
  8
0
100
AcDbBlockEnd
  0
BLOCK
  5
24
330
23
100
AcDbEntity
  8
0
100
AcDbBlockBegin
  2
*Paper_Space0
 70
     0
 10
0.0
 20
0.0
 30
0.0
  3
*Paper_Space0
  1

  0
ENDBLK
  5
25
330
23
100
AcDbEntity
  8
0
100
AcDbBlockEnd
  0
BLOCK
  5
40
330
3F
100
AcDbEntity
  8
0
100
AcDbBlockBegin
  2
_CLOSED
 70
     0
 10
0.0
 20
0.0
 30
0.0
  3
_CLOSED
  1

  0
LINE
  5
42
330
3F
100
AcDbEntity
  8
0
  6
ByBlock
 62
     0
370
    -2
100
AcDbLine
 10
-1.0
 20
0.166667
 30
0.0
 11
0.0
 21
0.0
 31
0.0
  0
LINE
  5
43
330
3F
100
AcDbEntity
  8
0
  6
ByBlock
 62
     0
370
    -2
100
AcDbLine
 10
0.0
 20
0.0
 30
0.0
 11
-1.0
 21
-0.166667
 31
0.0
  0
LINE
  5
44
330
3F
100
AcDbEntity
  8
0
  6
ByBlock
 62
     0
370
    -2
100
AcDbLine
 10
-1.0
 20
0.166667
 30
0.0
 11
-1.0
 21
-0.166667
 31
0.0
  0
LINE
  5
45
330
3F
100
AcDbEntity
  8
0
  6
ByBlock
 62
     0
370
    -2
100
AcDbLine
 10
0.0
 20
0.0
 30
0.0
 11
-1.0
 21
0.0
 31
0.0
  0
ENDBLK
  5
41
330
3F
100
AcDbEntity
  8
0
100
AcDbBlockEnd
  0
BLOCK
  5
A1
330
48
100
AcDbEntity
  8
0
100
AcDbBlockBegin
  2
a
 70
     0
 10
122.964127
 20
91.382233
 30
0.0
  3
a
  1

  0
LINE
  5
49
330
48
100
AcDbEntity
  8
0
  6
Continuous
 62
     0
370
     0
100
AcDbLine
 10
209.940186
 20
542.440929
 30
0.0
 11
209.940186
 21
523.05933
 31
0.0
  0
LINE
  5
4A
330
48
100
AcDbEntity
  8
0
  6
Continuous
 62
     0
370
    30
100
AcDbLine
 10
209.940186
 20
523.05933
 30
0.0
 11
210.940186
 21
523.05933
 31
0.0
  0
LINE
  5
4B
330
48
100
AcDbEntity
  8
0
  6
Continuous
 62
     0
370
    30
100
AcDbLine
 10
210.940186
 20
523.05933
 30
0.0
 11
210.940186
 21
542.440929
 31
0.0
  0
LINE
  5
4C
330
48
100
AcDbEntity
  8
0
  6
Continuous
 62
     0
370
     0
100
AcDbLine
 10
210.940186
 20
542.440929
 30
0.0
 11
209.940186
 21
542.440929
 31
0.0
  0
LINE
  5
4D
330
48
100
AcDbEntity
  8
0
  6
Continuous
 62
     0
370
     0
100
AcDbLine
 10
175.940186
 20
523.05933
 30
0.0
 11
175.940186
 21
542.440929
 31
0.0
  0
LINE
  5
4E
330
48
100
AcDbEntity
  8
0
  6
Continuous
 62
     0
370
     0
100
AcDbLine
 10
175.940186
 20
542.440929
 30
0.0
 11
174.940186
 21
542.440929
 31
0.0
  0
LINE
  5
4F
330
48
100
AcDbEntity
  8
0
  6
Continuous
 62
     0
370
    30
100
AcDbLine
 10
174.940186
 20
542.440929
 30
0.0
 11
174.940186
 21
523.05933
 31
0.0
  0
LINE
  5
50
330
48
100
AcDbEntity
  8
0
  6
Continuous
 62
     0
370
    30
100
AcDbLine
 10
174.940186
 20
523.05933
 30
0.0
 11
175.940186
 21
523.05933
 31
0.0
  0
LINE
  5
51
330
48
100
AcDbEntity
  8
0
  6
Continuous
 62
     0
370
    30
100
AcDbLine
 10
175.940186
 20
523.05933
 30
0.0
 11
209.940186
 21
523.05933
 31
0.0
  0
LINE
  5
52
330
48
100
AcDbEntity
  8
0
  6
Continuous
 62
     0
370
     0
100
AcDbLine
 10
209.940186
 20
542.440929
 30
0.0
 11
175.940186
 21
542.440929
 31
0.0
  0
LINE
  5
53
330
48
100
AcDbEntity
  8
0
  6
Continuous
 62
     0
370
     0
100
AcDbLine
 10
209.940186
 20
547.379371
 30
0.0
 11
209.940186
 21
542.440929
 31
0.0
  0
LINE
  5
54
330
48
100
AcDbEntity
  8
0
  6
Continuous
 62
     0
370
     0
100
AcDbLine
 10
175.940186
 20
547.379371
 30
0.0
 11
209.940186
 21
547.379371
 31
0.0
  0
LINE
  5
55
330
48
100
AcDbEntity
  8
0
  6
Continuous
 62
     0
370
     0
100
AcDbLine
 10
175.940186
 20
542.440929
 30
0.0
 11
175.940186
 21
547.379371
 31
0.0
  0
LINE
  5
56
330
48
100
AcDbEntity
  8
0
  6
Continuous
 62
     0
370
     0
100
AcDbLine
 10
209.940186
 20
547.379371
 30
0.0
 11
209.940187
 21
553.689996
 31
0.0
  0
LWPOLYLINE
  5
57
330
48
100
AcDbEntity
  8
0
  6
Continuous
 62
     0
370
     0
100
AcDbPolyline
 90
        9
 70
     0
 43
0.0
 10
209.940186
 20
553.690002
 10
209.865143
 20
553.810608
 10
209.637024
 20
553.928955
 10
209.264664
 20
554.037964
 10
208.7733
 20
554.131714
 10
208.175903
 20
554.208862
 10
207.480469
 20
554.267456
 10
206.724777
 20
554.303589
 10
205.940186
 20
554.315735
  0
LINE
  5
58
330
48
100
AcDbEntity
  8
0
  6
Continuous
 62
     0
370
     0
100
AcDbLine
 10
205.940187
 20
554.315734
 30
0.0
 11
179.940187
 21
554.315734
 31
0.0
  0
LWPOLYLINE
  5
59
330
48
100
AcDbEntity
  8
0
  6
Continuous
 62
     0
370
     0
100
AcDbPolyline
 90
        9
 70
     0
 43
0.0
 10
179.940186
 20
554.315735
 10
179.168991
 20
554.304016
 10
178.412643
 20
554.268311
 10
177.715805
 20
554.210083
 10
177.116455
 20
554.133179
 10
176.623322
 20
554.039734
 10
176.248642
 20
553.930969
 10
176.017883
 20
553.812744
 10
175.940186
 20
553.690002
  0
LINE
  5
5A
330
48
100
AcDbEntity
  8
0
  6
Continuous
 62
     0
370
     0
100
AcDbLine
 10
175.940187
 20
553.689996
 30
0.0
 11
175.940186
 21
547.379371
 31
0.0
  0
LINE
  5
5B
330
48
100
AcDbEntity
  8
0
  6
Continuous
 62
     0
370
     0
100
AcDbLine
 10
205.940187
 20
557.435212
 30
0.0
 11
205.940187
 21
555.459856
 31
0.0
  0
ELLIPSE
  5
5C
330
48
100
AcDbEntity
  8
0
  6
Continuous
 62
     0
370
     0
100
AcDbEllipse
 10
205.940187
 20
554.677684
 30
0.0
 11
-5.0
 21
-1.223376296292651E-8
 31
0.0
210
0.0
220
0.0
230
-1.0
 40
0.156434
 41
1.570796342435651
 42
3.141592669230544
  0
LINE
  5
5D
330
48
100
AcDbEntity
  8
0
  6
Continuous
 62
     0
370
    30
100
AcDbLine
 10
210.940187
 20
554.677684
 30
0.0
 11
210.940187
 21
556.65304
 31
0.0
  0
ELLIPSE
  5
5E
330
48
100
AcDbEntity
  8
0
  6
Continuous
 62
     0
370
     0
100
AcDbEllipse
 10
205.940187
 20
556.65304
 30
0.0
 11
5.0
 21
1.223376296292651E-8
 31
0.0
210
0.0
220
0.0
230
1.0
 40
0.156434
 41
6.283185291538834
 42
7.853981618333725
  0
LINE
  5
5F
330
48
100
AcDbEntity
  8
0
  6
Continuous
 62
     0
370
     0
100
AcDbLine
 10
179.940187
 20
557.435212
 30
0.0
 11
179.940187
 21
555.459856
 31
0.0
  0
LINE
  5
60
330
48
100
AcDbEntity
  8
0
  6
Continuous
 62
     0
370
     0
100
AcDbLine
 10
179.940187
 20
555.459856
 30
0.0
 11
205.940187
 21
555.459856
 31
0.0
  0
LINE
  5
61
330
48
100
AcDbEntity
  8
0
  6
Continuous
 62
     0
370
     0
100
AcDbLine
 10
205.940187
 20
557.435212
 30
0.0
 11
179.940187
 21
557.435212
 31
0.0
  0
LINE
  5
62
330
48
100
AcDbEntity
  8
0
  6
Continuous
 62
     0
370
    30
100
AcDbLine
 10
174.940187
 20
556.65304
 30
0.0
 11
174.940187
 21
554.677684
 31
0.0
  0
ELLIPSE
  5
63
330
48
100
AcDbEntity
  8
0
  6
Continuous
 62
     0
370
     0
100
AcDbEllipse
 10
179.940187
 20
554.677684
 30
0.0
 11
-5.0
 21
-1.223376289267263E-8
 31
0.0
210
0.0
220
0.0
230
-1.0
 40
0.156434
 41
0.0000000156407514
 42
1.570796342435645
  0
ELLIPSE
  5
64
330
48
100
AcDbEntity
  8
0
  6
Continuous
 62
     0
370
     0
100
AcDbEllipse
 10
179.940187
 20
556.65304
 30
0.0
 11
5.0
 21
1.223376289267263E-8
 31
0.0
210
0.0
220
0.0
230
1.0
 40
0.156434
 41
1.570796311154144
 42
3.141592637949042
  0
LINE
  5
65
330
48
100
AcDbEntity
  8
0
  6
Continuous
 62
     0
370
     0
100
AcDbLine
 10
179.940187
 20
557.435212
 30
0.0
 11
179.940187
 21
558.278657
 31
0.0
  0
LINE
  5
66
330
48
100
AcDbEntity
  8
0
  6
Continuous
 62
     0
370
     0
100
AcDbLine
 10
205.940187
 20
557.435212
 30
0.0
 11
205.940187
 21
558.278777
 31
0.0
  0
ARC
  5
67
330
48
100
AcDbEntity
  8
0
  6
Continuous
 62
     0
370
     0
100
AcDbCircle
 10
175.934068
 20
548.373253
 30
0.0
 40
0.9939013694127755
100
AcDbArc
 50
180.357081
 51
270.352685
  0
LINE
  5
68
330
48
100
AcDbEntity
  8
0
  6
Continuous
 62
     0
370
    30
100
AcDbLine
 10
174.940186
 20
548.367059
 30
0.0
 11
174.940186
 21
542.440929
 31
0.0
  0
ELLIPSE
  5
69
330
48
100
AcDbEntity
  8
0
  6
Continuous
 62
     0
370
     0
100
AcDbEllipse
 10
175.940187
 20
554.677684
 30
0.0
 11
0.9999999999999941
 21
-9.753601294458970E-8
 31
0.0
210
0.0
220
0.0
230
-1.0
 40
0.987688
 41
1.570796228043005
 42
3.141592554837809
  0
LINE
  5
6A
330
48
100
AcDbEntity
  8
0
  6
Continuous
 62
     0
370
    30
100
AcDbLine
 10
174.940187
 20
554.677684
 30
0.0
 11
174.940186
 21
548.367059
 31
0.0
  0
LINE
  5
6B
330
48
100
AcDbEntity
  8
0
  6
Continuous
 62
     0
370
     0
100
AcDbLine
 10
179.940187
 20
555.459856
 30
0.0
 11
179.940187
 21
554.315734
 31
0.0
  0
LINE
  5
6C
330
48
100
AcDbEntity
  8
0
  6
Continuous
 62
     0
370
     0
100
AcDbLine
 10
205.940187
 20
554.315734
 30
0.0
 11
205.940187
 21
555.459856
 31
0.0
  0
ARC
  5
6D
330
48
100
AcDbEntity
  8
0
  6
Continuous
 62
     0
370
     0
100
AcDbCircle
 10
209.946305
 20
554.683878
 30
0.0
 40
0.9939013635410965
100
AcDbArc
 50
269.647315
 51
359.642919
  0
ELLIPSE
  5
6E
330
48
100
AcDbEntity
  8
0
  6
Continuous
 62
     0
370
     0
100
AcDbEllipse
 10
209.940186
 20
548.367059
 30
0.0
 11
-0.9999999999999941
 21
9.753601294458973E-8
 31
0.0
210
0.0
220
0.0
230
1.0
 40
0.987688
 41
1.570796425546742
 42
3.141592752341662
  0
LINE
  5
6F
330
48
100
AcDbEntity
  8
0
  6
Continuous
 62
     0
370
    30
100
AcDbLine
 10
210.940186
 20
548.367059
 30
0.0
 11
210.940187
 21
554.677684
 31
0.0
  0
LINE
  5
70
330
48
100
AcDbEntity
  8
0
  6
Continuous
 62
     0
370
    30
100
AcDbLine
 10
210.940186
 20
548.367059
 30
0.0
 11
210.940186
 21
542.440929
 31
0.0
  0
LINE
  5
71
330
48
100
AcDbEntity
  8
0
  6
Continuous
 62
     0
370
     0
100
AcDbLine
 10
175.940186
 20
490.017896
 30
0.0
 11
174.940186
 21
490.017896
 31
0.0
  0
LINE
  5
72
330
48
100
AcDbEntity
  8
0
  6
Continuous
 62
     0
370
    30
100
AcDbLine
 10
174.940186
 20
490.017896
 30
0.0
 11
174.940186
 21
370.759328
 31
0.0
  0
LINE
  5
73
330
48
100
AcDbEntity
  8
0
  6
Continuous
 62
     0
370
     0
100
AcDbLine
 10
175.940186
 20
370.759328
 30
0.0
 11
175.940186
 21
490.017896
 31
0.0
  0
LINE
  5
74
330
48
100
AcDbEntity
  8
0
  6
Continuous
 62
     0
370
     0
100
AcDbLine
 10
210.940186
 20
490.017896
 30
0.0
 11
209.940186
 21
490.017896
 31
0.0
  0
LINE
  5
75
330
48
100
AcDbEntity
  8
0
  6
Continuous
 62
     0
370
     0
100
AcDbLine
 10
209.940186
 20
490.017896
 30
0.0
 11
209.940186
 21
370.759328
 31
0.0
  0
LINE
  5
76
330
48
100
AcDbEntity
  8
0
  6
Continuous
 62
     0
370
    30
100
AcDbLine
 10
210.940186
 20
370.759328
 30
0.0
 11
210.940186
 21
490.017896
 31
0.0
  0
LINE
  5
77
330
48
100
AcDbEntity
  8
0
  6
Continuous
 62
     0
370
    30
100
AcDbLine
 10
174.940186
 20
505.767896
 30
0.0
 11
174.940186
 21
519.759328
 31
0.0
  0
LINE
  5
78
330
48
100
AcDbEntity
  8
0
  6
Continuous
 62
     0
370
    30
100
AcDbLine
 10
174.940186
 20
490.017896
 30
0.0
 11
174.940186
 21
505.767896
 31
0.0
  0
LINE
  5
79
330
48
100
AcDbEntity
  8
0
  6
Continuous
 62
     0
370
     0
100
AcDbLine
 10
179.940186
 20
505.767896
 30
0.0
 11
179.940186
 21
519.759328
 31
0.0
  0
LINE
  5
7A
330
48
100
AcDbEntity
  8
0
  6
Continuous
 62
     0
370
     0
100
AcDbLine
 10
179.940186
 20
519.759328
 30
0.0
 11
174.940186
 21
519.759328
 31
0.0
  0
LINE
  5
7B
330
48
100
AcDbEntity
  8
0
  6
Continuous
 62
     0
370
     0
100
AcDbLine
 10
174.940186
 20
505.767896
 30
0.0
 11
179.940186
 21
505.767896
 31
0.0
  0
LINE
  5
7C
330
48
100
AcDbEntity
  8
0
  6
Continuous
 62
     0
370
     0
100
AcDbLine
 10
205.940186
 20
505.767896
 30
0.0
 11
205.940186
 21
519.759328
 31
0.0
  0
LINE
  5
7D
330
48
100
AcDbEntity
  8
0
  6
Continuous
 62
     0
370
     0
100
AcDbLine
 10
205.940186
 20
519.759328
 30
0.0
 11
179.940186
 21
519.759328
 31
0.0
  0
LINE
  5
7E
330
48
100
AcDbEntity
  8
0
  6
Continuous
 62
     0
370
     0
100
AcDbLine
 10
179.940186
 20
505.767896
 30
0.0
 11
205.940186
 21
505.767896
 31
0.0
  0
LINE
  5
7F
330
48
100
AcDbEntity
  8
0
  6
Continuous
 62
     0
370
    30
100
AcDbLine
 10
210.940186
 20
505.767896
 30
0.0
 11
210.940186
 21
519.759328
 31
0.0
  0
LINE
  5
80
330
48
100
AcDbEntity
  8
0
  6
Continuous
 62
     0
370
     0
100
AcDbLine
 10
210.940186
 20
519.759328
 30
0.0
 11
205.940186
 21
519.759328
 31
0.0
  0
LINE
  5
81
330
48
100
AcDbEntity
  8
0
  6
Continuous
 62
     0
370
     0
100
AcDbLine
 10
205.940186
 20
505.767896
 30
0.0
 11
210.940186
 21
505.767896
 31
0.0
  0
LINE
  5
82
330
48
100
AcDbEntity
  8
0
  6
Continuous
 62
     0
370
    30
100
AcDbLine
 10
210.940186
 20
505.767896
 30
0.0
 11
210.940186
 21
490.017896
 31
0.0
  0
LINE
  5
83
330
48
100
AcDbEntity
  8
0
  6
Continuous
 62
     0
370
     0
100
AcDbLine
 10
175.940186
 20
490.017896
 30
0.0
 11
209.940186
 21
490.017896
 31
0.0
  0
LINE
  5
84
330
48
100
AcDbEntity
  8
0
  6
Continuous
 62
     0
370
     0
100
AcDbLine
 10
209.940186
 20
504.767896
 30
0.0
 11
209.940186
 21
490.017896
 31
0.0
  0
LINE
  5
85
330
48
100
AcDbEntity
  8
0
  6
Continuous
 62
     0
370
     0
100
AcDbLine
 10
175.940186
 20
490.017896
 30
0.0
 11
175.940186
 21
504.767896
 31
0.0
  0
ARC
  5
86
330
48
100
AcDbEntity
  8
0
  6
Continuous
 62
     0
370
    30
100
AcDbCircle
 10
209.940186
 20
505.767896
 30
0.0
 40
1.0
100
AcDbArc
 50
270.0
 51
0.0
  0
LINE
  5
87
330
48
100
AcDbEntity
  8
0
  6
Continuous
 62
     0
370
     0
100
AcDbLine
 10
205.940186
 20
504.767896
 30
0.0
 11
205.940186
 21
505.767896
 31
0.0
  0
LINE
  5
88
330
48
100
AcDbEntity
  8
0
  6
Continuous
 62
     0
370
    30
100
AcDbLine
 10
209.940186
 20
504.767896
 30
0.0
 11
205.940186
 21
504.767896
 31
0.0
  0
LINE
  5
89
330
48
100
AcDbEntity
  8
0
  6
Continuous
 62
     0
370
     0
100
AcDbLine
 10
179.940186
 20
505.767896
 30
0.0
 11
179.940186
 21
504.767896
 31
0.0
  0
LINE
  5
8A
330
48
100
AcDbEntity
  8
0
  6
Continuous
 62
     0
370
    30
100
AcDbLine
 10
179.940186
 20
504.767896
 30
0.0
 11
205.940186
 21
504.767896
 31
0.0
  0
ARC
  5
8B
330
48
100
AcDbEntity
  8
0
  6
Continuous
 62
     0
370
    30
100
AcDbCircle
 10
175.940186
 20
505.767896
 30
0.0
 40
1.00000000000591
100
AcDbArc
 50
180.0
 51
270.0
  0
LINE
  5
8C
330
48
100
AcDbEntity
  8
0
  6
Continuous
 62
     0
370
    30
100
AcDbLine
 10
179.940186
 20
504.767896
 30
0.0
 11
175.940186
 21
504.767896
 31
0.0
  0
ARC
  5
8D
330
48
100
AcDbEntity
  8
0
  6
Continuous
 62
     0
370
    30
100
AcDbCircle
 10
209.940186
 20
519.759328
 30
0.0
 40
0.9999999999999961
100
AcDbArc
 50
0.0
 51
90.0
  0
LINE
  5
8E
330
48
100
AcDbEntity
  8
0
  6
Continuous
 62
     0
370
    30
100
AcDbLine
 10
209.940186
 20
520.759328
 30
0.0
 11
205.940186
 21
520.759328
 31
0.0
  0
LINE
  5
8F
330
48
100
AcDbEntity
  8
0
  6
Continuous
 62
     0
370
     0
100
AcDbLine
 10
205.940186
 20
520.759328
 30
0.0
 11
205.940186
 21
519.759328
 31
0.0
  0
LINE
  5
90
330
48
100
AcDbEntity
  8
0
  6
Continuous
 62
     0
370
    30
100
AcDbLine
 10
205.940186
 20
520.759328
 30
0.0
 11
179.940186
 21
520.759328
 31
0.0
  0
LINE
  5
91
330
48
100
AcDbEntity
  8
0
  6
Continuous
 62
     0
370
     0
100
AcDbLine
 10
179.940186
 20
520.759328
 30
0.0
 11
179.940186
 21
519.759328
 31
0.0
  0
LINE
  5
92
330
48
100
AcDbEntity
  8
0
  6
Continuous
 62
     0
370
    30
100
AcDbLine
 10
179.940186
 20
520.759328
 30
0.0
 11
175.940186
 21
520.759328
 31
0.0
  0
ARC
  5
93
330
48
100
AcDbEntity
  8
0
  6
Continuous
 62
     0
370
    30
100
AcDbCircle
 10
175.940186
 20
519.759328
 30
0.0
 40
0.9999999999963602
100
AcDbArc
 50
90.0
 51
180.0
  0
LINE
  5
94
330
48
100
AcDbEntity
  8
0
  6
Continuous
 62
     0
370
    30
100
AcDbLine
 10
222.940186
 20
370.759299
 30
0.0
 11
170.176149
 21
370.759299
 31
0.0
  0
LINE
  5
95
330
48
100
AcDbEntity
  8
0
  6
Continuous
 62
     0
370
     0
100
AcDbLine
 10
170.176149
 20
370.759299
 30
0.0
 11
170.176149
 21
367.759299
 31
0.0
  0
LINE
  5
96
330
48
100
AcDbEntity
  8
0
  6
Continuous
 62
     0
370
    30
100
AcDbLine
 10
170.176149
 20
367.759299
 30
0.0
 11
222.940186
 21
367.759299
 31
0.0
  0
LINE
  5
97
330
48
100
AcDbEntity
  8
0
  6
Continuous
 62
     0
370
    30
100
AcDbLine
 10
162.940186
 20
367.759299
 30
0.0
 11
170.176149
 21
367.759299
 31
0.0
  0
LINE
  5
98
330
48
100
AcDbEntity
  8
0
  6
Continuous
 62
     0
370
    30
100
AcDbLine
 10
170.176149
 20
370.759299
 30
0.0
 11
162.940186
 21
370.759299
 31
0.0
  0
ARC
  5
99
330
48
100
AcDbEntity
  8
0
  6
Continuous
 62
     0
370
     0
100
AcDbCircle
 10
171.773002
 20
519.780007
 30
0.0
 40
30.60509782808935
100
AcDbArc
 50
1.833703
 51
6.151027
  0
ARC
  5
9A
330
48
100
AcDbEntity
  8
0
  6
Continuous
 62
     0
370
    30
100
AcDbCircle
 10
192.218586
 20
519.759306
 30
0.0
 40
17.50019539710188
100
AcDbArc
 50
3.275872
 51
10.869385
  0
ARC
  5
9B
330
48
100
AcDbEntity
  8
0
  6
Continuous
 62
     0
370
    30
100
AcDbCircle
 10
193.819772
 20
519.744978
 30
0.0
 40
17.65874347807815
100
AcDbArc
 50
169.182051
 51
176.707007
  0
LINE
  5
9C
330
48
100
AcDbEntity
  8
0
  6
Continuous
 62
     0
370
    30
100
AcDbLine
 10
162.940186
 20
367.759299
 30
0.0
 11
162.940186
 21
370.759299
 31
0.0
  0
LINE
  5
9D
330
48
100
AcDbEntity
  8
0
  6
Continuous
 62
     0
370
    30
100
AcDbLine
 10
222.940186
 20
367.759299
 30
0.0
 11
222.940186
 21
370.759299
 31
0.0
  0
LWPOLYLINE
  5
9E
330
48
100
AcDbEntity
  8
0
  6
Continuous
 62
     0
370
    30
100
AcDbPolyline
 90
       16
 70
     0
 43
0.0
 10
205.940186
 20
558.278687
 10
206.419846
 20
558.274231
 10
206.893631
 20
558.26123
 10
207.355774
 20
558.239807
 10
207.800766
 20
558.210022
 10
208.223343
 20
558.172241
 10
208.619598
 20
558.126587
 10
208.98613
 20
558.073303
 10
209.320862
 20
558.012146
 10
209.624207
 20
557.942078
 10
209.900223
 20
557.859863
 10
210.157471
 20
557.757141
 10
210.410294
 20
557.61322
 10
210.659439
 20
557.391602
 10
210.860641
 20
557.063477
 10
210.940186
 20
556.653015
  0
LINE
  5
9F
330
48
100
AcDbEntity
  8
0
  6
Continuous
 62
     0
370
    30
100
AcDbLine
 10
179.940187
 20
558.278777
 30
0.0
 11
205.940187
 21
558.278777
 31
0.0
  0
LWPOLYLINE
  5
A0
330
48
100
AcDbEntity
  8
0
  6
Continuous
 62
     0
370
    30
100
AcDbPolyline
 90
       16
 70
     0
 43
0.0
 10
179.940186
 20
558.278687
 10
179.460526
 20
558.274231
 10
178.98674
 20
558.26123
 10
178.524597
 20
558.239807
 10
178.079605
 20
558.210022
 10
177.657028
 20
558.172241
 10
177.260773
 20
558.126587
 10
176.894241
 20
558.073303
 10
176.559509
 20
558.012146
 10
176.256165
 20
557.942078
 10
175.980148
 20
557.859863
 10
175.7229
 20
557.757141
 10
175.470078
 20
557.61322
 10
175.220932
 20
557.391602
 10
175.01973
 20
557.063477
 10
174.940186
 20
556.653015
  0
ENDBLK
  5
A2
330
48
100
AcDbEntity
  8
0
100
AcDbBlockEnd
  0
BLOCK
  5
E7
330
A4
100
AcDbEntity
  8
0
100
AcDbBlockBegin
  2
b
 70
     0
 10
45.204514
 20
91.382233
 30
0.0
  3
b
  1

  0
LINE
  5
A5
330
A4
100
AcDbEntity
  8
0
  6
Continuous
 62
     0
370
     0
100
AcDbLine
 10
205.940187
 20
214.031967
 30
0.0
 11
205.940187
 21
213.719102
 31
0.0
  0
ELLIPSE
  5
A6
330
A4
100
AcDbEntity
  8
0
  6
Continuous
 62
     0
370
     0
100
AcDbEllipse
 10
205.940187
 20
218.657543
 30
0.0
 11
-4.999999999999999
 21
-7.724096075452764E-8
 31
0.0
210
0.0
220
0.0
230
1.0
 40
0.987688
 41
1.570796326794895
 42
3.141592653589779
  0
LINE
  5
A7
330
A4
100
AcDbEntity
  8
0
  6
Continuous
 62
     0
370
    30
100
AcDbLine
 10
210.940187
 20
218.657544
 30
0.0
 11
210.940187
 21
218.970409
 31
0.0
  0
ELLIPSE
  5
A8
330
A4
100
AcDbEntity
  8
0
  6
Continuous
 62
     0
370
     0
100
AcDbEllipse
 10
205.940187
 20
218.970409
 30
0.0
 11
4.999999999999999
 21
7.724096075452764E-8
 31
0.0
210
0.0
220
0.0
230
-1.0
 40
0.987688
 41
0.0000000000000055
 42
1.570796326794894
  0
LINE
  5
A9
330
A4
100
AcDbEntity
  8
0
  6
Continuous
 62
     0
370
     0
100
AcDbLine
 10
179.940187
 20
214.031967
 30
0.0
 11
179.940187
 21
213.719101
 31
0.0
  0
LINE
  5
AA
330
A4
100
AcDbEntity
  8
0
  6
Continuous
 62
     0
370
     0
100
AcDbLine
 10
179.940187
 20
213.719101
 30
0.0
 11
205.940187
 21
213.719102
 31
0.0
  0
LINE
  5
AB
330
A4
100
AcDbEntity
  8
0
  6
Continuous
 62
     0
370
     0
100
AcDbLine
 10
205.940187
 20
214.031967
 30
0.0
 11
179.940187
 21
214.031967
 31
0.0
  0
LINE
  5
AC
330
A4
100
AcDbEntity
  8
0
  6
Continuous
 62
     0
370
    30
100
AcDbLine
 10
174.940187
 20
218.970408
 30
0.0
 11
174.940187
 21
218.657543
 31
0.0
  0
ELLIPSE
  5
AD
330
A4
100
AcDbEntity
  8
0
  6
Continuous
 62
     0
370
     0
100
AcDbEllipse
 10
179.940187
 20
218.657543
 30
0.0
 11
-4.999999999999999
 21
-7.724096031096197E-8
 31
0.0
210
0.0
220
0.0
230
1.0
 40
0.987688
 41
6.283185307179584
 42
7.853981633974476
  0
ELLIPSE
  5
AE
330
A4
100
AcDbEntity
  8
0
  6
Continuous
 62
     0
370
     0
100
AcDbEllipse
 10
179.940187
 20
218.970409
 30
0.0
 11
4.999999999999999
 21
7.724096031096197E-8
 31
0.0
210
0.0
220
0.0
230
-1.0
 40
0.987688
 41
1.5707963267949
 42
3.141592653589783
  0
LWPOLYLINE
  5
AF
330
A4
100
AcDbEntity
  8
0
  6
Continuous
 62
     0
370
    30
100
AcDbPolyline
 90
       10
 70
     0
 43
0.0
 10
174.940186
 20
293.562653
 10
175.014526
 20
294.418732
 10
175.237625
 20
295.257935
 10
175.60199
 20
296.049164
 10
176.097
 20
296.762817
 10
176.709061
 20
297.379883
 10
177.424133
 20
297.882874
 10
178.221924
 20
298.255707
 10
179.068069
 20
298.485321
 10
179.940186
 20
298.562653
  0
LWPOLYLINE
  5
B0
330
A4
100
AcDbEntity
  8
0
  6
Continuous
 62
     0
370
     0
100
AcDbPolyline
 90
        9
 70
     0
 43
0.0
 10
175.940186
 20
219.126846
 10
176.015427
 20
218.364197
 10
176.24411
 20
217.616272
 10
176.617355
 20
216.927414
 10
177.109787
 20
216.33519
 10
177.708572
 20
215.848083
 10
178.405441
 20
215.47847
 10
179.162399
 20
215.251495
 10
179.940186
 20
215.176086
  0
LINE
  5
B1
330
A4
100
AcDbEntity
  8
0
  6
Continuous
 62
     0
370
     0
100
AcDbLine
 10
179.940187
 20
215.17609
 30
0.0
 11
205.940187
 21
215.17609
 31
0.0
  0
LWPOLYLINE
  5
B2
330
A4
100
AcDbEntity
  8
0
  6
Continuous
 62
     0
370
     0
100
AcDbPolyline
 90
        9
 70
     0
 43
0.0
 10
205.940186
 20
215.176086
 10
206.712341
 20
215.250397
 10
207.469589
 20
215.476273
 10
208.167038
 20
215.844925
 10
208.766647
 20
216.331299
 10
209.259811
 20
216.922714
 10
209.634033
 20
217.610992
 10
209.863846
 20
218.358627
 10
209.940186
 20
219.126846
  0
LINE
  5
B3
330
A4
100
AcDbEntity
  8
0
  6
Continuous
 62
     0
370
     0
100
AcDbLine
 10
209.940187
 20
219.126843
 30
0.0
 11
209.940186
 21
293.719099
 31
0.0
  0
ARC
  5
B4
330
A4
100
AcDbEntity
  8
0
  6
Continuous
 62
     0
370
     0
100
AcDbCircle
 10
205.940121
 20
293.719034
 30
0.0
 40
4.000064720528728
100
AcDbArc
 50
0.000928
 51
89.999074
  0
LINE
  5
B5
330
A4
100
AcDbEntity
  8
0
  6
Continuous
 62
     0
370
     0
100
AcDbLine
 10
205.940185
 20
297.719099
 30
0.0
 11
179.940185
 21
297.719098
 31
0.0
  0
ARC
  5
B6
330
A4
100
AcDbEntity
  8
0
  6
Continuous
 62
     0
370
     0
100
AcDbCircle
 10
179.94025
 20
293.719034
 30
0.0
 40
4.000064720528704
100
AcDbArc
 50
90.000928
 51
179.999074
  0
LINE
  5
B7
330
A4
100
AcDbEntity
  8
0
  6
Continuous
 62
     0
370
     0
100
AcDbLine
 10
175.940186
 20
293.719098
 30
0.0
 11
175.940187
 21
219.126843
 31
0.0
  0
LWPOLYLINE
  5
B8
330
A4
100
AcDbEntity
  8
0
  6
Continuous
 62
     0
370
    30
100
AcDbPolyline
 90
       10
 70
     0
 43
0.0
 10
205.940186
 20
298.562653
 10
206.803009
 20
298.487
 10
207.64949
 20
298.258972
 10
208.447998
 20
297.887634
 10
209.164093
 20
297.385956
 10
209.777344
 20
296.77005
 10
210.273697
 20
296.057343
 10
210.639542
 20
295.266815
 10
210.864227
 20
294.427948
 10
210.940186
 20
293.562653
  0
ELLIPSE
  5
B9
330
A4
100
AcDbEntity
  8
0
  6
Continuous
 62
     0
370
     0
100
AcDbEllipse
 10
175.940186
 20
293.562664
 30
0.0
 11
0.9999999999999919
 21
1.544818668666420E-8
 31
0.0
210
0.0
220
0.0
230
1.0
 40
0.156434
 41
1.570796326794935
 42
3.141592653589737
  0
LINE
  5
BA
330
A4
100
AcDbEntity
  8
0
  6
Continuous
 62
     0
370
    30
100
AcDbLine
 10
174.940186
 20
293.562664
 30
0.0
 11
174.940187
 21
218.970408
 31
0.0
  0
ELLIPSE
  5
BB
330
A4
100
AcDbEntity
  8
0
  6
Continuous
 62
     0
370
     0
100
AcDbEllipse
 10
175.940187
 20
218.970408
 30
0.0
 11
-0.9999999999999919
 21
-1.544818668666420E-8
 31
0.0
210
0.0
220
0.0
230
-1.0
 40
0.156434
 41
0.0
 42
1.570796326794841
  0
LINE
  5
BC
330
A4
100
AcDbEntity
  8
0
  6
Continuous
 62
     0
370
     0
100
AcDbLine
 10
179.940187
 20
214.031967
 30
0.0
 11
179.940187
 21
215.17609
 31
0.0
  0
LINE
  5
BD
330
A4
100
AcDbEntity
  8
0
  6
Continuous
 62
     0
370
     0
100
AcDbLine
 10
205.940187
 20
214.031967
 30
0.0
 11
205.940187
 21
215.17609
 31
0.0
  0
LWPOLYLINE
  5
BE
330
A4
100
AcDbEntity
  8
0
  6
Continuous
 62
     0
370
     0
100
AcDbPolyline
 90
        5
 70
     0
 43
0.0
 10
209.940186
 20
219.126846
 10
210.320801
 20
219.115067
 10
210.644119
 20
219.081512
 10
210.861481
 20
219.03125
 10
210.940186
 20
218.970413
  0
LINE
  5
BF
330
A4
100
AcDbEntity
  8
0
  6
Continuous
 62
     0
370
    30
100
AcDbLine
 10
210.940187
 20
218.970409
 30
0.0
 11
210.940186
 21
293.562664
 31
0.0
  0
ELLIPSE
  5
C0
330
A4
100
AcDbEntity
  8
0
  6
Continuous
 62
     0
370
     0
100
AcDbEllipse
 10
209.940186
 20
293.562664
 30
0.0
 11
0.9999999999999988
 21
1.544818671476585E-8
 31
0.0
210
0.0
220
0.0
230
1.0
 40
0.156434
 41
6.283185307179507
 42
7.853981633974482
  0
LINE
  5
C1
330
A4
100
AcDbEntity
  8
0
  6
Continuous
 62
     0
370
     0
100
AcDbLine
 10
205.940185
 20
297.719099
 30
0.0
 11
205.940185
 21
298.562664
 31
0.0
  0
LINE
  5
C2
330
A4
100
AcDbEntity
  8
0
  6
Continuous
 62
     0
370
    30
100
AcDbLine
 10
205.940185
 20
298.562664
 30
0.0
 11
179.940185
 21
298.562664
 31
0.0
  0
LINE
  5
C3
330
A4
100
AcDbEntity
  8
0
  6
Continuous
 62
     0
370
     0
100
AcDbLine
 10
179.940185
 20
298.562664
 30
0.0
 11
179.940185
 21
297.719098
 31
0.0
  0
LINE
  5
C4
330
A4
100
AcDbEntity
  8
0
  6
Continuous
 62
     0
370
     0
100
AcDbLine
 10
179.940187
 20
213.719101
 30
0.0
 11
179.940187
 21
213.70691
 31
0.0
  0
LINE
  5
C5
330
A4
100
AcDbEntity
  8
0
  6
Continuous
 62
     0
370
     0
100
AcDbLine
 10
205.940187
 20
213.70679
 30
0.0
 11
205.940187
 21
213.719102
 31
0.0
  0
LINE
  5
C6
330
A4
100
AcDbEntity
  8
0
  6
Continuous
 62
     0
370
    30
100
AcDbLine
 10
174.940186
 20
93.721222
 30
0.0
 11
174.940186
 21
218.657544
 31
0.0
  0
ARC
  5
C7
330
A4
100
AcDbEntity
  8
0
  6
Continuous
 62
     0
370
    30
100
AcDbCircle
 10
179.940186
 20
93.721222
 30
0.0
 40
5.0
100
AcDbArc
 50
180.0
 51
270.0
  0
LINE
  5
C8
330
A4
100
AcDbEntity
  8
0
  6
Continuous
 62
     0
370
    30
100
AcDbLine
 10
205.940186
 20
88.721222
 30
0.0
 11
179.940186
 21
88.721222
 31
0.0
  0
ARC
  5
C9
330
A4
100
AcDbEntity
  8
0
  6
Continuous
 62
     0
370
    30
100
AcDbCircle
 10
205.940186
 20
93.721222
 30
0.0
 40
5.0
100
AcDbArc
 50
270.0
 51
0.0
  0
LINE
  5
CA
330
A4
100
AcDbEntity
  8
0
  6
Continuous
 62
     0
370
    30
100
AcDbLine
 10
210.940186
 20
218.657545
 30
0.0
 11
210.940186
 21
93.721222
 31
0.0
  0
LINE
  5
CB
330
A4
100
AcDbEntity
  8
0
  6
Continuous
 62
     0
370
     0
100
AcDbLine
 10
209.940186
 20
215.687332
 30
0.0
 11
209.940186
 21
93.721222
 31
0.0
  0
LINE
  5
CC
330
A4
100
AcDbEntity
  8
0
  6
Continuous
 62
     0
370
     0
100
AcDbLine
 10
209.940186
 20
93.721222
 30
0.0
 11
210.940186
 21
93.721222
 31
0.0
  0
LWPOLYLINE
  5
CD
330
A4
100
AcDbEntity
  8
0
  6
Continuous
 62
     0
370
     0
100
AcDbPolyline
 90
        9
 70
     0
 43
0.0
 10
209.940186
 20
93.721222
 10
209.863312
 20
92.947884
 10
209.635834
 20
92.195084
 10
209.267303
 20
91.499725
 10
208.771286
 20
90.893791
 10
208.166016
 20
90.396996
 10
207.471176
 20
90.027557
 10
206.718613
 20
89.79911
 10
205.940186
 20
89.721222
  0
LINE
  5
CE
330
A4
100
AcDbEntity
  8
0
  6
Continuous
 62
     0
370
     0
100
AcDbLine
 10
205.940186
 20
89.721222
 30
0.0
 11
205.940186
 21
88.721222
 31
0.0
  0
LINE
  5
CF
330
A4
100
AcDbEntity
  8
0
  6
Continuous
 62
     0
370
     0
100
AcDbLine
 10
205.940186
 20
89.721222
 30
0.0
 11
179.940186
 21
89.721222
 31
0.0
  0
LINE
  5
D0
330
A4
100
AcDbEntity
  8
0
  6
Continuous
 62
     0
370
     0
100
AcDbLine
 10
179.940186
 20
89.721222
 30
0.0
 11
179.940186
 21
88.721222
 31
0.0
  0
LWPOLYLINE
  5
D1
330
A4
100
AcDbEntity
  8
0
  6
Continuous
 62
     0
370
     0
100
AcDbPolyline
 90
        9
 70
     0
 43
0.0
 10
179.940186
 20
89.721222
 10
179.16684
 20
89.798096
 10
178.414047
 20
90.025574
 10
177.718689
 20
90.394104
 10
177.112762
 20
90.890121
 10
176.615952
 20
91.495384
 10
176.246521
 20
92.190239
 10
176.018082
 20
92.942787
 10
175.940186
 20
93.721222
  0
LINE
  5
D2
330
A4
100
AcDbEntity
  8
0
  6
Continuous
 62
     0
370
     0
100
AcDbLine
 10
175.940186
 20
93.721222
 30
0.0
 11
174.940186
 21
93.721222
 31
0.0
  0
LINE
  5
D3
330
A4
100
AcDbEntity
  8
0
  6
Continuous
 62
     0
370
     0
100
AcDbLine
 10
175.940186
 20
93.721222
 30
0.0
 11
175.940186
 21
215.687335
 31
0.0
  0
ARC
  5
D4
330
A4
100
AcDbEntity
  8
0
  6
Continuous
 62
     0
370
    30
100
AcDbCircle
 10
192.940186
 20
280.562661
 30
0.0
 40
30.0
100
AcDbArc
 50
220.641371
 51
233.130104
  0
ARC
  5
D5
330
A4
100
AcDbEntity
  8
0
  6
Continuous
 62
     0
370
    30
100
AcDbCircle
 10
192.940186
 20
280.562661
 30
0.0
 40
30.0
100
AcDbArc
 50
306.869899
 51
40.641371
  0
ARC
  5
D6
330
A4
100
AcDbEntity
  8
0
  6
Continuous
 62
     0
370
    30
100
AcDbCircle
 10
192.940186
 20
280.562661
 30
0.0
 40
30.0
100
AcDbArc
 50
40.641371
 51
85.219808
  0
ARC
  5
D7
330
A4
100
AcDbEntity
  8
0
  6
Continuous
 62
     0
370
    30
100
AcDbCircle
 10
192.940186
 20
280.562661
 30
0.0
 40
30.0
100
AcDbArc
 50
94.780192
 51
220.641371
  0
LINE
  5
D8
330
A4
100
AcDbEntity
  8
0
  6
Continuous
 62
     0
370
    30
100
AcDbLine
 10
190.440185
 20
304.389037
 30
0.0
 11
190.440185
 21
309.373729
 31
0.0
  0
LINE
  5
D9
330
A4
100
AcDbEntity
  8
0
  6
Continuous
 62
     0
370
    30
100
AcDbLine
 10
195.440185
 20
309.373729
 30
0.0
 11
195.440185
 21
304.389037
 31
0.0
  0
LWPOLYLINE
  5
DA
330
A4
100
AcDbEntity
  8
0
  6
Continuous
 62
     0
370
     0
100
AcDbPolyline
 90
       14
 70
     0
 43
0.0
 10
190.440186
 20
304.389038
 10
190.504135
 20
303.879852
 10
190.710144
 20
303.364899
 10
191.062408
 20
302.893219
 10
191.537567
 20
302.513458
 10
192.08876
 20
302.258728
 10
192.659973
 20
302.137543
 10
193.214249
 20
302.136932
 10
193.7854
 20
302.256683
 10
194.337097
 20
302.509979
 10
194.813385
 20
302.888519
 10
195.16716
 20
303.359436
 10
195.374786
 20
303.874207
 10
195.440186
 20
304.389038
  0
LINE
  5
DB
330
A4
100
AcDbEntity
  8
0
  6
Continuous
 62
     0
370
     0
100
AcDbLine
 10
195.440185
 20
309.373729
 30
0.0
 11
190.440185
 21
309.373729
 31
0.0
  0
ARC
  5
DC
330
A4
100
AcDbEntity
  8
0
  6
Continuous
 62
     0
370
    30
100
AcDbCircle
 10
191.940185
 20
319.36898
 30
0.0
 40
1.499999999999921
100
AcDbArc
 50
90.0
 51
180.0
  0
ARC
  5
DD
330
A4
100
AcDbEntity
  8
0
  6
Continuous
 62
     0
370
    30
100
AcDbCircle
 10
193.940185
 20
319.36898
 30
0.0
 40
1.49999999999997
100
AcDbArc
 50
0.0
 51
90.0
  0
LINE
  5
DE
330
A4
100
AcDbEntity
  8
0
  6
Continuous
 62
     0
370
     0
100
AcDbLine
 10
190.440185
 20
319.36898
 30
0.0
 11
195.440185
 21
319.36898
 31
0.0
  0
LWPOLYLINE
  5
DF
330
A4
100
AcDbEntity
  8
0
  6
Continuous
 62
     0
370
    30
100
AcDbPolyline
 90
        9
 70
     0
 43
0.0
 10
193.940186
 20
320.868988
 10
193.866608
 20
320.868988
 10
193.649796
 20
320.868988
 10
193.326279
 20
320.868988
 10
192.944717
 20
320.868988
 10
192.562485
 20
320.868988
 10
192.23703
 20
320.868988
 10
192.017258
 20
320.868988
 10
191.940186
 20
320.868988
  0
LINE
  5
E0
330
A4
100
AcDbEntity
  8
0
  6
Continuous
 62
     0
370
    30
100
AcDbLine
 10
190.440185
 20
304.389037
 30
0.0
 11
190.440185
 21
298.56267
 31
0.0
  0
LINE
  5
E1
330
A4
100
AcDbEntity
  8
0
  6
Continuous
 62
     0
370
    30
100
AcDbLine
 10
195.440185
 20
298.56267
 30
0.0
 11
195.440185
 21
304.389037
 31
0.0
  0
LINE
  5
E2
330
A4
100
AcDbEntity
  8
0
  6
Continuous
 62
     0
370
    30
100
AcDbLine
 10
195.440185
 20
309.373729
 30
0.0
 11
195.440185
 21
319.36898
 31
0.0
  0
LINE
  5
E3
330
A4
100
AcDbEntity
  8
0
  6
Continuous
 62
     0
370
    30
100
AcDbLine
 10
190.440185
 20
319.36898
 30
0.0
 11
190.440185
 21
309.373729
 31
0.0
  0
LWPOLYLINE
  5
E4
330
A4
100
AcDbEntity
  8
0
  6
Continuous
 62
     0
370
    30
100
AcDbPolyline
 90
        9
 70
     0
 43
0.0
 10
210.819946
 20
217.581009
 10
210.570267
 20
216.789307
 10
210.19046
 20
216.050186
 10
209.691406
 20
215.384476
 10
209.087387
 20
214.810745
 10
208.395416
 20
214.344894
 10
207.634766
 20
214.000229
 10
206.826935
 20
213.78598
 10
205.940186
 20
213.706909
  0
LINE
  5
E5
330
A4
100
AcDbEntity
  8
0
  6
Continuous
 62
     0
370
    30
100
AcDbLine
 10
179.940187
 20
213.70679
 30
0.0
 11
205.940187
 21
213.70679
 31
0.0
  0
LWPOLYLINE
  5
E6
330
A4
100
AcDbEntity
  8
0
  6
Continuous
 62
     0
370
    30
100
AcDbPolyline
 90
        9
 70
     0
 43
0.0
 10
175.060425
 20
217.581009
 10
175.310104
 20
216.789307
 10
175.689911
 20
216.050186
 10
176.188965
 20
215.384476
 10
176.792984
 20
214.810745
 10
177.48497
 20
214.344894
 10
178.245605
 20
214.000229
 10
179.053436
 20
213.78598
 10
179.940186
 20
213.706909
  0
ENDBLK
  5
E8
330
A4
100
AcDbEntity
  8
0
100
AcDbBlockEnd
  0
BLOCK
  5
140
330
EA
100
AcDbEntity
  8
0
100
AcDbBlockBegin
  2
c
 70
     0
 10
83.959015
 20
-8.594452
 30
0.0
  3
c
  1

  0
LINE
  5
EB
330
EA
100
AcDbEntity
  8
0
  6
Continuous
 62
     0
370
    30
100
AcDbLine
 10
464.213269
 20
523.05933
 30
0.0
 11
464.213269
 21
542.440929
 31
0.0
  0
LINE
  5
EC
330
EA
100
AcDbEntity
  8
0
  6
Continuous
 62
     0
370
     0
100
AcDbLine
 10
464.213269
 20
542.440929
 30
0.0
 11
463.213269
 21
542.440929
 31
0.0
  0
LINE
  5
ED
330
EA
100
AcDbEntity
  8
0
  6
Continuous
 62
     0
370
     0
100
AcDbLine
 10
463.213269
 20
542.440929
 30
0.0
 11
463.213269
 21
523.05933
 31
0.0
  0
LINE
  5
EE
330
EA
100
AcDbEntity
  8
0
  6
Continuous
 62
     0
370
    30
100
AcDbLine
 10
463.213269
 20
523.05933
 30
0.0
 11
464.213269
 21
523.05933
 31
0.0
  0
ARC
  5
EF
330
EA
100
AcDbEntity
  8
0
  6
Continuous
 62
     0
370
    30
100
AcDbCircle
 10
469.213269
 20
542.440929
 30
0.0
 40
5.0
100
AcDbArc
 50
99.0
 51
180.0
  0
LWPOLYLINE
  5
F0
330
EA
100
AcDbEntity
  8
0
  6
Continuous
 62
     0
370
    30
100
AcDbPolyline
 90
        9
 70
     0
 43
0.0
 10
512.225586
 20
554.315735
 10
512.151428
 20
554.304016
 10
511.926147
 20
554.268311
 10
511.55838
 20
554.210083
 10
511.073059
 20
554.133179
 10
510.483032
 20
554.039734
 10
509.796173
 20
553.930969
 10
509.049774
 20
553.812744
 10
508.274811
 20
553.690002
  0
LINE
  5
F1
330
EA
100
AcDbEntity
  8
0
  6
Continuous
 62
     0
370
    30
100
AcDbLine
 10
508.274814
 20
553.689996
 30
0.0
 11
468.431097
 21
547.379371
 31
0.0
  0
LINE
  5
F2
330
EA
100
AcDbEntity
  8
0
  6
Continuous
 62
     0
370
    30
100
AcDbLine
 10
512.743955
 20
557.435212
 30
0.0
 11
513.056821
 21
555.459856
 31
0.0
  0
LINE
  5
F3
330
EA
100
AcDbEntity
  8
0
  6
Continuous
 62
     0
370
     0
100
AcDbLine
 10
507.805514
 20
556.65304
 30
0.0
 11
508.118379
 21
554.677684
 31
0.0
  0
LINE
  5
F4
330
EA
100
AcDbEntity
  8
0
  6
Continuous
 62
     0
370
     0
100
AcDbLine
 10
508.118379
 20
554.677684
 30
0.0
 11
513.056821
 21
555.459856
 31
0.0
  0
LINE
  5
F5
330
EA
100
AcDbEntity
  8
0
  6
Continuous
 62
     0
370
     0
100
AcDbLine
 10
512.743955
 20
557.435212
 30
0.0
 11
507.805514
 21
556.65304
 31
0.0
  0
LWPOLYLINE
  5
F6
330
EA
100
AcDbEntity
  8
0
  6
Continuous
 62
     0
370
    30
100
AcDbPolyline
 90
       11
 70
     0
 43
0.0
 10
428.213257
 20
530.331787
 10
428.27829
 20
530.30481
 10
428.476318
 20
530.223755
 10
428.799927
 20
530.093445
 10
429.231232
 20
529.920227
 10
429.752167
 20
529.710388
 10
430.347198
 20
529.469971
 10
431.002533
 20
529.204956
 10
431.704163
 20
528.921326
 10
432.434845
 20
528.62616
 10
433.213257
 20
528.311646
  0
LINE
  5
F7
330
EA
100
AcDbEntity
  8
0
  6
Continuous
 62
     0
370
     0
100
AcDbLine
 10
433.213259
 20
528.311675
 30
0.0
 11
433.213259
 21
544.838787
 31
0.0
  0
LINE
  5
F8
330
EA
100
AcDbEntity
  8
0
  6
Continuous
 62
     0
370
     0
100
AcDbLine
 10
433.213259
 20
544.838787
 30
0.0
 11
428.213259
 21
544.205249
 31
0.0
  0
LINE
  5
F9
330
EA
100
AcDbEntity
  8
0
  6
Continuous
 62
     0
370
    30
100
AcDbLine
 10
428.213259
 20
544.205249
 30
0.0
 11
428.213259
 21
530.331806
 31
0.0
  0
LINE
  5
FA
330
EA
100
AcDbEntity
  8
0
  6
Continuous
 62
     0
370
    30
100
AcDbLine
 10
507.649079
 20
557.640728
 30
0.0
 11
511.599832
 21
558.266466
 31
0.0
  0
LINE
  5
FB
330
EA
100
AcDbEntity
  8
0
  6
Continuous
 62
     0
370
    30
100
AcDbLine
 10
429.056824
 20
545.192938
 30
0.0
 11
433.056824
 21
545.826475
 31
0.0
  0
LINE
  5
FC
330
EA
100
AcDbEntity
  8
0
  6
Continuous
 62
     0
370
    30
100
AcDbLine
 10
433.056824
 20
545.826475
 30
0.0
 11
507.649079
 21
557.640728
 31
0.0
  0
LINE
  5
FD
330
EA
100
AcDbEntity
  8
0
  6
Continuous
 62
     0
370
     0
100
AcDbLine
 10
433.056824
 20
545.826475
 30
0.0
 11
433.213259
 21
544.838787
 31
0.0
  0
LINE
  5
FE
330
EA
100
AcDbEntity
  8
0
  6
Continuous
 62
     0
370
     0
100
AcDbLine
 10
433.213259
 20
544.838787
 30
0.0
 11
507.805514
 21
556.65304
 31
0.0
  0
LINE
  5
FF
330
EA
100
AcDbEntity
  8
0
  6
Continuous
 62
     0
370
     0
100
AcDbLine
 10
507.805514
 20
556.65304
 30
0.0
 11
507.649079
 21
557.640728
 31
0.0
  0
ARC
  5
100
330
EA
100
AcDbEntity
  8
0
  6
Continuous
 62
     0
370
    30
100
AcDbCircle
 10
511.756267
 20
557.278777
 30
0.0
 40
1.000000000012003
100
AcDbArc
 50
9.0
 51
99.0
  0
ARC
  5
101
330
EA
100
AcDbEntity
  8
0
  6
Continuous
 62
     0
370
    30
100
AcDbCircle
 10
429.213259
 20
544.205249
 30
0.0
 40
1.0
100
AcDbArc
 50
99.0
 51
180.0
  0
LWPOLYLINE
  5
102
330
EA
100
AcDbEntity
  8
0
  6
Continuous
 62
     0
370
     0
100
AcDbPolyline
 90
        5
 70
     0
 43
0.0
 10
468.431091
 20
547.379395
 10
468.419312
 20
547.453735
 10
468.385773
 20
547.665527
 10
468.33551
 20
547.982971
 10
468.274658
 20
548.367065
  0
ARC
  5
103
330
EA
100
AcDbEntity
  8
0
  6
Continuous
 62
     0
370
     0
100
AcDbCircle
 10
469.213269
 20
542.440929
 30
0.0
 40
6.00000000000087
100
AcDbArc
 50
99.0
 51
180.0
  0
LINE
  5
104
330
EA
100
AcDbEntity
  8
0
  6
Continuous
 62
     0
370
     0
100
AcDbLine
 10
508.274814
 20
553.689996
 30
0.0
 11
508.118379
 21
554.677684
 31
0.0
  0
LINE
  5
105
330
EA
100
AcDbEntity
  8
0
  6
Continuous
 62
     0
370
     0
100
AcDbLine
 10
508.118379
 20
554.677684
 30
0.0
 11
468.274663
 21
548.367059
 31
0.0
  0
ARC
  5
106
330
EA
100
AcDbEntity
  8
0
  6
Continuous
 62
     0
370
    30
100
AcDbCircle
 10
512.069132
 20
555.303422
 30
0.0
 40
1.00000000000003
100
AcDbArc
 50
279.0
 51
9.0
  0
LINE
  5
107
330
EA
100
AcDbEntity
  8
0
  6
Continuous
 62
     0
370
    30
100
AcDbLine
 10
433.213259
 20
528.311675
 30
0.0
 11
445.852817
 21
523.204962
 31
0.0
  0
ARC
  5
108
330
EA
100
AcDbEntity
  8
0
  6
Continuous
 62
     0
370
    30
100
AcDbCircle
 10
446.60203
 20
525.05933
 30
0.0
 40
1.999999999965731
100
AcDbArc
 50
248.0
 51
270.0
  0
LINE
  5
109
330
EA
100
AcDbEntity
  8
0
  6
Continuous
 62
     0
370
    30
100
AcDbLine
 10
446.60203
 20
523.05933
 30
0.0
 11
463.213269
 21
523.05933
 31
0.0
  0
LINE
  5
10A
330
EA
100
AcDbEntity
  8
0
  6
Continuous
 62
     0
370
     0
100
AcDbLine
 10
464.208985
 20
490.017896
 30
0.0
 11
463.208985
 21
490.017896
 31
0.0
  0
LINE
  5
10B
330
EA
100
AcDbEntity
  8
0
  6
Continuous
 62
     0
370
     0
100
AcDbLine
 10
463.208985
 20
490.017896
 30
0.0
 11
463.208985
 21
370.759328
 31
0.0
  0
LINE
  5
10C
330
EA
100
AcDbEntity
  8
0
  6
Continuous
 62
     0
370
    30
100
AcDbLine
 10
464.208985
 20
370.759328
 30
0.0
 11
464.208985
 21
490.017896
 31
0.0
  0
LINE
  5
10D
330
EA
100
AcDbEntity
  8
0
  6
Continuous
 62
     0
370
     0
100
AcDbLine
 10
433.367553
 20
519.759328
 30
0.0
 11
428.367553
 21
519.759328
 31
0.0
  0
LINE
  5
10E
330
EA
100
AcDbEntity
  8
0
  6
Continuous
 62
     0
370
    30
100
AcDbLine
 10
428.367553
 20
519.759328
 30
0.0
 11
428.367553
 21
370.759328
 31
0.0
  0
LINE
  5
10F
330
EA
100
AcDbEntity
  8
0
  6
Continuous
 62
     0
370
     0
100
AcDbLine
 10
433.367553
 20
370.759328
 30
0.0
 11
433.367553
 21
519.759328
 31
0.0
  0
LINE
  5
110
330
EA
100
AcDbEntity
  8
0
  6
Continuous
 62
     0
370
     0
100
AcDbLine
 10
633.054701
 20
505.767896
 30
0.0
 11
633.054701
 21
519.759328
 31
0.0
  0
LINE
  5
111
330
EA
100
AcDbEntity
  8
0
  6
Continuous
 62
     0
370
     0
100
AcDbLine
 10
633.054701
 20
519.759328
 30
0.0
 11
433.367553
 21
519.759328
 31
0.0
  0
ARC
  5
112
330
EA
100
AcDbEntity
  8
0
  6
Continuous
 62
     0
370
     0
100
AcDbCircle
 10
478.958985
 20
490.017896
 30
0.0
 40
15.74999999999991
100
AcDbArc
 50
90.0
 51
180.0
  0
LINE
  5
113
330
EA
100
AcDbEntity
  8
0
  6
Continuous
 62
     0
370
     0
100
AcDbLine
 10
478.958985
 20
505.767896
 30
0.0
 11
633.054701
 21
505.767896
 31
0.0
  0
LINE
  5
114
330
EA
100
AcDbEntity
  8
0
  6
Continuous
 62
     0
370
    30
100
AcDbLine
 10
638.054701
 20
505.767896
 30
0.0
 11
638.054701
 21
519.759328
 31
0.0
  0
LINE
  5
115
330
EA
100
AcDbEntity
  8
0
  6
Continuous
 62
     0
370
     0
100
AcDbLine
 10
638.054701
 20
519.759328
 30
0.0
 11
633.054701
 21
519.759328
 31
0.0
  0
LINE
  5
116
330
EA
100
AcDbEntity
  8
0
  6
Continuous
 62
     0
370
     0
100
AcDbLine
 10
633.054701
 20
505.767896
 30
0.0
 11
638.054701
 21
505.767896
 31
0.0
  0
ARC
  5
117
330
EA
100
AcDbEntity
  8
0
  6
Continuous
 62
     0
370
    30
100
AcDbCircle
 10
478.958985
 20
490.017896
 30
0.0
 40
14.75
100
AcDbArc
 50
90.0
 51
180.0
  0
ARC
  5
118
330
EA
100
AcDbEntity
  8
0
  6
Continuous
 62
     0
370
    30
100
AcDbCircle
 10
637.054701
 20
505.767896
 30
0.0
 40
0.9999999999999861
100
AcDbArc
 50
270.0
 51
0.0
  0
LINE
  5
119
330
EA
100
AcDbEntity
  8
0
  6
Continuous
 62
     0
370
     0
100
AcDbLine
 10
633.054701
 20
504.767896
 30
0.0
 11
633.054701
 21
505.767896
 31
0.0
  0
LWPOLYLINE
  5
11A
330
EA
100
AcDbEntity
  8
0
  6
Continuous
 62
     0
370
    30
100
AcDbPolyline
 90
        9
 70
     0
 43
0.0
 10
637.054688
 20
504.767883
 10
636.978088
 20
504.767883
 10
636.751465
 20
504.767883
 10
636.384277
 20
504.767883
 10
635.889954
 20
504.767883
 10
635.286621
 20
504.767883
 10
634.593872
 20
504.767883
 10
633.84314
 20
504.767883
 10
633.054688
 20
504.767883
  0
LINE
  5
11B
330
EA
100
AcDbEntity
  8
0
  6
Continuous
 62
     0
370
     0
100
AcDbLine
 10
478.958985
 20
505.767896
 30
0.0
 11
478.958985
 21
504.767896
 31
0.0
  0
LINE
  5
11C
330
EA
100
AcDbEntity
  8
0
  6
Continuous
 62
     0
370
    30
100
AcDbLine
 10
478.958985
 20
504.767896
 30
0.0
 11
633.054701
 21
504.767896
 31
0.0
  0
ARC
  5
11D
330
EA
100
AcDbEntity
  8
0
  6
Continuous
 62
     0
370
    30
100
AcDbCircle
 10
637.054701
 20
519.759328
 30
0.0
 40
1.0
100
AcDbArc
 50
0.0
 51
90.0
  0
LWPOLYLINE
  5
11E
330
EA
100
AcDbEntity
  8
0
  6
Continuous
 62
     0
370
    30
100
AcDbPolyline
 90
        9
 70
     0
 43
0.0
 10
637.054688
 20
520.759338
 10
636.978088
 20
520.759338
 10
636.751465
 20
520.759338
 10
636.384277
 20
520.759338
 10
635.889954
 20
520.759338
 10
635.286621
 20
520.759338
 10
634.593872
 20
520.759338
 10
633.84314
 20
520.759338
 10
633.054688
 20
520.759338
  0
LINE
  5
11F
330
EA
100
AcDbEntity
  8
0
  6
Continuous
 62
     0
370
     0
100
AcDbLine
 10
633.054701
 20
520.759328
 30
0.0
 11
633.054701
 21
519.759328
 31
0.0
  0
LINE
  5
120
330
EA
100
AcDbEntity
  8
0
  6
Continuous
 62
     0
370
    30
100
AcDbLine
 10
633.054701
 20
520.759328
 30
0.0
 11
433.367553
 21
520.759328
 31
0.0
  0
LINE
  5
121
330
EA
100
AcDbEntity
  8
0
  6
Continuous
 62
     0
370
     0
100
AcDbLine
 10
433.367553
 20
520.759328
 30
0.0
 11
433.367553
 21
519.759328
 31
0.0
  0
LINE
  5
122
330
EA
100
AcDbEntity
  8
0
  6
Continuous
 62
     0
370
    30
100
AcDbLine
 10
433.367553
 20
520.759328
 30
0.0
 11
429.367553
 21
520.759328
 31
0.0
  0
ARC
  5
123
330
EA
100
AcDbEntity
  8
0
  6
Continuous
 62
     0
370
    30
100
AcDbCircle
 10
429.367553
 20
519.759328
 30
0.0
 40
0.9999999999948095
100
AcDbArc
 50
90.0
 51
180.0
  0
LINE
  5
124
330
EA
100
AcDbEntity
  8
0
  6
Continuous
 62
     0
370
    30
100
AcDbLine
 10
476.213268
 20
370.759299
 30
0.0
 11
465.752938
 21
370.759299
 31
0.0
  0
LINE
  5
125
330
EA
100
AcDbEntity
  8
0
  6
Continuous
 62
     0
370
     0
100
AcDbLine
 10
465.752938
 20
370.759299
 30
0.0
 11
465.752938
 21
367.759299
 31
0.0
  0
LINE
  5
126
330
EA
100
AcDbEntity
  8
0
  6
Continuous
 62
     0
370
    30
100
AcDbLine
 10
465.752938
 20
367.759299
 30
0.0
 11
476.213268
 21
367.759299
 31
0.0
  0
LINE
  5
127
330
EA
100
AcDbEntity
  8
0
  6
Continuous
 62
     0
370
    30
100
AcDbLine
 10
416.213268
 20
367.759299
 30
0.0
 11
465.752938
 21
367.759299
 31
0.0
  0
LINE
  5
128
330
EA
100
AcDbEntity
  8
0
  6
Continuous
 62
     0
370
    30
100
AcDbLine
 10
465.752938
 20
370.759299
 30
0.0
 11
416.213268
 21
370.759299
 31
0.0
  0
ARC
  5
129
330
EA
100
AcDbEntity
  8
0
  6
Continuous
 62
     0
370
     0
100
AcDbCircle
 10
417.402198
 20
414.503647
 30
0.0
 40
5.499999999999178
100
AcDbArc
 50
25.0
 51
89.999998
  0
LINE
  5
12A
330
EA
100
AcDbEntity
  8
0
  6
Continuous
 62
     0
370
     0
100
AcDbLine
 10
417.402198
 20
420.003647
 30
0.0
 11
417.402198
 21
417.503647
 31
0.0
  0
LINE
  5
12B
330
EA
100
AcDbEntity
  8
0
  6
Continuous
 62
     0
370
     0
100
AcDbLine
 10
420.121121
 20
415.771502
 30
0.0
 11
422.386891
 21
416.828047
 31
0.0
  0
LINE
  5
12C
330
EA
100
AcDbEntity
  8
0
  6
Continuous
 62
     0
370
     0
100
AcDbLine
 10
422.386891
 20
416.828047
 30
0.0
 11
424.65266
 21
417.884593
 31
0.0
  0
LWPOLYLINE
  5
12D
330
EA
100
AcDbEntity
  8
0
  6
Continuous
 62
     0
370
     0
100
AcDbPolyline
 90
        8
 70
     0
 43
0.0
 10
417.402191
 20
422.503632
 10
417.402191
 20
422.450775
 10
417.402191
 20
422.280731
 10
417.402191
 20
421.987701
 10
417.402191
 20
421.584747
 10
417.402191
 20
421.103088
 10
417.402191
 20
420.584259
 10
417.402191
 20
420.003632
  0
LINE
  5
12E
330
EA
100
AcDbEntity
  8
0
  6
Continuous
 62
     0
370
     0
100
AcDbLine
 10
407.406948
 20
420.003647
 30
0.0
 11
405.906948
 21
420.003647
 31
0.0
  0
LINE
  5
12F
330
EA
100
AcDbEntity
  8
0
  6
Continuous
 62
     0
370
     0
100
AcDbLine
 10
407.406948
 20
417.503647
 30
0.0
 11
407.406948
 21
420.003647
 31
0.0
  0
LINE
  5
130
330
EA
100
AcDbEntity
  8
0
  6
Continuous
 62
     0
370
     0
100
AcDbLine
 10
407.406948
 20
420.003647
 30
0.0
 11
407.406948
 21
422.503647
 31
0.0
  0
LINE
  5
131
330
EA
100
AcDbEntity
  8
0
  6
Continuous
 62
     0
370
     0
100
AcDbLine
 10
422.386891
 20
416.828047
 30
0.0
 11
428.367552
 21
404.002477
 31
0.0
  0
LINE
  5
132
330
EA
100
AcDbEntity
  8
0
  6
Continuous
 62
     0
370
     0
100
AcDbLine
 10
407.406948
 20
420.003647
 30
0.0
 11
417.402198
 21
420.003647
 31
0.0
  0
LWPOLYLINE
  5
133
330
EA
100
AcDbEntity
  8
0
  6
Continuous
 62
     0
370
     0
100
AcDbPolyline
 90
        6
 70
     0
 43
0.0
 10
434.036377
 20
527.979126
 10
433.520599
 20
526.680298
 10
433.093384
 20
525.329041
 10
432.759705
 20
523.938843
 10
432.522705
 20
522.523987
 10
432.364655
 20
520.759338
  0
ARC
  5
134
330
EA
100
AcDbEntity
  8
0
  6
Continuous
 62
     0
370
    30
100
AcDbCircle
 10
446.934758
 20
519.759304
 30
0.0
 40
17.50008635759326
100
AcDbArc
 50
148.827762
 51
176.724101
  0
ARC
  5
135
330
EA
100
AcDbEntity
  8
0
  6
Continuous
 62
     0
370
    30
100
AcDbCircle
 10
445.490889
 20
519.759209
 30
0.0
 40
17.50097966333348
100
AcDbArc
 50
3.276042
 51
10.869213
  0
LINE
  5
136
330
EA
100
AcDbEntity
  8
0
  6
Continuous
 62
     0
370
    30
100
AcDbLine
 10
407.406948
 20
417.503647
 30
0.0
 11
417.402198
 21
417.503647
 31
0.0
  0
LINE
  5
137
330
EA
100
AcDbEntity
  8
0
  6
Continuous
 62
     0
370
    30
100
AcDbLine
 10
407.406948
 20
422.503647
 30
0.0
 11
417.402198
 21
422.503647
 31
0.0
  0
LINE
  5
138
330
EA
100
AcDbEntity
  8
0
  6
Continuous
 62
     0
370
    30
100
AcDbLine
 10
420.121121
 20
415.771502
 30
0.0
 11
428.366983
 21
398.088194
 31
0.0
  0
LINE
  5
139
330
EA
100
AcDbEntity
  8
0
  6
Continuous
 62
     0
370
    30
100
AcDbLine
 10
424.65266
 20
417.884593
 30
0.0
 11
428.368122
 21
409.91676
 31
0.0
  0
ARC
  5
13A
330
EA
100
AcDbEntity
  8
0
  6
Continuous
 62
     0
370
    30
100
AcDbCircle
 10
407.406971
 20
421.003623
 30
0.0
 40
1.500023590201144
100
AcDbArc
 50
90.000899
 51
179.976606
  0
ARC
  5
13B
330
EA
100
AcDbEntity
  8
0
  6
Continuous
 62
     0
370
    30
100
AcDbCircle
 10
407.406973
 20
419.003672
 30
0.0
 40
1.500025306555242
100
AcDbArc
 50
180.023456
 51
269.999032
  0
ARC
  5
13C
330
EA
100
AcDbEntity
  8
0
  6
Continuous
 62
     0
370
    30
100
AcDbCircle
 10
417.402192
 20
414.503638
 30
0.0
 40
8.00000892618374
100
AcDbArc
 50
25.000041
 51
89.999958
  0
ARC
  5
13D
330
EA
100
AcDbEntity
  8
0
  6
Continuous
 62
     0
370
    30
100
AcDbCircle
 10
417.402151
 20
414.503573
 30
0.0
 40
3.000073751086077
100
AcDbArc
 50
25.000897
 51
89.999101
  0
LINE
  5
13E
330
EA
100
AcDbEntity
  8
0
  6
Continuous
 62
     0
370
    30
100
AcDbLine
 10
416.213268
 20
367.759299
 30
0.0
 11
416.213268
 21
370.759299
 31
0.0
  0
LINE
  5
13F
330
EA
100
AcDbEntity
  8
0
  6
Continuous
 62
     0
370
    30
100
AcDbLine
 10
476.213268
 20
367.759299
 30
0.0
 11
476.213268
 21
370.759299
 31
0.0
  0
ENDBLK
  5
141
330
EA
100
AcDbEntity
  8
0
100
AcDbBlockEnd
  0
BLOCK
  5
199
330
143
100
AcDbEntity
  8
0
100
AcDbBlockBegin
  2
e
 70
     0
 10
21.740555
 20
0.0
 30
0.0
  3
e
  1

  0
LINE
  5
144
330
143
100
AcDbEntity
  8
0
  6
Continuous
 62
     0
370
    30
100
AcDbLine
 10
-74.112244
 20
542.440929
 30
0.0
 11
-74.112244
 21
523.05933
 31
0.0
  0
LINE
  5
145
330
143
100
AcDbEntity
  8
0
  6
Continuous
 62
     0
370
    30
100
AcDbLine
 10
-74.112244
 20
523.05933
 30
0.0
 11
-73.112244
 21
523.05933
 31
0.0
  0
LINE
  5
146
330
143
100
AcDbEntity
  8
0
  6
Continuous
 62
     0
370
     0
100
AcDbLine
 10
-73.112244
 20
523.05933
 30
0.0
 11
-73.112244
 21
542.440929
 31
0.0
  0
LINE
  5
147
330
143
100
AcDbEntity
  8
0
  6
Continuous
 62
     0
370
     0
100
AcDbLine
 10
-73.112244
 20
542.440929
 30
0.0
 11
-74.112244
 21
542.440929
 31
0.0
  0
ARC
  5
148
330
143
100
AcDbEntity
  8
0
  6
Continuous
 62
     0
370
    30
100
AcDbCircle
 10
-79.112244
 20
542.440929
 30
0.0
 40
5.0
100
AcDbArc
 50
0.0
 51
81.0
  0
LINE
  5
149
330
143
100
AcDbEntity
  8
0
  6
Continuous
 62
     0
370
    30
100
AcDbLine
 10
-78.330072
 20
547.379371
 30
0.0
 11
-118.173789
 21
553.689996
 31
0.0
  0
LINE
  5
14A
330
143
100
AcDbEntity
  8
0
  6
Continuous
 62
     0
370
    30
100
AcDbLine
 10
-118.173789
 20
553.689996
 30
0.0
 11
-122.124542
 21
554.315734
 31
0.0
  0
LINE
  5
14B
330
143
100
AcDbEntity
  8
0
  6
Continuous
 62
     0
370
    30
100
AcDbLine
 10
-122.64293
 20
557.435212
 30
0.0
 11
-122.955796
 21
555.459856
 31
0.0
  0
LINE
  5
14C
330
143
100
AcDbEntity
  8
0
  6
Continuous
 62
     0
370
     0
100
AcDbLine
 10
-122.955796
 20
555.459856
 30
0.0
 11
-118.017354
 21
554.677684
 31
0.0
  0
LINE
  5
14D
330
143
100
AcDbEntity
  8
0
  6
Continuous
 62
     0
370
     0
100
AcDbLine
 10
-118.017354
 20
554.677684
 30
0.0
 11
-117.704489
 21
556.65304
 31
0.0
  0
LINE
  5
14E
330
143
100
AcDbEntity
  8
0
  6
Continuous
 62
     0
370
     0
100
AcDbLine
 10
-117.704489
 20
556.65304
 30
0.0
 11
-122.64293
 21
557.435212
 31
0.0
  0
LWPOLYLINE
  5
14F
330
143
100
AcDbEntity
  8
0
  6
Continuous
 62
     0
370
    30
100
AcDbPolyline
 90
        9
 70
     0
 43
0.0
 10
-121.49881
 20
558.266479
 10
-121.42469
 20
558.2547
 10
-121.199379
 20
558.219055
 10
-120.831612
 20
558.160767
 10
-120.346306
 20
558.083923
 10
-119.756271
 20
557.990479
 10
-119.069412
 20
557.881714
 10
-118.323021
 20
557.763489
 10
-117.548058
 20
557.640747
  0
LINE
  5
150
330
143
100
AcDbEntity
  8
0
  6
Continuous
 62
     0
370
    30
100
AcDbLine
 10
-117.548054
 20
557.640728
 30
0.0
 11
-42.955799
 21
545.826475
 31
0.0
  0
LINE
  5
151
330
143
100
AcDbEntity
  8
0
  6
Continuous
 62
     0
370
    30
100
AcDbLine
 10
-42.955799
 20
545.826475
 30
0.0
 11
-38.955799
 21
545.192938
 31
0.0
  0
LINE
  5
152
330
143
100
AcDbEntity
  8
0
  6
Continuous
 62
     0
370
    30
100
AcDbLine
 10
-38.112234
 20
530.331806
 30
0.0
 11
-38.112234
 21
544.205249
 31
0.0
  0
LINE
  5
153
330
143
100
AcDbEntity
  8
0
  6
Continuous
 62
     0
370
     0
100
AcDbLine
 10
-38.112234
 20
544.205249
 30
0.0
 11
-43.112234
 21
544.838787
 31
0.0
  0
LINE
  5
154
330
143
100
AcDbEntity
  8
0
  6
Continuous
 62
     0
370
     0
100
AcDbLine
 10
-43.112234
 20
544.838787
 30
0.0
 11
-43.112234
 21
528.311675
 31
0.0
  0
LWPOLYLINE
  5
155
330
143
100
AcDbEntity
  8
0
  6
Continuous
 62
     0
370
    30
100
AcDbPolyline
 90
       11
 70
     0
 43
0.0
 10
-43.112232
 20
528.311646
 10
-42.370735
 20
528.611267
 10
-41.639133
 20
528.906799
 10
-40.935596
 20
529.191162
 10
-40.277607
 20
529.457275
 10
-39.679234
 20
529.699036
 10
-39.154259
 20
529.910583
 10
-38.718044
 20
530.085754
 10
-38.388615
 20
530.218384
 10
-38.183987
 20
530.302002
 10
-38.112232
 20
530.331787
  0
ARC
  5
156
330
143
100
AcDbEntity
  8
0
  6
Continuous
 62
     0
370
    30
100
AcDbCircle
 10
-121.655242
 20
557.278777
 30
0.0
 40
1.000000000000005
100
AcDbArc
 50
81.0
 51
171.0
  0
LINE
  5
157
330
143
100
AcDbEntity
  8
0
  6
Continuous
 62
     0
370
     0
100
AcDbLine
 10
-117.548054
 20
557.640728
 30
0.0
 11
-117.704489
 21
556.65304
 31
0.0
  0
LINE
  5
158
330
143
100
AcDbEntity
  8
0
  6
Continuous
 62
     0
370
     0
100
AcDbLine
 10
-117.704489
 20
556.65304
 30
0.0
 11
-43.112234
 21
544.838787
 31
0.0
  0
LINE
  5
159
330
143
100
AcDbEntity
  8
0
  6
Continuous
 62
     0
370
     0
100
AcDbLine
 10
-43.112234
 20
544.838787
 30
0.0
 11
-42.955799
 21
545.826475
 31
0.0
  0
ARC
  5
15A
330
143
100
AcDbEntity
  8
0
  6
Continuous
 62
     0
370
    30
100
AcDbCircle
 10
-39.112234
 20
544.205249
 30
0.0
 40
1.000000000003522
100
AcDbArc
 50
0.0
 51
81.0
  0
ARC
  5
15B
330
143
100
AcDbEntity
  8
0
  6
Continuous
 62
     0
370
    30
100
AcDbCircle
 10
-121.968107
 20
555.303422
 30
0.0
 40
0.999999999999992
100
AcDbArc
 50
171.0
 51
261.0
  0
LWPOLYLINE
  5
15C
330
143
100
AcDbEntity
  8
0
  6
Continuous
 62
     0
370
     0
100
AcDbPolyline
 90
        5
 70
     0
 43
0.0
 10
-118.17379
 20
553.690002
 10
-118.162018
 20
553.764343
 10
-118.128464
 20
553.976135
 10
-118.078194
 20
554.293579
 10
-118.017357
 20
554.677673
  0
LINE
  5
15D
330
143
100
AcDbEntity
  8
0
  6
Continuous
 62
     0
370
     0
100
AcDbLine
 10
-78.330072
 20
547.379371
 30
0.0
 11
-78.173637
 21
548.367059
 31
0.0
  0
LINE
  5
15E
330
143
100
AcDbEntity
  8
0
  6
Continuous
 62
     0
370
     0
100
AcDbLine
 10
-78.173637
 20
548.367059
 30
0.0
 11
-118.017354
 21
554.677684
 31
0.0
  0
ARC
  5
15F
330
143
100
AcDbEntity
  8
0
  6
Continuous
 62
     0
370
     0
100
AcDbCircle
 10
-79.112244
 20
542.440929
 30
0.0
 40
5.999999999999445
100
AcDbArc
 50
0.0
 51
81.0
  0
LINE
  5
160
330
143
100
AcDbEntity
  8
0
  6
Continuous
 62
     0
370
    30
100
AcDbLine
 10
-56.501005
 20
523.05933
 30
0.0
 11
-73.112244
 21
523.05933
 31
0.0
  0
ARC
  5
161
330
143
100
AcDbEntity
  8
0
  6
Continuous
 62
     0
370
    30
100
AcDbCircle
 10
-56.501005
 20
525.05933
 30
0.0
 40
1.999999999948833
100
AcDbArc
 50
270.0
 51
292.0
  0
LINE
  5
162
330
143
100
AcDbEntity
  8
0
  6
Continuous
 62
     0
370
    30
100
AcDbLine
 10
-43.112234
 20
528.311675
 30
0.0
 11
-55.751792
 21
523.204962
 31
0.0
  0
LINE
  5
163
330
143
100
AcDbEntity
  8
0
  6
Continuous
 62
     0
370
     0
100
AcDbLine
 10
-73.10796
 20
490.017896
 30
0.0
 11
-74.10796
 21
490.017896
 31
0.0
  0
LINE
  5
164
330
143
100
AcDbEntity
  8
0
  6
Continuous
 62
     0
370
    30
100
AcDbLine
 10
-74.10796
 20
490.017896
 30
0.0
 11
-74.10796
 21
370.759328
 31
0.0
  0
LINE
  5
165
330
143
100
AcDbEntity
  8
0
  6
Continuous
 62
     0
370
     0
100
AcDbLine
 10
-73.10796
 20
370.759328
 30
0.0
 11
-73.10796
 21
490.017896
 31
0.0
  0
LINE
  5
166
330
143
100
AcDbEntity
  8
0
  6
Continuous
 62
     0
370
    30
100
AcDbLine
 10
-247.953677
 20
505.767896
 30
0.0
 11
-247.953677
 21
519.759328
 31
0.0
  0
LINE
  5
167
330
143
100
AcDbEntity
  8
0
  6
Continuous
 62
     0
370
     0
100
AcDbLine
 10
-242.953677
 20
505.767896
 30
0.0
 11
-242.953677
 21
519.759328
 31
0.0
  0
LINE
  5
168
330
143
100
AcDbEntity
  8
0
  6
Continuous
 62
     0
370
     0
100
AcDbLine
 10
-242.953677
 20
519.759328
 30
0.0
 11
-247.953677
 21
519.759328
 31
0.0
  0
LINE
  5
169
330
143
100
AcDbEntity
  8
0
  6
Continuous
 62
     0
370
     0
100
AcDbLine
 10
-247.953677
 20
505.767896
 30
0.0
 11
-242.953677
 21
505.767896
 31
0.0
  0
LINE
  5
16A
330
143
100
AcDbEntity
  8
0
  6
Continuous
 62
     0
370
     0
100
AcDbLine
 10
-43.266528
 20
519.759328
 30
0.0
 11
-242.953677
 21
519.759328
 31
0.0
  0
LINE
  5
16B
330
143
100
AcDbEntity
  8
0
  6
Continuous
 62
     0
370
     0
100
AcDbLine
 10
-242.953677
 20
505.767896
 30
0.0
 11
-88.85796
 21
505.767896
 31
0.0
  0
ARC
  5
16C
330
143
100
AcDbEntity
  8
0
  6
Continuous
 62
     0
370
     0
100
AcDbCircle
 10
-88.85796
 20
490.017896
 30
0.0
 40
15.74999999999987
100
AcDbArc
 50
0.0
 51
90.0
  0
LINE
  5
16D
330
143
100
AcDbEntity
  8
0
  6
Continuous
 62
     0
370
     0
100
AcDbLine
 10
-43.266528
 20
370.759328
 30
0.0
 11
-43.266528
 21
519.759328
 31
0.0
  0
LINE
  5
16E
330
143
100
AcDbEntity
  8
0
  6
Continuous
 62
     0
370
     0
100
AcDbLine
 10
-38.266528
 20
519.759328
 30
0.0
 11
-43.266528
 21
519.759328
 31
0.0
  0
LINE
  5
16F
330
143
100
AcDbEntity
  8
0
  6
Continuous
 62
     0
370
    30
100
AcDbLine
 10
-38.266528
 20
370.759328
 30
0.0
 11
-38.266528
 21
519.759328
 31
0.0
  0
ARC
  5
170
330
143
100
AcDbEntity
  8
0
  6
Continuous
 62
     0
370
    30
100
AcDbCircle
 10
-88.85796
 20
490.017896
 30
0.0
 40
14.75
100
AcDbArc
 50
0.0
 51
90.0
  0
LINE
  5
171
330
143
100
AcDbEntity
  8
0
  6
Continuous
 62
     0
370
     0
100
AcDbLine
 10
-88.85796
 20
504.767896
 30
0.0
 11
-88.85796
 21
505.767896
 31
0.0
  0
LINE
  5
172
330
143
100
AcDbEntity
  8
0
  6
Continuous
 62
     0
370
     0
100
AcDbLine
 10
-242.953677
 20
505.767896
 30
0.0
 11
-242.953677
 21
504.767896
 31
0.0
  0
LINE
  5
173
330
143
100
AcDbEntity
  8
0
  6
Continuous
 62
     0
370
    30
100
AcDbLine
 10
-242.953677
 20
504.767896
 30
0.0
 11
-88.85796
 21
504.767896
 31
0.0
  0
ARC
  5
174
330
143
100
AcDbEntity
  8
0
  6
Continuous
 62
     0
370
    30
100
AcDbCircle
 10
-246.953677
 20
505.767896
 30
0.0
 40
1.000000000002913
100
AcDbArc
 50
180.0
 51
270.0
  0
LINE
  5
175
330
143
100
AcDbEntity
  8
0
  6
Continuous
 62
     0
370
    30
100
AcDbLine
 10
-242.953677
 20
504.767896
 30
0.0
 11
-246.953677
 21
504.767896
 31
0.0
  0
ARC
  5
176
330
143
100
AcDbEntity
  8
0
  6
Continuous
 62
     0
370
    30
100
AcDbCircle
 10
-39.266528
 20
519.759328
 30
0.0
 40
0.9999999999977582
100
AcDbArc
 50
360.0
 51
90.0
  0
LINE
  5
177
330
143
100
AcDbEntity
  8
0
  6
Continuous
 62
     0
370
    30
100
AcDbLine
 10
-39.266528
 20
520.759328
 30
0.0
 11
-43.266528
 21
520.759328
 31
0.0
  0
LINE
  5
178
330
143
100
AcDbEntity
  8
0
  6
Continuous
 62
     0
370
     0
100
AcDbLine
 10
-43.266528
 20
520.759328
 30
0.0
 11
-43.266528
 21
519.759328
 31
0.0
  0
LINE
  5
179
330
143
100
AcDbEntity
  8
0
  6
Continuous
 62
     0
370
    30
100
AcDbLine
 10
-43.266528
 20
520.759328
 30
0.0
 11
-242.953677
 21
520.759328
 31
0.0
  0
LINE
  5
17A
330
143
100
AcDbEntity
  8
0
  6
Continuous
 62
     0
370
     0
100
AcDbLine
 10
-242.953677
 20
520.759328
 30
0.0
 11
-242.953677
 21
519.759328
 31
0.0
  0
LINE
  5
17B
330
143
100
AcDbEntity
  8
0
  6
Continuous
 62
     0
370
    30
100
AcDbLine
 10
-242.953677
 20
520.759328
 30
0.0
 11
-246.953677
 21
520.759328
 31
0.0
  0
ARC
  5
17C
330
143
100
AcDbEntity
  8
0
  6
Continuous
 62
     0
370
    30
100
AcDbCircle
 10
-246.953677
 20
519.759328
 30
0.0
 40
0.9999999999854055
100
AcDbArc
 50
90.0
 51
180.0
  0
LINE
  5
17D
330
143
100
AcDbEntity
  8
0
  6
Continuous
 62
     0
370
     0
100
AcDbLine
 10
-36.572576
 20
367.759299
 30
0.0
 11
-36.572576
 21
370.759299
 31
0.0
  0
LINE
  5
17E
330
143
100
AcDbEntity
  8
0
  6
Continuous
 62
     0
370
    30
100
AcDbLine
 10
-36.572576
 20
370.759299
 30
0.0
 11
-86.112244
 21
370.759299
 31
0.0
  0
LINE
  5
17F
330
143
100
AcDbEntity
  8
0
  6
Continuous
 62
     0
370
    30
100
AcDbLine
 10
-86.112244
 20
367.759299
 30
0.0
 11
-36.572576
 21
367.759299
 31
0.0
  0
LINE
  5
180
330
143
100
AcDbEntity
  8
0
  6
Continuous
 62
     0
370
    30
100
AcDbLine
 10
-36.572576
 20
367.759299
 30
0.0
 11
-26.112244
 21
367.759299
 31
0.0
  0
LINE
  5
181
330
143
100
AcDbEntity
  8
0
  6
Continuous
 62
     0
370
    30
100
AcDbLine
 10
-26.112244
 20
370.759299
 30
0.0
 11
-36.572576
 21
370.759299
 31
0.0
  0
LINE
  5
182
330
143
100
AcDbEntity
  8
0
  6
Continuous
 62
     0
370
     0
100
AcDbLine
 10
-27.301173
 20
417.503647
 30
0.0
 11
-27.301174
 21
420.003647
 31
0.0
  0
ARC
  5
183
330
143
100
AcDbEntity
  8
0
  6
Continuous
 62
     0
370
     0
100
AcDbCircle
 10
-27.301173
 20
414.503647
 30
0.0
 40
5.499999999999952
100
AcDbArc
 50
90.000002
 51
155.0
  0
LINE
  5
184
330
143
100
AcDbEntity
  8
0
  6
Continuous
 62
     0
370
     0
100
AcDbLine
 10
-32.285866
 20
416.828047
 30
0.0
 11
-30.020097
 21
415.771502
 31
0.0
  0
LWPOLYLINE
  5
185
330
143
100
AcDbEntity
  8
0
  6
Continuous
 62
     0
370
     0
100
AcDbPolyline
 90
        8
 70
     0
 43
0.0
 10
-34.551636
 20
417.884583
 10
-34.503712
 20
417.862244
 10
-34.349594
 20
417.790375
 10
-34.084019
 20
417.666534
 10
-33.718834
 20
417.496246
 10
-33.282288
 20
417.292694
 10
-32.812092
 20
417.073425
 10
-32.285866
 20
416.828033
  0
LINE
  5
186
330
143
100
AcDbEntity
  8
0
  6
Continuous
 62
     0
370
     0
100
AcDbLine
 10
-27.301174
 20
420.003647
 30
0.0
 11
-27.301174
 21
422.503647
 31
0.0
  0
LINE
  5
187
330
143
100
AcDbEntity
  8
0
  6
Continuous
 62
     0
370
     0
100
AcDbLine
 10
-15.805923
 20
420.003647
 30
0.0
 11
-17.305923
 21
420.003647
 31
0.0
  0
LINE
  5
188
330
143
100
AcDbEntity
  8
0
  6
Continuous
 62
     0
370
     0
100
AcDbLine
 10
-17.305923
 20
420.003647
 30
0.0
 11
-17.305923
 21
417.503647
 31
0.0
  0
LINE
  5
189
330
143
100
AcDbEntity
  8
0
  6
Continuous
 62
     0
370
     0
100
AcDbLine
 10
-17.305923
 20
422.503647
 30
0.0
 11
-17.305923
 21
420.003647
 31
0.0
  0
LINE
  5
18A
330
143
100
AcDbEntity
  8
0
  6
Continuous
 62
     0
370
     0
100
AcDbLine
 10
-38.266528
 20
404.002477
 30
0.0
 11
-32.285866
 21
416.828047
 31
0.0
  0
LINE
  5
18B
330
143
100
AcDbEntity
  8
0
  6
Continuous
 62
     0
370
     0
100
AcDbLine
 10
-27.301174
 20
420.003647
 30
0.0
 11
-17.305923
 21
420.003647
 31
0.0
  0
ARC
  5
18C
330
143
100
AcDbEntity
  8
0
  6
Continuous
 62
     0
370
     0
100
AcDbCircle
 10
-48.976959
 20
519.768901
 30
0.0
 40
21.0072510453706
100
AcDbArc
 50
170.988483
 51
177.297675
  0
ARC
  5
18D
330
143
100
AcDbEntity
  8
0
  6
Continuous
 62
     0
370
    30
100
AcDbCircle
 10
-56.833734
 20
519.759304
 30
0.0
 40
17.50008635759301
100
AcDbArc
 50
3.275899
 51
31.172238
  0
ARC
  5
18E
330
143
100
AcDbEntity
  8
0
  6
Continuous
 62
     0
370
    30
100
AcDbCircle
 10
-55.389864
 20
519.759209
 30
0.0
 40
17.50097966323886
100
AcDbArc
 50
169.130787
 51
176.723958
  0
LINE
  5
18F
330
143
100
AcDbEntity
  8
0
  6
Continuous
 62
     0
370
    30
100
AcDbLine
 10
-17.305923
 20
417.503647
 30
0.0
 11
-27.301173
 21
417.503647
 31
0.0
  0
LINE
  5
190
330
143
100
AcDbEntity
  8
0
  6
Continuous
 62
     0
370
    30
100
AcDbLine
 10
-17.305923
 20
422.503647
 30
0.0
 11
-27.301174
 21
422.503647
 31
0.0
  0
LINE
  5
191
330
143
100
AcDbEntity
  8
0
  6
Continuous
 62
     0
370
    30
100
AcDbLine
 10
-30.020097
 20
415.771502
 30
0.0
 11
-38.265958
 21
398.088194
 31
0.0
  0
LINE
  5
192
330
143
100
AcDbEntity
  8
0
  6
Continuous
 62
     0
370
    30
100
AcDbLine
 10
-34.551636
 20
417.884593
 30
0.0
 11
-38.267097
 21
409.91676
 31
0.0
  0
ARC
  5
193
330
143
100
AcDbEntity
  8
0
  6
Continuous
 62
     0
370
    30
100
AcDbCircle
 10
-17.305947
 20
421.003623
 30
0.0
 40
1.500023590200707
100
AcDbArc
 50
0.023394
 51
89.999101
  0
ARC
  5
194
330
143
100
AcDbEntity
  8
0
  6
Continuous
 62
     0
370
    30
100
AcDbCircle
 10
-17.305948
 20
419.003672
 30
0.0
 40
1.500025306554794
100
AcDbArc
 50
270.000968
 51
359.976544
  0
ARC
  5
195
330
143
100
AcDbEntity
  8
0
  6
Continuous
 62
     0
370
    30
100
AcDbCircle
 10
-27.301168
 20
414.503638
 30
0.0
 40
8.000008926183947
100
AcDbArc
 50
90.000042
 51
154.999959
  0
ARC
  5
196
330
143
100
AcDbEntity
  8
0
  6
Continuous
 62
     0
370
    30
100
AcDbCircle
 10
-27.301126
 20
414.503573
 30
0.0
 40
3.000073751087427
100
AcDbArc
 50
90.000899
 51
154.999103
  0
LINE
  5
197
330
143
100
AcDbEntity
  8
0
  6
Continuous
 62
     0
370
    30
100
AcDbLine
 10
-26.112244
 20
367.759299
 30
0.0
 11
-26.112244
 21
370.759299
 31
0.0
  0
LINE
  5
198
330
143
100
AcDbEntity
  8
0
  6
Continuous
 62
     0
370
    30
100
AcDbLine
 10
-86.112244
 20
367.759299
 30
0.0
 11
-86.112244
 21
370.759299
 31
0.0
  0
ENDBLK
  5
19A
330
143
100
AcDbEntity
  8
0
100
AcDbBlockEnd
  0
ENDSEC
  0
SECTION
  2
ENTITIES
  0
INSERT
  5
A3
330
1F
100
AcDbEntity
  8
0
  6
Continuous
 62
   250
370
     0
100
AcDbBlockReference
  2
a
 10
122.964127
 20
91.382233
 30
0.0
  0
INSERT
  5
E9
330
1F
100
AcDbEntity
  8
0
  6
Continuous
 62
   250
370
     0
100
AcDbBlockReference
  2
b
 10
45.204514
 20
91.382233
 30
0.0
  0
INSERT
  5
142
330
1F
100
AcDbEntity
  8
0
  6
Continuous
 62
   250
370
     0
100
AcDbBlockReference
  2
c
 10
83.959015
 20
-8.594452
 30
0.0
  0
INSERT
  5
19B
330
1F
100
AcDbEntity
  8
0
  6
Continuous
 62
   250
370
     0
100
AcDbBlockReference
  2
e
 10
21.740555
 20
0.0
 30
0.0
  0
ENDSEC
  0
SECTION
  2
OBJECTS
  0
DICTIONARY
  5
C
330
0
100
AcDbDictionary
281
     1
  3
ACAD_GROUP
350
D
  3
ACAD_LAYOUT
350
1A
  3
ACAD_MLEADERSTYLE
350
19E
  3
ACAD_MLINESTYLE
350
17
  3
ACAD_PLOTSETTINGS
350
19
  3
ACAD_PLOTSTYLENAME
350
E
  3
ACAD_VISUALSTYLE
350
2A
  3
AcDbVariableDictionary
350
19C
  0
DICTIONARY
  5
D
102
{ACAD_REACTORS
330
C
102
}
330
C
100
AcDbDictionary
281
     1
  0
DICTIONARY
  5
1A
102
{ACAD_REACTORS
330
C
102
}
330
C
100
AcDbDictionary
281
     1
  3
Layout1
350
1E
  3
Layout2
350
26
  3
Model
350
22
  0
DICTIONARY
  5
19E
102
{ACAD_REACTORS
330
C
102
}
330
C
100
AcDbDictionary
281
     1
  0
DICTIONARY
  5
17
102
{ACAD_REACTORS
330
C
102
}
330
C
100
AcDbDictionary
281
     1
  3
Standard
350
18
  0
DICTIONARY
  5
19
102
{ACAD_REACTORS
330
C
102
}
330
C
100
AcDbDictionary
281
     1
  0
ACDBDICTIONARYWDFLT
  5
E
102
{ACAD_REACTORS
330
C
102
}
330
C
100
AcDbDictionary
281
     1
  3
Normal
350
F
100
AcDbDictionaryWithDefault
340
F
  0
DICTIONARY
  5
2A
102
{ACAD_REACTORS
330
C
102
}
330
C
100
AcDbDictionary
281
     1
  3
2dWireframe
350
2F
  3
3D Hidden
350
31
  3
3dWireframe
350
30
  3
Basic
350
32
  3
Brighten
350
36
  3
ColorChange
350
3A
  3
Conceptual
350
34
  3
Dim
350
35
  3
Facepattern
350
39
  3
Flat
350
2B
  3
FlatWithEdges
350
2C
  3
Gouraud
350
2D
  3
GouraudWithEdges
350
2E
  3
Linepattern
350
38
  3
Realistic
350
33
  3
Thicken
350
37
  0
DICTIONARY
  5
19C
102
{ACAD_REACTORS
330
C
102
}
330
C
100
AcDbDictionary
281
     1
  3
PSOLHEIGHT
350
1A0
  3
PSOLWIDTH
350
19F
  0
LAYOUT
  5
1E
102
{ACAD_REACTORS
330
1A
102
}
330
1A
100
AcDbPlotSettings
  1

  2
none_device
  4

  6

 40
0.0
 41
0.0
 42
0.0
 43
0.0
 44
0.0
 45
0.0
 46
0.0
 47
0.0
 48
0.0
 49
0.0
140
0.0
141
0.0
142
1.0
143
1.0
 70
   688
 72
     0
 73
     0
 74
     5
  7

 75
    16
147
1.0
148
0.0
149
0.0
100
AcDbLayout
  1
Layout1
 70
     1
 71
     1
 10
0.0
 20
0.0
 11
420.0
 21
297.0
 12
0.0
 22
0.0
 32
0.0
 14
1.000000E+20
 24
1.000000E+20
 34
1.000000E+20
 15
-1.000000E+20
 25
-1.000000E+20
 35
-1.000000E+20
146
0.0
 13
0.0
 23
0.0
 33
0.0
 16
1.0
 26
0.0
 36
0.0
 17
0.0
 27
1.0
 37
0.0
 76
     0
330
1B
  0
LAYOUT
  5
26
102
{ACAD_REACTORS
330
1A
102
}
330
1A
100
AcDbPlotSettings
  1

  2
none_device
  4

  6

 40
0.0
 41
0.0
 42
0.0
 43
0.0
 44
0.0
 45
0.0
 46
0.0
 47
0.0
 48
0.0
 49
0.0
140
0.0
141
0.0
142
1.0
143
1.0
 70
   688
 72
     0
 73
     0
 74
     5
  7

 75
    16
147
1.0
148
0.0
149
0.0
100
AcDbLayout
  1
Layout2
 70
     1
 71
     2
 10
0.0
 20
0.0
 11
0.0
 21
0.0
 12
0.0
 22
0.0
 32
0.0
 14
0.0
 24
0.0
 34
0.0
 15
0.0
 25
0.0
 35
0.0
146
0.0
 13
0.0
 23
0.0
 33
0.0
 16
1.0
 26
0.0
 36
0.0
 17
0.0
 27
1.0
 37
0.0
 76
     0
330
23
  0
LAYOUT
  5
22
102
{ACAD_REACTORS
330
1A
102
}
330
1A
100
AcDbPlotSettings
  1

  2
none_device
  4

  6

 40
0.0
 41
0.0
 42
0.0
 43
0.0
 44
0.0
 45
0.0
 46
0.0
 47
0.0
 48
0.0
 49
0.0
140
0.0
141
0.0
142
1.0
143
1.0
 70
  1712
 72
     0
 73
     0
 74
     0
  7

 75
     0
147
1.0
148
0.0
149
0.0
100
AcDbLayout
  1
Model
 70
     1
 71
     0
 10
-247.953674
 20
77.106239
 11
638.054688
 21
558.278748
 12
0.0
 22
0.0
 32
0.0
 14
-247.953674
 24
77.106239
 34
0.0
 15
638.054688
 25
558.278748
 35
0.0
146
0.0
 13
0.0
 23
0.0
 33
0.0
 16
1.0
 26
0.0
 36
0.0
 17
0.0
 27
1.0
 37
0.0
 76
     0
330
1F
331
29
  0
MLINESTYLE
  5
18
102
{ACAD_REACTORS
330
17
102
}
330
17
100
AcDbMlineStyle
  2
Standard
 70
     0
  3

 62
   256
 51
90.0
 52
90.0
 71
     2
 49
0.5
 62
   256
  6
BYLAYER
 49
-0.5
 62
   256
  6
BYLAYER
  0
ACDBPLACEHOLDER
  5
F
102
{ACAD_REACTORS
330
E
102
}
330
E
  0
VISUALSTYLE
  5
2F
102
{ACAD_REACTORS
330
2A
102
}
330
2A
100
AcDbVisualStyle
  2
2dWireframe
 70
     4
 71
     0
 72
     2
 73
     0
 90
        0
 40
-0.6
 41
-30.0
 62
     5
 63
     7
 74
     1
 91
        4
 64
     7
 65
   257
 75
     1
175
     1
 42
1.0
 92
        0
 66
   257
 43
1.0
 76
     1
 77
     6
 78
     2
 67
     7
 79
     5
170
     0
171
     0
290
     0
174
     0
 93
        1
 44
0.0
173
     0
291
     0
 45
0.0
1001
ACAD
1000
AcDbSavedByObjectVersion
1070
     0
  0
VISUALSTYLE
  5
31
102
{ACAD_REACTORS
330
2A
102
}
330
2A
100
AcDbVisualStyle
  2
3D Hidden
 70
     6
 71
     1
 72
     2
 73
     2
 90
        0
 40
-0.6
 41
-30.0
 62
     5
 63
     7
 74
     2
 91
        2
 64
     7
 65
   257
 75
     2
175
     1
 42
40.0
 92
        0
 66
   257
 43
1.0
 76
     1
 77
     6
 78
     2
 67
     7
 79
     3
170
     0
171
     0
290
     0
174
     0
 93
        1
 44
0.0
173
     0
291
     0
 45
0.0
1001
ACAD
1000
AcDbSavedByObjectVersion
1070
     0
  0
VISUALSTYLE
  5
30
102
{ACAD_REACTORS
330
2A
102
}
330
2A
100
AcDbVisualStyle
  2
3dWireframe
 70
     5
 71
     0
 72
     2
 73
     0
 90
        0
 40
-0.6
 41
-30.0
 62
     5
 63
     7
 74
     1
 91
        4
 64
     7
 65
   257
 75
     1
175
     1
 42
1.0
 92
        0
 66
   257
 43
1.0
 76
     1
 77
     6
 78
     2
 67
     7
 79
     5
170
     0
171
     0
290
     0
174
     0
 93
        1
 44
0.0
173
     0
291
     0
 45
0.0
1001
ACAD
1000
AcDbSavedByObjectVersion
1070
     0
  0
VISUALSTYLE
  5
32
102
{ACAD_REACTORS
330
2A
102
}
330
2A
100
AcDbVisualStyle
  2
Basic
 70
     7
 71
     1
 72
     0
 73
     1
 90
        0
 40
-0.6
 41
-30.0
 62
     5
 63
     7
 74
     0
 91
        4
 64
     7
 65
   257
 75
     1
175
     1
 42
1.0
 92
        8
 66
     7
 43
1.0
 76
     1
 77
     6
 78
     2
 67
     7
 79
     5
170
     0
171
     0
290
     0
174
     0
 93
        1
 44
0.0
173
     0
291
     1
 45
0.0
1001
ACAD
1000
AcDbSavedByObjectVersion
1070
     0
  0
VISUALSTYLE
  5
36
102
{ACAD_REACTORS
330
2A
102
}
330
2A
100
AcDbVisualStyle
  2
Brighten
 70
    12
 71
     2
 72
     2
 73
     0
 90
        0
 40
-0.6
 41
-30.0
 62
     5
 63
     7
 74
     1
 91
        4
 64
     7
 65
   257
 75
     1
175
     1
 42
1.0
 92
        8
 66
     7
 43
1.0
 76
     1
 77
     6
 78
     2
 67
     7
 79
     5
170
     0
171
     0
290
     0
174
     0
 93
        1
 44
50.0
173
     0
291
     1
 45
0.0
1001
ACAD
1000
AcDbSavedByObjectVersion
1070
     0
  0
VISUALSTYLE
  5
3A
102
{ACAD_REACTORS
330
2A
102
}
330
2A
100
AcDbVisualStyle
  2
ColorChange
 70
    16
 71
     2
 72
     2
 73
     3
 90
        0
 40
-0.6
 41
-30.0
 62
     5
 63
     8
 74
     1
 91
        4
 64
     7
 65
   257
 75
     1
175
     1
 42
1.0
 92
        8
 66
     8
 43
1.0
 76
     1
 77
     6
 78
     2
 67
     7
 79
     5
170
     0
171
     0
290
     0
174
     0
 93
        1
 44
0.0
173
     0
291
     1
 45
0.0
1001
ACAD
1000
AcDbSavedByObjectVersion
1070
     0
  0
VISUALSTYLE
  5
34
102
{ACAD_REACTORS
330
2A
102
}
330
2A
100
AcDbVisualStyle
  2
Conceptual
 70
     9
 71
     3
 72
     2
 73
     0
 90
        0
 40
-0.6
 41
-30.0
 62
     5
 63
     7
 74
     2
 91
        2
 64
     7
 65
   257
 75
     1
175
     1
 42
40.0
 92
        8
 66
     7
 43
1.0
 76
     1
 77
     6
 78
     2
 67
     7
 79
     3
170
     0
171
     0
290
     0
174
     0
 93
        1
 44
0.0
173
     0
291
     0
 45
0.0
1001
ACAD
1000
AcDbSavedByObjectVersion
1070
     0
  0
VISUALSTYLE
  5
35
102
{ACAD_REACTORS
330
2A
102
}
330
2A
100
AcDbVisualStyle
  2
Dim
 70
    11
 71
     2
 72
     2
 73
     0
 90
        0
 40
-0.6
 41
-30.0
 62
     5
 63
     7
 74
     1
 91
        4
 64
     7
 65
   257
 75
     1
175
     1
 42
1.0
 92
        8
 66
     7
 43
1.0
 76
     1
 77
     6
 78
     2
 67
     7
 79
     5
170
     0
171
     0
290
     0
174
     0
 93
        1
 44
-50.0
173
     0
291
     1
 45
0.0
1001
ACAD
1000
AcDbSavedByObjectVersion
1070
     0
  0
VISUALSTYLE
  5
39
102
{ACAD_REACTORS
330
2A
102
}
330
2A
100
AcDbVisualStyle
  2
Facepattern
 70
    15
 71
     2
 72
     2
 73
     0
 90
        0
 40
-0.6
 41
-30.0
 62
     5
 63
     7
 74
     1
 91
        4
 64
     7
 65
   257
 75
     1
175
     1
 42
1.0
 92
        8
 66
     7
 43
1.0
 76
     1
 77
     6
 78
     2
 67
     7
 79
     5
170
     0
171
     0
290
     0
174
     0
 93
        1
 44
0.0
173
     0
291
     1
 45
0.0
1001
ACAD
1000
AcDbSavedByObjectVersion
1070
     0
  0
VISUALSTYLE
  5
2B
102
{ACAD_REACTORS
330
2A
102
}
330
2A
100
AcDbVisualStyle
  2
Flat
 70
     0
 71
     2
 72
     1
 73
     1
 90
        2
 40
-0.6
 41
30.0
 62
     5
 63
     7
 74
     0
 91
        4
 64
     7
 65
   257
 75
     1
175
     1
 42
1.0
 92
        8
 66
     7
 43
1.0
 76
     1
 77
     6
 78
     2
 67
     7
 79
     5
170
     0
171
     0
290
     0
174
     0
 93
       13
 44
0.0
173
     0
291
     1
 45
0.0
1001
ACAD
1000
AcDbSavedByObjectVersion
1070
     0
  0
VISUALSTYLE
  5
2C
102
{ACAD_REACTORS
330
2A
102
}
330
2A
100
AcDbVisualStyle
  2
FlatWithEdges
 70
     1
 71
     2
 72
     1
 73
     1
 90
        2
 40
-0.6
 41
30.0
 62
     5
 63
     7
 74
     1
 91
        4
 64
     7
 65
   257
 75
     1
175
     1
 42
1.0
 92
        0
 66
   257
 43
1.0
 76
     1
 77
     6
 78
     2
 67
     7
 79
     5
170
     0
171
     0
290
     0
174
     0
 93
       13
 44
0.0
173
     0
291
     1
 45
0.0
1001
ACAD
1000
AcDbSavedByObjectVersion
1070
     0
  0
VISUALSTYLE
  5
2D
102
{ACAD_REACTORS
330
2A
102
}
330
2A
100
AcDbVisualStyle
  2
Gouraud
 70
     2
 71
     2
 72
     2
 73
     1
 90
        2
 40
-0.6
 41
30.0
 62
     5
 63
     7
 74
     0
 91
        4
 64
     7
 65
   257
 75
     1
175
     1
 42
1.0
 92
        0
 66
     7
 43
1.0
 76
     1
 77
     6
 78
     2
 67
     7
 79
     5
170
     0
171
     0
290
     0
174
     0
 93
       13
 44
0.0
173
     0
291
     1
 45
0.0
1001
ACAD
1000
AcDbSavedByObjectVersion
1070
     0
  0
VISUALSTYLE
  5
2E
102
{ACAD_REACTORS
330
2A
102
}
330
2A
100
AcDbVisualStyle
  2
GouraudWithEdges
 70
     3
 71
     2
 72
     2
 73
     1
 90
        2
 40
-0.6
 41
30.0
 62
     5
 63
     7
 74
     1
 91
        4
 64
     7
 65
   257
 75
     1
175
     1
 42
1.0
 92
        0
 66
   257
 43
1.0
 76
     1
 77
     6
 78
     2
 67
     7
 79
     5
170
     0
171
     0
290
     0
174
     0
 93
       13
 44
0.0
173
     0
291
     1
 45
0.0
1001
ACAD
1000
AcDbSavedByObjectVersion
1070
     0
  0
VISUALSTYLE
  5
38
102
{ACAD_REACTORS
330
2A
102
}
330
2A
100
AcDbVisualStyle
  2
Linepattern
 70
    14
 71
     2
 72
     2
 73
     0
 90
        0
 40
-0.6
 41
-30.0
 62
     5
 63
     7
 74
     1
 91
        4
 64
     7
 65
   257
 75
     7
175
     7
 42
1.0
 92
        8
 66
     7
 43
1.0
 76
     1
 77
     6
 78
     2
 67
     7
 79
     5
170
     0
171
     0
290
     0
174
     0
 93
        1
 44
0.0
173
     0
291
     1
 45
0.0
1001
ACAD
1000
AcDbSavedByObjectVersion
1070
     0
  0
VISUALSTYLE
  5
33
102
{ACAD_REACTORS
330
2A
102
}
330
2A
100
AcDbVisualStyle
  2
Realistic
 70
     8
 71
     2
 72
     2
 73
     0
 90
        0
 40
-0.6
 41
-30.0
 62
     5
 63
     7
 74
     1
 91
        0
 64
     7
 65
   257
 75
     1
175
     1
 42
1.0
 92
        8
 66
     8
 43
1.0
 76
     1
 77
     6
 78
     2
 67
     7
 79
     5
170
     0
171
     0
290
     0
174
     0
 93
       13
 44
0.0
173
     0
291
     0
 45
0.0
1001
ACAD
1000
AcDbSavedByObjectVersion
1070
     0
  0
VISUALSTYLE
  5
37
102
{ACAD_REACTORS
330
2A
102
}
330
2A
100
AcDbVisualStyle
  2
Thicken
 70
    13
 71
     2
 72
     2
 73
     0
 90
        0
 40
-0.6
 41
-30.0
 62
     5
 63
     7
 74
     1
 91
        4
 64
     7
 65
   257
 75
     1
175
     1
 42
1.0
 92
       12
 66
     7
 43
1.0
 76
     1
 77
     6
 78
     2
 67
     7
 79
     5
170
     0
171
     0
290
     0
174
     0
 93
        1
 44
0.0
173
     0
291
     1
 45
0.0
1001
ACAD
1000
AcDbSavedByObjectVersion
1070
     0
  0
DICTIONARYVAR
  5
1A0
102
{ACAD_REACTORS
330
19C
102
}
330
19C
100
DictionaryVariables
280
     0
  1
80.000000
  0
DICTIONARYVAR
  5
19F
102
{ACAD_REACTORS
330
19C
102
}
330
19C
100
DictionaryVariables
280
     0
  1
5.000000
  0
ENDSEC
  0
EOF
