  0
SECTION
  2
HEADER
  9
$ACADVER
  1
AC1015
  9
$ACADMAINTVER
 70
     6
  9
$DWGCODEPAGE
  3
ANSI_1252
  9
$INSBASE
 10
0.0
 20
0.0
 30
0.0
  9
$EXTMIN
 10
-91.192642
 20
81.652565
 30
0.0
  9
$EXTMAX
 10
818.949097
 20
799.732422
 30
0.0
  9
$LIMMIN
 10
-91.192642
 20
81.652565
  9
$LIMMAX
 10
818.949097
 20
799.732422
  9
$ORTHOMODE
 70
     0
  9
$REGENMODE
 70
     1
  9
$FILLMODE
 70
     1
  9
$QTEXTMODE
 70
     0
  9
$MIRRTEXT
 70
     1
  9
$LTSCALE
 40
1.0
  9
$ATTMODE
 70
     1
  9
$TEXTSIZE
 40
2.5
  9
$TRACEWID
 40
1.0
  9
$TEXTSTYLE
  7
Standard
  9
$CLAYER
  8
0
  9
$CELTYPE
  6
ByLayer
  9
$CECOLOR
 62
   256
  9
$CELTSCALE
 40
1.0
  9
$DISPSILH
 70
     0
  9
$DIMSCALE
 40
1.0
  9
$DIMASZ
 40
2.5
  9
$DIMEXO
 40
0.625
  9
$DIMDLI
 40
3.75
  9
$DIMRND
 40
0.0
  9
$DIMDLE
 40
0.0
  9
$DIMEXE
 40
1.25
  9
$DIMTP
 40
0.0
  9
$DIMTM
 40
0.0
  9
$DIMTXT
 40
2.5
  9
$DIMCEN
 40
2.5
  9
$DIMTSZ
 40
0.0
  9
$DIMTOL
 70
     0
  9
$DIMLIM
 70
     0
  9
$DIMTIH
 70
     0
  9
$DIMTOH
 70
     0
  9
$DIMSE1
 70
     0
  9
$DIMSE2
 70
     0
  9
$DIMTAD
 70
     1
  9
$DIMZIN
 70
     8
  9
$DIMBLK
  1

  9
$DIMASO
 70
     1
  9
$DIMSHO
 70
     1
  9
$DIMPOST
  1

  9
$DIMAPOST
  1

  9
$DIMALT
 70
     0
  9
$DIMALTD
 70
     3
  9
$DIMALTF
 40
0.03937
  9
$DIMLFAC
 40
1.0
  9
$DIMTOFL
 70
     1
  9
$DIMTVP
 40
0.0
  9
$DIMTIX
 70
     0
  9
$DIMSOXD
 70
     0
  9
$DIMSAH
 70
     0
  9
$DIMBLK1
  1

  9
$DIMBLK2
  1

  9
$DIMSTYLE
  2
ISO-25
  9
$DIMCLRD
 70
     0
  9
$DIMCLRE
 70
     0
  9
$DIMCLRT
 70
     0
  9
$DIMTFAC
 40
1.0
  9
$DIMGAP
 40
0.625
  9
$DIMJUST
 70
     0
  9
$DIMSD1
 70
     0
  9
$DIMSD2
 70
     0
  9
$DIMTOLJ
 70
     0
  9
$DIMTZIN
 70
     8
  9
$DIMALTZ
 70
     0
  9
$DIMALTTZ
 70
     0
  9
$DIMUPT
 70
     0
  9
$DIMDEC
 70
     2
  9
$DIMTDEC
 70
     2
  9
$DIMALTU
 70
     2
  9
$DIMALTTD
 70
     3
  9
$DIMTXSTY
  7
Standard
  9
$DIMAUNIT
 70
     0
  9
$DIMADEC
 70
     0
  9
$DIMALTRND
 40
0.0
  9
$DIMAZIN
 70
     0
  9
$DIMDSEP
 70
    44
  9
$DIMATFIT
 70
     3
  9
$DIMFRAC
 70
     0
  9
$DIMLDRBLK
  1

  9
$DIMLUNIT
 70
     2
  9
$DIMLWD
 70
    -2
  9
$DIMLWE
 70
    -2
  9
$DIMTMOVE
 70
     0
  9
$LUNITS
 70
     2
  9
$LUPREC
 70
     4
  9
$SKETCHINC
 40
1.0
  9
$FILLETRAD
 40
10.0
  9
$AUNITS
 70
     0
  9
$AUPREC
 70
     0
  9
$MENU
  1
.
  9
$ELEVATION
 40
0.0
  9
$PELEVATION
 40
0.0
  9
$THICKNESS
 40
0.0
  9
$LIMCHECK
 70
     0
  9
$CHAMFERA
 40
10.0
  9
$CHAMFERB
 40
10.0
  9
$CHAMFERC
 40
20.0
  9
$CHAMFERD
 40
0.0
  9
$SKPOLY
 70
     0
  9
$TDCREATE
 40
2455903.621976945
  9
$TDUCREATE
 40
2455903.580310278
  9
$TDUPDATE
 40
2455903.621976956
  9
$TDUUPDATE
 40
2455903.580310289
  9
$TDINDWG
 40
0.0000000116
  9
$TDUSRTIMER
 40
0.0000000116
  9
$USRTIMER
 70
     1
  9
$ANGBASE
 50
0.0
  9
$ANGDIR
 70
     0
  9
$PDMODE
 70
     0
  9
$PDSIZE
 40
0.0
  9
$PLINEWID
 40
0.0
  9
$SPLFRAME
 70
     0
  9
$SPLINETYPE
 70
     6
  9
$SPLINESEGS
 70
     8
  9
$HANDSEED
  5
1A1
  9
$SURFTAB1
 70
     6
  9
$SURFTAB2
 70
     6
  9
$SURFTYPE
 70
     6
  9
$SURFU
 70
     6
  9
$SURFV
 70
     6
  9
$UCSBASE
  2

  9
$UCSNAME
  2

  9
$UCSORG
 10
0.0
 20
0.0
 30
0.0
  9
$UCSXDIR
 10
1.0
 20
0.0
 30
0.0
  9
$UCSYDIR
 10
0.0
 20
1.0
 30
0.0
  9
$UCSORTHOREF
  2

  9
$UCSORTHOVIEW
 70
     0
  9
$UCSORGTOP
 10
0.0
 20
0.0
 30
0.0
  9
$UCSORGBOTTOM
 10
0.0
 20
0.0
 30
0.0
  9
$UCSORGLEFT
 10
0.0
 20
0.0
 30
0.0
  9
$UCSORGRIGHT
 10
0.0
 20
0.0
 30
0.0
  9
$UCSORGFRONT
 10
0.0
 20
0.0
 30
0.0
  9
$UCSORGBACK
 10
0.0
 20
0.0
 30
0.0
  9
$PUCSBASE
  2

  9
$PUCSNAME
  2

  9
$PUCSORG
 10
0.0
 20
0.0
 30
0.0
  9
$PUCSXDIR
 10
1.0
 20
0.0
 30
0.0
  9
$PUCSYDIR
 10
0.0
 20
1.0
 30
0.0
  9
$PUCSORTHOREF
  2

  9
$PUCSORTHOVIEW
 70
     0
  9
$PUCSORGTOP
 10
0.0
 20
0.0
 30
0.0
  9
$PUCSORGBOTTOM
 10
0.0
 20
0.0
 30
0.0
  9
$PUCSORGLEFT
 10
0.0
 20
0.0
 30
0.0
  9
$PUCSORGRIGHT
 10
0.0
 20
0.0
 30
0.0
  9
$PUCSORGFRONT
 10
0.0
 20
0.0
 30
0.0
  9
$PUCSORGBACK
 10
0.0
 20
0.0
 30
0.0
  9
$USERI1
 70
     0
  9
$USERI2
 70
     0
  9
$USERI3
 70
     0
  9
$USERI4
 70
     0
  9
$USERI5
 70
     0
  9
$USERR1
 40
0.0
  9
$USERR2
 40
0.0
  9
$USERR3
 40
0.0
  9
$USERR4
 40
0.0
  9
$USERR5
 40
0.0
  9
$WORLDVIEW
 70
     1
  9
$SHADEDGE
 70
     3
  9
$SHADEDIF
 70
    70
  9
$TILEMODE
 70
     1
  9
$MAXACTVP
 70
    64
  9
$PINSBASE
 10
0.0
 20
0.0
 30
0.0
  9
$PLIMCHECK
 70
     0
  9
$PEXTMIN
 10
1.000000E+20
 20
1.000000E+20
 30
1.000000E+20
  9
$PEXTMAX
 10
-1.000000E+20
 20
-1.000000E+20
 30
-1.000000E+20
  9
$PLIMMIN
 10
0.0
 20
0.0
  9
$PLIMMAX
 10
420.0
 20
297.0
  9
$UNITMODE
 70
     0
  9
$VISRETAIN
 70
     1
  9
$PLINEGEN
 70
     0
  9
$PSLTSCALE
 70
     1
  9
$TREEDEPTH
 70
  3020
  9
$CMLSTYLE
  2
Standard
  9
$CMLJUST
 70
     0
  9
$CMLSCALE
 40
20.0
  9
$PROXYGRAPHICS
 70
     1
  9
$MEASUREMENT
 70
     1
  9
$CELWEIGHT
370
    -1
  9
$ENDCAPS
280
     0
  9
$JOINSTYLE
280
     0
  9
$LWDISPLAY
290
     0
  9
$INSUNITS
 70
     4
  9
$HYPERLINKBASE
  1

  9
$STYLESHEET
  1

  9
$XEDIT
290
     1
  9
$CEPSNTYPE
380
     0
  9
$PSTYLEMODE
290
     1
  9
$FINGERPRINTGUID
  2
{6D9464EF-4A3C-43FC-8AD2-7237732A7A75}
  9
$VERSIONGUID
  2
{FAEB1C32-E019-11D5-929B-00C0DF256EC4}
  9
$EXTNAMES
290
     1
  9
$PSVPSCALE
 40
0.0
  9
$OLESTARTUP
290
     0
  0
ENDSEC
  0
SECTION
  2
CLASSES
  0
CLASS
  1
ACDBDICTIONARYWDFLT
  2
AcDbDictionaryWithDefault
  3
ObjectDBX Classes
 90
        0
280
     0
281
     0
  0
CLASS
  1
VISUALSTYLE
  2
AcDbVisualStyle
  3
ObjectDBX Classes
 90
     4095
280
     0
281
     0
  0
CLASS
  1
DICTIONARYVAR
  2
AcDbDictionaryVar
  3
ObjectDBX Classes
 90
        0
280
     0
281
     0
  0
CLASS
  1
ACDBPLACEHOLDER
  2
AcDbPlaceHolder
  3
ObjectDBX Classes
 90
        0
280
     0
281
     0
  0
CLASS
  1
LAYOUT
  2
AcDbLayout
  3
ObjectDBX Classes
 90
        0
280
     0
281
     0
  0
ENDSEC
  0
SECTION
  2
TABLES
  0
TABLE
  2
VPORT
  5
8
330
0
100
AcDbSymbolTable
 70
     1
  0
VPORT
  5
29
330
8
100
AcDbSymbolTableRecord
100
AcDbViewportTableRecord
  2
*Active
 70
     0
 10
0.0
 20
0.0
 11
1.0
 21
1.0
 12
344.186916
 22
148.5
 13
0.0
 23
0.0
 14
10.0
 24
10.0
 15
10.0
 25
10.0
 16
0.0
 26
0.0
 36
1.0
 17
0.0
 27
0.0
 37
0.0
 40
297.0
 41
1.972973
 42
50.0
 43
0.0
 44
0.0
 50
0.0
 51
0.0
 71
     0
 72
   100
 73
     1
 74
     3
 75
     0
 76
     0
 77
     0
 78
     0
281
     0
 65
     1
110
0.0
120
0.0
130
0.0
111
1.0
121
0.0
131
0.0
112
0.0
122
1.0
132
0.0
 79
     0
146
0.0
  0
ENDTAB
  0
TABLE
  2
LTYPE
  5
5
330
0
100
AcDbSymbolTable
 70
     1
  0
LTYPE
  5
14
330
5
100
AcDbSymbolTableRecord
100
AcDbLinetypeTableRecord
  2
ByBlock
 70
     0
  3

 72
    65
 73
     0
 40
0.0
  0
LTYPE
  5
15
330
5
100
AcDbSymbolTableRecord
100
AcDbLinetypeTableRecord
  2
ByLayer
 70
     0
  3

 72
    65
 73
     0
 40
0.0
  0
LTYPE
  5
16
330
5
100
AcDbSymbolTableRecord
100
AcDbLinetypeTableRecord
  2
Continuous
 70
     0
  3
Solid line
 72
    65
 73
     0
 40
0.0
  0
ENDTAB
  0
TABLE
  2
LAYER
  5
2
330
0
100
AcDbSymbolTable
 70
     1
  0
LAYER
  5
10
330
2
100
AcDbSymbolTableRecord
100
AcDbLayerTableRecord
  2
0
 70
     0
 62
   106
  6
Continuous
370
     0
390
F
  0
ENDTAB
  0
TABLE
  2
STYLE
  5
3
330
0
100
AcDbSymbolTable
 70
     4
  0
STYLE
  5
11
330
3
100
AcDbSymbolTableRecord
100
AcDbTextStyleTableRecord
  2
Standard
 70
     0
 40
0.0
 41
1.0
 50
0.0
 71
     0
 42
2.5
  3
txt
  4

  0
STYLE
  5
3B
330
3
100
AcDbSymbolTableRecord
100
AcDbTextStyleTableRecord
  2
Default
 70
     0
 40
0.0
 41
1.0
 50
0.0
 71
     0
 42
0.2
  3

  4

1001
ACAD
1000
txt
1071
        0
  0
STYLE
  5
3C
330
3
100
AcDbSymbolTableRecord
100
AcDbTextStyleTableRecord
  2
ISO
 70
     0
 40
0.0
 41
1.0
 50
0.0
 71
     0
 42
0.2
  3

  4

1001
ACAD
1000
txt
1071
        0
  0
STYLE
  5
3D
330
3
100
AcDbSymbolTableRecord
100
AcDbTextStyleTableRecord
  2
GIANLU
 70
     0
 40
0.0
 41
1.0
 50
0.0
 71
     0
 42
0.2
  3

  4

1001
ACAD
1000
Arial
1071
        0
  0
ENDTAB
  0
TABLE
  2
VIEW
  5
6
330
0
100
AcDbSymbolTable
 70
     0
  0
ENDTAB
  0
TABLE
  2
UCS
  5
7
330
0
100
AcDbSymbolTable
 70
     0
  0
ENDTAB
  0
TABLE
  2
APPID
  5
9
330
0
100
AcDbSymbolTable
 70
     1
  0
APPID
  5
12
330
9
100
AcDbSymbolTableRecord
100
AcDbRegAppTableRecord
  2
ACAD
 70
     0
  0
ENDTAB
  0
TABLE
  2
DIMSTYLE
  5
A
330
0
100
AcDbSymbolTable
 70
     4
100
AcDbDimStyleTable
  0
DIMSTYLE
105
27
330
A
100
AcDbSymbolTableRecord
100
AcDbDimStyleTableRecord
  2
ISO-25
 70
     0
 41
2.5
 42
0.625
 43
3.75
 44
1.25
 73
     0
 74
     0
 77
     1
 78
     8
140
2.5
141
2.5
143
0.03937
147
0.625
171
     3
172
     1
271
     2
272
     2
274
     3
278
    44
283
     0
284
     8
340
11
  0
DIMSTYLE
105
3E
330
A
100
AcDbSymbolTableRecord
100
AcDbDimStyleTableRecord
  2
Default
 70
     0
  3
<>
 41
4.375
 42
1.05
 44
2.1
 73
     0
 74
     0
 77
     1
 78
     8
140
3.5
146
0.4
147
1.75
178
     3
271
     2
272
     3
284
     8
340
3B
341
3F
342
3F
  0
DIMSTYLE
105
46
330
A
100
AcDbSymbolTableRecord
100
AcDbDimStyleTableRecord
  2
ISO
 70
     0
  3
<>
 41
4.375
 42
1.05
 44
2.1
 73
     0
 74
     0
 77
     1
 78
     8
140
3.5
146
0.4
147
1.75
178
     3
271
     2
272
     3
284
     8
340
3C
341
3F
342
3F
  0
DIMSTYLE
105
47
330
A
100
AcDbSymbolTableRecord
100
AcDbDimStyleTableRecord
  2
zucchetti_unico
 70
     0
  3
<>
 41
3.0
 42
0.9
 44
1.8
 73
     0
 74
     0
 77
     1
 78
     8
140
3.0
146
0.6
147
1.5
176
   104
177
     3
178
     3
271
     2
272
     2
284
     8
340
3D
  0
ENDTAB
  0
TABLE
  2
BLOCK_RECORD
  5
1
330
0
100
AcDbSymbolTable
 70
     6
  0
BLOCK_RECORD
  5
1F
330
1
100
AcDbSymbolTableRecord
100
AcDbBlockTableRecord
  2
*Model_Space
340
22
  0
BLOCK_RECORD
  5
1B
330
1
100
AcDbSymbolTableRecord
100
AcDbBlockTableRecord
  2
*Paper_Space
340
1E
  0
BLOCK_RECORD
  5
23
330
1
100
AcDbSymbolTableRecord
100
AcDbBlockTableRecord
  2
*Paper_Space0
340
26
  0
BLOCK_RECORD
  5
3F
330
1
100
AcDbSymbolTableRecord
100
AcDbBlockTableRecord
  2
_CLOSED
340
0
  0
BLOCK_RECORD
  5
48
330
1
100
AcDbSymbolTableRecord
100
AcDbBlockTableRecord
  2
a
340
0
102
{BLKREFS
331
A3
102
}
  0
BLOCK_RECORD
  5
A4
330
1
100
AcDbSymbolTableRecord
100
AcDbBlockTableRecord
  2
b
340
0
102
{BLKREFS
331
E9
102
}
  0
BLOCK_RECORD
  5
EA
330
1
100
AcDbSymbolTableRecord
100
AcDbBlockTableRecord
  2
c
340
0
102
{BLKREFS
331
142
102
}
  0
BLOCK_RECORD
  5
143
330
1
100
AcDbSymbolTableRecord
100
AcDbBlockTableRecord
  2
e
340
0
102
{BLKREFS
331
19B
102
}
  0
ENDTAB
  0
ENDSEC
  0
SECTION
  2
BLOCKS
  0
BLOCK
  5
20
330
1F
100
AcDbEntity
  8
0
100
AcDbBlockBegin
  2
*Model_Space
 70
     0
 10
0.0
 20
0.0
 30
0.0
  3
*Model_Space
  1

  0
ENDBLK
  5
21
330
1F
100
AcDbEntity
  8
0
100
AcDbBlockEnd
  0
BLOCK
  5
1C
330
1B
100
AcDbEntity
 67
     1
  8
0
100
AcDbBlockBegin
  2
*Paper_Space
 70
     0
 10
0.0
 20
0.0
 30
0.0
  3
*Paper_Space
  1

  0
ENDBLK
  5
1D
330
1B
100
AcDbEntity
 67
     1
  8
0
100
AcDbBlockEnd
  0
BLOCK
  5
24
330
23
100
AcDbEntity
  8
0
100
AcDbBlockBegin
  2
*Paper_Space0
 70
     0
 10
0.0
 20
0.0
 30
0.0
  3
*Paper_Space0
  1

  0
ENDBLK
  5
25
330
23
100
AcDbEntity
  8
0
100
AcDbBlockEnd
  0
BLOCK
  5
40
330
3F
100
AcDbEntity
  8
0
100
AcDbBlockBegin
  2
_CLOSED
 70
     0
 10
0.0
 20
0.0
 30
0.0
  3
_CLOSED
  1

  0
LINE
  5
42
330
3F
100
AcDbEntity
  8
0
  6
ByBlock
 62
     0
370
    -2
100
AcDbLine
 10
-1.0
 20
0.166667
 30
0.0
 11
0.0
 21
0.0
 31
0.0
  0
LINE
  5
43
330
3F
100
AcDbEntity
  8
0
  6
ByBlock
 62
     0
370
    -2
100
AcDbLine
 10
0.0
 20
0.0
 30
0.0
 11
-1.0
 21
-0.166667
 31
0.0
  0
LINE
  5
44
330
3F
100
AcDbEntity
  8
0
  6
ByBlock
 62
     0
370
    -2
100
AcDbLine
 10
-1.0
 20
0.166667
 30
0.0
 11
-1.0
 21
-0.166667
 31
0.0
  0
LINE
  5
45
330
3F
100
AcDbEntity
  8
0
  6
ByBlock
 62
     0
370
    -2
100
AcDbLine
 10
0.0
 20
0.0
 30
0.0
 11
-1.0
 21
0.0
 31
0.0
  0
ENDBLK
  5
41
330
3F
100
AcDbEntity
  8
0
100
AcDbBlockEnd
  0
BLOCK
  5
A1
330
48
100
AcDbEntity
  8
0
100
AcDbBlockBegin
  2
a
 70
     0
 10
283.674805
 20
100.441002
 30
0.0
  3
a
  1

  0
LINE
  5
49
330
48
100
AcDbEntity
  8
0
  6
Continuous
 62
     0
370
     0
100
AcDbLine
 10
370.650864
 20
783.8946
 30
0.0
 11
370.650864
 21
764.513
 31
0.0
  0
LINE
  5
4A
330
48
100
AcDbEntity
  8
0
  6
Continuous
 62
     0
370
    30
100
AcDbLine
 10
370.650864
 20
764.513
 30
0.0
 11
371.650864
 21
764.513
 31
0.0
  0
LINE
  5
4B
330
48
100
AcDbEntity
  8
0
  6
Continuous
 62
     0
370
    30
100
AcDbLine
 10
371.650864
 20
764.513
 30
0.0
 11
371.650864
 21
783.8946
 31
0.0
  0
LINE
  5
4C
330
48
100
AcDbEntity
  8
0
  6
Continuous
 62
     0
370
     0
100
AcDbLine
 10
371.650864
 20
783.8946
 30
0.0
 11
370.650864
 21
783.8946
 31
0.0
  0
LINE
  5
4D
330
48
100
AcDbEntity
  8
0
  6
Continuous
 62
     0
370
     0
100
AcDbLine
 10
336.650864
 20
764.513
 30
0.0
 11
336.650864
 21
783.8946
 31
0.0
  0
LINE
  5
4E
330
48
100
AcDbEntity
  8
0
  6
Continuous
 62
     0
370
     0
100
AcDbLine
 10
336.650864
 20
783.8946
 30
0.0
 11
335.650864
 21
783.8946
 31
0.0
  0
LINE
  5
4F
330
48
100
AcDbEntity
  8
0
  6
Continuous
 62
     0
370
    30
100
AcDbLine
 10
335.650864
 20
783.8946
 30
0.0
 11
335.650864
 21
764.513
 31
0.0
  0
LINE
  5
50
330
48
100
AcDbEntity
  8
0
  6
Continuous
 62
     0
370
    30
100
AcDbLine
 10
335.650864
 20
764.513
 30
0.0
 11
336.650864
 21
764.513
 31
0.0
  0
LINE
  5
51
330
48
100
AcDbEntity
  8
0
  6
Continuous
 62
     0
370
    30
100
AcDbLine
 10
336.650864
 20
764.513
 30
0.0
 11
370.650864
 21
764.513
 31
0.0
  0
LINE
  5
52
330
48
100
AcDbEntity
  8
0
  6
Continuous
 62
     0
370
     0
100
AcDbLine
 10
370.650864
 20
783.8946
 30
0.0
 11
336.650864
 21
783.8946
 31
0.0
  0
LINE
  5
53
330
48
100
AcDbEntity
  8
0
  6
Continuous
 62
     0
370
     0
100
AcDbLine
 10
370.650864
 20
788.833041
 30
0.0
 11
370.650864
 21
783.8946
 31
0.0
  0
LINE
  5
54
330
48
100
AcDbEntity
  8
0
  6
Continuous
 62
     0
370
     0
100
AcDbLine
 10
336.650864
 20
788.833041
 30
0.0
 11
370.650864
 21
788.833041
 31
0.0
  0
LINE
  5
55
330
48
100
AcDbEntity
  8
0
  6
Continuous
 62
     0
370
     0
100
AcDbLine
 10
336.650864
 20
783.8946
 30
0.0
 11
336.650864
 21
788.833041
 31
0.0
  0
LINE
  5
56
330
48
100
AcDbEntity
  8
0
  6
Continuous
 62
     0
370
     0
100
AcDbLine
 10
370.650864
 20
788.833041
 30
0.0
 11
370.650865
 21
795.143666
 31
0.0
  0
LWPOLYLINE
  5
57
330
48
100
AcDbEntity
  8
0
  6
Continuous
 62
     0
370
     0
100
AcDbPolyline
 90
        9
 70
     0
 43
0.0
 10
370.650879
 20
795.143677
 10
370.575806
 20
795.264282
 10
370.347687
 20
795.382629
 10
369.975342
 20
795.491638
 10
369.483978
 20
795.585388
 10
368.886566
 20
795.662537
 10
368.191162
 20
795.72113
 10
367.435455
 20
795.757263
 10
366.650879
 20
795.769409
  0
LINE
  5
58
330
48
100
AcDbEntity
  8
0
  6
Continuous
 62
     0
370
     0
100
AcDbLine
 10
366.650865
 20
795.769404
 30
0.0
 11
340.650865
 21
795.769404
 31
0.0
  0
LWPOLYLINE
  5
59
330
48
100
AcDbEntity
  8
0
  6
Continuous
 62
     0
370
     0
100
AcDbPolyline
 90
        9
 70
     0
 43
0.0
 10
340.650879
 20
795.769409
 10
339.879669
 20
795.75769
 10
339.123322
 20
795.721985
 10
338.426483
 20
795.663757
 10
337.827118
 20
795.586853
 10
337.334015
 20
795.493408
 10
336.95932
 20
795.384644
 10
336.728577
 20
795.266418
 10
336.650879
 20
795.143677
  0
LINE
  5
5A
330
48
100
AcDbEntity
  8
0
  6
Continuous
 62
     0
370
     0
100
AcDbLine
 10
336.650865
 20
795.143666
 30
0.0
 11
336.650864
 21
788.833041
 31
0.0
  0
LINE
  5
5B
330
48
100
AcDbEntity
  8
0
  6
Continuous
 62
     0
370
     0
100
AcDbLine
 10
366.650865
 20
798.888882
 30
0.0
 11
366.650865
 21
796.913527
 31
0.0
  0
ELLIPSE
  5
5C
330
48
100
AcDbEntity
  8
0
  6
Continuous
 62
     0
370
     0
100
AcDbEllipse
 10
366.650865
 20
796.131354
 30
0.0
 11
-5.0
 21
-1.223376296292651E-8
 31
0.0
210
0.0
220
0.0
230
-1.0
 40
0.156434
 41
1.570796342435651
 42
3.141592669230544
  0
LINE
  5
5D
330
48
100
AcDbEntity
  8
0
  6
Continuous
 62
     0
370
    30
100
AcDbLine
 10
371.650865
 20
796.131354
 30
0.0
 11
371.650865
 21
798.10671
 31
0.0
  0
ELLIPSE
  5
5E
330
48
100
AcDbEntity
  8
0
  6
Continuous
 62
     0
370
     0
100
AcDbEllipse
 10
366.650865
 20
798.10671
 30
0.0
 11
5.0
 21
1.223376296292651E-8
 31
0.0
210
0.0
220
0.0
230
1.0
 40
0.156434
 41
6.283185291538834
 42
7.853981618333725
  0
LINE
  5
5F
330
48
100
AcDbEntity
  8
0
  6
Continuous
 62
     0
370
     0
100
AcDbLine
 10
340.650865
 20
798.888882
 30
0.0
 11
340.650865
 21
796.913527
 31
0.0
  0
LINE
  5
60
330
48
100
AcDbEntity
  8
0
  6
Continuous
 62
     0
370
     0
100
AcDbLine
 10
340.650865
 20
796.913527
 30
0.0
 11
366.650865
 21
796.913527
 31
0.0
  0
LINE
  5
61
330
48
100
AcDbEntity
  8
0
  6
Continuous
 62
     0
370
     0
100
AcDbLine
 10
366.650865
 20
798.888882
 30
0.0
 11
340.650865
 21
798.888882
 31
0.0
  0
LINE
  5
62
330
48
100
AcDbEntity
  8
0
  6
Continuous
 62
     0
370
    30
100
AcDbLine
 10
335.650865
 20
798.10671
 30
0.0
 11
335.650865
 21
796.131354
 31
0.0
  0
ELLIPSE
  5
63
330
48
100
AcDbEntity
  8
0
  6
Continuous
 62
     0
370
     0
100
AcDbEllipse
 10
340.650865
 20
796.131354
 30
0.0
 11
-5.0
 21
-1.223376289267263E-8
 31
0.0
210
0.0
220
0.0
230
-1.0
 40
0.156434
 41
0.0000000156407514
 42
1.570796342435645
  0
ELLIPSE
  5
64
330
48
100
AcDbEntity
  8
0
  6
Continuous
 62
     0
370
     0
100
AcDbEllipse
 10
340.650865
 20
798.10671
 30
0.0
 11
5.0
 21
1.223376289267263E-8
 31
0.0
210
0.0
220
0.0
230
1.0
 40
0.156434
 41
1.570796311154144
 42
3.141592637949042
  0
LINE
  5
65
330
48
100
AcDbEntity
  8
0
  6
Continuous
 62
     0
370
     0
100
AcDbLine
 10
340.650865
 20
798.888882
 30
0.0
 11
340.650865
 21
799.732327
 31
0.0
  0
LINE
  5
66
330
48
100
AcDbEntity
  8
0
  6
Continuous
 62
     0
370
     0
100
AcDbLine
 10
366.650865
 20
798.888882
 30
0.0
 11
366.650865
 21
799.732448
 31
0.0
  0
ARC
  5
67
330
48
100
AcDbEntity
  8
0
  6
Continuous
 62
     0
370
     0
100
AcDbCircle
 10
336.644746
 20
789.826924
 30
0.0
 40
0.9939013694127755
100
AcDbArc
 50
180.357081
 51
270.352685
  0
LINE
  5
68
330
48
100
AcDbEntity
  8
0
  6
Continuous
 62
     0
370
    30
100
AcDbLine
 10
335.650864
 20
789.82073
 30
0.0
 11
335.650864
 21
783.8946
 31
0.0
  0
ELLIPSE
  5
69
330
48
100
AcDbEntity
  8
0
  6
Continuous
 62
     0
370
     0
100
AcDbEllipse
 10
336.650865
 20
796.131354
 30
0.0
 11
0.9999999999999941
 21
-9.753601294458970E-8
 31
0.0
210
0.0
220
0.0
230
-1.0
 40
0.987688
 41
1.570796228043005
 42
3.141592554837809
  0
LINE
  5
6A
330
48
100
AcDbEntity
  8
0
  6
Continuous
 62
     0
370
    30
100
AcDbLine
 10
335.650865
 20
796.131354
 30
0.0
 11
335.650864
 21
789.82073
 31
0.0
  0
LINE
  5
6B
330
48
100
AcDbEntity
  8
0
  6
Continuous
 62
     0
370
     0
100
AcDbLine
 10
340.650865
 20
796.913527
 30
0.0
 11
340.650865
 21
795.769404
 31
0.0
  0
LINE
  5
6C
330
48
100
AcDbEntity
  8
0
  6
Continuous
 62
     0
370
     0
100
AcDbLine
 10
366.650865
 20
795.769404
 30
0.0
 11
366.650865
 21
796.913527
 31
0.0
  0
ARC
  5
6D
330
48
100
AcDbEntity
  8
0
  6
Continuous
 62
     0
370
     0
100
AcDbCircle
 10
370.656983
 20
796.137549
 30
0.0
 40
0.9939013635410965
100
AcDbArc
 50
269.647315
 51
359.642919
  0
ELLIPSE
  5
6E
330
48
100
AcDbEntity
  8
0
  6
Continuous
 62
     0
370
     0
100
AcDbEllipse
 10
370.650864
 20
789.82073
 30
0.0
 11
-0.9999999999999941
 21
9.753601294458973E-8
 31
0.0
210
0.0
220
0.0
230
1.0
 40
0.987688
 41
1.570796425546742
 42
3.141592752341662
  0
LINE
  5
6F
330
48
100
AcDbEntity
  8
0
  6
Continuous
 62
     0
370
    30
100
AcDbLine
 10
371.650864
 20
789.82073
 30
0.0
 11
371.650865
 21
796.131354
 31
0.0
  0
LINE
  5
70
330
48
100
AcDbEntity
  8
0
  6
Continuous
 62
     0
370
    30
100
AcDbLine
 10
371.650864
 20
789.82073
 30
0.0
 11
371.650864
 21
783.8946
 31
0.0
  0
ARC
  5
71
330
48
100
AcDbEntity
  8
0
  6
Continuous
 62
     0
370
     0
100
AcDbCircle
 10
332.48368
 20
761.233677
 30
0.0
 40
30.60509782808935
100
AcDbArc
 50
1.833703
 51
6.151027
  0
LINE
  5
72
330
48
100
AcDbEntity
  8
0
  6
Continuous
 62
     0
370
     0
100
AcDbLine
 10
336.650864
 20
731.471566
 30
0.0
 11
335.650864
 21
731.471566
 31
0.0
  0
LINE
  5
73
330
48
100
AcDbEntity
  8
0
  6
Continuous
 62
     0
370
    30
100
AcDbLine
 10
335.650864
 20
731.471566
 30
0.0
 11
335.650864
 21
497.421566
 31
0.0
  0
LINE
  5
74
330
48
100
AcDbEntity
  8
0
  6
Continuous
 62
     0
370
     0
100
AcDbLine
 10
336.650864
 20
497.421566
 30
0.0
 11
336.650864
 21
731.471566
 31
0.0
  0
LINE
  5
75
330
48
100
AcDbEntity
  8
0
  6
Continuous
 62
     0
370
     0
100
AcDbLine
 10
371.650864
 20
731.471566
 30
0.0
 11
370.650864
 21
731.471566
 31
0.0
  0
LINE
  5
76
330
48
100
AcDbEntity
  8
0
  6
Continuous
 62
     0
370
     0
100
AcDbLine
 10
370.650864
 20
731.471566
 30
0.0
 11
370.650864
 21
497.421566
 31
0.0
  0
LINE
  5
77
330
48
100
AcDbEntity
  8
0
  6
Continuous
 62
     0
370
    30
100
AcDbLine
 10
371.650864
 20
497.421566
 30
0.0
 11
371.650864
 21
731.471566
 31
0.0
  0
LINE
  5
78
330
48
100
AcDbEntity
  8
0
  6
Continuous
 62
     0
370
    30
100
AcDbLine
 10
335.650864
 20
747.221566
 30
0.0
 11
335.650864
 21
761.212998
 31
0.0
  0
LINE
  5
79
330
48
100
AcDbEntity
  8
0
  6
Continuous
 62
     0
370
    30
100
AcDbLine
 10
335.650864
 20
731.471566
 30
0.0
 11
335.650864
 21
747.221566
 31
0.0
  0
LINE
  5
7A
330
48
100
AcDbEntity
  8
0
  6
Continuous
 62
     0
370
     0
100
AcDbLine
 10
340.650864
 20
747.221566
 30
0.0
 11
340.650864
 21
761.212998
 31
0.0
  0
LINE
  5
7B
330
48
100
AcDbEntity
  8
0
  6
Continuous
 62
     0
370
     0
100
AcDbLine
 10
340.650864
 20
761.212998
 30
0.0
 11
335.650864
 21
761.212998
 31
0.0
  0
LINE
  5
7C
330
48
100
AcDbEntity
  8
0
  6
Continuous
 62
     0
370
     0
100
AcDbLine
 10
335.650864
 20
747.221566
 30
0.0
 11
340.650864
 21
747.221566
 31
0.0
  0
LINE
  5
7D
330
48
100
AcDbEntity
  8
0
  6
Continuous
 62
     0
370
     0
100
AcDbLine
 10
366.650864
 20
747.221566
 30
0.0
 11
366.650864
 21
761.212998
 31
0.0
  0
LINE
  5
7E
330
48
100
AcDbEntity
  8
0
  6
Continuous
 62
     0
370
     0
100
AcDbLine
 10
366.650864
 20
761.212998
 30
0.0
 11
340.650864
 21
761.212998
 31
0.0
  0
LINE
  5
7F
330
48
100
AcDbEntity
  8
0
  6
Continuous
 62
     0
370
     0
100
AcDbLine
 10
340.650864
 20
747.221566
 30
0.0
 11
366.650864
 21
747.221566
 31
0.0
  0
LINE
  5
80
330
48
100
AcDbEntity
  8
0
  6
Continuous
 62
     0
370
    30
100
AcDbLine
 10
371.650864
 20
747.221566
 30
0.0
 11
371.650864
 21
761.212998
 31
0.0
  0
LINE
  5
81
330
48
100
AcDbEntity
  8
0
  6
Continuous
 62
     0
370
     0
100
AcDbLine
 10
371.650864
 20
761.212998
 30
0.0
 11
366.650864
 21
761.212998
 31
0.0
  0
LINE
  5
82
330
48
100
AcDbEntity
  8
0
  6
Continuous
 62
     0
370
     0
100
AcDbLine
 10
366.650864
 20
747.221566
 30
0.0
 11
371.650864
 21
747.221566
 31
0.0
  0
LINE
  5
83
330
48
100
AcDbEntity
  8
0
  6
Continuous
 62
     0
370
    30
100
AcDbLine
 10
371.650864
 20
747.221566
 30
0.0
 11
371.650864
 21
731.471566
 31
0.0
  0
LINE
  5
84
330
48
100
AcDbEntity
  8
0
  6
Continuous
 62
     0
370
     0
100
AcDbLine
 10
336.650864
 20
731.471566
 30
0.0
 11
370.650864
 21
731.471566
 31
0.0
  0
LINE
  5
85
330
48
100
AcDbEntity
  8
0
  6
Continuous
 62
     0
370
     0
100
AcDbLine
 10
370.650864
 20
746.221566
 30
0.0
 11
370.650864
 21
731.471566
 31
0.0
  0
LINE
  5
86
330
48
100
AcDbEntity
  8
0
  6
Continuous
 62
     0
370
     0
100
AcDbLine
 10
336.650864
 20
731.471566
 30
0.0
 11
336.650864
 21
746.221566
 31
0.0
  0
ARC
  5
87
330
48
100
AcDbEntity
  8
0
  6
Continuous
 62
     0
370
    30
100
AcDbCircle
 10
370.650864
 20
747.221566
 30
0.0
 40
1.0
100
AcDbArc
 50
270.0
 51
0.0
  0
LINE
  5
88
330
48
100
AcDbEntity
  8
0
  6
Continuous
 62
     0
370
     0
100
AcDbLine
 10
366.650864
 20
746.221566
 30
0.0
 11
366.650864
 21
747.221566
 31
0.0
  0
LINE
  5
89
330
48
100
AcDbEntity
  8
0
  6
Continuous
 62
     0
370
    30
100
AcDbLine
 10
370.650864
 20
746.221566
 30
0.0
 11
366.650864
 21
746.221566
 31
0.0
  0
LINE
  5
8A
330
48
100
AcDbEntity
  8
0
  6
Continuous
 62
     0
370
     0
100
AcDbLine
 10
340.650864
 20
747.221566
 30
0.0
 11
340.650864
 21
746.221566
 31
0.0
  0
LINE
  5
8B
330
48
100
AcDbEntity
  8
0
  6
Continuous
 62
     0
370
    30
100
AcDbLine
 10
340.650864
 20
746.221566
 30
0.0
 11
366.650864
 21
746.221566
 31
0.0
  0
ARC
  5
8C
330
48
100
AcDbEntity
  8
0
  6
Continuous
 62
     0
370
    30
100
AcDbCircle
 10
336.650864
 20
747.221566
 30
0.0
 40
1.00000000000591
100
AcDbArc
 50
180.0
 51
270.0
  0
LINE
  5
8D
330
48
100
AcDbEntity
  8
0
  6
Continuous
 62
     0
370
    30
100
AcDbLine
 10
340.650864
 20
746.221566
 30
0.0
 11
336.650864
 21
746.221566
 31
0.0
  0
ARC
  5
8E
330
48
100
AcDbEntity
  8
0
  6
Continuous
 62
     0
370
    30
100
AcDbCircle
 10
370.650864
 20
761.212998
 30
0.0
 40
0.9999999999999961
100
AcDbArc
 50
0.0
 51
90.0
  0
LINE
  5
8F
330
48
100
AcDbEntity
  8
0
  6
Continuous
 62
     0
370
    30
100
AcDbLine
 10
370.650864
 20
762.212998
 30
0.0
 11
366.650864
 21
762.212998
 31
0.0
  0
LINE
  5
90
330
48
100
AcDbEntity
  8
0
  6
Continuous
 62
     0
370
     0
100
AcDbLine
 10
366.650864
 20
762.212998
 30
0.0
 11
366.650864
 21
761.212998
 31
0.0
  0
LINE
  5
91
330
48
100
AcDbEntity
  8
0
  6
Continuous
 62
     0
370
    30
100
AcDbLine
 10
366.650864
 20
762.212998
 30
0.0
 11
340.650864
 21
762.212998
 31
0.0
  0
LINE
  5
92
330
48
100
AcDbEntity
  8
0
  6
Continuous
 62
     0
370
     0
100
AcDbLine
 10
340.650864
 20
762.212998
 30
0.0
 11
340.650864
 21
761.212998
 31
0.0
  0
LINE
  5
93
330
48
100
AcDbEntity
  8
0
  6
Continuous
 62
     0
370
    30
100
AcDbLine
 10
340.650864
 20
762.212998
 30
0.0
 11
336.650864
 21
762.212998
 31
0.0
  0
ARC
  5
94
330
48
100
AcDbEntity
  8
0
  6
Continuous
 62
     0
370
    30
100
AcDbCircle
 10
336.650864
 20
761.212998
 30
0.0
 40
0.9999999999963602
100
AcDbArc
 50
90.0
 51
180.0
  0
LINE
  5
95
330
48
100
AcDbEntity
  8
0
  6
Continuous
 62
     0
370
    30
100
AcDbLine
 10
383.650864
 20
497.42157
 30
0.0
 11
330.886827
 21
497.42157
 31
0.0
  0
LINE
  5
96
330
48
100
AcDbEntity
  8
0
  6
Continuous
 62
     0
370
     0
100
AcDbLine
 10
330.886827
 20
497.42157
 30
0.0
 11
330.886827
 21
494.42157
 31
0.0
  0
LINE
  5
97
330
48
100
AcDbEntity
  8
0
  6
Continuous
 62
     0
370
    30
100
AcDbLine
 10
330.886827
 20
494.42157
 30
0.0
 11
383.650864
 21
494.42157
 31
0.0
  0
LINE
  5
98
330
48
100
AcDbEntity
  8
0
  6
Continuous
 62
     0
370
    30
100
AcDbLine
 10
323.650864
 20
494.42157
 30
0.0
 11
330.886827
 21
494.42157
 31
0.0
  0
LINE
  5
99
330
48
100
AcDbEntity
  8
0
  6
Continuous
 62
     0
370
    30
100
AcDbLine
 10
330.886827
 20
497.42157
 30
0.0
 11
323.650864
 21
497.42157
 31
0.0
  0
LINE
  5
9A
330
48
100
AcDbEntity
  8
0
  6
Continuous
 62
     0
370
    30
100
AcDbLine
 10
323.650864
 20
494.42157
 30
0.0
 11
323.650864
 21
497.42157
 31
0.0
  0
LINE
  5
9B
330
48
100
AcDbEntity
  8
0
  6
Continuous
 62
     0
370
    30
100
AcDbLine
 10
383.650864
 20
494.42157
 30
0.0
 11
383.650864
 21
497.42157
 31
0.0
  0
ARC
  5
9C
330
48
100
AcDbEntity
  8
0
  6
Continuous
 62
     0
370
    30
100
AcDbCircle
 10
352.929264
 20
761.212976
 30
0.0
 40
17.50019539710188
100
AcDbArc
 50
3.275872
 51
10.869385
  0
ARC
  5
9D
330
48
100
AcDbEntity
  8
0
  6
Continuous
 62
     0
370
    30
100
AcDbCircle
 10
354.53045
 20
761.198648
 30
0.0
 40
17.65874347807815
100
AcDbArc
 50
169.182051
 51
176.707007
  0
LWPOLYLINE
  5
9E
330
48
100
AcDbEntity
  8
0
  6
Continuous
 62
     0
370
    30
100
AcDbPolyline
 90
       16
 70
     0
 43
0.0
 10
366.650879
 20
799.7323
 10
367.130524
 20
799.727905
 10
367.604309
 20
799.714905
 10
368.066467
 20
799.693481
 10
368.511444
 20
799.663696
 10
368.934021
 20
799.625916
 10
369.330292
 20
799.580261
 10
369.696808
 20
799.526978
 10
370.031555
 20
799.46582
 10
370.3349
 20
799.395752
 10
370.610901
 20
799.313538
 10
370.868164
 20
799.210815
 10
371.120972
 20
799.066895
 10
371.370117
 20
798.845276
 10
371.57132
 20
798.517151
 10
371.650879
 20
798.106689
  0
LINE
  5
9F
330
48
100
AcDbEntity
  8
0
  6
Continuous
 62
     0
370
    30
100
AcDbLine
 10
340.650865
 20
799.732448
 30
0.0
 11
366.650865
 21
799.732448
 31
0.0
  0
LWPOLYLINE
  5
A0
330
48
100
AcDbEntity
  8
0
  6
Continuous
 62
     0
370
    30
100
AcDbPolyline
 90
       16
 70
     0
 43
0.0
 10
340.650879
 20
799.7323
 10
340.171204
 20
799.727905
 10
339.697418
 20
799.714905
 10
339.235291
 20
799.693481
 10
338.790283
 20
799.663696
 10
338.367706
 20
799.625916
 10
337.971466
 20
799.580261
 10
337.604919
 20
799.526978
 10
337.270172
 20
799.46582
 10
336.966858
 20
799.395752
 10
336.690826
 20
799.313538
 10
336.433563
 20
799.210815
 10
336.180756
 20
799.066895
 10
335.93161
 20
798.845276
 10
335.730408
 20
798.517151
 10
335.650879
 20
798.106689
  0
ENDBLK
  5
A2
330
48
100
AcDbEntity
  8
0
100
AcDbBlockEnd
  0
BLOCK
  5
E7
330
A4
100
AcDbEntity
  8
0
100
AcDbBlockBegin
  2
b
 70
     0
 10
205.915192
 20
100.441002
 30
0.0
  3
b
  1

  0
LINE
  5
A5
330
A4
100
AcDbEntity
  8
0
  6
Continuous
 62
     0
370
     0
100
AcDbLine
 10
366.650865
 20
218.578299
 30
0.0
 11
366.650865
 21
218.265433
 31
0.0
  0
ELLIPSE
  5
A6
330
A4
100
AcDbEntity
  8
0
  6
Continuous
 62
     0
370
     0
100
AcDbEllipse
 10
366.650865
 20
223.203875
 30
0.0
 11
-4.999999999999999
 21
-7.724096075452764E-8
 31
0.0
210
0.0
220
0.0
230
1.0
 40
0.987688
 41
1.570796326794895
 42
3.141592653589779
  0
LINE
  5
A7
330
A4
100
AcDbEntity
  8
0
  6
Continuous
 62
     0
370
    30
100
AcDbLine
 10
371.650865
 20
223.203875
 30
0.0
 11
371.650865
 21
223.51674
 31
0.0
  0
ELLIPSE
  5
A8
330
A4
100
AcDbEntity
  8
0
  6
Continuous
 62
     0
370
     0
100
AcDbEllipse
 10
366.650865
 20
223.51674
 30
0.0
 11
4.999999999999999
 21
7.724096075452764E-8
 31
0.0
210
0.0
220
0.0
230
-1.0
 40
0.987688
 41
0.0000000000000055
 42
1.570796326794894
  0
LINE
  5
A9
330
A4
100
AcDbEntity
  8
0
  6
Continuous
 62
     0
370
     0
100
AcDbLine
 10
340.650865
 20
218.578298
 30
0.0
 11
340.650865
 21
218.265433
 31
0.0
  0
LINE
  5
AA
330
A4
100
AcDbEntity
  8
0
  6
Continuous
 62
     0
370
     0
100
AcDbLine
 10
340.650865
 20
218.265433
 30
0.0
 11
366.650865
 21
218.265433
 31
0.0
  0
LINE
  5
AB
330
A4
100
AcDbEntity
  8
0
  6
Continuous
 62
     0
370
     0
100
AcDbLine
 10
366.650865
 20
218.578299
 30
0.0
 11
340.650865
 21
218.578298
 31
0.0
  0
LINE
  5
AC
330
A4
100
AcDbEntity
  8
0
  6
Continuous
 62
     0
370
    30
100
AcDbLine
 10
335.650865
 20
223.51674
 30
0.0
 11
335.650865
 21
223.203874
 31
0.0
  0
ELLIPSE
  5
AD
330
A4
100
AcDbEntity
  8
0
  6
Continuous
 62
     0
370
     0
100
AcDbEllipse
 10
340.650865
 20
223.203874
 30
0.0
 11
-4.999999999999999
 21
-7.724096031096197E-8
 31
0.0
210
0.0
220
0.0
230
1.0
 40
0.987688
 41
6.283185307179584
 42
7.853981633974476
  0
ELLIPSE
  5
AE
330
A4
100
AcDbEntity
  8
0
  6
Continuous
 62
     0
370
     0
100
AcDbEllipse
 10
340.650865
 20
223.51674
 30
0.0
 11
4.999999999999999
 21
7.724096031096197E-8
 31
0.0
210
0.0
220
0.0
230
-1.0
 40
0.987688
 41
1.5707963267949
 42
3.141592653589783
  0
LWPOLYLINE
  5
AF
330
A4
100
AcDbEntity
  8
0
  6
Continuous
 62
     0
370
    30
100
AcDbPolyline
 90
       10
 70
     0
 43
0.0
 10
335.650879
 20
298.109009
 10
335.725189
 20
298.965057
 10
335.948303
 20
299.80426
 10
336.312653
 20
300.59552
 10
336.807678
 20
301.309143
 10
337.419739
 20
301.926208
 10
338.134796
 20
302.429199
 10
338.932587
 20
302.802032
 10
339.778748
 20
303.031677
 10
340.650848
 20
303.109009
  0
LWPOLYLINE
  5
B0
330
A4
100
AcDbEntity
  8
0
  6
Continuous
 62
     0
370
     0
100
AcDbPolyline
 90
        9
 70
     0
 43
0.0
 10
336.650879
 20
223.673172
 10
336.726105
 20
222.910522
 10
336.954803
 20
222.162613
 10
337.328033
 20
221.47374
 10
337.820465
 20
220.881516
 10
338.41925
 20
220.394424
 10
339.116119
 20
220.024796
 10
339.873077
 20
219.797836
 10
340.650879
 20
219.722427
  0
LINE
  5
B1
330
A4
100
AcDbEntity
  8
0
  6
Continuous
 62
     0
370
     0
100
AcDbLine
 10
340.650865
 20
219.722421
 30
0.0
 11
366.650865
 21
219.722421
 31
0.0
  0
LWPOLYLINE
  5
B2
330
A4
100
AcDbEntity
  8
0
  6
Continuous
 62
     0
370
     0
100
AcDbPolyline
 90
        9
 70
     0
 43
0.0
 10
366.650879
 20
219.722427
 10
367.423035
 20
219.796738
 10
368.180267
 20
220.022614
 10
368.877716
 20
220.391266
 10
369.477325
 20
220.877625
 10
369.97049
 20
221.46904
 10
370.344727
 20
222.157318
 10
370.574524
 20
222.904968
 10
370.650879
 20
223.673172
  0
LINE
  5
B3
330
A4
100
AcDbEntity
  8
0
  6
Continuous
 62
     0
370
     0
100
AcDbLine
 10
370.650865
 20
223.673175
 30
0.0
 11
370.650864
 21
298.26543
 31
0.0
  0
ARC
  5
B4
330
A4
100
AcDbEntity
  8
0
  6
Continuous
 62
     0
370
     0
100
AcDbCircle
 10
366.650799
 20
298.265366
 30
0.0
 40
4.000064720528728
100
AcDbArc
 50
0.000928
 51
89.999074
  0
LINE
  5
B5
330
A4
100
AcDbEntity
  8
0
  6
Continuous
 62
     0
370
     0
100
AcDbLine
 10
366.650864
 20
302.26543
 30
0.0
 11
340.650864
 21
302.26543
 31
0.0
  0
ARC
  5
B6
330
A4
100
AcDbEntity
  8
0
  6
Continuous
 62
     0
370
     0
100
AcDbCircle
 10
340.650928
 20
298.265365
 30
0.0
 40
4.000064720528704
100
AcDbArc
 50
90.000928
 51
179.999074
  0
LINE
  5
B7
330
A4
100
AcDbEntity
  8
0
  6
Continuous
 62
     0
370
     0
100
AcDbLine
 10
336.650864
 20
298.26543
 30
0.0
 11
336.650865
 21
223.673174
 31
0.0
  0
LWPOLYLINE
  5
B8
330
A4
100
AcDbEntity
  8
0
  6
Continuous
 62
     0
370
    30
100
AcDbPolyline
 90
       10
 70
     0
 43
0.0
 10
366.650848
 20
303.109009
 10
367.513702
 20
303.033325
 10
368.360168
 20
302.805298
 10
369.158661
 20
302.43396
 10
369.874786
 20
301.932281
 10
370.488037
 20
301.316376
 10
370.984375
 20
300.603668
 10
371.35022
 20
299.813141
 10
371.57489
 20
298.974274
 10
371.650879
 20
298.109009
  0
ELLIPSE
  5
B9
330
A4
100
AcDbEntity
  8
0
  6
Continuous
 62
     0
370
     0
100
AcDbEllipse
 10
336.650864
 20
298.108995
 30
0.0
 11
0.9999999999999919
 21
1.544818668666420E-8
 31
0.0
210
0.0
220
0.0
230
1.0
 40
0.156434
 41
1.570796326794935
 42
3.141592653589737
  0
LINE
  5
BA
330
A4
100
AcDbEntity
  8
0
  6
Continuous
 62
     0
370
    30
100
AcDbLine
 10
335.650864
 20
298.108995
 30
0.0
 11
335.650865
 21
223.51674
 31
0.0
  0
ELLIPSE
  5
BB
330
A4
100
AcDbEntity
  8
0
  6
Continuous
 62
     0
370
     0
100
AcDbEllipse
 10
336.650865
 20
223.51674
 30
0.0
 11
-0.9999999999999919
 21
-1.544818668666420E-8
 31
0.0
210
0.0
220
0.0
230
-1.0
 40
0.156434
 41
0.0
 42
1.570796326794841
  0
LINE
  5
BC
330
A4
100
AcDbEntity
  8
0
  6
Continuous
 62
     0
370
     0
100
AcDbLine
 10
340.650865
 20
218.578298
 30
0.0
 11
340.650865
 21
219.722421
 31
0.0
  0
LINE
  5
BD
330
A4
100
AcDbEntity
  8
0
  6
Continuous
 62
     0
370
     0
100
AcDbLine
 10
366.650865
 20
218.578299
 30
0.0
 11
366.650865
 21
219.722421
 31
0.0
  0
LWPOLYLINE
  5
BE
330
A4
100
AcDbEntity
  8
0
  6
Continuous
 62
     0
370
     0
100
AcDbPolyline
 90
        5
 70
     0
 43
0.0
 10
370.650879
 20
223.673172
 10
371.031464
 20
223.661407
 10
371.354797
 20
223.627853
 10
371.572144
 20
223.577576
 10
371.650879
 20
223.516739
  0
LINE
  5
BF
330
A4
100
AcDbEntity
  8
0
  6
Continuous
 62
     0
370
    30
100
AcDbLine
 10
371.650865
 20
223.51674
 30
0.0
 11
371.650864
 21
298.108996
 31
0.0
  0
ELLIPSE
  5
C0
330
A4
100
AcDbEntity
  8
0
  6
Continuous
 62
     0
370
     0
100
AcDbEllipse
 10
370.650864
 20
298.108996
 30
0.0
 11
0.9999999999999988
 21
1.544818671476585E-8
 31
0.0
210
0.0
220
0.0
230
1.0
 40
0.156434
 41
6.283185307179507
 42
7.853981633974482
  0
LINE
  5
C1
330
A4
100
AcDbEntity
  8
0
  6
Continuous
 62
     0
370
     0
100
AcDbLine
 10
366.650864
 20
302.26543
 30
0.0
 11
366.650864
 21
303.108996
 31
0.0
  0
LINE
  5
C2
330
A4
100
AcDbEntity
  8
0
  6
Continuous
 62
     0
370
    30
100
AcDbLine
 10
366.650864
 20
303.108996
 30
0.0
 11
340.650864
 21
303.108995
 31
0.0
  0
LINE
  5
C3
330
A4
100
AcDbEntity
  8
0
  6
Continuous
 62
     0
370
     0
100
AcDbLine
 10
340.650864
 20
303.108995
 30
0.0
 11
340.650864
 21
302.26543
 31
0.0
  0
LINE
  5
C4
330
A4
100
AcDbEntity
  8
0
  6
Continuous
 62
     0
370
     0
100
AcDbLine
 10
340.650865
 20
218.265433
 30
0.0
 11
340.650865
 21
218.253242
 31
0.0
  0
LINE
  5
C5
330
A4
100
AcDbEntity
  8
0
  6
Continuous
 62
     0
370
     0
100
AcDbLine
 10
366.650865
 20
218.253121
 30
0.0
 11
366.650865
 21
218.265433
 31
0.0
  0
LINE
  5
C6
330
A4
100
AcDbEntity
  8
0
  6
Continuous
 62
     0
370
    30
100
AcDbLine
 10
335.650864
 20
98.267554
 30
0.0
 11
335.650864
 21
223.203876
 31
0.0
  0
ARC
  5
C7
330
A4
100
AcDbEntity
  8
0
  6
Continuous
 62
     0
370
    30
100
AcDbCircle
 10
340.650864
 20
98.267554
 30
0.0
 40
5.0
100
AcDbArc
 50
180.0
 51
270.0
  0
LINE
  5
C8
330
A4
100
AcDbEntity
  8
0
  6
Continuous
 62
     0
370
    30
100
AcDbLine
 10
366.650864
 20
93.267554
 30
0.0
 11
340.650864
 21
93.267554
 31
0.0
  0
ARC
  5
C9
330
A4
100
AcDbEntity
  8
0
  6
Continuous
 62
     0
370
    30
100
AcDbCircle
 10
366.650864
 20
98.267554
 30
0.0
 40
5.0
100
AcDbArc
 50
270.0
 51
0.0
  0
LINE
  5
CA
330
A4
100
AcDbEntity
  8
0
  6
Continuous
 62
     0
370
    30
100
AcDbLine
 10
371.650864
 20
223.203876
 30
0.0
 11
371.650864
 21
98.267554
 31
0.0
  0
LINE
  5
CB
330
A4
100
AcDbEntity
  8
0
  6
Continuous
 62
     0
370
     0
100
AcDbLine
 10
370.650864
 20
220.233664
 30
0.0
 11
370.650864
 21
98.267554
 31
0.0
  0
LINE
  5
CC
330
A4
100
AcDbEntity
  8
0
  6
Continuous
 62
     0
370
     0
100
AcDbLine
 10
370.650864
 20
98.267554
 30
0.0
 11
371.650864
 21
98.267554
 31
0.0
  0
LWPOLYLINE
  5
CD
330
A4
100
AcDbEntity
  8
0
  6
Continuous
 62
     0
370
     0
100
AcDbPolyline
 90
        9
 70
     0
 43
0.0
 10
370.650879
 20
98.267555
 10
370.574005
 20
97.494217
 10
370.346527
 20
96.741417
 10
369.977997
 20
96.046051
 10
369.481964
 20
95.440125
 10
368.876709
 20
94.943321
 10
368.181854
 20
94.573891
 10
367.429291
 20
94.345444
 10
366.650879
 20
94.267555
  0
LINE
  5
CE
330
A4
100
AcDbEntity
  8
0
  6
Continuous
 62
     0
370
     0
100
AcDbLine
 10
366.650864
 20
94.267554
 30
0.0
 11
366.650864
 21
93.267554
 31
0.0
  0
LINE
  5
CF
330
A4
100
AcDbEntity
  8
0
  6
Continuous
 62
     0
370
     0
100
AcDbLine
 10
366.650864
 20
94.267554
 30
0.0
 11
340.650864
 21
94.267554
 31
0.0
  0
LINE
  5
D0
330
A4
100
AcDbEntity
  8
0
  6
Continuous
 62
     0
370
     0
100
AcDbLine
 10
340.650864
 20
94.267554
 30
0.0
 11
340.650864
 21
93.267554
 31
0.0
  0
LWPOLYLINE
  5
D1
330
A4
100
AcDbEntity
  8
0
  6
Continuous
 62
     0
370
     0
100
AcDbPolyline
 90
        9
 70
     0
 43
0.0
 10
340.650879
 20
94.267555
 10
339.877533
 20
94.344421
 10
339.124725
 20
94.571899
 10
338.429352
 20
94.940437
 10
337.823425
 20
95.436447
 10
337.32663
 20
96.041718
 10
336.957214
 20
96.736572
 10
336.72876
 20
97.48912
 10
336.650879
 20
98.267555
  0
LINE
  5
D2
330
A4
100
AcDbEntity
  8
0
  6
Continuous
 62
     0
370
     0
100
AcDbLine
 10
336.650864
 20
98.267554
 30
0.0
 11
335.650864
 21
98.267554
 31
0.0
  0
LINE
  5
D3
330
A4
100
AcDbEntity
  8
0
  6
Continuous
 62
     0
370
     0
100
AcDbLine
 10
336.650864
 20
98.267554
 30
0.0
 11
336.650864
 21
220.233666
 31
0.0
  0
ARC
  5
D4
330
A4
100
AcDbEntity
  8
0
  6
Continuous
 62
     0
370
    30
100
AcDbCircle
 10
353.650864
 20
285.108998
 30
0.0
 40
30.0
100
AcDbArc
 50
220.641371
 51
233.130104
  0
ARC
  5
D5
330
A4
100
AcDbEntity
  8
0
  6
Continuous
 62
     0
370
    30
100
AcDbCircle
 10
353.650864
 20
285.108998
 30
0.0
 40
30.0
100
AcDbArc
 50
306.869899
 51
40.641371
  0
ARC
  5
D6
330
A4
100
AcDbEntity
  8
0
  6
Continuous
 62
     0
370
    30
100
AcDbCircle
 10
353.650864
 20
285.108998
 30
0.0
 40
30.0
100
AcDbArc
 50
40.641371
 51
85.219808
  0
ARC
  5
D7
330
A4
100
AcDbEntity
  8
0
  6
Continuous
 62
     0
370
    30
100
AcDbCircle
 10
353.650864
 20
285.108998
 30
0.0
 40
30.0
100
AcDbArc
 50
94.780192
 51
220.641371
  0
LINE
  5
D8
330
A4
100
AcDbEntity
  8
0
  6
Continuous
 62
     0
370
    30
100
AcDbLine
 10
351.150864
 20
308.935373
 30
0.0
 11
351.150864
 21
313.920066
 31
0.0
  0
LINE
  5
D9
330
A4
100
AcDbEntity
  8
0
  6
Continuous
 62
     0
370
    30
100
AcDbLine
 10
356.150864
 20
313.920066
 30
0.0
 11
356.150864
 21
308.935373
 31
0.0
  0
LWPOLYLINE
  5
DA
330
A4
100
AcDbEntity
  8
0
  6
Continuous
 62
     0
370
     0
100
AcDbPolyline
 90
       14
 70
     0
 43
0.0
 10
351.150848
 20
308.935364
 10
351.214813
 20
308.426208
 10
351.420837
 20
307.911224
 10
351.773102
 20
307.439575
 10
352.24826
 20
307.059814
 10
352.799438
 20
306.805054
 10
353.370667
 20
306.683868
 10
353.924927
 20
306.683258
 10
354.496063
 20
306.803009
 10
355.047791
 20
307.056305
 10
355.524048
 20
307.434845
 10
355.877838
 20
307.905762
 10
356.08548
 20
308.420532
 10
356.150848
 20
308.935364
  0
LINE
  5
DB
330
A4
100
AcDbEntity
  8
0
  6
Continuous
 62
     0
370
     0
100
AcDbLine
 10
356.150864
 20
313.920066
 30
0.0
 11
351.150864
 21
313.920066
 31
0.0
  0
ARC
  5
DC
330
A4
100
AcDbEntity
  8
0
  6
Continuous
 62
     0
370
    30
100
AcDbCircle
 10
352.650864
 20
323.915316
 30
0.0
 40
1.499999999999984
100
AcDbArc
 50
90.0
 51
180.0
  0
ARC
  5
DD
330
A4
100
AcDbEntity
  8
0
  6
Continuous
 62
     0
370
    30
100
AcDbCircle
 10
354.650864
 20
323.915316
 30
0.0
 40
1.50000000000001
100
AcDbArc
 50
0.0
 51
90.0
  0
LINE
  5
DE
330
A4
100
AcDbEntity
  8
0
  6
Continuous
 62
     0
370
     0
100
AcDbLine
 10
351.150864
 20
323.915316
 30
0.0
 11
356.150864
 21
323.915316
 31
0.0
  0
LWPOLYLINE
  5
DF
330
A4
100
AcDbEntity
  8
0
  6
Continuous
 62
     0
370
    30
100
AcDbPolyline
 90
        9
 70
     0
 43
0.0
 10
354.650848
 20
325.415314
 10
354.577271
 20
325.415314
 10
354.360474
 20
325.415314
 10
354.036957
 20
325.415314
 10
353.655396
 20
325.415314
 10
353.273163
 20
325.415314
 10
352.947693
 20
325.415314
 10
352.727936
 20
325.415314
 10
352.650848
 20
325.415314
  0
LINE
  5
E0
330
A4
100
AcDbEntity
  8
0
  6
Continuous
 62
     0
370
    30
100
AcDbLine
 10
351.150864
 20
308.935373
 30
0.0
 11
351.150864
 21
303.109007
 31
0.0
  0
LINE
  5
E1
330
A4
100
AcDbEntity
  8
0
  6
Continuous
 62
     0
370
    30
100
AcDbLine
 10
356.150864
 20
303.109007
 30
0.0
 11
356.150864
 21
308.935373
 31
0.0
  0
LINE
  5
E2
330
A4
100
AcDbEntity
  8
0
  6
Continuous
 62
     0
370
    30
100
AcDbLine
 10
356.150864
 20
313.920066
 30
0.0
 11
356.150864
 21
323.915316
 31
0.0
  0
LINE
  5
E3
330
A4
100
AcDbEntity
  8
0
  6
Continuous
 62
     0
370
    30
100
AcDbLine
 10
351.150864
 20
323.915316
 30
0.0
 11
351.150864
 21
313.920066
 31
0.0
  0
LWPOLYLINE
  5
E4
330
A4
100
AcDbEntity
  8
0
  6
Continuous
 62
     0
370
    30
100
AcDbPolyline
 90
        9
 70
     0
 43
0.0
 10
371.530609
 20
222.12735
 10
371.280945
 20
221.335648
 10
370.901154
 20
220.596512
 10
370.4021
 20
219.930801
 10
369.798065
 20
219.357071
 10
369.106079
 20
218.89122
 10
368.345459
 20
218.54657
 10
367.537598
 20
218.332306
 10
366.650879
 20
218.253235
  0
LINE
  5
E5
330
A4
100
AcDbEntity
  8
0
  6
Continuous
 62
     0
370
    30
100
AcDbLine
 10
340.650865
 20
218.253121
 30
0.0
 11
366.650865
 21
218.253121
 31
0.0
  0
LWPOLYLINE
  5
E6
330
A4
100
AcDbEntity
  8
0
  6
Continuous
 62
     0
370
    30
100
AcDbPolyline
 90
        9
 70
     0
 43
0.0
 10
335.771118
 20
222.12735
 10
336.020782
 20
221.335648
 10
336.400574
 20
220.596512
 10
336.899628
 20
219.930801
 10
337.503662
 20
219.357071
 10
338.195648
 20
218.89122
 10
338.956299
 20
218.54657
 10
339.76413
 20
218.332306
 10
340.650879
 20
218.253235
  0
ENDBLK
  5
E8
330
A4
100
AcDbEntity
  8
0
100
AcDbBlockEnd
  0
BLOCK
  5
140
330
EA
100
AcDbEntity
  8
0
100
AcDbBlockBegin
  2
c
 70
     0
 10
255.828552
 20
117.55143
 30
0.0
  3
c
  1

  0
LINE
  5
EB
330
EA
100
AcDbEntity
  8
0
  6
Continuous
 62
     0
370
    30
100
AcDbLine
 10
645.107648
 20
764.512955
 30
0.0
 11
645.107648
 21
783.894554
 31
0.0
  0
LINE
  5
EC
330
EA
100
AcDbEntity
  8
0
  6
Continuous
 62
     0
370
     0
100
AcDbLine
 10
645.107648
 20
783.894554
 30
0.0
 11
644.107648
 21
783.894554
 31
0.0
  0
LINE
  5
ED
330
EA
100
AcDbEntity
  8
0
  6
Continuous
 62
     0
370
     0
100
AcDbLine
 10
644.107648
 20
783.894554
 30
0.0
 11
644.107648
 21
764.512955
 31
0.0
  0
LINE
  5
EE
330
EA
100
AcDbEntity
  8
0
  6
Continuous
 62
     0
370
    30
100
AcDbLine
 10
644.107648
 20
764.512955
 30
0.0
 11
645.107648
 21
764.512955
 31
0.0
  0
ARC
  5
EF
330
EA
100
AcDbEntity
  8
0
  6
Continuous
 62
     0
370
    30
100
AcDbCircle
 10
650.107648
 20
783.894554
 30
0.0
 40
5.0
100
AcDbArc
 50
99.0
 51
180.0
  0
LWPOLYLINE
  5
F0
330
EA
100
AcDbEntity
  8
0
  6
Continuous
 62
     0
370
    30
100
AcDbPolyline
 90
        9
 70
     0
 43
0.0
 10
693.119934
 20
795.769348
 10
693.045837
 20
795.757629
 10
692.820496
 20
795.721924
 10
692.452759
 20
795.663696
 10
691.967468
 20
795.586792
 10
691.37738
 20
795.493347
 10
690.690552
 20
795.384583
 10
689.944153
 20
795.266357
 10
689.169189
 20
795.143616
  0
LINE
  5
F1
330
EA
100
AcDbEntity
  8
0
  6
Continuous
 62
     0
370
    30
100
AcDbLine
 10
689.169192
 20
795.14362
 30
0.0
 11
649.325476
 21
788.832996
 31
0.0
  0
LINE
  5
F2
330
EA
100
AcDbEntity
  8
0
  6
Continuous
 62
     0
370
    30
100
AcDbLine
 10
693.638334
 20
798.888837
 30
0.0
 11
693.951199
 21
796.913481
 31
0.0
  0
LINE
  5
F3
330
EA
100
AcDbEntity
  8
0
  6
Continuous
 62
     0
370
     0
100
AcDbLine
 10
688.699892
 20
798.106664
 30
0.0
 11
689.012758
 21
796.131309
 31
0.0
  0
LINE
  5
F4
330
EA
100
AcDbEntity
  8
0
  6
Continuous
 62
     0
370
     0
100
AcDbLine
 10
689.012758
 20
796.131309
 30
0.0
 11
693.951199
 21
796.913481
 31
0.0
  0
LINE
  5
F5
330
EA
100
AcDbEntity
  8
0
  6
Continuous
 62
     0
370
     0
100
AcDbLine
 10
693.638334
 20
798.888837
 30
0.0
 11
688.699892
 21
798.106664
 31
0.0
  0
LWPOLYLINE
  5
F6
330
EA
100
AcDbEntity
  8
0
  6
Continuous
 62
     0
370
    30
100
AcDbPolyline
 90
       11
 70
     0
 43
0.0
 10
609.107666
 20
771.785461
 10
609.172668
 20
771.758423
 10
609.370667
 20
771.677368
 10
609.694275
 20
771.547119
 10
610.12561
 20
771.37384
 10
610.646545
 20
771.164001
 10
611.241577
 20
770.923584
 10
611.896912
 20
770.658569
 10
612.598572
 20
770.374939
 10
613.329224
 20
770.079773
 10
614.107666
 20
769.76532
  0
LINE
  5
F7
330
EA
100
AcDbEntity
  8
0
  6
Continuous
 62
     0
370
     0
100
AcDbLine
 10
614.107638
 20
769.7653
 30
0.0
 11
614.107638
 21
786.292412
 31
0.0
  0
LINE
  5
F8
330
EA
100
AcDbEntity
  8
0
  6
Continuous
 62
     0
370
     0
100
AcDbLine
 10
614.107638
 20
786.292412
 30
0.0
 11
609.107637
 21
785.658874
 31
0.0
  0
LINE
  5
F9
330
EA
100
AcDbEntity
  8
0
  6
Continuous
 62
     0
370
    30
100
AcDbLine
 10
609.107637
 20
785.658874
 30
0.0
 11
609.107637
 21
771.785431
 31
0.0
  0
LINE
  5
FA
330
EA
100
AcDbEntity
  8
0
  6
Continuous
 62
     0
370
    30
100
AcDbLine
 10
688.543458
 20
799.094353
 30
0.0
 11
692.494211
 21
799.720091
 31
0.0
  0
LINE
  5
FB
330
EA
100
AcDbEntity
  8
0
  6
Continuous
 62
     0
370
    30
100
AcDbLine
 10
609.951203
 20
786.646562
 30
0.0
 11
613.951203
 21
787.2801
 31
0.0
  0
LINE
  5
FC
330
EA
100
AcDbEntity
  8
0
  6
Continuous
 62
     0
370
    30
100
AcDbLine
 10
613.951203
 20
787.2801
 30
0.0
 11
688.543458
 21
799.094353
 31
0.0
  0
LINE
  5
FD
330
EA
100
AcDbEntity
  8
0
  6
Continuous
 62
     0
370
     0
100
AcDbLine
 10
613.951203
 20
787.2801
 30
0.0
 11
614.107637
 21
786.292412
 31
0.0
  0
LINE
  5
FE
330
EA
100
AcDbEntity
  8
0
  6
Continuous
 62
     0
370
     0
100
AcDbLine
 10
614.107638
 20
786.292412
 30
0.0
 11
688.699892
 21
798.106664
 31
0.0
  0
LINE
  5
FF
330
EA
100
AcDbEntity
  8
0
  6
Continuous
 62
     0
370
     0
100
AcDbLine
 10
688.699892
 20
798.106664
 30
0.0
 11
688.543458
 21
799.094353
 31
0.0
  0
ARC
  5
100
330
EA
100
AcDbEntity
  8
0
  6
Continuous
 62
     0
370
    30
100
AcDbCircle
 10
692.650645
 20
798.732402
 30
0.0
 40
1.000000000012003
100
AcDbArc
 50
9.0
 51
99.0
  0
ARC
  5
101
330
EA
100
AcDbEntity
  8
0
  6
Continuous
 62
     0
370
    30
100
AcDbCircle
 10
610.107637
 20
785.658874
 30
0.0
 40
1.0
100
AcDbArc
 50
99.0
 51
180.0
  0
LWPOLYLINE
  5
102
330
EA
100
AcDbEntity
  8
0
  6
Continuous
 62
     0
370
     0
100
AcDbPolyline
 90
        5
 70
     0
 43
0.0
 10
649.3255
 20
788.833008
 10
649.313721
 20
788.907349
 10
649.280151
 20
789.119141
 10
649.229858
 20
789.436584
 10
649.169067
 20
789.820679
  0
ARC
  5
103
330
EA
100
AcDbEntity
  8
0
  6
Continuous
 62
     0
370
     0
100
AcDbCircle
 10
650.107648
 20
783.894554
 30
0.0
 40
6.00000000000087
100
AcDbArc
 50
99.0
 51
180.0
  0
LINE
  5
104
330
EA
100
AcDbEntity
  8
0
  6
Continuous
 62
     0
370
     0
100
AcDbLine
 10
689.169192
 20
795.14362
 30
0.0
 11
689.012758
 21
796.131309
 31
0.0
  0
LINE
  5
105
330
EA
100
AcDbEntity
  8
0
  6
Continuous
 62
     0
370
     0
100
AcDbLine
 10
689.012758
 20
796.131309
 30
0.0
 11
649.169041
 21
789.820684
 31
0.0
  0
ARC
  5
106
330
EA
100
AcDbEntity
  8
0
  6
Continuous
 62
     0
370
    30
100
AcDbCircle
 10
692.963511
 20
796.757047
 30
0.0
 40
1.00000000000003
100
AcDbArc
 50
279.0
 51
9.0
  0
LINE
  5
107
330
EA
100
AcDbEntity
  8
0
  6
Continuous
 62
     0
370
    30
100
AcDbLine
 10
614.107638
 20
769.7653
 30
0.0
 11
626.747195
 21
764.658587
 31
0.0
  0
ARC
  5
108
330
EA
100
AcDbEntity
  8
0
  6
Continuous
 62
     0
370
    30
100
AcDbCircle
 10
627.496409
 20
766.512955
 30
0.0
 40
1.999999999965731
100
AcDbArc
 50
248.0
 51
270.0
  0
LINE
  5
109
330
EA
100
AcDbEntity
  8
0
  6
Continuous
 62
     0
370
    30
100
AcDbLine
 10
627.496409
 20
764.512955
 30
0.0
 11
644.107648
 21
764.512955
 31
0.0
  0
LWPOLYLINE
  5
10A
330
EA
100
AcDbEntity
  8
0
  6
Continuous
 62
     0
370
     0
100
AcDbPolyline
 90
        6
 70
     0
 43
0.0
 10
614.930786
 20
769.432739
 10
614.414978
 20
768.133911
 10
613.987793
 20
766.782654
 10
613.654114
 20
765.392456
 10
613.417114
 20
763.9776
 10
613.259033
 20
762.212952
  0
LINE
  5
10B
330
EA
100
AcDbEntity
  8
0
  6
Continuous
 62
     0
370
     0
100
AcDbLine
 10
645.103364
 20
731.47152
 30
0.0
 11
644.103364
 21
731.47152
 31
0.0
  0
LINE
  5
10C
330
EA
100
AcDbEntity
  8
0
  6
Continuous
 62
     0
370
     0
100
AcDbLine
 10
644.103364
 20
731.47152
 30
0.0
 11
644.103364
 21
497.42152
 31
0.0
  0
LINE
  5
10D
330
EA
100
AcDbEntity
  8
0
  6
Continuous
 62
     0
370
    30
100
AcDbLine
 10
645.103364
 20
497.42152
 30
0.0
 11
645.103364
 21
731.47152
 31
0.0
  0
LINE
  5
10E
330
EA
100
AcDbEntity
  8
0
  6
Continuous
 62
     0
370
     0
100
AcDbLine
 10
614.261932
 20
761.212952
 30
0.0
 11
609.261932
 21
761.212952
 31
0.0
  0
LINE
  5
10F
330
EA
100
AcDbEntity
  8
0
  6
Continuous
 62
     0
370
    30
100
AcDbLine
 10
609.261932
 20
761.212952
 30
0.0
 11
609.261932
 21
497.42152
 31
0.0
  0
LINE
  5
110
330
EA
100
AcDbEntity
  8
0
  6
Continuous
 62
     0
370
     0
100
AcDbLine
 10
614.261932
 20
497.42152
 30
0.0
 11
614.261932
 21
761.212952
 31
0.0
  0
LINE
  5
111
330
EA
100
AcDbEntity
  8
0
  6
Continuous
 62
     0
370
     0
100
AcDbLine
 10
813.94908
 20
747.22152
 30
0.0
 11
813.94908
 21
761.212952
 31
0.0
  0
LINE
  5
112
330
EA
100
AcDbEntity
  8
0
  6
Continuous
 62
     0
370
     0
100
AcDbLine
 10
813.94908
 20
761.212952
 30
0.0
 11
614.261932
 21
761.212952
 31
0.0
  0
ARC
  5
113
330
EA
100
AcDbEntity
  8
0
  6
Continuous
 62
     0
370
     0
100
AcDbCircle
 10
659.853364
 20
731.47152
 30
0.0
 40
15.74999999999991
100
AcDbArc
 50
90.0
 51
180.0
  0
LINE
  5
114
330
EA
100
AcDbEntity
  8
0
  6
Continuous
 62
     0
370
     0
100
AcDbLine
 10
659.853364
 20
747.22152
 30
0.0
 11
813.94908
 21
747.22152
 31
0.0
  0
LINE
  5
115
330
EA
100
AcDbEntity
  8
0
  6
Continuous
 62
     0
370
    30
100
AcDbLine
 10
818.94908
 20
747.22152
 30
0.0
 11
818.94908
 21
761.212952
 31
0.0
  0
LINE
  5
116
330
EA
100
AcDbEntity
  8
0
  6
Continuous
 62
     0
370
     0
100
AcDbLine
 10
818.94908
 20
761.212952
 30
0.0
 11
813.94908
 21
761.212952
 31
0.0
  0
LINE
  5
117
330
EA
100
AcDbEntity
  8
0
  6
Continuous
 62
     0
370
     0
100
AcDbLine
 10
813.94908
 20
747.22152
 30
0.0
 11
818.94908
 21
747.22152
 31
0.0
  0
ARC
  5
118
330
EA
100
AcDbEntity
  8
0
  6
Continuous
 62
     0
370
    30
100
AcDbCircle
 10
659.853364
 20
731.47152
 30
0.0
 40
14.75
100
AcDbArc
 50
90.0
 51
180.0
  0
ARC
  5
119
330
EA
100
AcDbEntity
  8
0
  6
Continuous
 62
     0
370
    30
100
AcDbCircle
 10
817.94908
 20
747.22152
 30
0.0
 40
0.9999999999999861
100
AcDbArc
 50
270.0
 51
0.0
  0
LINE
  5
11A
330
EA
100
AcDbEntity
  8
0
  6
Continuous
 62
     0
370
     0
100
AcDbLine
 10
813.94908
 20
746.22152
 30
0.0
 11
813.94908
 21
747.22152
 31
0.0
  0
LWPOLYLINE
  5
11B
330
EA
100
AcDbEntity
  8
0
  6
Continuous
 62
     0
370
    30
100
AcDbPolyline
 90
        9
 70
     0
 43
0.0
 10
817.949097
 20
746.221497
 10
817.872498
 20
746.221497
 10
817.645874
 20
746.221497
 10
817.278625
 20
746.221497
 10
816.784302
 20
746.221497
 10
816.18103
 20
746.221497
 10
815.48822
 20
746.221497
 10
814.737549
 20
746.221497
 10
813.949097
 20
746.221497
  0
LINE
  5
11C
330
EA
100
AcDbEntity
  8
0
  6
Continuous
 62
     0
370
     0
100
AcDbLine
 10
659.853364
 20
747.22152
 30
0.0
 11
659.853364
 21
746.22152
 31
0.0
  0
LINE
  5
11D
330
EA
100
AcDbEntity
  8
0
  6
Continuous
 62
     0
370
    30
100
AcDbLine
 10
659.853364
 20
746.22152
 30
0.0
 11
813.94908
 21
746.22152
 31
0.0
  0
ARC
  5
11E
330
EA
100
AcDbEntity
  8
0
  6
Continuous
 62
     0
370
    30
100
AcDbCircle
 10
817.94908
 20
761.212952
 30
0.0
 40
1.0
100
AcDbArc
 50
0.0
 51
90.0
  0
LWPOLYLINE
  5
11F
330
EA
100
AcDbEntity
  8
0
  6
Continuous
 62
     0
370
    30
100
AcDbPolyline
 90
        9
 70
     0
 43
0.0
 10
817.949097
 20
762.212952
 10
817.872498
 20
762.212952
 10
817.645874
 20
762.212952
 10
817.278625
 20
762.212952
 10
816.784302
 20
762.212952
 10
816.18103
 20
762.212952
 10
815.48822
 20
762.212952
 10
814.737549
 20
762.212952
 10
813.949097
 20
762.212952
  0
LINE
  5
120
330
EA
100
AcDbEntity
  8
0
  6
Continuous
 62
     0
370
     0
100
AcDbLine
 10
813.94908
 20
762.212952
 30
0.0
 11
813.94908
 21
761.212952
 31
0.0
  0
LINE
  5
121
330
EA
100
AcDbEntity
  8
0
  6
Continuous
 62
     0
370
    30
100
AcDbLine
 10
813.94908
 20
762.212952
 30
0.0
 11
614.261932
 21
762.212952
 31
0.0
  0
LINE
  5
122
330
EA
100
AcDbEntity
  8
0
  6
Continuous
 62
     0
370
     0
100
AcDbLine
 10
614.261932
 20
762.212952
 30
0.0
 11
614.261932
 21
761.212952
 31
0.0
  0
LINE
  5
123
330
EA
100
AcDbEntity
  8
0
  6
Continuous
 62
     0
370
    30
100
AcDbLine
 10
614.261932
 20
762.212952
 30
0.0
 11
610.261932
 21
762.212952
 31
0.0
  0
ARC
  5
124
330
EA
100
AcDbEntity
  8
0
  6
Continuous
 62
     0
370
    30
100
AcDbCircle
 10
610.261932
 20
761.212952
 30
0.0
 40
0.9999999999948095
100
AcDbArc
 50
90.0
 51
180.0
  0
LINE
  5
125
330
EA
100
AcDbEntity
  8
0
  6
Continuous
 62
     0
370
    30
100
AcDbLine
 10
657.107647
 20
497.421524
 30
0.0
 11
646.647317
 21
497.421524
 31
0.0
  0
LINE
  5
126
330
EA
100
AcDbEntity
  8
0
  6
Continuous
 62
     0
370
     0
100
AcDbLine
 10
646.647317
 20
497.421524
 30
0.0
 11
646.647317
 21
494.421524
 31
0.0
  0
LINE
  5
127
330
EA
100
AcDbEntity
  8
0
  6
Continuous
 62
     0
370
    30
100
AcDbLine
 10
646.647317
 20
494.421524
 30
0.0
 11
657.107647
 21
494.421524
 31
0.0
  0
LINE
  5
128
330
EA
100
AcDbEntity
  8
0
  6
Continuous
 62
     0
370
    30
100
AcDbLine
 10
597.107647
 20
494.421524
 30
0.0
 11
646.647317
 21
494.421524
 31
0.0
  0
LINE
  5
129
330
EA
100
AcDbEntity
  8
0
  6
Continuous
 62
     0
370
    30
100
AcDbLine
 10
646.647317
 20
497.421524
 30
0.0
 11
597.107647
 21
497.421524
 31
0.0
  0
ARC
  5
12A
330
EA
100
AcDbEntity
  8
0
  6
Continuous
 62
     0
370
     0
100
AcDbCircle
 10
598.296577
 20
541.165872
 30
0.0
 40
5.499999999999986
100
AcDbArc
 50
25.0
 51
89.999998
  0
LINE
  5
12B
330
EA
100
AcDbEntity
  8
0
  6
Continuous
 62
     0
370
     0
100
AcDbLine
 10
598.296577
 20
546.665872
 30
0.0
 11
598.296577
 21
544.165872
 31
0.0
  0
LINE
  5
12C
330
EA
100
AcDbEntity
  8
0
  6
Continuous
 62
     0
370
     0
100
AcDbLine
 10
601.0155
 20
542.433726
 30
0.0
 11
603.28127
 21
543.490272
 31
0.0
  0
LINE
  5
12D
330
EA
100
AcDbEntity
  8
0
  6
Continuous
 62
     0
370
     0
100
AcDbLine
 10
603.28127
 20
543.490272
 30
0.0
 11
605.547039
 21
544.546818
 31
0.0
  0
LWPOLYLINE
  5
12E
330
EA
100
AcDbEntity
  8
0
  6
Continuous
 62
     0
370
     0
100
AcDbPolyline
 90
        8
 70
     0
 43
0.0
 10
598.29657
 20
549.165894
 10
598.29657
 20
549.112976
 10
598.29657
 20
548.942932
 10
598.29657
 20
548.649902
 10
598.29657
 20
548.246948
 10
598.29657
 20
547.76532
 10
598.29657
 20
547.246521
 10
598.29657
 20
546.665894
  0
LINE
  5
12F
330
EA
100
AcDbEntity
  8
0
  6
Continuous
 62
     0
370
     0
100
AcDbLine
 10
588.301326
 20
546.665872
 30
0.0
 11
586.801326
 21
546.665872
 31
0.0
  0
LINE
  5
130
330
EA
100
AcDbEntity
  8
0
  6
Continuous
 62
     0
370
     0
100
AcDbLine
 10
588.301326
 20
544.165872
 30
0.0
 11
588.301326
 21
546.665872
 31
0.0
  0
LINE
  5
131
330
EA
100
AcDbEntity
  8
0
  6
Continuous
 62
     0
370
     0
100
AcDbLine
 10
588.301326
 20
546.665872
 30
0.0
 11
588.301326
 21
549.165872
 31
0.0
  0
LINE
  5
132
330
EA
100
AcDbEntity
  8
0
  6
Continuous
 62
     0
370
     0
100
AcDbLine
 10
603.28127
 20
543.490272
 30
0.0
 11
609.261931
 21
530.664702
 31
0.0
  0
LINE
  5
133
330
EA
100
AcDbEntity
  8
0
  6
Continuous
 62
     0
370
     0
100
AcDbLine
 10
588.301326
 20
546.665872
 30
0.0
 11
598.296577
 21
546.665872
 31
0.0
  0
LINE
  5
134
330
EA
100
AcDbEntity
  8
0
  6
Continuous
 62
     0
370
    30
100
AcDbLine
 10
588.301326
 20
544.165872
 30
0.0
 11
598.296577
 21
544.165872
 31
0.0
  0
LINE
  5
135
330
EA
100
AcDbEntity
  8
0
  6
Continuous
 62
     0
370
    30
100
AcDbLine
 10
588.301326
 20
549.165872
 30
0.0
 11
598.296577
 21
549.165872
 31
0.0
  0
LINE
  5
136
330
EA
100
AcDbEntity
  8
0
  6
Continuous
 62
     0
370
    30
100
AcDbLine
 10
601.0155
 20
542.433726
 30
0.0
 11
609.261361
 21
524.750419
 31
0.0
  0
LINE
  5
137
330
EA
100
AcDbEntity
  8
0
  6
Continuous
 62
     0
370
    30
100
AcDbLine
 10
605.547039
 20
544.546818
 30
0.0
 11
609.262501
 21
536.578984
 31
0.0
  0
ARC
  5
138
330
EA
100
AcDbEntity
  8
0
  6
Continuous
 62
     0
370
    30
100
AcDbCircle
 10
588.30135
 20
547.665848
 30
0.0
 40
1.500023590202205
100
AcDbArc
 50
90.000899
 51
179.976606
  0
ARC
  5
139
330
EA
100
AcDbEntity
  8
0
  6
Continuous
 62
     0
370
    30
100
AcDbCircle
 10
588.301352
 20
545.665897
 30
0.0
 40
1.500025306554378
100
AcDbArc
 50
180.023456
 51
269.999032
  0
ARC
  5
13A
330
EA
100
AcDbEntity
  8
0
  6
Continuous
 62
     0
370
    30
100
AcDbCircle
 10
598.296571
 20
541.165863
 30
0.0
 40
8.000008926183934
100
AcDbArc
 50
25.000041
 51
89.999958
  0
ARC
  5
13B
330
EA
100
AcDbEntity
  8
0
  6
Continuous
 62
     0
370
    30
100
AcDbCircle
 10
598.29653
 20
541.165798
 30
0.0
 40
3.000073751086127
100
AcDbArc
 50
25.000897
 51
89.999101
  0
LINE
  5
13C
330
EA
100
AcDbEntity
  8
0
  6
Continuous
 62
     0
370
    30
100
AcDbLine
 10
597.107647
 20
494.421524
 30
0.0
 11
597.107647
 21
497.421524
 31
0.0
  0
LINE
  5
13D
330
EA
100
AcDbEntity
  8
0
  6
Continuous
 62
     0
370
    30
100
AcDbLine
 10
657.107647
 20
494.421524
 30
0.0
 11
657.107647
 21
497.421524
 31
0.0
  0
ARC
  5
13E
330
EA
100
AcDbEntity
  8
0
  6
Continuous
 62
     0
370
    30
100
AcDbCircle
 10
627.829137
 20
761.212928
 30
0.0
 40
17.50008635759326
100
AcDbArc
 50
148.827762
 51
176.724101
  0
ARC
  5
13F
330
EA
100
AcDbEntity
  8
0
  6
Continuous
 62
     0
370
    30
100
AcDbCircle
 10
626.385267
 20
761.212834
 30
0.0
 40
17.50097966333348
100
AcDbArc
 50
3.276042
 51
10.869213
  0
ENDBLK
  5
141
330
EA
100
AcDbEntity
  8
0
100
AcDbBlockEnd
  0
BLOCK
  5
199
330
143
100
AcDbEntity
  8
0
100
AcDbBlockBegin
  2
e
 70
     0
 10
191.286652
 20
-0.000031
 30
0.0
  3
e
  1

  0
LINE
  5
144
330
143
100
AcDbEntity
  8
0
  6
Continuous
 62
     0
370
    30
100
AcDbLine
 10
82.648788
 20
783.894546
 30
0.0
 11
82.648788
 21
764.512947
 31
0.0
  0
LINE
  5
145
330
143
100
AcDbEntity
  8
0
  6
Continuous
 62
     0
370
    30
100
AcDbLine
 10
82.648788
 20
764.512947
 30
0.0
 11
83.648788
 21
764.512947
 31
0.0
  0
LINE
  5
146
330
143
100
AcDbEntity
  8
0
  6
Continuous
 62
     0
370
     0
100
AcDbLine
 10
83.648788
 20
764.512947
 30
0.0
 11
83.648788
 21
783.894546
 31
0.0
  0
LINE
  5
147
330
143
100
AcDbEntity
  8
0
  6
Continuous
 62
     0
370
     0
100
AcDbLine
 10
83.648788
 20
783.894546
 30
0.0
 11
82.648788
 21
783.894546
 31
0.0
  0
ARC
  5
148
330
143
100
AcDbEntity
  8
0
  6
Continuous
 62
     0
370
    30
100
AcDbCircle
 10
77.648788
 20
783.894546
 30
0.0
 40
5.0
100
AcDbArc
 50
0.0
 51
81.0
  0
LINE
  5
149
330
143
100
AcDbEntity
  8
0
  6
Continuous
 62
     0
370
    30
100
AcDbLine
 10
78.43096
 20
788.832988
 30
0.0
 11
38.587244
 21
795.143613
 31
0.0
  0
LINE
  5
14A
330
143
100
AcDbEntity
  8
0
  6
Continuous
 62
     0
370
    30
100
AcDbLine
 10
38.587244
 20
795.143613
 30
0.0
 11
34.63649
 21
795.769351
 31
0.0
  0
LINE
  5
14B
330
143
100
AcDbEntity
  8
0
  6
Continuous
 62
     0
370
    30
100
AcDbLine
 10
34.118102
 20
798.888829
 30
0.0
 11
33.805236
 21
796.913473
 31
0.0
  0
LINE
  5
14C
330
143
100
AcDbEntity
  8
0
  6
Continuous
 62
     0
370
     0
100
AcDbLine
 10
33.805236
 20
796.913473
 30
0.0
 11
38.743678
 21
796.131301
 31
0.0
  0
LINE
  5
14D
330
143
100
AcDbEntity
  8
0
  6
Continuous
 62
     0
370
     0
100
AcDbLine
 10
38.743678
 20
796.131301
 30
0.0
 11
39.056544
 21
798.106657
 31
0.0
  0
LINE
  5
14E
330
143
100
AcDbEntity
  8
0
  6
Continuous
 62
     0
370
     0
100
AcDbLine
 10
39.056544
 20
798.106657
 30
0.0
 11
34.118102
 21
798.888829
 31
0.0
  0
LWPOLYLINE
  5
14F
330
143
100
AcDbEntity
  8
0
  6
Continuous
 62
     0
370
    30
100
AcDbPolyline
 90
        9
 70
     0
 43
0.0
 10
35.262226
 20
799.720093
 10
35.336346
 20
799.708313
 10
35.561649
 20
799.672668
 10
35.92942
 20
799.61438
 10
36.414726
 20
799.537537
 10
37.004765
 20
799.444092
 10
37.69162
 20
799.335327
 10
38.438007
 20
799.217102
 10
39.212978
 20
799.09436
  0
LINE
  5
150
330
143
100
AcDbEntity
  8
0
  6
Continuous
 62
     0
370
    30
100
AcDbLine
 10
39.212978
 20
799.094345
 30
0.0
 11
113.805233
 21
787.280092
 31
0.0
  0
LINE
  5
151
330
143
100
AcDbEntity
  8
0
  6
Continuous
 62
     0
370
    30
100
AcDbLine
 10
113.805233
 20
787.280092
 30
0.0
 11
117.805233
 21
786.646555
 31
0.0
  0
LINE
  5
152
330
143
100
AcDbEntity
  8
0
  6
Continuous
 62
     0
370
    30
100
AcDbLine
 10
118.648799
 20
771.785423
 30
0.0
 11
118.648799
 21
785.658866
 31
0.0
  0
LINE
  5
153
330
143
100
AcDbEntity
  8
0
  6
Continuous
 62
     0
370
     0
100
AcDbLine
 10
118.648799
 20
785.658866
 30
0.0
 11
113.648798
 21
786.292404
 31
0.0
  0
LINE
  5
154
330
143
100
AcDbEntity
  8
0
  6
Continuous
 62
     0
370
     0
100
AcDbLine
 10
113.648798
 20
786.292404
 30
0.0
 11
113.648798
 21
769.765292
 31
0.0
  0
LWPOLYLINE
  5
155
330
143
100
AcDbEntity
  8
0
  6
Continuous
 62
     0
370
    30
100
AcDbPolyline
 90
       11
 70
     0
 43
0.0
 10
113.648796
 20
769.76532
 10
114.390297
 20
770.06488
 10
115.121902
 20
770.360413
 10
115.825432
 20
770.644775
 10
116.483421
 20
770.910889
 10
117.081795
 20
771.152649
 10
117.606773
 20
771.364197
 10
118.042984
 20
771.539368
 10
118.372414
 20
771.671997
 10
118.577042
 20
771.755615
 10
118.648796
 20
771.7854
  0
ARC
  5
156
330
143
100
AcDbEntity
  8
0
  6
Continuous
 62
     0
370
    30
100
AcDbCircle
 10
35.10579
 20
798.732395
 30
0.0
 40
1.000000000000005
100
AcDbArc
 50
81.0
 51
171.0
  0
LINE
  5
157
330
143
100
AcDbEntity
  8
0
  6
Continuous
 62
     0
370
     0
100
AcDbLine
 10
39.212978
 20
799.094345
 30
0.0
 11
39.056544
 21
798.106657
 31
0.0
  0
LINE
  5
158
330
143
100
AcDbEntity
  8
0
  6
Continuous
 62
     0
370
     0
100
AcDbLine
 10
39.056544
 20
798.106657
 30
0.0
 11
113.648798
 21
786.292404
 31
0.0
  0
LINE
  5
159
330
143
100
AcDbEntity
  8
0
  6
Continuous
 62
     0
370
     0
100
AcDbLine
 10
113.648798
 20
786.292404
 30
0.0
 11
113.805233
 21
787.280092
 31
0.0
  0
ARC
  5
15A
330
143
100
AcDbEntity
  8
0
  6
Continuous
 62
     0
370
    30
100
AcDbCircle
 10
117.648799
 20
785.658866
 30
0.0
 40
1.000000000003522
100
AcDbArc
 50
0.0
 51
81.0
  0
ARC
  5
15B
330
143
100
AcDbEntity
  8
0
  6
Continuous
 62
     0
370
    30
100
AcDbCircle
 10
34.792925
 20
796.757039
 30
0.0
 40
0.999999999999992
100
AcDbArc
 50
171.0
 51
261.0
  0
LWPOLYLINE
  5
15C
330
143
100
AcDbEntity
  8
0
  6
Continuous
 62
     0
370
     0
100
AcDbPolyline
 90
        5
 70
     0
 43
0.0
 10
38.587242
 20
795.143616
 10
38.599018
 20
795.217957
 10
38.632568
 20
795.42981
 10
38.682842
 20
795.747192
 10
38.743679
 20
796.131287
  0
LINE
  5
15D
330
143
100
AcDbEntity
  8
0
  6
Continuous
 62
     0
370
     0
100
AcDbLine
 10
78.43096
 20
788.832988
 30
0.0
 11
78.587395
 21
789.820676
 31
0.0
  0
LINE
  5
15E
330
143
100
AcDbEntity
  8
0
  6
Continuous
 62
     0
370
     0
100
AcDbLine
 10
78.587395
 20
789.820676
 30
0.0
 11
38.743678
 21
796.131301
 31
0.0
  0
ARC
  5
15F
330
143
100
AcDbEntity
  8
0
  6
Continuous
 62
     0
370
     0
100
AcDbCircle
 10
77.648788
 20
783.894546
 30
0.0
 40
5.999999999999445
100
AcDbArc
 50
0.0
 51
81.0
  0
LINE
  5
160
330
143
100
AcDbEntity
  8
0
  6
Continuous
 62
     0
370
    30
100
AcDbLine
 10
100.260027
 20
764.512947
 30
0.0
 11
83.648788
 21
764.512947
 31
0.0
  0
ARC
  5
161
330
143
100
AcDbEntity
  8
0
  6
Continuous
 62
     0
370
    30
100
AcDbCircle
 10
100.260027
 20
766.512947
 30
0.0
 40
1.999999999948833
100
AcDbArc
 50
270.0
 51
292.0
  0
LINE
  5
162
330
143
100
AcDbEntity
  8
0
  6
Continuous
 62
     0
370
    30
100
AcDbLine
 10
113.648798
 20
769.765292
 30
0.0
 11
101.009241
 21
764.658579
 31
0.0
  0
ARC
  5
163
330
143
100
AcDbEntity
  8
0
  6
Continuous
 62
     0
370
     0
100
AcDbCircle
 10
107.784073
 20
761.222519
 30
0.0
 40
21.0072510453706
100
AcDbArc
 50
170.988483
 51
177.297675
  0
LINE
  5
164
330
143
100
AcDbEntity
  8
0
  6
Continuous
 62
     0
370
     0
100
AcDbLine
 10
83.653072
 20
731.471513
 30
0.0
 11
82.653072
 21
731.471513
 31
0.0
  0
LINE
  5
165
330
143
100
AcDbEntity
  8
0
  6
Continuous
 62
     0
370
    30
100
AcDbLine
 10
82.653072
 20
731.471513
 30
0.0
 11
82.653072
 21
497.421513
 31
0.0
  0
LINE
  5
166
330
143
100
AcDbEntity
  8
0
  6
Continuous
 62
     0
370
     0
100
AcDbLine
 10
83.653072
 20
497.421513
 30
0.0
 11
83.653072
 21
731.471513
 31
0.0
  0
LINE
  5
167
330
143
100
AcDbEntity
  8
0
  6
Continuous
 62
     0
370
    30
100
AcDbLine
 10
-91.192644
 20
747.221513
 30
0.0
 11
-91.192644
 21
761.212945
 31
0.0
  0
LINE
  5
168
330
143
100
AcDbEntity
  8
0
  6
Continuous
 62
     0
370
     0
100
AcDbLine
 10
-86.192645
 20
747.221513
 30
0.0
 11
-86.192645
 21
761.212945
 31
0.0
  0
LINE
  5
169
330
143
100
AcDbEntity
  8
0
  6
Continuous
 62
     0
370
     0
100
AcDbLine
 10
-86.192645
 20
761.212945
 30
0.0
 11
-91.192644
 21
761.212945
 31
0.0
  0
LINE
  5
16A
330
143
100
AcDbEntity
  8
0
  6
Continuous
 62
     0
370
     0
100
AcDbLine
 10
-91.192644
 20
747.221513
 30
0.0
 11
-86.192645
 21
747.221513
 31
0.0
  0
LINE
  5
16B
330
143
100
AcDbEntity
  8
0
  6
Continuous
 62
     0
370
     0
100
AcDbLine
 10
113.494504
 20
761.212945
 30
0.0
 11
-86.192645
 21
761.212945
 31
0.0
  0
LINE
  5
16C
330
143
100
AcDbEntity
  8
0
  6
Continuous
 62
     0
370
     0
100
AcDbLine
 10
-86.192645
 20
747.221513
 30
0.0
 11
67.903072
 21
747.221513
 31
0.0
  0
ARC
  5
16D
330
143
100
AcDbEntity
  8
0
  6
Continuous
 62
     0
370
     0
100
AcDbCircle
 10
67.903072
 20
731.471513
 30
0.0
 40
15.74999999999987
100
AcDbArc
 50
0.0
 51
90.0
  0
LINE
  5
16E
330
143
100
AcDbEntity
  8
0
  6
Continuous
 62
     0
370
     0
100
AcDbLine
 10
113.494504
 20
497.421513
 30
0.0
 11
113.494504
 21
761.212945
 31
0.0
  0
LINE
  5
16F
330
143
100
AcDbEntity
  8
0
  6
Continuous
 62
     0
370
     0
100
AcDbLine
 10
118.494504
 20
761.212945
 30
0.0
 11
113.494504
 21
761.212945
 31
0.0
  0
LINE
  5
170
330
143
100
AcDbEntity
  8
0
  6
Continuous
 62
     0
370
    30
100
AcDbLine
 10
118.494504
 20
497.421513
 30
0.0
 11
118.494504
 21
761.212945
 31
0.0
  0
ARC
  5
171
330
143
100
AcDbEntity
  8
0
  6
Continuous
 62
     0
370
    30
100
AcDbCircle
 10
67.903072
 20
731.471513
 30
0.0
 40
14.75
100
AcDbArc
 50
0.0
 51
90.0
  0
LINE
  5
172
330
143
100
AcDbEntity
  8
0
  6
Continuous
 62
     0
370
     0
100
AcDbLine
 10
67.903072
 20
746.221513
 30
0.0
 11
67.903072
 21
747.221513
 31
0.0
  0
LINE
  5
173
330
143
100
AcDbEntity
  8
0
  6
Continuous
 62
     0
370
     0
100
AcDbLine
 10
-86.192645
 20
747.221513
 30
0.0
 11
-86.192645
 21
746.221513
 31
0.0
  0
LINE
  5
174
330
143
100
AcDbEntity
  8
0
  6
Continuous
 62
     0
370
    30
100
AcDbLine
 10
-86.192645
 20
746.221513
 30
0.0
 11
67.903072
 21
746.221513
 31
0.0
  0
ARC
  5
175
330
143
100
AcDbEntity
  8
0
  6
Continuous
 62
     0
370
    30
100
AcDbCircle
 10
-90.192644
 20
747.221513
 30
0.0
 40
1.000000000002913
100
AcDbArc
 50
180.0
 51
270.0
  0
LINE
  5
176
330
143
100
AcDbEntity
  8
0
  6
Continuous
 62
     0
370
    30
100
AcDbLine
 10
-86.192645
 20
746.221513
 30
0.0
 11
-90.192644
 21
746.221513
 31
0.0
  0
ARC
  5
177
330
143
100
AcDbEntity
  8
0
  6
Continuous
 62
     0
370
    30
100
AcDbCircle
 10
117.494504
 20
761.212945
 30
0.0
 40
0.9999999999977582
100
AcDbArc
 50
360.0
 51
90.0
  0
LINE
  5
178
330
143
100
AcDbEntity
  8
0
  6
Continuous
 62
     0
370
    30
100
AcDbLine
 10
117.494504
 20
762.212945
 30
0.0
 11
113.494504
 21
762.212945
 31
0.0
  0
LINE
  5
179
330
143
100
AcDbEntity
  8
0
  6
Continuous
 62
     0
370
     0
100
AcDbLine
 10
113.494504
 20
762.212945
 30
0.0
 11
113.494504
 21
761.212945
 31
0.0
  0
LINE
  5
17A
330
143
100
AcDbEntity
  8
0
  6
Continuous
 62
     0
370
    30
100
AcDbLine
 10
113.494504
 20
762.212945
 30
0.0
 11
-86.192645
 21
762.212945
 31
0.0
  0
LINE
  5
17B
330
143
100
AcDbEntity
  8
0
  6
Continuous
 62
     0
370
     0
100
AcDbLine
 10
-86.192645
 20
762.212945
 30
0.0
 11
-86.192645
 21
761.212945
 31
0.0
  0
LINE
  5
17C
330
143
100
AcDbEntity
  8
0
  6
Continuous
 62
     0
370
    30
100
AcDbLine
 10
-86.192645
 20
762.212945
 30
0.0
 11
-90.192644
 21
762.212945
 31
0.0
  0
ARC
  5
17D
330
143
100
AcDbEntity
  8
0
  6
Continuous
 62
     0
370
    30
100
AcDbCircle
 10
-90.192644
 20
761.212945
 30
0.0
 40
0.9999999999854055
100
AcDbArc
 50
90.0
 51
180.0
  0
LINE
  5
17E
330
143
100
AcDbEntity
  8
0
  6
Continuous
 62
     0
370
     0
100
AcDbLine
 10
120.188456
 20
494.421516
 30
0.0
 11
120.188456
 21
497.421516
 31
0.0
  0
LINE
  5
17F
330
143
100
AcDbEntity
  8
0
  6
Continuous
 62
     0
370
    30
100
AcDbLine
 10
120.188456
 20
497.421516
 30
0.0
 11
70.648788
 21
497.421516
 31
0.0
  0
LINE
  5
180
330
143
100
AcDbEntity
  8
0
  6
Continuous
 62
     0
370
    30
100
AcDbLine
 10
70.648788
 20
494.421516
 30
0.0
 11
120.188456
 21
494.421516
 31
0.0
  0
LINE
  5
181
330
143
100
AcDbEntity
  8
0
  6
Continuous
 62
     0
370
    30
100
AcDbLine
 10
120.188456
 20
494.421516
 30
0.0
 11
130.648788
 21
494.421516
 31
0.0
  0
LINE
  5
182
330
143
100
AcDbEntity
  8
0
  6
Continuous
 62
     0
370
    30
100
AcDbLine
 10
130.648788
 20
497.421516
 30
0.0
 11
120.188456
 21
497.421516
 31
0.0
  0
LINE
  5
183
330
143
100
AcDbEntity
  8
0
  6
Continuous
 62
     0
370
     0
100
AcDbLine
 10
129.459859
 20
544.165864
 30
0.0
 11
129.459859
 21
546.665864
 31
0.0
  0
ARC
  5
184
330
143
100
AcDbEntity
  8
0
  6
Continuous
 62
     0
370
     0
100
AcDbCircle
 10
129.459859
 20
541.165864
 30
0.0
 40
5.500000000000021
100
AcDbArc
 50
90.000002
 51
155.0
  0
LINE
  5
185
330
143
100
AcDbEntity
  8
0
  6
Continuous
 62
     0
370
     0
100
AcDbLine
 10
124.475166
 20
543.490264
 30
0.0
 11
126.740935
 21
542.433719
 31
0.0
  0
LWPOLYLINE
  5
186
330
143
100
AcDbEntity
  8
0
  6
Continuous
 62
     0
370
     0
100
AcDbPolyline
 90
        8
 70
     0
 43
0.0
 10
122.209396
 20
544.546814
 10
122.257324
 20
544.524475
 10
122.411438
 20
544.452576
 10
122.677017
 20
544.328735
 10
123.042198
 20
544.158447
 10
123.478745
 20
543.954895
 10
123.948936
 20
543.735657
 10
124.475166
 20
543.490234
  0
LINE
  5
187
330
143
100
AcDbEntity
  8
0
  6
Continuous
 62
     0
370
     0
100
AcDbLine
 10
129.459859
 20
546.665864
 30
0.0
 11
129.459859
 21
549.165864
 31
0.0
  0
LINE
  5
188
330
143
100
AcDbEntity
  8
0
  6
Continuous
 62
     0
370
     0
100
AcDbLine
 10
140.955109
 20
546.665864
 30
0.0
 11
139.455109
 21
546.665864
 31
0.0
  0
LINE
  5
189
330
143
100
AcDbEntity
  8
0
  6
Continuous
 62
     0
370
     0
100
AcDbLine
 10
139.455109
 20
546.665864
 30
0.0
 11
139.455109
 21
544.165864
 31
0.0
  0
LINE
  5
18A
330
143
100
AcDbEntity
  8
0
  6
Continuous
 62
     0
370
     0
100
AcDbLine
 10
139.455109
 20
549.165864
 30
0.0
 11
139.455109
 21
546.665864
 31
0.0
  0
LINE
  5
18B
330
143
100
AcDbEntity
  8
0
  6
Continuous
 62
     0
370
     0
100
AcDbLine
 10
118.494504
 20
530.664694
 30
0.0
 11
124.475166
 21
543.490264
 31
0.0
  0
LINE
  5
18C
330
143
100
AcDbEntity
  8
0
  6
Continuous
 62
     0
370
     0
100
AcDbLine
 10
129.459859
 20
546.665864
 30
0.0
 11
139.455109
 21
546.665864
 31
0.0
  0
LINE
  5
18D
330
143
100
AcDbEntity
  8
0
  6
Continuous
 62
     0
370
    30
100
AcDbLine
 10
139.455109
 20
544.165864
 30
0.0
 11
129.459859
 21
544.165864
 31
0.0
  0
LINE
  5
18E
330
143
100
AcDbEntity
  8
0
  6
Continuous
 62
     0
370
    30
100
AcDbLine
 10
139.455109
 20
549.165864
 30
0.0
 11
129.459859
 21
549.165864
 31
0.0
  0
LINE
  5
18F
330
143
100
AcDbEntity
  8
0
  6
Continuous
 62
     0
370
    30
100
AcDbLine
 10
126.740935
 20
542.433719
 30
0.0
 11
118.495074
 21
524.750412
 31
0.0
  0
LINE
  5
190
330
143
100
AcDbEntity
  8
0
  6
Continuous
 62
     0
370
    30
100
AcDbLine
 10
122.209397
 20
544.54681
 30
0.0
 11
118.493935
 21
536.578977
 31
0.0
  0
ARC
  5
191
330
143
100
AcDbEntity
  8
0
  6
Continuous
 62
     0
370
    30
100
AcDbCircle
 10
139.455085
 20
547.665841
 30
0.0
 40
1.500023590202259
100
AcDbArc
 50
0.023394
 51
89.999101
  0
ARC
  5
192
330
143
100
AcDbEntity
  8
0
  6
Continuous
 62
     0
370
    30
100
AcDbCircle
 10
139.455084
 20
545.665889
 30
0.0
 40
1.500025306554371
100
AcDbArc
 50
270.000968
 51
359.976544
  0
ARC
  5
193
330
143
100
AcDbEntity
  8
0
  6
Continuous
 62
     0
370
    30
100
AcDbCircle
 10
129.459865
 20
541.165855
 30
0.0
 40
8.000008926183902
100
AcDbArc
 50
90.000042
 51
154.999959
  0
ARC
  5
194
330
143
100
AcDbEntity
  8
0
  6
Continuous
 62
     0
370
    30
100
AcDbCircle
 10
129.459906
 20
541.16579
 30
0.0
 40
3.000073751086097
100
AcDbArc
 50
90.000899
 51
154.999103
  0
LINE
  5
195
330
143
100
AcDbEntity
  8
0
  6
Continuous
 62
     0
370
    30
100
AcDbLine
 10
130.648788
 20
494.421516
 30
0.0
 11
130.648788
 21
497.421516
 31
0.0
  0
LINE
  5
196
330
143
100
AcDbEntity
  8
0
  6
Continuous
 62
     0
370
    30
100
AcDbLine
 10
70.648788
 20
494.421516
 30
0.0
 11
70.648788
 21
497.421516
 31
0.0
  0
ARC
  5
197
330
143
100
AcDbEntity
  8
0
  6
Continuous
 62
     0
370
    30
100
AcDbCircle
 10
99.927298
 20
761.212921
 30
0.0
 40
17.50008635759301
100
AcDbArc
 50
3.275899
 51
31.172238
  0
ARC
  5
198
330
143
100
AcDbEntity
  8
0
  6
Continuous
 62
     0
370
    30
100
AcDbCircle
 10
101.371168
 20
761.212826
 30
0.0
 40
17.50097966323886
100
AcDbArc
 50
169.130787
 51
176.723958
  0
ENDBLK
  5
19A
330
143
100
AcDbEntity
  8
0
100
AcDbBlockEnd
  0
ENDSEC
  0
SECTION
  2
ENTITIES
  0
INSERT
  5
A3
330
1F
100
AcDbEntity
  8
0
  6
Continuous
 62
   250
370
     0
100
AcDbBlockReference
  2
a
 10
283.674805
 20
100.441002
 30
0.0
  0
INSERT
  5
E9
330
1F
100
AcDbEntity
  8
0
  6
Continuous
 62
   250
370
     0
100
AcDbBlockReference
  2
b
 10
205.915192
 20
100.441002
 30
0.0
  0
INSERT
  5
142
330
1F
100
AcDbEntity
  8
0
  6
Continuous
 62
   250
370
     0
100
AcDbBlockReference
  2
c
 10
255.828552
 20
117.55143
 30
0.0
  0
INSERT
  5
19B
330
1F
100
AcDbEntity
  8
0
  6
Continuous
 62
   250
370
     0
100
AcDbBlockReference
  2
e
 10
191.286652
 20
-0.000031
 30
0.0
  0
ENDSEC
  0
SECTION
  2
OBJECTS
  0
DICTIONARY
  5
C
330
0
100
AcDbDictionary
281
     1
  3
ACAD_GROUP
350
D
  3
ACAD_LAYOUT
350
1A
  3
ACAD_MLEADERSTYLE
350
19E
  3
ACAD_MLINESTYLE
350
17
  3
ACAD_PLOTSETTINGS
350
19
  3
ACAD_PLOTSTYLENAME
350
E
  3
ACAD_VISUALSTYLE
350
2A
  3
AcDbVariableDictionary
350
19C
  0
DICTIONARY
  5
D
102
{ACAD_REACTORS
330
C
102
}
330
C
100
AcDbDictionary
281
     1
  0
DICTIONARY
  5
1A
102
{ACAD_REACTORS
330
C
102
}
330
C
100
AcDbDictionary
281
     1
  3
Layout1
350
1E
  3
Layout2
350
26
  3
Model
350
22
  0
DICTIONARY
  5
19E
102
{ACAD_REACTORS
330
C
102
}
330
C
100
AcDbDictionary
281
     1
  0
DICTIONARY
  5
17
102
{ACAD_REACTORS
330
C
102
}
330
C
100
AcDbDictionary
281
     1
  3
Standard
350
18
  0
DICTIONARY
  5
19
102
{ACAD_REACTORS
330
C
102
}
330
C
100
AcDbDictionary
281
     1
  0
ACDBDICTIONARYWDFLT
  5
E
102
{ACAD_REACTORS
330
C
102
}
330
C
100
AcDbDictionary
281
     1
  3
Normal
350
F
100
AcDbDictionaryWithDefault
340
F
  0
DICTIONARY
  5
2A
102
{ACAD_REACTORS
330
C
102
}
330
C
100
AcDbDictionary
281
     1
  3
2dWireframe
350
2F
  3
3D Hidden
350
31
  3
3dWireframe
350
30
  3
Basic
350
32
  3
Brighten
350
36
  3
ColorChange
350
3A
  3
Conceptual
350
34
  3
Dim
350
35
  3
Facepattern
350
39
  3
Flat
350
2B
  3
FlatWithEdges
350
2C
  3
Gouraud
350
2D
  3
GouraudWithEdges
350
2E
  3
Linepattern
350
38
  3
Realistic
350
33
  3
Thicken
350
37
  0
DICTIONARY
  5
19C
102
{ACAD_REACTORS
330
C
102
}
330
C
100
AcDbDictionary
281
     1
  3
PSOLHEIGHT
350
1A0
  3
PSOLWIDTH
350
19F
  0
LAYOUT
  5
1E
102
{ACAD_REACTORS
330
1A
102
}
330
1A
100
AcDbPlotSettings
  1

  2
none_device
  4

  6

 40
0.0
 41
0.0
 42
0.0
 43
0.0
 44
0.0
 45
0.0
 46
0.0
 47
0.0
 48
0.0
 49
0.0
140
0.0
141
0.0
142
1.0
143
1.0
 70
   688
 72
     0
 73
     0
 74
     5
  7

 75
    16
147
1.0
148
0.0
149
0.0
100
AcDbLayout
  1
Layout1
 70
     1
 71
     1
 10
0.0
 20
0.0
 11
420.0
 21
297.0
 12
0.0
 22
0.0
 32
0.0
 14
1.000000E+20
 24
1.000000E+20
 34
1.000000E+20
 15
-1.000000E+20
 25
-1.000000E+20
 35
-1.000000E+20
146
0.0
 13
0.0
 23
0.0
 33
0.0
 16
1.0
 26
0.0
 36
0.0
 17
0.0
 27
1.0
 37
0.0
 76
     0
330
1B
  0
LAYOUT
  5
26
102
{ACAD_REACTORS
330
1A
102
}
330
1A
100
AcDbPlotSettings
  1

  2
none_device
  4

  6

 40
0.0
 41
0.0
 42
0.0
 43
0.0
 44
0.0
 45
0.0
 46
0.0
 47
0.0
 48
0.0
 49
0.0
140
0.0
141
0.0
142
1.0
143
1.0
 70
   688
 72
     0
 73
     0
 74
     5
  7

 75
    16
147
1.0
148
0.0
149
0.0
100
AcDbLayout
  1
Layout2
 70
     1
 71
     2
 10
0.0
 20
0.0
 11
0.0
 21
0.0
 12
0.0
 22
0.0
 32
0.0
 14
0.0
 24
0.0
 34
0.0
 15
0.0
 25
0.0
 35
0.0
146
0.0
 13
0.0
 23
0.0
 33
0.0
 16
1.0
 26
0.0
 36
0.0
 17
0.0
 27
1.0
 37
0.0
 76
     0
330
23
  0
LAYOUT
  5
22
102
{ACAD_REACTORS
330
1A
102
}
330
1A
100
AcDbPlotSettings
  1

  2
none_device
  4

  6

 40
0.0
 41
0.0
 42
0.0
 43
0.0
 44
0.0
 45
0.0
 46
0.0
 47
0.0
 48
0.0
 49
0.0
140
0.0
141
0.0
142
1.0
143
1.0
 70
  1712
 72
     0
 73
     0
 74
     0
  7

 75
     0
147
1.0
148
0.0
149
0.0
100
AcDbLayout
  1
Model
 70
     1
 71
     0
 10
-91.192642
 20
81.652565
 11
818.949097
 21
799.732422
 12
0.0
 22
0.0
 32
0.0
 14
-91.192642
 24
81.652565
 34
0.0
 15
818.949097
 25
799.732422
 35
0.0
146
0.0
 13
0.0
 23
0.0
 33
0.0
 16
1.0
 26
0.0
 36
0.0
 17
0.0
 27
1.0
 37
0.0
 76
     0
330
1F
331
29
  0
MLINESTYLE
  5
18
102
{ACAD_REACTORS
330
17
102
}
330
17
100
AcDbMlineStyle
  2
Standard
 70
     0
  3

 62
   256
 51
90.0
 52
90.0
 71
     2
 49
0.5
 62
   256
  6
BYLAYER
 49
-0.5
 62
   256
  6
BYLAYER
  0
ACDBPLACEHOLDER
  5
F
102
{ACAD_REACTORS
330
E
102
}
330
E
  0
VISUALSTYLE
  5
2F
102
{ACAD_REACTORS
330
2A
102
}
330
2A
100
AcDbVisualStyle
  2
2dWireframe
 70
     4
 71
     0
 72
     2
 73
     0
 90
        0
 40
-0.6
 41
-30.0
 62
     5
 63
     7
 74
     1
 91
        4
 64
     7
 65
   257
 75
     1
175
     1
 42
1.0
 92
        0
 66
   257
 43
1.0
 76
     1
 77
     6
 78
     2
 67
     7
 79
     5
170
     0
171
     0
290
     0
174
     0
 93
        1
 44
0.0
173
     0
291
     0
 45
0.0
1001
ACAD
1000
AcDbSavedByObjectVersion
1070
     0
  0
VISUALSTYLE
  5
31
102
{ACAD_REACTORS
330
2A
102
}
330
2A
100
AcDbVisualStyle
  2
3D Hidden
 70
     6
 71
     1
 72
     2
 73
     2
 90
        0
 40
-0.6
 41
-30.0
 62
     5
 63
     7
 74
     2
 91
        2
 64
     7
 65
   257
 75
     2
175
     1
 42
40.0
 92
        0
 66
   257
 43
1.0
 76
     1
 77
     6
 78
     2
 67
     7
 79
     3
170
     0
171
     0
290
     0
174
     0
 93
        1
 44
0.0
173
     0
291
     0
 45
0.0
1001
ACAD
1000
AcDbSavedByObjectVersion
1070
     0
  0
VISUALSTYLE
  5
30
102
{ACAD_REACTORS
330
2A
102
}
330
2A
100
AcDbVisualStyle
  2
3dWireframe
 70
     5
 71
     0
 72
     2
 73
     0
 90
        0
 40
-0.6
 41
-30.0
 62
     5
 63
     7
 74
     1
 91
        4
 64
     7
 65
   257
 75
     1
175
     1
 42
1.0
 92
        0
 66
   257
 43
1.0
 76
     1
 77
     6
 78
     2
 67
     7
 79
     5
170
     0
171
     0
290
     0
174
     0
 93
        1
 44
0.0
173
     0
291
     0
 45
0.0
1001
ACAD
1000
AcDbSavedByObjectVersion
1070
     0
  0
VISUALSTYLE
  5
32
102
{ACAD_REACTORS
330
2A
102
}
330
2A
100
AcDbVisualStyle
  2
Basic
 70
     7
 71
     1
 72
     0
 73
     1
 90
        0
 40
-0.6
 41
-30.0
 62
     5
 63
     7
 74
     0
 91
        4
 64
     7
 65
   257
 75
     1
175
     1
 42
1.0
 92
        8
 66
     7
 43
1.0
 76
     1
 77
     6
 78
     2
 67
     7
 79
     5
170
     0
171
     0
290
     0
174
     0
 93
        1
 44
0.0
173
     0
291
     1
 45
0.0
1001
ACAD
1000
AcDbSavedByObjectVersion
1070
     0
  0
VISUALSTYLE
  5
36
102
{ACAD_REACTORS
330
2A
102
}
330
2A
100
AcDbVisualStyle
  2
Brighten
 70
    12
 71
     2
 72
     2
 73
     0
 90
        0
 40
-0.6
 41
-30.0
 62
     5
 63
     7
 74
     1
 91
        4
 64
     7
 65
   257
 75
     1
175
     1
 42
1.0
 92
        8
 66
     7
 43
1.0
 76
     1
 77
     6
 78
     2
 67
     7
 79
     5
170
     0
171
     0
290
     0
174
     0
 93
        1
 44
50.0
173
     0
291
     1
 45
0.0
1001
ACAD
1000
AcDbSavedByObjectVersion
1070
     0
  0
VISUALSTYLE
  5
3A
102
{ACAD_REACTORS
330
2A
102
}
330
2A
100
AcDbVisualStyle
  2
ColorChange
 70
    16
 71
     2
 72
     2
 73
     3
 90
        0
 40
-0.6
 41
-30.0
 62
     5
 63
     8
 74
     1
 91
        4
 64
     7
 65
   257
 75
     1
175
     1
 42
1.0
 92
        8
 66
     8
 43
1.0
 76
     1
 77
     6
 78
     2
 67
     7
 79
     5
170
     0
171
     0
290
     0
174
     0
 93
        1
 44
0.0
173
     0
291
     1
 45
0.0
1001
ACAD
1000
AcDbSavedByObjectVersion
1070
     0
  0
VISUALSTYLE
  5
34
102
{ACAD_REACTORS
330
2A
102
}
330
2A
100
AcDbVisualStyle
  2
Conceptual
 70
     9
 71
     3
 72
     2
 73
     0
 90
        0
 40
-0.6
 41
-30.0
 62
     5
 63
     7
 74
     2
 91
        2
 64
     7
 65
   257
 75
     1
175
     1
 42
40.0
 92
        8
 66
     7
 43
1.0
 76
     1
 77
     6
 78
     2
 67
     7
 79
     3
170
     0
171
     0
290
     0
174
     0
 93
        1
 44
0.0
173
     0
291
     0
 45
0.0
1001
ACAD
1000
AcDbSavedByObjectVersion
1070
     0
  0
VISUALSTYLE
  5
35
102
{ACAD_REACTORS
330
2A
102
}
330
2A
100
AcDbVisualStyle
  2
Dim
 70
    11
 71
     2
 72
     2
 73
     0
 90
        0
 40
-0.6
 41
-30.0
 62
     5
 63
     7
 74
     1
 91
        4
 64
     7
 65
   257
 75
     1
175
     1
 42
1.0
 92
        8
 66
     7
 43
1.0
 76
     1
 77
     6
 78
     2
 67
     7
 79
     5
170
     0
171
     0
290
     0
174
     0
 93
        1
 44
-50.0
173
     0
291
     1
 45
0.0
1001
ACAD
1000
AcDbSavedByObjectVersion
1070
     0
  0
VISUALSTYLE
  5
39
102
{ACAD_REACTORS
330
2A
102
}
330
2A
100
AcDbVisualStyle
  2
Facepattern
 70
    15
 71
     2
 72
     2
 73
     0
 90
        0
 40
-0.6
 41
-30.0
 62
     5
 63
     7
 74
     1
 91
        4
 64
     7
 65
   257
 75
     1
175
     1
 42
1.0
 92
        8
 66
     7
 43
1.0
 76
     1
 77
     6
 78
     2
 67
     7
 79
     5
170
     0
171
     0
290
     0
174
     0
 93
        1
 44
0.0
173
     0
291
     1
 45
0.0
1001
ACAD
1000
AcDbSavedByObjectVersion
1070
     0
  0
VISUALSTYLE
  5
2B
102
{ACAD_REACTORS
330
2A
102
}
330
2A
100
AcDbVisualStyle
  2
Flat
 70
     0
 71
     2
 72
     1
 73
     1
 90
        2
 40
-0.6
 41
30.0
 62
     5
 63
     7
 74
     0
 91
        4
 64
     7
 65
   257
 75
     1
175
     1
 42
1.0
 92
        8
 66
     7
 43
1.0
 76
     1
 77
     6
 78
     2
 67
     7
 79
     5
170
     0
171
     0
290
     0
174
     0
 93
       13
 44
0.0
173
     0
291
     1
 45
0.0
1001
ACAD
1000
AcDbSavedByObjectVersion
1070
     0
  0
VISUALSTYLE
  5
2C
102
{ACAD_REACTORS
330
2A
102
}
330
2A
100
AcDbVisualStyle
  2
FlatWithEdges
 70
     1
 71
     2
 72
     1
 73
     1
 90
        2
 40
-0.6
 41
30.0
 62
     5
 63
     7
 74
     1
 91
        4
 64
     7
 65
   257
 75
     1
175
     1
 42
1.0
 92
        0
 66
   257
 43
1.0
 76
     1
 77
     6
 78
     2
 67
     7
 79
     5
170
     0
171
     0
290
     0
174
     0
 93
       13
 44
0.0
173
     0
291
     1
 45
0.0
1001
ACAD
1000
AcDbSavedByObjectVersion
1070
     0
  0
VISUALSTYLE
  5
2D
102
{ACAD_REACTORS
330
2A
102
}
330
2A
100
AcDbVisualStyle
  2
Gouraud
 70
     2
 71
     2
 72
     2
 73
     1
 90
        2
 40
-0.6
 41
30.0
 62
     5
 63
     7
 74
     0
 91
        4
 64
     7
 65
   257
 75
     1
175
     1
 42
1.0
 92
        0
 66
     7
 43
1.0
 76
     1
 77
     6
 78
     2
 67
     7
 79
     5
170
     0
171
     0
290
     0
174
     0
 93
       13
 44
0.0
173
     0
291
     1
 45
0.0
1001
ACAD
1000
AcDbSavedByObjectVersion
1070
     0
  0
VISUALSTYLE
  5
2E
102
{ACAD_REACTORS
330
2A
102
}
330
2A
100
AcDbVisualStyle
  2
GouraudWithEdges
 70
     3
 71
     2
 72
     2
 73
     1
 90
        2
 40
-0.6
 41
30.0
 62
     5
 63
     7
 74
     1
 91
        4
 64
     7
 65
   257
 75
     1
175
     1
 42
1.0
 92
        0
 66
   257
 43
1.0
 76
     1
 77
     6
 78
     2
 67
     7
 79
     5
170
     0
171
     0
290
     0
174
     0
 93
       13
 44
0.0
173
     0
291
     1
 45
0.0
1001
ACAD
1000
AcDbSavedByObjectVersion
1070
     0
  0
VISUALSTYLE
  5
38
102
{ACAD_REACTORS
330
2A
102
}
330
2A
100
AcDbVisualStyle
  2
Linepattern
 70
    14
 71
     2
 72
     2
 73
     0
 90
        0
 40
-0.6
 41
-30.0
 62
     5
 63
     7
 74
     1
 91
        4
 64
     7
 65
   257
 75
     7
175
     7
 42
1.0
 92
        8
 66
     7
 43
1.0
 76
     1
 77
     6
 78
     2
 67
     7
 79
     5
170
     0
171
     0
290
     0
174
     0
 93
        1
 44
0.0
173
     0
291
     1
 45
0.0
1001
ACAD
1000
AcDbSavedByObjectVersion
1070
     0
  0
VISUALSTYLE
  5
33
102
{ACAD_REACTORS
330
2A
102
}
330
2A
100
AcDbVisualStyle
  2
Realistic
 70
     8
 71
     2
 72
     2
 73
     0
 90
        0
 40
-0.6
 41
-30.0
 62
     5
 63
     7
 74
     1
 91
        0
 64
     7
 65
   257
 75
     1
175
     1
 42
1.0
 92
        8
 66
     8
 43
1.0
 76
     1
 77
     6
 78
     2
 67
     7
 79
     5
170
     0
171
     0
290
     0
174
     0
 93
       13
 44
0.0
173
     0
291
     0
 45
0.0
1001
ACAD
1000
AcDbSavedByObjectVersion
1070
     0
  0
VISUALSTYLE
  5
37
102
{ACAD_REACTORS
330
2A
102
}
330
2A
100
AcDbVisualStyle
  2
Thicken
 70
    13
 71
     2
 72
     2
 73
     0
 90
        0
 40
-0.6
 41
-30.0
 62
     5
 63
     7
 74
     1
 91
        4
 64
     7
 65
   257
 75
     1
175
     1
 42
1.0
 92
       12
 66
     7
 43
1.0
 76
     1
 77
     6
 78
     2
 67
     7
 79
     5
170
     0
171
     0
290
     0
174
     0
 93
        1
 44
0.0
173
     0
291
     1
 45
0.0
1001
ACAD
1000
AcDbSavedByObjectVersion
1070
     0
  0
DICTIONARYVAR
  5
1A0
102
{ACAD_REACTORS
330
19C
102
}
330
19C
100
DictionaryVariables
280
     0
  1
80.000000
  0
DICTIONARYVAR
  5
19F
102
{ACAD_REACTORS
330
19C
102
}
330
19C
100
DictionaryVariables
280
     0
  1
5.000000
  0
ENDSEC
  0
EOF
