  0
SECTION
  2
HEADER
  9
$ACADVER
  1
AC1015
  9
$ACADMAINTVER
 70
     6
  9
$DWGCODEPAGE
  3
ANSI_1252
  9
$INSBASE
 10
0.0
 20
0.0
 30
0.0
  9
$EXTMIN
 10
-70.834984
 20
108.492981
 30
0.0
  9
$EXTMAX
 10
615.54657
 20
528.08728
 30
0.0
  9
$LIMMIN
 10
-70.834984
 20
108.492981
  9
$LIMMAX
 10
615.54657
 20
528.08728
  9
$ORTHOMODE
 70
     0
  9
$REGENMODE
 70
     1
  9
$FILLMODE
 70
     1
  9
$QTEXTMODE
 70
     0
  9
$MIRRTEXT
 70
     1
  9
$LTSCALE
 40
1.0
  9
$ATTMODE
 70
     1
  9
$TEXTSIZE
 40
2.5
  9
$TRACEWID
 40
1.0
  9
$TEXTSTYLE
  7
Standard
  9
$CLAYER
  8
0
  9
$CELTYPE
  6
ByLayer
  9
$CECOLOR
 62
   256
  9
$CELTSCALE
 40
1.0
  9
$DISPSILH
 70
     0
  9
$DIMSCALE
 40
1.0
  9
$DIMASZ
 40
2.5
  9
$DIMEXO
 40
0.625
  9
$DIMDLI
 40
3.75
  9
$DIMRND
 40
0.0
  9
$DIMDLE
 40
0.0
  9
$DIMEXE
 40
1.25
  9
$DIMTP
 40
0.0
  9
$DIMTM
 40
0.0
  9
$DIMTXT
 40
2.5
  9
$DIMCEN
 40
2.5
  9
$DIMTSZ
 40
0.0
  9
$DIMTOL
 70
     0
  9
$DIMLIM
 70
     0
  9
$DIMTIH
 70
     0
  9
$DIMTOH
 70
     0
  9
$DIMSE1
 70
     0
  9
$DIMSE2
 70
     0
  9
$DIMTAD
 70
     1
  9
$DIMZIN
 70
     8
  9
$DIMBLK
  1

  9
$DIMASO
 70
     1
  9
$DIMSHO
 70
     1
  9
$DIMPOST
  1

  9
$DIMAPOST
  1

  9
$DIMALT
 70
     0
  9
$DIMALTD
 70
     3
  9
$DIMALTF
 40
0.03937
  9
$DIMLFAC
 40
1.0
  9
$DIMTOFL
 70
     1
  9
$DIMTVP
 40
0.0
  9
$DIMTIX
 70
     0
  9
$DIMSOXD
 70
     0
  9
$DIMSAH
 70
     0
  9
$DIMBLK1
  1

  9
$DIMBLK2
  1

  9
$DIMSTYLE
  2
ISO-25
  9
$DIMCLRD
 70
     0
  9
$DIMCLRE
 70
     0
  9
$DIMCLRT
 70
     0
  9
$DIMTFAC
 40
1.0
  9
$DIMGAP
 40
0.625
  9
$DIMJUST
 70
     0
  9
$DIMSD1
 70
     0
  9
$DIMSD2
 70
     0
  9
$DIMTOLJ
 70
     0
  9
$DIMTZIN
 70
     8
  9
$DIMALTZ
 70
     0
  9
$DIMALTTZ
 70
     0
  9
$DIMUPT
 70
     0
  9
$DIMDEC
 70
     2
  9
$DIMTDEC
 70
     2
  9
$DIMALTU
 70
     2
  9
$DIMALTTD
 70
     3
  9
$DIMTXSTY
  7
Standard
  9
$DIMAUNIT
 70
     0
  9
$DIMADEC
 70
     0
  9
$DIMALTRND
 40
0.0
  9
$DIMAZIN
 70
     0
  9
$DIMDSEP
 70
    44
  9
$DIMATFIT
 70
     3
  9
$DIMFRAC
 70
     0
  9
$DIMLDRBLK
  1

  9
$DIMLUNIT
 70
     2
  9
$DIMLWD
 70
    -2
  9
$DIMLWE
 70
    -2
  9
$DIMTMOVE
 70
     0
  9
$LUNITS
 70
     2
  9
$LUPREC
 70
     4
  9
$SKETCHINC
 40
1.0
  9
$FILLETRAD
 40
10.0
  9
$AUNITS
 70
     0
  9
$AUPREC
 70
     0
  9
$MENU
  1
.
  9
$ELEVATION
 40
0.0
  9
$PELEVATION
 40
0.0
  9
$THICKNESS
 40
0.0
  9
$LIMCHECK
 70
     0
  9
$CHAMFERA
 40
10.0
  9
$CHAMFERB
 40
10.0
  9
$CHAMFERC
 40
20.0
  9
$CHAMFERD
 40
0.0
  9
$SKPOLY
 70
     0
  9
$TDCREATE
 40
2455903.623737141
  9
$TDUCREATE
 40
2455903.582070475
  9
$TDUPDATE
 40
2455903.623737153
  9
$TDUUPDATE
 40
2455903.582070486
  9
$TDINDWG
 40
0.0000000116
  9
$TDUSRTIMER
 40
0.0000000116
  9
$USRTIMER
 70
     1
  9
$ANGBASE
 50
0.0
  9
$ANGDIR
 70
     0
  9
$PDMODE
 70
     0
  9
$PDSIZE
 40
0.0
  9
$PLINEWID
 40
0.0
  9
$SPLFRAME
 70
     0
  9
$SPLINETYPE
 70
     6
  9
$SPLINESEGS
 70
     8
  9
$HANDSEED
  5
1A1
  9
$SURFTAB1
 70
     6
  9
$SURFTAB2
 70
     6
  9
$SURFTYPE
 70
     6
  9
$SURFU
 70
     6
  9
$SURFV
 70
     6
  9
$UCSBASE
  2

  9
$UCSNAME
  2

  9
$UCSORG
 10
0.0
 20
0.0
 30
0.0
  9
$UCSXDIR
 10
1.0
 20
0.0
 30
0.0
  9
$UCSYDIR
 10
0.0
 20
1.0
 30
0.0
  9
$UCSORTHOREF
  2

  9
$UCSORTHOVIEW
 70
     0
  9
$UCSORGTOP
 10
0.0
 20
0.0
 30
0.0
  9
$UCSORGBOTTOM
 10
0.0
 20
0.0
 30
0.0
  9
$UCSORGLEFT
 10
0.0
 20
0.0
 30
0.0
  9
$UCSORGRIGHT
 10
0.0
 20
0.0
 30
0.0
  9
$UCSORGFRONT
 10
0.0
 20
0.0
 30
0.0
  9
$UCSORGBACK
 10
0.0
 20
0.0
 30
0.0
  9
$PUCSBASE
  2

  9
$PUCSNAME
  2

  9
$PUCSORG
 10
0.0
 20
0.0
 30
0.0
  9
$PUCSXDIR
 10
1.0
 20
0.0
 30
0.0
  9
$PUCSYDIR
 10
0.0
 20
1.0
 30
0.0
  9
$PUCSORTHOREF
  2

  9
$PUCSORTHOVIEW
 70
     0
  9
$PUCSORGTOP
 10
0.0
 20
0.0
 30
0.0
  9
$PUCSORGBOTTOM
 10
0.0
 20
0.0
 30
0.0
  9
$PUCSORGLEFT
 10
0.0
 20
0.0
 30
0.0
  9
$PUCSORGRIGHT
 10
0.0
 20
0.0
 30
0.0
  9
$PUCSORGFRONT
 10
0.0
 20
0.0
 30
0.0
  9
$PUCSORGBACK
 10
0.0
 20
0.0
 30
0.0
  9
$USERI1
 70
     0
  9
$USERI2
 70
     0
  9
$USERI3
 70
     0
  9
$USERI4
 70
     0
  9
$USERI5
 70
     0
  9
$USERR1
 40
0.0
  9
$USERR2
 40
0.0
  9
$USERR3
 40
0.0
  9
$USERR4
 40
0.0
  9
$USERR5
 40
0.0
  9
$WORLDVIEW
 70
     1
  9
$SHADEDGE
 70
     3
  9
$SHADEDIF
 70
    70
  9
$TILEMODE
 70
     1
  9
$MAXACTVP
 70
    64
  9
$PINSBASE
 10
0.0
 20
0.0
 30
0.0
  9
$PLIMCHECK
 70
     0
  9
$PEXTMIN
 10
1.000000E+20
 20
1.000000E+20
 30
1.000000E+20
  9
$PEXTMAX
 10
-1.000000E+20
 20
-1.000000E+20
 30
-1.000000E+20
  9
$PLIMMIN
 10
0.0
 20
0.0
  9
$PLIMMAX
 10
420.0
 20
297.0
  9
$UNITMODE
 70
     0
  9
$VISRETAIN
 70
     1
  9
$PLINEGEN
 70
     0
  9
$PSLTSCALE
 70
     1
  9
$TREEDEPTH
 70
  3020
  9
$CMLSTYLE
  2
Standard
  9
$CMLJUST
 70
     0
  9
$CMLSCALE
 40
20.0
  9
$PROXYGRAPHICS
 70
     1
  9
$MEASUREMENT
 70
     1
  9
$CELWEIGHT
370
    -1
  9
$ENDCAPS
280
     0
  9
$JOINSTYLE
280
     0
  9
$LWDISPLAY
290
     0
  9
$INSUNITS
 70
     4
  9
$HYPERLINKBASE
  1

  9
$STYLESHEET
  1

  9
$XEDIT
290
     1
  9
$CEPSNTYPE
380
     0
  9
$PSTYLEMODE
290
     1
  9
$FINGERPRINTGUID
  2
{D585E6DB-74C8-4791-A73D-D36A50CB5A66}
  9
$VERSIONGUID
  2
{FAEB1C32-E019-11D5-929B-00C0DF256EC4}
  9
$EXTNAMES
290
     1
  9
$PSVPSCALE
 40
0.0
  9
$OLESTARTUP
290
     0
  0
ENDSEC
  0
SECTION
  2
CLASSES
  0
CLASS
  1
ACDBDICTIONARYWDFLT
  2
AcDbDictionaryWithDefault
  3
ObjectDBX Classes
 90
        0
280
     0
281
     0
  0
CLASS
  1
VISUALSTYLE
  2
AcDbVisualStyle
  3
ObjectDBX Classes
 90
     4095
280
     0
281
     0
  0
CLASS
  1
DICTIONARYVAR
  2
AcDbDictionaryVar
  3
ObjectDBX Classes
 90
        0
280
     0
281
     0
  0
CLASS
  1
ACDBPLACEHOLDER
  2
AcDbPlaceHolder
  3
ObjectDBX Classes
 90
        0
280
     0
281
     0
  0
CLASS
  1
LAYOUT
  2
AcDbLayout
  3
ObjectDBX Classes
 90
        0
280
     0
281
     0
  0
ENDSEC
  0
SECTION
  2
TABLES
  0
TABLE
  2
VPORT
  5
8
330
0
100
AcDbSymbolTable
 70
     1
  0
VPORT
  5
29
330
8
100
AcDbSymbolTableRecord
100
AcDbViewportTableRecord
  2
*Active
 70
     0
 10
0.0
 20
0.0
 11
1.0
 21
1.0
 12
344.186916
 22
148.5
 13
0.0
 23
0.0
 14
10.0
 24
10.0
 15
10.0
 25
10.0
 16
0.0
 26
0.0
 36
1.0
 17
0.0
 27
0.0
 37
0.0
 40
297.0
 41
1.972973
 42
50.0
 43
0.0
 44
0.0
 50
0.0
 51
0.0
 71
     0
 72
   100
 73
     1
 74
     3
 75
     0
 76
     0
 77
     0
 78
     0
281
     0
 65
     1
110
0.0
120
0.0
130
0.0
111
1.0
121
0.0
131
0.0
112
0.0
122
1.0
132
0.0
 79
     0
146
0.0
  0
ENDTAB
  0
TABLE
  2
LTYPE
  5
5
330
0
100
AcDbSymbolTable
 70
     1
  0
LTYPE
  5
14
330
5
100
AcDbSymbolTableRecord
100
AcDbLinetypeTableRecord
  2
ByBlock
 70
     0
  3

 72
    65
 73
     0
 40
0.0
  0
LTYPE
  5
15
330
5
100
AcDbSymbolTableRecord
100
AcDbLinetypeTableRecord
  2
ByLayer
 70
     0
  3

 72
    65
 73
     0
 40
0.0
  0
LTYPE
  5
16
330
5
100
AcDbSymbolTableRecord
100
AcDbLinetypeTableRecord
  2
Continuous
 70
     0
  3
Solid line
 72
    65
 73
     0
 40
0.0
  0
ENDTAB
  0
TABLE
  2
LAYER
  5
2
330
0
100
AcDbSymbolTable
 70
     1
  0
LAYER
  5
10
330
2
100
AcDbSymbolTableRecord
100
AcDbLayerTableRecord
  2
0
 70
     0
 62
   106
  6
Continuous
370
     0
390
F
  0
ENDTAB
  0
TABLE
  2
STYLE
  5
3
330
0
100
AcDbSymbolTable
 70
     4
  0
STYLE
  5
11
330
3
100
AcDbSymbolTableRecord
100
AcDbTextStyleTableRecord
  2
Standard
 70
     0
 40
0.0
 41
1.0
 50
0.0
 71
     0
 42
2.5
  3
txt
  4

  0
STYLE
  5
3B
330
3
100
AcDbSymbolTableRecord
100
AcDbTextStyleTableRecord
  2
Default
 70
     0
 40
0.0
 41
1.0
 50
0.0
 71
     0
 42
0.2
  3

  4

1001
ACAD
1000
txt
1071
        0
  0
STYLE
  5
3C
330
3
100
AcDbSymbolTableRecord
100
AcDbTextStyleTableRecord
  2
ISO
 70
     0
 40
0.0
 41
1.0
 50
0.0
 71
     0
 42
0.2
  3

  4

1001
ACAD
1000
txt
1071
        0
  0
STYLE
  5
3D
330
3
100
AcDbSymbolTableRecord
100
AcDbTextStyleTableRecord
  2
GIANLU
 70
     0
 40
0.0
 41
1.0
 50
0.0
 71
     0
 42
0.2
  3

  4

1001
ACAD
1000
Arial
1071
        0
  0
ENDTAB
  0
TABLE
  2
VIEW
  5
6
330
0
100
AcDbSymbolTable
 70
     0
  0
ENDTAB
  0
TABLE
  2
UCS
  5
7
330
0
100
AcDbSymbolTable
 70
     0
  0
ENDTAB
  0
TABLE
  2
APPID
  5
9
330
0
100
AcDbSymbolTable
 70
     1
  0
APPID
  5
12
330
9
100
AcDbSymbolTableRecord
100
AcDbRegAppTableRecord
  2
ACAD
 70
     0
  0
ENDTAB
  0
TABLE
  2
DIMSTYLE
  5
A
330
0
100
AcDbSymbolTable
 70
     4
100
AcDbDimStyleTable
  0
DIMSTYLE
105
27
330
A
100
AcDbSymbolTableRecord
100
AcDbDimStyleTableRecord
  2
ISO-25
 70
     0
 41
2.5
 42
0.625
 43
3.75
 44
1.25
 73
     0
 74
     0
 77
     1
 78
     8
140
2.5
141
2.5
143
0.03937
147
0.625
171
     3
172
     1
271
     2
272
     2
274
     3
278
    44
283
     0
284
     8
340
11
  0
DIMSTYLE
105
3E
330
A
100
AcDbSymbolTableRecord
100
AcDbDimStyleTableRecord
  2
Default
 70
     0
  3
<>
 41
4.375
 42
1.05
 44
2.1
 73
     0
 74
     0
 77
     1
 78
     8
140
3.5
146
0.4
147
1.75
178
     3
271
     2
272
     3
284
     8
340
3B
341
3F
342
3F
  0
DIMSTYLE
105
46
330
A
100
AcDbSymbolTableRecord
100
AcDbDimStyleTableRecord
  2
ISO
 70
     0
  3
<>
 41
4.375
 42
1.05
 44
2.1
 73
     0
 74
     0
 77
     1
 78
     8
140
3.5
146
0.4
147
1.75
178
     3
271
     2
272
     3
284
     8
340
3C
341
3F
342
3F
  0
DIMSTYLE
105
47
330
A
100
AcDbSymbolTableRecord
100
AcDbDimStyleTableRecord
  2
zucchetti_unico
 70
     0
  3
<>
 41
3.0
 42
0.9
 44
1.8
 73
     0
 74
     0
 77
     1
 78
     8
140
3.0
146
0.6
147
1.5
176
   104
177
     3
178
     3
271
     2
272
     2
284
     8
340
3D
  0
ENDTAB
  0
TABLE
  2
BLOCK_RECORD
  5
1
330
0
100
AcDbSymbolTable
 70
     6
  0
BLOCK_RECORD
  5
1F
330
1
100
AcDbSymbolTableRecord
100
AcDbBlockTableRecord
  2
*Model_Space
340
22
  0
BLOCK_RECORD
  5
1B
330
1
100
AcDbSymbolTableRecord
100
AcDbBlockTableRecord
  2
*Paper_Space
340
1E
  0
BLOCK_RECORD
  5
23
330
1
100
AcDbSymbolTableRecord
100
AcDbBlockTableRecord
  2
*Paper_Space0
340
26
  0
BLOCK_RECORD
  5
3F
330
1
100
AcDbSymbolTableRecord
100
AcDbBlockTableRecord
  2
_CLOSED
340
0
  0
BLOCK_RECORD
  5
48
330
1
100
AcDbSymbolTableRecord
100
AcDbBlockTableRecord
  2
a
340
0
102
{BLKREFS
331
A3
102
}
  0
BLOCK_RECORD
  5
A4
330
1
100
AcDbSymbolTableRecord
100
AcDbBlockTableRecord
  2
b
340
0
102
{BLKREFS
331
E9
102
}
  0
BLOCK_RECORD
  5
EA
330
1
100
AcDbSymbolTableRecord
100
AcDbBlockTableRecord
  2
c
340
0
102
{BLKREFS
331
142
102
}
  0
BLOCK_RECORD
  5
143
330
1
100
AcDbSymbolTableRecord
100
AcDbBlockTableRecord
  2
e
340
0
102
{BLKREFS
331
19B
102
}
  0
ENDTAB
  0
ENDSEC
  0
SECTION
  2
BLOCKS
  0
BLOCK
  5
20
330
1F
100
AcDbEntity
  8
0
100
AcDbBlockBegin
  2
*Model_Space
 70
     0
 10
0.0
 20
0.0
 30
0.0
  3
*Model_Space
  1

  0
ENDBLK
  5
21
330
1F
100
AcDbEntity
  8
0
100
AcDbBlockEnd
  0
BLOCK
  5
1C
330
1B
100
AcDbEntity
 67
     1
  8
0
100
AcDbBlockBegin
  2
*Paper_Space
 70
     0
 10
0.0
 20
0.0
 30
0.0
  3
*Paper_Space
  1

  0
ENDBLK
  5
1D
330
1B
100
AcDbEntity
 67
     1
  8
0
100
AcDbBlockEnd
  0
BLOCK
  5
24
330
23
100
AcDbEntity
  8
0
100
AcDbBlockBegin
  2
*Paper_Space0
 70
     0
 10
0.0
 20
0.0
 30
0.0
  3
*Paper_Space0
  1

  0
ENDBLK
  5
25
330
23
100
AcDbEntity
  8
0
100
AcDbBlockEnd
  0
BLOCK
  5
40
330
3F
100
AcDbEntity
  8
0
100
AcDbBlockBegin
  2
_CLOSED
 70
     0
 10
0.0
 20
0.0
 30
0.0
  3
_CLOSED
  1

  0
LINE
  5
42
330
3F
100
AcDbEntity
  8
0
  6
ByBlock
 62
     0
370
    -2
100
AcDbLine
 10
-1.0
 20
0.166667
 30
0.0
 11
0.0
 21
0.0
 31
0.0
  0
LINE
  5
43
330
3F
100
AcDbEntity
  8
0
  6
ByBlock
 62
     0
370
    -2
100
AcDbLine
 10
0.0
 20
0.0
 30
0.0
 11
-1.0
 21
-0.166667
 31
0.0
  0
LINE
  5
44
330
3F
100
AcDbEntity
  8
0
  6
ByBlock
 62
     0
370
    -2
100
AcDbLine
 10
-1.0
 20
0.166667
 30
0.0
 11
-1.0
 21
-0.166667
 31
0.0
  0
LINE
  5
45
330
3F
100
AcDbEntity
  8
0
  6
ByBlock
 62
     0
370
    -2
100
AcDbLine
 10
0.0
 20
0.0
 30
0.0
 11
-1.0
 21
0.0
 31
0.0
  0
ENDBLK
  5
41
330
3F
100
AcDbEntity
  8
0
100
AcDbBlockEnd
  0
BLOCK
  5
A1
330
48
100
AcDbEntity
  8
0
100
AcDbBlockBegin
  2
a
 70
     0
 10
193.243164
 20
118.426201
 30
0.0
  3
a
  1

  0
LINE
  5
49
330
48
100
AcDbEntity
  8
0
  6
Continuous
 62
     0
370
     0
100
AcDbLine
 10
271.5034
 20
512.249402
 30
0.0
 11
271.5034
 21
492.867803
 31
0.0
  0
LINE
  5
4A
330
48
100
AcDbEntity
  8
0
  6
Continuous
 62
     0
370
    30
100
AcDbLine
 10
271.5034
 20
492.867803
 30
0.0
 11
272.5034
 21
492.867803
 31
0.0
  0
LINE
  5
4B
330
48
100
AcDbEntity
  8
0
  6
Continuous
 62
     0
370
    30
100
AcDbLine
 10
272.5034
 20
492.867803
 30
0.0
 11
272.5034
 21
512.249402
 31
0.0
  0
LINE
  5
4C
330
48
100
AcDbEntity
  8
0
  6
Continuous
 62
     0
370
     0
100
AcDbLine
 10
272.5034
 20
512.249402
 30
0.0
 11
271.5034
 21
512.249402
 31
0.0
  0
LINE
  5
4D
330
48
100
AcDbEntity
  8
0
  6
Continuous
 62
     0
370
     0
100
AcDbLine
 10
237.5034
 20
492.867803
 30
0.0
 11
237.5034
 21
512.249402
 31
0.0
  0
LINE
  5
4E
330
48
100
AcDbEntity
  8
0
  6
Continuous
 62
     0
370
     0
100
AcDbLine
 10
237.5034
 20
512.249402
 30
0.0
 11
236.5034
 21
512.249402
 31
0.0
  0
LINE
  5
4F
330
48
100
AcDbEntity
  8
0
  6
Continuous
 62
     0
370
    30
100
AcDbLine
 10
236.5034
 20
512.249402
 30
0.0
 11
236.5034
 21
492.867803
 31
0.0
  0
LINE
  5
50
330
48
100
AcDbEntity
  8
0
  6
Continuous
 62
     0
370
    30
100
AcDbLine
 10
236.5034
 20
492.867803
 30
0.0
 11
237.5034
 21
492.867803
 31
0.0
  0
LINE
  5
51
330
48
100
AcDbEntity
  8
0
  6
Continuous
 62
     0
370
    30
100
AcDbLine
 10
237.5034
 20
492.867803
 30
0.0
 11
271.5034
 21
492.867803
 31
0.0
  0
LINE
  5
52
330
48
100
AcDbEntity
  8
0
  6
Continuous
 62
     0
370
     0
100
AcDbLine
 10
271.5034
 20
512.249402
 30
0.0
 11
237.5034
 21
512.249402
 31
0.0
  0
LINE
  5
53
330
48
100
AcDbEntity
  8
0
  6
Continuous
 62
     0
370
     0
100
AcDbLine
 10
271.5034
 20
517.187844
 30
0.0
 11
271.5034
 21
512.249402
 31
0.0
  0
LINE
  5
54
330
48
100
AcDbEntity
  8
0
  6
Continuous
 62
     0
370
     0
100
AcDbLine
 10
237.5034
 20
517.187844
 30
0.0
 11
271.5034
 21
517.187844
 31
0.0
  0
LINE
  5
55
330
48
100
AcDbEntity
  8
0
  6
Continuous
 62
     0
370
     0
100
AcDbLine
 10
237.5034
 20
512.249402
 30
0.0
 11
237.5034
 21
517.187844
 31
0.0
  0
LINE
  5
56
330
48
100
AcDbEntity
  8
0
  6
Continuous
 62
     0
370
     0
100
AcDbLine
 10
271.5034
 20
517.187844
 30
0.0
 11
271.5034
 21
523.498468
 31
0.0
  0
LWPOLYLINE
  5
57
330
48
100
AcDbEntity
  8
0
  6
Continuous
 62
     0
370
     0
100
AcDbPolyline
 90
        9
 70
     0
 43
0.0
 10
271.503387
 20
523.498474
 10
271.428345
 20
523.61908
 10
271.200226
 20
523.737427
 10
270.827881
 20
523.846436
 10
270.336517
 20
523.940186
 10
269.739105
 20
524.017334
 10
269.043671
 20
524.075928
 10
268.287994
 20
524.112061
 10
267.503387
 20
524.124207
  0
LINE
  5
58
330
48
100
AcDbEntity
  8
0
  6
Continuous
 62
     0
370
     0
100
AcDbLine
 10
267.5034
 20
524.124206
 30
0.0
 11
241.5034
 21
524.124206
 31
0.0
  0
LWPOLYLINE
  5
59
330
48
100
AcDbEntity
  8
0
  6
Continuous
 62
     0
370
     0
100
AcDbPolyline
 90
        9
 70
     0
 43
0.0
 10
241.503403
 20
524.124207
 10
240.775955
 20
524.11377
 10
240.031845
 20
524.080322
 10
239.315704
 20
524.022339
 10
238.676285
 20
523.941162
 10
238.156662
 20
523.841187
 10
237.785217
 20
523.729187
 10
237.570709
 20
523.612793
 10
237.503403
 20
523.498474
  0
LINE
  5
5A
330
48
100
AcDbEntity
  8
0
  6
Continuous
 62
     0
370
     0
100
AcDbLine
 10
237.5034
 20
523.498468
 30
0.0
 11
237.5034
 21
517.187844
 31
0.0
  0
LINE
  5
5B
330
48
100
AcDbEntity
  8
0
  6
Continuous
 62
     0
370
     0
100
AcDbLine
 10
267.5034
 20
527.243685
 30
0.0
 11
267.5034
 21
525.268329
 31
0.0
  0
ELLIPSE
  5
5C
330
48
100
AcDbEntity
  8
0
  6
Continuous
 62
     0
370
     0
100
AcDbEllipse
 10
267.5034
 20
524.486157
 30
0.0
 11
-5.0
 21
1.427272083393603E-9
 31
0.0
210
0.0
220
0.0
230
-1.0
 40
0.156434
 41
1.570796324970134
 42
3.141592651765039
  0
LINE
  5
5D
330
48
100
AcDbEntity
  8
0
  6
Continuous
 62
     0
370
    30
100
AcDbLine
 10
272.5034
 20
524.486157
 30
0.0
 11
272.5034
 21
526.461512
 31
0.0
  0
ELLIPSE
  5
5E
330
48
100
AcDbEntity
  8
0
  6
Continuous
 62
     0
370
     0
100
AcDbEllipse
 10
267.5034
 20
526.461512
 30
0.0
 11
5.0
 21
-1.427272083393603E-9
 31
0.0
210
0.0
220
0.0
230
1.0
 40
0.156434
 41
0.0000000018247537
 42
1.570796328619659
  0
LINE
  5
5F
330
48
100
AcDbEntity
  8
0
  6
Continuous
 62
     0
370
     0
100
AcDbLine
 10
241.5034
 20
527.243685
 30
0.0
 11
241.5034
 21
525.268329
 31
0.0
  0
LINE
  5
60
330
48
100
AcDbEntity
  8
0
  6
Continuous
 62
     0
370
     0
100
AcDbLine
 10
241.5034
 20
525.268329
 30
0.0
 11
267.5034
 21
525.268329
 31
0.0
  0
LINE
  5
61
330
48
100
AcDbEntity
  8
0
  6
Continuous
 62
     0
370
     0
100
AcDbLine
 10
267.5034
 20
527.243685
 30
0.0
 11
241.5034
 21
527.243685
 31
0.0
  0
LINE
  5
62
330
48
100
AcDbEntity
  8
0
  6
Continuous
 62
     0
370
    30
100
AcDbLine
 10
236.5034
 20
526.461512
 30
0.0
 11
236.5034
 21
524.486157
 31
0.0
  0
ELLIPSE
  5
63
330
48
100
AcDbEntity
  8
0
  6
Continuous
 62
     0
370
     0
100
AcDbEllipse
 10
241.5034
 20
524.486157
 30
0.0
 11
-5.0
 21
1.427272013139723E-9
 31
0.0
210
0.0
220
0.0
230
-1.0
 40
0.156434
 41
6.283185305354833
 42
7.853981632149726
  0
ELLIPSE
  5
64
330
48
100
AcDbEntity
  8
0
  6
Continuous
 62
     0
370
     0
100
AcDbEllipse
 10
241.5034
 20
526.461512
 30
0.0
 11
5.0
 21
-1.427272013139723E-9
 31
0.0
210
0.0
220
0.0
230
1.0
 40
0.156434
 41
1.570796328619652
 42
3.141592655414547
  0
LINE
  5
65
330
48
100
AcDbEntity
  8
0
  6
Continuous
 62
     0
370
     0
100
AcDbLine
 10
241.5034
 20
527.243685
 30
0.0
 11
241.5034
 21
528.08713
 31
0.0
  0
LINE
  5
66
330
48
100
AcDbEntity
  8
0
  6
Continuous
 62
     0
370
     0
100
AcDbLine
 10
267.5034
 20
527.243685
 30
0.0
 11
267.5034
 21
528.08725
 31
0.0
  0
ARC
  5
67
330
48
100
AcDbEntity
  8
0
  6
Continuous
 62
     0
370
     0
100
AcDbCircle
 10
237.497282
 20
518.181726
 30
0.0
 40
0.9939013661287697
100
AcDbArc
 50
180.357081
 51
270.352685
  0
LINE
  5
68
330
48
100
AcDbEntity
  8
0
  6
Continuous
 62
     0
370
    30
100
AcDbLine
 10
236.5034
 20
518.175532
 30
0.0
 11
236.5034
 21
512.249402
 31
0.0
  0
ELLIPSE
  5
69
330
48
100
AcDbEntity
  8
0
  6
Continuous
 62
     0
370
     0
100
AcDbEllipse
 10
237.5034
 20
524.486157
 30
0.0
 11
0.9999999999999989
 21
1.137923790327683E-8
 31
0.0
210
0.0
220
0.0
230
-1.0
 40
0.987688
 41
1.570796338315949
 42
3.141592665110788
  0
LINE
  5
6A
330
48
100
AcDbEntity
  8
0
  6
Continuous
 62
     0
370
    30
100
AcDbLine
 10
236.5034
 20
524.486157
 30
0.0
 11
236.5034
 21
518.175532
 31
0.0
  0
LINE
  5
6B
330
48
100
AcDbEntity
  8
0
  6
Continuous
 62
     0
370
     0
100
AcDbLine
 10
241.5034
 20
525.268329
 30
0.0
 11
241.5034
 21
524.124206
 31
0.0
  0
LINE
  5
6C
330
48
100
AcDbEntity
  8
0
  6
Continuous
 62
     0
370
     0
100
AcDbLine
 10
267.5034
 20
524.124206
 30
0.0
 11
267.5034
 21
525.268329
 31
0.0
  0
ARC
  5
6D
330
48
100
AcDbEntity
  8
0
  6
Continuous
 62
     0
370
     0
100
AcDbCircle
 10
271.509518
 20
524.492351
 30
0.0
 40
0.9939013668185787
100
AcDbArc
 50
269.647315
 51
359.642919
  0
ELLIPSE
  5
6E
330
48
100
AcDbEntity
  8
0
  6
Continuous
 62
     0
370
     0
100
AcDbEllipse
 10
271.5034
 20
518.175532
 30
0.0
 11
-0.9999999999999989
 21
-1.137923790327683E-8
 31
0.0
210
0.0
220
0.0
230
1.0
 40
0.987688
 41
1.570796315273799
 42
3.141592642068712
  0
LINE
  5
6F
330
48
100
AcDbEntity
  8
0
  6
Continuous
 62
     0
370
    30
100
AcDbLine
 10
272.5034
 20
518.175532
 30
0.0
 11
272.5034
 21
524.486157
 31
0.0
  0
LINE
  5
70
330
48
100
AcDbEntity
  8
0
  6
Continuous
 62
     0
370
    30
100
AcDbLine
 10
272.5034
 20
518.175532
 30
0.0
 11
272.5034
 21
512.249402
 31
0.0
  0
ARC
  5
71
330
48
100
AcDbEntity
  8
0
  6
Continuous
 62
     0
370
     0
100
AcDbCircle
 10
259.732854
 20
489.475485
 30
0.0
 40
19.9269244736297
100
AcDbArc
 50
170.198349
 51
177.145632
  0
LINE
  5
72
330
48
100
AcDbEntity
  8
0
  6
Continuous
 62
     0
370
     0
100
AcDbLine
 10
237.5534
 20
459.676368
 30
0.0
 11
236.5534
 21
459.676368
 31
0.0
  0
LINE
  5
73
330
48
100
AcDbEntity
  8
0
  6
Continuous
 62
     0
370
    30
100
AcDbLine
 10
236.5534
 20
459.676368
 30
0.0
 11
236.5534
 21
357.776368
 31
0.0
  0
LINE
  5
74
330
48
100
AcDbEntity
  8
0
  6
Continuous
 62
     0
370
     0
100
AcDbLine
 10
237.5534
 20
357.776368
 30
0.0
 11
237.5534
 21
459.676368
 31
0.0
  0
LINE
  5
75
330
48
100
AcDbEntity
  8
0
  6
Continuous
 62
     0
370
     0
100
AcDbLine
 10
272.3534
 20
459.676368
 30
0.0
 11
271.3534
 21
459.676368
 31
0.0
  0
LINE
  5
76
330
48
100
AcDbEntity
  8
0
  6
Continuous
 62
     0
370
     0
100
AcDbLine
 10
271.3534
 20
459.676368
 30
0.0
 11
271.3534
 21
357.776368
 31
0.0
  0
LINE
  5
77
330
48
100
AcDbEntity
  8
0
  6
Continuous
 62
     0
370
    30
100
AcDbLine
 10
272.3534
 20
357.776368
 30
0.0
 11
272.3534
 21
459.676368
 31
0.0
  0
LINE
  5
78
330
48
100
AcDbEntity
  8
0
  6
Continuous
 62
     0
370
     0
100
AcDbLine
 10
267.3534
 20
475.676368
 30
0.0
 11
272.3534
 21
475.676368
 31
0.0
  0
LINE
  5
79
330
48
100
AcDbEntity
  8
0
  6
Continuous
 62
     0
370
    30
100
AcDbLine
 10
272.3534
 20
475.676368
 30
0.0
 11
272.3534
 21
489.4678
 31
0.0
  0
LINE
  5
7A
330
48
100
AcDbEntity
  8
0
  6
Continuous
 62
     0
370
     0
100
AcDbLine
 10
272.3534
 20
489.4678
 30
0.0
 11
267.3534
 21
489.4678
 31
0.0
  0
LINE
  5
7B
330
48
100
AcDbEntity
  8
0
  6
Continuous
 62
     0
370
     0
100
AcDbLine
 10
267.3534
 20
489.4678
 30
0.0
 11
267.3534
 21
475.676368
 31
0.0
  0
LINE
  5
7C
330
48
100
AcDbEntity
  8
0
  6
Continuous
 62
     0
370
     0
100
AcDbLine
 10
267.3534
 20
489.4678
 30
0.0
 11
241.5534
 21
489.4678
 31
0.0
  0
LINE
  5
7D
330
48
100
AcDbEntity
  8
0
  6
Continuous
 62
     0
370
     0
100
AcDbLine
 10
241.5534
 20
489.4678
 30
0.0
 11
241.5534
 21
475.676368
 31
0.0
  0
LINE
  5
7E
330
48
100
AcDbEntity
  8
0
  6
Continuous
 62
     0
370
     0
100
AcDbLine
 10
241.5534
 20
475.676368
 30
0.0
 11
267.3534
 21
475.676368
 31
0.0
  0
LINE
  5
7F
330
48
100
AcDbEntity
  8
0
  6
Continuous
 62
     0
370
     0
100
AcDbLine
 10
241.5534
 20
489.4678
 30
0.0
 11
236.5534
 21
489.4678
 31
0.0
  0
LINE
  5
80
330
48
100
AcDbEntity
  8
0
  6
Continuous
 62
     0
370
    30
100
AcDbLine
 10
236.5534
 20
489.4678
 30
0.0
 11
236.5534
 21
475.676368
 31
0.0
  0
LINE
  5
81
330
48
100
AcDbEntity
  8
0
  6
Continuous
 62
     0
370
     0
100
AcDbLine
 10
236.5534
 20
475.676368
 30
0.0
 11
241.5534
 21
475.676368
 31
0.0
  0
LINE
  5
82
330
48
100
AcDbEntity
  8
0
  6
Continuous
 62
     0
370
    30
100
AcDbLine
 10
236.5534
 20
475.676368
 30
0.0
 11
236.5534
 21
459.676368
 31
0.0
  0
LINE
  5
83
330
48
100
AcDbEntity
  8
0
  6
Continuous
 62
     0
370
    30
100
AcDbLine
 10
272.3534
 20
459.676368
 30
0.0
 11
272.3534
 21
475.676368
 31
0.0
  0
LINE
  5
84
330
48
100
AcDbEntity
  8
0
  6
Continuous
 62
     0
370
     0
100
AcDbLine
 10
271.3534
 20
459.676368
 30
0.0
 11
237.5534
 21
459.676368
 31
0.0
  0
LINE
  5
85
330
48
100
AcDbEntity
  8
0
  6
Continuous
 62
     0
370
     0
100
AcDbLine
 10
237.5534
 20
459.676368
 30
0.0
 11
237.5534
 21
474.676368
 31
0.0
  0
LINE
  5
86
330
48
100
AcDbEntity
  8
0
  6
Continuous
 62
     0
370
     0
100
AcDbLine
 10
271.3534
 20
474.676368
 30
0.0
 11
271.3534
 21
459.676368
 31
0.0
  0
LINE
  5
87
330
48
100
AcDbEntity
  8
0
  6
Continuous
 62
     0
370
     0
100
AcDbLine
 10
241.5534
 20
475.676368
 30
0.0
 11
241.5534
 21
474.676368
 31
0.0
  0
LINE
  5
88
330
48
100
AcDbEntity
  8
0
  6
Continuous
 62
     0
370
    30
100
AcDbLine
 10
241.5534
 20
474.676368
 30
0.0
 11
267.3534
 21
474.676368
 31
0.0
  0
LINE
  5
89
330
48
100
AcDbEntity
  8
0
  6
Continuous
 62
     0
370
     0
100
AcDbLine
 10
267.3534
 20
474.676368
 30
0.0
 11
267.3534
 21
475.676368
 31
0.0
  0
LINE
  5
8A
330
48
100
AcDbEntity
  8
0
  6
Continuous
 62
     0
370
    30
100
AcDbLine
 10
267.3534
 20
474.676368
 30
0.0
 11
271.3534
 21
474.676368
 31
0.0
  0
ARC
  5
8B
330
48
100
AcDbEntity
  8
0
  6
Continuous
 62
     0
370
    30
100
AcDbCircle
 10
271.3534
 20
475.676368
 30
0.0
 40
1.000000000001375
100
AcDbArc
 50
270.0
 51
360.0
  0
ARC
  5
8C
330
48
100
AcDbEntity
  8
0
  6
Continuous
 62
     0
370
    30
100
AcDbCircle
 10
237.5534
 20
475.676368
 30
0.0
 40
1.00000000000011
100
AcDbArc
 50
180.0
 51
270.0
  0
LINE
  5
8D
330
48
100
AcDbEntity
  8
0
  6
Continuous
 62
     0
370
    30
100
AcDbLine
 10
237.5534
 20
474.676368
 30
0.0
 11
241.5534
 21
474.676368
 31
0.0
  0
ARC
  5
8E
330
48
100
AcDbEntity
  8
0
  6
Continuous
 62
     0
370
    30
100
AcDbCircle
 10
271.3534
 20
489.4678
 30
0.0
 40
0.9999999999999931
100
AcDbArc
 50
0.0
 51
90.0
  0
ARC
  5
8F
330
48
100
AcDbEntity
  8
0
  6
Continuous
 62
     0
370
    30
100
AcDbCircle
 10
237.5534
 20
489.4678
 30
0.0
 40
0.9999999999999931
100
AcDbArc
 50
90.0
 51
180.0
  0
LINE
  5
90
330
48
100
AcDbEntity
  8
0
  6
Continuous
 62
     0
370
     0
100
AcDbLine
 10
241.5534
 20
489.4678
 30
0.0
 11
241.5534
 21
490.4678
 31
0.0
  0
LINE
  5
91
330
48
100
AcDbEntity
  8
0
  6
Continuous
 62
     0
370
    30
100
AcDbLine
 10
241.5534
 20
490.4678
 30
0.0
 11
237.5534
 21
490.4678
 31
0.0
  0
LINE
  5
92
330
48
100
AcDbEntity
  8
0
  6
Continuous
 62
     0
370
     0
100
AcDbLine
 10
267.3534
 20
489.4678
 30
0.0
 11
267.3534
 21
490.4678
 31
0.0
  0
LINE
  5
93
330
48
100
AcDbEntity
  8
0
  6
Continuous
 62
     0
370
    30
100
AcDbLine
 10
267.3534
 20
490.4678
 30
0.0
 11
241.5534
 21
490.4678
 31
0.0
  0
LINE
  5
94
330
48
100
AcDbEntity
  8
0
  6
Continuous
 62
     0
370
    30
100
AcDbLine
 10
271.3534
 20
490.4678
 30
0.0
 11
267.3534
 21
490.4678
 31
0.0
  0
LINE
  5
95
330
48
100
AcDbEntity
  8
0
  6
Continuous
 62
     0
370
    30
100
AcDbLine
 10
284.4534
 20
357.776368
 30
0.0
 11
224.744017
 21
357.776368
 31
0.0
  0
LINE
  5
96
330
48
100
AcDbEntity
  8
0
  6
Continuous
 62
     0
370
     0
100
AcDbLine
 10
224.744017
 20
357.776368
 30
0.0
 11
224.744017
 21
354.776368
 31
0.0
  0
LINE
  5
97
330
48
100
AcDbEntity
  8
0
  6
Continuous
 62
     0
370
    30
100
AcDbLine
 10
224.744017
 20
354.776368
 30
0.0
 11
284.4534
 21
354.776368
 31
0.0
  0
LINE
  5
98
330
48
100
AcDbEntity
  8
0
  6
Continuous
 62
     0
370
    30
100
AcDbLine
 10
224.4534
 20
354.776368
 30
0.0
 11
224.744017
 21
354.776368
 31
0.0
  0
LINE
  5
99
330
48
100
AcDbEntity
  8
0
  6
Continuous
 62
     0
370
    30
100
AcDbLine
 10
224.744017
 20
357.776368
 30
0.0
 11
224.4534
 21
357.776368
 31
0.0
  0
LINE
  5
9A
330
48
100
AcDbEntity
  8
0
  6
Continuous
 62
     0
370
    30
100
AcDbLine
 10
224.4534
 20
354.776368
 30
0.0
 11
224.4534
 21
357.776368
 31
0.0
  0
LINE
  5
9B
330
48
100
AcDbEntity
  8
0
  6
Continuous
 62
     0
370
    30
100
AcDbLine
 10
284.4534
 20
354.776368
 30
0.0
 11
284.4534
 21
357.776368
 31
0.0
  0
ARC
  5
9C
330
48
100
AcDbEntity
  8
0
  6
Continuous
 62
     0
370
    30
100
AcDbCircle
 10
255.174875
 20
489.467787
 30
0.0
 40
17.50007038884712
100
AcDbArc
 50
168.796994
 51
176.724154
  0
ARC
  5
9D
330
48
100
AcDbEntity
  8
0
  6
Continuous
 62
     0
370
    30
100
AcDbCircle
 10
253.630254
 20
489.45853
 30
0.0
 40
17.60210456775904
100
AcDbArc
 50
3.287018
 51
11.167944
  0
LWPOLYLINE
  5
9E
330
48
100
AcDbEntity
  8
0
  6
Continuous
 62
     0
370
    30
100
AcDbPolyline
 90
       16
 70
     0
 43
0.0
 10
267.503387
 20
528.087158
 10
267.983063
 20
528.082703
 10
268.456848
 20
528.069702
 10
268.918976
 20
528.048279
 10
269.363983
 20
528.018494
 10
269.78656
 20
527.980713
 10
270.1828
 20
527.935059
 10
270.549347
 20
527.881775
 10
270.884094
 20
527.820618
 10
271.187408
 20
527.750549
 10
271.46344
 20
527.668335
 10
271.720673
 20
527.565613
 10
271.973511
 20
527.421692
 10
272.222656
 20
527.200073
 10
272.423859
 20
526.871948
 10
272.503387
 20
526.461487
  0
LINE
  5
9F
330
48
100
AcDbEntity
  8
0
  6
Continuous
 62
     0
370
    30
100
AcDbLine
 10
241.5034
 20
528.08725
 30
0.0
 11
267.5034
 21
528.08725
 31
0.0
  0
LWPOLYLINE
  5
A0
330
48
100
AcDbEntity
  8
0
  6
Continuous
 62
     0
370
    30
100
AcDbPolyline
 90
       16
 70
     0
 43
0.0
 10
241.503403
 20
528.087158
 10
241.023743
 20
528.082703
 10
240.549957
 20
528.069702
 10
240.087814
 20
528.048279
 10
239.642822
 20
528.018494
 10
239.22023
 20
527.980713
 10
238.82399
 20
527.935059
 10
238.457458
 20
527.881775
 10
238.122726
 20
527.820618
 10
237.819382
 20
527.750549
 10
237.543365
 20
527.668335
 10
237.286118
 20
527.565613
 10
237.033279
 20
527.421692
 10
236.784149
 20
527.200073
 10
236.582947
 20
526.871948
 10
236.503403
 20
526.461487
  0
ENDBLK
  5
A2
330
48
100
AcDbEntity
  8
0
100
AcDbBlockEnd
  0
BLOCK
  5
E7
330
A4
100
AcDbEntity
  8
0
100
AcDbBlockBegin
  2
b
 70
     0
 10
137.79319
 20
118.426201
 30
0.0
  3
b
  1

  0
LINE
  5
A5
330
A4
100
AcDbEntity
  8
0
  6
Continuous
 62
     0
370
     0
100
AcDbLine
 10
267.5034
 20
187.827778
 30
0.0
 11
267.5034
 21
187.514913
 31
0.0
  0
ELLIPSE
  5
A6
330
A4
100
AcDbEntity
  8
0
  6
Continuous
 62
     0
370
     0
100
AcDbEllipse
 10
267.5034
 20
192.453355
 30
0.0
 11
-5.0
 21
9.011443765383111E-9
 31
0.0
210
0.0
220
0.0
230
1.0
 40
0.987688
 41
1.570796326794888
 42
3.141592653589782
  0
LINE
  5
A7
330
A4
100
AcDbEntity
  8
0
  6
Continuous
 62
     0
370
    30
100
AcDbLine
 10
272.5034
 20
192.453355
 30
0.0
 11
272.5034
 21
192.76622
 31
0.0
  0
ELLIPSE
  5
A8
330
A4
100
AcDbEntity
  8
0
  6
Continuous
 62
     0
370
     0
100
AcDbEllipse
 10
267.5034
 20
192.76622
 30
0.0
 11
5.0
 21
-9.011443765383111E-9
 31
0.0
210
0.0
220
0.0
230
-1.0
 40
0.987688
 41
0.0000000000000087
 42
1.570796326794905
  0
LINE
  5
A9
330
A4
100
AcDbEntity
  8
0
  6
Continuous
 62
     0
370
     0
100
AcDbLine
 10
241.5034
 20
187.827779
 30
0.0
 11
241.5034
 21
187.514913
 31
0.0
  0
LINE
  5
AA
330
A4
100
AcDbEntity
  8
0
  6
Continuous
 62
     0
370
     0
100
AcDbLine
 10
241.5034
 20
187.514913
 30
0.0
 11
267.5034
 21
187.514913
 31
0.0
  0
LINE
  5
AB
330
A4
100
AcDbEntity
  8
0
  6
Continuous
 62
     0
370
     0
100
AcDbLine
 10
267.5034
 20
187.827778
 30
0.0
 11
241.5034
 21
187.827779
 31
0.0
  0
LINE
  5
AC
330
A4
100
AcDbEntity
  8
0
  6
Continuous
 62
     0
370
    30
100
AcDbLine
 10
236.5034
 20
192.76622
 30
0.0
 11
236.5034
 21
192.453355
 31
0.0
  0
ELLIPSE
  5
AD
330
A4
100
AcDbEntity
  8
0
  6
Continuous
 62
     0
370
     0
100
AcDbEllipse
 10
241.5034
 20
192.453355
 30
0.0
 11
-5.0
 21
9.011443321817446E-9
 31
0.0
210
0.0
220
0.0
230
1.0
 40
0.987688
 41
6.28318530717958
 42
7.85398163397448
  0
ELLIPSE
  5
AE
330
A4
100
AcDbEntity
  8
0
  6
Continuous
 62
     0
370
     0
100
AcDbEllipse
 10
241.5034
 20
192.76622
 30
0.0
 11
5.0
 21
-9.011443321817446E-9
 31
0.0
210
0.0
220
0.0
230
-1.0
 40
0.987688
 41
1.570796326794898
 42
3.141592653589798
  0
LWPOLYLINE
  5
AF
330
A4
100
AcDbEntity
  8
0
  6
Continuous
 62
     0
370
    30
100
AcDbPolyline
 90
       10
 70
     0
 43
0.0
 10
236.503403
 20
267.35849
 10
236.577744
 20
268.214539
 10
236.800842
 20
269.053741
 10
237.165207
 20
269.844971
 10
237.660217
 20
270.558624
 10
238.272278
 20
271.17569
 10
238.98735
 20
271.67868
 10
239.785141
 20
272.051514
 10
240.631287
 20
272.281158
 10
241.503403
 20
272.35849
  0
LWPOLYLINE
  5
B0
330
A4
100
AcDbEntity
  8
0
  6
Continuous
 62
     0
370
     0
100
AcDbPolyline
 90
        9
 70
     0
 43
0.0
 10
237.503403
 20
192.922653
 10
237.578629
 20
192.160004
 10
237.807327
 20
191.412094
 10
238.180573
 20
190.723221
 10
238.673004
 20
190.130997
 10
239.27179
 20
189.64389
 10
239.968658
 20
189.274277
 10
240.725616
 20
189.047302
 10
241.503403
 20
188.971909
  0
LINE
  5
B1
330
A4
100
AcDbEntity
  8
0
  6
Continuous
 62
     0
370
     0
100
AcDbLine
 10
241.5034
 20
188.971901
 30
0.0
 11
267.5034
 21
188.971901
 31
0.0
  0
LWPOLYLINE
  5
B2
330
A4
100
AcDbEntity
  8
0
  6
Continuous
 62
     0
370
     0
100
AcDbPolyline
 90
        9
 70
     0
 43
0.0
 10
267.503387
 20
188.971909
 10
268.275574
 20
189.046219
 10
269.032806
 20
189.272095
 10
269.730255
 20
189.640747
 10
270.329865
 20
190.127106
 10
270.823029
 20
190.718521
 10
271.197266
 20
191.406799
 10
271.427063
 20
192.154449
 10
271.503387
 20
192.922653
  0
LINE
  5
B3
330
A4
100
AcDbEntity
  8
0
  6
Continuous
 62
     0
370
     0
100
AcDbLine
 10
271.5034
 20
192.922655
 30
0.0
 11
271.5034
 21
267.51491
 31
0.0
  0
ARC
  5
B4
330
A4
100
AcDbEntity
  8
0
  6
Continuous
 62
     0
370
     0
100
AcDbCircle
 10
267.503335
 20
267.514845
 30
0.0
 40
4.000064720528718
100
AcDbArc
 50
0.000927
 51
89.999073
  0
LINE
  5
B5
330
A4
100
AcDbEntity
  8
0
  6
Continuous
 62
     0
370
     0
100
AcDbLine
 10
267.5034
 20
271.51491
 30
0.0
 11
241.5034
 21
271.51491
 31
0.0
  0
ARC
  5
B6
330
A4
100
AcDbEntity
  8
0
  6
Continuous
 62
     0
370
     0
100
AcDbCircle
 10
241.503465
 20
267.514845
 30
0.0
 40
4.000064720528702
100
AcDbArc
 50
90.000927
 51
179.999073
  0
LINE
  5
B7
330
A4
100
AcDbEntity
  8
0
  6
Continuous
 62
     0
370
     0
100
AcDbLine
 10
237.5034
 20
267.51491
 30
0.0
 11
237.5034
 21
192.922655
 31
0.0
  0
LWPOLYLINE
  5
B8
330
A4
100
AcDbEntity
  8
0
  6
Continuous
 62
     0
370
    30
100
AcDbPolyline
 90
       10
 70
     0
 43
0.0
 10
267.503387
 20
272.35849
 10
268.366241
 20
272.282806
 10
269.212708
 20
272.054779
 10
270.0112
 20
271.683441
 10
270.727325
 20
271.181763
 10
271.340576
 20
270.565857
 10
271.836914
 20
269.853149
 10
272.202759
 20
269.062622
 10
272.427429
 20
268.223755
 10
272.503387
 20
267.35849
  0
ELLIPSE
  5
B9
330
A4
100
AcDbEntity
  8
0
  6
Continuous
 62
     0
370
     0
100
AcDbEllipse
 10
237.5034
 20
267.358476
 30
0.0
 11
0.999999999999992
 21
-1.802294214152712E-9
 31
0.0
210
0.0
220
0.0
230
1.0
 40
0.156434
 41
1.57079632679488
 42
3.141592653589537
  0
LINE
  5
BA
330
A4
100
AcDbEntity
  8
0
  6
Continuous
 62
     0
370
    30
100
AcDbLine
 10
236.5034
 20
267.358476
 30
0.0
 11
236.5034
 21
192.76622
 31
0.0
  0
ELLIPSE
  5
BB
330
A4
100
AcDbEntity
  8
0
  6
Continuous
 62
     0
370
     0
100
AcDbEllipse
 10
237.5034
 20
192.76622
 30
0.0
 11
-0.999999999999992
 21
1.802294214152712E-9
 31
0.0
210
0.0
220
0.0
230
-1.0
 40
0.156434
 41
6.283185307179524
 42
7.853981633974485
  0
LINE
  5
BC
330
A4
100
AcDbEntity
  8
0
  6
Continuous
 62
     0
370
     0
100
AcDbLine
 10
241.5034
 20
187.827779
 30
0.0
 11
241.5034
 21
188.971901
 31
0.0
  0
LINE
  5
BD
330
A4
100
AcDbEntity
  8
0
  6
Continuous
 62
     0
370
     0
100
AcDbLine
 10
267.5034
 20
187.827778
 30
0.0
 11
267.5034
 21
188.971901
 31
0.0
  0
LWPOLYLINE
  5
BE
330
A4
100
AcDbEntity
  8
0
  6
Continuous
 62
     0
370
     0
100
AcDbPolyline
 90
        5
 70
     0
 43
0.0
 10
271.503387
 20
192.922653
 10
271.884003
 20
192.910873
 10
272.207336
 20
192.877335
 10
272.424683
 20
192.827057
 10
272.503387
 20
192.76622
  0
LINE
  5
BF
330
A4
100
AcDbEntity
  8
0
  6
Continuous
 62
     0
370
    30
100
AcDbLine
 10
272.5034
 20
192.76622
 30
0.0
 11
272.5034
 21
267.358476
 31
0.0
  0
ELLIPSE
  5
C0
330
A4
100
AcDbEntity
  8
0
  6
Continuous
 62
     0
370
     0
100
AcDbEllipse
 10
271.5034
 20
267.358476
 30
0.0
 11
0.9999999999999989
 21
-1.802294214152724E-9
 31
0.0
210
0.0
220
0.0
230
1.0
 40
0.156434
 41
0.000000000000175
 42
1.570796326794855
  0
LINE
  5
C1
330
A4
100
AcDbEntity
  8
0
  6
Continuous
 62
     0
370
     0
100
AcDbLine
 10
267.5034
 20
271.51491
 30
0.0
 11
267.5034
 21
272.358476
 31
0.0
  0
LINE
  5
C2
330
A4
100
AcDbEntity
  8
0
  6
Continuous
 62
     0
370
    30
100
AcDbLine
 10
267.5034
 20
272.358476
 30
0.0
 11
241.5034
 21
272.358476
 31
0.0
  0
LINE
  5
C3
330
A4
100
AcDbEntity
  8
0
  6
Continuous
 62
     0
370
     0
100
AcDbLine
 10
241.5034
 20
272.358476
 30
0.0
 11
241.5034
 21
271.51491
 31
0.0
  0
LINE
  5
C4
330
A4
100
AcDbEntity
  8
0
  6
Continuous
 62
     0
370
     0
100
AcDbLine
 10
241.5034
 20
187.514913
 30
0.0
 11
241.5034
 21
187.502722
 31
0.0
  0
LINE
  5
C5
330
A4
100
AcDbEntity
  8
0
  6
Continuous
 62
     0
370
     0
100
AcDbLine
 10
267.5034
 20
187.502601
 30
0.0
 11
267.5034
 21
187.514913
 31
0.0
  0
ARC
  5
C6
330
A4
100
AcDbEntity
  8
0
  6
Continuous
 62
     0
370
    30
100
AcDbCircle
 10
267.3534
 20
123.91275
 30
0.0
 40
5.000000000000005
100
AcDbArc
 50
270.0
 51
0.0
  0
LINE
  5
C7
330
A4
100
AcDbEntity
  8
0
  6
Continuous
 62
     0
370
    30
100
AcDbLine
 10
267.3534
 20
118.91275
 30
0.0
 11
241.5534
 21
118.91275
 31
0.0
  0
ARC
  5
C8
330
A4
100
AcDbEntity
  8
0
  6
Continuous
 62
     0
370
    30
100
AcDbCircle
 10
241.5534
 20
123.91275
 30
0.0
 40
5.0
100
AcDbArc
 50
180.0
 51
270.0
  0
LINE
  5
C9
330
A4
100
AcDbEntity
  8
0
  6
Continuous
 62
     0
370
    30
100
AcDbLine
 10
236.5534
 20
191.756703
 30
0.0
 11
236.5534
 21
123.91275
 31
0.0
  0
LINE
  5
CA
330
A4
100
AcDbEntity
  8
0
  6
Continuous
 62
     0
370
    30
100
AcDbLine
 10
272.3534
 20
123.91275
 30
0.0
 11
272.3534
 21
191.252043
 31
0.0
  0
LINE
  5
CB
330
A4
100
AcDbEntity
  8
0
  6
Continuous
 62
     0
370
     0
100
AcDbLine
 10
271.3534
 20
189.294767
 30
0.0
 11
271.3534
 21
123.91275
 31
0.0
  0
LINE
  5
CC
330
A4
100
AcDbEntity
  8
0
  6
Continuous
 62
     0
370
     0
100
AcDbLine
 10
271.3534
 20
123.91275
 30
0.0
 11
272.3534
 21
123.91275
 31
0.0
  0
LINE
  5
CD
330
A4
100
AcDbEntity
  8
0
  6
Continuous
 62
     0
370
     0
100
AcDbLine
 10
236.5534
 20
123.91275
 30
0.0
 11
237.5534
 21
123.91275
 31
0.0
  0
LINE
  5
CE
330
A4
100
AcDbEntity
  8
0
  6
Continuous
 62
     0
370
     0
100
AcDbLine
 10
237.5534
 20
123.91275
 30
0.0
 11
237.5534
 21
189.418252
 31
0.0
  0
LWPOLYLINE
  5
CF
330
A4
100
AcDbEntity
  8
0
  6
Continuous
 62
     0
370
     0
100
AcDbPolyline
 90
        5
 70
     0
 43
0.0
 10
241.553406
 20
118.91275
 10
241.553406
 20
118.988014
 10
241.553406
 20
119.202484
 10
241.553406
 20
119.523857
 10
241.553406
 20
119.91275
  0
LWPOLYLINE
  5
D0
330
A4
100
AcDbEntity
  8
0
  6
Continuous
 62
     0
370
     0
100
AcDbPolyline
 90
        9
 70
     0
 43
0.0
 10
241.553406
 20
119.91275
 10
240.78006
 20
119.989616
 10
240.027252
 20
120.217094
 10
239.331894
 20
120.585632
 10
238.725967
 20
121.08165
 10
238.229172
 20
121.686913
 10
237.859741
 20
122.381767
 10
237.631287
 20
123.134315
 10
237.553406
 20
123.91275
  0
LINE
  5
D1
330
A4
100
AcDbEntity
  8
0
  6
Continuous
 62
     0
370
     0
100
AcDbLine
 10
267.3534
 20
118.91275
 30
0.0
 11
267.3534
 21
119.91275
 31
0.0
  0
LINE
  5
D2
330
A4
100
AcDbEntity
  8
0
  6
Continuous
 62
     0
370
     0
100
AcDbLine
 10
267.3534
 20
119.91275
 30
0.0
 11
241.5534
 21
119.91275
 31
0.0
  0
LWPOLYLINE
  5
D3
330
A4
100
AcDbEntity
  8
0
  6
Continuous
 62
     0
370
     0
100
AcDbPolyline
 90
        9
 70
     0
 43
0.0
 10
271.353394
 20
123.91275
 10
271.27652
 20
123.139412
 10
271.049042
 20
122.386612
 10
270.680511
 20
121.691254
 10
270.184509
 20
121.08532
 10
269.579224
 20
120.588516
 10
268.884369
 20
120.219086
 10
268.131836
 20
119.990639
 10
267.353394
 20
119.91275
  0
ARC
  5
D4
330
A4
100
AcDbEntity
  8
0
  6
Continuous
 62
     0
370
    30
100
AcDbCircle
 10
254.4534
 20
254.408472
 30
0.0
 40
30.0
100
AcDbArc
 50
187.981586
 51
233.249375
  0
ARC
  5
D5
330
A4
100
AcDbEntity
  8
0
  6
Continuous
 62
     0
370
    30
100
AcDbCircle
 10
254.4534
 20
254.408472
 30
0.0
 40
30.0
100
AcDbArc
 50
306.989357
 51
7.981586
  0
ARC
  5
D6
330
A4
100
AcDbEntity
  8
0
  6
Continuous
 62
     0
370
    30
100
AcDbCircle
 10
254.4534
 20
254.408472
 30
0.0
 40
30.0
100
AcDbArc
 50
7.981586
 51
85.219808
  0
ARC
  5
D7
330
A4
100
AcDbEntity
  8
0
  6
Continuous
 62
     0
370
    30
100
AcDbCircle
 10
254.4534
 20
254.408472
 30
0.0
 40
30.0
100
AcDbArc
 50
94.780192
 51
187.981586
  0
LINE
  5
D8
330
A4
100
AcDbEntity
  8
0
  6
Continuous
 62
     0
370
    30
100
AcDbLine
 10
251.9534
 20
276.817419
 30
0.0
 11
251.9534
 21
281.802111
 31
0.0
  0
LINE
  5
D9
330
A4
100
AcDbEntity
  8
0
  6
Continuous
 62
     0
370
    30
100
AcDbLine
 10
256.9534
 20
281.802111
 30
0.0
 11
256.9534
 21
276.817419
 31
0.0
  0
LWPOLYLINE
  5
DA
330
A4
100
AcDbEntity
  8
0
  6
Continuous
 62
     0
370
     0
100
AcDbPolyline
 90
       14
 70
     0
 43
0.0
 10
251.9534
 20
276.817413
 10
252.017349
 20
276.308228
 10
252.223358
 20
275.793274
 10
252.575623
 20
275.321594
 10
253.050781
 20
274.941833
 10
253.601974
 20
274.687103
 10
254.173187
 20
274.565918
 10
254.727463
 20
274.565308
 10
255.298615
 20
274.685059
 10
255.850311
 20
274.938354
 10
256.326599
 20
275.316895
 10
256.680359
 20
275.787811
 10
256.888
 20
276.302582
 10
256.9534
 20
276.817413
  0
LINE
  5
DB
330
A4
100
AcDbEntity
  8
0
  6
Continuous
 62
     0
370
     0
100
AcDbLine
 10
256.9534
 20
281.802111
 30
0.0
 11
251.9534
 21
281.802111
 31
0.0
  0
ARC
  5
DC
330
A4
100
AcDbEntity
  8
0
  6
Continuous
 62
     0
370
    30
100
AcDbCircle
 10
253.4534
 20
291.797362
 30
0.0
 40
1.499999999999841
100
AcDbArc
 50
90.0
 51
180.0
  0
ARC
  5
DD
330
A4
100
AcDbEntity
  8
0
  6
Continuous
 62
     0
370
    30
100
AcDbCircle
 10
255.4534
 20
291.797362
 30
0.0
 40
1.500000000000131
100
AcDbArc
 50
0.0
 51
90.0
  0
LINE
  5
DE
330
A4
100
AcDbEntity
  8
0
  6
Continuous
 62
     0
370
     0
100
AcDbLine
 10
251.9534
 20
291.797362
 30
0.0
 11
256.9534
 21
291.797362
 31
0.0
  0
LWPOLYLINE
  5
DF
330
A4
100
AcDbEntity
  8
0
  6
Continuous
 62
     0
370
    30
100
AcDbPolyline
 90
        9
 70
     0
 43
0.0
 10
255.4534
 20
293.297363
 10
255.379822
 20
293.297363
 10
255.16301
 20
293.297363
 10
254.839493
 20
293.297363
 10
254.457932
 20
293.297363
 10
254.075699
 20
293.297363
 10
253.750244
 20
293.297363
 10
253.530472
 20
293.297363
 10
253.4534
 20
293.297363
  0
LINE
  5
E0
330
A4
100
AcDbEntity
  8
0
  6
Continuous
 62
     0
370
    30
100
AcDbLine
 10
251.9534
 20
276.817419
 30
0.0
 11
251.9534
 21
272.358481
 31
0.0
  0
LINE
  5
E1
330
A4
100
AcDbEntity
  8
0
  6
Continuous
 62
     0
370
    30
100
AcDbLine
 10
256.9534
 20
272.358481
 30
0.0
 11
256.9534
 21
276.817419
 31
0.0
  0
LINE
  5
E2
330
A4
100
AcDbEntity
  8
0
  6
Continuous
 62
     0
370
    30
100
AcDbLine
 10
256.9534
 20
281.802111
 30
0.0
 11
256.9534
 21
291.797362
 31
0.0
  0
LINE
  5
E3
330
A4
100
AcDbEntity
  8
0
  6
Continuous
 62
     0
370
    30
100
AcDbLine
 10
251.9534
 20
291.797362
 30
0.0
 11
251.9534
 21
281.802111
 31
0.0
  0
LWPOLYLINE
  5
E4
330
A4
100
AcDbEntity
  8
0
  6
Continuous
 62
     0
370
    30
100
AcDbPolyline
 90
        9
 70
     0
 43
0.0
 10
272.383148
 20
191.376831
 10
272.133484
 20
190.585129
 10
271.753693
 20
189.845993
 10
271.254608
 20
189.180283
 10
270.650604
 20
188.606552
 10
269.958618
 20
188.140701
 10
269.197968
 20
187.796051
 10
268.390137
 20
187.581787
 10
267.503387
 20
187.502716
  0
LINE
  5
E5
330
A4
100
AcDbEntity
  8
0
  6
Continuous
 62
     0
370
    30
100
AcDbLine
 10
241.5034
 20
187.502601
 30
0.0
 11
267.5034
 21
187.502601
 31
0.0
  0
LWPOLYLINE
  5
E6
330
A4
100
AcDbEntity
  8
0
  6
Continuous
 62
     0
370
    30
100
AcDbPolyline
 90
        9
 70
     0
 43
0.0
 10
236.623642
 20
191.376831
 10
236.873322
 20
190.585129
 10
237.253113
 20
189.845993
 10
237.752182
 20
189.180283
 10
238.356201
 20
188.606552
 10
239.048172
 20
188.140701
 10
239.808823
 20
187.796051
 10
240.616653
 20
187.581787
 10
241.503403
 20
187.502716
  0
ENDBLK
  5
E8
330
A4
100
AcDbEntity
  8
0
100
AcDbBlockEnd
  0
BLOCK
  5
140
330
EA
100
AcDbEntity
  8
0
100
AcDbBlockBegin
  2
c
 70
     0
 10
193.243164
 20
88.158257
 30
0.0
  3
c
  1

  0
LINE
  5
EB
330
EA
100
AcDbEntity
  8
0
  6
Continuous
 62
     0
370
    30
100
AcDbLine
 10
498.100877
 20
492.867787
 30
0.0
 11
498.100877
 21
512.249387
 31
0.0
  0
LINE
  5
EC
330
EA
100
AcDbEntity
  8
0
  6
Continuous
 62
     0
370
     0
100
AcDbLine
 10
498.100877
 20
512.249387
 30
0.0
 11
497.100877
 21
512.249387
 31
0.0
  0
LINE
  5
ED
330
EA
100
AcDbEntity
  8
0
  6
Continuous
 62
     0
370
     0
100
AcDbLine
 10
497.100877
 20
512.249387
 30
0.0
 11
497.100877
 21
492.867787
 31
0.0
  0
LINE
  5
EE
330
EA
100
AcDbEntity
  8
0
  6
Continuous
 62
     0
370
    30
100
AcDbLine
 10
497.100877
 20
492.867787
 30
0.0
 11
498.100877
 21
492.867787
 31
0.0
  0
ARC
  5
EF
330
EA
100
AcDbEntity
  8
0
  6
Continuous
 62
     0
370
    30
100
AcDbCircle
 10
503.100877
 20
512.249387
 30
0.0
 40
5.0
100
AcDbArc
 50
99.0
 51
180.0
  0
LWPOLYLINE
  5
F0
330
EA
100
AcDbEntity
  8
0
  6
Continuous
 62
     0
370
    30
100
AcDbPolyline
 90
        9
 70
     0
 43
0.0
 10
546.113159
 20
524.124207
 10
546.047302
 20
524.11377
 10
545.836121
 20
524.080322
 10
545.469971
 20
524.022339
 10
544.957397
 20
523.941101
 10
544.326294
 20
523.841187
 10
543.619202
 20
523.729187
 10
542.884338
 20
523.612793
 10
542.162415
 20
523.498474
  0
LINE
  5
F1
330
EA
100
AcDbEntity
  8
0
  6
Continuous
 62
     0
370
    30
100
AcDbLine
 10
542.162422
 20
523.498453
 30
0.0
 11
502.318705
 21
517.187828
 31
0.0
  0
LINE
  5
F2
330
EA
100
AcDbEntity
  8
0
  6
Continuous
 62
     0
370
    30
100
AcDbLine
 10
546.631563
 20
527.243669
 30
0.0
 11
546.944429
 21
525.268314
 31
0.0
  0
LINE
  5
F3
330
EA
100
AcDbEntity
  8
0
  6
Continuous
 62
     0
370
     0
100
AcDbLine
 10
541.693122
 20
526.461497
 30
0.0
 11
542.005987
 21
524.486141
 31
0.0
  0
LINE
  5
F4
330
EA
100
AcDbEntity
  8
0
  6
Continuous
 62
     0
370
     0
100
AcDbLine
 10
542.005987
 20
524.486141
 30
0.0
 11
546.944429
 21
525.268314
 31
0.0
  0
LINE
  5
F5
330
EA
100
AcDbEntity
  8
0
  6
Continuous
 62
     0
370
     0
100
AcDbLine
 10
546.631563
 20
527.243669
 30
0.0
 11
541.693122
 21
526.461497
 31
0.0
  0
LWPOLYLINE
  5
F6
330
EA
100
AcDbEntity
  8
0
  6
Continuous
 62
     0
370
    30
100
AcDbPolyline
 90
       11
 70
     0
 43
0.0
 10
462.100861
 20
500.140259
 10
462.165924
 20
500.113281
 10
462.363922
 20
500.032196
 10
462.687531
 20
499.901917
 10
463.118835
 20
499.728699
 10
463.639771
 20
499.518829
 10
464.234802
 20
499.278412
 10
464.890137
 20
499.013397
 10
465.591797
 20
498.729797
 10
466.322449
 20
498.434631
 10
467.100861
 20
498.120148
  0
LINE
  5
F7
330
EA
100
AcDbEntity
  8
0
  6
Continuous
 62
     0
370
     0
100
AcDbLine
 10
467.100867
 20
498.120133
 30
0.0
 11
467.100867
 21
514.647244
 31
0.0
  0
LINE
  5
F8
330
EA
100
AcDbEntity
  8
0
  6
Continuous
 62
     0
370
     0
100
AcDbLine
 10
467.100867
 20
514.647244
 30
0.0
 11
462.100867
 21
514.013707
 31
0.0
  0
LINE
  5
F9
330
EA
100
AcDbEntity
  8
0
  6
Continuous
 62
     0
370
    30
100
AcDbLine
 10
462.100867
 20
514.013707
 30
0.0
 11
462.100867
 21
500.140264
 31
0.0
  0
LINE
  5
FA
330
EA
100
AcDbEntity
  8
0
  6
Continuous
 62
     0
370
    30
100
AcDbLine
 10
541.536687
 20
527.449185
 30
0.0
 11
545.48744
 21
528.074923
 31
0.0
  0
LINE
  5
FB
330
EA
100
AcDbEntity
  8
0
  6
Continuous
 62
     0
370
    30
100
AcDbLine
 10
462.944432
 20
515.001395
 30
0.0
 11
466.944432
 21
515.634933
 31
0.0
  0
LINE
  5
FC
330
EA
100
AcDbEntity
  8
0
  6
Continuous
 62
     0
370
    30
100
AcDbLine
 10
466.944432
 20
515.634933
 30
0.0
 11
541.536687
 21
527.449185
 31
0.0
  0
LINE
  5
FD
330
EA
100
AcDbEntity
  8
0
  6
Continuous
 62
     0
370
     0
100
AcDbLine
 10
466.944432
 20
515.634933
 30
0.0
 11
467.100867
 21
514.647244
 31
0.0
  0
LINE
  5
FE
330
EA
100
AcDbEntity
  8
0
  6
Continuous
 62
     0
370
     0
100
AcDbLine
 10
467.100867
 20
514.647244
 30
0.0
 11
541.693122
 21
526.461497
 31
0.0
  0
LINE
  5
FF
330
EA
100
AcDbEntity
  8
0
  6
Continuous
 62
     0
370
     0
100
AcDbLine
 10
541.693122
 20
526.461497
 30
0.0
 11
541.536687
 21
527.449185
 31
0.0
  0
ARC
  5
100
330
EA
100
AcDbEntity
  8
0
  6
Continuous
 62
     0
370
    30
100
AcDbCircle
 10
545.643875
 20
527.087235
 30
0.0
 40
0.9999999999980499
100
AcDbArc
 50
9.0
 51
99.0
  0
ARC
  5
101
330
EA
100
AcDbEntity
  8
0
  6
Continuous
 62
     0
370
    30
100
AcDbCircle
 10
463.100867
 20
514.013707
 30
0.0
 40
1.0
100
AcDbArc
 50
99.0
 51
180.0
  0
LWPOLYLINE
  5
102
330
EA
100
AcDbEntity
  8
0
  6
Continuous
 62
     0
370
     0
100
AcDbPolyline
 90
        5
 70
     0
 43
0.0
 10
502.318695
 20
517.187805
 10
502.306946
 20
517.262146
 10
502.273376
 20
517.473999
 10
502.223114
 20
517.791443
 10
502.162262
 20
518.175537
  0
ARC
  5
103
330
EA
100
AcDbEntity
  8
0
  6
Continuous
 62
     0
370
     0
100
AcDbCircle
 10
503.100877
 20
512.249387
 30
0.0
 40
6.000000000000369
100
AcDbArc
 50
99.0
 51
180.0
  0
LINE
  5
104
330
EA
100
AcDbEntity
  8
0
  6
Continuous
 62
     0
370
     0
100
AcDbLine
 10
542.162422
 20
523.498453
 30
0.0
 11
542.005987
 21
524.486141
 31
0.0
  0
LINE
  5
105
330
EA
100
AcDbEntity
  8
0
  6
Continuous
 62
     0
370
     0
100
AcDbLine
 10
542.005987
 20
524.486141
 30
0.0
 11
502.162271
 21
518.175517
 31
0.0
  0
ARC
  5
106
330
EA
100
AcDbEntity
  8
0
  6
Continuous
 62
     0
370
    30
100
AcDbCircle
 10
545.95674
 20
525.111879
 30
0.0
 40
1.000000000003288
100
AcDbArc
 50
279.0
 51
9.0
  0
LINE
  5
107
330
EA
100
AcDbEntity
  8
0
  6
Continuous
 62
     0
370
    30
100
AcDbLine
 10
467.100867
 20
498.120133
 30
0.0
 11
479.740425
 21
493.01342
 31
0.0
  0
ARC
  5
108
330
EA
100
AcDbEntity
  8
0
  6
Continuous
 62
     0
370
    30
100
AcDbCircle
 10
480.489638
 20
494.867787
 30
0.0
 40
1.999999999999509
100
AcDbArc
 50
248.0
 51
270.0
  0
LINE
  5
109
330
EA
100
AcDbEntity
  8
0
  6
Continuous
 62
     0
370
    30
100
AcDbLine
 10
480.489638
 20
492.867787
 30
0.0
 11
497.100877
 21
492.867787
 31
0.0
  0
ARC
  5
10A
330
EA
100
AcDbEntity
  8
0
  6
Continuous
 62
     0
370
     0
100
AcDbCircle
 10
453.033425
 20
489.492415
 30
0.0
 40
35.20028580958723
100
AcDbArc
 50
1.587815
 51
5.502575
  0
LINE
  5
10B
330
EA
100
AcDbEntity
  8
0
  6
Continuous
 62
     0
370
     0
100
AcDbLine
 10
497.946561
 20
459.676353
 30
0.0
 11
496.946561
 21
459.676353
 31
0.0
  0
LINE
  5
10C
330
EA
100
AcDbEntity
  8
0
  6
Continuous
 62
     0
370
     0
100
AcDbLine
 10
496.946561
 20
459.676353
 30
0.0
 11
496.946561
 21
357.776353
 31
0.0
  0
LINE
  5
10D
330
EA
100
AcDbEntity
  8
0
  6
Continuous
 62
     0
370
    30
100
AcDbLine
 10
497.946561
 20
357.776353
 30
0.0
 11
497.946561
 21
459.676353
 31
0.0
  0
LINE
  5
10E
330
EA
100
AcDbEntity
  8
0
  6
Continuous
 62
     0
370
    30
100
AcDbLine
 10
615.546593
 20
489.467785
 30
0.0
 11
615.546593
 21
475.676353
 31
0.0
  0
LINE
  5
10F
330
EA
100
AcDbEntity
  8
0
  6
Continuous
 62
     0
370
     0
100
AcDbLine
 10
615.546593
 20
489.467785
 30
0.0
 11
610.546593
 21
489.467785
 31
0.0
  0
LINE
  5
110
330
EA
100
AcDbEntity
  8
0
  6
Continuous
 62
     0
370
     0
100
AcDbLine
 10
610.546593
 20
489.467785
 30
0.0
 11
610.546593
 21
475.676353
 31
0.0
  0
LINE
  5
111
330
EA
100
AcDbEntity
  8
0
  6
Continuous
 62
     0
370
     0
100
AcDbLine
 10
610.546593
 20
475.676353
 30
0.0
 11
615.546593
 21
475.676353
 31
0.0
  0
LINE
  5
112
330
EA
100
AcDbEntity
  8
0
  6
Continuous
 62
     0
370
     0
100
AcDbLine
 10
467.155161
 20
489.467785
 30
0.0
 11
610.546593
 21
489.467785
 31
0.0
  0
LINE
  5
113
330
EA
100
AcDbEntity
  8
0
  6
Continuous
 62
     0
370
     0
100
AcDbLine
 10
467.155161
 20
357.776353
 30
0.0
 11
467.155161
 21
489.467785
 31
0.0
  0
ARC
  5
114
330
EA
100
AcDbEntity
  8
0
  6
Continuous
 62
     0
370
     0
100
AcDbCircle
 10
512.946561
 20
459.676353
 30
0.0
 40
15.99999999999993
100
AcDbArc
 50
90.0
 51
180.0
  0
LINE
  5
115
330
EA
100
AcDbEntity
  8
0
  6
Continuous
 62
     0
370
     0
100
AcDbLine
 10
610.546593
 20
475.676353
 30
0.0
 11
512.946561
 21
475.676353
 31
0.0
  0
LINE
  5
116
330
EA
100
AcDbEntity
  8
0
  6
Continuous
 62
     0
370
     0
100
AcDbLine
 10
467.155161
 20
489.467785
 30
0.0
 11
462.155161
 21
489.467785
 31
0.0
  0
LINE
  5
117
330
EA
100
AcDbEntity
  8
0
  6
Continuous
 62
     0
370
    30
100
AcDbLine
 10
462.155161
 20
489.467785
 30
0.0
 11
462.155161
 21
357.776353
 31
0.0
  0
ARC
  5
118
330
EA
100
AcDbEntity
  8
0
  6
Continuous
 62
     0
370
    30
100
AcDbCircle
 10
512.946561
 20
459.676353
 30
0.0
 40
15.0
100
AcDbArc
 50
90.0
 51
180.0
  0
ARC
  5
119
330
EA
100
AcDbEntity
  8
0
  6
Continuous
 62
     0
370
    30
100
AcDbCircle
 10
614.546593
 20
475.676353
 30
0.0
 40
1.0
100
AcDbArc
 50
270.0
 51
0.0
  0
LINE
  5
11A
330
EA
100
AcDbEntity
  8
0
  6
Continuous
 62
     0
370
     0
100
AcDbLine
 10
610.546593
 20
475.676353
 30
0.0
 11
610.546593
 21
474.676353
 31
0.0
  0
LINE
  5
11B
330
EA
100
AcDbEntity
  8
0
  6
Continuous
 62
     0
370
    30
100
AcDbLine
 10
610.546593
 20
474.676353
 30
0.0
 11
614.546593
 21
474.676353
 31
0.0
  0
LINE
  5
11C
330
EA
100
AcDbEntity
  8
0
  6
Continuous
 62
     0
370
     0
100
AcDbLine
 10
512.946561
 20
475.676353
 30
0.0
 11
512.946561
 21
474.676353
 31
0.0
  0
LINE
  5
11D
330
EA
100
AcDbEntity
  8
0
  6
Continuous
 62
     0
370
    30
100
AcDbLine
 10
512.946561
 20
474.676353
 30
0.0
 11
610.546593
 21
474.676353
 31
0.0
  0
ARC
  5
11E
330
EA
100
AcDbEntity
  8
0
  6
Continuous
 62
     0
370
    30
100
AcDbCircle
 10
463.155161
 20
489.467785
 30
0.0
 40
1.0
100
AcDbArc
 50
90.0
 51
180.0
  0
LINE
  5
11F
330
EA
100
AcDbEntity
  8
0
  6
Continuous
 62
     0
370
     0
100
AcDbLine
 10
467.155161
 20
489.467785
 30
0.0
 11
467.155161
 21
490.467785
 31
0.0
  0
LINE
  5
120
330
EA
100
AcDbEntity
  8
0
  6
Continuous
 62
     0
370
    30
100
AcDbLine
 10
467.155161
 20
490.467785
 30
0.0
 11
463.155161
 21
490.467785
 31
0.0
  0
LINE
  5
121
330
EA
100
AcDbEntity
  8
0
  6
Continuous
 62
     0
370
     0
100
AcDbLine
 10
610.546593
 20
489.467785
 30
0.0
 11
610.546593
 21
490.467785
 31
0.0
  0
LINE
  5
122
330
EA
100
AcDbEntity
  8
0
  6
Continuous
 62
     0
370
    30
100
AcDbLine
 10
610.546593
 20
490.467785
 30
0.0
 11
467.155161
 21
490.467785
 31
0.0
  0
ARC
  5
123
330
EA
100
AcDbEntity
  8
0
  6
Continuous
 62
     0
370
    30
100
AcDbCircle
 10
614.546593
 20
489.467785
 30
0.0
 40
1.00000000000756
100
AcDbArc
 50
0.0
 51
90.0
  0
LWPOLYLINE
  5
124
330
EA
100
AcDbEntity
  8
0
  6
Continuous
 62
     0
370
    30
100
AcDbPolyline
 90
        9
 70
     0
 43
0.0
 10
614.54657
 20
490.467773
 10
614.470032
 20
490.467773
 10
614.243347
 20
490.467773
 10
613.87616
 20
490.467773
 10
613.381836
 20
490.467773
 10
612.778503
 20
490.467773
 10
612.085754
 20
490.467773
 10
611.335022
 20
490.467773
 10
610.54657
 20
490.467773
  0
LINE
  5
125
330
EA
100
AcDbEntity
  8
0
  6
Continuous
 62
     0
370
    30
100
AcDbLine
 10
510.050877
 20
357.776353
 30
0.0
 11
484.216523
 21
357.776353
 31
0.0
  0
LINE
  5
126
330
EA
100
AcDbEntity
  8
0
  6
Continuous
 62
     0
370
     0
100
AcDbLine
 10
484.216523
 20
357.776353
 30
0.0
 11
484.216523
 21
354.776353
 31
0.0
  0
LINE
  5
127
330
EA
100
AcDbEntity
  8
0
  6
Continuous
 62
     0
370
    30
100
AcDbLine
 10
484.216523
 20
354.776353
 30
0.0
 11
510.050877
 21
354.776353
 31
0.0
  0
LINE
  5
128
330
EA
100
AcDbEntity
  8
0
  6
Continuous
 62
     0
370
    30
100
AcDbLine
 10
450.050877
 20
354.776353
 30
0.0
 11
484.216523
 21
354.776353
 31
0.0
  0
LINE
  5
129
330
EA
100
AcDbEntity
  8
0
  6
Continuous
 62
     0
370
    30
100
AcDbLine
 10
484.216523
 20
357.776353
 30
0.0
 11
450.050877
 21
357.776353
 31
0.0
  0
ARC
  5
12A
330
EA
100
AcDbEntity
  8
0
  6
Continuous
 62
     0
370
     0
100
AcDbCircle
 10
452.657235
 20
398.481016
 30
0.0
 40
5.500000000000039
100
AcDbArc
 50
25.0
 51
89.999998
  0
LINE
  5
12B
330
EA
100
AcDbEntity
  8
0
  6
Continuous
 62
     0
370
     0
100
AcDbLine
 10
452.657235
 20
403.981016
 30
0.0
 11
452.657235
 21
401.481016
 31
0.0
  0
LINE
  5
12C
330
EA
100
AcDbEntity
  8
0
  6
Continuous
 62
     0
370
     0
100
AcDbLine
 10
455.376159
 20
399.74887
 30
0.0
 11
457.641928
 21
400.805416
 31
0.0
  0
LINE
  5
12D
330
EA
100
AcDbEntity
  8
0
  6
Continuous
 62
     0
370
     0
100
AcDbLine
 10
457.641928
 20
400.805416
 30
0.0
 11
459.907698
 21
401.861962
 31
0.0
  0
LWPOLYLINE
  5
12E
330
EA
100
AcDbEntity
  8
0
  6
Continuous
 62
     0
370
     0
100
AcDbPolyline
 90
        8
 70
     0
 43
0.0
 10
452.657227
 20
406.481018
 10
452.657227
 20
406.428131
 10
452.657227
 20
406.258087
 10
452.657227
 20
405.965057
 10
452.657227
 20
405.562134
 10
452.657227
 20
405.080444
 10
452.657227
 20
404.561646
 10
452.657227
 20
403.981018
  0
LINE
  5
12F
330
EA
100
AcDbEntity
  8
0
  6
Continuous
 62
     0
370
     0
100
AcDbLine
 10
442.661985
 20
403.981016
 30
0.0
 11
441.161985
 21
403.981016
 31
0.0
  0
LINE
  5
130
330
EA
100
AcDbEntity
  8
0
  6
Continuous
 62
     0
370
     0
100
AcDbLine
 10
442.661985
 20
401.481016
 30
0.0
 11
442.661985
 21
403.981016
 31
0.0
  0
LINE
  5
131
330
EA
100
AcDbEntity
  8
0
  6
Continuous
 62
     0
370
     0
100
AcDbLine
 10
442.661985
 20
403.981016
 30
0.0
 11
442.661985
 21
406.481016
 31
0.0
  0
LINE
  5
132
330
EA
100
AcDbEntity
  8
0
  6
Continuous
 62
     0
370
     0
100
AcDbLine
 10
457.641928
 20
400.805416
 30
0.0
 11
462.155161
 21
391.126758
 31
0.0
  0
LINE
  5
133
330
EA
100
AcDbEntity
  8
0
  6
Continuous
 62
     0
370
     0
100
AcDbLine
 10
442.661985
 20
403.981016
 30
0.0
 11
452.657235
 21
403.981016
 31
0.0
  0
LINE
  5
134
330
EA
100
AcDbEntity
  8
0
  6
Continuous
 62
     0
370
    30
100
AcDbLine
 10
442.661985
 20
401.481016
 30
0.0
 11
452.657235
 21
401.481016
 31
0.0
  0
LINE
  5
135
330
EA
100
AcDbEntity
  8
0
  6
Continuous
 62
     0
370
    30
100
AcDbLine
 10
442.661985
 20
406.481016
 30
0.0
 11
452.657235
 21
406.481016
 31
0.0
  0
LINE
  5
136
330
EA
100
AcDbEntity
  8
0
  6
Continuous
 62
     0
370
    30
100
AcDbLine
 10
455.376159
 20
399.74887
 30
0.0
 11
462.154591
 21
385.212475
 31
0.0
  0
LINE
  5
137
330
EA
100
AcDbEntity
  8
0
  6
Continuous
 62
     0
370
    30
100
AcDbLine
 10
459.907698
 20
401.861962
 30
0.0
 11
462.15573
 21
397.04104
 31
0.0
  0
ARC
  5
138
330
EA
100
AcDbEntity
  8
0
  6
Continuous
 62
     0
370
    30
100
AcDbCircle
 10
442.662009
 20
404.980992
 30
0.0
 40
1.500023590202519
100
AcDbArc
 50
90.000899
 51
179.976606
  0
ARC
  5
139
330
EA
100
AcDbEntity
  8
0
  6
Continuous
 62
     0
370
    30
100
AcDbCircle
 10
442.66201
 20
402.981041
 30
0.0
 40
1.500025306554595
100
AcDbArc
 50
180.023456
 51
269.999032
  0
ARC
  5
13A
330
EA
100
AcDbEntity
  8
0
  6
Continuous
 62
     0
370
    30
100
AcDbCircle
 10
452.65723
 20
398.481007
 30
0.0
 40
8.000008926183959
100
AcDbArc
 50
25.000041
 51
89.999958
  0
ARC
  5
13B
330
EA
100
AcDbEntity
  8
0
  6
Continuous
 62
     0
370
    30
100
AcDbCircle
 10
452.657188
 20
398.480942
 30
0.0
 40
3.000073751085824
100
AcDbArc
 50
25.000897
 51
89.999101
  0
LINE
  5
13C
330
EA
100
AcDbEntity
  8
0
  6
Continuous
 62
     0
370
    30
100
AcDbLine
 10
450.050877
 20
354.776353
 30
0.0
 11
450.050877
 21
357.776353
 31
0.0
  0
LINE
  5
13D
330
EA
100
AcDbEntity
  8
0
  6
Continuous
 62
     0
370
    30
100
AcDbLine
 10
510.050877
 20
354.776353
 30
0.0
 11
510.050877
 21
357.776353
 31
0.0
  0
ARC
  5
13E
330
EA
100
AcDbEntity
  8
0
  6
Continuous
 62
     0
370
    30
100
AcDbCircle
 10
480.772368
 20
489.467754
 30
0.0
 40
17.5000879637231
100
AcDbArc
 50
148.457997
 51
176.724099
  0
ARC
  5
13F
330
EA
100
AcDbEntity
  8
0
  6
Continuous
 62
     0
370
    30
100
AcDbCircle
 10
479.332816
 20
489.468206
 30
0.0
 40
17.49663616390543
100
AcDbArc
 50
3.275066
 51
11.203784
  0
ENDBLK
  5
141
330
EA
100
AcDbEntity
  8
0
100
AcDbBlockEnd
  0
BLOCK
  5
199
330
143
100
AcDbEntity
  8
0
100
AcDbBlockBegin
  2
e
 70
     0
 10
137.903488
 20
0.0
 30
0.0
  3
e
  1

  0
LINE
  5
144
330
143
100
AcDbEntity
  8
0
  6
Continuous
 62
     0
370
    30
100
AcDbLine
 10
46.610735
 20
512.249394
 30
0.0
 11
46.610735
 21
492.867795
 31
0.0
  0
LINE
  5
145
330
143
100
AcDbEntity
  8
0
  6
Continuous
 62
     0
370
    30
100
AcDbLine
 10
46.610735
 20
492.867795
 30
0.0
 11
47.610735
 21
492.867795
 31
0.0
  0
LINE
  5
146
330
143
100
AcDbEntity
  8
0
  6
Continuous
 62
     0
370
     0
100
AcDbLine
 10
47.610735
 20
492.867795
 30
0.0
 11
47.610735
 21
512.249394
 31
0.0
  0
LINE
  5
147
330
143
100
AcDbEntity
  8
0
  6
Continuous
 62
     0
370
     0
100
AcDbLine
 10
47.610735
 20
512.249394
 30
0.0
 11
46.610735
 21
512.249394
 31
0.0
  0
ARC
  5
148
330
143
100
AcDbEntity
  8
0
  6
Continuous
 62
     0
370
    30
100
AcDbCircle
 10
41.610735
 20
512.249394
 30
0.0
 40
5.0
100
AcDbArc
 50
0.0
 51
81.0
  0
LINE
  5
149
330
143
100
AcDbEntity
  8
0
  6
Continuous
 62
     0
370
    30
100
AcDbLine
 10
42.392908
 20
517.187836
 30
0.0
 11
2.549191
 21
523.498461
 31
0.0
  0
LINE
  5
14A
330
143
100
AcDbEntity
  8
0
  6
Continuous
 62
     0
370
    30
100
AcDbLine
 10
2.549191
 20
523.498461
 30
0.0
 11
-1.401562
 21
524.124199
 31
0.0
  0
LINE
  5
14B
330
143
100
AcDbEntity
  8
0
  6
Continuous
 62
     0
370
    30
100
AcDbLine
 10
-1.919951
 20
527.243677
 30
0.0
 11
-2.232816
 21
525.268321
 31
0.0
  0
LINE
  5
14C
330
143
100
AcDbEntity
  8
0
  6
Continuous
 62
     0
370
     0
100
AcDbLine
 10
-2.232816
 20
525.268321
 30
0.0
 11
2.705625
 21
524.486149
 31
0.0
  0
LINE
  5
14D
330
143
100
AcDbEntity
  8
0
  6
Continuous
 62
     0
370
     0
100
AcDbLine
 10
2.705625
 20
524.486149
 30
0.0
 11
3.018491
 21
526.461505
 31
0.0
  0
LINE
  5
14E
330
143
100
AcDbEntity
  8
0
  6
Continuous
 62
     0
370
     0
100
AcDbLine
 10
3.018491
 20
526.461505
 30
0.0
 11
-1.919951
 21
527.243677
 31
0.0
  0
LWPOLYLINE
  5
14F
330
143
100
AcDbEntity
  8
0
  6
Continuous
 62
     0
370
    30
100
AcDbPolyline
 90
        9
 70
     0
 43
0.0
 10
-0.775828
 20
528.074951
 10
-0.701708
 20
528.063171
 10
-0.476401
 20
528.027527
 10
-0.108632
 20
527.969238
 10
0.376674
 20
527.892395
 10
0.96671
 20
527.79895
 10
1.653568
 20
527.690125
 10
2.399955
 20
527.57196
 10
3.174925
 20
527.449219
  0
LINE
  5
150
330
143
100
AcDbEntity
  8
0
  6
Continuous
 62
     0
370
    30
100
AcDbLine
 10
3.174925
 20
527.449193
 30
0.0
 11
77.76718
 21
515.63494
 31
0.0
  0
LINE
  5
151
330
143
100
AcDbEntity
  8
0
  6
Continuous
 62
     0
370
    30
100
AcDbLine
 10
77.76718
 20
515.63494
 30
0.0
 11
81.76718
 21
515.001403
 31
0.0
  0
LINE
  5
152
330
143
100
AcDbEntity
  8
0
  6
Continuous
 62
     0
370
    30
100
AcDbLine
 10
82.610746
 20
500.140271
 30
0.0
 11
82.610746
 21
514.013714
 31
0.0
  0
LINE
  5
153
330
143
100
AcDbEntity
  8
0
  6
Continuous
 62
     0
370
     0
100
AcDbLine
 10
82.610746
 20
514.013714
 30
0.0
 11
77.610746
 21
514.647252
 31
0.0
  0
LINE
  5
154
330
143
100
AcDbEntity
  8
0
  6
Continuous
 62
     0
370
     0
100
AcDbLine
 10
77.610746
 20
514.647252
 30
0.0
 11
77.610746
 21
498.12014
 31
0.0
  0
LWPOLYLINE
  5
155
330
143
100
AcDbEntity
  8
0
  6
Continuous
 62
     0
370
    30
100
AcDbPolyline
 90
       11
 70
     0
 43
0.0
 10
77.610748
 20
498.120148
 10
78.352242
 20
498.419708
 10
79.083847
 20
498.715271
 10
79.787384
 20
498.999634
 10
80.445374
 20
499.265717
 10
81.043747
 20
499.507507
 10
81.568718
 20
499.719025
 10
82.004936
 20
499.894257
 10
82.334366
 20
500.026825
 10
82.538994
 20
500.110504
 10
82.610748
 20
500.140259
  0
ARC
  5
156
330
143
100
AcDbEntity
  8
0
  6
Continuous
 62
     0
370
    30
100
AcDbCircle
 10
-0.932262
 20
527.087242
 30
0.0
 40
1.000000000000005
100
AcDbArc
 50
81.0
 51
171.0
  0
LINE
  5
157
330
143
100
AcDbEntity
  8
0
  6
Continuous
 62
     0
370
     0
100
AcDbLine
 10
3.174925
 20
527.449193
 30
0.0
 11
3.018491
 21
526.461505
 31
0.0
  0
LINE
  5
158
330
143
100
AcDbEntity
  8
0
  6
Continuous
 62
     0
370
     0
100
AcDbLine
 10
3.018491
 20
526.461505
 30
0.0
 11
77.610746
 21
514.647252
 31
0.0
  0
LINE
  5
159
330
143
100
AcDbEntity
  8
0
  6
Continuous
 62
     0
370
     0
100
AcDbLine
 10
77.610746
 20
514.647252
 30
0.0
 11
77.76718
 21
515.63494
 31
0.0
  0
ARC
  5
15A
330
143
100
AcDbEntity
  8
0
  6
Continuous
 62
     0
370
    30
100
AcDbCircle
 10
81.610746
 20
514.013714
 30
0.0
 40
0.9999999999982244
100
AcDbArc
 50
0.0
 51
81.0
  0
ARC
  5
15B
330
143
100
AcDbEntity
  8
0
  6
Continuous
 62
     0
370
    30
100
AcDbCircle
 10
-1.245128
 20
525.111887
 30
0.0
 40
0.999999999999992
100
AcDbArc
 50
171.0
 51
261.0
  0
LWPOLYLINE
  5
15C
330
143
100
AcDbEntity
  8
0
  6
Continuous
 62
     0
370
     0
100
AcDbPolyline
 90
        5
 70
     0
 43
0.0
 10
2.549191
 20
523.498474
 10
2.560965
 20
523.572815
 10
2.594516
 20
523.784607
 10
2.644789
 20
524.102051
 10
2.705625
 20
524.486145
  0
LINE
  5
15D
330
143
100
AcDbEntity
  8
0
  6
Continuous
 62
     0
370
     0
100
AcDbLine
 10
42.392908
 20
517.187836
 30
0.0
 11
42.549342
 21
518.175524
 31
0.0
  0
LINE
  5
15E
330
143
100
AcDbEntity
  8
0
  6
Continuous
 62
     0
370
     0
100
AcDbLine
 10
42.549342
 20
518.175524
 30
0.0
 11
2.705625
 21
524.486149
 31
0.0
  0
ARC
  5
15F
330
143
100
AcDbEntity
  8
0
  6
Continuous
 62
     0
370
     0
100
AcDbCircle
 10
41.610735
 20
512.249394
 30
0.0
 40
6.000000000000053
100
AcDbArc
 50
0.0
 51
81.0
  0
LINE
  5
160
330
143
100
AcDbEntity
  8
0
  6
Continuous
 62
     0
370
    30
100
AcDbLine
 10
64.221975
 20
492.867795
 30
0.0
 11
47.610735
 21
492.867795
 31
0.0
  0
ARC
  5
161
330
143
100
AcDbEntity
  8
0
  6
Continuous
 62
     0
370
    30
100
AcDbCircle
 10
64.221975
 20
494.867795
 30
0.0
 40
1.99999999998593
100
AcDbArc
 50
270.0
 51
292.0
  0
LINE
  5
162
330
143
100
AcDbEntity
  8
0
  6
Continuous
 62
     0
370
    30
100
AcDbLine
 10
77.610746
 20
498.12014
 30
0.0
 11
64.971188
 21
493.013427
 31
0.0
  0
LWPOLYLINE
  5
163
330
143
100
AcDbEntity
  8
0
  6
Continuous
 62
     0
370
     0
100
AcDbPolyline
 90
        4
 70
     0
 43
0.0
 10
72.830055
 20
490.467804
 10
72.740524
 20
492.184479
 10
72.567314
 20
493.887451
 10
72.237068
 20
495.949005
  0
LINE
  5
164
330
143
100
AcDbEntity
  8
0
  6
Continuous
 62
     0
370
     0
100
AcDbLine
 10
47.765052
 20
459.676361
 30
0.0
 11
46.765052
 21
459.676361
 31
0.0
  0
LINE
  5
165
330
143
100
AcDbEntity
  8
0
  6
Continuous
 62
     0
370
    30
100
AcDbLine
 10
46.765052
 20
459.676361
 30
0.0
 11
46.765052
 21
357.776361
 31
0.0
  0
LINE
  5
166
330
143
100
AcDbEntity
  8
0
  6
Continuous
 62
     0
370
     0
100
AcDbLine
 10
47.765052
 20
357.776361
 30
0.0
 11
47.765052
 21
459.676361
 31
0.0
  0
LINE
  5
167
330
143
100
AcDbEntity
  8
0
  6
Continuous
 62
     0
370
     0
100
AcDbLine
 10
-70.83498
 20
475.676361
 30
0.0
 11
-65.834981
 21
475.676361
 31
0.0
  0
LINE
  5
168
330
143
100
AcDbEntity
  8
0
  6
Continuous
 62
     0
370
     0
100
AcDbLine
 10
-65.834981
 20
475.676361
 30
0.0
 11
-65.834981
 21
489.467793
 31
0.0
  0
LINE
  5
169
330
143
100
AcDbEntity
  8
0
  6
Continuous
 62
     0
370
     0
100
AcDbLine
 10
-65.834981
 20
489.467793
 30
0.0
 11
-70.83498
 21
489.467793
 31
0.0
  0
LINE
  5
16A
330
143
100
AcDbEntity
  8
0
  6
Continuous
 62
     0
370
    30
100
AcDbLine
 10
-70.83498
 20
489.467793
 30
0.0
 11
-70.83498
 21
475.676361
 31
0.0
  0
LINE
  5
16B
330
143
100
AcDbEntity
  8
0
  6
Continuous
 62
     0
370
     0
100
AcDbLine
 10
82.556452
 20
489.467793
 30
0.0
 11
77.556451
 21
489.467793
 31
0.0
  0
LINE
  5
16C
330
143
100
AcDbEntity
  8
0
  6
Continuous
 62
     0
370
     0
100
AcDbLine
 10
77.556451
 20
489.467793
 30
0.0
 11
77.556451
 21
357.776361
 31
0.0
  0
LINE
  5
16D
330
143
100
AcDbEntity
  8
0
  6
Continuous
 62
     0
370
    30
100
AcDbLine
 10
82.556452
 20
357.776361
 30
0.0
 11
82.556452
 21
489.467793
 31
0.0
  0
LINE
  5
16E
330
143
100
AcDbEntity
  8
0
  6
Continuous
 62
     0
370
     0
100
AcDbLine
 10
31.765052
 20
475.676361
 30
0.0
 11
-65.834981
 21
475.676361
 31
0.0
  0
ARC
  5
16F
330
143
100
AcDbEntity
  8
0
  6
Continuous
 62
     0
370
     0
100
AcDbCircle
 10
31.765052
 20
459.676361
 30
0.0
 40
16.00000000000008
100
AcDbArc
 50
0.0
 51
90.0
  0
LINE
  5
170
330
143
100
AcDbEntity
  8
0
  6
Continuous
 62
     0
370
     0
100
AcDbLine
 10
-65.834981
 20
489.467793
 30
0.0
 11
77.556451
 21
489.467793
 31
0.0
  0
ARC
  5
171
330
143
100
AcDbEntity
  8
0
  6
Continuous
 62
     0
370
    30
100
AcDbCircle
 10
31.765052
 20
459.676361
 30
0.0
 40
15.0
100
AcDbArc
 50
0.0
 51
90.0
  0
ARC
  5
172
330
143
100
AcDbEntity
  8
0
  6
Continuous
 62
     0
370
    30
100
AcDbCircle
 10
-69.83498
 20
475.676361
 30
0.0
 40
1.0
100
AcDbArc
 50
180.0
 51
270.0
  0
LWPOLYLINE
  5
173
330
143
100
AcDbEntity
  8
0
  6
Continuous
 62
     0
370
    30
100
AcDbPolyline
 90
        9
 70
     0
 43
0.0
 10
-69.834984
 20
474.676361
 10
-69.7584
 20
474.676361
 10
-69.531746
 20
474.676361
 10
-69.164528
 20
474.676361
 10
-68.670212
 20
474.676361
 10
-68.06691
 20
474.676361
 10
-67.37413
 20
474.676361
 10
-66.623436
 20
474.676361
 10
-65.834984
 20
474.676361
  0
LINE
  5
174
330
143
100
AcDbEntity
  8
0
  6
Continuous
 62
     0
370
     0
100
AcDbLine
 10
-65.834981
 20
474.676361
 30
0.0
 11
-65.834981
 21
475.676361
 31
0.0
  0
LINE
  5
175
330
143
100
AcDbEntity
  8
0
  6
Continuous
 62
     0
370
    30
100
AcDbLine
 10
-65.834981
 20
474.676361
 30
0.0
 11
31.765052
 21
474.676361
 31
0.0
  0
LINE
  5
176
330
143
100
AcDbEntity
  8
0
  6
Continuous
 62
     0
370
     0
100
AcDbLine
 10
31.765052
 20
474.676361
 30
0.0
 11
31.765052
 21
475.676361
 31
0.0
  0
LINE
  5
177
330
143
100
AcDbEntity
  8
0
  6
Continuous
 62
     0
370
     0
100
AcDbLine
 10
77.556451
 20
489.467793
 30
0.0
 11
77.556451
 21
490.467793
 31
0.0
  0
LINE
  5
178
330
143
100
AcDbEntity
  8
0
  6
Continuous
 62
     0
370
    30
100
AcDbLine
 10
77.556451
 20
490.467793
 30
0.0
 11
-65.834981
 21
490.467793
 31
0.0
  0
LINE
  5
179
330
143
100
AcDbEntity
  8
0
  6
Continuous
 62
     0
370
     0
100
AcDbLine
 10
-65.834981
 20
490.467793
 30
0.0
 11
-65.834981
 21
489.467793
 31
0.0
  0
ARC
  5
17A
330
143
100
AcDbEntity
  8
0
  6
Continuous
 62
     0
370
    30
100
AcDbCircle
 10
81.556452
 20
489.467793
 30
0.0
 40
1.000000000002997
100
AcDbArc
 50
0.0
 51
90.0
  0
LINE
  5
17B
330
143
100
AcDbEntity
  8
0
  6
Continuous
 62
     0
370
    30
100
AcDbLine
 10
81.556452
 20
490.467793
 30
0.0
 11
77.556451
 21
490.467793
 31
0.0
  0
ARC
  5
17C
330
143
100
AcDbEntity
  8
0
  6
Continuous
 62
     0
370
    30
100
AcDbCircle
 10
-69.83498
 20
489.467793
 30
0.0
 40
1.0
100
AcDbArc
 50
90.0
 51
180.0
  0
LINE
  5
17D
330
143
100
AcDbEntity
  8
0
  6
Continuous
 62
     0
370
    30
100
AcDbLine
 10
-65.834981
 20
490.467793
 30
0.0
 11
-69.83498
 21
490.467793
 31
0.0
  0
LINE
  5
17E
330
143
100
AcDbEntity
  8
0
  6
Continuous
 62
     0
370
     0
100
AcDbLine
 10
68.82638
 20
354.776361
 30
0.0
 11
68.82638
 21
357.776361
 31
0.0
  0
LINE
  5
17F
330
143
100
AcDbEntity
  8
0
  6
Continuous
 62
     0
370
    30
100
AcDbLine
 10
68.82638
 20
357.776361
 30
0.0
 11
34.660736
 21
357.776361
 31
0.0
  0
LINE
  5
180
330
143
100
AcDbEntity
  8
0
  6
Continuous
 62
     0
370
    30
100
AcDbLine
 10
34.660736
 20
354.776361
 30
0.0
 11
68.82638
 21
354.776361
 31
0.0
  0
LINE
  5
181
330
143
100
AcDbEntity
  8
0
  6
Continuous
 62
     0
370
    30
100
AcDbLine
 10
68.82638
 20
354.776361
 30
0.0
 11
94.660736
 21
354.776361
 31
0.0
  0
LINE
  5
182
330
143
100
AcDbEntity
  8
0
  6
Continuous
 62
     0
370
    30
100
AcDbLine
 10
94.660736
 20
357.776361
 30
0.0
 11
68.82638
 21
357.776361
 31
0.0
  0
LINE
  5
183
330
143
100
AcDbEntity
  8
0
  6
Continuous
 62
     0
370
     0
100
AcDbLine
 10
92.054377
 20
401.481023
 30
0.0
 11
92.054377
 21
403.981023
 31
0.0
  0
ARC
  5
184
330
143
100
AcDbEntity
  8
0
  6
Continuous
 62
     0
370
     0
100
AcDbCircle
 10
92.054377
 20
398.481023
 30
0.0
 40
5.499999999999911
100
AcDbArc
 50
90.000002
 51
155.0
  0
LINE
  5
185
330
143
100
AcDbEntity
  8
0
  6
Continuous
 62
     0
370
     0
100
AcDbLine
 10
87.069685
 20
400.805424
 30
0.0
 11
89.335454
 21
399.748878
 31
0.0
  0
LWPOLYLINE
  5
186
330
143
100
AcDbEntity
  8
0
  6
Continuous
 62
     0
370
     0
100
AcDbPolyline
 90
        8
 70
     0
 43
0.0
 10
84.803917
 20
401.861969
 10
84.851837
 20
401.83963
 10
85.005959
 20
401.767761
 10
85.27153
 20
401.643921
 10
85.636719
 20
401.473633
 10
86.073265
 20
401.27005
 10
86.543457
 20
401.050812
 10
87.069687
 20
400.80542
  0
LINE
  5
187
330
143
100
AcDbEntity
  8
0
  6
Continuous
 62
     0
370
     0
100
AcDbLine
 10
92.054377
 20
403.981023
 30
0.0
 11
92.054377
 21
406.481023
 31
0.0
  0
LINE
  5
188
330
143
100
AcDbEntity
  8
0
  6
Continuous
 62
     0
370
     0
100
AcDbLine
 10
103.549628
 20
403.981024
 30
0.0
 11
102.049628
 21
403.981024
 31
0.0
  0
LINE
  5
189
330
143
100
AcDbEntity
  8
0
  6
Continuous
 62
     0
370
     0
100
AcDbLine
 10
102.049628
 20
403.981024
 30
0.0
 11
102.049628
 21
401.481024
 31
0.0
  0
LINE
  5
18A
330
143
100
AcDbEntity
  8
0
  6
Continuous
 62
     0
370
     0
100
AcDbLine
 10
102.049628
 20
406.481024
 30
0.0
 11
102.049628
 21
403.981024
 31
0.0
  0
LINE
  5
18B
330
143
100
AcDbEntity
  8
0
  6
Continuous
 62
     0
370
     0
100
AcDbLine
 10
82.556452
 20
391.126765
 30
0.0
 11
87.069685
 21
400.805424
 31
0.0
  0
LINE
  5
18C
330
143
100
AcDbEntity
  8
0
  6
Continuous
 62
     0
370
     0
100
AcDbLine
 10
92.054377
 20
403.981023
 30
0.0
 11
102.049628
 21
403.981024
 31
0.0
  0
LINE
  5
18D
330
143
100
AcDbEntity
  8
0
  6
Continuous
 62
     0
370
    30
100
AcDbLine
 10
102.049628
 20
401.481024
 30
0.0
 11
92.054377
 21
401.481023
 31
0.0
  0
LINE
  5
18E
330
143
100
AcDbEntity
  8
0
  6
Continuous
 62
     0
370
    30
100
AcDbLine
 10
102.049628
 20
406.481024
 30
0.0
 11
92.054377
 21
406.481023
 31
0.0
  0
LINE
  5
18F
330
143
100
AcDbEntity
  8
0
  6
Continuous
 62
     0
370
    30
100
AcDbLine
 10
89.335454
 20
399.748878
 30
0.0
 11
82.557022
 21
385.212483
 31
0.0
  0
LINE
  5
190
330
143
100
AcDbEntity
  8
0
  6
Continuous
 62
     0
370
    30
100
AcDbLine
 10
84.803915
 20
401.861969
 30
0.0
 11
82.555882
 21
397.041048
 31
0.0
  0
ARC
  5
191
330
143
100
AcDbEntity
  8
0
  6
Continuous
 62
     0
370
    30
100
AcDbCircle
 10
102.049604
 20
404.981
 30
0.0
 40
1.500023590202519
100
AcDbArc
 50
0.023394
 51
89.999101
  0
ARC
  5
192
330
143
100
AcDbEntity
  8
0
  6
Continuous
 62
     0
370
    30
100
AcDbCircle
 10
102.049602
 20
402.981049
 30
0.0
 40
1.500025306554595
100
AcDbArc
 50
270.000968
 51
359.976544
  0
ARC
  5
193
330
143
100
AcDbEntity
  8
0
  6
Continuous
 62
     0
370
    30
100
AcDbCircle
 10
92.054383
 20
398.481014
 30
0.0
 40
8.000008926183959
100
AcDbArc
 50
90.000042
 51
154.999959
  0
ARC
  5
194
330
143
100
AcDbEntity
  8
0
  6
Continuous
 62
     0
370
    30
100
AcDbCircle
 10
92.054424
 20
398.48095
 30
0.0
 40
3.000073751085824
100
AcDbArc
 50
90.000899
 51
154.999103
  0
LINE
  5
195
330
143
100
AcDbEntity
  8
0
  6
Continuous
 62
     0
370
    30
100
AcDbLine
 10
94.660736
 20
354.776361
 30
0.0
 11
94.660736
 21
357.776361
 31
0.0
  0
LINE
  5
196
330
143
100
AcDbEntity
  8
0
  6
Continuous
 62
     0
370
    30
100
AcDbLine
 10
34.660736
 20
354.776361
 30
0.0
 11
34.660736
 21
357.776361
 31
0.0
  0
ARC
  5
197
330
143
100
AcDbEntity
  8
0
  6
Continuous
 62
     0
370
    30
100
AcDbCircle
 10
63.939244
 20
489.467762
 30
0.0
 40
17.50008796372298
100
AcDbArc
 50
3.275901
 51
31.542003
  0
ARC
  5
198
330
143
100
AcDbEntity
  8
0
  6
Continuous
 62
     0
370
    30
100
AcDbCircle
 10
65.378796
 20
489.468214
 30
0.0
 40
17.49663616390566
100
AcDbArc
 50
168.796216
 51
176.724934
  0
ENDBLK
  5
19A
330
143
100
AcDbEntity
  8
0
100
AcDbBlockEnd
  0
ENDSEC
  0
SECTION
  2
ENTITIES
  0
INSERT
  5
A3
330
1F
100
AcDbEntity
  8
0
  6
Continuous
 62
   250
370
     0
100
AcDbBlockReference
  2
a
 10
193.243164
 20
118.426201
 30
0.0
  0
INSERT
  5
E9
330
1F
100
AcDbEntity
  8
0
  6
Continuous
 62
   250
370
     0
100
AcDbBlockReference
  2
b
 10
137.79319
 20
118.426201
 30
0.0
  0
INSERT
  5
142
330
1F
100
AcDbEntity
  8
0
  6
Continuous
 62
   250
370
     0
100
AcDbBlockReference
  2
c
 10
193.243164
 20
88.158257
 30
0.0
  0
INSERT
  5
19B
330
1F
100
AcDbEntity
  8
0
  6
Continuous
 62
   250
370
     0
100
AcDbBlockReference
  2
e
 10
137.903488
 20
0.0
 30
0.0
  0
ENDSEC
  0
SECTION
  2
OBJECTS
  0
DICTIONARY
  5
C
330
0
100
AcDbDictionary
281
     1
  3
ACAD_GROUP
350
D
  3
ACAD_LAYOUT
350
1A
  3
ACAD_MLEADERSTYLE
350
19E
  3
ACAD_MLINESTYLE
350
17
  3
ACAD_PLOTSETTINGS
350
19
  3
ACAD_PLOTSTYLENAME
350
E
  3
ACAD_VISUALSTYLE
350
2A
  3
AcDbVariableDictionary
350
19C
  0
DICTIONARY
  5
D
102
{ACAD_REACTORS
330
C
102
}
330
C
100
AcDbDictionary
281
     1
  0
DICTIONARY
  5
1A
102
{ACAD_REACTORS
330
C
102
}
330
C
100
AcDbDictionary
281
     1
  3
Layout1
350
1E
  3
Layout2
350
26
  3
Model
350
22
  0
DICTIONARY
  5
19E
102
{ACAD_REACTORS
330
C
102
}
330
C
100
AcDbDictionary
281
     1
  0
DICTIONARY
  5
17
102
{ACAD_REACTORS
330
C
102
}
330
C
100
AcDbDictionary
281
     1
  3
Standard
350
18
  0
DICTIONARY
  5
19
102
{ACAD_REACTORS
330
C
102
}
330
C
100
AcDbDictionary
281
     1
  0
ACDBDICTIONARYWDFLT
  5
E
102
{ACAD_REACTORS
330
C
102
}
330
C
100
AcDbDictionary
281
     1
  3
Normal
350
F
100
AcDbDictionaryWithDefault
340
F
  0
DICTIONARY
  5
2A
102
{ACAD_REACTORS
330
C
102
}
330
C
100
AcDbDictionary
281
     1
  3
2dWireframe
350
2F
  3
3D Hidden
350
31
  3
3dWireframe
350
30
  3
Basic
350
32
  3
Brighten
350
36
  3
ColorChange
350
3A
  3
Conceptual
350
34
  3
Dim
350
35
  3
Facepattern
350
39
  3
Flat
350
2B
  3
FlatWithEdges
350
2C
  3
Gouraud
350
2D
  3
GouraudWithEdges
350
2E
  3
Linepattern
350
38
  3
Realistic
350
33
  3
Thicken
350
37
  0
DICTIONARY
  5
19C
102
{ACAD_REACTORS
330
C
102
}
330
C
100
AcDbDictionary
281
     1
  3
PSOLHEIGHT
350
1A0
  3
PSOLWIDTH
350
19F
  0
LAYOUT
  5
1E
102
{ACAD_REACTORS
330
1A
102
}
330
1A
100
AcDbPlotSettings
  1

  2
none_device
  4

  6

 40
0.0
 41
0.0
 42
0.0
 43
0.0
 44
0.0
 45
0.0
 46
0.0
 47
0.0
 48
0.0
 49
0.0
140
0.0
141
0.0
142
1.0
143
1.0
 70
   688
 72
     0
 73
     0
 74
     5
  7

 75
    16
147
1.0
148
0.0
149
0.0
100
AcDbLayout
  1
Layout1
 70
     1
 71
     1
 10
0.0
 20
0.0
 11
420.0
 21
297.0
 12
0.0
 22
0.0
 32
0.0
 14
1.000000E+20
 24
1.000000E+20
 34
1.000000E+20
 15
-1.000000E+20
 25
-1.000000E+20
 35
-1.000000E+20
146
0.0
 13
0.0
 23
0.0
 33
0.0
 16
1.0
 26
0.0
 36
0.0
 17
0.0
 27
1.0
 37
0.0
 76
     0
330
1B
  0
LAYOUT
  5
26
102
{ACAD_REACTORS
330
1A
102
}
330
1A
100
AcDbPlotSettings
  1

  2
none_device
  4

  6

 40
0.0
 41
0.0
 42
0.0
 43
0.0
 44
0.0
 45
0.0
 46
0.0
 47
0.0
 48
0.0
 49
0.0
140
0.0
141
0.0
142
1.0
143
1.0
 70
   688
 72
     0
 73
     0
 74
     5
  7

 75
    16
147
1.0
148
0.0
149
0.0
100
AcDbLayout
  1
Layout2
 70
     1
 71
     2
 10
0.0
 20
0.0
 11
0.0
 21
0.0
 12
0.0
 22
0.0
 32
0.0
 14
0.0
 24
0.0
 34
0.0
 15
0.0
 25
0.0
 35
0.0
146
0.0
 13
0.0
 23
0.0
 33
0.0
 16
1.0
 26
0.0
 36
0.0
 17
0.0
 27
1.0
 37
0.0
 76
     0
330
23
  0
LAYOUT
  5
22
102
{ACAD_REACTORS
330
1A
102
}
330
1A
100
AcDbPlotSettings
  1

  2
none_device
  4

  6

 40
0.0
 41
0.0
 42
0.0
 43
0.0
 44
0.0
 45
0.0
 46
0.0
 47
0.0
 48
0.0
 49
0.0
140
0.0
141
0.0
142
1.0
143
1.0
 70
  1712
 72
     0
 73
     0
 74
     0
  7

 75
     0
147
1.0
148
0.0
149
0.0
100
AcDbLayout
  1
Model
 70
     1
 71
     0
 10
-70.834984
 20
108.492981
 11
615.54657
 21
528.08728
 12
0.0
 22
0.0
 32
0.0
 14
-70.834984
 24
108.492981
 34
0.0
 15
615.54657
 25
528.08728
 35
0.0
146
0.0
 13
0.0
 23
0.0
 33
0.0
 16
1.0
 26
0.0
 36
0.0
 17
0.0
 27
1.0
 37
0.0
 76
     0
330
1F
331
29
  0
MLINESTYLE
  5
18
102
{ACAD_REACTORS
330
17
102
}
330
17
100
AcDbMlineStyle
  2
Standard
 70
     0
  3

 62
   256
 51
90.0
 52
90.0
 71
     2
 49
0.5
 62
   256
  6
BYLAYER
 49
-0.5
 62
   256
  6
BYLAYER
  0
ACDBPLACEHOLDER
  5
F
102
{ACAD_REACTORS
330
E
102
}
330
E
  0
VISUALSTYLE
  5
2F
102
{ACAD_REACTORS
330
2A
102
}
330
2A
100
AcDbVisualStyle
  2
2dWireframe
 70
     4
 71
     0
 72
     2
 73
     0
 90
        0
 40
-0.6
 41
-30.0
 62
     5
 63
     7
 74
     1
 91
        4
 64
     7
 65
   257
 75
     1
175
     1
 42
1.0
 92
        0
 66
   257
 43
1.0
 76
     1
 77
     6
 78
     2
 67
     7
 79
     5
170
     0
171
     0
290
     0
174
     0
 93
        1
 44
0.0
173
     0
291
     0
 45
0.0
1001
ACAD
1000
AcDbSavedByObjectVersion
1070
     0
  0
VISUALSTYLE
  5
31
102
{ACAD_REACTORS
330
2A
102
}
330
2A
100
AcDbVisualStyle
  2
3D Hidden
 70
     6
 71
     1
 72
     2
 73
     2
 90
        0
 40
-0.6
 41
-30.0
 62
     5
 63
     7
 74
     2
 91
        2
 64
     7
 65
   257
 75
     2
175
     1
 42
40.0
 92
        0
 66
   257
 43
1.0
 76
     1
 77
     6
 78
     2
 67
     7
 79
     3
170
     0
171
     0
290
     0
174
     0
 93
        1
 44
0.0
173
     0
291
     0
 45
0.0
1001
ACAD
1000
AcDbSavedByObjectVersion
1070
     0
  0
VISUALSTYLE
  5
30
102
{ACAD_REACTORS
330
2A
102
}
330
2A
100
AcDbVisualStyle
  2
3dWireframe
 70
     5
 71
     0
 72
     2
 73
     0
 90
        0
 40
-0.6
 41
-30.0
 62
     5
 63
     7
 74
     1
 91
        4
 64
     7
 65
   257
 75
     1
175
     1
 42
1.0
 92
        0
 66
   257
 43
1.0
 76
     1
 77
     6
 78
     2
 67
     7
 79
     5
170
     0
171
     0
290
     0
174
     0
 93
        1
 44
0.0
173
     0
291
     0
 45
0.0
1001
ACAD
1000
AcDbSavedByObjectVersion
1070
     0
  0
VISUALSTYLE
  5
32
102
{ACAD_REACTORS
330
2A
102
}
330
2A
100
AcDbVisualStyle
  2
Basic
 70
     7
 71
     1
 72
     0
 73
     1
 90
        0
 40
-0.6
 41
-30.0
 62
     5
 63
     7
 74
     0
 91
        4
 64
     7
 65
   257
 75
     1
175
     1
 42
1.0
 92
        8
 66
     7
 43
1.0
 76
     1
 77
     6
 78
     2
 67
     7
 79
     5
170
     0
171
     0
290
     0
174
     0
 93
        1
 44
0.0
173
     0
291
     1
 45
0.0
1001
ACAD
1000
AcDbSavedByObjectVersion
1070
     0
  0
VISUALSTYLE
  5
36
102
{ACAD_REACTORS
330
2A
102
}
330
2A
100
AcDbVisualStyle
  2
Brighten
 70
    12
 71
     2
 72
     2
 73
     0
 90
        0
 40
-0.6
 41
-30.0
 62
     5
 63
     7
 74
     1
 91
        4
 64
     7
 65
   257
 75
     1
175
     1
 42
1.0
 92
        8
 66
     7
 43
1.0
 76
     1
 77
     6
 78
     2
 67
     7
 79
     5
170
     0
171
     0
290
     0
174
     0
 93
        1
 44
50.0
173
     0
291
     1
 45
0.0
1001
ACAD
1000
AcDbSavedByObjectVersion
1070
     0
  0
VISUALSTYLE
  5
3A
102
{ACAD_REACTORS
330
2A
102
}
330
2A
100
AcDbVisualStyle
  2
ColorChange
 70
    16
 71
     2
 72
     2
 73
     3
 90
        0
 40
-0.6
 41
-30.0
 62
     5
 63
     8
 74
     1
 91
        4
 64
     7
 65
   257
 75
     1
175
     1
 42
1.0
 92
        8
 66
     8
 43
1.0
 76
     1
 77
     6
 78
     2
 67
     7
 79
     5
170
     0
171
     0
290
     0
174
     0
 93
        1
 44
0.0
173
     0
291
     1
 45
0.0
1001
ACAD
1000
AcDbSavedByObjectVersion
1070
     0
  0
VISUALSTYLE
  5
34
102
{ACAD_REACTORS
330
2A
102
}
330
2A
100
AcDbVisualStyle
  2
Conceptual
 70
     9
 71
     3
 72
     2
 73
     0
 90
        0
 40
-0.6
 41
-30.0
 62
     5
 63
     7
 74
     2
 91
        2
 64
     7
 65
   257
 75
     1
175
     1
 42
40.0
 92
        8
 66
     7
 43
1.0
 76
     1
 77
     6
 78
     2
 67
     7
 79
     3
170
     0
171
     0
290
     0
174
     0
 93
        1
 44
0.0
173
     0
291
     0
 45
0.0
1001
ACAD
1000
AcDbSavedByObjectVersion
1070
     0
  0
VISUALSTYLE
  5
35
102
{ACAD_REACTORS
330
2A
102
}
330
2A
100
AcDbVisualStyle
  2
Dim
 70
    11
 71
     2
 72
     2
 73
     0
 90
        0
 40
-0.6
 41
-30.0
 62
     5
 63
     7
 74
     1
 91
        4
 64
     7
 65
   257
 75
     1
175
     1
 42
1.0
 92
        8
 66
     7
 43
1.0
 76
     1
 77
     6
 78
     2
 67
     7
 79
     5
170
     0
171
     0
290
     0
174
     0
 93
        1
 44
-50.0
173
     0
291
     1
 45
0.0
1001
ACAD
1000
AcDbSavedByObjectVersion
1070
     0
  0
VISUALSTYLE
  5
39
102
{ACAD_REACTORS
330
2A
102
}
330
2A
100
AcDbVisualStyle
  2
Facepattern
 70
    15
 71
     2
 72
     2
 73
     0
 90
        0
 40
-0.6
 41
-30.0
 62
     5
 63
     7
 74
     1
 91
        4
 64
     7
 65
   257
 75
     1
175
     1
 42
1.0
 92
        8
 66
     7
 43
1.0
 76
     1
 77
     6
 78
     2
 67
     7
 79
     5
170
     0
171
     0
290
     0
174
     0
 93
        1
 44
0.0
173
     0
291
     1
 45
0.0
1001
ACAD
1000
AcDbSavedByObjectVersion
1070
     0
  0
VISUALSTYLE
  5
2B
102
{ACAD_REACTORS
330
2A
102
}
330
2A
100
AcDbVisualStyle
  2
Flat
 70
     0
 71
     2
 72
     1
 73
     1
 90
        2
 40
-0.6
 41
30.0
 62
     5
 63
     7
 74
     0
 91
        4
 64
     7
 65
   257
 75
     1
175
     1
 42
1.0
 92
        8
 66
     7
 43
1.0
 76
     1
 77
     6
 78
     2
 67
     7
 79
     5
170
     0
171
     0
290
     0
174
     0
 93
       13
 44
0.0
173
     0
291
     1
 45
0.0
1001
ACAD
1000
AcDbSavedByObjectVersion
1070
     0
  0
VISUALSTYLE
  5
2C
102
{ACAD_REACTORS
330
2A
102
}
330
2A
100
AcDbVisualStyle
  2
FlatWithEdges
 70
     1
 71
     2
 72
     1
 73
     1
 90
        2
 40
-0.6
 41
30.0
 62
     5
 63
     7
 74
     1
 91
        4
 64
     7
 65
   257
 75
     1
175
     1
 42
1.0
 92
        0
 66
   257
 43
1.0
 76
     1
 77
     6
 78
     2
 67
     7
 79
     5
170
     0
171
     0
290
     0
174
     0
 93
       13
 44
0.0
173
     0
291
     1
 45
0.0
1001
ACAD
1000
AcDbSavedByObjectVersion
1070
     0
  0
VISUALSTYLE
  5
2D
102
{ACAD_REACTORS
330
2A
102
}
330
2A
100
AcDbVisualStyle
  2
Gouraud
 70
     2
 71
     2
 72
     2
 73
     1
 90
        2
 40
-0.6
 41
30.0
 62
     5
 63
     7
 74
     0
 91
        4
 64
     7
 65
   257
 75
     1
175
     1
 42
1.0
 92
        0
 66
     7
 43
1.0
 76
     1
 77
     6
 78
     2
 67
     7
 79
     5
170
     0
171
     0
290
     0
174
     0
 93
       13
 44
0.0
173
     0
291
     1
 45
0.0
1001
ACAD
1000
AcDbSavedByObjectVersion
1070
     0
  0
VISUALSTYLE
  5
2E
102
{ACAD_REACTORS
330
2A
102
}
330
2A
100
AcDbVisualStyle
  2
GouraudWithEdges
 70
     3
 71
     2
 72
     2
 73
     1
 90
        2
 40
-0.6
 41
30.0
 62
     5
 63
     7
 74
     1
 91
        4
 64
     7
 65
   257
 75
     1
175
     1
 42
1.0
 92
        0
 66
   257
 43
1.0
 76
     1
 77
     6
 78
     2
 67
     7
 79
     5
170
     0
171
     0
290
     0
174
     0
 93
       13
 44
0.0
173
     0
291
     1
 45
0.0
1001
ACAD
1000
AcDbSavedByObjectVersion
1070
     0
  0
VISUALSTYLE
  5
38
102
{ACAD_REACTORS
330
2A
102
}
330
2A
100
AcDbVisualStyle
  2
Linepattern
 70
    14
 71
     2
 72
     2
 73
     0
 90
        0
 40
-0.6
 41
-30.0
 62
     5
 63
     7
 74
     1
 91
        4
 64
     7
 65
   257
 75
     7
175
     7
 42
1.0
 92
        8
 66
     7
 43
1.0
 76
     1
 77
     6
 78
     2
 67
     7
 79
     5
170
     0
171
     0
290
     0
174
     0
 93
        1
 44
0.0
173
     0
291
     1
 45
0.0
1001
ACAD
1000
AcDbSavedByObjectVersion
1070
     0
  0
VISUALSTYLE
  5
33
102
{ACAD_REACTORS
330
2A
102
}
330
2A
100
AcDbVisualStyle
  2
Realistic
 70
     8
 71
     2
 72
     2
 73
     0
 90
        0
 40
-0.6
 41
-30.0
 62
     5
 63
     7
 74
     1
 91
        0
 64
     7
 65
   257
 75
     1
175
     1
 42
1.0
 92
        8
 66
     8
 43
1.0
 76
     1
 77
     6
 78
     2
 67
     7
 79
     5
170
     0
171
     0
290
     0
174
     0
 93
       13
 44
0.0
173
     0
291
     0
 45
0.0
1001
ACAD
1000
AcDbSavedByObjectVersion
1070
     0
  0
VISUALSTYLE
  5
37
102
{ACAD_REACTORS
330
2A
102
}
330
2A
100
AcDbVisualStyle
  2
Thicken
 70
    13
 71
     2
 72
     2
 73
     0
 90
        0
 40
-0.6
 41
-30.0
 62
     5
 63
     7
 74
     1
 91
        4
 64
     7
 65
   257
 75
     1
175
     1
 42
1.0
 92
       12
 66
     7
 43
1.0
 76
     1
 77
     6
 78
     2
 67
     7
 79
     5
170
     0
171
     0
290
     0
174
     0
 93
        1
 44
0.0
173
     0
291
     1
 45
0.0
1001
ACAD
1000
AcDbSavedByObjectVersion
1070
     0
  0
DICTIONARYVAR
  5
1A0
102
{ACAD_REACTORS
330
19C
102
}
330
19C
100
DictionaryVariables
280
     0
  1
80.000000
  0
DICTIONARYVAR
  5
19F
102
{ACAD_REACTORS
330
19C
102
}
330
19C
100
DictionaryVariables
280
     0
  1
5.000000
  0
ENDSEC
  0
EOF
